  0
SECTION
  2
HEADER
  9
$ACADVER
  1
AC1012
  9
$DWGCODEPAGE
  3
ansi_932
  9
$INSBASE
 10
0.0
 20
0.0
 30
0.0
  9
$EXTMIN
 10
-1355.977177111727
 20
-1137.369401450935
 30
0.0
  9
$EXTMAX
 10
-1014.178365059593
 20
-901.7360988861793
 30
0.0
  9
$LIMMIN
 10
0.0
 20
0.0
  9
$LIMMAX
 10
420.0
 20
297.0
  9
$ORTHOMODE
 70
     0
  9
$REGENMODE
 70
     1
  9
$FILLMODE
 70
     1
  9
$QTEXTMODE
 70
     0
  9
$MIRRTEXT
 70
     1
  9
$DRAGMODE
 70
     2
  9
$LTSCALE
 40
0.5
  9
$OSMODE
 70
  2399
  9
$ATTMODE
 70
     1
  9
$TEXTSIZE
 40
2.5
  9
$TRACEWID
 40
1.0
  9
$TEXTSTYLE
  7
STANDARD
  9
$CLAYER
  8
1TEXT
  9
$CELTYPE
  6
BYLAYER
  9
$CECOLOR
 62
   256
  9
$CELTSCALE
 40
1.0
  9
$DELOBJ
 70
     1
  9
$DISPSILH
 70
     0
  9
$DIMSCALE
 40
1.0
  9
$DIMASZ
 40
2.0
  9
$DIMEXO
 40
0.0
  9
$DIMDLI
 40
7.0
  9
$DIMRND
 40
0.0
  9
$DIMDLE
 40
0.0
  9
$DIMEXE
 40
1.0
  9
$DIMTP
 40
0.0
  9
$DIMTM
 40
0.0
  9
$DIMTXT
 40
3.5
  9
$DIMCEN
 40
0.0
  9
$DIMTSZ
 40
0.0
  9
$DIMTOL
 70
     0
  9
$DIMLIM
 70
     0
  9
$DIMTIH
 70
     0
  9
$DIMTOH
 70
     0
  9
$DIMSE1
 70
     0
  9
$DIMSE2
 70
     0
  9
$DIMTAD
 70
     1
  9
$DIMZIN
 70
     8
  9
$DIMBLK
  1

  9
$DIMASO
 70
     1
  9
$DIMSHO
 70
     1
  9
$DIMPOST
  1
 
  9
$DIMAPOST
  1

  9
$DIMALT
 70
     0
  9
$DIMALTD
 70
     2
  9
$DIMALTF
 40
25.4
  9
$DIMLFAC
 40
1.0
  9
$DIMTOFL
 70
     1
  9
$DIMTVP
 40
0.0
  9
$DIMTIX
 70
     0
  9
$DIMSOXD
 70
     0
  9
$DIMSAH
 70
     1
  9
$DIMBLK1
  1
OPEN30
  9
$DIMBLK2
  1
OPEN30
  9
$DIMSTYLE
  2
NEWX10
  9
$DIMCLRD
 70
   256
  9
$DIMCLRE
 70
   256
  9
$DIMCLRT
 70
   201
  9
$DIMTFAC
 40
0.7
  9
$DIMGAP
 40
0.7
  9
$DIMJUST
 70
     0
  9
$DIMSD1
 70
     0
  9
$DIMSD2
 70
     0
  9
$DIMTOLJ
 70
     1
  9
$DIMTZIN
 70
     8
  9
$DIMALTZ
 70
     0
  9
$DIMALTTZ
 70
     0
  9
$DIMFIT
 70
     2
  9
$DIMUPT
 70
     0
  9
$DIMUNIT
 70
     2
  9
$DIMDEC
 70
     2
  9
$DIMTDEC
 70
     4
  9
$DIMALTU
 70
     2
  9
$DIMALTTD
 70
     2
  9
$DIMTXSTY
  7
STANDARD
  9
$DIMAUNIT
 70
     0
  9
$LUNITS
 70
     2
  9
$LUPREC
 70
     4
  9
$SKETCHINC
 40
1.0
  9
$FILLETRAD
 40
0.0
  9
$AUNITS
 70
     0
  9
$AUPREC
 70
     0
  9
$MENU
  1
acad
  9
$ELEVATION
 40
0.0
  9
$PELEVATION
 40
0.0
  9
$THICKNESS
 40
0.0
  9
$LIMCHECK
 70
     0
  9
$CHAMFERA
 40
10.0
  9
$CHAMFERB
 40
10.0
  9
$CHAMFERC
 40
20.0
  9
$CHAMFERD
 40
0.0
  9
$SKPOLY
 70
     0
  9
$TDCREATE
 40
2451027.627421296
  9
$TDUPDATE
 40
2459299.460112431
  9
$TDINDWG
 40
1.1796703356
  9
$TDUSRTIMER
 40
1.1796703356
  9
$USRTIMER
 70
     1
  9
$ANGBASE
 50
0.0
  9
$ANGDIR
 70
     0
  9
$PDMODE
 70
     0
  9
$PDSIZE
 40
0.0
  9
$PLINEWID
 40
0.0
  9
$COORDS
 70
     2
  9
$SPLFRAME
 70
     0
  9
$SPLINETYPE
 70
     6
  9
$SPLINESEGS
 70
     8
  9
$ATTDIA
 70
     0
  9
$ATTREQ
 70
     1
  9
$HANDLING
 70
     1
  9
$HANDSEED
  5
8CB2
  9
$SURFTAB1
 70
     6
  9
$SURFTAB2
 70
     6
  9
$SURFTYPE
 70
     6
  9
$SURFU
 70
     6
  9
$SURFV
 70
     6
  9
$UCSNAME
  2

  9
$UCSORG
 10
0.0
 20
0.0
 30
0.0
  9
$UCSXDIR
 10
1.0
 20
0.0
 30
0.0
  9
$UCSYDIR
 10
0.0
 20
1.0
 30
0.0
  9
$PUCSNAME
  2

  9
$PUCSORG
 10
0.0
 20
0.0
 30
0.0
  9
$PUCSXDIR
 10
1.0
 20
0.0
 30
0.0
  9
$PUCSYDIR
 10
0.0
 20
1.0
 30
0.0
  9
$USERI1
 70
     0
  9
$USERI2
 70
     0
  9
$USERI3
 70
     0
  9
$USERI4
 70
     0
  9
$USERI5
 70
     0
  9
$USERR1
 40
0.0
  9
$USERR2
 40
0.0
  9
$USERR3
 40
0.0
  9
$USERR4
 40
0.0
  9
$USERR5
 40
6.0
  9
$WORLDVIEW
 70
     1
  9
$SHADEDGE
 70
     3
  9
$SHADEDIF
 70
    70
  9
$TILEMODE
 70
     1
  9
$MAXACTVP
 70
    48
  9
$PINSBASE
 10
0.0
 20
0.0
 30
0.0
  9
$PLIMCHECK
 70
     0
  9
$PEXTMIN
 10
1.000000000000000E+20
 20
1.000000000000000E+20
 30
1.000000000000000E+20
  9
$PEXTMAX
 10
-1.000000000000000E+20
 20
-1.000000000000000E+20
 30
-1.000000000000000E+20
  9
$PLIMMIN
 10
0.0
 20
0.0
  9
$PLIMMAX
 10
420.0
 20
297.0
  9
$UNITMODE
 70
     0
  9
$VISRETAIN
 70
     1
  9
$PLINEGEN
 70
     0
  9
$PSLTSCALE
 70
     1
  9
$TREEDEPTH
 70
  3020
  9
$PICKSTYLE
 70
     0
  9
$CMLSTYLE
  2
STANDARD
  9
$CMLJUST
 70
     0
  9
$CMLSCALE
 40
20.0
  9
$SAVEIMAGES
 70
     1
  0
ENDSEC
  0
SECTION
  2
CLASSES
  0
CLASS
  1
IDBUFFER
  2
AcDbIdBuffer
  3
ObjectDBX Classes
 90
    32768
280
     0
281
     0
  0
CLASS
  1
LWPOLYLINE
  2
AcDbPolyline
  3
ObjectDBX Classes
 90
    32768
280
     0
281
     1
  0
CLASS
  1
DICTIONARYVAR
  2
AcDbDictionaryVar
  3
ObjectDBX Classes
 90
        0
280
     0
281
     0
  0
CLASS
  1
HATCH
  2
AcDbHatch
  3
ObjectDBX Classes
 90
    32768
280
     0
281
     1
  0
CLASS
  1
ACDBDICTIONARYWDFLT
  2
AcDbDictionaryWithDefault
  3
ObjectDBX Classes
 90
    32768
280
     0
281
     0
  0
CLASS
  1
TABLESTYLE
  2
AcDbTableStyle
  3
ObjectDBX Classes
 90
     4095
280
     0
281
     0
  0
CLASS
  1
SORTENTSTABLE
  2
AcDbSortentsTable
  3
ObjectDBX Classes
 90
    32768
280
     0
281
     0
  0
CLASS
  1
ACDBPLACEHOLDER
  2
AcDbPlaceHolder
  3
ObjectDBX Classes
 90
        0
280
     0
281
     0
  0
CLASS
  1
LAYOUT
  2
AcDbLayout
  3
ObjectDBX Classes
 90
        0
280
     0
281
     0
  0
CLASS
  1
MATERIAL
  2
AcDbMaterial
  3
ObjectDBX Classes
 90
     1153
280
     0
281
     0
  0
CLASS
  1
VISUALSTYLE
  2
AcDbVisualStyle
  3
ObjectDBX Classes
 90
     4095
280
     0
281
     0
  0
CLASS
  1
SCALE
  2
AcDbScale
  3
ObjectDBX Classes
 90
     1153
280
     0
281
     0
  0
CLASS
  1
MLEADERSTYLE
  2
AcDbMLeaderStyle
  3
ACDB_MLEADERSTYLE_CLASS
 90
     4095
280
     0
281
     0
  0
CLASS
  1
CELLSTYLEMAP
  2
AcDbCellStyleMap
  3
ObjectDBX Classes
 90
     1152
280
     0
281
     0
  0
CLASS
  1
SUN
  2
AcDbSun
  3
SCENEOE
 90
     1153
280
     0
281
     0
  0
CLASS
  1
XRECORD
  2
AcDbXrecord
  3
ObjectDBX Classes
 90
    32768
280
     0
281
     0
  0
ENDSEC
  0
SECTION
  2
TABLES
  0
TABLE
  2
VPORT
  5
8
330
0
100
AcDbSymbolTable
 70
     1
  0
VPORT
  5
7EA2
330
8
100
AcDbSymbolTableRecord
100
AcDbViewportTableRecord
  2
*ACTIVE
 70
     0
 10
0.0
 20
0.0
 11
1.0
 21
1.0
 12
-1185.07777108566
 22
-1019.552750168557
 13
0.0
 23
0.0
 14
10.0
 24
10.0
 15
10.0
 25
10.0
 16
0.0
 26
0.0
 36
1.0
 17
0.0
 27
0.0
 37
0.0
 40
252.9957564379479
 41
1.858156028368794
 42
50.0
 43
0.0
 44
0.0
 50
0.0
 51
0.0
 71
    16
 72
   100
 73
     1
 74
     1
 75
     0
 76
     0
 77
     0
 78
     0
1001
ACAD_NAV_VCDISPLAY
1070
     3
  0
ENDTAB
  0
TABLE
  2
LTYPE
  5
5
330
0
100
AcDbSymbolTable
 70
     5
  0
LTYPE
  5
12
330
5
100
AcDbSymbolTableRecord
100
AcDbLinetypeTableRecord
  2
BYBLOCK
 70
     0
  3

 72
    65
 73
     0
 40
0.0
  0
LTYPE
  5
13
330
5
100
AcDbSymbolTableRecord
100
AcDbLinetypeTableRecord
  2
BYLAYER
 70
     0
  3

 72
    65
 73
     0
 40
0.0
  0
LTYPE
  5
14
330
5
100
AcDbSymbolTableRecord
100
AcDbLinetypeTableRecord
  2
CONTINUOUS
 70
     0
  3
Solid line
 72
    65
 73
     0
 40
0.0
  0
LTYPE
  5
741F
330
5
100
AcDbSymbolTableRecord
100
AcDbLinetypeTableRecord
  2
A3WAKUDAKE|CENTER2
 70
    48
  3
Center (.5x) ___ _ ___ _ ___ _ ___ _ ___ _ ___
 72
    65
 73
     4
 40
28.575
 49
19.05
 74
     0
 49
-3.175
 74
     0
 49
3.175
 74
     0
 49
-3.175
 74
     0
  0
LTYPE
  5
7421
330
5
100
AcDbSymbolTableRecord
100
AcDbLinetypeTableRecord
  2
XREF1|CENTER2
 70
    48
  3
Center (.5x) ___ _ ___ _ ___ _ ___ _ ___ _ ___
 72
    65
 73
     4
 40
28.575
 49
19.05
 74
     0
 49
-3.175
 74
     0
 49
3.175
 74
     0
 49
-3.175
 74
     0
  0
LTYPE
  5
88BC
330
5
100
AcDbSymbolTableRecord
100
AcDbLinetypeTableRecord
  2
CENTER2
 70
     0
  3
Center (.5x) ___ _ ___ _ ___ _ ___ _ ___ _ ___
 72
    65
 73
     4
 40
28.575
 49
19.05
 74
     0
 49
-3.175
 74
     0
 49
3.175
 74
     0
 49
-3.175
 74
     0
  0
LTYPE
  5
893C
330
5
100
AcDbSymbolTableRecord
100
AcDbLinetypeTableRecord
  2
HIDDEN
 70
     0
  3
Hidden __ __ __ __ __ __ __ __ __ __ __ __ __ _
 72
    65
 73
     2
 40
9.524999999999999
 49
6.35
 74
     0
 49
-3.175
 74
     0
  0
ENDTAB
  0
TABLE
  2
LAYER
  5
2
102
{ACAD_XDICTIONARY
360
80FA
102
}
330
0
100
AcDbSymbolTable
 70
    11
  0
LAYER
  5
E
102
{ACAD_XDICTIONARY
360
7F02
102
}
330
2
100
AcDbSymbolTableRecord
100
AcDbLayerTableRecord
  2
0
 70
     0
 62
     7
  6
CONTINUOUS
  0
LAYER
  5
20
102
{ACAD_XDICTIONARY
360
7F04
102
}
330
2
100
AcDbSymbolTableRecord
100
AcDbLayerTableRecord
  2
1CENTER
 70
     0
 62
     7
  6
CENTER2
  0
LAYER
  5
22
102
{ACAD_XDICTIONARY
360
7F06
102
}
330
2
100
AcDbSymbolTableRecord
100
AcDbLayerTableRecord
  2
1DIM
 70
     0
 62
     7
  6
CONTINUOUS
  0
LAYER
  5
25
102
{ACAD_XDICTIONARY
360
7F08
102
}
330
2
100
AcDbSymbolTableRecord
100
AcDbLayerTableRecord
  2
1TEXT
 70
     0
 62
     7
  6
CONTINUOUS
  0
LAYER
  5
62D9
102
{ACAD_XDICTIONARY
360
7F14
102
}
330
2
100
AcDbSymbolTableRecord
100
AcDbLayerTableRecord
  2
01
 70
     0
 62
     1
  6
CONTINUOUS
  0
LAYER
  5
6F76
102
{ACAD_XDICTIONARY
360
7F22
102
}
330
2
100
AcDbSymbolTableRecord
100
AcDbLayerTableRecord
  2
1HATCH
 70
     0
 62
     7
  6
CONTINUOUS
  0
LAYER
  5
741B
102
{ACAD_XDICTIONARY
360
7F3A
102
}
330
2
100
AcDbSymbolTableRecord
100
AcDbLayerTableRecord
  2
A3WAKUDAKE|THICK
 70
    48
 62
     7
  6
CONTINUOUS
  0
LAYER
  5
741C
102
{ACAD_XDICTIONARY
360
7F3C
102
}
330
2
100
AcDbSymbolTableRecord
100
AcDbLayerTableRecord
  2
A3WAKUDAKE|POINT
 70
    48
 62
     7
  6
CONTINUOUS
  0
LAYER
  5
741D
102
{ACAD_XDICTIONARY
360
7F3E
102
}
330
2
100
AcDbSymbolTableRecord
100
AcDbLayerTableRecord
  2
A3WAKUDAKE|1CENTER
 70
    48
 62
     7
  6
A3WAKUDAKE|CENTER2
  0
LAYER
  5
7B21
102
{ACAD_XDICTIONARY
360
7F40
102
}
330
2
100
AcDbSymbolTableRecord
100
AcDbLayerTableRecord
  2
A3WAKUDAKE|0-6
 70
    48
 62
     7
  6
CONTINUOUS
  0
LAYER
  5
893D
330
2
100
AcDbSymbolTableRecord
100
AcDbLayerTableRecord
  2
1HIDDEN
 70
     0
 62
     7
  6
HIDDEN
  0
ENDTAB
  0
TABLE
  2
STYLE
  5
3
330
0
100
AcDbSymbolTable
 70
     3
  0
STYLE
  5
F
330
3
100
AcDbSymbolTableRecord
100
AcDbTextStyleTableRecord
  2
STANDARD
 70
     0
 40
0.0
 41
1.0
 50
0.0
 71
     0
 42
2.5
  3
txt.shx
  4
extfont.shx
  0
STYLE
  5
8B31
330
3
100
AcDbSymbolTableRecord
100
AcDbTextStyleTableRecord
  2
A3WAKUDAKE|STANDARD
 70
    48
 40
0.0
 41
1.0
 50
0.0
 71
     0
 42
2.5
  3
romans.shx
  4
extfont.shx
  0
STYLE
  5
8B59
330
3
100
AcDbSymbolTableRecord
100
AcDbTextStyleTableRecord
  2
XREF1|STANDARD
 70
    48
 40
0.0
 41
1.0
 50
0.0
 71
     0
 42
2.5
  3
romans.shx
  4
extfont.shx
  0
ENDTAB
  0
TABLE
  2
VIEW
  5
6
330
0
100
AcDbSymbolTable
 70
     0
  0
ENDTAB
  0
TABLE
  2
UCS
  5
7
330
0
100
AcDbSymbolTable
 70
     0
  0
ENDTAB
  0
TABLE
  2
APPID
  5
9
330
0
100
AcDbSymbolTable
 70
    12
  0
APPID
  5
10
330
9
100
AcDbSymbolTableRecord
100
AcDbRegAppTableRecord
  2
ACAD
 70
     0
  0
APPID
  5
39
330
9
100
AcDbSymbolTableRecord
100
AcDbRegAppTableRecord
  2
CONTENTTABDATA
 70
     0
  0
APPID
  5
3A
330
9
100
AcDbSymbolTableRecord
100
AcDbRegAppTableRecord
  2
CONTENTCURRENTTAB
 70
     0
  0
APPID
  5
3B
330
9
100
AcDbSymbolTableRecord
100
AcDbRegAppTableRecord
  2
CONTENTBLOCKICON
 70
     0
  0
APPID
  5
3C
330
9
100
AcDbSymbolTableRecord
100
AcDbRegAppTableRecord
  2
CONTENTBLOCKDESCRIPTION
 70
     0
  0
APPID
  5
4B9C
330
9
100
AcDbSymbolTableRecord
100
AcDbRegAppTableRecord
  2
DRAWINGVARIABLESXDATA
 70
     0
  0
APPID
  5
6C99
330
9
100
AcDbSymbolTableRecord
100
AcDbRegAppTableRecord
  2
CONTENTLONGBLOCKNAME
 70
     0
  0
APPID
  5
7B24
330
9
100
AcDbSymbolTableRecord
100
AcDbRegAppTableRecord
  2
ACAD_PSEXT
 70
     0
  0
APPID
  5
7EFC
330
9
100
AcDbSymbolTableRecord
100
AcDbRegAppTableRecord
  2
ACAD_MLEADERVER
 70
     0
  0
APPID
  5
8101
330
9
100
AcDbSymbolTableRecord
100
AcDbRegAppTableRecord
  2
ACAD_NAV_VCDISPLAY
 70
     0
  0
APPID
  5
814F
330
9
100
AcDbSymbolTableRecord
100
AcDbRegAppTableRecord
  2
ACLAYERTOOLS
 70
     0
  0
APPID
  5
85F0
330
9
100
AcDbSymbolTableRecord
100
AcDbRegAppTableRecord
  2
ACAD_EXEMPT_FROM_CAD_STAND
 70
     0
  0
ENDTAB
  0
TABLE
  2
DIMSTYLE
  5
A
330
0
100
AcDbSymbolTable
 70
     1
  0
DIMSTYLE
105
49
330
A
100
AcDbSymbolTableRecord
100
AcDbDimStyleTableRecord
  2
NEWX10
 70
     0
  3
 
  4

  5

  6
OPEN30
  7
OPEN30
 40
1.0
 41
2.0
 42
0.0
 43
7.0
 44
1.0
 45
0.0
 46
0.0
 47
0.0
 48
0.0
140
3.5
141
0.0
142
0.0
143
25.4
144
1.0
145
0.0
146
0.7
147
0.7
 71
     0
 72
     0
 73
     0
 74
     0
 75
     0
 76
     0
 77
     1
 78
     8
170
     0
171
     2
172
     1
173
     1
174
     0
175
     0
176
   256
177
   256
178
   201
270
     2
271
     2
272
     4
273
     2
274
     2
340
F
275
     0
280
     0
281
     0
282
     0
283
     1
284
     8
285
     0
286
     0
287
     2
288
     0
  0
ENDTAB
  0
TABLE
  2
BLOCK_RECORD
  5
1
330
0
100
AcDbSymbolTable
 70
     3
  0
BLOCK_RECORD
  5
18
102
{ACAD_XDICTIONARY
360
7E3D
102
}
330
1
100
AcDbSymbolTableRecord
100
AcDbBlockTableRecord
  2
*MODEL_SPACE
  0
BLOCK_RECORD
  5
15
330
1
100
AcDbSymbolTableRecord
100
AcDbBlockTableRecord
  2
*PAPER_SPACE
  0
BLOCK_RECORD
  5
2EF
330
1
100
AcDbSymbolTableRecord
100
AcDbBlockTableRecord
  2
_OPEN30
  0
BLOCK_RECORD
  5
7415
330
1
100
AcDbSymbolTableRecord
100
AcDbBlockTableRecord
  2
A3WAKUDAKE
  0
BLOCK_RECORD
  5
7418
330
1
100
AcDbSymbolTableRecord
100
AcDbBlockTableRecord
  2
XREF1
  0
ENDTAB
  0
ENDSEC
  0
SECTION
  2
BLOCKS
  0
BLOCK
  5
19
330
18
100
AcDbEntity
  8
0
100
AcDbBlockBegin
  2
*MODEL_SPACE
 70
     0
 10
0.0
 20
0.0
 30
0.0
  3
*MODEL_SPACE
  1

  0
ENDBLK
  5
1A
330
18
100
AcDbEntity
  8
0
100
AcDbBlockEnd
  0
BLOCK
  5
16
330
15
100
AcDbEntity
 67
     1
  8
0
100
AcDbBlockBegin
  2
*PAPER_SPACE
 70
     0
 10
0.0
 20
0.0
 30
0.0
  3
*PAPER_SPACE
  1

  0
ENDBLK
  5
17
330
15
100
AcDbEntity
 67
     1
  8
0
100
AcDbBlockEnd
  0
BLOCK
  5
2F0
330
2EF
100
AcDbEntity
  8
0
100
AcDbBlockBegin
  2
_OPEN30
 70
     0
 10
0.0
 20
0.0
 30
0.0
  3
_OPEN30
  1

  0
LINE
  5
2F1
330
2EF
100
AcDbEntity
  8
0
  6
BYBLOCK
 62
     0
100
AcDbLine
 10
-1.0
 20
0.26794919
 30
0.0
 11
0.0
 21
0.0
 31
0.0
  0
LINE
  5
2F2
330
2EF
100
AcDbEntity
  8
0
  6
BYBLOCK
 62
     0
100
AcDbLine
 10
0.0
 20
0.0
 30
0.0
 11
-1.0
 21
-0.26794919
 31
0.0
  0
LINE
  5
2F3
330
2EF
100
AcDbEntity
  8
0
  6
BYBLOCK
 62
     0
100
AcDbLine
 10
0.0
 20
0.0
 30
0.0
 11
-1.0
 21
0.0
 31
0.0
  0
ENDBLK
  5
2F4
330
2EF
100
AcDbEntity
  8
0
100
AcDbBlockEnd
  0
BLOCK
  5
7416
330
7415
100
AcDbEntity
  8
0
100
AcDbBlockBegin
  2
A3WAKUDAKE
 70
   100
 10
0.0
 20
0.0
 30
0.0
  3
A3WAKUDAKE
  1
D:\ACLT\FORMAT\A3WAKUdake.dwg
  0
ENDBLK
  5
7417
330
7415
100
AcDbEntity
  8
0
100
AcDbBlockEnd
  0
BLOCK
  5
7419
330
7418
100
AcDbEntity
  8
0
100
AcDbBlockBegin
  2
XREF1
 70
   100
 10
0.0
 20
0.0
 30
0.0
  3
XREF1
  1
D:\ACLT\FORMAT\KAWAJUN(9)図面用.dwg
  0
ENDBLK
  5
741A
330
7418
100
AcDbEntity
  8
0
100
AcDbBlockEnd
  0
ENDSEC
  0
SECTION
  2
ENTITIES
  0
LINE
  5
83A7
330
18
100
AcDbEntity
  8
1CENTER
100
AcDbLine
 10
-1311.011997545178
 20
-1023.177282245335
 30
0.0
 11
-1311.011997545178
 21
-1044.181829244314
 31
0.0
  0
LINE
  5
83A8
330
18
100
AcDbEntity
  8
1CENTER
100
AcDbLine
 10
-1191.011997545178
 20
-1023.177282245335
 30
0.0
 11
-1191.011997545178
 21
-1044.181829244314
 31
0.0
  0
ARC
  5
83A9
330
18
100
AcDbEntity
  8
01
100
AcDbCircle
 10
-1332.51199695843
 20
-1065.124512500609
 30
0.0
 40
4.5
100
AcDbArc
 50
180.0
 51
270.0
  0
LINE
  5
83AA
330
18
100
AcDbEntity
  8
01
100
AcDbLine
 10
-1307.011997617301
 20
-1026.624512500609
 30
0.0
 11
-1307.011997617301
 21
-1039.124512500609
 31
0.0
  0
LINE
  5
83AB
330
18
100
AcDbEntity
  8
01
100
AcDbLine
 10
-1187.011997643527
 20
-1026.624512500609
 30
0.0
 11
-1187.011997643527
 21
-1039.124512500609
 31
0.0
  0
LINE
  5
83AC
330
18
100
AcDbEntity
  8
01
100
AcDbLine
 10
-1307.511997617301
 20
-1026.124512500609
 30
0.0
 11
-1307.011997617301
 21
-1026.624512500609
 31
0.0
  0
LINE
  5
83AD
330
18
100
AcDbEntity
  8
01
100
AcDbLine
 10
-1187.511997643527
 20
-1026.124512500609
 30
0.0
 11
-1187.011997643527
 21
-1026.624512500609
 31
0.0
  0
LINE
  5
83AE
330
18
100
AcDbEntity
  8
01
100
AcDbLine
 10
-1187.511997643527
 20
-1026.124512500609
 30
0.0
 11
-1194.511997643527
 21
-1026.124512500609
 31
0.0
  0
LINE
  5
83AF
330
18
100
AcDbEntity
  8
01
100
AcDbLine
 10
-1314.511997617301
 20
-1026.124512500609
 30
0.0
 11
-1307.511997617301
 21
-1026.124512500609
 31
0.0
  0
LINE
  5
83B0
330
18
100
AcDbEntity
  8
01
100
AcDbLine
 10
-1195.011997643527
 20
-1026.624512500609
 30
0.0
 11
-1194.511997643527
 21
-1026.124512500609
 31
0.0
  0
LINE
  5
83B1
330
18
100
AcDbEntity
  8
01
100
AcDbLine
 10
-1315.011997617301
 20
-1026.624512500609
 30
0.0
 11
-1314.511997617301
 21
-1026.124512500609
 31
0.0
  0
LINE
  5
83B2
330
18
100
AcDbEntity
  8
01
100
AcDbLine
 10
-1195.011997643527
 20
-1039.124512500609
 30
0.0
 11
-1195.011997643527
 21
-1026.624512500609
 31
0.0
  0
LINE
  5
83B3
330
18
100
AcDbEntity
  8
01
100
AcDbLine
 10
-1315.011997617301
 20
-1039.124512500609
 30
0.0
 11
-1315.011997617301
 21
-1026.624512500609
 31
0.0
  0
LINE
  5
83B4
330
18
100
AcDbEntity
  8
01
100
AcDbLine
 10
-1337.01199695843
 20
-1039.124512500609
 30
0.0
 11
-1337.01199695843
 21
-1065.124512500609
 31
0.0
  0
LINE
  5
83B5
330
18
100
AcDbEntity
  8
01
100
AcDbLine
 10
-1332.51199695843
 20
-1069.624512500609
 30
0.0
 11
-1169.511997338723
 21
-1069.624512500609
 31
0.0
  0
LINE
  5
83B6
330
18
100
AcDbEntity
  8
01
100
AcDbLine
 10
-1316.511997827467
 20
-1064.624512500609
 30
0.0
 11
-1185.511997826246
 21
-1064.624512500609
 31
0.0
  0
ARC
  5
83B7
330
18
100
AcDbEntity
  8
01
100
AcDbCircle
 10
-1185.511997826246
 20
-1059.624512500609
 30
0.0
 40
5.0
100
AcDbArc
 50
270.0
 51
0.0
  0
ARC
  5
83B8
330
18
100
AcDbEntity
  8
01
100
AcDbCircle
 10
-1316.511997827467
 20
-1059.624512500609
 30
0.0
 40
5.0
100
AcDbArc
 50
180.0
 51
270.0
  0
ARC
  5
83B9
330
18
100
AcDbEntity
  8
01
100
AcDbCircle
 10
-1169.511997338723
 20
-1065.124512500609
 30
0.0
 40
4.5
100
AcDbArc
 50
270.0
 51
0.0
  0
LINE
  5
83BA
330
18
100
AcDbEntity
  8
01
100
AcDbLine
 10
-1165.011997338723
 20
-1039.124512500609
 30
0.0
 11
-1165.011997338723
 21
-1065.124512500609
 31
0.0
  0
LINE
  5
83BB
330
18
100
AcDbEntity
  8
01
100
AcDbLine
 10
-1315.011997617301
 20
-1026.624512500609
 30
0.0
 11
-1307.011997617301
 21
-1026.624512500609
 31
0.0
  0
LINE
  5
83BC
330
18
100
AcDbEntity
  8
01
100
AcDbLine
 10
-1195.011997643527
 20
-1026.624512500609
 30
0.0
 11
-1187.011997643527
 21
-1026.624512500609
 31
0.0
  0
LINE
  5
83BD
330
18
100
AcDbEntity
  8
01
100
AcDbLine
 10
-1321.511997827467
 20
-1039.124512500609
 30
0.0
 11
-1321.511997827467
 21
-1059.624512500609
 31
0.0
  0
LINE
  5
83BE
330
18
100
AcDbEntity
  8
01
100
AcDbLine
 10
-1180.511997826246
 20
-1039.124512500609
 30
0.0
 11
-1180.511997826246
 21
-1059.624512500609
 31
0.0
  0
LINE
  5
83BF
330
18
100
AcDbEntity
  8
01
100
AcDbLine
 10
-1092.565181313241
 20
-1039.124512500609
 30
0.0
 11
-1092.565181313241
 21
-1026.624512500608
 31
0.0
  0
LINE
  5
83C0
330
18
100
AcDbEntity
  8
01
100
AcDbLine
 10
-1084.565181313241
 20
-1039.124512500609
 30
0.0
 11
-1084.565181313241
 21
-1026.624512500608
 31
0.0
  0
LINE
  5
83C1
330
18
100
AcDbEntity
  8
01
100
AcDbLine
 10
-1085.065090168235
 20
-1026.124603645617
 30
0.0
 11
-1084.565181313241
 21
-1026.624512500608
 31
0.0
  0
LINE
  5
83C2
330
18
100
AcDbEntity
  8
01
100
AcDbLine
 10
-1092.065181313242
 20
-1026.124512500608
 30
0.0
 11
-1092.565181313241
 21
-1026.624512500608
 31
0.0
  0
LINE
  5
83C3
330
18
100
AcDbEntity
  8
01
100
AcDbLine
 10
-1092.815181313251
 20
-1040.124512500608
 30
0.0
 11
-1084.315181313238
 21
-1040.124512500608
 31
0.0
  0
LINE
  5
83C4
330
18
100
AcDbEntity
  8
01
100
AcDbLine
 10
-1093.413489270721
 20
-1069.624512500609
 30
0.0
 11
-1094.081440392411
 21
-1069.624512500609
 31
0.0
  0
ARC
  5
83C5
330
18
100
AcDbEntity
  8
01
100
AcDbCircle
 10
-1093.413489270721
 20
-1069.124512500608
 30
0.0
 40
0.5
100
AcDbArc
 50
270.0
 51
359.8057777625378
  0
LINE
  5
83C6
330
18
100
AcDbEntity
  8
01
100
AcDbLine
 10
-1088.565181313242
 20
-1026.124512500608
 30
0.0
 11
-1092.065181313242
 21
-1026.124512500608
 31
0.0
  0
LINE
  5
83C8
330
18
100
AcDbEntity
  8
01
100
AcDbLine
 10
-1095.138682302514
 20
-1065.140903727085
 30
0.0
 11
-1095.081305938293
 21
-1068.640903739668
 31
0.0
  0
ARC
  5
83C9
330
18
100
AcDbEntity
  8
01
100
AcDbCircle
 10
-1094.081440392737
 20
-1068.624512500929
 30
0.0
 40
0.9999999996735796
100
AcDbArc
 50
180.9391909629977
 51
270.000000019385
  0
LINE
  5
83CA
330
18
100
AcDbEntity
  8
01
100
AcDbLine
 10
-1095.565173564639
 20
-1039.124512500609
 30
0.0
 11
-1095.138682302514
 21
-1065.140903727085
 31
0.0
  0
LINE
  5
83CB
330
18
100
AcDbEntity
  8
01
100
AcDbLine
 10
-1084.565181313241
 20
-1026.624512500608
 30
0.0
 11
-1092.565181313241
 21
-1026.624512500608
 31
0.0
  0
LINE
  5
83CC
330
18
100
AcDbEntity
  8
01
100
AcDbLine
 10
-1083.716873355762
 20
-1069.624512500609
 30
0.0
 11
-1083.048922234072
 21
-1069.624512500609
 31
0.0
  0
LINE
  5
83CD
330
18
100
AcDbEntity
  8
01
100
AcDbLine
 10
-1095.565173564639
 20
-1039.124512500609
 30
0.0
 11
-1081.565189061843
 21
-1039.124512500609
 31
0.0
  0
LINE
  5
83CE
330
18
100
AcDbEntity
  8
01
100
AcDbLine
 10
-1081.991680323969
 20
-1065.140903727085
 30
0.0
 11
-1082.04905668819
 21
-1068.640903739668
 31
0.0
  0
ARC
  5
83CF
330
18
100
AcDbEntity
  8
01
100
AcDbCircle
 10
-1083.048922233746
 20
-1068.624512500929
 30
0.0
 40
0.9999999996735796
100
AcDbArc
 50
269.999999980615
 51
359.0608090370022
  0
LINE
  5
83D0
330
18
100
AcDbEntity
  8
01
100
AcDbLine
 10
-1081.565189061843
 20
-1039.124512500609
 30
0.0
 11
-1081.991680323969
 21
-1065.140903727085
 31
0.0
  0
LINE
  5
83D1
330
18
100
AcDbEntity
  8
01
100
AcDbLine
 10
-1092.815181313251
 20
-1040.124512500608
 30
0.0
 11
-1092.913492143433
 21
-1069.126207406126
 31
0.0
  0
LINE
  5
83D2
330
18
100
AcDbEntity
  8
01
100
AcDbLine
 10
-1084.315181313238
 20
-1040.124512500608
 30
0.0
 11
-1084.216870483049
 21
-1069.126207406126
 31
0.0
  0
ARC
  5
83D3
330
18
100
AcDbEntity
  8
01
100
AcDbCircle
 10
-1083.716873355762
 20
-1069.124512500608
 30
0.0
 40
0.5
100
AcDbArc
 50
180.1942222374622
 51
270.0
  0
LINE
  5
83D4
330
18
100
AcDbEntity
  8
01
100
AcDbLine
 10
-1092.665181313241
 20
-1041.12460767372
 30
0.0
 11
-1084.465181313241
 21
-1041.12460767372
 31
0.0
  0
LINE
  5
83D5
330
18
100
AcDbEntity
  8
01
100
AcDbLine
 10
-1090.665181313241
 20
-1071.62460767372
 30
0.0
 11
-1086.465181313242
 21
-1071.62460767372
 31
0.0
  0
LINE
  5
83D6
330
18
100
AcDbEntity
  8
01
100
AcDbLine
 10
-1092.665181313241
 20
-1041.12460767372
 30
0.0
 11
-1092.665181313241
 21
-1069.624607673729
 31
0.0
  0
ARC
  5
83D7
330
18
100
AcDbEntity
  8
01
100
AcDbCircle
 10
-1090.665181313241
 20
-1069.62460767372
 30
0.0
 40
2.000000000000322
100
AcDbArc
 50
180.0000000002084
 51
270.0
  0
LINE
  5
83D8
330
18
100
AcDbEntity
  8
01
100
AcDbLine
 10
-1084.465181313241
 20
-1041.12460767372
 30
0.0
 11
-1084.465181313241
 21
-1069.62460767372
 31
0.0
  0
ARC
  5
83D9
330
18
100
AcDbEntity
  8
01
100
AcDbCircle
 10
-1086.465181313242
 20
-1069.62460767372
 30
0.0
 40
2.000000000000055
100
AcDbArc
 50
270.0
 51
0.0
  0
LINE
  5
83DA
330
18
100
AcDbEntity
  8
01
100
AcDbLine
 10
-1084.565181313241
 20
-1011.124702846836
 30
0.0
 11
-1084.565181313241
 21
-1023.624702846834
 31
0.0
  0
LINE
  5
83DB
330
18
100
AcDbEntity
  8
01
100
AcDbLine
 10
-1092.565181313241
 20
-1011.124702846836
 30
0.0
 11
-1092.565181313241
 21
-1023.624702846834
 31
0.0
  0
LINE
  5
83DC
330
18
100
AcDbEntity
  8
01
100
AcDbLine
 10
-1092.065272458247
 20
-1024.124611701826
 30
0.0
 11
-1092.565181313241
 21
-1023.624702846834
 31
0.0
  0
LINE
  5
83DD
330
18
100
AcDbEntity
  8
01
100
AcDbLine
 10
-1085.065181313242
 20
-1024.124702846834
 30
0.0
 11
-1084.565181313241
 21
-1023.624702846834
 31
0.0
  0
LINE
  5
83DE
330
18
100
AcDbEntity
  8
01
100
AcDbLine
 10
-1084.315181313232
 20
-1010.124702846834
 30
0.0
 11
-1092.815181313245
 21
-1010.124702846834
 31
0.0
  0
LINE
  5
83DF
330
18
100
AcDbEntity
  8
01
100
AcDbLine
 10
-1083.716873355762
 20
-980.6247028468343
 30
0.0
 11
-1083.048922234072
 21
-980.6247028468343
 31
0.0
  0
ARC
  5
83E0
330
18
100
AcDbEntity
  8
01
100
AcDbCircle
 10
-1083.716873355762
 20
-981.1247028468343
 30
0.0
 40
0.5
100
AcDbArc
 50
90.0
 51
179.8057777625378
  0
LINE
  5
83E1
330
18
100
AcDbEntity
  8
01
100
AcDbLine
 10
-1088.565181313242
 20
-1024.124702846834
 30
0.0
 11
-1085.065181313242
 21
-1024.124702846834
 31
0.0
  0
LINE
  5
83E3
330
18
100
AcDbEntity
  8
01
100
AcDbLine
 10
-1081.991680323969
 20
-985.1083116203587
 30
0.0
 11
-1082.04905668819
 21
-981.6083116077745
 31
0.0
  0
ARC
  5
83E4
330
18
100
AcDbEntity
  8
01
100
AcDbCircle
 10
-1083.048922233746
 20
-981.6247028465147
 30
0.0
 40
0.9999999996735796
100
AcDbArc
 50
0.9391909629977189
 51
90.000000019385
  0
LINE
  5
83E5
330
18
100
AcDbEntity
  8
01
100
AcDbLine
 10
-1081.565189061843
 20
-1011.124702846836
 30
0.0
 11
-1081.991680323969
 21
-985.1083116203587
 31
0.0
  0
LINE
  5
83E6
330
18
100
AcDbEntity
  8
01
100
AcDbLine
 10
-1092.565181313241
 20
-1023.624702846834
 30
0.0
 11
-1084.565181313241
 21
-1023.624702846834
 31
0.0
  0
LINE
  5
83E7
330
18
100
AcDbEntity
  8
01
100
AcDbLine
 10
-1093.413489270721
 20
-980.6247028468343
 30
0.0
 11
-1094.081440392411
 21
-980.6247028468343
 31
0.0
  0
LINE
  5
83E8
330
18
100
AcDbEntity
  8
01
100
AcDbLine
 10
-1081.565189061843
 20
-1011.124702846836
 30
0.0
 11
-1095.565173564639
 21
-1011.124702846836
 31
0.0
  0
LINE
  5
83E9
330
18
100
AcDbEntity
  8
01
100
AcDbLine
 10
-1095.138682302514
 20
-985.1083116203587
 30
0.0
 11
-1095.081305938293
 21
-981.6083116077745
 31
0.0
  0
ARC
  5
83EA
330
18
100
AcDbEntity
  8
01
100
AcDbCircle
 10
-1094.081440392737
 20
-981.6247028465147
 30
0.0
 40
0.9999999996735796
100
AcDbArc
 50
89.999999980615
 51
179.0608090370023
  0
LINE
  5
83EB
330
18
100
AcDbEntity
  8
01
100
AcDbLine
 10
-1095.565173564639
 20
-1011.124702846836
 30
0.0
 11
-1095.138682302514
 21
-985.1083116203587
 31
0.0
  0
LINE
  5
83EC
330
18
100
AcDbEntity
  8
01
100
AcDbLine
 10
-1084.315181313232
 20
-1010.124702846834
 30
0.0
 11
-1084.216870483049
 21
-981.1230079413186
 31
0.0
  0
LINE
  5
83ED
330
18
100
AcDbEntity
  8
01
100
AcDbLine
 10
-1092.815181313245
 20
-1010.124702846834
 30
0.0
 11
-1092.913492143433
 21
-981.1230079413186
 31
0.0
  0
ARC
  5
83EE
330
18
100
AcDbEntity
  8
01
100
AcDbCircle
 10
-1093.413489270721
 20
-981.1247028468343
 30
0.0
 40
0.5
100
AcDbArc
 50
0.1942222374621638
 51
90.0
  0
LINE
  5
83EF
330
18
100
AcDbEntity
  8
01
100
AcDbLine
 10
-1084.465181313242
 20
-1009.124607673722
 30
0.0
 11
-1092.665181313241
 21
-1009.124607673722
 31
0.0
  0
LINE
  5
83F0
330
18
100
AcDbEntity
  8
01
100
AcDbLine
 10
-1086.465181313243
 20
-978.6246076737222
 30
0.0
 11
-1090.665181313241
 21
-978.6246076737222
 31
0.0
  0
LINE
  5
83F1
330
18
100
AcDbEntity
  8
01
100
AcDbLine
 10
-1084.465181313242
 20
-1009.124607673722
 30
0.0
 11
-1084.465181313242
 21
-980.6246076737131
 31
0.0
  0
ARC
  5
83F2
330
18
100
AcDbEntity
  8
01
100
AcDbCircle
 10
-1086.465181313243
 20
-980.6246076737222
 30
0.0
 40
2.000000000000322
100
AcDbArc
 50
0.0000000002084408
 51
90.0
  0
LINE
  5
83F3
330
18
100
AcDbEntity
  8
01
100
AcDbLine
 10
-1092.665181313241
 20
-1009.124607673722
 30
0.0
 11
-1092.665181313241
 21
-980.6246076737222
 31
0.0
  0
ARC
  5
83F4
330
18
100
AcDbEntity
  8
01
100
AcDbCircle
 10
-1090.665181313241
 20
-980.6246076737222
 30
0.0
 40
2.000000000000055
100
AcDbArc
 50
90.0
 51
180.0
  0
LINE
  5
83F5
330
18
100
AcDbEntity
  8
01
100
AcDbLine
 10
-1332.011997260039
 20
-1071.624512500609
 30
0.0
 11
-1170.011997260042
 21
-1071.624512500609
 31
0.0
  0
ARC
  5
83F6
330
18
100
AcDbEntity
  8
01
100
AcDbCircle
 10
-1170.012114475692
 20
-1064.624395284963
 30
0.0
 40
7.000117216629814
100
AcDbArc
 50
270.0009594072909
 51
359.9990405929175
  0
LINE
  5
83F7
330
18
100
AcDbEntity
  8
01
100
AcDbLine
 10
-1163.011997260043
 20
-1064.624512500609
 30
0.0
 11
-1163.011997260043
 21
-1041.624512500609
 31
0.0
  0
LINE
  5
83F8
330
18
100
AcDbEntity
  8
01
100
AcDbLine
 10
-1163.511997260042
 20
-1041.124512500609
 30
0.0
 11
-1165.011997338723
 21
-1041.12451250061
 31
0.0
  0
ARC
  5
83F9
330
18
100
AcDbEntity
  8
01
100
AcDbCircle
 10
-1163.511997260042
 20
-1041.624512500609
 30
0.0
 40
0.5
100
AcDbArc
 50
0.0
 51
90.0
  0
ARC
  5
83FA
330
18
100
AcDbEntity
  8
01
100
AcDbCircle
 10
-1332.011879821463
 20
-1064.624395284963
 30
0.0
 40
7.000117216629814
100
AcDbArc
 50
180.0009594070304
 51
269.9990405927091
  0
LINE
  5
83FB
330
18
100
AcDbEntity
  8
01
100
AcDbLine
 10
-1339.011997037112
 20
-1064.624512500609
 30
0.0
 11
-1339.011997037112
 21
-1041.624512500609
 31
0.0
  0
LINE
  5
83FC
330
18
100
AcDbEntity
  8
01
100
AcDbLine
 10
-1338.511997037112
 20
-1041.124512500609
 30
0.0
 11
-1337.01199695843
 21
-1041.124512500609
 31
0.0
  0
ARC
  5
83FD
330
18
100
AcDbEntity
  8
01
100
AcDbCircle
 10
-1338.511997037112
 20
-1041.624512500609
 30
0.0
 40
0.5
100
AcDbArc
 50
90.0
 51
180.0
  0
LINE
  5
83FE
330
18
100
AcDbEntity
  8
1CENTER
100
AcDbLine
 10
-1311.011997545178
 20
-1027.071742755882
 30
0.0
 11
-1311.011997545178
 21
-1006.067195756903
 31
0.0
  0
LINE
  5
83FF
330
18
100
AcDbEntity
  8
1CENTER
100
AcDbLine
 10
-1191.011997545178
 20
-1027.071742755882
 30
0.0
 11
-1191.011997545178
 21
-1006.067195756903
 31
0.0
  0
ARC
  5
8400
330
18
100
AcDbEntity
  8
01
100
AcDbCircle
 10
-1332.51199695843
 20
-985.1245125006095
 30
0.0
 40
4.5
100
AcDbArc
 50
90.0
 51
180.0
  0
LINE
  5
8401
330
18
100
AcDbEntity
  8
01
100
AcDbLine
 10
-1307.011997617301
 20
-1023.62451250061
 30
0.0
 11
-1307.011997617301
 21
-1011.12451250061
 31
0.0
  0
LINE
  5
8402
330
18
100
AcDbEntity
  8
01
100
AcDbLine
 10
-1187.011997643527
 20
-1023.62451250061
 30
0.0
 11
-1187.011997643527
 21
-1011.12451250061
 31
0.0
  0
LINE
  5
8403
330
18
100
AcDbEntity
  8
01
100
AcDbLine
 10
-1307.511997617301
 20
-1024.124512500609
 30
0.0
 11
-1307.011997617301
 21
-1023.62451250061
 31
0.0
  0
LINE
  5
8404
330
18
100
AcDbEntity
  8
01
100
AcDbLine
 10
-1187.511997643527
 20
-1024.124512500609
 30
0.0
 11
-1187.011997643527
 21
-1023.62451250061
 31
0.0
  0
LINE
  5
8405
330
18
100
AcDbEntity
  8
01
100
AcDbLine
 10
-1187.511997643527
 20
-1024.124512500609
 30
0.0
 11
-1194.511997643527
 21
-1024.124512500609
 31
0.0
  0
LINE
  5
8406
330
18
100
AcDbEntity
  8
01
100
AcDbLine
 10
-1314.511997617301
 20
-1024.124512500609
 30
0.0
 11
-1307.511997617301
 21
-1024.124512500609
 31
0.0
  0
LINE
  5
8407
330
18
100
AcDbEntity
  8
01
100
AcDbLine
 10
-1195.011997643527
 20
-1023.62451250061
 30
0.0
 11
-1194.511997643527
 21
-1024.124512500609
 31
0.0
  0
LINE
  5
8408
330
18
100
AcDbEntity
  8
01
100
AcDbLine
 10
-1315.011997617301
 20
-1023.62451250061
 30
0.0
 11
-1314.511997617301
 21
-1024.124512500609
 31
0.0
  0
LINE
  5
8409
330
18
100
AcDbEntity
  8
01
100
AcDbLine
 10
-1195.011997643527
 20
-1011.12451250061
 30
0.0
 11
-1195.011997643527
 21
-1023.62451250061
 31
0.0
  0
LINE
  5
840A
330
18
100
AcDbEntity
  8
01
100
AcDbLine
 10
-1315.011997617301
 20
-1011.12451250061
 30
0.0
 11
-1315.011997617301
 21
-1023.62451250061
 31
0.0
  0
LINE
  5
840B
330
18
100
AcDbEntity
  8
01
100
AcDbLine
 10
-1337.01199695843
 20
-1011.12451250061
 30
0.0
 11
-1165.011997338723
 21
-1011.12451250061
 31
0.0
  0
LINE
  5
840C
330
18
100
AcDbEntity
  8
01
100
AcDbLine
 10
-1337.01199695843
 20
-1011.12451250061
 30
0.0
 11
-1337.01199695843
 21
-985.1245125006095
 31
0.0
  0
LINE
  5
840D
330
18
100
AcDbEntity
  8
01
100
AcDbLine
 10
-1332.51199695843
 20
-980.6245125006095
 30
0.0
 11
-1169.511997338723
 21
-980.6245125006095
 31
0.0
  0
LINE
  5
840E
330
18
100
AcDbEntity
  8
01
100
AcDbLine
 10
-1316.511997827467
 20
-985.6245125006095
 30
0.0
 11
-1185.511997826246
 21
-985.6245125006095
 31
0.0
  0
ARC
  5
840F
330
18
100
AcDbEntity
  8
01
100
AcDbCircle
 10
-1185.511997826246
 20
-990.6245125006095
 30
0.0
 40
5.0
100
AcDbArc
 50
0.0
 51
90.0
  0
ARC
  5
8410
330
18
100
AcDbEntity
  8
01
100
AcDbCircle
 10
-1316.511997827467
 20
-990.6245125006095
 30
0.0
 40
5.0
100
AcDbArc
 50
90.0
 51
180.0
  0
ARC
  5
8411
330
18
100
AcDbEntity
  8
01
100
AcDbCircle
 10
-1169.511997338723
 20
-985.1245125006095
 30
0.0
 40
4.5
100
AcDbArc
 50
0.0
 51
90.0
  0
LINE
  5
8412
330
18
100
AcDbEntity
  8
01
100
AcDbLine
 10
-1165.011997338723
 20
-1011.12451250061
 30
0.0
 11
-1165.011997338723
 21
-985.1245125006095
 31
0.0
  0
LINE
  5
8413
330
18
100
AcDbEntity
  8
01
100
AcDbLine
 10
-1315.011997617301
 20
-1023.62451250061
 30
0.0
 11
-1307.011997617301
 21
-1023.62451250061
 31
0.0
  0
LINE
  5
8414
330
18
100
AcDbEntity
  8
01
100
AcDbLine
 10
-1195.011997643527
 20
-1023.62451250061
 30
0.0
 11
-1187.011997643527
 21
-1023.62451250061
 31
0.0
  0
LINE
  5
8415
330
18
100
AcDbEntity
  8
01
100
AcDbLine
 10
-1321.511997827467
 20
-1011.12451250061
 30
0.0
 11
-1321.511997827467
 21
-990.6245125006095
 31
0.0
  0
LINE
  5
8416
330
18
100
AcDbEntity
  8
01
100
AcDbLine
 10
-1180.511997826246
 20
-1011.12451250061
 30
0.0
 11
-1180.511997826246
 21
-990.6245125006095
 31
0.0
  0
LINE
  5
8417
330
18
100
AcDbEntity
  8
01
100
AcDbLine
 10
-1332.011997260039
 20
-978.6245125006095
 30
0.0
 11
-1170.011997260042
 21
-978.6245125006095
 31
0.0
  0
ARC
  5
8418
330
18
100
AcDbEntity
  8
01
100
AcDbCircle
 10
-1170.012114475692
 20
-985.6246297162562
 30
0.0
 40
7.000117216629814
100
AcDbArc
 50
0.0009594070824961
 51
89.99904059270906
  0
LINE
  5
8419
330
18
100
AcDbEntity
  8
01
100
AcDbLine
 10
-1163.011997260043
 20
-985.6245125006095
 30
0.0
 11
-1163.011997260043
 21
-1008.62451250061
 31
0.0
  0
LINE
  5
841A
330
18
100
AcDbEntity
  8
01
100
AcDbLine
 10
-1163.511997260042
 20
-1009.12451250061
 30
0.0
 11
-1165.011997338723
 21
-1009.124512500609
 31
0.0
  0
ARC
  5
841B
330
18
100
AcDbEntity
  8
01
100
AcDbCircle
 10
-1163.511997260042
 20
-1008.62451250061
 30
0.0
 40
0.5
100
AcDbArc
 50
270.0
 51
0.0
  0
ARC
  5
841C
330
18
100
AcDbEntity
  8
01
100
AcDbCircle
 10
-1332.011879821463
 20
-985.6246297162562
 30
0.0
 40
7.000117216629814
100
AcDbArc
 50
90.0009594072909
 51
179.9990405929696
  0
LINE
  5
841D
330
18
100
AcDbEntity
  8
01
100
AcDbLine
 10
-1339.011997037112
 20
-985.6245125006095
 30
0.0
 11
-1339.011997037112
 21
-1008.62451250061
 31
0.0
  0
LINE
  5
841E
330
18
100
AcDbEntity
  8
01
100
AcDbLine
 10
-1338.511997037112
 20
-1009.12451250061
 30
0.0
 11
-1337.01199695843
 21
-1009.12451250061
 31
0.0
  0
ARC
  5
841F
330
18
100
AcDbEntity
  8
01
100
AcDbCircle
 10
-1338.511997037112
 20
-1008.62451250061
 30
0.0
 40
0.5
100
AcDbArc
 50
180.0
 51
270.0
  0
LINE
  5
8448
330
18
100
AcDbEntity
  8
01
100
AcDbLine
 10
-1307.511997545178
 20
-1042.124512500609
 30
0.0
 11
-1307.511997545178
 21
-1041.124512500609
 31
0.0
  0
LINE
  5
8449
330
18
100
AcDbEntity
  8
01
100
AcDbLine
 10
-1314.511997545178
 20
-1042.124512500609
 30
0.0
 11
-1314.511997545178
 21
-1041.124512500609
 31
0.0
  0
LINE
  5
844B
330
18
100
AcDbEntity
  8
01
100
AcDbLine
 10
-1194.511998338381
 20
-1008.12451250061
 30
0.0
 11
-1194.511998338381
 21
-1009.12451250061
 31
0.0
  0
LINE
  5
844C
330
18
100
AcDbEntity
  8
01
100
AcDbLine
 10
-1187.511998338381
 20
-1008.12451250061
 30
0.0
 11
-1187.511998338381
 21
-1009.12451250061
 31
0.0
  0
LINE
  5
844D
330
18
100
AcDbEntity
  8
01
100
AcDbLine
 10
-1314.511997545178
 20
-1041.124512500609
 30
0.0
 11
-1307.511997545178
 21
-1041.124512500609
 31
0.0
  0
LINE
  5
844E
330
18
100
AcDbEntity
  8
01
100
AcDbLine
 10
-1194.511998338381
 20
-1009.12451250061
 30
0.0
 11
-1187.511998338381
 21
-1009.12451250061
 31
0.0
  0
TEXT
  5
8457
330
18
100
AcDbEntity
  8
1TEXT
100
AcDbText
 10
-1229.739775322955
 20
-1129.083758434584
 30
0.0
 40
4.0
  1
DH-785-KC
 41
0.8
 72
     1
 11
-1215.861997545177
 21
-1129.083758434584
 31
0.0
100
AcDbText
  0
TEXT
  5
8458
330
18
100
AcDbEntity
  8
1TEXT
100
AcDbText
 10
-1229.739775322955
 20
-1136.083758434584
 30
0.0
 40
4.0
  1
DH-785-KN
 41
0.8
 72
     1
 11
-1215.861997545177
 21
-1136.083758434584
 31
0.0
100
AcDbText
  0
TEXT
  5
8459
330
18
100
AcDbEntity
  8
1TEXT
100
AcDbText
 10
-1229.739775322955
 20
-1115.083758434584
 30
0.0
 40
4.0
  1
DH-785-ZC
 41
0.8
 72
     1
 11
-1215.861997545177
 21
-1115.083758434584
 31
0.0
100
AcDbText
  0
TEXT
  5
845A
330
18
100
AcDbEntity
  8
1TEXT
100
AcDbText
 10
-1229.739775322955
 20
-1122.083758434584
 30
0.0
 40
4.0
  1
DH-785-ZN
 41
0.8
 72
     1
 11
-1215.861997545177
 21
-1122.083758434584
 31
0.0
100
AcDbText
  0
LINE
  5
845B
330
18
100
AcDbEntity
  8
1DIM
100
AcDbLine
 10
-1303.261997545178
 20
-1130.369401450935
 30
0.0
 11
-1268.261997545178
 21
-1130.369401450935
 31
0.0
  0
LINE
  5
845C
330
18
100
AcDbEntity
  8
1DIM
100
AcDbLine
 10
-1233.261997545178
 20
-1130.369401450935
 30
0.0
 11
-1198.261997545178
 21
-1130.369401450934
 31
0.0
  0
TEXT
  5
845D
330
18
100
AcDbEntity
  8
1TEXT
100
AcDbText
 10
-1265.741997545178
 20
-1093.869401450935
 30
0.0
 40
4.0
  1
表面処理：カバー
 41
0.8
 72
     1
 11
-1250.861997545178
 21
-1093.869401450935
 31
0.0
100
AcDbText
  0
TEXT
  5
845E
330
18
100
AcDbEntity
  8
1TEXT
100
AcDbText
 10
-1259.861997545178
 20
-1128.847296470919
 30
0.0
 40
4.0
  1
ブラック
 72
     1
 11
-1250.861997545178
 21
-1128.847296470919
 31
0.0
100
AcDbText
  0
LINE
  5
845F
330
18
100
AcDbEntity
  8
1DIM
100
AcDbLine
 10
-1303.261997545178
 20
-1088.369401450935
 30
0.0
 11
-1198.261997545178
 21
-1088.369401450935
 31
0.0
  0
LINE
  5
8460
330
18
100
AcDbEntity
  8
1DIM
100
AcDbLine
 10
-1303.261997545178
 20
-1102.369401450935
 30
0.0
 11
-1268.261997545178
 21
-1102.369401450935
 31
0.0
  0
LINE
  5
8461
330
18
100
AcDbEntity
  8
1DIM
100
AcDbLine
 10
-1233.261997545178
 20
-1102.369401450935
 30
0.0
 11
-1198.261997545178
 21
-1102.369401450935
 31
0.0
  0
LINE
  5
8462
330
18
100
AcDbEntity
  8
1DIM
100
AcDbLine
 10
-1303.261997545178
 20
-1095.369401450935
 30
0.0
 11
-1198.261997545178
 21
-1095.369401450935
 31
0.0
  0
LINE
  5
8463
330
18
100
AcDbEntity
  8
1DIM
100
AcDbLine
 10
-1303.261997545178
 20
-1109.369401450935
 30
0.0
 11
-1198.261997545178
 21
-1109.369401450935
 31
0.0
  0
LINE
  5
8464
330
18
100
AcDbEntity
  8
1DIM
100
AcDbLine
 10
-1303.261997545178
 20
-1109.369401450935
 30
0.0
 11
-1198.261997545178
 21
-1109.369401450935
 31
0.0
  0
LINE
  5
8465
330
18
100
AcDbEntity
  8
1DIM
100
AcDbLine
 10
-1233.261997545178
 20
-1088.369401450935
 30
0.0
 11
-1233.261997545178
 21
-1137.369401450935
 31
0.0
  0
TEXT
  5
8466
330
18
100
AcDbEntity
  8
1TEXT
100
AcDbText
 10
-1222.728664211845
 20
-1093.869401450935
 30
0.0
 40
4.0
  1
コード
 72
     1
 11
-1215.861997545178
 21
-1093.869401450935
 31
0.0
100
AcDbText
  0
LINE
  5
8467
330
18
100
AcDbEntity
  8
1DIM
100
AcDbLine
 10
-1303.261997545178
 20
-1137.369401450935
 30
0.0
 11
-1198.261997545178
 21
-1137.369401450934
 31
0.0
  0
LINE
  5
8468
330
18
100
AcDbEntity
  8
1DIM
100
AcDbLine
 10
-1268.261997545178
 20
-1137.369401450935
 30
0.0
 11
-1268.261997545178
 21
-1088.369401450935
 31
0.0
  0
LINE
  5
8469
330
18
100
AcDbEntity
  8
1DIM
100
AcDbLine
 10
-1198.261997545178
 20
-1137.369401450934
 30
0.0
 11
-1198.261997545178
 21
-1088.369401450935
 31
0.0
  0
TEXT
  5
846A
330
18
100
AcDbEntity
  8
1TEXT
100
AcDbText
 10
-1267.261997545178
 20
-1114.847296470919
 30
0.0
 40
4.0
  1
ダークブラウン
 72
     1
 11
-1250.861997545178
 21
-1114.847296470919
 31
0.0
100
AcDbText
  0
TEXT
  5
846B
330
18
100
AcDbEntity
  8
1TEXT
100
AcDbText
 10
-1302.328664211845
 20
-1093.869401450935
 30
0.0
 40
4.0
  1
表面処理：本体
 72
     1
 11
-1285.861997545178
 21
-1093.869401450935
 31
0.0
100
AcDbText
  0
TEXT
  5
846C
330
18
100
AcDbEntity
  8
1TEXT
100
AcDbText
 10
-1302.395330878512
 20
-1135.704690110459
 30
0.0
 40
4.0
  1
サテンニッケル
 72
     1
 11
-1285.861997545178
 21
-1135.704690110459
 31
0.0
100
AcDbText
  0
TEXT
  5
846D
330
18
100
AcDbEntity
  8
1TEXT
100
AcDbText
 10
-1295.328664211845
 20
-1128.847296470919
 30
0.0
 40
4.0
  1
クローム
 72
     1
 11
-1285.861997545178
 21
-1128.847296470919
 31
0.0
100
AcDbText
  0
LINE
  5
846E
330
18
100
AcDbEntity
  8
1DIM
100
AcDbLine
 10
-1303.261997545178
 20
-1137.369401450935
 30
0.0
 11
-1303.261997545178
 21
-1088.369401450935
 31
0.0
  0
TEXT
  5
846F
330
18
100
AcDbEntity
  8
1TEXT
100
AcDbText
 10
-1302.395330878512
 20
-1121.704690110459
 30
0.0
 40
4.0
  1
サテンニッケル
 72
     1
 11
-1285.861997545178
 21
-1121.704690110459
 31
0.0
100
AcDbText
  0
TEXT
  5
8470
330
18
100
AcDbEntity
  8
1TEXT
100
AcDbText
 10
-1295.328664211845
 20
-1114.847296470919
 30
0.0
 40
4.0
  1
クローム
 72
     1
 11
-1285.861997545178
 21
-1114.847296470919
 31
0.0
100
AcDbText
  0
TEXT
  5
8471
330
18
100
AcDbEntity
  8
1TEXT
100
AcDbText
 10
-1337.01199695843
 20
-911.7499877750682
 30
0.0
 40
10.0
  1
DH-785-X
100
AcDbText
  0
LINE
  5
8477
330
18
100
AcDbEntity
  8
1DIM
100
AcDbLine
 10
-1303.261997545178
 20
-1123.369401450935
 30
0.0
 11
-1198.261997545178
 21
-1123.369401450935
 31
0.0
  0
LINE
  5
8478
330
18
100
AcDbEntity
  8
1DIM
100
AcDbLine
 10
-1303.261997545178
 20
-1116.369401450935
 30
0.0
 11
-1268.261997545178
 21
-1116.369401450935
 31
0.0
  0
LINE
  5
8479
330
18
100
AcDbEntity
  8
1DIM
100
AcDbLine
 10
-1233.261997545178
 20
-1116.369401450935
 30
0.0
 11
-1198.261997545178
 21
-1116.369401450934
 31
0.0
  0
TEXT
  5
847A
330
18
100
AcDbEntity
  8
1TEXT
100
AcDbText
 10
-1229.739775322955
 20
-1101.083758434584
 30
0.0
 40
4.0
  1
DH-785-DC
 41
0.8
 72
     1
 11
-1215.861997545177
 21
-1101.083758434584
 31
0.0
100
AcDbText
  0
TEXT
  5
847B
330
18
100
AcDbEntity
  8
1TEXT
100
AcDbText
 10
-1229.739775322955
 20
-1108.083758434584
 30
0.0
 40
4.0
  1
DH-785-DN
 41
0.8
 72
     1
 11
-1215.861997545177
 21
-1108.083758434584
 31
0.0
100
AcDbText
  0
TEXT
  5
847C
330
18
100
AcDbEntity
  8
1TEXT
100
AcDbText
 10
-1264.861997545178
 20
-1100.847296470919
 30
0.0
 40
4.0
  1
ライトグレー
 72
     1
 11
-1250.861997545178
 21
-1100.847296470919
 31
0.0
100
AcDbText
  0
TEXT
  5
847D
330
18
100
AcDbEntity
  8
1TEXT
100
AcDbText
 10
-1302.395330878512
 20
-1107.704690110459
 30
0.0
 40
4.0
  1
サテンニッケル
 72
     1
 11
-1285.861997545178
 21
-1107.704690110459
 31
0.0
100
AcDbText
  0
TEXT
  5
847E
330
18
100
AcDbEntity
  8
1TEXT
100
AcDbText
 10
-1295.328664211845
 20
-1100.847296470919
 30
0.0
 40
4.0
  1
クローム
 72
     1
 11
-1285.861997545178
 21
-1100.847296470919
 31
0.0
100
AcDbText
  0
LINE
  5
85C3
330
18
100
AcDbEntity
  8
1CENTER
100
AcDbLine
 10
-1088.565181313241
 20
-969.6848390399493
 30
0.0
 11
-1088.565181313241
 21
-1075.711010019118
 31
0.0
  0
LINE
  5
85C4
330
18
100
AcDbEntity
  8
01
100
AcDbLine
 10
-1120.219765246454
 20
-1011.124702846836
 30
0.0
 11
-1059.052541759424
 21
-1011.124702846836
 31
0.0
  0
LINE
  5
85C5
330
18
100
AcDbEntity
  8
01
100
AcDbLine
 10
-1120.219765246454
 20
-1039.124512500609
 30
0.0
 11
-1059.052541759424
 21
-1039.124512500609
 31
0.0
  0
LINE
  5
85C6
330
18
100
AcDbEntity
  8
01
100
AcDbLine
 10
-1093.065179972902
 20
-1039.124512500609
 30
0.0
 11
-1093.065179972902
 21
-1006.124702846836
 31
0.0
  0
LINE
  5
85CA
330
18
100
AcDbEntity
  8
1HATCH
100
AcDbLine
 10
-1086.915181838828
 20
-1026.124598412146
 30
0.0
 11
-1086.915181795123
 21
-1024.124702882893
 31
0.0
  0
LINE
  5
85CB
330
18
100
AcDbEntity
  8
01
100
AcDbLine
 10
-1086.565181838831
 20
-1026.124708095075
 30
0.0
 11
-1086.565181795123
 21
-1024.124699268014
 31
0.0
  0
LINE
  5
85CC
330
18
100
AcDbEntity
  8
1HATCH
100
AcDbLine
 10
-1090.215181838826
 20
-1026.124512500608
 30
0.0
 11
-1090.215181795119
 21
-1024.124507259679
 31
0.0
  0
LINE
  5
85CD
330
18
100
AcDbEntity
  8
01
100
AcDbLine
 10
-1090.565181838827
 20
-1026.124512500608
 30
0.0
 11
-1090.565181795122
 21
-1024.124607665015
 31
0.0
  0
LINE
  5
85CE
330
18
100
AcDbEntity
  8
01
100
AcDbLine
 10
-1084.065179972902
 20
-1039.124512500609
 30
0.0
 11
-1084.065179972902
 21
-1006.124702846836
 31
0.0
  0
LINE
  5
8642
330
18
100
AcDbEntity
  8
01
100
AcDbLine
 10
-1337.01199695843
 20
-1039.124512500609
 30
0.0
 11
-1165.011997338723
 21
-1039.124512500609
 31
0.0
  0
LINE
  5
8643
330
18
100
AcDbEntity
  8
01
100
AcDbLine
 10
-1355.977177111727
 20
-1039.124512500609
 30
0.0
 11
-1149.389957002544
 21
-1039.124512500609
 31
0.0
  0
LINE
  5
8644
330
18
100
AcDbEntity
  8
01
100
AcDbLine
 10
-1355.977177111727
 20
-1011.12451250061
 30
0.0
 11
-1142.033994074687
 21
-1011.124512500609
 31
0.0
  0
ARC
  5
896F
330
18
100
AcDbEntity
  8
01
100
AcDbCircle
 10
-1336.011942222322
 20
-924.8530042964843
 30
0.0
 40
1.000053945550713
100
AcDbArc
 50
90.00309053439
 51
180.0041636219775
  0
ARC
  5
8970
330
18
100
AcDbEntity
  8
01
100
AcDbCircle
 10
-1166.012046171465
 20
-924.853002512354
 30
0.0
 40
1.000049628718545
100
AcDbArc
 50
359.9957341422758
 51
89.997156974507
  0
LINE
  5
8971
330
18
100
AcDbEntity
  8
01
100
AcDbLine
 10
-1166.011996548847
 20
-924.2709728565636
 30
0.0
 11
-1336.011996165232
 21
-924.2709728046747
 31
0.0
  0
ARC
  5
8972
330
18
100
AcDbEntity
  8
01
100
AcDbCircle
 10
-1251.01197447514
 20
581.4666435273442
 30
0.0
 40
1506.969586133207
100
AcDbArc
 50
267.3185732010667
 51
267.6830588246969
  0
ARC
  5
8973
330
18
100
AcDbEntity
  8
01
100
AcDbCircle
 10
-1251.01197447514
 20
581.4666435273442
 30
0.0
 40
1506.969586133207
100
AcDbArc
 50
272.3169411403085
 51
272.6814250817936
  0
LINE
  5
8974
330
18
100
AcDbEntity
  8
01
100
AcDbLine
 10
-1321.511997032907
 20
-923.8529505621804
 30
0.0
 11
-1336.011996165232
 21
-923.8529503448925
 31
0.0
  0
LINE
  5
8975
330
18
100
AcDbEntity
  8
01
100
AcDbLine
 10
-1166.011996548847
 20
-923.8529528923572
 30
0.0
 11
-1180.511997032907
 21
-923.8529526751148
 31
0.0
  0
LINE
  5
8976
330
18
100
AcDbEntity
  8
01
100
AcDbLine
 10
-1337.011996165227
 20
-924.8530769693165
 30
0.0
 11
-1337.011996165227
 21
-926.7529398499986
 31
0.0
  0
LINE
  5
8977
330
18
100
AcDbEntity
  8
01
100
AcDbLine
 10
-1337.011996165227
 20
-934.9529398499977
 30
0.0
 11
-1337.011996165227
 21
-936.8528082424083
 31
0.0
  0
LINE
  5
8978
330
18
100
AcDbEntity
  8
01
100
AcDbLine
 10
-1165.011996545519
 20
-936.8528082424083
 30
0.0
 11
-1165.011996545519
 21
-934.9529398499977
 31
0.0
  0
LINE
  5
8979
330
18
100
AcDbEntity
  8
01
100
AcDbLine
 10
-1165.011996545519
 20
-926.7529398499986
 30
0.0
 11
-1165.011996545519
 21
-924.8530769693165
 31
0.0
  0
LINE
  5
897A
330
18
100
AcDbEntity
  8
01
100
AcDbLine
 10
-1165.011996545519
 20
-935.2029426058645
 30
0.0
 11
-1337.011996165227
 21
-935.2029426058645
 31
0.0
  0
LINE
  5
897B
330
18
100
AcDbEntity
  8
01
100
AcDbLine
 10
-1337.011996165227
 20
-926.5029426058635
 30
0.0
 11
-1165.011996545519
 21
-926.5029426058635
 31
0.0
  0
ARC
  5
897C
330
18
100
AcDbEntity
  8
01
100
AcDbCircle
 10
-1166.011882476101
 20
-936.8530489062788
 30
0.0
 40
0.9998859595582319
100
AcDbArc
 50
269.9934635583506
 51
0.0137905965674827
  0
ARC
  5
897D
330
18
100
AcDbEntity
  8
01
100
AcDbCircle
 10
-1336.012114556313
 20
-936.8530506955859
 30
0.0
 40
0.9998816382968578
100
AcDbArc
 50
179.9861068117704
 51
270.0067843030212
  0
LINE
  5
897E
330
18
100
AcDbEntity
  8
01
100
AcDbLine
 10
-1336.012114556313
 20
-937.8529323193694
 30
0.0
 11
-1321.511997032907
 21
-937.85293253661
 31
0.0
  0
ARC
  5
897F
330
18
100
AcDbEntity
  8
01
100
AcDbCircle
 10
-1251.012019590673
 20
-2443.172528739064
 30
0.0
 40
1506.969586133202
100
AcDbArc
 50
87.3185732010667
 51
87.68305882446226
  0
ARC
  5
8980
330
18
100
AcDbEntity
  8
01
100
AcDbCircle
 10
-1251.012019590673
 20
-2443.172528739064
 30
0.0
 40
1506.969586133202
100
AcDbArc
 50
92.31694114054318
 51
92.6814250817936
  0
LINE
  5
8981
330
18
100
AcDbEntity
  8
01
100
AcDbLine
 10
-1180.511997032907
 20
-937.852934649548
 30
0.0
 11
-1166.011996545519
 21
-937.8529348668354
 31
0.0
  0
LINE
  5
8982
330
18
100
AcDbEntity
  8
01
100
AcDbLine
 10
-1336.011996165232
 20
-937.4349123553867
 30
0.0
 11
-1166.012110618264
 21
-937.4349124072966
 31
0.0
  0
LINE
  5
8983
330
18
100
AcDbEntity
  8
1CENTER
100
AcDbLine
 10
-1191.011996751975
 20
-935.2029426058645
 30
0.0
 11
-1191.011996751975
 21
-927.1773846635327
 31
0.0
  0
LINE
  5
8984
330
18
100
AcDbEntity
  8
1CENTER
100
AcDbLine
 10
-1195.136719883574
 20
-930.852939849999
 30
0.0
 11
-1186.731582158778
 21
-930.852939849999
 31
0.0
  0
LINE
  5
8985
330
18
100
AcDbEntity
  8
1CENTER
100
AcDbLine
 10
-1311.011996751975
 20
-925.8436515817151
 30
0.0
 11
-1311.011996751975
 21
-935.6864776333342
 31
0.0
  0
LINE
  5
8986
330
18
100
AcDbEntity
  8
1CENTER
100
AcDbLine
 10
-1318.110412817342
 20
-930.8537160742848
 30
0.0
 11
-1306.376061438326
 21
-930.8537160742848
 31
0.0
  0
CIRCLE
  5
8987
330
18
100
AcDbEntity
  8
1HIDDEN
100
AcDbCircle
 10
-1311.011996751975
 20
-930.8537160742848
 30
0.0
 40
1.649317432644011
  0
CIRCLE
  5
8988
330
18
100
AcDbEntity
  8
1HIDDEN
100
AcDbCircle
 10
-1311.011996751975
 20
-930.8537160742848
 30
0.0
 40
2.0
  0
CIRCLE
  5
8989
330
18
100
AcDbEntity
  8
1HIDDEN
100
AcDbCircle
 10
-1191.011999529701
 20
-930.852942605877
 30
0.0
 40
2.250000021867208
  0
ARC
  5
898A
330
18
100
AcDbEntity
  8
01
100
AcDbCircle
 10
-1336.011942222322
 20
-925.271026756266
 30
0.0
 40
1.000053945550713
100
AcDbArc
 50
90.00309053439
 51
180.0041636219775
  0
ARC
  5
898B
330
18
100
AcDbEntity
  8
01
100
AcDbCircle
 10
-1336.011996165232
 20
-936.43503071709
 30
0.0
 40
0.9998816382968578
100
AcDbArc
 50
179.9861068117704
 51
270.0067843030212
  0
ARC
  5
898C
330
18
100
AcDbEntity
  8
01
100
AcDbCircle
 10
-1166.012046171465
 20
-925.2710224840515
 30
0.0
 40
1.000049628718545
100
AcDbArc
 50
359.9957341422758
 51
89.997156974507
  0
ARC
  5
898D
330
18
100
AcDbEntity
  8
01
100
AcDbCircle
 10
-1166.011996548847
 20
-936.4350264477381
 30
0.0
 40
0.9998859595582319
100
AcDbArc
 50
269.9934635583506
 51
0.0137905965674827
  0
LINE
  5
898E
330
18
100
AcDbEntity
  8
01
100
AcDbLine
 10
-1163.011996466839
 20
-932.9529398499973
 30
0.0
 11
-1163.011996466839
 21
-928.7529398499986
 31
0.0
  0
ARC
  5
898F
330
18
100
AcDbEntity
  8
01
100
AcDbCircle
 10
-1165.011996466839
 20
-932.9529398499973
 30
0.0
 40
2.000000000000322
100
AcDbArc
 50
270.0000000002084
 51
0.0
  0
ARC
  5
8990
330
18
100
AcDbEntity
  8
01
100
AcDbCircle
 10
-1165.011996466839
 20
-928.7529398499986
 30
0.0
 40
2.000000000000055
100
AcDbArc
 50
0.0
 51
90.0
  0
LINE
  5
8991
330
18
100
AcDbEntity
  8
01
100
AcDbLine
 10
-1339.011997037111
 20
-932.9529398499973
 30
0.0
 11
-1339.011997037111
 21
-928.7529398499986
 31
0.0
  0
ARC
  5
8992
330
18
100
AcDbEntity
  8
01
100
AcDbCircle
 10
-1337.011997037111
 20
-932.9529398499973
 30
0.0
 40
2.000000000000322
100
AcDbArc
 50
180.0
 51
269.9999999997916
  0
ARC
  5
8993
330
18
100
AcDbEntity
  8
01
100
AcDbCircle
 10
-1337.011997037111
 20
-928.7529398499986
 30
0.0
 40
2.000000000000055
100
AcDbArc
 50
90.0
 51
180.0
  0
LINE
  5
8994
330
18
100
AcDbEntity
  8
01
100
AcDbLine
 10
-1165.011996466839
 20
-926.7529398499986
 30
0.0
 11
-1337.011997037111
 21
-926.7529398499986
 31
0.0
  0
LINE
  5
8995
330
18
100
AcDbEntity
  8
01
100
AcDbLine
 10
-1165.011996466831
 20
-934.9529398499977
 30
0.0
 11
-1337.011997037118
 21
-934.9529398499977
 31
0.0
  0
LINE
  5
8BFB
330
18
100
AcDbEntity
  8
01
100
AcDbLine
 10
-1085.065086899484
 20
-1026.124607675871
 30
0.0
 11
-1085.113579331125
 21
-1026.124745004973
 31
0.0
  0
LINE
  5
8BFC
330
18
100
AcDbEntity
  8
01
100
AcDbLine
 10
-1085.113579331125
 20
-1026.124745004973
 30
0.0
 11
-1085.266701279367
 21
-1026.124882334074
 31
0.0
  0
LINE
  5
8BFD
330
18
100
AcDbEntity
  8
01
100
AcDbLine
 10
-1085.266701279367
 20
-1026.124882334074
 30
0.0
 11
-1085.525467453683
 21
-1026.124943369231
 31
0.0
  0
LINE
  5
8BFE
330
18
100
AcDbEntity
  8
01
100
AcDbLine
 10
-1085.525467453683
 20
-1026.124943369231
 30
0.0
 11
-1085.879608689035
 21
-1026.124912851652
 31
0.0
  0
LINE
  5
8BFF
330
18
100
AcDbEntity
  8
01
100
AcDbLine
 10
-1085.879608689035
 20
-1026.124912851652
 30
0.0
 11
-1086.318146286691
 21
-1026.12479078134
 31
0.0
  0
LINE
  5
8C00
330
18
100
AcDbEntity
  8
01
100
AcDbLine
 10
-1086.318146286691
 20
-1026.12479078134
 30
0.0
 11
-1086.865196762765
 21
-1026.124607675871
 31
0.0
  0
LINE
  5
8C01
330
18
100
AcDbEntity
  8
01
100
AcDbLine
 10
-1086.865196762765
 20
-1026.124607675871
 30
0.0
 11
-1087.44152885505
 21
-1026.124500864348
 31
0.0
  0
LINE
  5
8C02
330
18
100
AcDbEntity
  8
01
100
AcDbLine
 10
-1087.44152885505
 20
-1026.124500864348
 30
0.0
 11
-1088.008781967843
 21
-1026.12447034677
 31
0.0
  0
LINE
  5
8C03
330
18
100
AcDbEntity
  8
01
100
AcDbLine
 10
-1088.008781967843
 20
-1026.12447034677
 30
0.0
 11
-1088.565178452218
 21
-1026.124516123136
 31
0.0
  0
LINE
  5
8C04
330
18
100
AcDbEntity
  8
01
100
AcDbLine
 10
-1092.065275726999
 20
-1024.124607671571
 30
0.0
 11
-1092.016783295358
 21
-1024.12447034247
 31
0.0
  0
LINE
  5
8C05
330
18
100
AcDbEntity
  8
01
100
AcDbLine
 10
-1092.016783295358
 20
-1024.12447034247
 30
0.0
 11
-1091.863661347116
 21
-1024.124333013369
 31
0.0
  0
LINE
  5
8C06
330
18
100
AcDbEntity
  8
01
100
AcDbLine
 10
-1091.863661347116
 20
-1024.124333013369
 30
0.0
 11
-1091.604895172799
 21
-1024.124271978212
 31
0.0
  0
LINE
  5
8C07
330
18
100
AcDbEntity
  8
01
100
AcDbLine
 10
-1091.604895172799
 20
-1024.124271978212
 30
0.0
 11
-1091.250753937448
 21
-1024.12430249579
 31
0.0
  0
LINE
  5
8C08
330
18
100
AcDbEntity
  8
01
100
AcDbLine
 10
-1091.250753937448
 20
-1024.12430249579
 30
0.0
 11
-1090.812216339792
 21
-1024.124424566103
 31
0.0
  0
LINE
  5
8C09
330
18
100
AcDbEntity
  8
01
100
AcDbLine
 10
-1090.812216339792
 20
-1024.124424566103
 30
0.0
 11
-1090.265165863718
 21
-1024.124607671571
 31
0.0
  0
LINE
  5
8C0A
330
18
100
AcDbEntity
  8
01
100
AcDbLine
 10
-1090.265165863718
 20
-1024.124607671571
 30
0.0
 11
-1089.688833771433
 21
-1024.124714483094
 31
0.0
  0
LINE
  5
8C0B
330
18
100
AcDbEntity
  8
01
100
AcDbLine
 10
-1089.688833771433
 20
-1024.124714483094
 30
0.0
 11
-1089.12158065864
 21
-1024.124745000674
 31
0.0
  0
LINE
  5
8C0C
330
18
100
AcDbEntity
  8
01
100
AcDbLine
 10
-1089.12158065864
 20
-1024.124745000674
 30
0.0
 11
-1088.565184174265
 21
-1024.124699224306
 31
0.0
  0
LINE
  5
8C0E
330
18
100
AcDbEntity
  8
1CENTER
100
AcDbLine
 10
-1311.011997545178
 20
-991.0986321341752
 30
0.0
 11
-1311.011997545178
 21
-1045.97520314732
 31
0.0
  0
LINE
  5
8C0F
330
18
100
AcDbEntity
  8
1HATCH
100
AcDbLine
 10
-1312.661997545178
 20
-992.1245125006094
 30
0.0
 11
-1312.661997545178
 21
-1042.124512500609
 31
0.0
  0
LINE
  5
8C10
330
18
100
AcDbEntity
  8
1HATCH
100
AcDbLine
 10
-1309.361997545178
 20
-992.1245125006094
 30
0.0
 11
-1309.361997545178
 21
-1042.124512500609
 31
0.0
  0
LINE
  5
8C11
330
18
100
AcDbEntity
  8
1HATCH
100
AcDbLine
 10
-1309.011997545178
 20
-992.4745125006094
 30
0.0
 11
-1313.011997545178
 21
-992.4745125006094
 31
0.0
  0
LINE
  5
8C12
330
18
100
AcDbEntity
  8
0
100
AcDbLine
 10
-1309.011997545178
 20
-1042.124512500609
 30
0.0
 11
-1313.011997545178
 21
-1042.124512500609
 31
0.0
  0
LINE
  5
8C14
330
18
100
AcDbEntity
  8
1CENTER
100
AcDbLine
 10
-1191.011998338381
 20
-1059.150392867044
 30
0.0
 11
-1191.011998338381
 21
-1004.273821853898
 31
0.0
  0
LINE
  5
8C15
330
18
100
AcDbEntity
  8
1HATCH
100
AcDbLine
 10
-1189.361998338381
 20
-1058.124512500609
 30
0.0
 11
-1189.361998338381
 21
-1008.12451250061
 31
0.0
  0
LINE
  5
8C16
330
18
100
AcDbEntity
  8
1HATCH
100
AcDbLine
 10
-1192.661998338381
 20
-1058.124512500609
 30
0.0
 11
-1192.661998338381
 21
-1008.12451250061
 31
0.0
  0
LINE
  5
8C17
330
18
100
AcDbEntity
  8
1HATCH
100
AcDbLine
 10
-1193.011998338381
 20
-1057.774512500609
 30
0.0
 11
-1189.011998338381
 21
-1057.774512500609
 31
0.0
  0
LINE
  5
8C18
330
18
100
AcDbEntity
  8
0
100
AcDbLine
 10
-1193.011998338381
 20
-1008.12451250061
 30
0.0
 11
-1189.011998338381
 21
-1008.12451250061
 31
0.0
  0
LINE
  5
8C1A
330
18
100
AcDbEntity
  8
1DIM
100
AcDbLine
 10
-1080.618788608015
 20
-991.6957042821995
 30
0.0
 11
-1061.507050501409
 21
-969.0028703490457
 31
0.0
1001
ACAD
1000
DSTYLE
1002
{
1070
    40
1040
1.0
1002
}
  0
LINE
  5
8C1B
330
18
100
AcDbEntity
  8
1DIM
100
AcDbLine
 10
-1061.507050501409
 20
-969.0028703490457
 30
0.0
 11
-1014.240383834742
 21
-969.0028703490457
 31
0.0
1001
ACAD
1000
DSTYLE
1002
{
1070
    40
1040
1.0
1002
}
  0
TEXT
  5
8C1C
330
18
100
AcDbEntity
  8
1DIM
  6
CONTINUOUS
100
AcDbText
 10
-1059.040383834742
 20
-962.4695370157123
 30
0.0
 40
3.5
  1
材質：亜鉛ダイキャスト
 50
0.000000000000014
100
AcDbText
  0
TEXT
  5
8C1D
330
18
100
AcDbEntity
  8
1DIM
  6
CONTINUOUS
100
AcDbText
 10
-1058.923717168075
 20
-968.3028703490456
 30
0.0
 40
3.5
  1
仕上：各種仕上げ
 50
0.000000000000014
100
AcDbText
  0
LINE
  5
8C1E
330
18
100
AcDbEntity
  8
1DIM
100
AcDbLine
 10
-1311.011997545178
 20
-996.0986321341752
 30
0.0
 11
-1311.011997545178
 21
-956.5899044134723
 31
0.0
1001
ACAD
1000
DSTYLE
1002
{
1070
   271
1070
     1
1002
}
  0
LINE
  5
8C1F
330
18
100
AcDbEntity
  8
1DIM
100
AcDbLine
 10
-1191.011998338381
 20
-1004.273821853898
 30
0.0
 11
-1191.011998338381
 21
-956.5899044134723
 31
0.0
1001
ACAD
1000
DSTYLE
1002
{
1070
   271
1070
     1
1002
}
  0
LINE
  5
8C20
330
18
100
AcDbEntity
  8
1DIM
100
AcDbLine
 10
-1309.011997545178
 20
-957.5899044134723
 30
0.0
 11
-1193.011998338381
 21
-957.5899044134723
 31
0.0
1001
ACAD
1000
DSTYLE
1002
{
1070
   271
1070
     1
1002
}
  0
LINE
  5
8C25
330
18
100
AcDbEntity
  8
1DIM
100
AcDbLine
 10
-1269.424529697225
 20
-977.6357990624425
 30
0.0
 11
-1264.066513539845
 21
-974.2298185816555
 31
0.0
1001
ACAD
1000
DSTYLE
1002
{
1070
    40
1040
1.0
1002
}
  0
LINE
  5
8C26
330
18
100
AcDbEntity
  8
1DIM
100
AcDbLine
 10
-1264.066513539845
 20
-974.2298185816555
 30
0.0
 11
-1224.966513539845
 21
-974.2298185816555
 31
0.0
1001
ACAD
1000
DSTYLE
1002
{
1070
    40
1040
1.0
1002
}
  0
TEXT
  5
8C27
330
18
100
AcDbEntity
  8
1DIM
  6
CONTINUOUS
100
AcDbText
 10
-1261.599846873179
 20
-967.6964852483221
 30
0.0
 40
3.5
  1
材質：エラストマー
 50
0.000000000000014
100
AcDbText
  0
TEXT
  5
8C28
330
18
100
AcDbEntity
  8
1DIM
  6
CONTINUOUS
100
AcDbText
 10
-1261.483180206512
 20
-973.5298185816555
 30
0.0
 40
3.5
  1
仕上：各種仕上げ
 50
0.000000000000014
100
AcDbText
  0
LINE
  5
8C29
330
18
100
AcDbEntity
  8
1DIM
100
AcDbLine
 10
-1339.011997037111
 20
-985.6245125006126
 30
0.0
 11
-1339.011997037111
 21
-947.9811865393293
 31
0.0
1001
ACAD
1000
DSTYLE
1002
{
1070
   271
1070
     1
1002
}
  0
LINE
  5
8C2A
330
18
100
AcDbEntity
  8
1DIM
100
AcDbLine
 10
-1163.011997260043
 20
-985.6245125006095
 30
0.0
 11
-1163.011997260043
 21
-947.9811865393293
 31
0.0
1001
ACAD
1000
DSTYLE
1002
{
1070
   271
1070
     1
1002
}
  0
LINE
  5
8C2B
330
18
100
AcDbEntity
  8
1DIM
100
AcDbLine
 10
-1337.011997037111
 20
-948.9811865393293
 30
0.0
 11
-1165.011997260043
 21
-948.9811865393293
 31
0.0
1001
ACAD
1000
DSTYLE
1002
{
1070
   271
1070
     1
1002
}
  0
LINE
  5
8C2F
330
18
100
AcDbEntity
  8
1DIM
100
AcDbLine
 10
-1059.052541759424
 20
-1039.124512500609
 30
0.0
 11
-1030.626427241534
 21
-1039.124512500609
 31
0.0
  0
LINE
  5
8C30
330
18
100
AcDbEntity
  8
1DIM
100
AcDbLine
 10
-1059.052541759424
 20
-1011.124702846836
 30
0.0
 11
-1030.626427241534
 21
-1011.124702846836
 31
0.0
  0
LINE
  5
8C31
330
18
100
AcDbEntity
  8
1DIM
100
AcDbLine
 10
-1031.626427241534
 20
-1013.124702846836
 30
0.0
 11
-1031.626427241534
 21
-1037.124512500609
 31
0.0
  0
LINE
  5
8C32
330
18
100
AcDbEntity
  8
1DIM
100
AcDbLine
 10
-1031.626427241534
 20
-1039.124512500609
 30
0.0
 11
-1031.626427241534
 21
-1078.458036180169
 31
0.0
  0
TEXT
  5
8C36
330
18
100
AcDbEntity
  8
1DIM
  6
CONTINUOUS
100
AcDbText
 10
-1072.744735458052
 20
-1020.609092705332
 30
0.0
 40
3.5
  1
施工取付貫通穴径
100
AcDbText
  0
TEXT
  5
8C37
330
18
100
AcDbEntity
  8
1DIM
  6
CONTINUOUS
100
AcDbText
 10
-1073.678068791386
 20
-1026.442426038665
 30
0.0
 40
3.5
  1
φ9（参考値）
100
AcDbText
  0
LINE
  5
8C39
330
18
100
AcDbEntity
  8
1DIM
100
AcDbLine
 10
-1082.886786193087
 20
-1016.936841246421
 30
0.0
 11
-1075.444735458052
 21
-1027.142426038665
 31
0.0
  0
LINE
  5
8C3A
330
18
100
AcDbEntity
  8
1DIM
100
AcDbLine
 10
-1075.444735458052
 20
-1027.142426038665
 30
0.0
 11
-1039.844735458052
 21
-1027.142426038665
 31
0.0
  0
TEXT
  5
8C3B
330
18
100
AcDbEntity
  8
1DIM
  6
CONTINUOUS
100
AcDbText
 10
-1059.561698392927
 20
-990.0902245640397
 30
0.0
 40
3.5
  1
フラッシュパネル等
100
AcDbText
  0
TEXT
  5
8C3C
330
18
100
AcDbEntity
  8
1DIM
  6
CONTINUOUS
100
AcDbText
 10
-1059.678365059593
 20
-995.923557897373
 30
0.0
 40
3.5
  1
中空部には取り付け不可
100
AcDbText
  0
LINE
  5
8C3E
330
18
100
AcDbEntity
  8
1DIM
100
AcDbLine
 10
-1070.383620554888
 20
-1013.761437457592
 30
0.0
 11
-1061.911698392927
 21
-996.6235578973731
 31
0.0
  0
LINE
  5
8C3F
330
18
100
AcDbEntity
  8
1DIM
100
AcDbLine
 10
-1061.911698392927
 20
-996.6235578973731
 30
0.0
 11
-1014.178365059593
 21
-996.6235578973731
 31
0.0
  0
LINE
  5
8C40
330
18
100
AcDbEntity
  8
1DIM
100
AcDbLine
 10
-1187.511997643527
 20
-1024.124512500609
 30
0.0
 11
-1135.054881481886
 21
-1024.124512500609
 31
0.0
  0
LINE
  5
8C41
330
18
100
AcDbEntity
  8
1DIM
100
AcDbLine
 10
-1136.054881481886
 20
-1011.12451250061
 30
0.0
 11
-1137.054881481886
 21
-1011.12451250061
 31
0.0
  0
LINE
  5
8C42
330
18
100
AcDbEntity
  8
1DIM
100
AcDbLine
 10
-1136.054881481886
 20
-1022.124512500609
 30
0.0
 11
-1136.054881481886
 21
-1013.12451250061
 31
0.0
  0
LINE
  5
8C46
330
18
100
AcDbEntity
  8
1DIM
100
AcDbLine
 10
-1141.889954151626
 20
-1011.124512500609
 30
0.0
 11
-1135.054881481886
 21
-1011.124512500609
 31
0.0
  0
LINE
  5
8C47
330
18
100
AcDbEntity
  8
1DIM
100
AcDbLine
 10
-1170.011997260016
 20
-978.6245125006078
 30
0.0
 11
-1135.054881481886
 21
-978.6245125006078
 31
0.0
  0
LINE
  5
8C48
330
18
100
AcDbEntity
  8
1DIM
100
AcDbLine
 10
-1136.054881481886
 20
-1009.124512500609
 30
0.0
 11
-1136.054881481886
 21
-980.6245125006078
 31
0.0
  0
TEXT
  5
8C4C
330
18
100
AcDbEntity
  8
1DIM
  6
CONTINUOUS
100
AcDbText
 10
-1173.569793514338
 20
-1033.15545039829
 30
0.0
 40
3.5
  1
M4×50十字穴付なべ小ネジ
100
AcDbText
  0
LINE
  5
8C4E
330
18
100
AcDbEntity
  8
1DIM
100
AcDbLine
 10
-1188.726980692995
 20
-1022.292284802498
 30
0.0
 11
-1176.269793514338
 21
-1033.85545039829
 31
0.0
  0
LINE
  5
8C4F
330
18
100
AcDbEntity
  8
1DIM
100
AcDbLine
 10
-1176.269793514338
 20
-1033.85545039829
 30
0.0
 11
-1119.053126847671
 21
-1033.85545039829
 31
0.0
  0
LINE
  5
8C50
330
18
100
AcDbEntity
  8
1DIM
100
AcDbLine
 10
-1095.565173564639
 20
-1011.124702846836
 30
0.0
 11
-1095.565173564639
 21
-964.3186758990108
 31
0.0
  0
LINE
  5
8C51
330
18
100
AcDbEntity
  8
1DIM
100
AcDbLine
 10
-1081.565189061843
 20
-1011.124702846836
 30
0.0
 11
-1081.565189061843
 21
-964.3186758990108
 31
0.0
  0
LINE
  5
8C52
330
18
100
AcDbEntity
  8
1DIM
100
AcDbLine
 10
-1093.565173564639
 20
-965.3186758990108
 30
0.0
 11
-1083.565189061843
 21
-965.3186758990108
 31
0.0
  0
LINE
  5
8C56
330
18
100
AcDbEntity
  8
0
100
AcDbLine
 10
-1313.011997545178
 20
-992.4745125006094
 30
0.0
 11
-1313.011997545178
 21
-1042.124512500609
 31
0.0
  0
LINE
  5
8C57
330
18
100
AcDbEntity
  8
0
100
AcDbLine
 10
-1313.011997545178
 20
-1042.124512500609
 30
0.0
 11
-1314.511997545178
 21
-1042.124512500609
 31
0.0
  0
LINE
  5
8C58
330
18
100
AcDbEntity
  8
0
100
AcDbLine
 10
-1314.511997545178
 20
-1042.124512500609
 30
0.0
 11
-1314.511997545178
 21
-1042.724512500609
 31
0.0
  0
ARC
  5
8C59
330
18
100
AcDbEntity
  8
0
100
AcDbCircle
 10
-1312.511997545178
 20
-1042.724512500609
 30
0.0
 40
2.0
100
AcDbArc
 50
180.0
 51
270.0
  0
LINE
  5
8C5A
330
18
100
AcDbEntity
  8
0
100
AcDbLine
 10
-1312.511997545178
 20
-1044.724512500609
 30
0.0
 11
-1309.511997545178
 21
-1044.724512500609
 31
0.0
  0
ARC
  5
8C5B
330
18
100
AcDbEntity
  8
0
100
AcDbCircle
 10
-1309.511997545178
 20
-1042.724512500609
 30
0.0
 40
2.0
100
AcDbArc
 50
270.0
 51
0.0
  0
LINE
  5
8C5C
330
18
100
AcDbEntity
  8
0
100
AcDbLine
 10
-1307.511997545178
 20
-1042.724512500609
 30
0.0
 11
-1307.511997545178
 21
-1042.124512500609
 31
0.0
  0
LINE
  5
8C5D
330
18
100
AcDbEntity
  8
0
100
AcDbLine
 10
-1307.511997545178
 20
-1042.124512500609
 30
0.0
 11
-1309.011997545178
 21
-1042.124512500609
 31
0.0
  0
LINE
  5
8C5E
330
18
100
AcDbEntity
  8
0
100
AcDbLine
 10
-1309.011997545178
 20
-1042.124512500609
 30
0.0
 11
-1309.011997545178
 21
-992.4745125006094
 31
0.0
  0
LINE
  5
8C5F
330
18
100
AcDbEntity
  8
0
100
AcDbLine
 10
-1309.011997545178
 20
-992.4745125006094
 30
0.0
 11
-1309.361997545178
 21
-992.1245125006094
 31
0.0
  0
LINE
  5
8C60
330
18
100
AcDbEntity
  8
0
100
AcDbLine
 10
-1309.361997545178
 20
-992.1245125006094
 30
0.0
 11
-1312.661997545178
 21
-992.1245125006094
 31
0.0
  0
LINE
  5
8C61
330
18
100
AcDbEntity
  8
0
100
AcDbLine
 10
-1312.661997545178
 20
-992.1245125006094
 30
0.0
 11
-1313.011997545178
 21
-992.4745125006094
 31
0.0
  0
LINE
  5
8C62
330
18
100
AcDbEntity
  8
0
100
AcDbLine
 10
-1189.011998338381
 20
-1057.774512500609
 30
0.0
 11
-1189.011998338381
 21
-1008.12451250061
 31
0.0
  0
LINE
  5
8C63
330
18
100
AcDbEntity
  8
0
100
AcDbLine
 10
-1189.011998338381
 20
-1008.12451250061
 30
0.0
 11
-1187.511998338381
 21
-1008.12451250061
 31
0.0
  0
LINE
  5
8C64
330
18
100
AcDbEntity
  8
0
100
AcDbLine
 10
-1187.511998338381
 20
-1008.12451250061
 30
0.0
 11
-1187.511998338381
 21
-1007.524512500609
 31
0.0
  0
ARC
  5
8C65
330
18
100
AcDbEntity
  8
0
100
AcDbCircle
 10
-1189.511998338381
 20
-1007.524512500609
 30
0.0
 40
2.0
100
AcDbArc
 50
0.0
 51
90.0
  0
LINE
  5
8C66
330
18
100
AcDbEntity
  8
0
100
AcDbLine
 10
-1189.511998338381
 20
-1005.524512500609
 30
0.0
 11
-1192.511998338381
 21
-1005.524512500609
 31
0.0
  0
ARC
  5
8C67
330
18
100
AcDbEntity
  8
0
100
AcDbCircle
 10
-1192.511998338381
 20
-1007.524512500609
 30
0.0
 40
2.0
100
AcDbArc
 50
90.0
 51
180.0
  0
LINE
  5
8C68
330
18
100
AcDbEntity
  8
0
100
AcDbLine
 10
-1194.511998338381
 20
-1007.524512500609
 30
0.0
 11
-1194.511998338381
 21
-1008.12451250061
 31
0.0
  0
LINE
  5
8C69
330
18
100
AcDbEntity
  8
0
100
AcDbLine
 10
-1194.511998338381
 20
-1008.12451250061
 30
0.0
 11
-1193.011998338381
 21
-1008.12451250061
 31
0.0
  0
LINE
  5
8C6A
330
18
100
AcDbEntity
  8
0
100
AcDbLine
 10
-1193.011998338381
 20
-1008.12451250061
 30
0.0
 11
-1193.011998338381
 21
-1057.774512500609
 31
0.0
  0
LINE
  5
8C6B
330
18
100
AcDbEntity
  8
0
100
AcDbLine
 10
-1193.011998338381
 20
-1057.774512500609
 30
0.0
 11
-1192.661998338381
 21
-1058.124512500609
 31
0.0
  0
LINE
  5
8C6C
330
18
100
AcDbEntity
  8
0
100
AcDbLine
 10
-1192.661998338381
 20
-1058.124512500609
 30
0.0
 11
-1189.361998338381
 21
-1058.124512500609
 31
0.0
  0
LINE
  5
8C6D
330
18
100
AcDbEntity
  8
0
100
AcDbLine
 10
-1189.361998338381
 20
-1058.124512500609
 30
0.0
 11
-1189.011998338381
 21
-1057.774512500609
 31
0.0
  0
LINE
  5
8C6E
330
18
100
AcDbEntity
  8
0
  6
BYBLOCK
100
AcDbLine
 10
-1080.208891586622
 20
-992.0409165437715
 30
0.0
 11
-1081.907138319287
 21
-993.2254608057892
 31
0.0
  0
LINE
  5
8C6F
330
18
100
AcDbEntity
  8
0
  6
BYBLOCK
100
AcDbLine
 10
-1081.907138319287
 20
-993.2254608057892
 30
0.0
 11
-1081.028685629408
 21
-991.3504920206274
 31
0.0
  0
LINE
  5
8C70
330
18
100
AcDbEntity
  8
0
  6
BYBLOCK
100
AcDbLine
 10
-1081.907138319287
 20
-993.2254608057892
 30
0.0
 11
-1080.618788608015
 21
-991.6957042821995
 31
0.0
  0
LINE
  5
8C71
330
18
100
AcDbEntity
  8
0
  6
BYBLOCK
100
AcDbLine
 10
-1309.011997545178
 20
-958.1258027934723
 30
0.0
 11
-1311.011997545178
 21
-957.5899044134723
 31
0.0
  0
LINE
  5
8C72
330
18
100
AcDbEntity
  8
0
  6
BYBLOCK
100
AcDbLine
 10
-1311.011997545178
 20
-957.5899044134723
 30
0.0
 11
-1309.011997545178
 21
-957.0540060334722
 31
0.0
  0
LINE
  5
8C73
330
18
100
AcDbEntity
  8
0
  6
BYBLOCK
100
AcDbLine
 10
-1311.011997545178
 20
-957.5899044134723
 30
0.0
 11
-1309.011997545178
 21
-957.5899044134723
 31
0.0
  0
LINE
  5
8C74
330
18
100
AcDbEntity
  8
0
  6
BYBLOCK
100
AcDbLine
 10
-1193.011998338381
 20
-957.0540060334722
 30
0.0
 11
-1191.011998338381
 21
-957.5899044134723
 31
0.0
  0
LINE
  5
8C75
330
18
100
AcDbEntity
  8
0
  6
BYBLOCK
100
AcDbLine
 10
-1191.011998338381
 20
-957.5899044134723
 30
0.0
 11
-1193.011998338381
 21
-958.1258027934723
 31
0.0
  0
LINE
  5
8C76
330
18
100
AcDbEntity
  8
0
  6
BYBLOCK
100
AcDbLine
 10
-1191.011998338381
 20
-957.5899044134723
 30
0.0
 11
-1193.011998338381
 21
-957.5899044134723
 31
0.0
  0
TEXT
  5
8C77
330
18
100
AcDbEntity
  8
1DIM
  6
CONTINUOUS
100
AcDbText
 10
-1256.626580878511
 20
-956.8899044134722
 30
0.0
 40
3.5
  1
P120
100
AcDbText
1001
ACAD
1000
DSTYLE
1002
{
1070
   271
1070
     1
1002
}
  0
LINE
  5
8C78
330
18
100
AcDbEntity
  8
0
  6
BYBLOCK
100
AcDbLine
 10
-1269.137039281804
 20
-978.0880559968585
 30
0.0
 11
-1271.112375569855
 21
-978.7087279092201
 31
0.0
  0
LINE
  5
8C79
330
18
100
AcDbEntity
  8
0
  6
BYBLOCK
100
AcDbLine
 10
-1271.112375569855
 20
-978.7087279092201
 30
0.0
 11
-1269.712020112647
 21
-977.1835421280266
 31
0.0
  0
LINE
  5
8C7A
330
18
100
AcDbEntity
  8
0
  6
BYBLOCK
100
AcDbLine
 10
-1271.112375569855
 20
-978.7087279092201
 30
0.0
 11
-1269.424529697225
 21
-977.6357990624425
 31
0.0
  0
LINE
  5
8C7B
330
18
100
AcDbEntity
  8
0
  6
BYBLOCK
100
AcDbLine
 10
-1337.011997037111
 20
-949.5170849193294
 30
0.0
 11
-1339.011997037111
 21
-948.9811865393293
 31
0.0
  0
LINE
  5
8C7C
330
18
100
AcDbEntity
  8
0
  6
BYBLOCK
100
AcDbLine
 10
-1339.011997037111
 20
-948.9811865393293
 30
0.0
 11
-1337.011997037111
 21
-948.4452881593293
 31
0.0
  0
LINE
  5
8C7D
330
18
100
AcDbEntity
  8
0
  6
BYBLOCK
100
AcDbLine
 10
-1339.011997037111
 20
-948.9811865393293
 30
0.0
 11
-1337.011997037111
 21
-948.9811865393293
 31
0.0
  0
LINE
  5
8C7E
330
18
100
AcDbEntity
  8
0
  6
BYBLOCK
100
AcDbLine
 10
-1165.011997260043
 20
-948.4452881593293
 30
0.0
 11
-1163.011997260043
 21
-948.9811865393293
 31
0.0
  0
LINE
  5
8C7F
330
18
100
AcDbEntity
  8
0
  6
BYBLOCK
100
AcDbLine
 10
-1163.011997260043
 20
-948.9811865393293
 30
0.0
 11
-1165.011997260043
 21
-949.5170849193294
 31
0.0
  0
LINE
  5
8C80
330
18
100
AcDbEntity
  8
0
  6
BYBLOCK
100
AcDbLine
 10
-1163.011997260043
 20
-948.9811865393293
 30
0.0
 11
-1165.011997260043
 21
-948.9811865393293
 31
0.0
  0
TEXT
  5
8C81
330
18
100
AcDbEntity
  8
1DIM
  6
CONTINUOUS
100
AcDbText
 10
-1255.095330878511
 20
-948.2811865393293
 30
0.0
 40
3.5
  1
176
100
AcDbText
1001
ACAD
1000
DSTYLE
1002
{
1070
   271
1070
     1
1002
}
  0
LINE
  5
8C82
330
18
100
AcDbEntity
  8
0
  6
BYBLOCK
100
AcDbLine
 10
-1032.162325621534
 20
-1013.124702846836
 30
0.0
 11
-1031.626427241534
 21
-1011.124702846836
 31
0.0
  0
LINE
  5
8C83
330
18
100
AcDbEntity
  8
0
  6
BYBLOCK
100
AcDbLine
 10
-1031.626427241534
 20
-1011.124702846836
 30
0.0
 11
-1031.090528861534
 21
-1013.124702846836
 31
0.0
  0
LINE
  5
8C84
330
18
100
AcDbEntity
  8
0
  6
BYBLOCK
100
AcDbLine
 10
-1031.626427241534
 20
-1011.124702846836
 30
0.0
 11
-1031.626427241534
 21
-1013.124702846836
 31
0.0
  0
LINE
  5
8C85
330
18
100
AcDbEntity
  8
0
  6
BYBLOCK
100
AcDbLine
 10
-1031.090528861534
 20
-1037.124512500609
 30
0.0
 11
-1031.626427241534
 21
-1039.124512500609
 31
0.0
  0
LINE
  5
8C86
330
18
100
AcDbEntity
  8
0
  6
BYBLOCK
100
AcDbLine
 10
-1031.626427241534
 20
-1039.124512500609
 30
0.0
 11
-1032.162325621534
 21
-1037.124512500609
 31
0.0
  0
LINE
  5
8C87
330
18
100
AcDbEntity
  8
0
  6
BYBLOCK
100
AcDbLine
 10
-1031.626427241534
 20
-1039.124512500609
 30
0.0
 11
-1031.626427241534
 21
-1037.124512500609
 31
0.0
  0
TEXT
  5
8C88
330
18
100
AcDbEntity
  8
1DIM
  6
CONTINUOUS
100
AcDbText
 10
-1032.326427241534
 20
-1077.655952846836
 30
0.0
 40
3.5
  1
扉厚対応28 ～40
 50
90.0
100
AcDbText
  0
LINE
  5
8C89
330
18
100
AcDbEntity
  8
0
  6
BYBLOCK
100
AcDbLine
 10
-1083.319786454811
 20
-1017.252590905224
 30
0.0
 11
-1084.065179972902
 21
-1015.320862255316
 31
0.0
  0
LINE
  5
8C8A
330
18
100
AcDbEntity
  8
0
  6
BYBLOCK
100
AcDbLine
 10
-1084.065179972902
 20
-1015.320862255316
 30
0.0
 11
-1082.453785931363
 21
-1016.621091587619
 31
0.0
  0
LINE
  5
8C8B
330
18
100
AcDbEntity
  8
0
  6
BYBLOCK
100
AcDbLine
 10
-1084.065179972902
 20
-1015.320862255316
 30
0.0
 11
-1082.886786193087
 21
-1016.936841246421
 31
0.0
  0
LINE
  5
8C8C
330
18
100
AcDbEntity
  8
0
  6
BYBLOCK
100
AcDbLine
 10
-1069.903215579983
 20
-1013.998920370184
 30
0.0
 11
-1071.269918858652
 21
-1015.554333248413
 31
0.0
  0
LINE
  5
8C8D
330
18
100
AcDbEntity
  8
0
  6
BYBLOCK
100
AcDbLine
 10
-1071.269918858652
 20
-1015.554333248413
 30
0.0
 11
-1070.864025529792
 21
-1013.523954545
 31
0.0
  0
LINE
  5
8C8E
330
18
100
AcDbEntity
  8
0
  6
BYBLOCK
100
AcDbLine
 10
-1071.269918858652
 20
-1015.554333248413
 30
0.0
 11
-1070.383620554888
 21
-1013.761437457592
 31
0.0
  0
LINE
  5
8C8F
330
18
100
AcDbEntity
  8
0
  6
BYBLOCK
100
AcDbLine
 10
-1135.518983101886
 20
-1022.124512500609
 30
0.0
 11
-1136.054881481886
 21
-1024.124512500609
 31
0.0
  0
LINE
  5
8C90
330
18
100
AcDbEntity
  8
0
  6
BYBLOCK
100
AcDbLine
 10
-1136.054881481886
 20
-1024.124512500609
 30
0.0
 11
-1136.590779861886
 21
-1022.124512500609
 31
0.0
  0
LINE
  5
8C91
330
18
100
AcDbEntity
  8
0
  6
BYBLOCK
100
AcDbLine
 10
-1136.054881481886
 20
-1024.124512500609
 30
0.0
 11
-1136.054881481886
 21
-1022.124512500609
 31
0.0
  0
LINE
  5
8C92
330
18
100
AcDbEntity
  8
0
  6
BYBLOCK
100
AcDbLine
 10
-1136.590779861886
 20
-1013.12451250061
 30
0.0
 11
-1136.054881481886
 21
-1011.12451250061
 31
0.0
  0
LINE
  5
8C93
330
18
100
AcDbEntity
  8
0
  6
BYBLOCK
100
AcDbLine
 10
-1136.054881481886
 20
-1011.12451250061
 30
0.0
 11
-1135.518983101886
 21
-1013.12451250061
 31
0.0
  0
LINE
  5
8C94
330
18
100
AcDbEntity
  8
0
  6
BYBLOCK
100
AcDbLine
 10
-1136.054881481886
 20
-1011.12451250061
 30
0.0
 11
-1136.054881481886
 21
-1013.12451250061
 31
0.0
  0
TEXT
  5
8C95
330
18
100
AcDbEntity
  8
1DIM
  6
CONTINUOUS
100
AcDbText
 10
-1136.754881481886
 20
-1019.957845833943
 30
0.0
 40
3.5
  1
13
 50
90.0
100
AcDbText
  0
LINE
  5
8C96
330
18
100
AcDbEntity
  8
0
  6
BYBLOCK
100
AcDbLine
 10
-1135.518983101886
 20
-1009.124512500609
 30
0.0
 11
-1136.054881481886
 21
-1011.124512500609
 31
0.0
  0
LINE
  5
8C97
330
18
100
AcDbEntity
  8
0
  6
BYBLOCK
100
AcDbLine
 10
-1136.054881481886
 20
-1011.124512500609
 30
0.0
 11
-1136.590779861886
 21
-1009.124512500609
 31
0.0
  0
LINE
  5
8C98
330
18
100
AcDbEntity
  8
0
  6
BYBLOCK
100
AcDbLine
 10
-1136.054881481886
 20
-1011.124512500609
 30
0.0
 11
-1136.054881481886
 21
-1009.124512500609
 31
0.0
  0
LINE
  5
8C99
330
18
100
AcDbEntity
  8
0
  6
BYBLOCK
100
AcDbLine
 10
-1136.590779861886
 20
-980.6245125006078
 30
0.0
 11
-1136.054881481886
 21
-978.6245125006078
 31
0.0
  0
LINE
  5
8C9A
330
18
100
AcDbEntity
  8
0
  6
BYBLOCK
100
AcDbLine
 10
-1136.054881481886
 20
-978.6245125006078
 30
0.0
 11
-1135.518983101886
 21
-980.6245125006078
 31
0.0
  0
LINE
  5
8C9B
330
18
100
AcDbEntity
  8
0
  6
BYBLOCK
100
AcDbLine
 10
-1136.054881481886
 20
-978.6245125006078
 30
0.0
 11
-1136.054881481886
 21
-980.6245125006078
 31
0.0
  0
TEXT
  5
8C9C
330
18
100
AcDbEntity
  8
1DIM
  6
CONTINUOUS
100
AcDbText
 10
-1136.754881481886
 20
-1000.124512500609
 30
0.0
 40
3.5
  1
32.5
 50
90.0
100
AcDbText
  0
LINE
  5
8C9D
330
18
100
AcDbEntity
  8
0
  6
BYBLOCK
100
AcDbLine
 10
-1189.091561837968
 20
-1022.685054025347
 30
0.0
 11
-1190.192815401616
 21
-1020.931649433634
 31
0.0
  0
LINE
  5
8C9E
330
18
100
AcDbEntity
  8
0
  6
BYBLOCK
100
AcDbLine
 10
-1190.192815401616
 20
-1020.931649433634
 30
0.0
 11
-1188.362399548023
 21
-1021.899515579649
 31
0.0
  0
LINE
  5
8C9F
330
18
100
AcDbEntity
  8
0
  6
BYBLOCK
100
AcDbLine
 10
-1190.192815401616
 20
-1020.931649433634
 30
0.0
 11
-1188.726980692995
 21
-1022.292284802498
 31
0.0
  0
LINE
  5
8CA0
330
18
100
AcDbEntity
  8
0
  6
BYBLOCK
100
AcDbLine
 10
-1093.565173564639
 20
-965.8545742790109
 30
0.0
 11
-1095.565173564639
 21
-965.3186758990108
 31
0.0
  0
LINE
  5
8CA1
330
18
100
AcDbEntity
  8
0
  6
BYBLOCK
100
AcDbLine
 10
-1095.565173564639
 20
-965.3186758990108
 30
0.0
 11
-1093.565173564639
 21
-964.7827775190108
 31
0.0
  0
LINE
  5
8CA2
330
18
100
AcDbEntity
  8
0
  6
BYBLOCK
100
AcDbLine
 10
-1095.565173564639
 20
-965.3186758990108
 30
0.0
 11
-1093.565173564639
 21
-965.3186758990108
 31
0.0
  0
LINE
  5
8CA3
330
18
100
AcDbEntity
  8
0
  6
BYBLOCK
100
AcDbLine
 10
-1083.565189061843
 20
-964.7827775190108
 30
0.0
 11
-1081.565189061843
 21
-965.3186758990108
 31
0.0
  0
LINE
  5
8CA4
330
18
100
AcDbEntity
  8
0
  6
BYBLOCK
100
AcDbLine
 10
-1081.565189061843
 20
-965.3186758990108
 30
0.0
 11
-1083.565189061843
 21
-965.8545742790109
 31
0.0
  0
LINE
  5
8CA5
330
18
100
AcDbEntity
  8
0
  6
BYBLOCK
100
AcDbLine
 10
-1081.565189061843
 20
-965.3186758990108
 30
0.0
 11
-1083.565189061843
 21
-965.3186758990108
 31
0.0
  0
TEXT
  5
8CA6
330
18
100
AcDbEntity
  8
1DIM
  6
CONTINUOUS
100
AcDbText
 10
-1090.898514591734
 20
-964.6186758990108
 30
0.0
 40
3.5
  1
14
100
AcDbText
  0
VIEWPORT
  5
104
330
15
100
AcDbEntity
 67
     1
  8
0
100
AcDbViewport
 68
     1
 10
0.0
 20
0.0
 30
0.0
 40
551.8723404255319
 41
297.0
 68
     1
 69
     1
1001
ACAD
1000
MVIEW
1002
{
1070
    16
1010
0.0
1020
0.0
1030
0.0
1010
0.0
1020
0.0
1030
1.0
1040
0.0
1040
297.0
1040
-4.347913730802105
1040
18.49871052385117
1040
50.0
1040
0.0
1040
0.0
1070
    16
1070
   100
1070
     0
1070
     1
1070
     0
1070
     0
1070
     0
1070
     0
1040
0.0
1040
0.0
1040
0.0
1040
10.0
1040
10.0
1040
10.0
1040
10.0
1070
     0
1002
{
1002
}
1002
}
  0
ENDSEC
  0
SECTION
  2
OBJECTS
  0
DICTIONARY
  5
C
330
0
100
AcDbDictionary
  3
ACAD_CIP_PREVIOUS_PRODUCT_INFO
350
80F5
  3
ACAD_COLOR
350
7B15
  3
ACAD_GROUP
350
D
  3
ACAD_LAYOUT
350
7B18
  3
ACAD_MATERIAL
350
7B14
  3
ACAD_MLEADERSTYLE
350
7EFA
  3
ACAD_MLINESTYLE
350
1B
  3
ACAD_PLOTSETTINGS
350
7B19
  3
ACAD_SCALELIST
350
7ED8
  3
ACAD_VISUALSTYLE
350
7EC7
  3
ACDBHEADERROUNDTRIPXREC
350
8CA8
  3
ACDBVARIABLEDICTIONARY
350
35CE
  3
CONTENTDICTIONARY
350
60
  3
DRAWINGVARIABLESDICT
350
4B9B
  3
DWGPROPS
350
8CAB
1001
ACAD
1000
TREAT_AS_HARD
1070
     0
  0
DICTIONARY
  5
80FA
330
2
100
AcDbDictionary
  3
ACAD_LAYERSTATES
360
80FB
1001
ACAD
1000
TREAT_AS_HARD
1070
     1
  0
DICTIONARY
  5
7F02
330
E
100
AcDbDictionary
  3
ADSK_XREC_LAYER_RECONCILED
360
7F03
1001
ACAD
1000
TREAT_AS_HARD
1070
     1
  0
DICTIONARY
  5
7F04
330
20
100
AcDbDictionary
  3
ADSK_XREC_LAYER_RECONCILED
360
7F05
1001
ACAD
1000
TREAT_AS_HARD
1070
     1
  0
DICTIONARY
  5
7F06
330
22
100
AcDbDictionary
  3
ADSK_XREC_LAYER_RECONCILED
360
7F07
1001
ACAD
1000
TREAT_AS_HARD
1070
     1
  0
DICTIONARY
  5
7F08
330
25
100
AcDbDictionary
  3
ADSK_XREC_LAYER_RECONCILED
360
7F09
1001
ACAD
1000
TREAT_AS_HARD
1070
     1
  0
DICTIONARY
  5
7F14
330
62D9
100
AcDbDictionary
  3
ADSK_XREC_LAYER_RECONCILED
360
7F15
1001
ACAD
1000
TREAT_AS_HARD
1070
     1
  0
DICTIONARY
  5
7F22
330
6F76
100
AcDbDictionary
  3
ADSK_XREC_LAYER_RECONCILED
360
7F23
1001
ACAD
1000
TREAT_AS_HARD
1070
     1
  0
DICTIONARY
  5
7F3A
330
741B
100
AcDbDictionary
  3
ADSK_XREC_LAYER_RECONCILED
360
7F3B
1001
ACAD
1000
TREAT_AS_HARD
1070
     1
  0
DICTIONARY
  5
7F3C
330
741C
100
AcDbDictionary
  3
ADSK_XREC_LAYER_RECONCILED
360
7F3D
1001
ACAD
1000
TREAT_AS_HARD
1070
     1
  0
DICTIONARY
  5
7F3E
330
741D
100
AcDbDictionary
  3
ADSK_XREC_LAYER_RECONCILED
360
7F3F
1001
ACAD
1000
TREAT_AS_HARD
1070
     1
  0
DICTIONARY
  5
7F40
330
7B21
100
AcDbDictionary
  3
ADSK_XREC_LAYER_RECONCILED
360
7F41
1001
ACAD
1000
TREAT_AS_HARD
1070
     1
  0
DICTIONARY
  5
7E3D
330
18
100
AcDbDictionary
  3
ACAD_SORTENTS
360
7E3E
1001
ACAD
1000
TREAT_AS_HARD
1070
     1
  0
XRECORD
  5
80F5
102
{ACAD_REACTORS
330
C
102
}
330
C
100
AcDbXrecord
300
ACDLT
300
2012
300
ACDLT_F_S
  0
DICTIONARY
  5
7B15
102
{ACAD_REACTORS
330
C
102
}
330
C
100
AcDbDictionary
1001
ACAD
1000
TREAT_AS_HARD
1070
     0
  0
DICTIONARY
  5
D
102
{ACAD_REACTORS
330
C
102
}
330
C
100
AcDbDictionary
1001
ACAD
1000
TREAT_AS_HARD
1070
     0
  0
DICTIONARY
  5
7B18
102
{ACAD_REACTORS
330
C
102
}
330
C
100
AcDbDictionary
1001
ACAD
1000
TREAT_AS_HARD
1070
     0
  0
DICTIONARY
  5
7B14
102
{ACAD_REACTORS
330
C
102
}
330
C
100
AcDbDictionary
  3
BYBLOCK
350
7EB7
  3
BYLAYER
350
7EAF
  3
GLOBAL
350
7EBF
1001
ACAD
1000
TREAT_AS_HARD
1070
     0
  0
DICTIONARY
  5
7EFA
102
{ACAD_REACTORS
330
C
102
}
330
C
100
AcDbDictionary
  3
STANDARD
350
7EFB
1001
ACAD
1000
TREAT_AS_HARD
1070
     0
  0
DICTIONARY
  5
1B
102
{ACAD_REACTORS
330
C
102
}
330
C
100
AcDbDictionary
  3
STANDARD
350
1C
1001
ACAD
1000
TREAT_AS_HARD
1070
     0
  0
DICTIONARY
  5
7B19
102
{ACAD_REACTORS
330
C
102
}
330
C
100
AcDbDictionary
1001
ACAD
1000
TREAT_AS_HARD
1070
     0
  0
DICTIONARY
  5
7ED8
102
{ACAD_REACTORS
330
C
102
}
330
C
100
AcDbDictionary
  3
A0
350
7ED9
  3
A1
350
7EDA
  3
A2
350
7EDB
  3
A3
350
7EDC
  3
A4
350
7EDD
  3
A5
350
7EDE
  3
A6
350
7EDF
  3
A7
350
7EE0
  3
A8
350
7EE1
  3
A9
350
7EE2
  3
B0
350
7EE3
  3
B1
350
7EE4
  3
B2
350
7EE5
  3
B3
350
7EE6
  3
B4
350
7EE7
  3
B5
350
7EE8
  3
B6
350
7EE9
  3
B7
350
7EEA
  3
B8
350
7EEB
  3
B9
350
7EEC
  3
C0
350
7EED
  3
C1
350
7EEE
  3
C2
350
7EEF
  3
C3
350
7EF0
  3
C4
350
7EF1
  3
C5
350
7EF2
  3
C6
350
7EF3
  3
C7
350
7EF4
  3
C8
350
7EF5
  3
C9
350
7EF6
  3
D0
350
7EF7
  3
D1
350
7EF8
  3
D2
350
7EF9
1001
ACAD
1000
TREAT_AS_HARD
1070
     0
  0
DICTIONARY
  5
7EC7
102
{ACAD_REACTORS
330
C
102
}
330
C
100
AcDbDictionary
  3
2DWIREFRAME
350
7ECD
  3
3D_HIDDEN
350
7ECF
  3
3DWIREFRAME
350
7ECE
  3
BASIC
350
7ECC
  3
BRIGHTEN
350
7ED3
  3
COLORCHANGE
350
7ED7
  3
CONCEPTUAL
350
7ED0
  3
DIM
350
7ED2
  3
EDGECOLOROFF
350
80EE
  3
FACEPATTERN
350
7ED6
  3
FLAT
350
7EC8
  3
FLATWITHEDGES
350
7EC9
  3
GOURAUD
350
7ECA
  3
GOURAUDWITHEDGES
350
7ECB
  3
HIDDEN
350
80E6
  3
JITTEROFF
350
80EC
  3
LINEPATTERN
350
7ED5
  3
MODELING
350
8B23
  3
OVERHANGOFF
350
80ED
  3
REALISTIC
350
7ED1
  3
SHADED
350
80EB
  3
SHADED_WITH_EDGES
350
80EA
  3
SHADES_OF_GRAY
350
80E7
  3
SKETCHY
350
80E8
  3
THICKEN
350
7ED4
  3
WIREFRAME
350
80E5
  3
X-RAY
350
80E9
1001
ACAD
1000
TREAT_AS_HARD
1070
     0
  0
DICTIONARY
  5
8CA8
102
{ACAD_REACTORS
330
C
102
}
330
C
100
AcDbDictionary
  3
COLORDICT
350
8CA9
  3
MATERIALDICT
350
8CAA
1001
ACAD
1000
TREAT_AS_HARD
1070
     0
  0
DICTIONARY
  5
35CE
102
{ACAD_REACTORS
330
C
102
}
330
C
100
AcDbDictionary
  3
CANNOSCALE
350
8B95
  3
CMLEADERSTYLE
350
7F7D
  3
CTABLESTYLE
350
7E99
  3
DIMADEC
350
572C
  3
DIMASSOC
350
7E9A
  3
HIDETEXT
350
8CA7
  3
INDEXCTL
350
7F7F
  3
MSLTSCALE
350
8BE5
  3
PROJECTNAME
350
7E9B
  3
SORTENTS
350
35CF
  3
XCLIPFRAME
350
8B22
1001
ACAD
1000
TREAT_AS_HARD
1070
     0
  0
DICTIONARY
  5
60
102
{ACAD_REACTORS
330
C
102
}
330
C
100
AcDbDictionary
1001
CONTENTTABDATA
1070
    11
1000
Child
1000
D:\ACLT\TABset\CHILDREN.dwg
1070
     0
1070
     0
1070
     1
1000
PK
1000
D:\ACLT\TABset\PK.dwg
1070
     0
1070
     0
1070
     1
1000
Lev1
1000
D:\ACLT\TABset\Lever01.dwg
1070
     0
1070
     0
1070
     1
1000
Lev2
1000
D:\ACLT\TABset\Lever02.dwg
1070
     0
1070
     0
1070
     1
1000
L3
1000
D:\Aclt\TABset\Lever03.dwg
1070
     0
1070
     0
1070
     1
1000
Form
1000
D:\ACLT\FORMAT
1070
     1
1070
     0
1070
     1
1000
Jnt
1000
D:\ACLT\TABset\JOINTPARTS.dwg
1070
     0
1070
     0
1070
     1
1000
ISO
1000
D:\ACLT\TABset\Isome01.dwg
1070
     0
1070
     0
1070
     1
1000
R
1000
D:\ACLT\TABset\REGION.dwg
1070
     0
1070
     0
1070
     1
1000
std
1000
D:\ACLT\TABset\std_sym_all.dwg
1070
     0
1070
     0
1070
     1
1000
丸
1000
D:\Aclt\TABset\MARU.dwg
1070
     0
1070
     0
1070
     1
1001
CONTENTCURRENTTAB
1070
     2
1001
ACAD
1000
TREAT_AS_HARD
1070
     0
  0
DICTIONARY
  5
4B9B
102
{ACAD_REACTORS
330
C
102
}
330
C
100
AcDbDictionary
1001
DRAWINGVARIABLESXDATA
1000
POLARANG
1000
0.261799
1000
POLARMODE
1000
1
1000
POLARSTYLE
1000
1
1001
ACAD
1000
TREAT_AS_HARD
1070
     0
  0
XRECORD
  5
8CAB
102
{ACAD_REACTORS
330
C
102
}
330
C
100
AcDbXrecord
  1
DWGPROPS COOKIE
  2

  3

  4

  6

  7

  8
3684
  9

300
=
301
=
302
=
303
=
304
=
305
=
306
=
307
=
308
=
309
=
 40
0.0
 41
2451027.252421296
 42
2459299.085112431
  1

 90
        0
  0
DICTIONARY
  5
80FB
102
{ACAD_REACTORS
330
80FA
102
}
330
80FA
100
AcDbDictionary
1001
ACAD
1000
TREAT_AS_HARD
1070
     0
  0
ACAD_PROXY_OBJECT
  5
7F03
102
{ACAD_REACTORS
330
7F02
102
}
330
7F02
100
AcDbZombieObject
 90
      499
 91
      515
 93
       34
310
40C8804040
  0
ACAD_PROXY_OBJECT
  5
7F05
102
{ACAD_REACTORS
330
7F04
102
}
330
7F04
100
AcDbZombieObject
 90
      499
 91
      515
 93
       34
310
40C8804040
  0
ACAD_PROXY_OBJECT
  5
7F07
102
{ACAD_REACTORS
330
7F06
102
}
330
7F06
100
AcDbZombieObject
 90
      499
 91
      515
 93
       34
310
40C8804040
  0
ACAD_PROXY_OBJECT
  5
7F09
102
{ACAD_REACTORS
330
7F08
102
}
330
7F08
100
AcDbZombieObject
 90
      499
 91
      515
 93
       34
310
40C8804040
  0
ACAD_PROXY_OBJECT
  5
7F15
102
{ACAD_REACTORS
330
7F14
102
}
330
7F14
100
AcDbZombieObject
 90
      499
 91
      515
 93
       34
310
40C8804040
  0
ACAD_PROXY_OBJECT
  5
7F23
102
{ACAD_REACTORS
330
7F22
102
}
330
7F22
100
AcDbZombieObject
 90
      499
 91
      515
 93
       34
310
40C8804040
  0
ACAD_PROXY_OBJECT
  5
7F3B
102
{ACAD_REACTORS
330
7F3A
102
}
330
7F3A
100
AcDbZombieObject
 90
      499
 91
      515
 93
       34
310
40C8804040
  0
ACAD_PROXY_OBJECT
  5
7F3D
102
{ACAD_REACTORS
330
7F3C
102
}
330
7F3C
100
AcDbZombieObject
 90
      499
 91
      515
 93
       34
310
40C8804040
  0
ACAD_PROXY_OBJECT
  5
7F3F
102
{ACAD_REACTORS
330
7F3E
102
}
330
7F3E
100
AcDbZombieObject
 90
      499
 91
      515
 93
       34
310
40C8804040
  0
ACAD_PROXY_OBJECT
  5
7F41
102
{ACAD_REACTORS
330
7F40
102
}
330
7F40
100
AcDbZombieObject
 90
      499
 91
      515
 93
       34
310
40C8804040
  0
SORTENTSTABLE
  5
7E3E
102
{ACAD_REACTORS
330
7E3D
102
}
330
7E3D
100
AcDbSortentsTable
330
18
331
83C8
  5
83D1
331
83C9
  5
83D2
331
83CA
  5
83D3
331
83CB
  5
83D4
331
83CC
  5
83D5
331
83CD
  5
83D6
331
83CE
  5
83D7
331
83CF
  5
83D8
331
83D0
  5
83D9
331
83D1
  5
83DA
331
83D2
  5
83DB
331
83D3
  5
83DC
331
83D4
  5
83DD
331
83D5
  5
83DE
331
83D6
  5
83DF
331
83D7
  5
83E0
331
83D8
  5
83E1
331
83D9
  5
83E2
331
83DA
  5
83E4
331
83DB
  5
83E5
331
83DC
  5
83E7
331
83DD
  5
83E8
331
83DE
  5
83E9
331
83DF
  5
83EA
331
83E0
  5
83EB
331
83E1
  5
83EC
331
0
  5
83E3
331
83E3
  5
83F6
331
83E4
  5
83F7
331
83E5
  5
83F8
331
83E6
  5
83F9
331
83E7
  5
83FA
331
83E8
  5
83FB
331
83E9
  5
83FC
331
83EA
  5
83FD
331
83EB
  5
83FE
331
83EC
  5
83FF
331
83ED
  5
8400
331
83EE
  5
8401
331
83EF
  5
8402
331
83F0
  5
8403
331
83F1
  5
8404
331
83F2
  5
8405
331
83F3
  5
8406
331
83F4
  5
8407
331
83F5
  5
8408
331
83F6
  5
8409
331
83F7
  5
840A
331
83F8
  5
840B
331
83F9
  5
840C
331
83FA
  5
840D
331
83FB
  5
840E
331
83FC
  5
840F
331
83FD
  5
8410
331
83FE
  5
8411
331
83FF
  5
8412
331
8400
  5
8413
331
8401
  5
8414
331
8402
  5
8415
331
8403
  5
8416
331
8404
  5
8417
331
8405
  5
8418
331
8406
  5
8419
331
8407
  5
841A
331
8408
  5
841B
331
8409
  5
841C
331
840A
  5
841D
331
840B
  5
841E
331
840C
  5
841F
331
840D
  5
8420
331
840E
  5
8448
331
840F
  5
8449
331
8410
  5
844A
331
8411
  5
844B
331
8412
  5
844C
331
8413
  5
844D
331
8414
  5
844E
331
8415
  5
844F
331
8416
  5
8452
331
8417
  5
8453
331
8418
  5
8455
331
8419
  5
8456
331
841A
  5
8457
331
841B
  5
8458
331
841C
  5
8459
331
841D
  5
845A
331
841E
  5
845B
331
841F
  5
845C
331
0
  5
845D
331
8448
  5
847C
331
8449
  5
847D
331
0
  5
8460
331
844B
  5
896F
331
844C
  5
8972
331
844D
  5
8973
331
844E
  5
8974
331
0
  5
8465
331
0
  5
8466
331
0
  5
8467
331
0
  5
8468
331
0
  5
8469
331
8457
  5
8BFF
331
8458
  5
8C00
331
8459
  5
8C01
331
845A
  5
8C02
331
845B
  5
8C03
331
845C
  5
8C04
331
845D
  5
8C05
331
845E
  5
8C06
331
845F
  5
8C07
331
8460
  5
8C08
331
8461
  5
8C0A
331
8462
  5
8C0B
331
8463
  5
8C0C
331
8464
  5
8C0D
331
8465
  5
8C0E
331
8466
  5
8C0F
331
8467
  5
8C10
331
8468
  5
8C11
331
8469
  5
8C12
331
846A
  5
8C14
331
846B
  5
8C15
331
846C
  5
8C16
331
846D
  5
8C17
331
846E
  5
8C18
331
846F
  5
8C19
331
8470
  5
8C1A
331
8471
  5
8C1B
331
0
  5
85CE
331
0
  5
8610
331
8477
  5
8C3B
331
8478
  5
8C3C
331
8479
  5
8C3D
331
847A
  5
8C3E
331
847B
  5
8C3F
331
847C
  5
8C40
331
847D
  5
8C41
331
847E
  5
8C42
331
85C3
  5
83E6
331
85C4
  5
8C43
331
85C5
  5
8C44
331
85C6
  5
8C45
331
0
  5
8970
331
0
  5
8971
331
85CA
  5
8C4D
331
85CB
  5
8C4E
331
85CC
  5
8C4F
331
85CD
  5
8C50
331
85CE
  5
8C51
331
0
  5
8977
331
0
  5
8978
331
8642
  5
8C59
331
8643
  5
8C5A
331
8644
  5
8C5B
331
0
  5
897C
331
0
  5
897D
331
0
  5
897E
331
0
  5
897F
331
0
  5
8980
331
896F
  5
8C80
331
8970
  5
8C81
331
8971
  5
8C82
331
8972
  5
8C83
331
8973
  5
8C84
331
8974
  5
8C85
331
8975
  5
8C86
331
8976
  5
8C87
331
8977
  5
8C88
331
8978
  5
8C89
331
8979
  5
8C8A
331
897A
  5
8C8B
331
897B
  5
8C8C
331
897C
  5
8C8D
331
897D
  5
8C8E
331
897E
  5
8C8F
331
897F
  5
8C90
331
8980
  5
8C91
331
8981
  5
8C92
331
8982
  5
8C93
331
8983
  5
8C94
331
8984
  5
8C95
331
8985
  5
8C96
331
8986
  5
8C97
331
8987
  5
8C98
331
8988
  5
8C99
331
8989
  5
8C9A
331
898A
  5
8C9B
331
898B
  5
8C9C
331
898C
  5
8C9D
331
898D
  5
8C9E
331
898E
  5
8C9F
331
898F
  5
8CA0
331
8990
  5
8CA1
331
8991
  5
8CA2
331
8992
  5
8CA3
331
8993
  5
8CA4
331
8994
  5
8CA5
331
8995
  5
8CA6
331
8BFB
  5
83C8
331
8BFC
  5
83C9
331
8BFD
  5
83CA
331
8BFE
  5
83CB
331
8BFF
  5
83CC
331
8C00
  5
83CD
331
8C01
  5
83CE
331
8C02
  5
83CF
331
8C03
  5
83D0
331
8C04
  5
83ED
331
8C05
  5
83EE
331
8C06
  5
83EF
331
8C07
  5
83F0
331
8C08
  5
83F1
331
8C09
  5
83F2
331
8C0A
  5
83F3
331
8C0B
  5
83F4
331
8C0C
  5
83F5
331
0
  5
845E
331
8C0E
  5
8473
331
8C0F
  5
8474
331
8C10
  5
8477
331
8C11
  5
8479
331
8C12
  5
847B
331
0
  5
846D
331
8C14
  5
8646
331
8C15
  5
86B3
331
8C16
  5
86B4
331
8C17
  5
86B5
331
8C18
  5
86B7
331
0
  5
847A
331
8C1A
  5
897A
331
8C1B
  5
897B
331
8C1C
  5
8981
331
8C1D
  5
8982
331
8C1E
  5
8983
331
8C1F
  5
8984
331
8C20
  5
8985
331
0
  5
85C6
331
0
  5
85C7
331
0
  5
85C8
331
0
  5
85CA
331
8C25
  5
8993
331
8C26
  5
8BFC
331
8C27
  5
8BFD
331
8C28
  5
8BFE
331
8C29
  5
8C1F
331
8C2A
  5
8C20
331
8C2B
  5
8C21
331
0
  5
898D
331
0
  5
898E
331
0
  5
898F
331
8C2F
  5
8C30
331
8C30
  5
8C31
331
8C31
  5
8C32
331
8C32
  5
8C33
331
0
  5
8994
331
0
  5
8995
331
0
  5
8BFB
331
8C36
  5
8C46
331
8C37
  5
8C47
331
0
  5
8C09
331
8C39
  5
8C4B
331
8C3A
  5
8C4C
331
8C3B
  5
8C52
331
8C3C
  5
8C53
331
0
  5
8C13
331
8C3E
  5
8C57
331
8C3F
  5
8C58
331
8C40
  5
8C5C
331
8C41
  5
8C5D
331
8C42
  5
8C5E
331
0
  5
8C1C
331
0
  5
8C1D
331
0
  5
8C1E
331
8C46
  5
8C66
331
8C47
  5
8C67
331
8C48
  5
8C68
331
0
  5
8C22
331
0
  5
8C23
331
0
  5
8C24
331
8C4C
  5
8C70
331
0
  5
8C26
331
8C4E
  5
8C74
331
8C4F
  5
8C75
331
8C50
  5
8C76
331
8C51
  5
8C77
331
8C52
  5
8C78
331
0
  5
8C2C
331
0
  5
8C2D
331
0
  5
8C2E
331
8C56
  5
845F
331
8C57
  5
8461
331
8C58
  5
8462
331
8C59
  5
8463
331
8C5A
  5
8464
331
8C5B
  5
846B
331
8C5C
  5
846C
331
8C5D
  5
846E
331
8C5E
  5
846F
331
8C5F
  5
8470
331
8C60
  5
8471
331
8C61
  5
8472
331
8C62
  5
847E
331
8C63
  5
8516
331
8C64
  5
8517
331
8C65
  5
85C5
331
8C66
  5
85CB
331
8C67
  5
85CC
331
8C68
  5
85CD
331
8C69
  5
8611
331
8C6A
  5
8642
331
8C6B
  5
8643
331
8C6C
  5
8644
331
8C6D
  5
8645
331
8C6E
  5
8975
331
8C6F
  5
8976
331
8C70
  5
8979
331
8C71
  5
8986
331
8C72
  5
8987
331
8C73
  5
8988
331
8C74
  5
8989
331
8C75
  5
898A
331
8C76
  5
898B
331
8C77
  5
898C
331
8C78
  5
8990
331
8C79
  5
8991
331
8C7A
  5
8992
331
8C7B
  5
8C25
331
8C7C
  5
8C27
331
8C7D
  5
8C28
331
8C7E
  5
8C29
331
8C7F
  5
8C2A
331
8C80
  5
8C2B
331
8C81
  5
8C2F
331
8C82
  5
8C34
331
8C83
  5
8C35
331
8C84
  5
8C36
331
8C85
  5
8C37
331
8C86
  5
8C38
331
8C87
  5
8C39
331
8C88
  5
8C3A
331
8C89
  5
8C48
331
8C8A
  5
8C49
331
8C8B
  5
8C4A
331
8C8C
  5
8C54
331
8C8D
  5
8C55
331
8C8E
  5
8C56
331
8C8F
  5
8C5F
331
8C90
  5
8C60
331
8C91
  5
8C61
331
8C92
  5
8C62
331
8C93
  5
8C63
331
8C94
  5
8C64
331
8C95
  5
8C65
331
8C96
  5
8C69
331
8C97
  5
8C6A
331
8C98
  5
8C6B
331
8C99
  5
8C6C
331
8C9A
  5
8C6D
331
8C9B
  5
8C6E
331
8C9C
  5
8C6F
331
8C9D
  5
8C71
331
8C9E
  5
8C72
331
8C9F
  5
8C73
331
8CA0
  5
8C79
331
8CA1
  5
8C7A
331
8CA2
  5
8C7B
331
8CA3
  5
8C7C
331
8CA4
  5
8C7D
331
8CA5
  5
8C7E
331
8CA6
  5
8C7F
  0
MATERIAL
  5
7EB7
102
{ACAD_REACTORS
330
7B14
102
}
102
{ACAD_XDICTIONARY
360
8CAC
102
}
330
7B14
100
AcDbMaterial
  1
BYBLOCK
 72
     0
 73
     2
 43
0.0208333333333333
 43
0.0
 43
0.0
 43
0.0
 43
0.0
 43
0.0208333333333333
 43
0.0
 43
0.0
 43
0.0
 43
0.0
 43
1.0
 43
0.0
 43
0.0
 43
0.0
 43
0.0
 43
1.0
 77
     0
 78
     2
 47
0.0208333333333333
 47
0.0
 47
0.0
 47
0.0
 47
0.0
 47
0.0208333333333333
 47
0.0
 47
0.0
 47
0.0
 47
0.0
 47
1.0
 47
0.0
 47
0.0
 47
0.0
 47
0.0
 47
1.0
171
     0
172
     2
 49
0.0208333333333333
 49
0.0
 49
0.0
 49
0.0
 49
0.0
 49
0.0208333333333333
 49
0.0
 49
0.0
 49
0.0
 49
0.0
 49
1.0
 49
0.0
 49
0.0
 49
0.0
 49
0.0
 49
1.0
175
     0
176
     2
142
0.0208333333333333
142
0.0
142
0.0
142
0.0
142
0.0
142
0.0208333333333333
142
0.0
142
0.0
142
0.0
142
0.0
142
1.0
142
0.0
142
0.0
142
0.0
142
0.0
142
1.0
179
     0
270
     2
144
0.0208333333333333
144
0.0
144
0.0
144
0.0
144
0.0
144
0.0208333333333333
144
0.0
144
0.0
144
0.0
144
0.0
144
1.0
144
0.0
144
0.0
144
0.0
144
0.0
144
1.0
274
     2
147
0.0208333333333333
147
0.0
147
0.0
147
0.0
147
0.0
147
0.0208333333333333
147
0.0
147
0.0
147
0.0
147
0.0
147
1.0
147
0.0
147
0.0
147
0.0
147
0.0
147
1.0
  0
MATERIAL
  5
7EAF
102
{ACAD_REACTORS
330
7B14
102
}
102
{ACAD_XDICTIONARY
360
8CAE
102
}
330
7B14
100
AcDbMaterial
  1
BYLAYER
 72
     0
 73
     2
 43
0.0208333333333333
 43
0.0
 43
0.0
 43
0.0
 43
0.0
 43
0.0208333333333333
 43
0.0
 43
0.0
 43
0.0
 43
0.0
 43
1.0
 43
0.0
 43
0.0
 43
0.0
 43
0.0
 43
1.0
 77
     0
 78
     2
 47
0.0208333333333333
 47
0.0
 47
0.0
 47
0.0
 47
0.0
 47
0.0208333333333333
 47
0.0
 47
0.0
 47
0.0
 47
0.0
 47
1.0
 47
0.0
 47
0.0
 47
0.0
 47
0.0
 47
1.0
171
     0
172
     2
 49
0.0208333333333333
 49
0.0
 49
0.0
 49
0.0
 49
0.0
 49
0.0208333333333333
 49
0.0
 49
0.0
 49
0.0
 49
0.0
 49
1.0
 49
0.0
 49
0.0
 49
0.0
 49
0.0
 49
1.0
175
     0
176
     2
142
0.0208333333333333
142
0.0
142
0.0
142
0.0
142
0.0
142
0.0208333333333333
142
0.0
142
0.0
142
0.0
142
0.0
142
1.0
142
0.0
142
0.0
142
0.0
142
0.0
142
1.0
179
     0
270
     2
144
0.0208333333333333
144
0.0
144
0.0
144
0.0
144
0.0
144
0.0208333333333333
144
0.0
144
0.0
144
0.0
144
0.0
144
1.0
144
0.0
144
0.0
144
0.0
144
0.0
144
1.0
274
     2
147
0.0208333333333333
147
0.0
147
0.0
147
0.0
147
0.0
147
0.0208333333333333
147
0.0
147
0.0
147
0.0
147
0.0
147
1.0
147
0.0
147
0.0
147
0.0
147
0.0
147
1.0
  0
MATERIAL
  5
7EBF
102
{ACAD_REACTORS
330
7B14
102
}
102
{ACAD_XDICTIONARY
360
8CB0
102
}
330
7B14
100
AcDbMaterial
  1
GLOBAL
 72
     0
 73
     2
 43
0.0208333333333333
 43
0.0
 43
0.0
 43
0.0
 43
0.0
 43
0.0208333333333333
 43
0.0
 43
0.0
 43
0.0
 43
0.0
 43
1.0
 43
0.0
 43
0.0
 43
0.0
 43
0.0
 43
1.0
 77
     0
 78
     2
 47
0.0208333333333333
 47
0.0
 47
0.0
 47
0.0
 47
0.0
 47
0.0208333333333333
 47
0.0
 47
0.0
 47
0.0
 47
0.0
 47
1.0
 47
0.0
 47
0.0
 47
0.0
 47
0.0
 47
1.0
171
     0
172
     2
 49
0.0208333333333333
 49
0.0
 49
0.0
 49
0.0
 49
0.0
 49
0.0208333333333333
 49
0.0
 49
0.0
 49
0.0
 49
0.0
 49
1.0
 49
0.0
 49
0.0
 49
0.0
 49
0.0
 49
1.0
175
     0
176
     2
142
0.0208333333333333
142
0.0
142
0.0
142
0.0
142
0.0
142
0.0208333333333333
142
0.0
142
0.0
142
0.0
142
0.0
142
1.0
142
0.0
142
0.0
142
0.0
142
0.0
142
1.0
179
     0
270
     2
144
0.0208333333333333
144
0.0
144
0.0
144
0.0
144
0.0
144
0.0208333333333333
144
0.0
144
0.0
144
0.0
144
0.0
144
1.0
144
0.0
144
0.0
144
0.0
144
0.0
144
1.0
274
     2
147
0.0208333333333333
147
0.0
147
0.0
147
0.0
147
0.0
147
0.0208333333333333
147
0.0
147
0.0
147
0.0
147
0.0
147
1.0
147
0.0
147
0.0
147
0.0
147
0.0
147
1.0
  0
ACAD_PROXY_OBJECT
  5
7EFB
102
{ACAD_REACTORS
330
7EFA
102
}
330
7EFA
100
AcDbZombieObject
 90
      499
 91
      512
 93
      610
310
40901902A4063FBFFFFFE000000000000002040AD7A3703D0AD73F4214DD185B99185C990000000000000104090141901A00000000000004100000000000000041025764000000000000300FC0
340
12
340
0
340
F
340
0
 94
        0
1001
ACAD_MLEADERVER
1070
     2
  0
MLINESTYLE
  5
1C
102
{ACAD_REACTORS
330
1B
102
}
330
1B
100
AcDbMlineStyle
  2
STANDARD
 70
     0
  3

 62
   256
 51
90.0
 52
90.0
 71
     2
 49
0.5
 62
   256
  6
BYLAYER
 49
-0.5
 62
   256
  6
BYLAYER
  0
ACAD_PROXY_OBJECT
  5
7ED9
102
{ACAD_REACTORS
330
7ED8
102
}
330
7ED8
100
AcDbZombieObject
 90
      499
 91
      511
 93
       41
310
903313A31580
  0
ACAD_PROXY_OBJECT
  5
7EDA
102
{ACAD_REACTORS
330
7ED8
102
}
330
7ED8
100
AcDbZombieObject
 90
      499
 91
      511
 93
      105
310
903313A324000000000000004000
  0
ACAD_PROXY_OBJECT
  5
7EDB
102
{ACAD_REACTORS
330
7ED8
102
}
330
7ED8
100
AcDbZombieObject
 90
      499
 91
      511
 93
      105
310
903313A344000000000000104000
  0
ACAD_PROXY_OBJECT
  5
7EDC
102
{ACAD_REACTORS
330
7ED8
102
}
330
7ED8
100
AcDbZombieObject
 90
      499
 91
      511
 93
      105
310
903313A354000000000000144000
  0
ACAD_PROXY_OBJECT
  5
7EDD
102
{ACAD_REACTORS
330
7ED8
102
}
330
7ED8
100
AcDbZombieObject
 90
      499
 91
      511
 93
      105
310
903313A384000000000000204000
  0
ACAD_PROXY_OBJECT
  5
7EDE
102
{ACAD_REACTORS
330
7ED8
102
}
330
7ED8
100
AcDbZombieObject
 90
      499
 91
      511
 93
      113
310
904313A31304000000000000244000
  0
ACAD_PROXY_OBJECT
  5
7EDF
102
{ACAD_REACTORS
330
7ED8
102
}
330
7ED8
100
AcDbZombieObject
 90
      499
 91
      511
 93
      113
310
904313A31364000000000000304000
  0
ACAD_PROXY_OBJECT
  5
7EE0
102
{ACAD_REACTORS
330
7ED8
102
}
330
7ED8
100
AcDbZombieObject
 90
      499
 91
      511
 93
      113
310
904313A32304000000000000344000
  0
ACAD_PROXY_OBJECT
  5
7EE1
102
{ACAD_REACTORS
330
7ED8
102
}
330
7ED8
100
AcDbZombieObject
 90
      499
 91
      511
 93
      113
310
904313A333040000000000003E4000
  0
ACAD_PROXY_OBJECT
  5
7EE2
102
{ACAD_REACTORS
330
7ED8
102
}
330
7ED8
100
AcDbZombieObject
 90
      499
 91
      511
 93
      113
310
904313A34304000000000000444000
  0
ACAD_PROXY_OBJECT
  5
7EE3
102
{ACAD_REACTORS
330
7ED8
102
}
330
7ED8
100
AcDbZombieObject
 90
      499
 91
      511
 93
      113
310
904313A35304000000000000494000
  0
ACAD_PROXY_OBJECT
  5
7EE4
102
{ACAD_REACTORS
330
7ED8
102
}
330
7ED8
100
AcDbZombieObject
 90
      499
 91
      511
 93
      121
310
905313A3130304000000000000594000
  0
ACAD_PROXY_OBJECT
  5
7EE5
102
{ACAD_REACTORS
330
7ED8
102
}
330
7ED8
100
AcDbZombieObject
 90
      499
 91
      511
 93
      105
310
903323A310000000000000010100
  0
ACAD_PROXY_OBJECT
  5
7EE6
102
{ACAD_REACTORS
330
7ED8
102
}
330
7ED8
100
AcDbZombieObject
 90
      499
 91
      511
 93
      105
310
903343A310000000000000410100
  0
ACAD_PROXY_OBJECT
  5
7EE7
102
{ACAD_REACTORS
330
7ED8
102
}
330
7ED8
100
AcDbZombieObject
 90
      499
 91
      511
 93
      105
310
903383A310000000000000810100
  0
ACAD_PROXY_OBJECT
  5
7EE8
102
{ACAD_REACTORS
330
7ED8
102
}
330
7ED8
100
AcDbZombieObject
 90
      499
 91
      511
 93
      113
310
90431303A310000000000000910100
  0
ACAD_PROXY_OBJECT
  5
7EE9
102
{ACAD_REACTORS
330
7ED8
102
}
330
7ED8
100
AcDbZombieObject
 90
      499
 91
      511
 93
      121
310
9053130303A310000000000001650100
  0
ACAD_PROXY_OBJECT
  5
7EEA
102
{ACAD_REACTORS
330
7ED8
102
}
330
7ED8
100
AcDbZombieObject
 90
      499
 91
      511
 93
      257
310
90E312F31323822203D2031272D3022000000000000200FC000000000000284000
  0
ACAD_PROXY_OBJECT
  5
7EEB
102
{ACAD_REACTORS
330
7ED8
102
}
330
7ED8
100
AcDbZombieObject
 90
      499
 91
      511
 93
      249
310
90D312F363422203D2031272D3022000000000000240FC000000000000284000
  0
ACAD_PROXY_OBJECT
  5
7EEC
102
{ACAD_REACTORS
330
7ED8
102
}
330
7ED8
100
AcDbZombieObject
 90
      499
 91
      511
 93
      249
310
90D312F333222203D2031272D3022000000000000280FC000000000000284000
  0
ACAD_PROXY_OBJECT
  5
7EED
102
{ACAD_REACTORS
330
7ED8
102
}
330
7ED8
100
AcDbZombieObject
 90
      499
 91
      511
 93
      249
310
90D312F313622203D2031272D30220000000000002C0FC000000000000284000
  0
ACAD_PROXY_OBJECT
  5
7EEE
102
{ACAD_REACTORS
330
7ED8
102
}
330
7ED8
100
AcDbZombieObject
 90
      499
 91
      511
 93
      249
310
90D332F333222203D2031272D30220000000000002E0FC000000000000284000
  0
ACAD_PROXY_OBJECT
  5
7EEF
102
{ACAD_REACTORS
330
7ED8
102
}
330
7ED8
100
AcDbZombieObject
 90
      499
 91
      511
 93
      241
310
90C312F3822203D2031272D3022000000000000300FC000000000000284000
  0
ACAD_PROXY_OBJECT
  5
7EF0
102
{ACAD_REACTORS
330
7ED8
102
}
330
7ED8
100
AcDbZombieObject
 90
      499
 91
      511
 93
      249
310
90D332F313622203D2031272D3022000000000000320FC000000000000284000
  0
ACAD_PROXY_OBJECT
  5
7EF1
102
{ACAD_REACTORS
330
7ED8
102
}
330
7ED8
100
AcDbZombieObject
 90
      499
 91
      511
 93
      241
310
90C312F3422203D2031272D3022000000000000340FC000000000000284000
  0
ACAD_PROXY_OBJECT
  5
7EF2
102
{ACAD_REACTORS
330
7ED8
102
}
330
7ED8
100
AcDbZombieObject
 90
      499
 91
      511
 93
      241
310
90C332F3822203D2031272D3022000000000000360FC000000000000284000
  0
ACAD_PROXY_OBJECT
  5
7EF3
102
{ACAD_REACTORS
330
7ED8
102
}
330
7ED8
100
AcDbZombieObject
 90
      499
 91
      511
 93
      241
310
90C312F3222203D2031272D3022000000000000380FC000000000000284000
  0
ACAD_PROXY_OBJECT
  5
7EF4
102
{ACAD_REACTORS
330
7ED8
102
}
330
7ED8
100
AcDbZombieObject
 90
      499
 91
      511
 93
      241
310
90C332F3422203D2031272D30220000000000003A0FC000000000000284000
  0
ACAD_PROXY_OBJECT
  5
7EF5
102
{ACAD_REACTORS
330
7ED8
102
}
330
7ED8
100
AcDbZombieObject
 90
      499
 91
      511
 93
      161
310
90A3122203D2031272D30224000000000000284000
  0
ACAD_PROXY_OBJECT
  5
7EF6
102
{ACAD_REACTORS
330
7ED8
102
}
330
7ED8
100
AcDbZombieObject
 90
      499
 91
      511
 93
      257
310
90E312D312F3222203D2031272D30220000000000003E0FC000000000000284000
  0
ACAD_PROXY_OBJECT
  5
7EF7
102
{ACAD_REACTORS
330
7ED8
102
}
330
7ED8
100
AcDbZombieObject
 90
      499
 91
      511
 93
      225
310
90A3322203D2031272D302200000000000002100000000000000284000
  0
ACAD_PROXY_OBJECT
  5
7EF8
102
{ACAD_REACTORS
330
7ED8
102
}
330
7ED8
100
AcDbZombieObject
 90
      499
 91
      511
 93
      225
310
90A3622203D2031272D302200000000000006100000000000000284000
  0
ACAD_PROXY_OBJECT
  5
7EF9
102
{ACAD_REACTORS
330
7ED8
102
}
330
7ED8
100
AcDbZombieObject
 90
      499
 91
      511
 93
      249
310
90D31272D3022203D2031272D30220000000000000A100000000000000284000
  0
ACAD_PROXY_OBJECT
  5
7ECD
102
{ACAD_REACTORS
330
7EC7
102
}
330
7EC7
100
AcDbZombieObject
 90
      499
 91
      510
 93
      436
310
42CC9915DA5C99599C985B595049028333333333333E3BF0000000000000FB0107901411070040501600405405064090741402480A0340
1001
ACAD
1000
AcDbSavedByObjectVersion
1070
     0
  0
ACAD_PROXY_OBJECT
  5
7ECF
102
{ACAD_REACTORS
330
7EC7
102
}
330
7EC7
100
AcDbZombieObject
 90
      499
 91
      510
 93
      500
310
424CD108121A5919195B90640502408333333333333E3BF0000000000000FB01079024090700405020000000000001110200405405064090740C02480A0340
1001
ACAD
1000
AcDbSavedByObjectVersion
1070
     0
  0
ACAD_PROXY_OBJECT
  5
7ECE
102
{ACAD_REACTORS
330
7EC7
102
}
330
7EC7
100
AcDbZombieObject
 90
      499
 91
      510
 93
      436
310
42CCD915DA5C99599C985B595059028333333333333E3BF0000000000000FB0107901411070040501600405405064090741402480A0340
1001
ACAD
1000
AcDbSavedByObjectVersion
1070
     0
  0
ACAD_PROXY_OBJECT
  5
7ECC
102
{ACAD_REACTORS
330
7EC7
102
}
330
7EC7
100
AcDbZombieObject
 90
      499
 91
      510
 93
      388
310
4150985CDA58D07406404333333333333E3BF0000000000000FB0107A41107004050150841D405064090741402480A0350
1001
ACAD
1000
AcDbSavedByObjectVersion
1070
     0
  0
ACAD_PROXY_OBJECT
  5
7ED3
102
{ACAD_REACTORS
330
7EC7
102
}
330
7EC7
100
AcDbZombieObject
 90
      499
 91
      510
 93
      428
310
42109C9A59DA1D195B90C409028333333333333E3BF0000000000000FB010790141107004050150841D405064090741402480A029950
1001
ACAD
1000
AcDbSavedByObjectVersion
1070
     0
  0
ACAD_PROXY_OBJECT
  5
7ED7
102
{ACAD_REACTORS
330
7EC7
102
}
330
7EC7
100
AcDbZombieObject
 90
      499
 91
      510
 93
      452
310
42D0DBDB1BDC90DA185B99D95104090240C333333333333E3BF0000000000000FB0108901411070040501508421405064090741402480A0350
1001
ACAD
1000
AcDbSavedByObjectVersion
1070
     0
  0
ACAD_PROXY_OBJECT
  5
7ED0
102
{ACAD_REACTORS
330
7EC7
102
}
330
7EC7
100
AcDbZombieObject
 90
      499
 91
      510
 93
      500
310
4290DBDB98D95C1D1D585B10940D028333333333333E3BF0000000000000FB0107902409070040501000000000000111010841D405064090740C02480A0340
1001
ACAD
1000
AcDbSavedByObjectVersion
1070
     0
  0
ACAD_PROXY_OBJECT
  5
7ED2
102
{ACAD_REACTORS
330
7EC7
102
}
330
7EC7
100
AcDbZombieObject
 90
      499
 91
      510
 93
      412
310
40D11A5B50B409028333333333333E3BF0000000000000FB010790141107004050150841D405064090741402480A02677FFFFFD0
1001
ACAD
1000
AcDbSavedByObjectVersion
1070
     0
  0
ACAD_PROXY_OBJECT
  5
80EE
102
{ACAD_REACTORS
330
7EC7
102
}
330
7EC7
100
AcDbZombieObject
 90
      499
 91
      510
 93
      452
310
43115919D950DBDB1BDC93D999916409028333333333333E3BF0000000000000FB010790141107004050150841D405064090741402480A0350
1001
ACAD
1000
AcDbSavedByObjectVersion
1070
     0
  0
ACAD_PROXY_OBJECT
  5
7ED6
102
{ACAD_REACTORS
330
7EC7
102
}
330
7EC7
100
AcDbZombieObject
 90
      499
 91
      510
 93
      444
310
42D19858D95C185D1D195C9B90F409028333333333333E3BF0000000000000FB010790141107004050150841D405064090741402480A0350
1001
ACAD
1000
AcDbSavedByObjectVersion
1070
     0
  0
ACAD_PROXY_OBJECT
  5
7EC8
102
{ACAD_REACTORS
330
7EC7
102
}
330
7EC7
100
AcDbZombieObject
 90
      499
 91
      510
 93
      388
310
41119B185D240901404333333333333E3BF0000000000000F9010740A41107004050150841D405064090741402480A1B50
1001
ACAD
1000
AcDbSavedByObjectVersion
1070
     0
  0
ACAD_PROXY_OBJECT
  5
7EC9
102
{ACAD_REACTORS
330
7EC7
102
}
330
7EC7
100
AcDbZombieObject
 90
      499
 91
      510
 93
      476
310
43519B185D15DA5D1A115919D95CD0140901404333333333333E3BF0000000000000F9010740901411070040501600405405064090741402480A1B50
1001
ACAD
1000
AcDbSavedByObjectVersion
1070
     0
  0
ACAD_PROXY_OBJECT
  5
7ECA
102
{ACAD_REACTORS
330
7EC7
102
}
330
7EC7
100
AcDbZombieObject
 90
      499
 91
      510
 93
      412
310
41D1DBDD5C985D5910240902404333333333333E3BF0000000000000F9010740A411070040501641D405064090741402480A1B50
1001
ACAD
1000
AcDbSavedByObjectVersion
1070
     0
  0
ACAD_PROXY_OBJECT
  5
7ECB
102
{ACAD_REACTORS
330
7EC7
102
}
330
7EC7
100
AcDbZombieObject
 90
      499
 91
      510
 93
      500
310
4411DBDD5C985D5915DA5D1A115919D95CD0340902404333333333333E3BF0000000000000F9010740901411070040501600405405064090741402480A1B50
1001
ACAD
1000
AcDbSavedByObjectVersion
1070
     0
  0
ACAD_PROXY_OBJECT
  5
80E6
102
{ACAD_REACTORS
330
7EC7
102
}
330
7EC7
100
AcDbZombieObject
 90
      499
 91
      510
 93
      476
310
41921A5919195B90640502408333333333333E3BF0000000000000FB01079024090700405020000000000001110200405405064090740C02480A0340
1001
ACAD
1000
AcDbSavedByObjectVersion
1070
     0
  0
ACAD_PROXY_OBJECT
  5
80EC
102
{ACAD_REACTORS
330
7EC7
102
}
330
7EC7
100
AcDbZombieObject
 90
      499
 91
      510
 93
      428
310
42529A5D1D195C93D999914409028333333333333E3BF0000000000000FB010790141107004050150A41D405064090741402480A0350
1001
ACAD
1000
AcDbSavedByObjectVersion
1070
     0
  0
ACAD_PROXY_OBJECT
  5
7ED5
102
{ACAD_REACTORS
330
7EC7
102
}
330
7EC7
100
AcDbZombieObject
 90
      499
 91
      510
 93
      444
310
42D31A5B995C185D1D195C9B90E409028333333333333E3BF0000000000000FB010790141107004050750841D405064090741402483A0350
1001
ACAD
1000
AcDbSavedByObjectVersion
1070
     0
  0
ACAD_PROXY_OBJECT
  5
8B23
102
{ACAD_REACTORS
330
7EC7
102
}
330
7EC7
100
AcDbZombieObject
 90
      499
 91
      510
 93
      484
310
42135BD9195B1A5B99D0A409038333333333333E33F0000000000000F901074090290700405010000000000201990108421405064090741402480A1B40
1001
ACAD
1000
AcDbSavedByObjectVersion
1070
     0
  0
ACAD_PROXY_OBJECT
  5
80ED
102
{ACAD_REACTORS
330
7EC7
102
}
330
7EC7
100
AcDbZombieObject
 90
      499
 91
      510
 93
      444
310
42D3DD995C9A185B99D3D999915409028333333333333E3BF0000000000000FB010790141107004050150941D405064090741402480A0350
1001
ACAD
1000
AcDbSavedByObjectVersion
1070
     0
  0
ACAD_PROXY_OBJECT
  5
7ED1
102
{ACAD_REACTORS
330
7EC7
102
}
330
7EC7
100
AcDbZombieObject
 90
      499
 91
      510
 93
      420
310
425499585B1A5CDD1A58D08409028333333333333E3BF0000000000000FB01079019070040501508421405064090741402480A1B40
1001
ACAD
1000
AcDbSavedByObjectVersion
1070
     0
  0
ACAD_PROXY_OBJECT
  5
80EB
102
{ACAD_REACTORS
330
7EC7
102
}
330
7EC7
100
AcDbZombieObject
 90
      499
 91
      510
 93
      420
310
4194DA1859195911B40902404333333333333E3BF0000000000000F9010740A41107004050150800405405064090840C02480A0B40
1001
ACAD
1000
AcDbSavedByObjectVersion
1070
     0
  0
ACAD_PROXY_OBJECT
  5
80EA
102
{ACAD_REACTORS
330
7EC7
102
}
330
7EC7
100
AcDbZombieObject
 90
      499
 91
      510
 93
      516
310
4454DA18591959081DDA5D1A08195919D95CD1A40902404333333333333E3BF0000000000000F901074090142907004050250800405405064090740C02480A0B40
1001
ACAD
1000
AcDbSavedByObjectVersion
1070
     0
  0
ACAD_PROXY_OBJECT
  5
80E7
102
{ACAD_REACTORS
330
7EC7
102
}
330
7EC7
100
AcDbZombieObject
 90
      499
 91
      510
 93
      532
310
4394DA1859195CC81BD98811DC985E5174090240C333333333333E3BF0000000000000FB01079024090741D01000000000000111010841D405064090740C02480A0340
1001
ACAD
1000
AcDbSavedByObjectVersion
1070
     0
  0
ACAD_PROXY_OBJECT
  5
80E8
102
{ACAD_REACTORS
330
7EC7
102
}
330
7EC7
100
AcDbZombieObject
 90
      499
 91
      510
 93
      476
310
41D4DAD95D18DA1E51840502408333333333333E3BF0000000000000FB01079024090741D01000000000000111010B41D405064090741802480A0340
1001
ACAD
1000
AcDbSavedByObjectVersion
1070
     0
  0
ACAD_PROXY_OBJECT
  5
7ED4
102
{ACAD_REACTORS
330
7EC7
102
}
330
7EC7
100
AcDbZombieObject
 90
      499
 91
      510
 93
      412
310
41D51A1A58DAD95B90D409028333333333333E3BF0000000000000FB010790141107004050150C41D405064090741402480A0350
1001
ACAD
1000
AcDbSavedByObjectVersion
1070
     0
  0
ACAD_PROXY_OBJECT
  5
80E5
102
{ACAD_REACTORS
330
7EC7
102
}
330
7EC7
100
AcDbZombieObject
 90
      499
 91
      510
 93
      420
310
4255DA5C99599C985B595059028333333333333E3BF0000000000000FB0107901411070040501600405405064090740C02480A0340
1001
ACAD
1000
AcDbSavedByObjectVersion
1070
     0
  0
ACAD_PROXY_OBJECT
  5
80E9
102
{ACAD_REACTORS
330
7EC7
102
}
330
7EC7
100
AcDbZombieObject
 90
      499
 91
      510
 93
      404
310
41560B54985E51940902404000000000000E03F0000000000000FB010740501907004050150841D405064090740C02480A1B40
1001
ACAD
1000
AcDbSavedByObjectVersion
1070
     0
  0
XRECORD
  5
8CA9
102
{ACAD_REACTORS
330
8CA8
102
}
330
8CA8
100
AcDbXrecord
340
7B15
  0
XRECORD
  5
8CAA
102
{ACAD_REACTORS
330
8CA8
102
}
330
8CA8
100
AcDbXrecord
340
7B14
  0
DICTIONARYVAR
  5
8B95
102
{ACAD_REACTORS
330
35CE
102
}
330
35CE
100
DictionaryVariables
280
     0
  1
1:1
  0
DICTIONARYVAR
  5
7F7D
102
{ACAD_REACTORS
330
35CE
102
}
330
35CE
100
DictionaryVariables
280
     0
  1
Standard
  0
DICTIONARYVAR
  5
7E99
102
{ACAD_REACTORS
330
35CE
102
}
330
35CE
100
DictionaryVariables
280
     0
  1
Standard
  0
DICTIONARYVAR
  5
572C
102
{ACAD_REACTORS
330
35CE
102
}
330
35CE
100
DictionaryVariables
280
     0
  1
-1
  0
DICTIONARYVAR
  5
7E9A
102
{ACAD_REACTORS
330
35CE
102
}
330
35CE
100
DictionaryVariables
280
     0
  1
2
  0
DICTIONARYVAR
  5
8CA7
102
{ACAD_REACTORS
330
35CE
102
}
330
35CE
100
DictionaryVariables
280
     0
  1
1
  0
DICTIONARYVAR
  5
7F7F
102
{ACAD_REACTORS
330
35CE
102
}
330
35CE
100
DictionaryVariables
280
     0
  1
0
  0
DICTIONARYVAR
  5
8BE5
102
{ACAD_REACTORS
330
35CE
102
}
330
35CE
100
DictionaryVariables
280
     0
  1
0
  0
DICTIONARYVAR
  5
7E9B
102
{ACAD_REACTORS
330
35CE
102
}
330
35CE
100
DictionaryVariables
280
     0
  1

  0
DICTIONARYVAR
  5
35CF
102
{ACAD_REACTORS
330
35CE
102
}
330
35CE
100
DictionaryVariables
280
     0
  1
96
  0
DICTIONARYVAR
  5
8B22
102
{ACAD_REACTORS
330
35CE
102
}
330
35CE
100
DictionaryVariables
280
     0
  1
2
  0
DICTIONARY
  5
8CAC
330
7EB7
100
AcDbDictionary
  3
ACAD_XREC_ROUNDTRIP
360
8CAD
1001
ACAD
1000
TREAT_AS_HARD
1070
     1
  0
DICTIONARY
  5
8CAE
330
7EAF
100
AcDbDictionary
  3
ACAD_XREC_ROUNDTRIP
360
8CAF
1001
ACAD
1000
TREAT_AS_HARD
1070
     1
  0
DICTIONARY
  5
8CB0
330
7EBF
100
AcDbDictionary
  3
ACAD_XREC_ROUNDTRIP
360
8CB1
1001
ACAD
1000
TREAT_AS_HARD
1070
     1
  0
XRECORD
  5
8CAD
102
{ACAD_REACTORS
330
8CAC
102
}
330
8CAC
100
AcDbXrecord
102
MATERIAL
148
0.0
149
0.0
149
0.0
 93
        0
 94
      127
282
     0
 72
     0
 77
     0
171
     0
175
     0
179
     0
273
     0
  0
XRECORD
  5
8CAF
102
{ACAD_REACTORS
330
8CAE
102
}
330
8CAE
100
AcDbXrecord
102
MATERIAL
148
0.0
149
0.0
149
0.0
 93
        0
 94
      127
282
     0
 72
     0
 77
     0
171
     0
175
     0
179
     0
273
     0
  0
XRECORD
  5
8CB1
102
{ACAD_REACTORS
330
8CB0
102
}
330
8CB0
100
AcDbXrecord
102
MATERIAL
148
0.0
149
0.0
149
0.0
 93
        0
 94
      127
282
     0
 72
     0
 77
     0
171
     0
175
     0
179
     0
273
     0
  0
ENDSEC
  0
EOF
