  0
SECTION
  2
HEADER
  9
$ACADVER
  1
AC1009
  9
$INSBASE
 10
0.0
 20
0.0
 30
0.0
  9
$EXTMIN
 10
4951.2574387421319
 20
-446.01024714652931
 30
0.0
  9
$EXTMAX
 10
5269.6857241245616
 20
-181.01024714652931
 30
0.0
  9
$LIMMIN
 10
0.0
 20
0.0
  9
$LIMMAX
 10
420.0
 20
297.0
  9
$ORTHOMODE
 70
     0
  9
$REGENMODE
 70
     1
  9
$FILLMODE
 70
     1
  9
$QTEXTMODE
 70
     0
  9
$MIRRTEXT
 70
     0
  9
$DRAGMODE
 70
     2
  9
$LTSCALE
 40
0.5
  9
$OSMODE
 70
    63
  9
$ATTMODE
 70
     1
  9
$TEXTSIZE
 40
4.0
  9
$TRACEWID
 40
1.0
  9
$TEXTSTYLE
  7
STANDARD
  9
$CLAYER
  8
1TEXT
  9
$CELTYPE
  6
BYLAYER
  9
$CECOLOR
 62
   256
  9
$DIMSCALE
 40
1.0
  9
$DIMASZ
 40
2.0
  9
$DIMEXO
 40
0.0
  9
$DIMDLI
 40
7.0
  9
$DIMRND
 40
0.0
  9
$DIMDLE
 40
0.0
  9
$DIMEXE
 40
1.0
  9
$DIMTP
 40
0.0
  9
$DIMTM
 40
0.0
  9
$DIMTXT
 40
3.5
  9
$DIMCEN
 40
0.0
  9
$DIMTSZ
 40
0.0
  9
$DIMTOL
 70
     0
  9
$DIMLIM
 70
     0
  9
$DIMTIH
 70
     0
  9
$DIMTOH
 70
     0
  9
$DIMSE1
 70
     0
  9
$DIMSE2
 70
     0
  9
$DIMTAD
 70
     1
  9
$DIMZIN
 70
     8
  9
$DIMBLK
  1

  9
$DIMASO
 70
     1
  9
$DIMSHO
 70
     1
  9
$DIMPOST
  1
 
  9
$DIMAPOST
  1

  9
$DIMALT
 70
     0
  9
$DIMALTD
 70
     2
  9
$DIMALTF
 40
25.399999999999999
  9
$DIMLFAC
 40
1.0
  9
$DIMTOFL
 70
     1
  9
$DIMTVP
 40
0.0
  9
$DIMTIX
 70
     0
  9
$DIMSOXD
 70
     0
  9
$DIMSAH
 70
     1
  9
$DIMBLK1
  1
OPEN30
  9
$DIMBLK2
  1
OPEN30
  9
$DIMSTYLE
  2
NEWX10
  9
$DIMCLRD
 70
   256
  9
$DIMCLRE
 70
   256
  9
$DIMCLRT
 70
   201
  9
$DIMTFAC
 40
0.7
  9
$DIMGAP
 40
0.7
  9
$LUNITS
 70
     2
  9
$LUPREC
 70
     4
  9
$SKETCHINC
 40
1.0
  9
$FILLETRAD
 40
0.0
  9
$AUNITS
 70
     0
  9
$AUPREC
 70
     2
  9
$MENU
  1
acad
  9
$ELEVATION
 40
0.0
  9
$PELEVATION
 40
0.0
  9
$THICKNESS
 40
0.0
  9
$LIMCHECK
 70
     0
  9
$BLIPMODE
 70
     0
  9
$CHAMFERA
 40
10.0
  9
$CHAMFERB
 40
10.0
  9
$SKPOLY
 70
     0
  9
$TDCREATE
 40
2451318.621352917
  9
$TDUPDATE
 40
2457028.443451053
  9
$TDINDWG
 40
1.2507470023
  9
$TDUSRTIMER
 40
1.2507470023
  9
$USRTIMER
 70
     1
  9
$ANGBASE
 50
0.0
  9
$ANGDIR
 70
     0
  9
$PDMODE
 70
     0
  9
$PDSIZE
 40
0.0
  9
$PLINEWID
 40
0.0
  9
$COORDS
 70
     0
  9
$SPLFRAME
 70
     0
  9
$SPLINETYPE
 70
     6
  9
$SPLINESEGS
 70
     8
  9
$ATTDIA
 70
     0
  9
$ATTREQ
 70
     1
  9
$HANDLING
 70
     1
  9
$HANDSEED
  5
A57C
  9
$SURFTAB1
 70
     6
  9
$SURFTAB2
 70
     6
  9
$SURFTYPE
 70
     6
  9
$SURFU
 70
     6
  9
$SURFV
 70
     6
  9
$UCSNAME
  2

  9
$UCSORG
 10
0.0
 20
0.0
 30
0.0
  9
$UCSXDIR
 10
1.0
 20
0.0
 30
0.0
  9
$UCSYDIR
 10
0.0
 20
1.0
 30
0.0
  9
$PUCSNAME
  2

  9
$PUCSORG
 10
0.0
 20
0.0
 30
0.0
  9
$PUCSXDIR
 10
1.0
 20
0.0
 30
0.0
  9
$PUCSYDIR
 10
0.0
 20
1.0
 30
0.0
  9
$USERI1
 70
     0
  9
$USERI2
 70
     0
  9
$USERI3
 70
     0
  9
$USERI4
 70
     0
  9
$USERI5
 70
     0
  9
$USERR1
 40
0.0
  9
$USERR2
 40
0.0
  9
$USERR3
 40
0.0
  9
$USERR4
 40
0.0
  9
$USERR5
 40
0.0
  9
$WORLDVIEW
 70
     1
  9
$SHADEDGE
 70
     3
  9
$SHADEDIF
 70
    70
  9
$TILEMODE
 70
     1
  9
$MAXACTVP
 70
    48
  9
$PLIMCHECK
 70
     0
  9
$PEXTMIN
 10
1.0000000000000000E+020
 20
1.0000000000000000E+020
 30
1.0000000000000000E+020
  9
$PEXTMAX
 10
-1.0000000000000000E+020
 20
-1.0000000000000000E+020
 30
-1.0000000000000000E+020
  9
$PLIMMIN
 10
0.0
 20
0.0
  9
$PLIMMAX
 10
420.0
 20
297.0
  9
$UNITMODE
 70
     0
  9
$VISRETAIN
 70
     1
  9
$PLINEGEN
 70
     0
  9
$PSLTSCALE
 70
     1
  0
ENDSEC
  0
SECTION
  2
TABLES
  0
TABLE
  2
VPORT
 70
     1
  0
VPORT
  2
*ACTIVE
 70
     0
 10
0.0
 20
0.0
 11
1.0
 21
1.0
 12
5110.4356694421649
 22
-313.4982863343152
 13
0.0
 23
0.0
 14
10.0
 24
10.0
 15
10.0
 25
10.0
 16
0.0
 26
0.0
 36
1.0
 17
0.0
 27
0.0
 37
0.0
 40
281.09478224968927
 41
2.1749379652605461
 42
50.0
 43
0.0
 44
0.0
 50
0.0
 51
0.0
 71
     0
 72
   100
 73
     1
 74
     1
 75
     0
 76
     0
 77
     0
 78
     0
  0
ENDTAB
  0
TABLE
  2
LTYPE
 70
    13
  0
LTYPE
  2
CONTINUOUS
 70
     0
  3
Solid line
 72
    65
 73
     0
 40
0.0
  0
LTYPE
  2
XREF1|CENTER2
 70
    48
  3
Center (.5x) ___ _ ___ _ ___ _ ___ _ ___ _ ___
 72
    65
 73
     4
 40
28.574999999999999
 49
19.050000000000001
 49
-3.1749999999999989
 49
3.1749999999999989
 49
-3.1749999999999989
  0
LTYPE
  2
A3WAKUDAKE|CENTER2
 70
    48
  3
Center (.5x) ___ _ ___ _ ___ _ ___ _ ___ _ ___
 72
    65
 73
     4
 40
28.574999999999999
 49
19.050000000000001
 49
-3.1749999999999989
 49
3.1749999999999989
 49
-3.1749999999999989
  0
ENDTAB
  0
TABLE
  2
LAYER
 70
    41
  0
LAYER
  2
0
 70
     0
 62
     7
  6
CONTINUOUS
  0
LAYER
  2
1TEXT
 70
     0
 62
     7
  6
CONTINUOUS
  0
LAYER
  2
01
 70
     0
 62
     1
  6
CONTINUOUS
  0
LAYER
  2
A3WAKUDAKE|THICK
 70
    48
 62
     7
  6
CONTINUOUS
  0
LAYER
  2
A3WAKUDAKE|POINT
 70
    48
 62
     7
  6
CONTINUOUS
  0
LAYER
  2
A3WAKUDAKE|1CENTER
 70
    48
 62
     7
  6
A3WAKUDAKE|CENTER2
  0
LAYER
  2
A3WAKUDAKE|0-6
 70
    48
 62
     7
  6
CONTINUOUS
  0
LAYER
  2
A3WAKUDAKE|1DIM
 70
    48
 62
     7
  6
CONTINUOUS
  0
LAYER
  2
XREF1|1CENTER
 70
    48
 62
     7
  6
XREF1|CENTER2
  0
ENDTAB
  0
TABLE
  2
STYLE
 70
     5
  0
STYLE
  2
STANDARD
 70
     0
 40
0.0
 41
1.0
 50
0.0
 71
     0
 42
4.0
  3
romans.shx
  4
extfont2.shx
  0
ENDTAB
  0
TABLE
  2
VIEW
 70
     5
  0
ENDTAB
  0
TABLE
  2
UCS
 70
     0
  0
ENDTAB
  0
TABLE
  2
APPID
 70
    12
  0
APPID
  2
ACAD
 70
     0
  0
APPID
  2
DRAWINGVARIABLESXDATA
 70
     0
  0
APPID
  2
CONTENTTABDATA
 70
     0
  0
APPID
  2
CONTENTCURRENTTAB
 70
     0
  0
APPID
  2
CONTENTBLOCKDESCRIPTION
 70
     0
  0
APPID
  2
CONTENTBLOCKICON
 70
     0
  0
APPID
  2
CONTENTLONGBLOCKNAME
 70
     0
  0
APPID
  2
ACAD_PSEXT
 70
     0
  0
APPID
  2
ACAD_MLEADERVER
 70
     0
  0
APPID
  2
ACLAYERTOOLS
 70
     0
  0
APPID
  2
ACAD_NAV_VCDISPLAY
 70
     0
  0
APPID
  2
ACAECLAYERSTANDARD
 70
     0
  0
ENDTAB
  0
TABLE
  2
DIMSTYLE
 70
     5
  0
DIMSTYLE
  2
NEWX10
 70
     0
  3
 
  4

  5

  6
OPEN30
  7
OPEN30
 40
1.0
 41
2.0
 42
0.0
 43
7.0
 44
1.0
 45
0.0
 46
0.0
 47
0.0
 48
0.0
140
3.5
141
0.0
142
0.0
143
25.399999999999999
144
1.0
145
0.0
146
0.7
147
0.7
 71
     0
 72
     0
 73
     0
 74
     0
 75
     0
 76
     0
 77
     1
 78
     8
170
     0
171
     2
172
     1
173
     1
174
     0
175
     0
176
   256
177
   256
178
   201
  0
ENDTAB
  0
ENDSEC
  0
SECTION
  2
BLOCKS
  0
BLOCK
  8
0
  2
$MODEL_SPACE
 70
     0
 10
0.0
 20
0.0
 30
0.0
  3
$MODEL_SPACE
  1

  0
ENDBLK
  5
1A
  8
0
  0
BLOCK
 67
     1
  8
0
  2
$PAPER_SPACE
 70
     0
 10
0.0
 20
0.0
 30
0.0
  3
$PAPER_SPACE
  1

  0
ENDBLK
  5
17
 67
     1
  8
0
  0
BLOCK
  8
0
  2
_OPEN30
 70
     0
 10
0.0
 20
0.0
 30
0.0
  3
_OPEN30
  1

  0
LINE
  5
44
  8
0
  6
BYBLOCK
 62
     0
 10
-1.0
 20
0.26794919
 30
0.0
 11
0.0
 21
0.0
 31
0.0
  0
LINE
  5
45
  8
0
  6
BYBLOCK
 62
     0
 10
0.0
 20
0.0
 30
0.0
 11
-1.0
 21
-0.26794919
 31
0.0
  0
LINE
  5
46
  8
0
  6
BYBLOCK
 62
     0
 10
0.0
 20
0.0
 30
0.0
 11
-1.0
 21
0.0
 31
0.0
  0
ENDBLK
  5
47
  8
0
  0
BLOCK
  8
0
  2
XREF1
 70
    36
 10
0.0
 20
0.0
 30
0.0
  3
XREF1
  1
D:\ACLT\FORMAT\KAWAJUN(9)図面用.dwg
  0
ENDBLK
  5
5D
  8
0
  0
BLOCK
  8
0
  2
A3WAKUDAKE
 70
    36
 10
0.0
 20
0.0
 30
0.0
  3
A3WAKUDAKE
  1
D:\ACLT\FORMAT\A3WAKUdake.dwg
  0
ENDBLK
  5
6A0
  8
0
  0
ENDSEC
  0
SECTION
  2
ENTITIES
  0
POINT
  5
A340
  8
01
 10
4967.8857241245623
 20
-376.01024714652931
 30
0.0
  0
LINE
  5
A341
  8
01
 10
4967.4857241145628
 20
-377.76024714652931
 30
0.0
 11
4967.4857241145628
 21
-376.91024712652921
 31
0.0
  0
LINE
  5
A342
  8
01
 10
4968.2857241345637
 20
-377.76024714652931
 30
0.0
 11
4968.2857241345637
 21
-376.91024712652921
 31
0.0
  0
LINE
  5
A343
  8
01
 10
4966.9857241445634
 20
-376.41024715652981
 30
0.0
 11
4966.1357241245623
 21
-376.41024715652981
 31
0.0
  0
LINE
  5
A344
  8
01
 10
4966.9857241445634
 20
-375.61024713652978
 30
0.0
 11
4966.1357241245623
 21
-375.61024713652978
 31
0.0
  0
LINE
  5
A345
  8
01
 10
4966.1357241245623
 20
-376.41024715652981
 30
0.0
 11
4966.1357241245623
 21
-375.61024713652978
 31
0.0
  0
LINE
  5
A346
  8
01
 10
4968.2857241345637
 20
-377.76024714652931
 30
0.0
 11
4967.4857241145628
 21
-377.76024714652931
 31
0.0
  0
LINE
  5
A347
  8
01
 10
4968.2857241345637
 20
-374.26024714652931
 30
0.0
 11
4968.2857241345637
 21
-375.11024716652952
 31
0.0
  0
LINE
  5
A348
  8
01
 10
4967.4857241145628
 20
-374.26024714652931
 30
0.0
 11
4967.4857241145628
 21
-375.11024716652952
 31
0.0
  0
LINE
  5
A349
  8
01
 10
4968.7857241045622
 20
-375.61024713652978
 30
0.0
 11
4969.6357241245623
 21
-375.61024713652978
 31
0.0
  0
LINE
  5
A34A
  8
01
 10
4968.7857241045622
 20
-376.41024715652981
 30
0.0
 11
4969.6357241245623
 21
-376.41024715652981
 31
0.0
  0
LINE
  5
A34B
  8
01
 10
4969.6357241245623
 20
-375.61024713652978
 30
0.0
 11
4969.6357241245623
 21
-376.41024715652981
 31
0.0
  0
LINE
  5
A34C
  8
01
 10
4967.4857241145628
 20
-374.26024714652931
 30
0.0
 11
4968.2857241345637
 21
-374.26024714652931
 31
0.0
  0
CIRCLE
  5
A34D
  8
01
 10
4967.8857241245623
 20
-376.01024714652931
 30
0.0
 40
2.5
  0
ARC
  5
A34E
  8
01
 10
4968.7857241045622
 20
-375.11024716652952
 30
0.0
 40
0.5
 50
179.999989999999
 51
270.0
  0
ARC
  5
A34F
  8
01
 10
4968.7857241045622
 20
-376.91024712652921
 30
0.0
 40
0.5
 50
90.000002999984659
 51
180.000010000001
  0
ARC
  5
A350
  8
01
 10
4966.9857241445634
 20
-376.91024712652921
 30
0.0
 40
0.5
 50
0.0
 51
90.000002999984659
  0
ARC
  5
A351
  8
01
 10
4966.9857241445634
 20
-375.11024716652952
 30
0.0
 40
0.5
 50
270.0
 51
0.0
  0
LINE
  5
A353
  8
01
 10
4967.8857241245623
 20
-382.01024714652931
 30
0.0
 11
4967.8857241245623
 21
-370.01024714652931
 31
0.0
  0
LINE
  5
A354
  8
01
 10
4951.2574387421319
 20
-376.01024714652931
 30
0.0
 11
4973.8857241245632
 21
-376.01024714652931
 31
0.0
  0
TEXT
  5
A355
  8
01
 10
4953.3857241245623
 20
-216.01024714652931
 30
0.0
 40
10.0
  1
EZT
 41
1.017187499999999
  0
LINE
  5
A356
  8
01
  6
BYBLOCK
 10
5052.3864919668786
 20
-186.01024714652931
 30
0.0
 11
5206.1408721219104
 21
-186.01024714652931
 31
0.0
  0
LINE
  5
A357
  8
01
 10
5103.3857241245632
 20
-181.01024714652931
 30
0.0
 11
5103.3857241245632
 21
-207.51024714652931
 31
0.0
  0
LINE
  5
A35D
  8
01
 10
4953.3857241245623
 20
-256.01024714652931
 30
0.0
 11
4953.3857241245623
 21
-446.01024714652931
 31
0.0
  0
LINE
  5
A35E
  8
01
 10
4967.8857241245623
 20
-391.01024714652931
 30
0.0
 11
4967.8857241245623
 21
-383.01024714652931
 31
0.0
  0
LINE
  5
A35F
  8
01
 10
5073.3857241245632
 20
-376.01024714652931
 30
0.0
 11
5133.3857241245623
 21
-376.01024714652931
 31
0.0
  0
LINE
  5
A360
  8
01
 10
5103.3857241245632
 20
-346.01024714652931
 30
0.0
 11
5103.3857241245632
 21
-406.01024714652931
 31
0.0
  0
LINE
  5
A362
  8
01
 10
5129.3857241245632
 20
-349.51024714653113
 30
0.0
 11
5077.385724124566
 21
-349.51024714653113
 31
0.0
  0
LINE
  5
A363
  8
01
 10
5077.385724124566
 20
-402.51024714653113
 30
0.0
 11
5129.3857241245632
 21
-402.51024714653113
 31
0.0
  0
LINE
  5
A364
  8
01
 10
5076.885724124566
 20
-350.01024714653113
 30
0.0
 11
5076.885724124566
 21
-402.01024714653113
 31
0.0
  0
ARC
  5
A365
  8
01
 10
5077.385724124566
 20
-402.01024714653113
 30
0.0
 40
0.5
 50
180.0
 51
270.0
  0
ARC
  5
A366
  8
01
 10
5077.385724124566
 20
-350.01024714653113
 30
0.0
 40
0.5
 50
90.0
 51
180.0
  0
LINE
  5
A367
  8
01
 10
5129.8857241245623
 20
-350.01024714653113
 30
0.0
 11
5129.8857241245623
 21
-365.01024686240572
 31
0.0
  0
LINE
  5
A368
  8
01
 10
5129.8857241245623
 20
-387.01024714652931
 30
0.0
 11
5129.8857241245623
 21
-402.01024714653113
 31
0.0
  0
ARC
  5
A369
  8
01
 10
5129.3857241245632
 20
-402.01024714653113
 30
0.0
 40
0.5
 50
270.0
 51
0.0
  0
ARC
  5
A36A
  8
01
 10
5129.3857241245632
 20
-350.01024714653113
 30
0.0
 40
0.5
 50
0.0
 51
90.0
  0
LINE
  5
A36B
  8
01
 10
5076.885724124566
 20
-186.01024714652931
 30
0.0
 11
5129.8857241245623
 21
-186.01024714652931
 31
0.0
  0
LINE
  5
A36C
  8
01
 10
5077.385724124566
 20
-194.51024714652931
 30
0.0
 11
5129.3857241245632
 21
-194.51024714652931
 31
0.0
  0
LINE
  5
A36D
  8
01
 10
5129.8857241245623
 20
-186.01024714652931
 30
0.0
 11
5129.8857241245623
 21
-194.01024714652931
 31
0.0
  0
LINE
  5
A36E
  8
01
 10
5076.885724124566
 20
-186.01024714652931
 30
0.0
 11
5076.885724124566
 21
-194.01024714652931
 31
0.0
  0
ARC
  5
A36F
  8
01
 10
5077.385724124566
 20
-194.01024714652931
 30
0.0
 40
0.5
 50
180.0
 51
270.0
  0
ARC
  5
A370
  8
01
 10
5129.3857241245632
 20
-194.01024714652931
 30
0.0
 40
0.5
 50
270.0
 51
0.0
  0
LINE
  5
A371
  8
01
 10
4953.3857241245623
 20
-402.5102471465284
 30
0.0
 11
4953.3857241245623
 21
-349.51024714653113
 31
0.0
  0
LINE
  5
A372
  8
01
 10
4961.8857241245623
 20
-402.0102471465284
 30
0.0
 11
4961.8857241245623
 21
-350.01024714653113
 31
0.0
  0
LINE
  5
A373
  8
01
 10
4953.3857241245623
 20
-349.51024714653113
 30
0.0
 11
4961.3857241245623
 21
-349.51024714653113
 31
0.0
  0
LINE
  5
A374
  8
01
 10
4953.3857241245623
 20
-402.5102471465284
 30
0.0
 11
4961.3857241245623
 21
-402.5102471465284
 31
0.0
  0
ARC
  5
A375
  8
01
 10
4961.3857241245623
 20
-402.0102471465284
 30
0.0
 40
0.5
 50
270.0
 51
0.0
  0
ARC
  5
A376
  8
01
 10
4961.3857241245623
 20
-350.01024714653113
 30
0.0
 40
0.5
 50
0.0
 51
90.0
  0
LINE
  5
A377
  8
01
 10
5087.3020491630923
 20
-200.71023911327569
 30
0.0
 11
5095.4357215249393
 21
-200.7102471465264
 31
0.0
  0
LINE
  5
A378
  8
01
 10
5115.3857126804724
 20
-227.2102471465291
 30
0.0
 11
5222.8857126804724
 21
-227.2102471465291
 31
0.0
  0
LINE
  5
A379
  8
01
 10
5222.8857126804724
 20
-249.2102471465291
 30
0.0
 11
5092.8857126804724
 21
-249.2102471465291
 31
0.0
  0
LINE
  5
A37A
  8
01
 10
5223.3857126804724
 20
-248.7102471465291
 30
0.0
 11
5223.3857126804724
 21
-227.7102471465291
 31
0.0
  0
LINE
  5
A37B
  8
01
 10
5112.9357126804716
 20
-225.7102471465291
 30
0.0
 11
5112.9357126804716
 21
-227.2102471465291
 31
0.0
  0
LINE
  5
A37C
  8
01
 10
5093.8357126804713
 20
-227.2102471465291
 30
0.0
 11
5093.8357126804713
 21
-225.7102471465291
 31
0.0
  0
LINE
  5
A37D
  8
01
 10
5092.3857126804714
 20
-195.2102471465291
 30
0.0
 11
5092.3857126804733
 21
-248.7102471465291
 31
0.0
  0
LINE
  5
A37E
  8
01
 10
5114.3857126804733
 20
-195.2102471465291
 30
0.0
 11
5092.3857126804714
 21
-195.2102471465291
 31
0.0
  0
LINE
  5
A37F
  8
01
 10
5092.8857126804724
 20
-225.7102471465291
 30
0.0
 11
5113.8857126804724
 21
-225.7102471465291
 31
0.0
  0
LINE
  5
A380
  8
01
 10
5115.3857126804724
 20
-227.2102471465291
 30
0.0
 11
5092.8857126804724
 21
-227.2102471465291
 31
0.0
  0
LINE
  5
A381
  8
01
 10
5093.3857126804724
 20
-195.01024714652931
 30
0.0
 11
5113.3857126804724
 21
-195.01024714652931
 31
0.0
  0
LINE
  5
A383
  8
01
 10
5113.3857126804724
 20
-195.2102471465291
 30
0.0
 11
5113.3857126804724
 21
-195.01024714652931
 31
0.0
  0
ARC
  5
A384
  8
01
 10
5222.8857126804724
 20
-227.7102471465291
 30
0.0
 40
0.5
 50
0.0
 51
90.0
  0
ARC
  5
A385
  8
01
 10
5222.8857126804724
 20
-248.7102471465291
 30
0.0
 40
0.5
 50
270.0
 51
0.0
  0
ARC
  5
A386
  8
01
 10
5092.8857126804724
 20
-248.7102471465291
 30
0.0
 40
0.5
 50
180.0
 51
270.0
  0
ARC
  5
A387
  8
01
 10
5115.3857126804724
 20
-226.2102471465291
 30
0.0
 40
1.0
 50
180.0
 51
270.0
  0
LINE
  5
A388
  8
01
 10
5114.3857126804733
 20
-195.2102471465291
 30
0.0
 11
5114.3857126804733
 21
-226.2102471465291
 31
0.0
  0
ARC
  5
A389
  8
01
 10
5113.8857126804724
 20
-225.2102471465291
 30
0.0
 40
0.5
 50
270.0
 51
0.0
  0
ARC
  5
A38A
  8
01
 10
5092.8857126804724
 20
-225.2102471465291
 30
0.0
 40
0.5
 50
180.0
 51
270.0
  0
LINE
  5
A38B
  8
01
 10
5092.8857126804724
 20
-225.7102471465291
 30
0.0
 11
5092.8857126804724
 21
-227.2102471465291
 31
0.0
  0
ARC
  5
A38C
  8
01
 10
5092.8857126804724
 20
-227.7102471465291
 30
0.0
 40
0.5
 50
90.0
 51
180.0
  0
LINE
  5
A38D
  8
01
 10
5093.3857126804724
 20
-195.01024714652931
 30
0.0
 11
5093.3857126804724
 21
-195.2102471465291
 31
0.0
  0
LINE
  5
A38E
  8
01
 10
5103.3857241245632
 20
-382.01024714652931
 30
0.0
 11
5103.3857241245632
 21
-370.01024714652931
 31
0.0
  0
LINE
  5
A38F
  8
01
 10
5097.3857241245632
 20
-376.01024714652931
 30
0.0
 11
5109.3857241245623
 21
-376.01024714652931
 31
0.0
  0
LINE
  5
A390
  8
01
 10
5015.0857241245621
 20
-374.51024673127131
 30
0.0
 11
5015.1357240768793
 21
-376.01024672908579
 31
0.0
  0
LINE
  5
A391
  8
01
 10
5016.5857241245631
 20
-376.51024666570402
 30
0.0
 11
5016.5857241245631
 21
-386.51024666570402
 31
0.0
  0
LINE
  5
A392
  8
01
 10
4993.0857241245621
 20
-376.01024666570402
 30
0.0
 11
5016.0857241245621
 21
-376.01024666570402
 31
0.0
  0
LINE
  5
A393
  8
01
 10
4993.0857241245621
 20
-376.01024666570402
 30
0.0
 11
4993.0857241245621
 21
-365.51024666570402
 31
0.0
  0
LINE
  5
A394
  8
01
 10
4992.5857241245631
 20
-365.01024666570402
 30
0.0
 11
4962.5857241245621
 21
-365.01024666570402
 31
0.0
  0
LINE
  5
A395
  8
01
 10
4962.5857241245621
 20
-365.01024666570402
 30
0.0
 11
4962.5857241245621
 21
-387.01024666570402
 31
0.0
  0
LINE
  5
A396
  8
01
 10
4962.5857241245621
 20
-387.01024666570402
 30
0.0
 11
5016.0857241245621
 21
-387.01024666570402
 31
0.0
  0
LINE
  5
A397
  8
01
 10
4994.5857241245612
 20
-366.51024673127131
 30
0.0
 11
4993.0857241245621
 21
-366.46024673127113
 31
0.0
  0
LINE
  5
A398
  8
01
 10
4962.3857241245623
 20
-366.01024714652931
 30
0.0
 11
4962.3857241245623
 21
-386.01024714652931
 31
0.0
  0
LINE
  5
A399
  8
01
 10
4962.3857241245623
 20
-386.01024714652931
 30
0.0
 11
4962.5857241245621
 21
-386.01024714652931
 31
0.0
  0
LINE
  5
A39A
  8
01
 10
4962.5857241245621
 20
-366.01024714652931
 30
0.0
 11
4962.3857241245623
 21
-366.01024714652931
 31
0.0
  0
LINE
  5
A39B
  8
01
 10
5221.9357126804698
 20
-376.0102472099108
 30
0.0
 11
5221.8857126804714
 21
-374.51024721209637
 31
0.0
  0
LINE
  5
A39C
  8
01
 10
5222.8857126804696
 20
-376.01024714652931
 30
0.0
 11
5092.8857126804696
 21
-376.01024714652931
 31
0.0
  0
LINE
  5
A39D
  8
01
 10
5092.3857126804714
 20
-365.51024817374702
 30
0.0
 11
5092.3857126804714
 21
-386.51024714652931
 31
0.0
  0
LINE
  5
A39E
  8
01
 10
5092.8857126804696
 20
-387.01024714652931
 30
0.0
 11
5222.8857126804696
 21
-387.01024714652931
 31
0.0
  0
LINE
  5
A39F
  8
01
 10
5223.3857126804714
 20
-386.51024714652931
 30
0.0
 11
5223.3857126804714
 21
-376.51024714652931
 31
0.0
  0
ARC
  5
A3A0
  8
01
 10
5092.8857126804696
 20
-365.51024817374702
 30
0.0
 40
0.5
 50
90.0
 51
180.0
  0
ARC
  5
A3A1
  8
01
 10
5092.8857126804696
 20
-386.51024714652931
 30
0.0
 40
0.5
 50
180.0
 51
270.0
  0
ARC
  5
A3A2
  8
01
 10
5222.8857126804696
 20
-386.51024714652931
 30
0.0
 40
0.5
 50
270.0
 51
0.0
  0
ARC
  5
A3A3
  8
01
 10
5222.8857126804696
 20
-376.51024714652931
 30
0.0
 40
0.5
 50
0.0
 51
90.0
  0
ARC
  5
A3A4
  8
01
 10
5092.8857126804696
 20
-376.51024714652931
 30
0.0
 40
0.5
 50
90.0
 51
180.0
  0
ARC
  5
A3A5
  8
01
 10
4992.5857241245631
 20
-365.51024666570453
 30
0.0
 40
0.5
 50
0.0
 51
90.0
  0
ARC
  5
A3A6
  8
01
 10
5016.0857241245621
 20
-376.51024666570453
 30
0.0
 40
0.5
 50
0.0
 51
90.0
  0
ARC
  5
A3A7
  8
01
 10
5016.0857241245621
 20
-386.51024666570453
 30
0.0
 40
0.5
 50
270.0
 51
0.0
  0
LINE
  5
A3A8
  8
01
 10
4995.0857241245621
 20
-365.01024673127131
 30
0.0
 11
5016.0857241245621
 21
-365.01024673127131
 31
0.0
  0
LINE
  5
A3A9
  8
01
 10
4994.5857241245612
 20
-365.51024673127131
 30
0.0
 11
4994.5857241245612
 21
-374.01024673127131
 31
0.0
  0
LINE
  5
A3AA
  8
01
 10
4995.0857241245621
 20
-374.51024673127131
 30
0.0
 11
5016.0857241245621
 21
-374.51024673127131
 31
0.0
  0
LINE
  5
A3AB
  8
01
 10
5016.5857241245631
 20
-374.01024673127131
 30
0.0
 11
5016.5857241245631
 21
-365.51024673127131
 31
0.0
  0
ARC
  5
A3AC
  8
01
 10
4995.0857241245621
 20
-365.51024673127182
 30
0.0
 40
0.5
 50
90.0
 51
180.0
  0
ARC
  5
A3AD
  8
01
 10
5016.0857241245621
 20
-365.51024673127182
 30
0.0
 40
0.5
 50
0.0
 51
90.0
  0
ARC
  5
A3AE
  8
01
 10
4995.0857241245621
 20
-374.01024673127182
 30
0.0
 40
0.5
 50
180.0
 51
270.0
  0
ARC
  5
A3AF
  8
01
 10
5016.0857241245621
 20
-374.01024673127182
 30
0.0
 40
0.5
 50
270.0
 51
0.0
  0
LINE
  5
A3B0
  8
01
 10
5092.8857126804696
 20
-365.01024686240572
 30
0.0
 11
5222.8857126804696
 21
-365.01024686240572
 31
0.0
  0
LINE
  5
A3B1
  8
01
 10
5223.3857126804714
 20
-374.01024686240572
 30
0.0
 11
5223.3857126804714
 21
-365.51024686240572
 31
0.0
  0
LINE
  5
A3B2
  8
01
 10
5222.8857126804696
 20
-374.51024686240572
 30
0.0
 11
5092.8857126804696
 21
-374.51024686240572
 31
0.0
  0
ARC
  5
A3B3
  8
01
 10
5092.8857126804696
 20
-374.01024686240572
 30
0.0
 40
0.5
 50
180.0
 51
270.0
  0
ARC
  5
A3B4
  8
01
 10
5222.8857126804696
 20
-365.51024686240572
 30
0.0
 40
0.5
 50
0.0
 51
90.0
  0
ARC
  5
A3B5
  8
01
 10
5222.8857126804696
 20
-374.01024686240572
 30
0.0
 40
0.5
 50
270.0
 51
0.0
  0
LINE
  5
A4D9
  8
01
 10
5077.385724124566
 20
-349.51024714653113
 30
0.0
 11
5067.0857241245621
 21
-349.51024714653113
 31
0.0
  0
LINE
  5
A4DC
  8
01
 10
5077.385724124566
 20
-402.51024714653113
 30
0.0
 11
5067.0857241245621
 21
-402.51024714653113
 31
0.0
  0
LINE
  5
A4DD
  8
01
 10
5068.3857241245632
 20
-352.11024714653121
 30
0.0
 11
5068.3857241245632
 21
-399.91024714653111
 31
0.0
  0
LINE
  5
A4E1
  8
01
 10
5222.8857126804696
 20
-387.01024714652931
 30
0.0
 11
5259.6857241245634
 21
-387.01024714652942
 31
0.0
  0
LINE
  5
A4E2
  8
01
 10
5222.8857126804696
 20
-365.01024686240572
 30
0.0
 11
5259.6857241245634
 21
-365.01024686240572
 31
0.0
  0
LINE
  5
A4E3
  8
01
 10
5258.3857241245623
 20
-384.41024714652929
 30
0.0
 11
5258.3857241245623
 21
-367.61024686240569
 31
0.0
  0
LINE
  5
A4E7
  8
01
 10
5222.8857126804724
 20
-249.2102471465291
 30
0.0
 11
5269.6857241245616
 21
-249.2102471465291
 31
0.0
  0
LINE
  5
A4E8
  8
01
 10
5206.1408721219104
 20
-186.01024714652931
 30
0.0
 11
5269.6857241245616
 21
-186.01024714652931
 31
0.0
  0
LINE
  5
A4E9
  8
01
 10
5268.3857241245632
 20
-246.6102471465291
 30
0.0
 11
5268.3857241245632
 21
-188.6102471465293
 31
0.0
  0
LINE
  5
A4ED
  8
01
 10
5222.8857126804724
 20
-227.2102471465291
 30
0.0
 11
5259.6857241245634
 21
-227.2102471465291
 31
0.0
  0
LINE
  5
A4EE
  8
01
 10
5206.1408721219104
 20
-186.01024714652931
 30
0.0
 11
5259.6857241245634
 21
-186.01024714652931
 31
0.0
  0
LINE
  5
A4EF
  8
01
 10
5258.3857241245623
 20
-224.6102471465291
 30
0.0
 11
5258.3857241245623
 21
-188.6102471465293
 31
0.0
  0
LINE
  5
A4F3
  8
01
 10
5092.3857126804733
 20
-248.7102471465291
 30
0.0
 11
5092.3857126804733
 21
-282.31024714652932
 31
0.0
  0
LINE
  5
A4F4
  8
01
 10
5223.3857126804724
 20
-248.7102471465291
 30
0.0
 11
5223.3857126804724
 21
-282.31024714652932
 31
0.0
  0
LINE
  5
A4F5
  8
01
 10
5094.9857126804727
 20
-281.01024714652931
 30
0.0
 11
5220.785712680472
 21
-281.01024714652931
 31
0.0
  0
LINE
  5
A4F9
  8
01
 10
5103.3857241245632
 20
-207.51024714652931
 30
0.0
 11
5103.3857241245632
 21
-272.31024714652932
 31
0.0
  0
LINE
  5
A4FA
  8
01
 10
5223.3857126804724
 20
-248.7102471465291
 30
0.0
 11
5223.3857126804724
 21
-272.31024714652932
 31
0.0
  0
LINE
  5
A4FB
  8
01
 10
5105.9857241245627
 20
-271.01024714652931
 30
0.0
 11
5220.785712680472
 21
-271.01024714652931
 31
0.0
  0
CIRCLE
  5
A4FF
  8
01
 10
4967.8857241245623
 20
-376.01024714652931
 30
0.0
 40
3.0
  0
TEXT
  5
A500
  8
01
 10
5156.5607184025166
 20
-270.10024714652928
 30
0.0
 40
4.5499999999999989
  1
120
  0
LINE
  5
A501
  8
01
  6
BYBLOCK
 10
5220.785712680472
 20
-270.31357925252928
 30
0.0
 11
5223.3857126804724
 21
-271.01024714652931
 31
0.0
  0
LINE
  5
A502
  8
01
  6
BYBLOCK
 10
5223.3857126804724
 20
-271.01024714652931
 30
0.0
 11
5220.785712680472
 21
-271.70691504052928
 31
0.0
  0
LINE
  5
A503
  8
01
  6
BYBLOCK
 10
5223.3857126804724
 20
-271.01024714652931
 30
0.0
 11
5220.785712680472
 21
-271.01024714652931
 31
0.0
  0
LINE
  5
A504
  8
01
  6
BYBLOCK
 10
5105.9857241245627
 20
-271.70691504052928
 30
0.0
 11
5103.3857241245632
 21
-271.01024714652931
 31
0.0
  0
LINE
  5
A505
  8
01
  6
BYBLOCK
 10
5103.3857241245632
 20
-271.01024714652931
 30
0.0
 11
5105.9857241245627
 21
-270.31357925252928
 31
0.0
  0
LINE
  5
A506
  8
01
  6
BYBLOCK
 10
5103.3857241245632
 20
-271.01024714652931
 30
0.0
 11
5105.9857241245627
 21
-271.01024714652931
 31
0.0
  0
TEXT
  5
A507
  8
01
 10
5151.7107126804722
 20
-280.10024714652928
 30
0.0
 40
4.5499999999999989
  1
131
  0
LINE
  5
A508
  8
01
  6
BYBLOCK
 10
5220.785712680472
 20
-280.31357925252939
 30
0.0
 11
5223.3857126804724
 21
-281.01024714652931
 31
0.0
  0
LINE
  5
A509
  8
01
  6
BYBLOCK
 10
5223.3857126804724
 20
-281.01024714652931
 30
0.0
 11
5220.785712680472
 21
-281.70691504052928
 31
0.0
  0
LINE
  5
A50A
  8
01
  6
BYBLOCK
 10
5223.3857126804724
 20
-281.01024714652931
 30
0.0
 11
5220.785712680472
 21
-281.01024714652931
 31
0.0
  0
LINE
  5
A50B
  8
01
  6
BYBLOCK
 10
5094.9857126804727
 20
-281.70691504052928
 30
0.0
 11
5092.3857126804733
 21
-281.01024714652931
 31
0.0
  0
LINE
  5
A50C
  8
01
  6
BYBLOCK
 10
5092.3857126804733
 20
-281.01024714652931
 30
0.0
 11
5094.9857126804727
 21
-280.31357925252939
 31
0.0
  0
LINE
  5
A50D
  8
01
  6
BYBLOCK
 10
5092.3857126804733
 20
-281.01024714652931
 30
0.0
 11
5094.9857126804727
 21
-281.01024714652931
 31
0.0
  0
TEXT
  5
A50E
  8
01
 10
5257.4757241245634
 20
-210.2935804798617
 30
0.0
 40
4.5499999999999989
  1
41
 50
90.0
  0
LINE
  5
A50F
  8
01
  6
BYBLOCK
 10
5257.6890562305634
 20
-188.6102471465293
 30
0.0
 11
5258.3857241245623
 21
-186.01024714652931
 31
0.0
  0
LINE
  5
A510
  8
01
  6
BYBLOCK
 10
5258.3857241245623
 20
-186.01024714652931
 30
0.0
 11
5259.0823920185621
 21
-188.6102471465293
 31
0.0
  0
LINE
  5
A511
  8
01
  6
BYBLOCK
 10
5258.3857241245623
 20
-186.01024714652931
 30
0.0
 11
5258.3857241245623
 21
-188.6102471465293
 31
0.0
  0
LINE
  5
A512
  8
01
  6
BYBLOCK
 10
5259.0823920185621
 20
-224.6102471465291
 30
0.0
 11
5258.3857241245623
 21
-227.2102471465291
 31
0.0
  0
LINE
  5
A513
  8
01
  6
BYBLOCK
 10
5258.3857241245623
 20
-227.2102471465291
 30
0.0
 11
5257.6890562305634
 21
-224.6102471465291
 31
0.0
  0
LINE
  5
A514
  8
01
  6
BYBLOCK
 10
5258.3857241245623
 20
-227.2102471465291
 30
0.0
 11
5258.3857241245623
 21
-224.6102471465291
 31
0.0
  0
TEXT
  5
A515
  8
01
 10
5267.4757241245634
 20
-222.051913813195
 30
0.0
 40
4.5499999999999989
  1
63
 50
90.0
  0
LINE
  5
A516
  8
01
  6
BYBLOCK
 10
5267.6890562305634
 20
-188.6102471465293
 30
0.0
 11
5268.3857241245632
 21
-186.01024714652931
 31
0.0
  0
LINE
  5
A517
  8
01
  6
BYBLOCK
 10
5268.3857241245632
 20
-186.01024714652931
 30
0.0
 11
5269.0823920185621
 21
-188.6102471465293
 31
0.0
  0
LINE
  5
A518
  8
01
  6
BYBLOCK
 10
5268.3857241245632
 20
-186.01024714652931
 30
0.0
 11
5268.3857241245632
 21
-188.6102471465293
 31
0.0
  0
LINE
  5
A519
  8
01
  6
BYBLOCK
 10
5269.0823920185621
 20
-246.6102471465291
 30
0.0
 11
5268.3857241245632
 21
-249.2102471465291
 31
0.0
  0
LINE
  5
A51A
  8
01
  6
BYBLOCK
 10
5268.3857241245632
 20
-249.2102471465291
 30
0.0
 11
5267.6890562305634
 21
-246.6102471465291
 31
0.0
  0
LINE
  5
A51B
  8
01
  6
BYBLOCK
 10
5268.3857241245632
 20
-249.2102471465291
 30
0.0
 11
5268.3857241245632
 21
-246.6102471465291
 31
0.0
  0
TEXT
  5
A51C
  8
01
 10
5257.4757241245634
 20
-380.34358033780001
 30
0.0
 40
4.5499999999999989
  1
22
 50
90.0
  0
LINE
  5
A51D
  8
01
  6
BYBLOCK
 10
5257.6890562305634
 20
-367.61024686240569
 30
0.0
 11
5258.3857241245623
 21
-365.01024686240572
 31
0.0
  0
LINE
  5
A51E
  8
01
  6
BYBLOCK
 10
5258.3857241245623
 20
-365.01024686240572
 30
0.0
 11
5259.0823920185621
 21
-367.61024686240569
 31
0.0
  0
LINE
  5
A51F
  8
01
  6
BYBLOCK
 10
5258.3857241245623
 20
-365.01024686240572
 30
0.0
 11
5258.3857241245623
 21
-367.61024686240569
 31
0.0
  0
LINE
  5
A520
  8
01
  6
BYBLOCK
 10
5259.0823920185621
 20
-384.41024714652929
 30
0.0
 11
5258.3857241245623
 21
-387.01024714652942
 31
0.0
  0
LINE
  5
A521
  8
01
  6
BYBLOCK
 10
5258.3857241245623
 20
-387.01024714652942
 30
0.0
 11
5257.6890562305634
 21
-384.41024714652929
 31
0.0
  0
LINE
  5
A522
  8
01
  6
BYBLOCK
 10
5258.3857241245623
 20
-387.01024714652942
 30
0.0
 11
5258.3857241245623
 21
-384.41024714652929
 31
0.0
  0
TEXT
  5
A523
  8
01
 10
5067.4757241245616
 20
-384.39165977535072
 30
0.0
 40
4.5499999999999989
  1
□53
 50
90.0
  0
LINE
  5
A524
  8
01
  6
BYBLOCK
 10
5069.0823920185621
 20
-399.91024714653111
 30
0.0
 11
5068.3857241245632
 21
-402.51024714653113
 31
0.0
  0
LINE
  5
A525
  8
01
  6
BYBLOCK
 10
5068.3857241245632
 20
-402.51024714653113
 30
0.0
 11
5067.6890562305616
 21
-399.91024714653111
 31
0.0
  0
LINE
  5
A526
  8
01
  6
BYBLOCK
 10
5068.3857241245632
 20
-402.51024714653113
 30
0.0
 11
5068.3857241245632
 21
-399.91024714653111
 31
0.0
  0
LINE
  5
A527
  8
01
  6
BYBLOCK
 10
5067.6890562305616
 20
-352.11024714653121
 30
0.0
 11
5068.3857241245632
 21
-349.51024714653113
 31
0.0
  0
LINE
  5
A528
  8
01
  6
BYBLOCK
 10
5068.3857241245632
 20
-349.51024714653113
 30
0.0
 11
5069.0823920185621
 21
-352.11024714653121
 31
0.0
  0
LINE
  5
A529
  8
01
  6
BYBLOCK
 10
5068.3857241245632
 20
-349.51024714653113
 30
0.0
 11
5068.3857241245632
 21
-352.11024714653121
 31
0.0
  0
VIEWPORT
  5
57
 67
     1
  8
0
 10
-7.7295765619315944
 20
12.24944339467006
 30
0.0
 40
593.82678079570815
 41
273.03159459289259
 68
     1
 69
     1
1001
ACAD
1000
MVIEW
1002
{
1070
    16
1010
0.0
1020
0.0
1030
0.0
1010
0.0
1020
0.0
1030
1.0
1040
0.0
1040
273.03159459289259
1040
-7.7295765619315944
1040
12.24944339467006
1040
50.0
1040
0.0
1040
0.0
1070
     0
1070
   100
1070
     1
1070
     1
1070
     0
1070
     0
1070
     0
1070
     0
1040
0.0
1040
0.0
1040
0.0
1040
10.0
1040
10.0
1040
10.0
1040
10.0
1070
     0
1002
{
1002
}
1002
}
  0
ENDSEC
  0
EOF
