  0
SECTION
  2
HEADER
  9
$ACADVER
  1
AC1012
  9
$DWGCODEPAGE
  3
ansi_932
  9
$INSBASE
 10
0.0
 20
0.0
 30
0.0
  9
$EXTMIN
 10
4714.886707864751
 20
459.9303100428069
 30
0.0000000001127424
  9
$EXTMAX
 10
5033.314993247182
 20
699.9289917297042
 30
0.0000000001127424
  9
$LIMMIN
 10
0.0
 20
0.0
  9
$LIMMAX
 10
420.0
 20
297.0
  9
$ORTHOMODE
 70
     0
  9
$REGENMODE
 70
     1
  9
$FILLMODE
 70
     1
  9
$QTEXTMODE
 70
     0
  9
$MIRRTEXT
 70
     0
  9
$DRAGMODE
 70
     2
  9
$LTSCALE
 40
0.5
  9
$OSMODE
 70
 14463
  9
$ATTMODE
 70
     1
  9
$TEXTSIZE
 40
4.0
  9
$TRACEWID
 40
1.0
  9
$TEXTSTYLE
  7
STANDARD
  9
$CLAYER
  8
1TEXT
  9
$CELTYPE
  6
BYLAYER
  9
$CECOLOR
 62
   256
  9
$CELTSCALE
 40
1.0
  9
$DELOBJ
 70
     1
  9
$DISPSILH
 70
     0
  9
$DIMSCALE
 40
1.0
  9
$DIMASZ
 40
2.0
  9
$DIMEXO
 40
0.0
  9
$DIMDLI
 40
7.0
  9
$DIMRND
 40
0.0
  9
$DIMDLE
 40
0.0
  9
$DIMEXE
 40
1.0
  9
$DIMTP
 40
0.0
  9
$DIMTM
 40
0.0
  9
$DIMTXT
 40
3.5
  9
$DIMCEN
 40
0.0
  9
$DIMTSZ
 40
0.0
  9
$DIMTOL
 70
     0
  9
$DIMLIM
 70
     0
  9
$DIMTIH
 70
     0
  9
$DIMTOH
 70
     0
  9
$DIMSE1
 70
     0
  9
$DIMSE2
 70
     0
  9
$DIMTAD
 70
     1
  9
$DIMZIN
 70
     8
  9
$DIMBLK
  1

  9
$DIMASO
 70
     1
  9
$DIMSHO
 70
     1
  9
$DIMPOST
  1
 
  9
$DIMAPOST
  1

  9
$DIMALT
 70
     0
  9
$DIMALTD
 70
     2
  9
$DIMALTF
 40
25.4
  9
$DIMLFAC
 40
1.0
  9
$DIMTOFL
 70
     1
  9
$DIMTVP
 40
0.0
  9
$DIMTIX
 70
     0
  9
$DIMSOXD
 70
     0
  9
$DIMSAH
 70
     1
  9
$DIMBLK1
  1
OPEN30
  9
$DIMBLK2
  1
OPEN30
  9
$DIMSTYLE
  2
NEWX10
  9
$DIMCLRD
 70
   256
  9
$DIMCLRE
 70
   256
  9
$DIMCLRT
 70
   201
  9
$DIMTFAC
 40
0.7
  9
$DIMGAP
 40
0.7
  9
$DIMJUST
 70
     0
  9
$DIMSD1
 70
     0
  9
$DIMSD2
 70
     0
  9
$DIMTOLJ
 70
     1
  9
$DIMTZIN
 70
     8
  9
$DIMALTZ
 70
     0
  9
$DIMALTTZ
 70
     0
  9
$DIMFIT
 70
     2
  9
$DIMUPT
 70
     0
  9
$DIMUNIT
 70
     2
  9
$DIMDEC
 70
     2
  9
$DIMTDEC
 70
     4
  9
$DIMALTU
 70
     2
  9
$DIMALTTD
 70
     2
  9
$DIMTXSTY
  7
STANDARD
  9
$DIMAUNIT
 70
     0
  9
$LUNITS
 70
     2
  9
$LUPREC
 70
     4
  9
$SKETCHINC
 40
1.0
  9
$FILLETRAD
 40
0.0
  9
$AUNITS
 70
     0
  9
$AUPREC
 70
     2
  9
$MENU
  1
acad
  9
$ELEVATION
 40
0.0
  9
$PELEVATION
 40
0.0
  9
$THICKNESS
 40
0.0
  9
$LIMCHECK
 70
     0
  9
$CHAMFERA
 40
10.0
  9
$CHAMFERB
 40
10.0
  9
$CHAMFERC
 40
20.0
  9
$CHAMFERD
 40
0.0
  9
$SKPOLY
 70
     0
  9
$TDCREATE
 40
2451318.621352917
  9
$TDUPDATE
 40
2458159.439936319
  9
$TDINDWG
 40
1.4836271528
  9
$TDUSRTIMER
 40
1.4836271528
  9
$USRTIMER
 70
     1
  9
$ANGBASE
 50
0.0
  9
$ANGDIR
 70
     0
  9
$PDMODE
 70
     0
  9
$PDSIZE
 40
0.0
  9
$PLINEWID
 40
0.0
  9
$COORDS
 70
     2
  9
$SPLFRAME
 70
     0
  9
$SPLINETYPE
 70
     6
  9
$SPLINESEGS
 70
     8
  9
$ATTDIA
 70
     0
  9
$ATTREQ
 70
     1
  9
$HANDLING
 70
     1
  9
$HANDSEED
  5
E71A
  9
$SURFTAB1
 70
     6
  9
$SURFTAB2
 70
     6
  9
$SURFTYPE
 70
     6
  9
$SURFU
 70
     6
  9
$SURFV
 70
     6
  9
$UCSNAME
  2

  9
$UCSORG
 10
0.0
 20
0.0
 30
0.0
  9
$UCSXDIR
 10
1.0
 20
0.0
 30
0.0
  9
$UCSYDIR
 10
0.0
 20
1.0
 30
0.0
  9
$PUCSNAME
  2

  9
$PUCSORG
 10
0.0
 20
0.0
 30
0.0
  9
$PUCSXDIR
 10
1.0
 20
0.0
 30
0.0
  9
$PUCSYDIR
 10
0.0
 20
1.0
 30
0.0
  9
$USERI1
 70
     0
  9
$USERI2
 70
     0
  9
$USERI3
 70
     0
  9
$USERI4
 70
     0
  9
$USERI5
 70
     0
  9
$USERR1
 40
0.0
  9
$USERR2
 40
0.0
  9
$USERR3
 40
0.0
  9
$USERR4
 40
0.0
  9
$USERR5
 40
0.0
  9
$WORLDVIEW
 70
     1
  9
$SHADEDGE
 70
     3
  9
$SHADEDIF
 70
    70
  9
$TILEMODE
 70
     1
  9
$MAXACTVP
 70
    48
  9
$PINSBASE
 10
0.0
 20
0.0
 30
0.0
  9
$PLIMCHECK
 70
     0
  9
$PEXTMIN
 10
1.000000000000000E+20
 20
1.000000000000000E+20
 30
1.000000000000000E+20
  9
$PEXTMAX
 10
-1.000000000000000E+20
 20
-1.000000000000000E+20
 30
-1.000000000000000E+20
  9
$PLIMMIN
 10
0.0
 20
0.0
  9
$PLIMMAX
 10
420.0
 20
297.0
  9
$UNITMODE
 70
     0
  9
$VISRETAIN
 70
     1
  9
$PLINEGEN
 70
     0
  9
$PSLTSCALE
 70
     1
  9
$TREEDEPTH
 70
  3020
  9
$PICKSTYLE
 70
     1
  9
$CMLSTYLE
  2
STANDARD
  9
$CMLJUST
 70
     0
  9
$CMLSCALE
 40
20.0
  9
$SAVEIMAGES
 70
     1
  0
ENDSEC
  0
SECTION
  2
CLASSES
  0
CLASS
  1
DICTIONARYVAR
  2
AcDbDictionaryVar
  3
ObjectDBX Classes
 90
        0
280
     0
281
     0
  0
CLASS
  1
IDBUFFER
  2
AcDbIdBuffer
  3
ObjectDBX Classes
 90
    32768
280
     0
281
     0
  0
CLASS
  1
LWPOLYLINE
  2
AcDbPolyline
  3
ObjectDBX Classes
 90
    32768
280
     0
281
     1
  0
CLASS
  1
ACDBDICTIONARYWDFLT
  2
AcDbDictionaryWithDefault
  3
ObjectDBX Classes
 90
    32768
280
     0
281
     0
  0
CLASS
  1
ACDBPLACEHOLDER
  2
AcDbPlaceHolder
  3
ObjectDBX Classes
 90
        0
280
     0
281
     0
  0
CLASS
  1
LAYOUT
  2
AcDbLayout
  3
ObjectDBX Classes
 90
        0
280
     0
281
     0
  0
CLASS
  1
TABLESTYLE
  2
AcDbTableStyle
  3
ObjectDBX Classes
 90
     4095
280
     0
281
     0
  0
CLASS
  1
SORTENTSTABLE
  2
AcDbSortentsTable
  3
ObjectDBX Classes
 90
    32768
280
     0
281
     0
  0
CLASS
  1
MATERIAL
  2
AcDbMaterial
  3
ObjectDBX Classes
 90
     1153
280
     0
281
     0
  0
CLASS
  1
VISUALSTYLE
  2
AcDbVisualStyle
  3
ObjectDBX Classes
 90
     4095
280
     0
281
     0
  0
CLASS
  1
SCALE
  2
AcDbScale
  3
ObjectDBX Classes
 90
     1153
280
     0
281
     0
  0
CLASS
  1
MLEADERSTYLE
  2
AcDbMLeaderStyle
  3
ACDB_MLEADERSTYLE_CLASS
 90
     4095
280
     0
281
     0
  0
CLASS
  1
CELLSTYLEMAP
  2
AcDbCellStyleMap
  3
ObjectDBX Classes
 90
     1152
280
     0
281
     0
  0
CLASS
  1
SUN
  2
AcDbSun
  3
SCENEOE
 90
     1153
280
     0
281
     0
  0
CLASS
  1
XRECORD
  2
AcDbXrecord
  3
ObjectDBX Classes
 90
    32768
280
     0
281
     0
  0
CLASS
  1
HATCH
  2
AcDbHatch
  3
ObjectDBX Classes
 90
    32768
280
     0
281
     1
  0
ENDSEC
  0
SECTION
  2
TABLES
  0
TABLE
  2
VPORT
  5
8
330
0
100
AcDbSymbolTable
 70
     1
  0
VPORT
  5
952D
330
8
100
AcDbSymbolTableRecord
100
AcDbViewportTableRecord
  2
*ACTIVE
 70
     0
 10
0.0
 20
0.0
 11
1.0
 21
1.0
 12
4874.100850555966
 22
579.9296508862556
 13
0.0
 23
0.0
 14
10.0
 24
10.0
 15
10.0
 25
10.0
 16
0.0
 26
0.0
 36
1.0
 17
0.0
 27
0.0
 37
0.0
 40
257.6827950743529
 41
1.871481028151775
 42
50.0
 43
0.0
 44
0.0
 50
0.0
 51
0.0
 71
    16
 72
   100
 73
     1
 74
     1
 75
     0
 76
     0
 77
     0
 78
     0
1001
ACAD_NAV_VCDISPLAY
1070
     3
  0
ENDTAB
  0
TABLE
  2
LTYPE
  5
5
330
0
100
AcDbSymbolTable
 70
     2
  0
LTYPE
  5
12
330
5
100
AcDbSymbolTableRecord
100
AcDbLinetypeTableRecord
  2
BYBLOCK
 70
     0
  3

 72
    65
 73
     0
 40
0.0
  0
LTYPE
  5
13
330
5
100
AcDbSymbolTableRecord
100
AcDbLinetypeTableRecord
  2
BYLAYER
 70
     0
  3

 72
    65
 73
     0
 40
0.0
  0
LTYPE
  5
14
330
5
100
AcDbSymbolTableRecord
100
AcDbLinetypeTableRecord
  2
CONTINUOUS
 70
     0
  3
Solid line
 72
    65
 73
     0
 40
0.0
  0
LTYPE
  5
9837
330
5
100
AcDbSymbolTableRecord
100
AcDbLinetypeTableRecord
  2
CENTER2
 70
     0
  3
Center (.5x) ___ _ ___ _ ___ _ ___ _ ___ _ ___
 72
    65
 73
     4
 40
28.575
 49
19.05
 74
     0
 49
-3.175
 74
     0
 49
3.175
 74
     0
 49
-3.175
 74
     0
  0
ENDTAB
  0
TABLE
  2
LAYER
  5
2
102
{ACAD_XDICTIONARY
360
96D9
102
}
330
0
100
AcDbSymbolTable
 70
     5
  0
LAYER
  5
E
102
{ACAD_XDICTIONARY
360
9593
102
}
330
2
100
AcDbSymbolTableRecord
100
AcDbLayerTableRecord
  2
0
 70
     0
 62
     7
  6
CONTINUOUS
  0
LAYER
  5
29
102
{ACAD_XDICTIONARY
360
9595
102
}
330
2
100
AcDbSymbolTableRecord
100
AcDbLayerTableRecord
  2
1CENTER
 70
     0
 62
     7
  6
CENTER2
  0
LAYER
  5
31
102
{ACAD_XDICTIONARY
360
9597
102
}
330
2
100
AcDbSymbolTableRecord
100
AcDbLayerTableRecord
  2
1TEXT
 70
     0
 62
     7
  6
CONTINUOUS
  0
LAYER
  5
243
102
{ACAD_XDICTIONARY
360
959D
102
}
330
2
100
AcDbSymbolTableRecord
100
AcDbLayerTableRecord
  2
01
 70
     0
 62
     1
  6
CONTINUOUS
  0
LAYER
  5
24E
102
{ACAD_XDICTIONARY
360
95A3
102
}
330
2
100
AcDbSymbolTableRecord
100
AcDbLayerTableRecord
  2
1DIM
 70
     0
 62
     7
  6
CONTINUOUS
  0
ENDTAB
  0
TABLE
  2
STYLE
  5
3
330
0
100
AcDbSymbolTable
 70
     1
  0
STYLE
  5
F
330
3
100
AcDbSymbolTableRecord
100
AcDbTextStyleTableRecord
  2
STANDARD
 70
     0
 40
0.0
 41
1.0
 50
0.0
 71
     0
 42
4.0
  3
txt.shx
  4
extfont.shx
  0
ENDTAB
  0
TABLE
  2
VIEW
  5
6
330
0
100
AcDbSymbolTable
 70
     0
  0
ENDTAB
  0
TABLE
  2
UCS
  5
7
330
0
100
AcDbSymbolTable
 70
     0
  0
ENDTAB
  0
TABLE
  2
APPID
  5
9
330
0
100
AcDbSymbolTable
 70
    14
  0
APPID
  5
10
330
9
100
AcDbSymbolTableRecord
100
AcDbRegAppTableRecord
  2
ACAD
 70
     0
  0
APPID
  5
21
330
9
100
AcDbSymbolTableRecord
100
AcDbRegAppTableRecord
  2
DRAWINGVARIABLESXDATA
 70
     0
  0
APPID
  5
64
330
9
100
AcDbSymbolTableRecord
100
AcDbRegAppTableRecord
  2
CONTENTTABDATA
 70
     0
  0
APPID
  5
65
330
9
100
AcDbSymbolTableRecord
100
AcDbRegAppTableRecord
  2
CONTENTCURRENTTAB
 70
     0
  0
APPID
  5
66
330
9
100
AcDbSymbolTableRecord
100
AcDbRegAppTableRecord
  2
CONTENTBLOCKDESCRIPTION
 70
     0
  0
APPID
  5
67
330
9
100
AcDbSymbolTableRecord
100
AcDbRegAppTableRecord
  2
CONTENTBLOCKICON
 70
     0
  0
APPID
  5
68
330
9
100
AcDbSymbolTableRecord
100
AcDbRegAppTableRecord
  2
CONTENTLONGBLOCKNAME
 70
     0
  0
APPID
  5
2AE
330
9
100
AcDbSymbolTableRecord
100
AcDbRegAppTableRecord
  2
ACAD_PSEXT
 70
     0
  0
APPID
  5
9585
330
9
100
AcDbSymbolTableRecord
100
AcDbRegAppTableRecord
  2
ACAD_MLEADERVER
 70
     0
  0
APPID
  5
A2E3
330
9
100
AcDbSymbolTableRecord
100
AcDbRegAppTableRecord
  2
ACADANNOTATIVE
 70
     0
  0
APPID
  5
A2E4
330
9
100
AcDbSymbolTableRecord
100
AcDbRegAppTableRecord
  2
ACDBBLOCKREPETAG
 70
     0
  0
APPID
  5
AEB1
330
9
100
AcDbSymbolTableRecord
100
AcDbRegAppTableRecord
  2
ACAD_NAV_VCDISPLAY
 70
     0
  0
APPID
  5
B6A4
330
9
100
AcDbSymbolTableRecord
100
AcDbRegAppTableRecord
  2
ACAECLAYERSTANDARD
 70
     0
  0
APPID
  5
E1EF
330
9
100
AcDbSymbolTableRecord
100
AcDbRegAppTableRecord
  2
ACAD_EXEMPT_FROM_CAD_STAND
 70
     0
  0
ENDTAB
  0
TABLE
  2
DIMSTYLE
  5
A
330
0
100
AcDbSymbolTable
 70
     1
  0
DIMSTYLE
105
48
330
A
100
AcDbSymbolTableRecord
100
AcDbDimStyleTableRecord
  2
NEWX10
 70
     0
  3
 
  4

  5

  6
OPEN30
  7
OPEN30
 40
1.0
 41
2.0
 42
0.0
 43
7.0
 44
1.0
 45
0.0
 46
0.0
 47
0.0
 48
0.0
140
3.5
141
0.0
142
0.0
143
25.4
144
1.0
145
0.0
146
0.7
147
0.7
 71
     0
 72
     0
 73
     0
 74
     0
 75
     0
 76
     0
 77
     1
 78
     8
170
     0
171
     2
172
     1
173
     1
174
     0
175
     0
176
   256
177
   256
178
   201
179
     2
270
     2
271
     2
272
     4
273
     2
274
     2
340
F
275
     0
280
     0
281
     0
282
     0
283
     1
284
     8
285
     0
286
     0
287
     2
288
     0
  0
ENDTAB
  0
TABLE
  2
BLOCK_RECORD
  5
1
330
0
100
AcDbSymbolTable
 70
     8
  0
BLOCK_RECORD
  5
18
102
{ACAD_XDICTIONARY
360
88F
102
}
330
1
100
AcDbSymbolTableRecord
100
AcDbBlockTableRecord
  2
*MODEL_SPACE
  0
BLOCK_RECORD
  5
15
330
1
100
AcDbSymbolTableRecord
100
AcDbBlockTableRecord
  2
*PAPER_SPACE
  0
BLOCK_RECORD
  5
42
330
1
100
AcDbSymbolTableRecord
100
AcDbBlockTableRecord
  2
_OPEN30
  0
BLOCK_RECORD
  5
A333
330
1
100
AcDbSymbolTableRecord
100
AcDbBlockTableRecord
  2
A3WAKUKAWAJUN2017_HYOUDAI_
  0
BLOCK_RECORD
  5
E57A
330
1
100
AcDbSymbolTableRecord
100
AcDbBlockTableRecord
  2
*X13
  0
BLOCK_RECORD
  5
E5C8
330
1
100
AcDbSymbolTableRecord
100
AcDbBlockTableRecord
  2
*X14
  0
BLOCK_RECORD
  5
E61A
330
1
100
AcDbSymbolTableRecord
100
AcDbBlockTableRecord
  2
*X15
  0
BLOCK_RECORD
  5
E66B
330
1
100
AcDbSymbolTableRecord
100
AcDbBlockTableRecord
  2
*X16
  0
BLOCK_RECORD
  5
E6A8
330
1
100
AcDbSymbolTableRecord
100
AcDbBlockTableRecord
  2
*X17
  0
BLOCK_RECORD
  5
E6E8
330
1
100
AcDbSymbolTableRecord
100
AcDbBlockTableRecord
  2
*X18
  0
ENDTAB
  0
ENDSEC
  0
SECTION
  2
BLOCKS
  0
BLOCK
  5
19
330
18
100
AcDbEntity
  8
0
100
AcDbBlockBegin
  2
*MODEL_SPACE
 70
     0
 10
0.0
 20
0.0
 30
0.0
  3
*MODEL_SPACE
  1

  0
ENDBLK
  5
1A
330
18
100
AcDbEntity
  8
0
100
AcDbBlockEnd
  0
BLOCK
  5
16
330
15
100
AcDbEntity
 67
     1
  8
0
100
AcDbBlockBegin
  2
*PAPER_SPACE
 70
     0
 10
0.0
 20
0.0
 30
0.0
  3
*PAPER_SPACE
  1

  0
ENDBLK
  5
17
330
15
100
AcDbEntity
 67
     1
  8
0
100
AcDbBlockEnd
  0
BLOCK
  5
43
330
42
100
AcDbEntity
  8
0
100
AcDbBlockBegin
  2
_OPEN30
 70
     0
 10
0.0
 20
0.0
 30
0.0
  3
_OPEN30
  1

  0
LINE
  5
44
330
42
100
AcDbEntity
  8
0
  6
BYBLOCK
 62
     0
100
AcDbLine
 10
-1.0
 20
0.26794919
 30
0.0
 11
0.0
 21
0.0
 31
0.0
  0
LINE
  5
45
330
42
100
AcDbEntity
  8
0
  6
BYBLOCK
 62
     0
100
AcDbLine
 10
0.0
 20
0.0
 30
0.0
 11
-1.0
 21
-0.26794919
 31
0.0
  0
LINE
  5
46
330
42
100
AcDbEntity
  8
0
  6
BYBLOCK
 62
     0
100
AcDbLine
 10
0.0
 20
0.0
 30
0.0
 11
-1.0
 21
0.0
 31
0.0
  0
ENDBLK
  5
47
330
42
100
AcDbEntity
  8
0
100
AcDbBlockEnd
  0
BLOCK
  5
AA56
330
A333
100
AcDbEntity
  8
0
100
AcDbBlockBegin
  2
A3WAKUKAWAJUN2017_HYOUDAI_
 70
     0
 10
0.0
 20
0.0
 30
0.0
  3
A3WAKUKAWAJUN2017_HYOUDAI_
  1

  0
LINE
  5
A335
330
A333
100
AcDbEntity
  8
0
100
AcDbLine
 10
13.26299999998673
 20
-0.0001000000000317
 30
0.0
 11
9.236999999990758
 21
8.999899999990987
 31
0.0
1001
ACAD
1000
ASC_BOUNDS
1002
{
1070
    19
1005
A376
1002
}
  0
LINE
  5
A336
330
A333
100
AcDbEntity
  8
0
100
AcDbLine
 10
5.657999999994331
 20
0.9999999999989768
 30
0.0
 11
9.236999999990758
 21
8.999999999991019
 31
0.0
1001
ACAD
1000
ASC_BOUNDS
1002
{
1070
    19
1005
A376
1002
}
  0
LINE
  5
A337
330
A333
100
AcDbEntity
  8
0
100
AcDbLine
 10
18.59199999998134
 20
-0.2368999999997641
 30
0.0
 11
16.46099999998353
 21
5.432899999994561
 31
0.0
1001
ACAD
1000
ASC_BOUNDS
1002
{
1070
    19
1005
A377
1002
}
  0
LINE
  5
A338
330
A333
100
AcDbEntity
  8
0
100
AcDbLine
 10
18.59199999998134
 20
-0.2368999999997641
 30
0.0
 11
22.38199999997767
 21
8.763099999991255
 31
0.0
1001
ACAD
1000
ASC_BOUNDS
1002
{
1070
    19
1005
A377
1002
}
  0
LINE
  5
A339
330
A333
100
AcDbEntity
  8
0
100
AcDbLine
 10
14.32899999998563
 20
-0.2368999999997641
 30
0.0
 11
16.46099999998353
 21
5.432899999994561
 31
0.0
1001
ACAD
1000
ASC_BOUNDS
1002
{
1070
    19
1005
A377
1002
}
  0
LINE
  5
A33A
330
A333
100
AcDbEntity
  8
0
100
AcDbLine
 10
14.32899999998563
 20
-0.2368999999997641
 30
0.0
 11
10.53899999998941
 21
8.763099999991255
 31
0.0
1001
ACAD
1000
ASC_BOUNDS
1002
{
1070
    19
1005
A377
1002
}
  0
LINE
  5
A33B
330
A333
100
AcDbEntity
  8
0
100
AcDbLine
 10
19.53899999998043
 20
-0.0001000000000317
 30
0.0
 11
23.56599999997638
 21
8.999899999990987
 31
0.0
1001
ACAD
1000
ASC_BOUNDS
1002
{
1070
    19
1005
A378
1002
}
  0
LINE
  5
A33C
330
A333
100
AcDbEntity
  8
0
100
AcDbLine
 10
26.97358892824991
 20
1.383099999991202
 30
0.0
 11
23.56599999997638
 21
8.999899999990987
 31
0.0
1001
ACAD
1000
ASC_BOUNDS
1002
{
1070
    19
1005
A378
1002
}
  0
LINE
  5
A33D
330
A333
100
AcDbEntity
  8
0
100
AcDbLine
 10
5.657999999994331
 20
0.9999999999989768
 30
0.0
 11
3.181999999996833
 21
4.668599999995308
 31
0.0
1001
ACAD
1000
ASC_BOUNDS
1002
{
1070
    19
1005
A376
1002
}
  0
LINE
  5
A33E
330
A333
100
AcDbEntity
  8
0
100
AcDbLine
 10
4.617999999995391
 20
-0.0001000000000317
 30
0.0
 11
1.420999999998571
 21
4.736799999995242
 31
0.0
1001
ACAD
1000
ASC_BOUNDS
1002
{
1070
    19
1005
A376
1002
}
  0
LINE
  5
A33F
330
A333
100
AcDbEntity
  8
0
100
AcDbLine
 10
1.420999999998571
 20
8.763099999991255
 30
0.0
 11
1.420999999998571
 21
0.0
 31
0.0
1001
ACAD
1000
ASC_BOUNDS
1002
{
1070
    19
1005
A37B
1002
}
  0
LINE
  5
A340
330
A333
100
AcDbEntity
  8
0
100
AcDbLine
 10
0.0
 20
8.763099999991255
 30
0.0
 11
0.0
 21
0.0
 31
0.0
1001
ACAD
1000
ASC_BOUNDS
1002
{
1070
    19
1005
A37B
1002
}
  0
LINE
  5
A341
330
A333
100
AcDbEntity
  8
0
100
AcDbLine
 10
6.766999999993232
 20
-0.0001000000000317
 30
0.0
 11
7.826999999992154
 21
2.368399999997621
 31
0.0
1001
ACAD
1000
ASC_BOUNDS
1002
{
1070
    19
1005
A376
1002
}
  0
LINE
  5
A342
330
A333
100
AcDbEntity
  8
0
100
AcDbLine
 10
0.0
 20
0.0
 30
0.0
 11
1.420999999998571
 21
0.0
 31
0.0
1001
ACAD
1000
ASC_BOUNDS
1002
{
1070
    19
1005
A37B
1002
}
  0
LINE
  5
A343
330
A333
100
AcDbEntity
  8
0
100
AcDbLine
 10
4.617999999995391
 20
0.0
 30
0.0
 11
6.766999999993232
 21
0.0
 31
0.0
1001
ACAD
1000
ASC_BOUNDS
1002
{
1070
    19
1005
A376
1002
}
  0
LINE
  5
A344
330
A333
100
AcDbEntity
  8
0
100
AcDbLine
 10
11.70599999998831
 20
-0.0001000000000317
 30
0.0
 11
10.64699999998936
 21
2.368399999997621
 31
0.0
1001
ACAD
1000
ASC_BOUNDS
1002
{
1070
    19
1005
A376
1002
}
  0
LINE
  5
A345
330
A333
100
AcDbEntity
  8
0
100
AcDbLine
 10
7.826999999992154
 20
2.368399999997621
 30
0.0
 11
10.64699999998936
 21
2.368399999997621
 31
0.0
1001
ACAD
1000
ASC_BOUNDS
1002
{
1070
    19
1005
A376
1002
}
  0
LINE
  5
A346
330
A333
100
AcDbEntity
  8
0
100
AcDbLine
 10
11.70599999998831
 20
0.0
 30
0.0
 11
13.26299999998673
 21
0.0
 31
0.0
1001
ACAD
1000
ASC_BOUNDS
1002
{
1070
    19
1005
A376
1002
}
  0
LINE
  5
A347
330
A333
100
AcDbEntity
  8
0
100
AcDbLine
 10
22.15599999997789
 20
2.368399999997621
 30
0.0
 11
24.97599999997499
 21
2.368399999997621
 31
0.0
1001
ACAD
1000
ASC_BOUNDS
1002
{
1070
    19
1005
A378
1002
}
  0
LINE
  5
A348
330
A333
100
AcDbEntity
  8
0
100
AcDbLine
 10
19.53899999998043
 20
0.0
 30
0.0
 11
21.09599999997886
 21
0.0
 31
0.0
1001
ACAD
1000
ASC_BOUNDS
1002
{
1070
    19
1005
A378
1002
}
  0
LINE
  5
A349
330
A333
100
AcDbEntity
  8
0
100
AcDbLine
 10
21.09599999997886
 20
-0.0001000000000317
 30
0.0
 11
22.15599999997789
 21
2.368399999997621
 31
0.0
1001
ACAD
1000
ASC_BOUNDS
1002
{
1070
    19
1005
A378
1002
}
  0
LINE
  5
A34A
330
A333
100
AcDbEntity
  8
0
100
AcDbLine
 10
26.02015566812236
 20
0.0330999999912365
 30
0.0
 11
24.97599999997499
 21
2.368399999997621
 31
0.0
1001
ACAD
1000
ASC_BOUNDS
1002
{
1070
    19
1005
A378
1002
}
  0
LINE
  5
A34B
330
A333
100
AcDbEntity
  8
0
100
AcDbLine
 10
14.32399999998563
 20
3.315799999996671
 30
0.0
 11
16.46099999998353
 21
8.999899999990987
 31
0.0
1001
ACAD
1000
ASC_BOUNDS
1002
{
1070
    19
1005
A377
1002
}
  0
LINE
  5
A34C
330
A333
100
AcDbEntity
  8
0
100
AcDbLine
 10
6.432999999993513
 20
8.763099999991255
 30
0.0
 11
3.181999999996833
 21
4.668599999995308
 31
0.0
1001
ACAD
1000
ASC_BOUNDS
1002
{
1070
    19
1005
A376
1002
}
  0
LINE
  5
A34D
330
A333
100
AcDbEntity
  8
0
100
AcDbLine
 10
4.617999999995391
 20
8.763099999991255
 30
0.0
 11
1.420999999998571
 21
4.736799999995242
 31
0.0
1001
ACAD
1000
ASC_BOUNDS
1002
{
1070
    19
1005
A376
1002
}
  0
LINE
  5
A34E
330
A333
100
AcDbEntity
  8
0
100
AcDbLine
 10
0.0
 20
8.763099999991255
 30
0.0
 11
1.420999999998571
 21
8.763099999991255
 31
0.0
1001
ACAD
1000
ASC_BOUNDS
1002
{
1070
    19
1005
A37B
1002
}
  0
LINE
  5
A34F
330
A333
100
AcDbEntity
  8
0
100
AcDbLine
 10
4.617999999995391
 20
8.763099999991255
 30
0.0
 11
6.432999999993513
 21
8.763099999991255
 31
0.0
1001
ACAD
1000
ASC_BOUNDS
1002
{
1070
    19
1005
A376
1002
}
  0
LINE
  5
A350
330
A333
100
AcDbEntity
  8
0
100
AcDbLine
 10
14.32399999998563
 20
3.315799999996671
 30
0.0
 11
12.02999999998792
 21
8.763099999991255
 31
0.0
1001
ACAD
1000
ASC_BOUNDS
1002
{
1070
    19
1005
A377
1002
}
  0
LINE
  5
A351
330
A333
100
AcDbEntity
  8
0
100
AcDbLine
 10
10.06399999998996
 20
3.670999999996297
 30
0.0
 11
9.236999999990758
 21
5.5200999999945
 31
0.0
1001
ACAD
1000
ASC_BOUNDS
1002
{
1070
    19
1005
A376
1002
}
  0
LINE
  5
A352
330
A333
100
AcDbEntity
  8
0
100
AcDbLine
 10
8.409999999991555
 20
3.670999999996297
 30
0.0
 11
9.236999999990758
 21
5.5200999999945
 31
0.0
1001
ACAD
1000
ASC_BOUNDS
1002
{
1070
    19
1005
A376
1002
}
  0
LINE
  5
A353
330
A333
100
AcDbEntity
  8
0
100
AcDbLine
 10
8.409999999991555
 20
3.670999999996297
 30
0.0
 11
10.06399999998996
 21
3.670999999996297
 31
0.0
1001
ACAD
1000
ASC_BOUNDS
1002
{
1070
    19
1005
A376
1002
}
  0
LINE
  5
A354
330
A333
100
AcDbEntity
  8
0
100
AcDbLine
 10
10.53899999998941
 20
8.763099999991255
 30
0.0
 11
12.02999999998792
 21
8.763099999991255
 31
0.0
1001
ACAD
1000
ASC_BOUNDS
1002
{
1070
    19
1005
A377
1002
}
  0
LINE
  5
A355
330
A333
100
AcDbEntity
  8
0
100
AcDbLine
 10
22.7389999999773
 20
3.670999999996297
 30
0.0
 11
23.56599999997638
 21
5.5200999999945
 31
0.0
1001
ACAD
1000
ASC_BOUNDS
1002
{
1070
    19
1005
A378
1002
}
  0
LINE
  5
A356
330
A333
100
AcDbEntity
  8
0
100
AcDbLine
 10
22.7389999999773
 20
3.670999999996297
 30
0.0
 11
24.39299999997559
 21
3.670999999996297
 31
0.0
1001
ACAD
1000
ASC_BOUNDS
1002
{
1070
    19
1005
A378
1002
}
  0
LINE
  5
A357
330
A333
100
AcDbEntity
  8
0
100
AcDbLine
 10
18.59799999998143
 20
3.315799999996671
 30
0.0
 11
20.89099999997916
 21
8.763099999991255
 31
0.0
1001
ACAD
1000
ASC_BOUNDS
1002
{
1070
    19
1005
A377
1002
}
  0
LINE
  5
A358
330
A333
100
AcDbEntity
  8
0
100
AcDbLine
 10
18.59799999998143
 20
3.315799999996671
 30
0.0
 11
16.46099999998353
 21
8.999899999990987
 31
0.0
1001
ACAD
1000
ASC_BOUNDS
1002
{
1070
    19
1005
A377
1002
}
  0
LINE
  5
A359
330
A333
100
AcDbEntity
  8
0
100
AcDbLine
 10
20.89099999997916
 20
8.763099999991255
 30
0.0
 11
22.38199999997767
 21
8.763099999991255
 31
0.0
1001
ACAD
1000
ASC_BOUNDS
1002
{
1070
    19
1005
A377
1002
}
  0
LINE
  5
A35A
330
A333
100
AcDbEntity
  8
0
100
AcDbLine
 10
24.39299999997559
 20
3.670999999996297
 30
0.0
 11
23.56599999997638
 21
5.5200999999945
 31
0.0
1001
ACAD
1000
ASC_BOUNDS
1002
{
1070
    19
1005
A378
1002
}
  0
LINE
  5
A35B
330
A333
100
AcDbEntity
  8
0
100
AcDbLine
 10
44.99999999995498
 20
-0.2368999999997641
 30
0.0
 11
40.02599999995994
 21
5.341799999994635
 31
0.0
1001
ACAD
1000
ASC_BOUNDS
1002
{
1070
    19
1005
A37A
1002
}
  0
LINE
  5
A35C
330
A333
100
AcDbEntity
  8
0
100
AcDbLine
 10
40.02599999995994
 20
5.341799999994635
 30
0.0
 11
40.02599999995994
 21
0.0
 31
0.0
1001
ACAD
1000
ASC_BOUNDS
1002
{
1070
    19
1005
A37A
1002
}
  0
LINE
  5
A35D
330
A333
100
AcDbEntity
  8
0
100
AcDbLine
 10
38.60499999996136
 20
8.999999999991019
 30
0.0
 11
38.60499999996136
 21
0.0
 31
0.0
1001
ACAD
1000
ASC_BOUNDS
1002
{
1070
    19
1005
A37A
1002
}
  0
LINE
  5
A35E
330
A333
100
AcDbEntity
  8
0
100
AcDbLine
 10
44.99999999995498
 20
8.763099999991255
 30
0.0
 11
44.99999999995498
 21
-0.2368999999997641
 31
0.0
1001
ACAD
1000
ASC_BOUNDS
1002
{
1070
    19
1005
A37A
1002
}
  0
LINE
  5
A35F
330
A333
100
AcDbEntity
  8
0
100
AcDbLine
 10
38.60499999996136
 20
0.0
 30
0.0
 11
40.02599999995994
 21
0.0
 31
0.0
1001
ACAD
1000
ASC_BOUNDS
1002
{
1070
    19
1005
A37A
1002
}
  0
LINE
  5
A360
330
A333
100
AcDbEntity
  8
0
100
AcDbLine
 10
43.57899999995641
 20
3.421199999996588
 30
0.0
 11
38.60499999996136
 21
8.999899999990987
 31
0.0
1001
ACAD
1000
ASC_BOUNDS
1002
{
1070
    19
1005
A37A
1002
}
  0
LINE
  5
A361
330
A333
100
AcDbEntity
  8
0
100
AcDbLine
 10
43.57899999995641
 20
8.763099999991255
 30
0.0
 11
43.57899999995641
 21
3.421199999996588
 31
0.0
1001
ACAD
1000
ASC_BOUNDS
1002
{
1070
    19
1005
A37A
1002
}
  0
LINE
  5
A362
330
A333
100
AcDbEntity
  8
0
100
AcDbLine
 10
43.57899999995641
 20
8.763099999991255
 30
0.0
 11
44.99999999995498
 21
8.763099999991255
 31
0.0
1001
ACAD
1000
ASC_BOUNDS
1002
{
1070
    19
1005
A37A
1002
}
  0
LINE
  5
A363
330
A333
100
AcDbEntity
  8
0
100
AcDbLine
 10
37.67199999996831
 20
8.763099999991255
 30
0.0
 11
36.23199999996837
 21
8.763099999991255
 31
0.0
  0
LINE
  5
A364
330
A333
100
AcDbEntity
  8
0
100
AcDbLine
 10
31.64199999996833
 20
8.763099999991255
 30
0.0
 11
31.64199999996833
 21
2.481619422925121
 31
0.0
  0
LINE
  5
A365
330
A333
100
AcDbEntity
  8
0
100
AcDbLine
 10
37.67199999996831
 20
8.763099999991255
 30
0.0
 11
37.67199999996831
 21
2.481619422925121
 31
0.0
  0
LINE
  5
A366
330
A333
100
AcDbEntity
  8
0
100
AcDbLine
 10
36.23199999996837
 20
8.763099999991255
 30
0.0
 11
36.23199999996837
 21
2.481619422925064
 31
0.0
  0
LINE
  5
A367
330
A333
100
AcDbEntity
  8
0
100
AcDbLine
 10
33.08199999996839
 20
8.763099999991255
 30
0.0
 11
33.08199999996839
 21
2.481619422925121
 31
0.0
  0
ARC
  5
A368
330
A333
100
AcDbEntity
  8
0
100
AcDbCircle
 10
34.65699999996832
 20
3.183099999991214
 30
0.0
 40
3.420000000000007
100
AcDbArc
 50
240.0000000000255
 51
299.9999999999766
  0
ARC
  5
A369
330
A333
100
AcDbEntity
  8
0
100
AcDbCircle
 10
34.65699999996832
 20
3.183099999991214
 30
0.0
 40
1.97999999999999
100
AcDbArc
 50
240.000000000026
 51
299.9999999999703
  0
LINE
  5
A36A
330
A333
100
AcDbEntity
  8
0
100
AcDbLine
 10
33.08199999996828
 20
8.763099999991255
 30
0.0
 11
31.64199999996833
 21
8.763099999991255
 31
0.0
  0
ARC
  5
A36B
330
A333
100
AcDbEntity
  8
0
100
AcDbCircle
 10
35.06199999996829
 20
2.481619422925064
 30
0.0
 40
1.17
100
AcDbArc
 50
299.9999999999699
 51
0.0
  0
ARC
  5
A36C
330
A333
100
AcDbEntity
  8
0
100
AcDbCircle
 10
34.25199999996835
 20
2.481619422925121
 30
0.0
 40
1.17
100
AcDbArc
 50
180.0
 51
240.0000000000238
  0
ARC
  5
A36D
330
A333
100
AcDbEntity
  8
0
100
AcDbCircle
 10
35.06199999996841
 20
2.481619422925121
 30
0.0
 40
2.61
100
AcDbArc
 50
299.9999999999756
 51
0.0
  0
ARC
  5
A36E
330
A333
100
AcDbEntity
  8
0
100
AcDbCircle
 10
34.25199999996835
 20
2.481619422925121
 30
0.0
 40
2.61
100
AcDbArc
 50
180.0
 51
240.0000000000244
  0
LINE
  5
A36F
330
A333
100
AcDbEntity
  8
0
100
AcDbLine
 10
29.30199999996933
 20
8.763099999991255
 30
0.0
 11
30.74199999996927
 21
8.763099999991255
 31
0.0
1001
ACAD
1000
ASC_BOUNDS
1002
{
1070
    19
1005
A378
1002
}
  0
LINE
  5
A370
330
A333
100
AcDbEntity
  8
0
100
AcDbLine
 10
30.74199999996927
 20
8.763099999991255
 30
0.0
 11
30.74199999996927
 21
2.373099999991211
 31
0.0
1001
ACAD
1000
ASC_BOUNDS
1002
{
1070
    19
1005
A378
1002
}
  0
LINE
  5
A371
330
A333
100
AcDbEntity
  8
0
100
AcDbLine
 10
26.02015566812236
 20
0.0330999999912365
 30
0.0
 11
28.40199999996923
 21
0.0330999999912365
 31
0.0
1001
ACAD
1000
ASC_BOUNDS
1002
{
1070
    19
1005
A378
1002
}
  0
LINE
  5
A372
330
A333
100
AcDbEntity
  8
0
100
AcDbLine
 10
29.30199999996933
 20
8.763099999991255
 30
0.0
 11
29.30199999996933
 21
2.283099999991236
 31
0.0
1001
ACAD
1000
ASC_BOUNDS
1002
{
1070
    19
1005
A378
1002
}
  0
LINE
  5
A373
330
A333
100
AcDbEntity
  8
0
100
AcDbLine
 10
26.97358892824991
 20
1.383099999991202
 30
0.0
 11
28.40199999996923
 21
1.383099999991202
 31
0.0
1001
ACAD
1000
ASC_BOUNDS
1002
{
1070
    19
1005
A378
1002
}
  0
ARC
  5
A374
330
A333
100
AcDbEntity
  8
0
100
AcDbCircle
 10
28.40199999996923
 20
2.283099999991236
 30
0.0
 40
0.9
100
AcDbArc
 50
270.0
 51
0.0
1001
ACAD
1000
ASC_BOUNDS
1002
{
1070
    19
1005
A378
1002
}
  0
ARC
  5
A375
330
A333
100
AcDbEntity
  8
0
100
AcDbCircle
 10
28.40199999996923
 20
2.373099999991211
 30
0.0
 40
2.34
100
AcDbArc
 50
270.0
 51
0.0
1001
ACAD
1000
ASC_BOUNDS
1002
{
1070
    19
1005
A378
1002
}
  0
INSERT
  5
A376
330
A333
100
AcDbEntity
  8
0
100
AcDbBlockReference
  2
*X13
 10
0.0
 20
0.0
 30
0.0
1001
ACAD
1000
HATCH
1002
{
1070
    19
1000
ANSI37
1040
0.15
1040
0.0
1000
ASC_BOUNDS
1070
     2
1070
     2
1070
    12
1005
A335
1005
A336
1005
A33D
1005
A34C
1005
A34F
1005
A34D
1005
A33E
1005
A343
1005
A341
1005
A345
1005
A344
1005
A346
1070
     2
1070
     3
1005
A351
1005
A353
1005
A352
1000
ASC_SEEDPOINT
1011
3.614004224891801
1021
2.996669441146025
1031
0.0
1000
R14_HATCH_DATA
1000
A376
1011
1.0
1021
0.0
1031
0.0
1011
0.0
1021
1.0
1031
0.0
1011
0.0
1021
0.0
1031
1.0
1040
0.0
1010
0.0
1020
0.0
1030
1.0
1000
ANSI37
1070
     0
1070
     1
1071
        2
1071
        7
1070
     0
1070
     1
1071
       17
1040
13.26299999998673
1040
-0.0001000000000317
1040
9.236999999990758
1040
8.999899999990987
1040
9.236999999990758
1040
8.999999999991019
1040
5.657999999994331
1040
0.9999999999989768
1040
3.181999999996833
1040
4.668599999995308
1040
6.432999999993513
1040
8.763099999991255
1040
4.617999999995391
1040
8.763099999991255
1040
1.420999999998571
1040
4.736799999995242
1040
4.617999999995391
1040
-0.0001000000000317
1040
4.617999999995391
1040
0.0
1040
6.766999999993232
1040
0.0
1040
6.766999999993232
1040
-0.0001000000000317
1040
7.826999999992154
1040
2.368399999997621
1040
10.64699999998936
1040
2.368399999997621
1040
11.70599999998831
1040
-0.0001000000000317
1040
11.70599999998831
1040
0.0
1040
13.26299999998673
1040
0.0
1071
       12
1005
A335
1005
A336
1005
A33D
1005
A34C
1005
A34F
1005
A34D
1005
A33E
1005
A343
1005
A341
1005
A345
1005
A344
1005
A346
1071
       22
1070
     0
1070
     1
1071
        3
1040
9.236999999990758
1040
5.5200999999945
1040
10.06399999998996
1040
3.670999999996297
1040
8.409999999991555
1040
3.670999999996297
1071
        3
1005
A351
1005
A353
1005
A352
1070
     0
1070
     1
1040
0.0
1040
0.15
1070
     0
1070
     2
1040
0.7853981633974483
1040
49.29960901727088
1040
-10.17736998311392
1040
-0.3367596045400932
1040
0.3367596045400932
1070
     0
1040
2.356194490192345
1040
49.29960901727088
1040
-10.17736998311392
1040
-0.3367596045400932
1040
-0.3367596045400932
1070
     0
1040
0.0110235143455945
1071
        2
1040
3.614004224891801
1040
2.996669441146025
1040
0.0
1040
3.614004224891801
1040
2.996669441146025
1040
0.0
1002
}
  0
INSERT
  5
A377
330
A333
100
AcDbEntity
  8
0
100
AcDbBlockReference
  2
*X14
 10
0.0
 20
0.0
 30
0.0
1001
ACAD
1000
HATCH
1002
{
1070
    19
1000
ANSI37
1040
0.15
1040
0.0
1000
ASC_BOUNDS
1070
     1
1070
     2
1070
    10
1005
A337
1005
A338
1005
A359
1005
A357
1005
A358
1005
A34B
1005
A350
1005
A354
1005
A33A
1005
A339
1000
ASC_SEEDPOINT
1011
14.73245321214324
1021
2.798246178283421
1031
0.0
1000
R14_HATCH_DATA
1000
A377
1011
1.0
1021
0.0
1031
0.0
1011
0.0
1021
1.0
1031
0.0
1011
0.0
1021
0.0
1031
1.0
1040
0.0
1010
0.0
1020
0.0
1030
1.0
1000
ANSI37
1070
     0
1070
     1
1071
        1
1071
        7
1070
     0
1070
     1
1071
       10
1040
16.46099999998353
1040
5.432899999994561
1040
18.59199999998134
1040
-0.2368999999997641
1040
22.38199999997767
1040
8.763099999991255
1040
20.89099999997916
1040
8.763099999991255
1040
18.59799999998143
1040
3.315799999996671
1040
16.46099999998353
1040
8.999899999990987
1040
14.32399999998563
1040
3.315799999996671
1040
12.02999999998792
1040
8.763099999991255
1040
10.53899999998941
1040
8.763099999991255
1040
14.32899999998563
1040
-0.2368999999997641
1071
       10
1005
A337
1005
A338
1005
A359
1005
A357
1005
A358
1005
A34B
1005
A350
1005
A354
1005
A33A
1005
A339
1070
     0
1070
     1
1040
0.0
1040
0.15
1070
     0
1070
     2
1040
0.7853981633974483
1040
49.29960901727088
1040
-10.17736998311392
1040
-0.3367596045400932
1040
0.3367596045400932
1070
     0
1040
2.356194490192345
1040
49.29960901727088
1040
-10.17736998311392
1040
-0.3367596045400932
1040
-0.3367596045400932
1070
     0
1040
0.0110235143455945
1071
        1
1040
14.73245321214324
1040
2.798246178283421
1040
0.0
1002
}
  0
INSERT
  5
A378
330
A333
100
AcDbEntity
  8
0
100
AcDbBlockReference
  2
*X15
 10
0.0
 20
0.0
 30
0.0
1001
ACAD
1000
HATCH
1002
{
1070
    19
1000
ANSI37
1040
0.15
1040
0.0
1000
ASC_BOUNDS
1070
     2
1070
     2
1070
    13
1005
A33B
1005
A348
1005
A349
1005
A347
1005
A34A
1005
A371
1005
A375
1005
A370
1005
A36F
1005
A372
1005
A374
1005
A373
1005
A33C
1070
     2
1070
     3
1005
A355
1005
A35A
1005
A356
1000
ASC_SEEDPOINT
1011
21.97929957367762
1021
3.294304244259308
1031
0.0
1000
R14_HATCH_DATA
1000
A378
1011
1.0
1021
0.0
1031
0.0
1011
0.0
1021
1.0
1031
0.0
1011
0.0
1021
0.0
1031
1.0
1040
0.0
1010
0.0
1020
0.0
1030
1.0
1000
ANSI37
1070
     0
1070
     1
1071
        2
1071
        7
1070
     1
1070
     1
1071
       15
1040
23.56599999997638
1040
8.999899999990987
1040
0.0
1040
19.53899999998043
1040
-0.0001000000000317
1040
0.0
1040
19.53899999998043
1040
0.0
1040
0.0
1040
21.09599999997886
1040
0.0
1040
0.0
1040
21.09599999997886
1040
-0.0001000000000317
1040
0.0
1040
22.15599999997789
1040
2.368399999997621
1040
0.0
1040
24.97599999997499
1040
2.368399999997621
1040
0.0
1040
26.02015566812236
1040
0.0330999999912365
1040
0.0
1040
28.40199999996923
1040
0.0330999999912365
1040
0.414213562373095
1040
30.74199999996923
1040
2.373099999991211
1040
0.0
1040
30.74199999996927
1040
8.763099999991255
1040
0.0
1040
29.30199999996933
1040
8.763099999991255
1040
0.0
1040
29.30199999996933
1040
2.283099999991236
1040
-0.414213562373095
1040
28.40199999996923
1040
1.383099999991237
1040
0.0
1040
26.97358892824991
1040
1.383099999991202
1040
0.0
1071
       13
1005
A33B
1005
A348
1005
A349
1005
A347
1005
A34A
1005
A371
1005
A375
1005
A370
1005
A36F
1005
A372
1005
A374
1005
A373
1005
A33C
1071
       22
1070
     0
1070
     1
1071
        3
1040
22.7389999999773
1040
3.670999999996297
1040
23.56599999997638
1040
5.5200999999945
1040
24.39299999997559
1040
3.670999999996297
1071
        3
1005
A355
1005
A35A
1005
A356
1070
     0
1070
     1
1040
0.0
1040
0.15
1070
     0
1070
     2
1040
0.7853981633974483
1040
49.29960901727088
1040
-10.17736998311392
1040
-0.3367596045400932
1040
0.3367596045400932
1070
     0
1040
2.356194490192345
1040
49.29960901727088
1040
-10.17736998311392
1040
-0.3367596045400932
1040
-0.3367596045400932
1070
     0
1040
0.0110235143455945
1071
        2
1040
21.97929957367762
1040
3.294304244259308
1040
0.0
1040
21.97929957367762
1040
3.294304244259308
1040
0.0
1002
}
  0
INSERT
  5
A379
330
A333
100
AcDbEntity
  8
0
100
AcDbBlockReference
  2
*X16
 10
0.0
 20
0.0
 30
0.0
1001
ACAD
1000
HATCH
1002
{
1070
    19
1000
ANSI37
1040
0.15
1040
0.0
1000
R14_HATCH_DATA
1000
A379
1011
1.0
1021
0.0
1031
0.0
1011
0.0
1021
1.0
1031
0.0
1011
0.0
1021
0.0
1031
1.0
1040
0.0
1010
0.0
1020
0.0
1030
1.0
1000
ANSI37
1070
     0
1070
     1
1071
        1
1071
        7
1070
     1
1070
     1
1071
       12
1040
31.64199999996833
1040
2.481619422925121
1040
0.2679491924310942
1040
32.94699999997067
1040
0.2212931190493919
1040
0.2679491924301353
1040
36.36699999995983
1040
0.2212931190459813
1040
0.2679491924321411
1040
37.67199999996831
1040
2.481619422928361
1040
0.0
1040
37.67199999996831
1040
8.763099999991255
1040
0.0
1040
36.23199999996837
1040
8.763099999991255
1040
0.0
1040
36.23199999996837
1040
2.481619422925064
1040
-0.2679491924310291
1040
35.64699999996708
1040
1.468369700498386
1040
-0.267949192430519
1040
33.66699999997093
1040
1.468369700497703
1040
-0.267949192431809
1040
33.08199999996839
1040
2.481619422926997
1040
0.0
1040
33.08199999996839
1040
8.763099999991255
1040
0.0
1040
31.64199999996833
1040
8.763099999991255
1040
0.0
1071
        0
1070
     0
1070
     1
1040
0.0
1040
0.15
1070
     0
1070
     2
1040
0.7853981633974483
1040
49.29960901727088
1040
-10.17736998311392
1040
-0.3367596045400932
1040
0.3367596045400932
1070
     0
1040
2.356194490192345
1040
49.29960901727088
1040
-10.17736998311392
1040
-0.3367596045400932
1040
-0.3367596045400932
1070
     0
1040
0.0110235143455945
1071
        1
1040
32.30357378967278
1040
3.988785755459219
1040
0.0
1002
}
  0
INSERT
  5
A37A
330
A333
100
AcDbEntity
  8
0
100
AcDbBlockReference
  2
*X17
 10
0.0
 20
0.0
 30
0.0
1001
ACAD
1000
HATCH
1002
{
1070
    19
1000
ANSI37
1040
0.15
1040
0.0
1000
ASC_BOUNDS
1070
     1
1070
     2
1070
     8
1005
A35B
1005
A35E
1005
A362
1005
A361
1005
A360
1005
A35D
1005
A35F
1005
A35C
1000
ASC_SEEDPOINT
1011
39.74896370716704
1021
4.484843821435049
1031
0.0
1000
R14_HATCH_DATA
1000
A37A
1011
1.0
1021
0.0
1031
0.0
1011
0.0
1021
1.0
1031
0.0
1011
0.0
1021
0.0
1031
1.0
1040
0.0
1010
0.0
1020
0.0
1030
1.0
1000
ANSI37
1070
     0
1070
     1
1071
        1
1071
        7
1070
     0
1070
     1
1071
        9
1040
40.02599999995994
1040
5.341799999994635
1040
44.99999999995498
1040
-0.2368999999997641
1040
44.99999999995498
1040
8.763099999991255
1040
43.57899999995641
1040
8.763099999991255
1040
43.57899999995641
1040
3.421199999996588
1040
38.60499999996136
1040
8.999899999990987
1040
38.60499999996136
1040
8.999999999991019
1040
38.60499999996136
1040
0.0
1040
40.02599999995994
1040
0.0
1071
        8
1005
A35B
1005
A35E
1005
A362
1005
A361
1005
A360
1005
A35D
1005
A35F
1005
A35C
1070
     0
1070
     1
1040
0.0
1040
0.15
1070
     0
1070
     2
1040
0.7853981633974483
1040
49.29960901727088
1040
-10.17736998311392
1040
-0.3367596045400932
1040
0.3367596045400932
1070
     0
1040
2.356194490192345
1040
49.29960901727088
1040
-10.17736998311392
1040
-0.3367596045400932
1040
-0.3367596045400932
1070
     0
1040
0.0110235143455945
1071
        1
1040
39.74896370716704
1040
4.484843821435049
1040
0.0
1002
}
  0
INSERT
  5
A37B
330
A333
100
AcDbEntity
  8
0
100
AcDbBlockReference
  2
*X18
 10
0.0
 20
0.0
 30
0.0
1001
ACAD
1000
HATCH
1002
{
1070
    19
1000
ANSI37
1040
0.15
1040
0.0
1000
ASC_BOUNDS
1070
     1
1070
     2
1070
     4
1005
A33F
1005
A34E
1005
A340
1005
A342
1000
ASC_SEEDPOINT
1011
1.079051535452663
1021
4.148538732891836
1031
0.0
1000
R14_HATCH_DATA
1000
A37B
1011
1.0
1021
0.0
1031
0.0
1011
0.0
1021
1.0
1031
0.0
1011
0.0
1021
0.0
1031
1.0
1040
0.0
1010
0.0
1020
0.0
1030
1.0
1000
ANSI37
1070
     0
1070
     1
1071
        1
1071
        7
1070
     0
1070
     1
1071
        4
1040
1.420999999998571
1040
0.0
1040
1.420999999998571
1040
8.763099999991255
1040
0.0
1040
8.763099999991255
1040
0.0
1040
0.0
1071
        4
1005
A33F
1005
A34E
1005
A340
1005
A342
1070
     0
1070
     1
1040
0.0
1040
0.15
1070
     0
1070
     2
1040
0.7853981633974483
1040
49.29960901727088
1040
-10.17736998311392
1040
-0.3367596045400932
1040
0.3367596045400932
1070
     0
1040
2.356194490192345
1040
49.29960901727088
1040
-10.17736998311392
1040
-0.3367596045400932
1040
-0.3367596045400932
1070
     0
1040
0.0053004257112761
1071
        1
1040
1.079051535452663
1040
4.148538732891836
1040
0.0
1002
}
  0
ENDBLK
  5
AA57
330
A333
100
AcDbEntity
  8
0
100
AcDbBlockEnd
  0
BLOCK
  5
E708
330
E57A
100
AcDbEntity
  8
0
100
AcDbBlockBegin
  2
*X13
 70
     1
 10
0.0
 20
0.0
 30
0.0
  3
*X13
  1

  0
LINE
  5
E57B
330
E57A
100
AcDbEntity
  8
0
  6
CONTINUOUS
100
AcDbLine
 10
3.418023043697893
 20
7.251849696850613
 30
0.0
 11
4.929273346838536
 21
8.763099999991255
 31
0.0
  0
LINE
  5
E57C
330
E57A
100
AcDbEntity
  8
0
  6
CONTINUOUS
100
AcDbLine
 10
1.483656411257782
 20
4.643963855330318
 30
0.0
 11
5.60279255591872
 21
8.763099999991255
 31
0.0
  0
LINE
  5
E57D
330
E57A
100
AcDbEntity
  8
0
  6
CONTINUOUS
100
AcDbLine
 10
1.755053947328235
 20
4.241842182320584
 30
0.0
 11
6.276311764998907
 21
8.763099999991255
 31
0.0
  0
LINE
  5
E57E
330
E57A
100
AcDbEntity
  8
0
  6
CONTINUOUS
100
AcDbLine
 10
2.026451483398688
 20
3.839720509310849
 30
0.0
 11
4.441040904851878
 21
6.254309930764039
 31
0.0
  0
LINE
  5
E57F
330
E57A
100
AcDbEntity
  8
0
  6
CONTINUOUS
100
AcDbLine
 10
2.297849019469139
 20
3.437598836301114
 30
0.0
 11
3.321765168359338
 21
4.461514985191313
 31
0.0
  0
LINE
  5
E580
330
E57A
100
AcDbEntity
  8
0
  6
CONTINUOUS
100
AcDbLine
 10
2.569246555539591
 20
3.03547716329138
 30
0.0
 11
3.593163397972743
 21
4.059394005724531
 31
0.0
  0
LINE
  5
E581
330
E57A
100
AcDbEntity
  8
0
  6
CONTINUOUS
100
AcDbLine
 10
2.840644091610043
 20
2.633355490281646
 30
0.0
 11
3.864561627586149
 21
3.657273026257751
 31
0.0
  0
LINE
  5
E582
330
E57A
100
AcDbEntity
  8
0
  6
CONTINUOUS
100
AcDbLine
 10
3.112041627680496
 20
2.231233817271911
 30
0.0
 11
4.135959857199554
 21
3.25515204679097
 31
0.0
  0
LINE
  5
E583
330
E57A
100
AcDbEntity
  8
0
  6
CONTINUOUS
100
AcDbLine
 10
3.383439163750948
 20
1.829112144262177
 30
0.0
 11
4.40735808681296
 21
2.853031067324189
 31
0.0
  0
LINE
  5
E584
330
E57A
100
AcDbEntity
  8
0
  6
CONTINUOUS
100
AcDbLine
 10
3.654836699821399
 20
1.426990471252442
 30
0.0
 11
4.678756316426365
 21
2.450910087857407
 31
0.0
  0
LINE
  5
E585
330
E57A
100
AcDbEntity
  8
0
  6
CONTINUOUS
100
AcDbLine
 10
3.926234235891853
 20
1.024868798242709
 30
0.0
 11
4.95015454603977
 21
2.048789108390626
 31
0.0
  0
LINE
  5
E586
330
E57A
100
AcDbEntity
  8
0
  6
CONTINUOUS
100
AcDbLine
 10
4.197631771962304
 20
0.6227471252329737
 30
0.0
 11
5.221552775653176
 21
1.646668128923846
 31
0.0
  0
LINE
  5
E587
330
E57A
100
AcDbEntity
  8
0
  6
CONTINUOUS
100
AcDbLine
 10
8.715877546767851
 20
7.835069736359266
 30
0.0
 11
9.435953450375058
 21
8.555145639966472
 31
0.0
  0
LINE
  5
E588
330
E57A
100
AcDbEntity
  8
0
  6
CONTINUOUS
100
AcDbLine
 10
8.170620868422267
 20
6.616293848933497
 30
0.0
 11
9.644120833743461
 21
8.08979381425469
 31
0.0
  0
LINE
  5
E589
330
E57A
100
AcDbEntity
  8
0
  6
CONTINUOUS
100
AcDbLine
 10
7.625364190076684
 20
5.397517961507727
 30
0.0
 11
9.852288217111864
 21
7.624441988542907
 31
0.0
  0
LINE
  5
E58A
330
E57A
100
AcDbEntity
  8
0
  6
CONTINUOUS
100
AcDbLine
 10
7.080107511731101
 20
4.178742074081957
 30
0.0
 11
10.06045560048027
 21
7.159090162831124
 31
0.0
  0
LINE
  5
E58B
330
E57A
100
AcDbEntity
  8
0
  6
CONTINUOUS
100
AcDbLine
 10
6.534850833385518
 20
2.959966186656187
 30
0.0
 11
10.26862298384867
 21
6.693738337119342
 31
0.0
  0
LINE
  5
E58C
330
E57A
100
AcDbEntity
  8
0
  6
CONTINUOUS
100
AcDbLine
 10
4.469029308032756
 20
0.2206254522232385
 30
0.0
 11
5.492951005266582
 21
1.244547149457064
 31
0.0
  0
LINE
  5
E58D
330
E57A
100
AcDbEntity
  8
0
  6
CONTINUOUS
100
AcDbLine
 10
5.989594155039935
 20
1.741190299230417
 30
0.0
 11
8.806950407233131
 21
4.558546551423613
 31
0.0
  0
LINE
  5
E58E
330
E57A
100
AcDbEntity
  8
0
  6
CONTINUOUS
100
AcDbLine
 10
9.401251593263643
 20
5.152847737454126
 30
0.0
 11
10.47679036721708
 21
6.228386511407559
 31
0.0
  0
LINE
  5
E58F
330
E57A
100
AcDbEntity
  8
0
  6
CONTINUOUS
100
AcDbLine
 10
4.921837203428691
 20
-0.0000858614610131
 30
0.0
 11
8.592923064886001
 21
3.670999999996297
 31
0.0
  0
LINE
  5
E590
330
E57A
100
AcDbEntity
  8
0
  6
CONTINUOUS
100
AcDbLine
 10
9.609390446785305
 20
4.6874673818956
 30
0.0
 11
10.68495775058548
 21
5.763034685695775
 31
0.0
  0
LINE
  5
E591
330
E57A
100
AcDbEntity
  8
0
  6
CONTINUOUS
100
AcDbLine
 10
5.595387755019432
 20
-0.0000545189504582
 30
0.0
 11
7.716137258923768
 21
2.120694984953879
 31
0.0
  0
LINE
  5
E592
330
E57A
100
AcDbEntity
  8
0
  6
CONTINUOUS
100
AcDbLine
 10
6.268938306610172
 20
-0.000023176439905
 30
0.0
 11
7.170485805526503
 21
0.9015243224764267
 31
0.0
  0
LINE
  5
E593
330
E57A
100
AcDbEntity
  8
0
  6
CONTINUOUS
100
AcDbLine
 10
7.963842273967511
 20
2.368399999997621
 30
0.0
 11
9.266442273966188
 21
3.670999999996297
 31
0.0
  0
LINE
  5
E594
330
E57A
100
AcDbEntity
  8
0
  6
CONTINUOUS
100
AcDbLine
 10
8.637361483047696
 20
2.368399999997621
 30
0.0
 11
9.939961483046375
 21
3.670999999996297
 31
0.0
  0
LINE
  5
E595
330
E57A
100
AcDbEntity
  8
0
  6
CONTINUOUS
100
AcDbLine
 10
9.817529300306965
 20
4.222087026337075
 30
0.0
 11
10.89312513395388
 21
5.297682859983993
 31
0.0
  0
LINE
  5
E596
330
E57A
100
AcDbEntity
  8
0
  6
CONTINUOUS
100
AcDbLine
 10
10.02566815382863
 20
3.756706670778549
 30
0.0
 11
11.10129251732229
 21
4.832331034272211
 31
0.0
  0
LINE
  5
E597
330
E57A
100
AcDbEntity
  8
0
  6
CONTINUOUS
100
AcDbLine
 10
9.310880692127883
 20
2.368399999997621
 30
0.0
 11
11.30945990069069
 21
4.366979208560428
 31
0.0
  0
LINE
  5
E598
330
E57A
100
AcDbEntity
  8
0
  6
CONTINUOUS
100
AcDbLine
 10
9.98439990120807
 20
2.36839999999762
 30
0.0
 11
11.5176272840591
 21
3.901627382848645
 31
0.0
  0
LINE
  5
E599
330
E57A
100
AcDbEntity
  8
0
  6
CONTINUOUS
100
AcDbLine
 10
10.65037369446246
 20
2.36085458417182
 30
0.0
 11
11.7257946674275
 21
3.436275557136862
 31
0.0
  0
LINE
  5
E59A
330
E57A
100
AcDbEntity
  8
0
  6
CONTINUOUS
100
AcDbLine
 10
10.85847197087848
 20
1.895433651507656
 30
0.0
 11
11.9339620507959
 21
2.97092373142508
 31
0.0
  0
LINE
  5
E59B
330
E57A
100
AcDbEntity
  8
0
  6
CONTINUOUS
100
AcDbLine
 10
11.0665702472945
 20
1.430012718843491
 30
0.0
 11
12.14212943416431
 21
2.505571905713296
 31
0.0
  0
LINE
  5
E59C
330
E57A
100
AcDbEntity
  8
0
  6
CONTINUOUS
100
AcDbLine
 10
11.27466852371052
 20
0.9645917861793256
 30
0.0
 11
12.35029681753271
 21
2.040220080001513
 31
0.0
  0
LINE
  5
E59D
330
E57A
100
AcDbEntity
  8
0
  6
CONTINUOUS
100
AcDbLine
 10
11.48276680012654
 20
0.4991708535151611
 30
0.0
 11
12.55846420090111
 21
1.57486825428973
 31
0.0
  0
LINE
  5
E59E
330
E57A
100
AcDbEntity
  8
0
  6
CONTINUOUS
100
AcDbLine
 10
11.69086507654257
 20
0.0337499208509957
 30
0.0
 11
12.76663158426952
 21
1.109516428577947
 31
0.0
  0
LINE
  5
E59F
330
E57A
100
AcDbEntity
  8
0
  6
CONTINUOUS
100
AcDbLine
 10
12.33057447873954
 20
-0.0000598860322123
 30
0.0
 11
12.97479896763792
 21
0.6441646028661663
 31
0.0
  0
LINE
  5
E5A0
330
E57A
100
AcDbEntity
  8
0
  6
CONTINUOUS
100
AcDbLine
 10
13.00413694809395
 20
-0.0000166257579952
 30
0.0
 11
13.18296635100632
 21
0.1788127771543824
 31
0.0
  0
LINE
  5
E5A1
330
E57A
100
AcDbEntity
  8
0
  6
CONTINUOUS
100
AcDbLine
 10
4.772852165289667
 20
-0.000092794222212
 30
0.0
 11
4.296495091028902
 21
0.4762642800385528
 31
0.0
  0
LINE
  5
E5A2
330
E57A
100
AcDbEntity
  8
0
  6
CONTINUOUS
100
AcDbLine
 10
5.446340034776103
 20
-0.0000614546284616
 30
0.0
 11
2.898195908335625
 21
2.548082671812017
 31
0.0
  0
LINE
  5
E5A3
330
E57A
100
AcDbEntity
  8
0
  6
CONTINUOUS
100
AcDbLine
 10
6.119827904262539
 20
-0.0000301150347113
 30
0.0
 11
1.499896725642348
 21
4.61990106358548
 31
0.0
  0
LINE
  5
E5A4
330
E57A
100
AcDbEntity
  8
0
  6
CONTINUOUS
100
AcDbLine
 10
6.775136745476159
 20
0.0181802528318542
 30
0.0
 11
5.699826040202669
 21
1.093490958105344
 31
0.0
  0
LINE
  5
E5A5
330
E57A
100
AcDbEntity
  8
0
  6
CONTINUOUS
100
AcDbLine
 10
6.983376846288489
 20
0.4834593610997118
 30
0.0
 11
5.908008617934405
 21
1.558827589453796
 31
0.0
  0
LINE
  5
E5A6
330
E57A
100
AcDbEntity
  8
0
  6
CONTINUOUS
100
AcDbLine
 10
5.377063484962296
 20
1.416253513345719
 30
0.0
 11
1.702276957014131
 21
5.091040041293883
 31
0.0
  0
LINE
  5
E5A7
330
E57A
100
AcDbEntity
  8
0
  6
CONTINUOUS
100
AcDbLine
 10
3.978745891735324
 20
3.488090315652877
 30
0.0
 11
2.000373521109399
 21
5.466462686278803
 31
0.0
  0
LINE
  5
E5A8
330
E57A
100
AcDbEntity
  8
0
  6
CONTINUOUS
100
AcDbLine
 10
7.191616947100819
 20
0.948738469367568
 30
0.0
 11
6.11619119566614
 21
2.024164220802247
 31
0.0
  0
LINE
  5
E5A9
330
E57A
100
AcDbEntity
  8
0
  6
CONTINUOUS
100
AcDbLine
 10
7.399857047913149
 20
1.414017577635424
 30
0.0
 11
6.324373773397875
 21
2.489500852150698
 31
0.0
  0
LINE
  5
E5AA
330
E57A
100
AcDbEntity
  8
0
  6
CONTINUOUS
100
AcDbLine
 10
7.608097148725479
 20
1.879296685903281
 30
0.0
 11
6.53255635112961
 21
2.95483748349915
 31
0.0
  0
LINE
  5
E5AB
330
E57A
100
AcDbEntity
  8
0
  6
CONTINUOUS
100
AcDbLine
 10
7.816337249537808
 20
2.344575794171138
 30
0.0
 11
6.740738928861345
 21
3.420174114847601
 31
0.0
  0
LINE
  5
E5AC
330
E57A
100
AcDbEntity
  8
0
  6
CONTINUOUS
100
AcDbLine
 10
3.310241080789734
 20
4.830114335678653
 30
0.0
 11
2.298470085204666
 21
5.84188533126372
 31
0.0
  0
LINE
  5
E5AD
330
E57A
100
AcDbEntity
  8
0
  6
CONTINUOUS
100
AcDbLine
 10
3.60832983563551
 20
5.205544789913063
 30
0.0
 11
2.596566649299935
 21
6.217307976248638
 31
0.0
  0
LINE
  5
E5AE
330
E57A
100
AcDbEntity
  8
0
  6
CONTINUOUS
100
AcDbLine
 10
3.906418590481286
 20
5.580975244147473
 30
0.0
 11
2.894663213395203
 21
6.592730621233557
 31
0.0
  0
LINE
  5
E5AF
330
E57A
100
AcDbEntity
  8
0
  6
CONTINUOUS
100
AcDbLine
 10
4.204507345327062
 20
5.956405698381884
 30
0.0
 11
3.192759777490472
 21
6.968153266218474
 31
0.0
  0
LINE
  5
E5B0
330
E57A
100
AcDbEntity
  8
0
  6
CONTINUOUS
100
AcDbLine
 10
8.466032252791512
 20
2.368399999997621
 30
0.0
 11
6.948921506593081
 21
3.885510746196053
 31
0.0
  0
LINE
  5
E5B1
330
E57A
100
AcDbEntity
  8
0
  6
CONTINUOUS
100
AcDbLine
 10
9.139551461871699
 20
2.36839999999762
 30
0.0
 11
7.157104084324816
 21
4.350847377544504
 31
0.0
  0
LINE
  5
E5B2
330
E57A
100
AcDbEntity
  8
0
  6
CONTINUOUS
100
AcDbLine
 10
4.502596100172839
 20
6.331836152616295
 30
0.0
 11
3.49085634158574
 21
7.343575911203393
 31
0.0
  0
LINE
  5
E5B3
330
E57A
100
AcDbEntity
  8
0
  6
CONTINUOUS
100
AcDbLine
 10
4.800684855018615
 20
6.707266606850705
 30
0.0
 11
3.788952905681008
 21
7.718998556188312
 31
0.0
  0
LINE
  5
E5B4
330
E57A
100
AcDbEntity
  8
0
  6
CONTINUOUS
100
AcDbLine
 10
12.18154012887317
 20
-0.0000694579236642
 30
0.0
 11
11.32140332908496
 21
0.8600673418645499
 31
0.0
  0
LINE
  5
E5B5
330
E57A
100
AcDbEntity
  8
0
  6
CONTINUOUS
100
AcDbLine
 10
12.85501608323566
 20
-0.0000262032059659
 30
0.0
 11
10.77672456435345
 21
2.078265315676246
 31
0.0
  0
LINE
  5
E5B6
330
E57A
100
AcDbEntity
  8
0
  6
CONTINUOUS
100
AcDbLine
 10
9.813070670951886
 20
2.36839999999762
 30
0.0
 11
8.51047067095321
 21
3.670999999996297
 31
0.0
  0
LINE
  5
E5B7
330
E57A
100
AcDbEntity
  8
0
  6
CONTINUOUS
100
AcDbLine
 10
10.48658988003207
 20
2.36839999999762
 30
0.0
 11
9.183989880033396
 21
3.670999999996297
 31
0.0
  0
LINE
  5
E5B8
330
E57A
100
AcDbEntity
  8
0
  6
CONTINUOUS
100
AcDbLine
 10
8.441048632286794
 20
3.740422038662712
 30
0.0
 11
7.365286662056551
 21
4.816184008892956
 31
0.0
  0
LINE
  5
E5B9
330
E57A
100
AcDbEntity
  8
0
  6
CONTINUOUS
100
AcDbLine
 10
8.649187485808454
 20
4.205802394221237
 30
0.0
 11
7.573469239788285
 21
5.281520640241407
 31
0.0
  0
LINE
  5
E5BA
330
E57A
100
AcDbEntity
  8
0
  6
CONTINUOUS
100
AcDbLine
 10
5.098773609864391
 20
7.082697061085115
 30
0.0
 11
4.087049469776277
 21
8.09442120117323
 31
0.0
  0
LINE
  5
E5BB
330
E57A
100
AcDbEntity
  8
0
  6
CONTINUOUS
100
AcDbLine
 10
5.396862364710167
 20
7.458127515319526
 30
0.0
 11
4.385146033871544
 21
8.469843846158149
 31
0.0
  0
LINE
  5
E5BC
330
E57A
100
AcDbEntity
  8
0
  6
CONTINUOUS
100
AcDbLine
 10
13.04801363231285
 20
0.4804954567970334
 30
0.0
 11
9.85750908911358
 21
3.670999999996297
 31
0.0
  0
LINE
  5
E5BD
330
E57A
100
AcDbEntity
  8
0
  6
CONTINUOUS
100
AcDbLine
 10
8.857326339330116
 20
4.671182749779763
 30
0.0
 11
7.781651817520021
 21
5.746857271589858
 31
0.0
  0
LINE
  5
E5BE
330
E57A
100
AcDbEntity
  8
0
  6
CONTINUOUS
100
AcDbLine
 10
5.694951119555943
 20
7.833557969553937
 30
0.0
 11
4.765409089118624
 21
8.763099999991255
 31
0.0
  0
LINE
  5
E5BF
330
E57A
100
AcDbEntity
  8
0
  6
CONTINUOUS
100
AcDbLine
 10
12.50286117236978
 20
1.699167125820288
 30
0.0
 11
9.68611877250287
 21
4.515909525687196
 31
0.0
  0
LINE
  5
E5C0
330
E57A
100
AcDbEntity
  8
0
  6
CONTINUOUS
100
AcDbLine
 10
9.065465192851777
 20
5.136563105338288
 30
0.0
 11
7.989834395251757
 21
6.21219390293831
 31
0.0
  0
LINE
  5
E5C1
330
E57A
100
AcDbEntity
  8
0
  6
CONTINUOUS
100
AcDbLine
 10
5.993039874401719
 20
8.208988423788346
 30
0.0
 11
5.43892829819881
 21
8.763099999991255
 31
0.0
  0
LINE
  5
E5C2
330
E57A
100
AcDbEntity
  8
0
  6
CONTINUOUS
100
AcDbLine
 10
11.95770871242671
 20
2.917838794843543
 30
0.0
 11
8.19801697298349
 21
6.677530534286761
 31
0.0
  0
LINE
  5
E5C3
330
E57A
100
AcDbEntity
  8
0
  6
CONTINUOUS
100
AcDbLine
 10
6.291128629247495
 20
8.584418878022756
 30
0.0
 11
6.112447507278997
 21
8.763099999991255
 31
0.0
  0
LINE
  5
E5C4
330
E57A
100
AcDbEntity
  8
0
  6
CONTINUOUS
100
AcDbLine
 10
11.41255625248364
 20
4.136510463866797
 30
0.0
 11
8.406199550715227
 21
7.142867165635211
 31
0.0
  0
LINE
  5
E5C5
330
E57A
100
AcDbEntity
  8
0
  6
CONTINUOUS
100
AcDbLine
 10
10.86740379254057
 20
5.355182132890051
 30
0.0
 11
8.614382128446962
 21
7.608203796983664
 31
0.0
  0
LINE
  5
E5C6
330
E57A
100
AcDbEntity
  8
0
  6
CONTINUOUS
100
AcDbLine
 10
10.3222513325975
 20
6.573853801913305
 30
0.0
 11
8.822564706178696
 21
8.073540428332114
 31
0.0
  0
LINE
  5
E5C7
330
E57A
100
AcDbEntity
  8
0
  6
CONTINUOUS
100
AcDbLine
 10
9.777098872654436
 20
7.792525470936562
 30
0.0
 11
9.030747283910433
 21
8.538877059680566
 31
0.0
  0
ENDBLK
  5
E709
330
E57A
100
AcDbEntity
  8
0
100
AcDbBlockEnd
  0
BLOCK
  5
E70A
330
E5C8
100
AcDbEntity
  8
0
100
AcDbBlockBegin
  2
*X14
 70
     1
 10
0.0
 20
0.0
 30
0.0
  3
*X14
  1

  0
LINE
  5
E5C9
330
E5C8
100
AcDbEntity
  8
0
  6
CONTINUOUS
100
AcDbLine
 10
10.67292308101235
 20
8.445076852443387
 30
0.0
 11
10.99094622856022
 21
8.763099999991255
 31
0.0
  0
LINE
  5
E5CA
330
E5C8
100
AcDbEntity
  8
0
  6
CONTINUOUS
100
AcDbLine
 10
10.87250383178748
 20
7.971138394138331
 30
0.0
 11
11.6644654376404
 21
8.763099999991255
 31
0.0
  0
LINE
  5
E5CB
330
E5C8
100
AcDbEntity
  8
0
  6
CONTINUOUS
100
AcDbLine
 10
11.07208458256261
 20
7.497199935833273
 30
0.0
 11
12.12126590876355
 21
8.546381262034211
 31
0.0
  0
LINE
  5
E5CC
330
E5C8
100
AcDbEntity
  8
0
  6
CONTINUOUS
100
AcDbLine
 10
11.27166533333774
 20
7.023261477528216
 30
0.0
 11
12.32085164573666
 21
8.072447789927136
 31
0.0
  0
LINE
  5
E5CD
330
E5C8
100
AcDbEntity
  8
0
  6
CONTINUOUS
100
AcDbLine
 10
11.47124608411287
 20
6.549323019223158
 30
0.0
 11
12.52043738270977
 21
7.59851431782006
 31
0.0
  0
LINE
  5
E5CE
330
E5C8
100
AcDbEntity
  8
0
  6
CONTINUOUS
100
AcDbLine
 10
11.670826834888
 20
6.075384560918101
 30
0.0
 11
12.72002311968288
 21
7.124580845712984
 31
0.0
  0
LINE
  5
E5CF
330
E5C8
100
AcDbEntity
  8
0
  6
CONTINUOUS
100
AcDbLine
 10
11.87040758566313
 20
5.601446102613043
 30
0.0
 11
12.91960885665599
 21
6.650647373605907
 31
0.0
  0
LINE
  5
E5D0
330
E5C8
100
AcDbEntity
  8
0
  6
CONTINUOUS
100
AcDbLine
 10
12.06998833643825
 20
5.127507644307986
 30
0.0
 11
13.1191945936291
 21
6.176713901498832
 31
0.0
  0
LINE
  5
E5D1
330
E5C8
100
AcDbEntity
  8
0
  6
CONTINUOUS
100
AcDbLine
 10
12.26956908721338
 20
4.65356918600293
 30
0.0
 11
13.31878033060221
 21
5.702780429391757
 31
0.0
  0
LINE
  5
E5D2
330
E5C8
100
AcDbEntity
  8
0
  6
CONTINUOUS
100
AcDbLine
 10
12.46914983798851
 20
4.179630727697873
 30
0.0
 11
13.51836606757532
 21
5.228846957284683
 31
0.0
  0
LINE
  5
E5D3
330
E5C8
100
AcDbEntity
  8
0
  6
CONTINUOUS
100
AcDbLine
 10
12.66873058876364
 20
3.705692269392816
 30
0.0
 11
13.71795180454843
 21
4.754913485177607
 31
0.0
  0
LINE
  5
E5D4
330
E5C8
100
AcDbEntity
  8
0
  6
CONTINUOUS
100
AcDbLine
 10
12.86831133953877
 20
3.231753811087759
 30
0.0
 11
13.91753754152154
 21
4.280980013070531
 31
0.0
  0
LINE
  5
E5D5
330
E5C8
100
AcDbEntity
  8
0
  6
CONTINUOUS
100
AcDbLine
 10
13.0678920903139
 20
2.757815352782702
 30
0.0
 11
14.11712327849465
 21
3.807046540963456
 31
0.0
  0
LINE
  5
E5D6
330
E5C8
100
AcDbEntity
  8
0
  6
CONTINUOUS
100
AcDbLine
 10
13.26747284108903
 20
2.283876894477644
 30
0.0
 11
14.31670901546777
 21
3.333113068856379
 31
0.0
  0
LINE
  5
E5D7
330
E5C8
100
AcDbEntity
  8
0
  6
CONTINUOUS
100
AcDbLine
 10
16.36767838827179
 20
8.751678487061342
 30
0.0
 11
16.50332410898388
 21
8.887324207773432
 31
0.0
  0
LINE
  5
E5D8
330
E5C8
100
AcDbEntity
  8
0
  6
CONTINUOUS
100
AcDbLine
 10
15.96190732182191
 20
7.67238821153127
 30
0.0
 11
16.68735328004734
 21
8.397834169756699
 31
0.0
  0
LINE
  5
E5D9
330
E5C8
100
AcDbEntity
  8
0
  6
CONTINUOUS
100
AcDbLine
 10
15.55613625537202
 20
6.593097936001196
 30
0.0
 11
16.87138245111079
 21
7.908344131739965
 31
0.0
  0
LINE
  5
E5DA
330
E5C8
100
AcDbEntity
  8
0
  6
CONTINUOUS
100
AcDbLine
 10
15.15036518892213
 20
5.513807660471122
 30
0.0
 11
17.05541162217424
 21
7.418854093723231
 31
0.0
  0
LINE
  5
E5DB
330
E5C8
100
AcDbEntity
  8
0
  6
CONTINUOUS
100
AcDbLine
 10
14.74459412247225
 20
4.434517384941048
 30
0.0
 11
17.2394407932377
 21
6.929364055706499
 31
0.0
  0
LINE
  5
E5DC
330
E5C8
100
AcDbEntity
  8
0
  6
CONTINUOUS
100
AcDbLine
 10
14.33882305602236
 20
3.355227109410975
 30
0.0
 11
17.42346996430115
 21
6.439874017689766
 31
0.0
  0
LINE
  5
E5DD
330
E5C8
100
AcDbEntity
  8
0
  6
CONTINUOUS
100
AcDbLine
 10
13.46705359186416
 20
1.809938436172586
 30
0.0
 11
16.0819338255367
 21
4.424818669845129
 31
0.0
  0
LINE
  5
E5DE
330
E5C8
100
AcDbEntity
  8
0
  6
CONTINUOUS
100
AcDbLine
 10
16.63283254238972
 20
4.975717386698149
 30
0.0
 11
17.60749913536461
 21
5.950383979673033
 31
0.0
  0
LINE
  5
E5DF
330
E5C8
100
AcDbEntity
  8
0
  6
CONTINUOUS
100
AcDbLine
 10
13.66663434263929
 20
1.335999977867529
 30
0.0
 11
15.67604797733754
 21
3.345413612565779
 31
0.0
  0
LINE
  5
E5E0
330
E5C8
100
AcDbEntity
  8
0
  6
CONTINUOUS
100
AcDbLine
 10
13.86621509341442
 20
0.8620615195624723
 30
0.0
 11
15.27016212913838
 21
2.26600855528643
 31
0.0
  0
LINE
  5
E5E1
330
E5C8
100
AcDbEntity
  8
0
  6
CONTINUOUS
100
AcDbLine
 10
16.81682257348267
 20
4.486188208710908
 30
0.0
 11
17.79152830642806
 21
5.460893941656299
 31
0.0
  0
LINE
  5
E5E2
330
E5C8
100
AcDbEntity
  8
0
  6
CONTINUOUS
100
AcDbLine
 10
17.00081260457561
 20
3.996659030723667
 30
0.0
 11
17.97555747749151
 21
4.971403903639565
 31
0.0
  0
LINE
  5
E5E3
330
E5C8
100
AcDbEntity
  8
0
  6
CONTINUOUS
100
AcDbLine
 10
20.74362343514722
 20
8.412989070375462
 30
0.0
 11
21.09373436476302
 21
8.763099999991256
 31
0.0
  0
LINE
  5
E5E4
330
E5C8
100
AcDbEntity
  8
0
  6
CONTINUOUS
100
AcDbLine
 10
20.25401257174777
 20
7.249858997895826
 30
0.0
 11
21.7672535738432
 21
8.763099999991255
 31
0.0
  0
LINE
  5
E5E5
330
E5C8
100
AcDbEntity
  8
0
  6
CONTINUOUS
100
AcDbLine
 10
14.06579584418955
 20
0.3881230612574149
 30
0.0
 11
14.86427628093921
 21
1.186603498007082
 31
0.0
  0
LINE
  5
E5E6
330
E5C8
100
AcDbEntity
  8
0
  6
CONTINUOUS
100
AcDbLine
 10
14.26537659496467
 20
-0.0858153970476412
 30
0.0
 11
14.45839043274005
 21
0.1071984407277329
 31
0.0
  0
LINE
  5
E5E7
330
E5C8
100
AcDbEntity
  8
0
  6
CONTINUOUS
100
AcDbLine
 10
17.18480263566856
 20
3.507129852736426
 30
0.0
 11
18.15958664855496
 21
4.481913865622833
 31
0.0
  0
LINE
  5
E5E8
330
E5C8
100
AcDbEntity
  8
0
  6
CONTINUOUS
100
AcDbLine
 10
17.3687926667615
 20
3.017600674749186
 30
0.0
 11
18.34361581961842
 21
3.9924238276061
 31
0.0
  0
LINE
  5
E5E9
330
E5C8
100
AcDbEntity
  8
0
  6
CONTINUOUS
100
AcDbLine
 10
19.76440170834832
 20
6.086728925416191
 30
0.0
 11
22.33924590259489
 21
8.661573119662755
 31
0.0
  0
LINE
  5
E5EA
330
E5C8
100
AcDbEntity
  8
0
  6
CONTINUOUS
100
AcDbLine
 10
19.27479084494887
 20
4.923598852936555
 30
0.0
 11
21.84929622842713
 21
7.498104236414807
 31
0.0
  0
LINE
  5
E5EB
330
E5C8
100
AcDbEntity
  8
0
  6
CONTINUOUS
100
AcDbLine
 10
17.55278269785445
 20
2.528071496761945
 30
0.0
 11
18.52764499068187
 21
3.502933789589366
 31
0.0
  0
LINE
  5
E5EC
330
E5C8
100
AcDbEntity
  8
0
  6
CONTINUOUS
100
AcDbLine
 10
18.78517998154942
 20
3.760468780456919
 30
0.0
 11
21.35934655425936
 21
6.33463535316686
 31
0.0
  0
LINE
  5
E5ED
330
E5C8
100
AcDbEntity
  8
0
  6
CONTINUOUS
100
AcDbLine
 10
17.73677272894739
 20
2.038542318774704
 30
0.0
 11
20.8693968800916
 21
5.171166469918914
 31
0.0
  0
LINE
  5
E5EE
330
E5C8
100
AcDbEntity
  8
0
  6
CONTINUOUS
100
AcDbLine
 10
17.92076276004034
 20
1.549013140787464
 30
0.0
 11
20.37944720592384
 21
4.007697586670968
 31
0.0
  0
LINE
  5
E5EF
330
E5C8
100
AcDbEntity
  8
0
  6
CONTINUOUS
100
AcDbLine
 10
18.10475279113329
 20
1.059483962800223
 30
0.0
 11
19.88949753175608
 21
2.84422870342302
 31
0.0
  0
LINE
  5
E5F0
330
E5C8
100
AcDbEntity
  8
0
  6
CONTINUOUS
100
AcDbLine
 10
18.28874282222623
 20
0.5699547848129822
 30
0.0
 11
19.39954785758832
 21
1.680759820175074
 31
0.0
  0
LINE
  5
E5F1
330
E5C8
100
AcDbEntity
  8
0
  6
CONTINUOUS
100
AcDbLine
 10
18.47273285331918
 20
0.0804256068257416
 30
0.0
 11
18.90959818342056
 21
0.517290936927127
 31
0.0
  0
LINE
  5
E5F2
330
E5C8
100
AcDbEntity
  8
0
  6
CONTINUOUS
100
AcDbLine
 10
14.3590401358224
 20
-0.1570118376323384
 30
0.0
 11
14.24903296539946
 21
-0.0470046672093929
 31
0.0
  0
LINE
  5
E5F3
330
E5C8
100
AcDbEntity
  8
0
  6
CONTINUOUS
100
AcDbLine
 10
14.54309291258661
 20
0.332454594683643
 30
0.0
 11
13.75908329123172
 21
1.116464216038529
 31
0.0
  0
LINE
  5
E5F4
330
E5C8
100
AcDbEntity
  8
0
  6
CONTINUOUS
100
AcDbLine
 10
14.72714568935081
 20
0.8219210269996244
 30
0.0
 11
13.26913361706399
 21
2.27993309928645
 31
0.0
  0
LINE
  5
E5F5
330
E5C8
100
AcDbEntity
  8
0
  6
CONTINUOUS
100
AcDbLine
 10
14.91119846611502
 20
1.311387459315606
 30
0.0
 11
12.77918394289625
 21
3.443401982534371
 31
0.0
  0
LINE
  5
E5F6
330
E5C8
100
AcDbEntity
  8
0
  6
CONTINUOUS
100
AcDbLine
 10
15.09525124287922
 20
1.800853891631587
 30
0.0
 11
12.28923426872852
 21
4.606870865782293
 31
0.0
  0
LINE
  5
E5F7
330
E5C8
100
AcDbEntity
  8
0
  6
CONTINUOUS
100
AcDbLine
 10
15.27930401964343
 20
2.290320323947569
 30
0.0
 11
11.79928459456078
 21
5.770339749030213
 31
0.0
  0
LINE
  5
E5F8
330
E5C8
100
AcDbEntity
  8
0
  6
CONTINUOUS
100
AcDbLine
 10
15.46335679640763
 20
2.77978675626355
 30
0.0
 11
14.48885470994921
 21
3.754288842721972
 31
0.0
  0
LINE
  5
E5F9
330
E5C8
100
AcDbEntity
  8
0
  6
CONTINUOUS
100
AcDbLine
 10
13.88507249233704
 20
4.358071060334137
 30
0.0
 11
11.30933492039305
 21
6.933808632278135
 31
0.0
  0
LINE
  5
E5FA
330
E5C8
100
AcDbEntity
  8
0
  6
CONTINUOUS
100
AcDbLine
 10
18.75840522805855
 20
0.1582575336928151
 30
0.0
 11
18.25383727664818
 21
0.6628254851031863
 31
0.0
  0
LINE
  5
E5FB
330
E5C8
100
AcDbEntity
  8
0
  6
CONTINUOUS
100
AcDbLine
 10
15.64740957317184
 20
3.269253188579531
 30
0.0
 11
14.67288388101266
 21
4.243778880738705
 31
0.0
  0
LINE
  5
E5FC
330
E5C8
100
AcDbEntity
  8
0
  6
CONTINUOUS
100
AcDbLine
 10
13.39509276772158
 20
5.521569994029786
 30
0.0
 11
10.81938524622531
 21
8.097277515526056
 31
0.0
  0
LINE
  5
E5FD
330
E5C8
100
AcDbEntity
  8
0
  6
CONTINUOUS
100
AcDbLine
 10
18.95798597883369
 20
0.6321959919978686
 30
0.0
 11
17.84825644852853
 21
1.741925522303024
 31
0.0
  0
LINE
  5
E5FE
330
E5C8
100
AcDbEntity
  8
0
  6
CONTINUOUS
100
AcDbLine
 10
19.15756672960882
 20
1.106134450302922
 30
0.0
 11
17.44267562040888
 21
2.821025559502861
 31
0.0
  0
LINE
  5
E5FF
330
E5C8
100
AcDbEntity
  8
0
  6
CONTINUOUS
100
AcDbLine
 10
15.83146234993604
 20
3.758719620895513
 30
0.0
 11
14.85691305207612
 21
4.733268918755439
 31
0.0
  0
LINE
  5
E600
330
E5C8
100
AcDbEntity
  8
0
  6
CONTINUOUS
100
AcDbLine
 10
16.01551512670025
 20
4.248186053211494
 30
0.0
 11
15.04094222313957
 21
5.222758956772172
 31
0.0
  0
LINE
  5
E601
330
E5C8
100
AcDbEntity
  8
0
  6
CONTINUOUS
100
AcDbLine
 10
12.90511304310612
 20
6.685068927725435
 30
0.0
 11
10.8270819708403
 21
8.763099999991255
 31
0.0
  0
LINE
  5
E602
330
E5C8
100
AcDbEntity
  8
0
  6
CONTINUOUS
100
AcDbLine
 10
12.41513331849066
 20
7.848567861421083
 30
0.0
 11
11.50060117992049
 21
8.763099999991255
 31
0.0
  0
LINE
  5
E603
330
E5C8
100
AcDbEntity
  8
0
  6
CONTINUOUS
100
AcDbLine
 10
19.35714748038395
 20
1.580072908607975
 30
0.0
 11
17.03709479228923
 21
3.900125596702697
 31
0.0
  0
LINE
  5
E604
330
E5C8
100
AcDbEntity
  8
0
  6
CONTINUOUS
100
AcDbLine
 10
19.55672823115909
 20
2.054011366913028
 30
0.0
 11
16.63151396416958
 21
4.979225633902534
 31
0.0
  0
LINE
  5
E605
330
E5C8
100
AcDbEntity
  8
0
  6
CONTINUOUS
100
AcDbLine
 10
16.19956790346445
 20
4.737652485527476
 30
0.0
 11
15.22497139420302
 21
5.712248994788904
 31
0.0
  0
LINE
  5
E606
330
E5C8
100
AcDbEntity
  8
0
  6
CONTINUOUS
100
AcDbLine
 10
16.38362068022866
 20
5.227118917843457
 30
0.0
 11
15.40900056526648
 21
6.201739032805637
 31
0.0
  0
LINE
  5
E607
330
E5C8
100
AcDbEntity
  8
0
  6
CONTINUOUS
100
AcDbLine
 10
19.75630898193422
 20
2.527949825218081
 30
0.0
 11
18.70774536448286
 21
3.576513442669441
 31
0.0
  0
LINE
  5
E608
330
E5C8
100
AcDbEntity
  8
0
  6
CONTINUOUS
100
AcDbLine
 10
19.95588973270936
 20
3.001888283523134
 30
0.0
 11
18.90726987211446
 21
4.050508144118028
 31
0.0
  0
LINE
  5
E609
330
E5C8
100
AcDbEntity
  8
0
  6
CONTINUOUS
100
AcDbLine
 10
20.15547048348449
 20
3.475826741828186
 30
0.0
 11
19.10679437974606
 21
4.524502845566614
 31
0.0
  0
LINE
  5
E60A
330
E5C8
100
AcDbEntity
  8
0
  6
CONTINUOUS
100
AcDbLine
 10
20.35505123425962
 20
3.94976520013324
 30
0.0
 11
19.30631888737766
 21
4.998497547015201
 31
0.0
  0
LINE
  5
E60B
330
E5C8
100
AcDbEntity
  8
0
  6
CONTINUOUS
100
AcDbLine
 10
20.55463198503475
 20
4.423703658438292
 30
0.0
 11
19.50584339500926
 21
5.472492248463787
 31
0.0
  0
LINE
  5
E60C
330
E5C8
100
AcDbEntity
  8
0
  6
CONTINUOUS
100
AcDbLine
 10
18.37481191085755
 20
3.909446896294752
 30
0.0
 11
15.59302973632993
 21
6.691229070822371
 31
0.0
  0
LINE
  5
E60D
330
E5C8
100
AcDbEntity
  8
0
  6
CONTINUOUS
100
AcDbLine
 10
17.96904084440766
 20
4.988737171824825
 30
0.0
 11
15.77705890739338
 21
7.180719108839104
 31
0.0
  0
LINE
  5
E60E
330
E5C8
100
AcDbEntity
  8
0
  6
CONTINUOUS
100
AcDbLine
 10
17.56326977795777
 20
6.068027447354899
 30
0.0
 11
15.96108807845684
 21
7.670209146855838
 31
0.0
  0
LINE
  5
E60F
330
E5C8
100
AcDbEntity
  8
0
  6
CONTINUOUS
100
AcDbLine
 10
17.15749871150789
 20
7.147317722884972
 30
0.0
 11
16.14511724952029
 21
8.15969918487257
 31
0.0
  0
LINE
  5
E610
330
E5C8
100
AcDbEntity
  8
0
  6
CONTINUOUS
100
AcDbLine
 10
16.751727645058
 20
8.226607998415046
 30
0.0
 11
16.32914642058374
 21
8.649189222889303
 31
0.0
  0
LINE
  5
E611
330
E5C8
100
AcDbEntity
  8
0
  6
CONTINUOUS
100
AcDbLine
 10
20.75421273580989
 20
4.897642116743345
 30
0.0
 11
19.70536790264086
 21
5.946486949912374
 31
0.0
  0
LINE
  5
E612
330
E5C8
100
AcDbEntity
  8
0
  6
CONTINUOUS
100
AcDbLine
 10
20.95379348658502
 20
5.371580575048398
 30
0.0
 11
19.90489241027246
 21
6.42048165136096
 31
0.0
  0
LINE
  5
E613
330
E5C8
100
AcDbEntity
  8
0
  6
CONTINUOUS
100
AcDbLine
 10
21.15337423736015
 20
5.845519033353452
 30
0.0
 11
20.10441691790406
 21
6.894476352809547
 31
0.0
  0
LINE
  5
E614
330
E5C8
100
AcDbEntity
  8
0
  6
CONTINUOUS
100
AcDbLine
 10
21.35295498813529
 20
6.319457491658505
 30
0.0
 11
20.30394142553566
 21
7.368471054258134
 31
0.0
  0
LINE
  5
E615
330
E5C8
100
AcDbEntity
  8
0
  6
CONTINUOUS
100
AcDbLine
 10
21.55253573891042
 20
6.793395949963558
 30
0.0
 11
20.50346593316726
 21
7.842465755706721
 31
0.0
  0
LINE
  5
E616
330
E5C8
100
AcDbEntity
  8
0
  6
CONTINUOUS
100
AcDbLine
 10
21.75211648968556
 20
7.267334408268612
 30
0.0
 11
20.70299044079886
 21
8.316460457155308
 31
0.0
  0
LINE
  5
E617
330
E5C8
100
AcDbEntity
  8
0
  6
CONTINUOUS
100
AcDbLine
 10
21.95169724046069
 20
7.741272866573663
 30
0.0
 11
20.9298701070431
 21
8.763099999991256
 31
0.0
  0
LINE
  5
E618
330
E5C8
100
AcDbEntity
  8
0
  6
CONTINUOUS
100
AcDbLine
 10
22.15127799123582
 20
8.215211324878716
 30
0.0
 11
21.60338931612328
 21
8.763099999991256
 31
0.0
  0
LINE
  5
E619
330
E5C8
100
AcDbEntity
  8
0
  6
CONTINUOUS
100
AcDbLine
 10
22.35085874201096
 20
8.689149783183769
 30
0.0
 11
22.27690852520347
 21
8.763099999991255
 31
0.0
  0
ENDBLK
  5
E70B
330
E5C8
100
AcDbEntity
  8
0
100
AcDbBlockEnd
  0
BLOCK
  5
E70C
330
E61A
100
AcDbEntity
  8
0
100
AcDbBlockBegin
  2
*X15
 70
     1
 10
0.0
 20
0.0
 30
0.0
  3
*X15
  1

  0
LINE
  5
E61B
330
E61A
100
AcDbEntity
  8
0
  6
CONTINUOUS
100
AcDbLine
 10
23.19462913593892
 20
8.169917934846424
 30
0.0
 11
23.70775465517246
 21
8.683043454079957
 31
0.0
  0
LINE
  5
E61C
330
E61A
100
AcDbEntity
  8
0
  6
CONTINUOUS
100
AcDbLine
 10
22.64923161835078
 20
6.951001208178088
 30
0.0
 11
23.9159364069932
 21
8.217705996820516
 31
0.0
  0
LINE
  5
E61D
330
E61A
100
AcDbEntity
  8
0
  6
CONTINUOUS
100
AcDbLine
 10
22.10383410076263
 20
5.732084481509751
 30
0.0
 11
24.12411815881395
 21
7.752368539561078
 31
0.0
  0
LINE
  5
E61E
330
E61A
100
AcDbEntity
  8
0
  6
CONTINUOUS
100
AcDbLine
 10
21.55843658317447
 20
4.513167754841414
 30
0.0
 11
24.3322999106347
 21
7.287031082301639
 31
0.0
  0
LINE
  5
E61F
330
E61A
100
AcDbEntity
  8
0
  6
CONTINUOUS
100
AcDbLine
 10
21.01303906558632
 20
3.294251028173077
 30
0.0
 11
24.54048166245544
 21
6.821693625042199
 31
0.0
  0
LINE
  5
E620
330
E61A
100
AcDbEntity
  8
0
  6
CONTINUOUS
100
AcDbLine
 10
20.46764154799817
 20
2.075334301504738
 30
0.0
 11
23.28571549467848
 21
4.89340824818505
 31
0.0
  0
LINE
  5
E621
330
E61A
100
AcDbEntity
  8
0
  6
CONTINUOUS
100
AcDbLine
 10
19.92224403041002
 20
0.8564175748364002
 30
0.0
 11
22.74075865492779
 21
3.674932199354171
 31
0.0
  0
LINE
  5
E622
330
E61A
100
AcDbEntity
  8
0
  6
CONTINUOUS
100
AcDbLine
 10
23.67305085490148
 20
5.280743608408048
 30
0.0
 11
24.74866341427619
 21
6.356356167782759
 31
0.0
  0
LINE
  5
E623
330
E61A
100
AcDbEntity
  8
0
  6
CONTINUOUS
100
AcDbLine
 10
23.88118970842314
 20
4.815363252849522
 30
0.0
 11
24.95684516609694
 21
5.89101871052332
 31
0.0
  0
LINE
  5
E624
330
E61A
100
AcDbEntity
  8
0
  6
CONTINUOUS
100
AcDbLine
 10
19.73925852647308
 20
-0.0000871381807288
 30
0.0
 11
23.4103456646501
 21
3.670999999996297
 31
0.0
  0
LINE
  5
E625
330
E61A
100
AcDbEntity
  8
0
  6
CONTINUOUS
100
AcDbLine
 10
24.0893285619448
 20
4.349982897290997
 30
0.0
 11
25.16502691791769
 21
5.42568125326388
 31
0.0
  0
LINE
  5
E626
330
E61A
100
AcDbEntity
  8
0
  6
CONTINUOUS
100
AcDbLine
 10
20.41282099582748
 20
-0.0000438779065108
 30
0.0
 11
21.64944178675636
 21
1.236576913022366
 31
0.0
  0
LINE
  5
E627
330
E61A
100
AcDbEntity
  8
0
  6
CONTINUOUS
100
AcDbLine
 10
22.78126487373161
 20
2.36839999999762
 30
0.0
 11
24.08386487373029
 21
3.670999999996297
 31
0.0
  0
LINE
  5
E628
330
E61A
100
AcDbEntity
  8
0
  6
CONTINUOUS
100
AcDbLine
 10
24.29746741546646
 20
3.884602541732471
 30
0.0
 11
25.37320866973843
 21
4.960343796004441
 31
0.0
  0
LINE
  5
E629
330
E61A
100
AcDbEntity
  8
0
  6
CONTINUOUS
100
AcDbLine
 10
21.08638346518189
 20
-0.0000006176322938
 30
0.0
 11
21.10379033335899
 21
0.0174062505448083
 31
0.0
  0
LINE
  5
E62A
330
E61A
100
AcDbEntity
  8
0
  6
CONTINUOUS
100
AcDbLine
 10
23.4547840828118
 20
2.36839999999762
 30
0.0
 11
25.58139042155918
 21
4.495006338745002
 31
0.0
  0
LINE
  5
E62B
330
E61A
100
AcDbEntity
  8
0
  6
CONTINUOUS
100
AcDbLine
 10
29.30199999996933
 20
8.215615917155148
 30
0.0
 11
29.84948408280543
 21
8.763099999991255
 31
0.0
  0
LINE
  5
E62C
330
E61A
100
AcDbEntity
  8
0
  6
CONTINUOUS
100
AcDbLine
 10
24.12830329189199
 20
2.36839999999762
 30
0.0
 11
25.78957217337993
 21
4.029668881485562
 31
0.0
  0
LINE
  5
E62D
330
E61A
100
AcDbEntity
  8
0
  6
CONTINUOUS
100
AcDbLine
 10
29.30199999996933
 20
7.54209670807496
 30
0.0
 11
30.52300329188562
 21
8.763099999991255
 31
0.0
  0
LINE
  5
E62E
330
E61A
100
AcDbEntity
  8
0
  6
CONTINUOUS
100
AcDbLine
 10
24.80182250097217
 20
2.36839999999762
 30
0.0
 11
25.99775392520067
 21
3.564331424226122
 31
0.0
  0
LINE
  5
E62F
330
E61A
100
AcDbEntity
  8
0
  6
CONTINUOUS
100
AcDbLine
 10
29.30199999996933
 20
6.868577498994774
 30
0.0
 11
30.74199999996926
 21
8.308577498994712
 31
0.0
  0
LINE
  5
E630
330
E61A
100
AcDbEntity
  8
0
  6
CONTINUOUS
100
AcDbLine
 10
25.13028238392013
 20
2.023340673865392
 30
0.0
 11
26.20593567702142
 21
3.098993966966683
 31
0.0
  0
LINE
  5
E631
330
E61A
100
AcDbEntity
  8
0
  6
CONTINUOUS
100
AcDbLine
 10
25.33838066033617
 20
1.557919741201244
 30
0.0
 11
26.41411742884217
 21
2.633656509707244
 31
0.0
  0
LINE
  5
E632
330
E61A
100
AcDbEntity
  8
0
  6
CONTINUOUS
100
AcDbLine
 10
25.54647893675221
 20
1.092498808537098
 30
0.0
 11
26.62229918066291
 21
2.168319052447804
 31
0.0
  0
LINE
  5
E633
330
E61A
100
AcDbEntity
  8
0
  6
CONTINUOUS
100
AcDbLine
 10
25.75457721316825
 20
0.62707787587295
 30
0.0
 11
26.83048093248366
 21
1.702981595188365
 31
0.0
  0
LINE
  5
E634
330
E61A
100
AcDbEntity
  8
0
  6
CONTINUOUS
100
AcDbLine
 10
29.30199999996933
 20
6.195058289914587
 30
0.0
 11
30.74199999996926
 21
7.635058289914522
 31
0.0
  0
LINE
  5
E635
330
E61A
100
AcDbEntity
  8
0
  6
CONTINUOUS
100
AcDbLine
 10
29.30199999996933
 20
5.521539080834401
 30
0.0
 11
30.74199999996926
 21
6.961539080834331
 31
0.0
  0
LINE
  5
E636
330
E61A
100
AcDbEntity
  8
0
  6
CONTINUOUS
100
AcDbLine
 10
29.30199999996933
 20
4.848019871754214
 30
0.0
 11
30.74199999996925
 21
6.288019871754143
 31
0.0
  0
LINE
  5
E637
330
E61A
100
AcDbEntity
  8
0
  6
CONTINUOUS
100
AcDbLine
 10
29.30199999996933
 20
4.174500662674028
 30
0.0
 11
30.74199999996925
 21
5.614500662673953
 31
0.0
  0
LINE
  5
E638
330
E61A
100
AcDbEntity
  8
0
  6
CONTINUOUS
100
AcDbLine
 10
25.96267548958429
 20
0.1616569432088024
 30
0.0
 11
27.18411854636669
 21
1.383099999991207
 31
0.0
  0
LINE
  5
E639
330
E61A
100
AcDbEntity
  8
0
  6
CONTINUOUS
100
AcDbLine
 10
29.30199999996933
 20
3.500981453593841
 30
0.0
 11
30.74199999996925
 21
4.940981453593762
 31
0.0
  0
LINE
  5
E63A
330
E61A
100
AcDbEntity
  8
0
  6
CONTINUOUS
100
AcDbLine
 10
26.50763775544691
 20
0.0330999999912356
 30
0.0
 11
27.85763775544689
 21
1.383099999991223
 31
0.0
  0
LINE
  5
E63B
330
E61A
100
AcDbEntity
  8
0
  6
CONTINUOUS
100
AcDbLine
 10
29.30199999996933
 20
2.827462244513656
 30
0.0
 11
30.74199999996925
 21
4.267462244513574
 31
0.0
  0
LINE
  5
E63C
330
E61A
100
AcDbEntity
  8
0
  6
CONTINUOUS
100
AcDbLine
 10
27.18115696452709
 20
0.0330999999912356
 30
0.0
 11
28.55073879889363
 21
1.402681834357775
 31
0.0
  0
LINE
  5
E63D
330
E61A
100
AcDbEntity
  8
0
  6
CONTINUOUS
100
AcDbLine
 10
29.28241816560272
 20
2.134361201066866
 30
0.0
 11
30.74199999996924
 21
3.593943035433383
 31
0.0
  0
LINE
  5
E63E
330
E61A
100
AcDbEntity
  8
0
  6
CONTINUOUS
100
AcDbLine
 10
27.85467617360728
 20
0.0330999999912356
 30
0.0
 11
30.74199999996924
 21
2.920423826353195
 31
0.0
  0
LINE
  5
E63F
330
E61A
100
AcDbEntity
  8
0
  6
CONTINUOUS
100
AcDbLine
 10
28.53897559587887
 20
0.0438802131826428
 30
0.0
 11
30.73121978677781
 21
2.236124404081585
 31
0.0
  0
LINE
  5
E640
330
E61A
100
AcDbEntity
  8
0
  6
CONTINUOUS
100
AcDbLine
 10
29.45140055588722
 20
0.2827859641107988
 30
0.0
 11
30.49231403584965
 21
1.323699444073236
 31
0.0
  0
LINE
  5
E641
330
E61A
100
AcDbEntity
  8
0
  6
CONTINUOUS
100
AcDbLine
 10
19.59027867740337
 20
-0.0000967065718083
 30
0.0
 11
19.55485265190471
 21
0.035329318926844
 31
0.0
  0
LINE
  5
E642
330
E61A
100
AcDbEntity
  8
0
  6
CONTINUOUS
100
AcDbLine
 10
20.26375463176586
 20
-0.0000534518541091
 30
0.0
 11
19.76305575737534
 21
0.5006454225364014
 31
0.0
  0
LINE
  5
E643
330
E61A
100
AcDbEntity
  8
0
  6
CONTINUOUS
100
AcDbLine
 10
20.93723058612834
 20
-0.0000101971364099
 30
0.0
 11
19.97125886284597
 21
0.965961526145958
 31
0.0
  0
LINE
  5
E644
330
E61A
100
AcDbEntity
  8
0
  6
CONTINUOUS
100
AcDbLine
 10
21.25514828313686
 20
0.355591314935257
 30
0.0
 11
20.1794619683166
 21
1.431277629755512
 31
0.0
  0
LINE
  5
E645
330
E61A
100
AcDbEntity
  8
0
  6
CONTINUOUS
100
AcDbLine
 10
21.46338838394921
 20
0.8208704232030986
 30
0.0
 11
20.38766507378723
 21
1.896593733365069
 31
0.0
  0
LINE
  5
E646
330
E61A
100
AcDbEntity
  8
0
  6
CONTINUOUS
100
AcDbLine
 10
21.67162848476155
 20
1.28614953147094
 30
0.0
 11
20.59586817925786
 21
2.361909836974626
 31
0.0
  0
LINE
  5
E647
330
E61A
100
AcDbEntity
  8
0
  6
CONTINUOUS
100
AcDbLine
 10
21.8798685855739
 20
1.751428639738782
 30
0.0
 11
20.80407128472849
 21
2.827225940584183
 31
0.0
  0
LINE
  5
E648
330
E61A
100
AcDbEntity
  8
0
  6
CONTINUOUS
100
AcDbLine
 10
22.08810868638624
 20
2.216707748006623
 30
0.0
 11
21.01227439019912
 21
3.292542044193739
 31
0.0
  0
LINE
  5
E649
330
E61A
100
AcDbEntity
  8
0
  6
CONTINUOUS
100
AcDbLine
 10
22.60993564347543
 20
2.36839999999762
 30
0.0
 11
21.22047749566975
 21
3.757858147803296
 31
0.0
  0
LINE
  5
E64A
330
E61A
100
AcDbEntity
  8
0
  6
CONTINUOUS
100
AcDbLine
 10
23.28345485255561
 20
2.36839999999762
 30
0.0
 11
21.42868060114038
 21
4.223174251412853
 31
0.0
  0
LINE
  5
E64B
330
E61A
100
AcDbEntity
  8
0
  6
CONTINUOUS
100
AcDbLine
 10
26.29227406164219
 20
0.0330999999912356
 30
0.0
 11
25.80009199592872
 21
0.5252820657046957
 31
0.0
  0
LINE
  5
E64C
330
E61A
100
AcDbEntity
  8
0
  6
CONTINUOUS
100
AcDbLine
 10
23.9569740616358
 20
2.36839999999762
 30
0.0
 11
21.63688370661101
 21
4.688490355022409
 31
0.0
  0
LINE
  5
E64D
330
E61A
100
AcDbEntity
  8
0
  6
CONTINUOUS
100
AcDbLine
 10
26.96579327072237
 20
0.0330999999912356
 30
0.0
 11
25.2554132311971
 21
1.743480039516508
 31
0.0
  0
LINE
  5
E64E
330
E61A
100
AcDbEntity
  8
0
  6
CONTINUOUS
100
AcDbLine
 10
24.63049327071599
 20
2.36839999999762
 30
0.0
 11
23.32789327071731
 21
3.670999999996297
 31
0.0
  0
LINE
  5
E64F
330
E61A
100
AcDbEntity
  8
0
  6
CONTINUOUS
100
AcDbLine
 10
22.92098674744635
 20
4.077906523267254
 30
0.0
 11
21.84508681208164
 21
5.153806458631966
 31
0.0
  0
LINE
  5
E650
330
E61A
100
AcDbEntity
  8
0
  6
CONTINUOUS
100
AcDbLine
 10
27.63931247980256
 20
0.0330999999912356
 30
0.0
 11
24.0014124797975
 21
3.670999999996297
 31
0.0
  0
LINE
  5
E651
330
E61A
100
AcDbEntity
  8
0
  6
CONTINUOUS
100
AcDbLine
 10
23.129125600968
 20
4.5432868788258
 30
0.0
 11
22.05328991755227
 21
5.619122562241522
 31
0.0
  0
LINE
  5
E652
330
E61A
100
AcDbEntity
  8
0
  6
CONTINUOUS
100
AcDbLine
 10
28.31283168888275
 20
0.0330999999912356
 30
0.0
 11
24.16488385994816
 21
4.181047828925828
 31
0.0
  0
LINE
  5
E653
330
E61A
100
AcDbEntity
  8
0
  6
CONTINUOUS
100
AcDbLine
 10
23.33726445448964
 20
5.008667234384345
 30
0.0
 11
22.2614930230229
 21
6.084438665851079
 31
0.0
  0
LINE
  5
E654
330
E61A
100
AcDbEntity
  8
0
  6
CONTINUOUS
100
AcDbLine
 10
28.92085740005492
 20
0.0985934978992438
 30
0.0
 11
27.63635089796295
 21
1.383099999991217
 31
0.0
  0
LINE
  5
E655
330
E61A
100
AcDbEntity
  8
0
  6
CONTINUOUS
100
AcDbLine
 10
26.43704649509776
 20
2.582404402856405
 30
0.0
 11
23.61992702019732
 21
5.399523877756844
 31
0.0
  0
LINE
  5
E656
330
E61A
100
AcDbEntity
  8
0
  6
CONTINUOUS
100
AcDbLine
 10
23.54540330801128
 20
5.47404758994289
 30
0.0
 11
22.46969612849353
 21
6.549754769460635
 31
0.0
  0
LINE
  5
E657
330
E61A
100
AcDbEntity
  8
0
  6
CONTINUOUS
100
AcDbLine
 10
29.42225615078443
 20
0.2707139562499279
 30
0.0
 11
28.30987010704312
 21
1.383099999991234
 31
0.0
  0
LINE
  5
E658
330
E61A
100
AcDbEntity
  8
0
  6
CONTINUOUS
100
AcDbLine
 10
25.89179548232307
 20
3.801174624711282
 30
0.0
 11
22.67789923396416
 21
7.015070873070191
 31
0.0
  0
LINE
  5
E659
330
E61A
100
AcDbEntity
  8
0
  6
CONTINUOUS
100
AcDbLine
 10
29.83624534690007
 20
0.5302439692144705
 30
0.0
 11
28.85811781497101
 21
1.508371501143527
 31
0.0
  0
LINE
  5
E65A
330
E61A
100
AcDbEntity
  8
0
  6
CONTINUOUS
100
AcDbLine
 10
25.34654446954838
 20
5.01994484656616
 30
0.0
 11
22.88610233943479
 21
7.480386976679748
 31
0.0
  0
LINE
  5
E65B
330
E61A
100
AcDbEntity
  8
0
  6
CONTINUOUS
100
AcDbLine
 10
30.17865975401872
 20
0.8613487711760022
 30
0.0
 11
29.18888744090175
 21
1.851121084292977
 31
0.0
  0
LINE
  5
E65C
330
E61A
100
AcDbEntity
  8
0
  6
CONTINUOUS
100
AcDbLine
 10
24.80129345677369
 20
6.238715068421037
 30
0.0
 11
23.09430544490542
 21
7.945703080289305
 31
0.0
  0
LINE
  5
E65D
330
E61A
100
AcDbEntity
  8
0
  6
CONTINUOUS
100
AcDbLine
 10
30.45496647202376
 20
1.258561262251155
 30
0.0
 11
29.30199999996933
 21
2.411527734305588
 31
0.0
  0
LINE
  5
E65E
330
E61A
100
AcDbEntity
  8
0
  6
CONTINUOUS
100
AcDbLine
 10
24.256042443999
 20
7.457485290275915
 30
0.0
 11
23.30250855037605
 21
8.411019183898862
 31
0.0
  0
LINE
  5
E65F
330
E61A
100
AcDbEntity
  8
0
  6
CONTINUOUS
100
AcDbLine
 10
30.64868582078271
 20
1.738361122572387
 30
0.0
 11
29.30199999996933
 21
3.085046943385775
 31
0.0
  0
LINE
  5
E660
330
E61A
100
AcDbEntity
  8
0
  6
CONTINUOUS
100
AcDbLine
 10
23.71079143122431
 20
8.676255512130794
 30
0.0
 11
23.51071165584668
 21
8.876335287508416
 31
0.0
  0
LINE
  5
E661
330
E61A
100
AcDbEntity
  8
0
  6
CONTINUOUS
100
AcDbLine
 10
30.73802122914428
 20
2.322544923291007
 30
0.0
 11
29.30199999996933
 21
3.758566152465961
 31
0.0
  0
LINE
  5
E662
330
E61A
100
AcDbEntity
  8
0
  6
CONTINUOUS
100
AcDbLine
 10
30.74199999996924
 20
2.992085361546236
 30
0.0
 11
29.30199999996933
 21
4.432085361546148
 31
0.0
  0
LINE
  5
E663
330
E61A
100
AcDbEntity
  8
0
  6
CONTINUOUS
100
AcDbLine
 10
30.74199999996924
 20
3.665604570626419
 30
0.0
 11
29.30199999996933
 21
5.105604570626333
 31
0.0
  0
LINE
  5
E664
330
E61A
100
AcDbEntity
  8
0
  6
CONTINUOUS
100
AcDbLine
 10
30.74199999996925
 20
4.339123779706602
 30
0.0
 11
29.30199999996933
 21
5.77912377970652
 31
0.0
  0
LINE
  5
E665
330
E61A
100
AcDbEntity
  8
0
  6
CONTINUOUS
100
AcDbLine
 10
30.74199999996925
 20
5.012642988786785
 30
0.0
 11
29.30199999996933
 21
6.452642988786707
 31
0.0
  0
LINE
  5
E666
330
E61A
100
AcDbEntity
  8
0
  6
CONTINUOUS
100
AcDbLine
 10
30.74199999996925
 20
5.68616219786697
 30
0.0
 11
29.30199999996933
 21
7.126162197866894
 31
0.0
  0
LINE
  5
E667
330
E61A
100
AcDbEntity
  8
0
  6
CONTINUOUS
100
AcDbLine
 10
30.74199999996925
 20
6.359681406947153
 30
0.0
 11
29.30199999996933
 21
7.799681406947081
 31
0.0
  0
LINE
  5
E668
330
E61A
100
AcDbEntity
  8
0
  6
CONTINUOUS
100
AcDbLine
 10
30.74199999996926
 20
7.033200616027337
 30
0.0
 11
29.30199999996933
 21
8.473200616027269
 31
0.0
  0
LINE
  5
E669
330
E61A
100
AcDbEntity
  8
0
  6
CONTINUOUS
100
AcDbLine
 10
30.74199999996926
 20
7.706719825107518
 30
0.0
 11
29.68561982508552
 21
8.763099999991255
 31
0.0
  0
LINE
  5
E66A
330
E61A
100
AcDbEntity
  8
0
  6
CONTINUOUS
100
AcDbLine
 10
30.74199999996926
 20
8.380239034187703
 30
0.0
 11
30.35913903416571
 21
8.763099999991255
 31
0.0
  0
ENDBLK
  5
E70D
330
E61A
100
AcDbEntity
  8
0
100
AcDbBlockEnd
  0
BLOCK
  5
E70E
330
E66B
100
AcDbEntity
  8
0
100
AcDbBlockBegin
  2
*X16
 70
     1
 10
0.0
 20
0.0
 30
0.0
  3
*X16
  1

  0
LINE
  5
E66C
330
E66B
100
AcDbEntity
  8
0
  6
CONTINUOUS
100
AcDbLine
 10
31.64199999996833
 20
8.535058289913598
 30
0.0
 11
31.87004171004599
 21
8.763099999991255
 31
0.0
  0
LINE
  5
E66D
330
E66B
100
AcDbEntity
  8
0
  6
CONTINUOUS
100
AcDbLine
 10
31.64199999996833
 20
7.861539080833412
 30
0.0
 11
32.54356091912618
 21
8.763099999991255
 31
0.0
  0
LINE
  5
E66E
330
E66B
100
AcDbEntity
  8
0
  6
CONTINUOUS
100
AcDbLine
 10
31.64199999996833
 20
7.188019871753226
 30
0.0
 11
33.08199999996839
 21
8.628019871753281
 31
0.0
  0
LINE
  5
E66F
330
E66B
100
AcDbEntity
  8
0
  6
CONTINUOUS
100
AcDbLine
 10
31.64199999996833
 20
6.51450066267304
 30
0.0
 11
33.08199999996839
 21
7.954500662673095
 31
0.0
  0
LINE
  5
E670
330
E66B
100
AcDbEntity
  8
0
  6
CONTINUOUS
100
AcDbLine
 10
31.64199999996833
 20
5.840981453592853
 30
0.0
 11
33.08199999996839
 21
7.280981453592908
 31
0.0
  0
LINE
  5
E671
330
E66B
100
AcDbEntity
  8
0
  6
CONTINUOUS
100
AcDbLine
 10
31.64199999996833
 20
5.167462244512667
 30
0.0
 11
33.08199999996839
 21
6.607462244512721
 31
0.0
  0
LINE
  5
E672
330
E66B
100
AcDbEntity
  8
0
  6
CONTINUOUS
100
AcDbLine
 10
31.64199999996833
 20
4.493943035432481
 30
0.0
 11
33.08199999996839
 21
5.933943035432535
 31
0.0
  0
LINE
  5
E673
330
E66B
100
AcDbEntity
  8
0
  6
CONTINUOUS
100
AcDbLine
 10
31.64199999996833
 20
3.820423826352293
 30
0.0
 11
33.08199999996839
 21
5.260423826352348
 31
0.0
  0
LINE
  5
E674
330
E66B
100
AcDbEntity
  8
0
  6
CONTINUOUS
100
AcDbLine
 10
31.64199999996833
 20
3.146904617272106
 30
0.0
 11
33.08199999996839
 21
4.586904617272161
 31
0.0
  0
LINE
  5
E675
330
E66B
100
AcDbEntity
  8
0
  6
CONTINUOUS
100
AcDbLine
 10
36.23199999996837
 20
8.410423826352325
 30
0.0
 11
36.5846761736073
 21
8.763099999991255
 31
0.0
  0
LINE
  5
E676
330
E66B
100
AcDbEntity
  8
0
  6
CONTINUOUS
100
AcDbLine
 10
36.23199999996837
 20
7.73690461727214
 30
0.0
 11
37.25819538268748
 21
8.763099999991255
 31
0.0
  0
LINE
  5
E677
330
E66B
100
AcDbEntity
  8
0
  6
CONTINUOUS
100
AcDbLine
 10
31.64257403601376
 20
2.473959444237348
 30
0.0
 11
33.08199999996839
 21
3.913385408191974
 31
0.0
  0
LINE
  5
E678
330
E66B
100
AcDbEntity
  8
0
  6
CONTINUOUS
100
AcDbLine
 10
36.23199999996837
 20
7.063385408191953
 30
0.0
 11
37.67199999996831
 21
8.503385408191894
 31
0.0
  0
LINE
  5
E679
330
E66B
100
AcDbEntity
  8
0
  6
CONTINUOUS
100
AcDbLine
 10
31.72013636841932
 20
1.87800256756272
 30
0.0
 11
33.08199999996839
 21
3.239866199111788
 31
0.0
  0
LINE
  5
E67A
330
E66B
100
AcDbEntity
  8
0
  6
CONTINUOUS
100
AcDbLine
 10
36.23199999996837
 20
6.389866199111767
 30
0.0
 11
37.67199999996831
 21
7.829866199111708
 31
0.0
  0
LINE
  5
E67B
330
E66B
100
AcDbEntity
  8
0
  6
CONTINUOUS
100
AcDbLine
 10
31.89042734314753
 20
1.374774333210744
 30
0.0
 11
33.08199999996839
 21
2.566346990031601
 31
0.0
  0
LINE
  5
E67C
330
E66B
100
AcDbEntity
  8
0
  6
CONTINUOUS
100
AcDbLine
 10
36.23199999996837
 20
5.71634699003158
 30
0.0
 11
37.67199999996831
 21
7.156346990031521
 31
0.0
  0
LINE
  5
E67D
330
E66B
100
AcDbEntity
  8
0
  6
CONTINUOUS
100
AcDbLine
 10
32.14210568064475
 20
0.952933461627778
 30
0.0
 11
33.18745552475986
 21
1.998283305742888
 31
0.0
  0
LINE
  5
E67E
330
E66B
100
AcDbEntity
  8
0
  6
CONTINUOUS
100
AcDbLine
 10
36.23199999996837
 20
5.042827780951393
 30
0.0
 11
37.67199999996831
 21
6.482827780951334
 31
0.0
  0
LINE
  5
E67F
330
E66B
100
AcDbEntity
  8
0
  6
CONTINUOUS
100
AcDbLine
 10
32.45820639400955
 20
0.5955149659123915
 30
0.0
 11
33.47242681921943
 21
1.60973539112227
 31
0.0
  0
LINE
  5
E680
330
E66B
100
AcDbEntity
  8
0
  6
CONTINUOUS
100
AcDbLine
 10
36.23199999996837
 20
4.369308571871207
 30
0.0
 11
37.67199999996831
 21
5.809308571871147
 31
0.0
  0
LINE
  5
E681
330
E66B
100
AcDbEntity
  8
0
  6
CONTINUOUS
100
AcDbLine
 10
32.83432456621412
 20
0.2981139290367771
 30
0.0
 11
33.89722476612215
 21
1.361014128944803
 31
0.0
  0
LINE
  5
E682
330
E66B
100
AcDbEntity
  8
0
  6
CONTINUOUS
100
AcDbLine
 10
36.23199999996837
 20
3.69578936279102
 30
0.0
 11
37.67199999996831
 21
5.135789362790962
 31
0.0
  0
LINE
  5
E683
330
E66B
100
AcDbEntity
  8
0
  6
CONTINUOUS
100
AcDbLine
 10
33.2711633111245
 20
0.0614334648669672
 30
0.0
 11
34.43247338014423
 21
1.222743533886696
 31
0.0
  0
LINE
  5
E684
330
E66B
100
AcDbEntity
  8
0
  6
CONTINUOUS
100
AcDbLine
 10
36.23199999996837
 20
3.022270153710834
 30
0.0
 11
37.67199999996831
 21
4.462270153710775
 31
0.0
  0
LINE
  5
E685
330
E66B
100
AcDbEntity
  8
0
  6
CONTINUOUS
100
AcDbLine
 10
33.76515245874577
 20
-0.1180965965919523
 30
0.0
 11
35.1587445516215
 21
1.27549549628378
 31
0.0
  0
LINE
  5
E686
330
E66B
100
AcDbEntity
  8
0
  6
CONTINUOUS
100
AcDbLine
 10
36.21639478609585
 20
2.333145730758136
 30
0.0
 11
37.67199999996831
 21
3.788750944630588
 31
0.0
  0
LINE
  5
E687
330
E66B
100
AcDbEntity
  8
0
  6
CONTINUOUS
100
AcDbLine
 10
34.34060583368432
 20
-0.2161624307335863
 30
0.0
 11
37.67199999996831
 21
3.115231735550401
 31
0.0
  0
LINE
  5
E688
330
E66B
100
AcDbEntity
  8
0
  6
CONTINUOUS
100
AcDbLine
 10
35.01698193613905
 20
-0.2133055373590427
 30
0.0
 11
37.66876712070525
 21
2.438479647207154
 31
0.0
  0
LINE
  5
E689
330
E66B
100
AcDbEntity
  8
0
  6
CONTINUOUS
100
AcDbLine
 10
35.90743367693304
 20
0.0036269943547609
 30
0.0
 11
37.51723902192366
 21
1.613432339345381
 31
0.0
  0
LINE
  5
E68A
330
E66B
100
AcDbEntity
  8
0
  6
CONTINUOUS
100
AcDbLine
 10
32.55309425579761
 20
0.5074718966376706
 30
0.0
 11
32.27784730925847
 21
0.7827188431768102
 31
0.0
  0
LINE
  5
E68B
330
E66B
100
AcDbEntity
  8
0
  6
CONTINUOUS
100
AcDbLine
 10
33.87496468909684
 20
-0.1408793275813673
 30
0.0
 11
31.67993083278052
 21
2.054154528734943
 31
0.0
  0
LINE
  5
E68C
330
E66B
100
AcDbEntity
  8
0
  6
CONTINUOUS
100
AcDbLine
 10
34.64362813207632
 20
-0.2360235614806649
 30
0.0
 11
31.64199999996833
 21
2.765604570627322
 31
0.0
  0
LINE
  5
E68D
330
E66B
100
AcDbEntity
  8
0
  6
CONTINUOUS
100
AcDbLine
 10
35.25801106796118
 20
-0.1768872882853429
 30
0.0
 11
31.64199999996833
 21
3.439123779707508
 31
0.0
  0
LINE
  5
E68E
330
E66B
100
AcDbEntity
  8
0
  6
CONTINUOUS
100
AcDbLine
 10
35.79065650332146
 20
-0.0360135145654361
 30
0.0
 11
34.54143210838231
 21
1.213210880373721
 31
0.0
  0
LINE
  5
E68F
330
E66B
100
AcDbEntity
  8
0
  6
CONTINUOUS
100
AcDbLine
 10
33.08199999996839
 20
2.67264298878764
 30
0.0
 11
31.64199999996833
 21
4.112642988787695
 31
0.0
  0
LINE
  5
E690
330
E66B
100
AcDbEntity
  8
0
  6
CONTINUOUS
100
AcDbLine
 10
36.25975597779143
 20
0.1684062200447833
 30
0.0
 11
35.15395110240023
 21
1.274211095435983
 31
0.0
  0
LINE
  5
E691
330
E66B
100
AcDbEntity
  8
0
  6
CONTINUOUS
100
AcDbLine
 10
33.08199999996839
 20
3.346162197867826
 30
0.0
 11
31.64199999996833
 21
4.786162197867881
 31
0.0
  0
LINE
  5
E692
330
E66B
100
AcDbEntity
  8
0
  6
CONTINUOUS
100
AcDbLine
 10
36.67226329638774
 20
0.4294181105286579
 30
0.0
 11
35.63766478748767
 21
1.464016619428737
 31
0.0
  0
LINE
  5
E693
330
E66B
100
AcDbEntity
  8
0
  6
CONTINUOUS
100
AcDbLine
 10
33.08199999996839
 20
4.019681406948012
 30
0.0
 11
31.64199999996833
 21
5.459681406948068
 31
0.0
  0
LINE
  5
E694
330
E66B
100
AcDbEntity
  8
0
  6
CONTINUOUS
100
AcDbLine
 10
37.01677749710036
 20
0.7584231188962329
 30
0.0
 11
35.99563422741351
 21
1.779566388583076
 31
0.0
  0
LINE
  5
E695
330
E66B
100
AcDbEntity
  8
0
  6
CONTINUOUS
100
AcDbLine
 10
33.08199999996839
 20
4.693200616028199
 30
0.0
 11
31.64199999996833
 21
6.133200616028255
 31
0.0
  0
LINE
  5
E696
330
E66B
100
AcDbEntity
  8
0
  6
CONTINUOUS
100
AcDbLine
 10
37.29859977568887
 20
1.1501200493879
 30
0.0
 11
36.20680593341555
 21
2.241913891661226
 31
0.0
  0
LINE
  5
E697
330
E66B
100
AcDbEntity
  8
0
  6
CONTINUOUS
100
AcDbLine
 10
33.08199999996839
 20
5.366719825108386
 30
0.0
 11
31.64199999996833
 21
6.80671982510844
 31
0.0
  0
LINE
  5
E698
330
E66B
100
AcDbEntity
  8
0
  6
CONTINUOUS
100
AcDbLine
 10
37.5148623517228
 20
1.607376682434161
 30
0.0
 11
36.23199999996837
 21
2.890239034188594
 31
0.0
  0
LINE
  5
E699
330
E66B
100
AcDbEntity
  8
0
  6
CONTINUOUS
100
AcDbLine
 10
33.08199999996839
 20
6.040239034188573
 30
0.0
 11
31.64199999996833
 21
7.480239034188627
 31
0.0
  0
LINE
  5
E69A
330
E66B
100
AcDbEntity
  8
0
  6
CONTINUOUS
100
AcDbLine
 10
37.64705163358367
 20
2.148706609653477
 30
0.0
 11
36.23199999996837
 21
3.56375824326878
 31
0.0
  0
LINE
  5
E69B
330
E66B
100
AcDbEntity
  8
0
  6
CONTINUOUS
100
AcDbLine
 10
33.08199999996839
 20
6.713758243268758
 30
0.0
 11
31.64199999996833
 21
8.153758243268815
 31
0.0
  0
LINE
  5
E69C
330
E66B
100
AcDbEntity
  8
0
  6
CONTINUOUS
100
AcDbLine
 10
37.67199999996831
 20
2.797277452349026
 30
0.0
 11
36.23199999996837
 21
4.237277452348967
 31
0.0
  0
LINE
  5
E69D
330
E66B
100
AcDbEntity
  8
0
  6
CONTINUOUS
100
AcDbLine
 10
37.67199999996831
 20
3.470796661429213
 30
0.0
 11
36.23199999996837
 21
4.910796661429154
 31
0.0
  0
LINE
  5
E69E
330
E66B
100
AcDbEntity
  8
0
  6
CONTINUOUS
100
AcDbLine
 10
37.67199999996831
 20
4.144315870509399
 30
0.0
 11
36.23199999996837
 21
5.58431587050934
 31
0.0
  0
LINE
  5
E69F
330
E66B
100
AcDbEntity
  8
0
  6
CONTINUOUS
100
AcDbLine
 10
33.08199999996839
 20
7.387277452348945
 30
0.0
 11
31.70617745232608
 21
8.763099999991255
 31
0.0
  0
LINE
  5
E6A0
330
E66B
100
AcDbEntity
  8
0
  6
CONTINUOUS
100
AcDbLine
 10
33.08199999996839
 20
8.060796661429132
 30
0.0
 11
32.37969666140626
 21
8.763099999991255
 31
0.0
  0
LINE
  5
E6A1
330
E66B
100
AcDbEntity
  8
0
  6
CONTINUOUS
100
AcDbLine
 10
33.08199999996839
 20
8.734315870509318
 30
0.0
 11
33.05321587048645
 21
8.763099999991255
 31
0.0
  0
LINE
  5
E6A2
330
E66B
100
AcDbEntity
  8
0
  6
CONTINUOUS
100
AcDbLine
 10
37.67199999996831
 20
4.817835079589585
 30
0.0
 11
36.23199999996837
 21
6.257835079589526
 31
0.0
  0
LINE
  5
E6A3
330
E66B
100
AcDbEntity
  8
0
  6
CONTINUOUS
100
AcDbLine
 10
37.67199999996831
 20
5.491354288669771
 30
0.0
 11
36.23199999996837
 21
6.931354288669713
 31
0.0
  0
LINE
  5
E6A4
330
E66B
100
AcDbEntity
  8
0
  6
CONTINUOUS
100
AcDbLine
 10
37.67199999996831
 20
6.164873497749958
 30
0.0
 11
36.23199999996837
 21
7.6048734977499
 31
0.0
  0
LINE
  5
E6A5
330
E66B
100
AcDbEntity
  8
0
  6
CONTINUOUS
100
AcDbLine
 10
37.67199999996831
 20
6.838392706830144
 30
0.0
 11
36.23199999996837
 21
8.278392706830086
 31
0.0
  0
LINE
  5
E6A6
330
E66B
100
AcDbEntity
  8
0
  6
CONTINUOUS
100
AcDbLine
 10
37.67199999996831
 20
7.511911915910332
 30
0.0
 11
36.42081191588738
 21
8.763099999991255
 31
0.0
  0
LINE
  5
E6A7
330
E66B
100
AcDbEntity
  8
0
  6
CONTINUOUS
100
AcDbLine
 10
37.67199999996831
 20
8.185431124990519
 30
0.0
 11
37.09433112496757
 21
8.763099999991255
 31
0.0
  0
ENDBLK
  5
E70F
330
E66B
100
AcDbEntity
  8
0
100
AcDbBlockEnd
  0
BLOCK
  5
E710
330
E6A8
100
AcDbEntity
  8
0
100
AcDbBlockBegin
  2
*X17
 70
     1
 10
0.0
 20
0.0
 30
0.0
  3
*X17
  1

  0
LINE
  5
E6A9
330
E6A8
100
AcDbEntity
  8
0
  6
CONTINUOUS
100
AcDbLine
 10
38.60499999996136
 20
8.762866199104765
 30
0.0
 11
38.71672554182345
 21
8.874591740966855
 31
0.0
  0
LINE
  5
E6AA
330
E6A8
100
AcDbEntity
  8
0
  6
CONTINUOUS
100
AcDbLine
 10
38.60499999996136
 20
8.089346990024577
 30
0.0
 11
39.03418785440363
 21
8.518534844466847
 31
0.0
  0
LINE
  5
E6AB
330
E6A8
100
AcDbEntity
  8
0
  6
CONTINUOUS
100
AcDbLine
 10
38.60499999996136
 20
7.41582778094439
 30
0.0
 11
39.35165016698382
 21
8.16247794796684
 31
0.0
  0
LINE
  5
E6AC
330
E6A8
100
AcDbEntity
  8
0
  6
CONTINUOUS
100
AcDbLine
 10
38.60499999996136
 20
6.742308571864204
 30
0.0
 11
39.66911247956399
 21
7.806421051466834
 31
0.0
  0
LINE
  5
E6AD
330
E6A8
100
AcDbEntity
  8
0
  6
CONTINUOUS
100
AcDbLine
 10
38.60499999996136
 20
6.068789362784018
 30
0.0
 11
39.98657479214418
 21
7.450364154966827
 31
0.0
  0
LINE
  5
E6AE
330
E6A8
100
AcDbEntity
  8
0
  6
CONTINUOUS
100
AcDbLine
 10
38.60499999996136
 20
5.395270153703832
 30
0.0
 11
40.30403710472435
 21
7.09430725846682
 31
0.0
  0
LINE
  5
E6AF
330
E6A8
100
AcDbEntity
  8
0
  6
CONTINUOUS
100
AcDbLine
 10
38.60499999996136
 20
4.721750944623645
 30
0.0
 11
40.62149941730453
 21
6.738250361966813
 31
0.0
  0
LINE
  5
E6B0
330
E6A8
100
AcDbEntity
  8
0
  6
CONTINUOUS
100
AcDbLine
 10
38.60499999996136
 20
4.048231735543458
 30
0.0
 11
40.93896172988471
 21
6.382193465466806
 31
0.0
  0
LINE
  5
E6B1
330
E6A8
100
AcDbEntity
  8
0
  6
CONTINUOUS
100
AcDbLine
 10
38.60499999996136
 20
3.374712526463272
 30
0.0
 11
40.02599999995994
 21
4.795712526461843
 31
0.0
  0
LINE
  5
E6B2
330
E6A8
100
AcDbEntity
  8
0
  6
CONTINUOUS
100
AcDbLine
 10
38.60499999996136
 20
2.701193317383085
 30
0.0
 11
40.02599999995994
 21
4.122193317381657
 31
0.0
  0
LINE
  5
E6B3
330
E6A8
100
AcDbEntity
  8
0
  6
CONTINUOUS
100
AcDbLine
 10
40.28339754687704
 20
5.053110073378947
 30
0.0
 11
41.25642404246489
 21
6.026136568966799
 31
0.0
  0
LINE
  5
E6B4
330
E6A8
100
AcDbEntity
  8
0
  6
CONTINUOUS
100
AcDbLine
 10
40.60085985945722
 20
4.697053176878939
 30
0.0
 11
41.57388635504507
 21
5.670079672466793
 31
0.0
  0
LINE
  5
E6B5
330
E6A8
100
AcDbEntity
  8
0
  6
CONTINUOUS
100
AcDbLine
 10
43.57899999995641
 20
8.348712526458318
 30
0.0
 11
43.99338747348935
 21
8.763099999991255
 31
0.0
  0
LINE
  5
E6B6
330
E6A8
100
AcDbEntity
  8
0
  6
CONTINUOUS
100
AcDbLine
 10
43.57899999995641
 20
7.675193317378131
 30
0.0
 11
44.66690668256953
 21
8.763099999991255
 31
0.0
  0
LINE
  5
E6B7
330
E6A8
100
AcDbEntity
  8
0
  6
CONTINUOUS
100
AcDbLine
 10
38.60499999996136
 20
2.027674108302898
 30
0.0
 11
40.02599999995994
 21
3.44867410830147
 31
0.0
  0
LINE
  5
E6B8
330
E6A8
100
AcDbEntity
  8
0
  6
CONTINUOUS
100
AcDbLine
 10
38.60499999996136
 20
1.354154899222712
 30
0.0
 11
40.02599999995994
 21
2.775154899221284
 31
0.0
  0
LINE
  5
E6B9
330
E6A8
100
AcDbEntity
  8
0
  6
CONTINUOUS
100
AcDbLine
 10
38.60499999996136
 20
0.6806356901425255
 30
0.0
 11
40.02599999995994
 21
2.101635690141098
 31
0.0
  0
LINE
  5
E6BA
330
E6A8
100
AcDbEntity
  8
0
  6
CONTINUOUS
100
AcDbLine
 10
38.60499999996136
 20
0.0071164810623383
 30
0.0
 11
40.02599999995994
 21
1.428116481060911
 31
0.0
  0
LINE
  5
E6BB
330
E6A8
100
AcDbEntity
  8
0
  6
CONTINUOUS
100
AcDbLine
 10
40.9183221720374
 20
4.340996280378933
 30
0.0
 11
41.89134866762525
 21
5.314022775966786
 31
0.0
  0
LINE
  5
E6BC
330
E6A8
100
AcDbEntity
  8
0
  6
CONTINUOUS
100
AcDbLine
 10
41.23578448461758
 20
3.984939383878926
 30
0.0
 11
42.20881098020543
 21
4.957965879466778
 31
0.0
  0
LINE
  5
E6BD
330
E6A8
100
AcDbEntity
  8
0
  6
CONTINUOUS
100
AcDbLine
 10
41.55324679719776
 20
3.628882487378919
 30
0.0
 11
42.52627329278561
 21
4.601908982966772
 31
0.0
  0
LINE
  5
E6BE
330
E6A8
100
AcDbEntity
  8
0
  6
CONTINUOUS
100
AcDbLine
 10
41.87070910977793
 20
3.272825590878912
 30
0.0
 11
42.84373560536579
 21
4.245852086466765
 31
0.0
  0
LINE
  5
E6BF
330
E6A8
100
AcDbEntity
  8
0
  6
CONTINUOUS
100
AcDbLine
 10
43.57899999995641
 20
7.001674108297943
 30
0.0
 11
44.99999999995498
 21
8.422674108296516
 31
0.0
  0
LINE
  5
E6C0
330
E6A8
100
AcDbEntity
  8
0
  6
CONTINUOUS
100
AcDbLine
 10
43.57899999995641
 20
6.328154899217758
 30
0.0
 11
44.99999999995498
 21
7.749154899216329
 31
0.0
  0
LINE
  5
E6C1
330
E6A8
100
AcDbEntity
  8
0
  6
CONTINUOUS
100
AcDbLine
 10
43.57899999995641
 20
5.654635690137571
 30
0.0
 11
44.99999999995498
 21
7.075635690136142
 31
0.0
  0
LINE
  5
E6C2
330
E6A8
100
AcDbEntity
  8
0
  6
CONTINUOUS
100
AcDbLine
 10
43.57899999995641
 20
4.981116481057384
 30
0.0
 11
44.99999999995498
 21
6.402116481055955
 31
0.0
  0
LINE
  5
E6C3
330
E6A8
100
AcDbEntity
  8
0
  6
CONTINUOUS
100
AcDbLine
 10
39.27140272797921
 20
-0.0000000000000009
 30
0.0
 11
40.02599999995994
 21
0.7545972719807246
 31
0.0
  0
LINE
  5
E6C4
330
E6A8
100
AcDbEntity
  8
0
  6
CONTINUOUS
100
AcDbLine
 10
39.9449219370594
 20
-0.0000000000000009
 30
0.0
 11
40.02599999995994
 21
0.0810780629005379
 31
0.0
  0
LINE
  5
E6C5
330
E6A8
100
AcDbEntity
  8
0
  6
CONTINUOUS
100
AcDbLine
 10
42.18817142235812
 20
2.916768694378905
 30
0.0
 11
43.16119791794597
 21
3.889795189966758
 31
0.0
  0
LINE
  5
E6C6
330
E6A8
100
AcDbEntity
  8
0
  6
CONTINUOUS
100
AcDbLine
 10
42.50563373493829
 20
2.560711797878898
 30
0.0
 11
43.47866023052615
 21
3.533738293466751
 31
0.0
  0
LINE
  5
E6C7
330
E6A8
100
AcDbEntity
  8
0
  6
CONTINUOUS
100
AcDbLine
 10
43.57899999995641
 20
4.307597271977198
 30
0.0
 11
44.99999999995498
 21
5.728597271975769
 31
0.0
  0
LINE
  5
E6C8
330
E6A8
100
AcDbEntity
  8
0
  6
CONTINUOUS
100
AcDbLine
 10
43.57899999995641
 20
3.634078062897011
 30
0.0
 11
44.99999999995498
 21
5.055078062895582
 31
0.0
  0
LINE
  5
E6C9
330
E6A8
100
AcDbEntity
  8
0
  6
CONTINUOUS
100
AcDbLine
 10
42.82309604751848
 20
2.204654901378891
 30
0.0
 11
44.99999999995498
 21
4.381558853815395
 31
0.0
  0
LINE
  5
E6CA
330
E6A8
100
AcDbEntity
  8
0
  6
CONTINUOUS
100
AcDbLine
 10
43.14055836009865
 20
1.848598004878885
 30
0.0
 11
44.99999999995498
 21
3.70803964473521
 31
0.0
  0
LINE
  5
E6CB
330
E6A8
100
AcDbEntity
  8
0
  6
CONTINUOUS
100
AcDbLine
 10
43.45802067267883
 20
1.492541108378878
 30
0.0
 11
44.99999999995498
 21
3.034520435655023
 31
0.0
  0
LINE
  5
E6CC
330
E6A8
100
AcDbEntity
  8
0
  6
CONTINUOUS
100
AcDbLine
 10
43.77548298525902
 20
1.136484211878871
 30
0.0
 11
44.99999999995498
 21
2.361001226574837
 31
0.0
  0
LINE
  5
E6CD
330
E6A8
100
AcDbEntity
  8
0
  6
CONTINUOUS
100
AcDbLine
 10
44.09294529783919
 20
0.7804273153788639
 30
0.0
 11
44.99999999995498
 21
1.687482017494649
 31
0.0
  0
LINE
  5
E6CE
330
E6A8
100
AcDbEntity
  8
0
  6
CONTINUOUS
100
AcDbLine
 10
44.41040761041938
 20
0.4243704188788566
 30
0.0
 11
44.99999999995498
 21
1.013962808414463
 31
0.0
  0
LINE
  5
E6CF
330
E6A8
100
AcDbEntity
  8
0
  6
CONTINUOUS
100
AcDbLine
 10
44.72786992299955
 20
0.0683135223788494
 30
0.0
 11
44.99999999995498
 21
0.340443599334276
 31
0.0
  0
LINE
  5
E6D0
330
E6A8
100
AcDbEntity
  8
0
  6
CONTINUOUS
100
AcDbLine
 10
39.12223903415696
 20
-0.0000000000000009
 30
0.0
 11
38.60499999996136
 21
0.5172390341955961
 31
0.0
  0
LINE
  5
E6D1
330
E6A8
100
AcDbEntity
  8
0
  6
CONTINUOUS
100
AcDbLine
 10
39.79575824323715
 20
-0.0000000000000009
 30
0.0
 11
38.60499999996136
 21
1.190758243275783
 31
0.0
  0
LINE
  5
E6D2
330
E6A8
100
AcDbEntity
  8
0
  6
CONTINUOUS
100
AcDbLine
 10
40.02599999995994
 20
0.443277452357397
 30
0.0
 11
38.60499999996136
 21
1.864277452355969
 31
0.0
  0
LINE
  5
E6D3
330
E6A8
100
AcDbEntity
  8
0
  6
CONTINUOUS
100
AcDbLine
 10
40.02599999995994
 20
1.116796661437583
 30
0.0
 11
38.60499999996136
 21
2.537796661436155
 31
0.0
  0
LINE
  5
E6D4
330
E6A8
100
AcDbEntity
  8
0
  6
CONTINUOUS
100
AcDbLine
 10
40.02599999995994
 20
1.79031587051777
 30
0.0
 11
38.60499999996136
 21
3.211315870516341
 31
0.0
  0
LINE
  5
E6D5
330
E6A8
100
AcDbEntity
  8
0
  6
CONTINUOUS
100
AcDbLine
 10
40.02599999995994
 20
2.463835079597956
 30
0.0
 11
38.60499999996136
 21
3.884835079596527
 31
0.0
  0
LINE
  5
E6D6
330
E6A8
100
AcDbEntity
  8
0
  6
CONTINUOUS
100
AcDbLine
 10
40.02599999995994
 20
3.137354288678143
 30
0.0
 11
38.60499999996136
 21
4.558354288676714
 31
0.0
  0
LINE
  5
E6D7
330
E6A8
100
AcDbEntity
  8
0
  6
CONTINUOUS
100
AcDbLine
 10
40.02599999995994
 20
3.810873497758329
 30
0.0
 11
38.60499999996136
 21
5.2318734977569
 31
0.0
  0
LINE
  5
E6D8
330
E6A8
100
AcDbEntity
  8
0
  6
CONTINUOUS
100
AcDbLine
 10
40.02599999995994
 20
4.484392706838515
 30
0.0
 11
38.60499999996136
 21
5.905392706837086
 31
0.0
  0
LINE
  5
E6D9
330
E6A8
100
AcDbEntity
  8
0
  6
CONTINUOUS
100
AcDbLine
 10
44.99999999995498
 20
0.183911915923658
 30
0.0
 11
41.53858364506288
 21
3.64532827081576
 31
0.0
  0
LINE
  5
E6DA
330
E6A8
100
AcDbEntity
  8
0
  6
CONTINUOUS
100
AcDbLine
 10
40.02599999995994
 20
5.157911915918703
 30
0.0
 11
38.60499999996136
 21
6.578911915917274
 31
0.0
  0
LINE
  5
E6DB
330
E6A8
100
AcDbEntity
  8
0
  6
CONTINUOUS
100
AcDbLine
 10
44.99999999995498
 20
0.8574311250038447
 30
0.0
 11
38.60499999996136
 21
7.25243112499746
 31
0.0
  0
LINE
  5
E6DC
330
E6A8
100
AcDbEntity
  8
0
  6
CONTINUOUS
100
AcDbLine
 10
44.99999999995498
 20
1.530950334084031
 30
0.0
 11
38.60499999996136
 21
7.925950334077647
 31
0.0
  0
LINE
  5
E6DD
330
E6A8
100
AcDbEntity
  8
0
  6
CONTINUOUS
100
AcDbLine
 10
44.99999999995498
 20
2.204469543164218
 30
0.0
 11
43.57899999995641
 21
3.625469543162789
 31
0.0
  0
LINE
  5
E6DE
330
E6A8
100
AcDbEntity
  8
0
  6
CONTINUOUS
100
AcDbLine
 10
41.89876730984767
 20
5.305702233271528
 30
0.0
 11
38.60499999996136
 21
8.599469543157834
 31
0.0
  0
LINE
  5
E6DF
330
E6A8
100
AcDbEntity
  8
0
  6
CONTINUOUS
100
AcDbLine
 10
44.99999999995498
 20
2.877988752244405
 30
0.0
 11
43.57899999995641
 21
4.298988752242975
 31
0.0
  0
LINE
  5
E6E0
330
E6A8
100
AcDbEntity
  8
0
  6
CONTINUOUS
100
AcDbLine
 10
44.99999999995498
 20
3.551507961324591
 30
0.0
 11
43.57899999995641
 21
4.972507961323163
 31
0.0
  0
LINE
  5
E6E1
330
E6A8
100
AcDbEntity
  8
0
  6
CONTINUOUS
100
AcDbLine
 10
44.99999999995498
 20
4.225027170404777
 30
0.0
 11
43.57899999995641
 21
5.646027170403348
 31
0.0
  0
LINE
  5
E6E2
330
E6A8
100
AcDbEntity
  8
0
  6
CONTINUOUS
100
AcDbLine
 10
44.99999999995498
 20
4.898546379484964
 30
0.0
 11
43.57899999995641
 21
6.319546379483535
 31
0.0
  0
LINE
  5
E6E3
330
E6A8
100
AcDbEntity
  8
0
  6
CONTINUOUS
100
AcDbLine
 10
44.99999999995498
 20
5.572065588565151
 30
0.0
 11
43.57899999995641
 21
6.993065588563722
 31
0.0
  0
LINE
  5
E6E4
330
E6A8
100
AcDbEntity
  8
0
  6
CONTINUOUS
100
AcDbLine
 10
44.99999999995498
 20
6.245584797645336
 30
0.0
 11
43.57899999995641
 21
7.666584797643908
 31
0.0
  0
LINE
  5
E6E5
330
E6A8
100
AcDbEntity
  8
0
  6
CONTINUOUS
100
AcDbLine
 10
44.99999999995498
 20
6.919104006725522
 30
0.0
 11
43.57899999995641
 21
8.340104006724093
 31
0.0
  0
LINE
  5
E6E6
330
E6A8
100
AcDbEntity
  8
0
  6
CONTINUOUS
100
AcDbLine
 10
44.99999999995498
 20
7.592623215805709
 30
0.0
 11
43.82952321576943
 21
8.763099999991255
 31
0.0
  0
LINE
  5
E6E7
330
E6A8
100
AcDbEntity
  8
0
  6
CONTINUOUS
100
AcDbLine
 10
44.99999999995498
 20
8.266142424885896
 30
0.0
 11
44.50304242484962
 21
8.763099999991255
 31
0.0
  0
ENDBLK
  5
E711
330
E6A8
100
AcDbEntity
  8
0
100
AcDbBlockEnd
  0
BLOCK
  5
E712
330
E6E8
100
AcDbEntity
  8
0
100
AcDbBlockBegin
  2
*X18
 70
     1
 10
0.0
 20
0.0
 30
0.0
  3
*X18
  1

  0
LINE
  5
E6E9
330
E6E8
100
AcDbEntity
  8
0
  6
CONTINUOUS
100
AcDbLine
 10
0.0
 20
8.548461116714023
 30
0.0
 11
0.2146388832772324
 21
8.763099999991255
 31
0.0
  0
LINE
  5
E6EA
330
E6E8
100
AcDbEntity
  8
0
  6
CONTINUOUS
100
AcDbLine
 10
-0.0000000000000002
 20
7.874941907633837
 30
0.0
 11
0.8881580923574184
 21
8.763099999991255
 31
0.0
  0
LINE
  5
E6EB
330
E6E8
100
AcDbEntity
  8
0
  6
CONTINUOUS
100
AcDbLine
 10
0.0
 20
7.20142269855365
 30
0.0
 11
1.420999999998572
 21
8.622422698552223
 31
0.0
  0
LINE
  5
E6EC
330
E6E8
100
AcDbEntity
  8
0
  6
CONTINUOUS
100
AcDbLine
 10
-0.0000000000000001
 20
6.527903489473465
 30
0.0
 11
1.420999999998571
 21
7.948903489472036
 31
0.0
  0
LINE
  5
E6ED
330
E6E8
100
AcDbEntity
  8
0
  6
CONTINUOUS
100
AcDbLine
 10
-0.0000000000000002
 20
5.854384280393278
 30
0.0
 11
1.420999999998571
 21
7.275384280391849
 31
0.0
  0
LINE
  5
E6EE
330
E6E8
100
AcDbEntity
  8
0
  6
CONTINUOUS
100
AcDbLine
 10
-0.0000000000000002
 20
5.180865071313091
 30
0.0
 11
1.420999999998571
 21
6.601865071311663
 31
0.0
  0
LINE
  5
E6EF
330
E6E8
100
AcDbEntity
  8
0
  6
CONTINUOUS
100
AcDbLine
 10
0.0
 20
4.507345862232905
 30
0.0
 11
1.420999999998571
 21
5.928345862231477
 31
0.0
  0
LINE
  5
E6F0
330
E6E8
100
AcDbEntity
  8
0
  6
CONTINUOUS
100
AcDbLine
 10
-0.0000000000000003
 20
3.833826653152718
 30
0.0
 11
1.420999999998571
 21
5.25482665315129
 31
0.0
  0
LINE
  5
E6F1
330
E6E8
100
AcDbEntity
  8
0
  6
CONTINUOUS
100
AcDbLine
 10
-0.0000000000000002
 20
3.160307444072532
 30
0.0
 11
1.420999999998571
 21
4.581307444071103
 31
0.0
  0
LINE
  5
E6F2
330
E6E8
100
AcDbEntity
  8
0
  6
CONTINUOUS
100
AcDbLine
 10
-0.0000000000000001
 20
2.486788234992345
 30
0.0
 11
1.420999999998571
 21
3.907788234990917
 31
0.0
  0
LINE
  5
E6F3
330
E6E8
100
AcDbEntity
  8
0
  6
CONTINUOUS
100
AcDbLine
 10
-0.0000000000000006
 20
1.813269025912159
 30
0.0
 11
1.420999999998571
 21
3.234269025910731
 31
0.0
  0
LINE
  5
E6F4
330
E6E8
100
AcDbEntity
  8
0
  6
CONTINUOUS
100
AcDbLine
 10
0.0
 20
1.139749816831973
 30
0.0
 11
1.420999999998571
 21
2.560749816830544
 31
0.0
  0
LINE
  5
E6F5
330
E6E8
100
AcDbEntity
  8
0
  6
CONTINUOUS
100
AcDbLine
 10
0.0000000000000002
 20
0.466230607751787
 30
0.0
 11
1.420999999998571
 21
1.887230607750358
 31
0.0
  0
LINE
  5
E6F6
330
E6E8
100
AcDbEntity
  8
0
  6
CONTINUOUS
100
AcDbLine
 10
0.2072886013284003
 20
-0.0000000000000009
 30
0.0
 11
1.420999999998571
 21
1.213711398670171
 31
0.0
  0
LINE
  5
E6F7
330
E6E8
100
AcDbEntity
  8
0
  6
CONTINUOUS
100
AcDbLine
 10
0.8808078104085864
 20
-0.0000000000000009
 30
0.0
 11
1.420999999998571
 21
0.5401921895899839
 31
0.0
  0
LINE
  5
E6F8
330
E6E8
100
AcDbEntity
  8
0
  6
CONTINUOUS
100
AcDbLine
 10
0.0581249075061505
 20
-0.0000000000000009
 30
0.0
 11
-0.0000000000000002
 21
0.0581249075061496
 31
0.0
  0
LINE
  5
E6F9
330
E6E8
100
AcDbEntity
  8
0
  6
CONTINUOUS
100
AcDbLine
 10
0.7316441165863372
 20
-0.0000000000000009
 30
0.0
 11
-0.0000000000000002
 21
0.7316441165863363
 31
0.0
  0
LINE
  5
E6FA
330
E6E8
100
AcDbEntity
  8
0
  6
CONTINUOUS
100
AcDbLine
 10
1.405163325666523
 20
-0.0000000000000009
 30
0.0
 11
-0.0000000000000002
 21
1.405163325666523
 31
0.0
  0
LINE
  5
E6FB
330
E6E8
100
AcDbEntity
  8
0
  6
CONTINUOUS
100
AcDbLine
 10
1.420999999998572
 20
0.6576825347481381
 30
0.0
 11
-0.0000000000000001
 21
2.07868253474671
 31
0.0
  0
LINE
  5
E6FC
330
E6E8
100
AcDbEntity
  8
0
  6
CONTINUOUS
100
AcDbLine
 10
1.420999999998571
 20
1.331201743828324
 30
0.0
 11
-0.0000000000000001
 21
2.752201743826896
 31
0.0
  0
LINE
  5
E6FD
330
E6E8
100
AcDbEntity
  8
0
  6
CONTINUOUS
100
AcDbLine
 10
1.420999999998571
 20
2.004720952908511
 30
0.0
 11
-0.0000000000000002
 21
3.425720952907082
 31
0.0
  0
LINE
  5
E6FE
330
E6E8
100
AcDbEntity
  8
0
  6
CONTINUOUS
100
AcDbLine
 10
1.420999999998571
 20
2.678240161988697
 30
0.0
 11
-0.0000000000000001
 21
4.099240161987269
 31
0.0
  0
LINE
  5
E6FF
330
E6E8
100
AcDbEntity
  8
0
  6
CONTINUOUS
100
AcDbLine
 10
1.420999999998572
 20
3.351759371068884
 30
0.0
 11
0.0
 21
4.772759371067455
 31
0.0
  0
LINE
  5
E700
330
E6E8
100
AcDbEntity
  8
0
  6
CONTINUOUS
100
AcDbLine
 10
1.420999999998571
 20
4.02527858014907
 30
0.0
 11
-0.0000000000000003
 21
5.446278580147642
 31
0.0
  0
LINE
  5
E701
330
E6E8
100
AcDbEntity
  8
0
  6
CONTINUOUS
100
AcDbLine
 10
1.420999999998571
 20
4.698797789229257
 30
0.0
 11
0.0
 21
6.119797789227828
 31
0.0
  0
LINE
  5
E702
330
E6E8
100
AcDbEntity
  8
0
  6
CONTINUOUS
100
AcDbLine
 10
1.420999999998571
 20
5.372316998309444
 30
0.0
 11
-0.0000000000000001
 21
6.793316998308015
 31
0.0
  0
LINE
  5
E703
330
E6E8
100
AcDbEntity
  8
0
  6
CONTINUOUS
100
AcDbLine
 10
1.420999999998572
 20
6.045836207389629
 30
0.0
 11
-0.0000000000000004
 21
7.466836207388202
 31
0.0
  0
LINE
  5
E704
330
E6E8
100
AcDbEntity
  8
0
  6
CONTINUOUS
100
AcDbLine
 10
1.420999999998571
 20
6.719355416469816
 30
0.0
 11
0.0
 21
8.140355416468388
 31
0.0
  0
LINE
  5
E705
330
E6E8
100
AcDbEntity
  8
0
  6
CONTINUOUS
100
AcDbLine
 10
1.420999999998571
 20
7.392874625550003
 30
0.0
 11
0.0507746255573185
 21
8.763099999991255
 31
0.0
  0
LINE
  5
E706
330
E6E8
100
AcDbEntity
  8
0
  6
CONTINUOUS
100
AcDbLine
 10
1.420999999998571
 20
8.06639383463019
 30
0.0
 11
0.7242938346375052
 21
8.763099999991255
 31
0.0
  0
LINE
  5
E707
330
E6E8
100
AcDbEntity
  8
0
  6
CONTINUOUS
100
AcDbLine
 10
1.420999999998571
 20
8.739913043710375
 30
0.0
 11
1.397813043717691
 21
8.763099999991255
 31
0.0
  0
ENDBLK
  5
E713
330
E6E8
100
AcDbEntity
  8
0
100
AcDbBlockEnd
  0
ENDSEC
  0
SECTION
  2
ENTITIES
  0
LINE
  5
E2F1
330
18
100
AcDbEntity
  8
01
100
AcDbLine
 10
4843.014993247181
 20
681.4289917297042
 30
0.0000000001127424
 11
4891.014993247181
 21
681.4289917297042
 31
0.0000000001127424
  0
LINE
  5
E2F2
330
18
100
AcDbEntity
  8
01
100
AcDbLine
 10
4842.014993247181
 20
689.9289917297042
 30
0.0000000001127424
 11
4842.014993247181
 21
682.4289917297042
 31
0.0000000001127424
  0
ARC
  5
E2F3
330
18
100
AcDbEntity
  8
01
100
AcDbCircle
 10
4843.014993247181
 20
682.4289917297042
 30
0.0000000001127424
 40
1.0
100
AcDbArc
 50
180.0
 51
270.0
  0
LINE
  5
E2F4
330
18
100
AcDbEntity
  8
01
100
AcDbLine
 10
4892.014993247181
 20
689.9289917297042
 30
0.0000000001127424
 11
4892.014993247181
 21
682.4289917297042
 31
0.0000000001127424
  0
ARC
  5
E2F5
330
18
100
AcDbEntity
  8
01
100
AcDbCircle
 10
4891.014993247181
 20
682.4289917297042
 30
0.0000000001127424
 40
1.0
100
AcDbArc
 50
270.0
 51
0.0
  0
ARC
  5
E2F6
330
18
100
AcDbEntity
  8
01
100
AcDbCircle
 10
4867.014993247181
 20
529.9303100428069
 30
0.0000000001127424
 40
25.0
100
AcDbArc
 50
19.62343171703748
 51
340.3765682830001
  0
LINE
  5
E2F8
330
18
100
AcDbEntity
  8
01
100
AcDbLine
 10
4717.014993247181
 20
554.9303100428069
 30
0.0000000001127424
 11
4717.014993247181
 21
504.9303100428069
 31
0.0000000001127424
  0
LINE
  5
E2F9
330
18
100
AcDbEntity
  8
01
100
AcDbLine
 10
4725.514993247181
 20
505.9303100428069
 30
0.0000000001127424
 11
4725.514993247181
 21
553.9303100428069
 31
0.0000000001127424
  0
LINE
  5
E2FA
330
18
100
AcDbEntity
  8
01
100
AcDbLine
 10
4717.014993247181
 20
504.9303100428069
 30
0.0000000001127424
 11
4724.514993247181
 21
504.9303100428069
 31
0.0000000001127424
  0
ARC
  5
E2FB
330
18
100
AcDbEntity
  8
01
100
AcDbCircle
 10
4724.514993247181
 20
505.9303100428069
 30
0.0000000001127424
 40
1.0
100
AcDbArc
 50
270.0
 51
0.0
  0
LINE
  5
E2FC
330
18
100
AcDbEntity
  8
01
100
AcDbLine
 10
4717.014993247181
 20
554.9303100428069
 30
0.0000000001127424
 11
4724.514993247181
 21
554.9303100428069
 31
0.0000000001127424
  0
ARC
  5
E2FD
330
18
100
AcDbEntity
  8
01
100
AcDbCircle
 10
4724.514993247181
 20
553.9303100428069
 30
0.0000000001127424
 40
1.0
100
AcDbArc
 50
0.0
 51
90.0
  0
LINE
  5
E312
330
18
100
AcDbEntity
  8
01
100
AcDbLine
 10
4714.886707864751
 20
529.9303100428069
 30
0.0000000001127424
 11
4737.514993247181
 21
529.9303100428069
 31
0.0000000001127424
  0
LINE
  5
E313
330
18
100
AcDbEntity
  8
01
100
AcDbLine
 10
4842.014993247181
 20
689.9289917297042
 30
0.0000000001127424
 11
4892.014993247181
 21
689.9289917297042
 31
0.0000000001127424
  0
LINE
  5
E314
330
18
100
AcDbEntity
  8
01
  6
BYBLOCK
100
AcDbLine
 10
4816.015761089498
 20
689.9289917297042
 30
0.0000000001127424
 11
4969.770141244529
 21
689.9289917297042
 31
0.0000000001127424
  0
LINE
  5
E316
330
18
100
AcDbEntity
  8
01
100
AcDbLine
 10
4867.014993247181
 20
694.9289917297042
 30
0.0000000001127424
 11
4867.014993247181
 21
668.4289917297042
 31
0.0000000001127424
  0
LINE
  5
E318
330
18
100
AcDbEntity
  8
01
100
AcDbLine
 10
4717.014993247181
 20
649.9303100428069
 30
0.0000000001127424
 11
4717.014993247181
 21
459.9303100428069
 31
0.0000000001127424
  0
LINE
  5
E319
330
18
100
AcDbEntity
  8
1CENTER
100
AcDbLine
 10
4731.514993247181
 20
514.9303100428069
 30
0.0000000001127424
 11
4731.514993247181
 21
522.9303100428069
 31
0.0000000001127424
  0
LINE
  5
E31A
330
18
100
AcDbEntity
  8
01
100
AcDbLine
 10
4837.014993247181
 20
529.9303100428069
 30
0.0000000001127424
 11
4897.014993247181
 21
529.9303100428069
 31
0.0000000001127424
  0
LINE
  5
E31B
330
18
100
AcDbEntity
  8
01
100
AcDbLine
 10
4867.014993247181
 20
559.9303100428069
 30
0.0000000001127424
 11
4867.014993247181
 21
499.9303100428069
 31
0.0000000001127424
  0
TEXT
  5
E31C
330
18
100
AcDbEntity
  8
1TEXT
100
AcDbText
 10
4717.014993247181
 20
689.9289917297042
 30
0.0000000001127424
 40
10.0
  1
FFC
 41
1.0171875
100
AcDbText
  0
LINE
  5
E31D
330
18
100
AcDbEntity
  8
1CENTER
100
AcDbLine
 10
4731.517260591381
 20
512.8532276399756
 30
0.0000000001127424
 11
4731.517260591381
 21
521.8532276399756
 31
0.0000000001127424
  0
SPLINE
  5
E31E
330
18
100
AcDbEntity
  8
01
100
AcDbSpline
210
0.0
220
0.0
230
1.0
 70
     8
 71
     3
 72
    72
 73
    68
 74
     0
 42
0.0000000001
 43
0.0000000001
 40
0.0
 40
0.0
 40
0.0
 40
0.0
 40
1.507377579222721
 40
3.014696589640451
 40
4.521948830476804
 40
6.02913110871596
 40
7.536234323607392
 40
9.043236478169826
 40
10.550098550863
 40
12.05676222070489
 40
13.56314852908433
 40
15.06915670333719
 40
16.57466257573041
 40
18.07951631437792
 40
19.58353953419419
 40
21.08652225687826
 40
22.58822060602797
 40
24.08835651185822
 40
25.58662100581668
 40
27.0826828498261
 40
28.57621700256012
 40
30.0667103170724
 40
31.55379770817378
 40
33.03706604166707
 40
34.51527197333684
 40
35.98721298592052
 40
37.45215424056653
 40
38.90871550600351
 40
40.35627402009483
 40
41.79607332118604
 40
43.23019787373446
 40
44.66149752695327
 40
46.09673244357403
 40
47.5372031633948
 40
48.98637301493239
 40
50.44429774421598
 40
51.91003166121107
 40
53.38253322720988
 40
54.86067339304874
 40
56.34333999626489
 40
57.82954006358568
 40
59.31846887070137
 40
60.80953756158578
 40
62.30236048014972
 40
63.7967056944248
 40
65.29241232774487
 40
66.78927828021578
 40
68.28697704566122
 40
69.78537881304699
 40
71.2843941693543
 40
72.78391887379972
 40
74.28385303282865
 40
75.78410606790501
 40
77.28460079116621
 40
78.78527628825765
 40
80.28608939968252
 40
81.7870146598402
 40
83.28804261817179
 40
84.78917654174603
 40
86.29042758600403
 40
87.79180861510866
 40
89.29332694564621
 40
90.79497653169751
 40
92.29675504527569
 40
93.79867386127626
 40
95.30073800616076
 40
95.32166130777709
 40
95.32166130777709
 40
95.32166130777709
 40
95.32166130777709
 10
4726.014993247181
 20
532.0592082016155
 30
0.0000000001127424
 10
4726.517450169761
 20
532.0563324931927
 30
0.0000000001127424
 10
4727.52229649384
 20
532.0505832547651
 30
0.0000000001127424
 10
4729.029625661985
 20
532.0419631606301
 30
0.0000000001127424
 10
4730.536932437011
 20
532.0333458427413
 30
0.0000000001127424
 10
4732.0442325966
 20
532.0247296816979
 30
0.0000000001127424
 10
4733.551519472563
 20
532.0161131418754
 30
0.0000000001127424
 10
4735.058786190955
 20
532.007494628233
 30
0.0000000001127424
 10
4736.566018338664
 20
531.9988724571695
 30
0.0000000001127424
 10
4738.073196414521
 20
531.9902447592249
 30
0.0000000001127424
 10
4739.58029601478
 20
531.9816093649852
 30
0.0000000001127424
 10
4741.08728748371
 20
531.9729636778447
 30
0.0000000001127424
 10
4742.594133059464
 20
531.9643045326884
 30
0.0000000001127424
 10
4744.100780549882
 20
531.9556280305933
 30
0.0000000001127424
 10
4745.607152190325
 20
531.9469293283264
 30
0.0000000001127424
 10
4747.113127755949
 20
531.9382023600592
 30
0.0000000001127424
 10
4748.618519578796
 20
531.9294394391563
 30
0.0000000001127424
 10
4750.123042273909
 20
531.920630782116
 30
0.0000000001127424
 10
4751.626260768565
 20
531.9117636585943
 30
0.0000000001127424
 10
4753.127576151236
 20
531.9028221583249
 30
0.0000000001127424
 10
4754.625960642529
 20
531.8937842670302
 30
0.0000000001127424
 10
4756.120340819534
 20
531.8846286021007
 30
0.0000000001127424
 10
4757.608750069941
 20
531.8753171589196
 30
0.0000000001127424
 10
4759.088302884174
 20
531.8658111543918
 30
0.0000000001127424
 10
4760.555878710136
 20
531.8560711177779
 30
0.0000000001127424
 10
4762.006344684638
 20
531.8460190111964
 30
0.0000000001127424
 10
4763.431823739499
 20
531.835558993288
 30
0.0000000001127424
 10
4764.823206762576
 20
531.8245646022406
 30
0.0000000001127424
 10
4766.167347918525
 20
531.8128704859464
 30
0.0000000001127424
 10
4767.44762161367
 20
531.8003377971463
 30
0.0000000001127424
 10
4768.647720608229
 20
531.7869349484554
 30
0.0000000001127424
 10
4769.752210378219
 20
531.772547876014
 30
0.0000000001127424
 10
4770.748641134594
 20
531.7577639961328
 30
0.0000000001127424
 10
4771.639871489599
 20
531.7426708542653
 30
0.0000000001127424
 10
4772.4277264071
 20
531.7279123014341
 30
0.0000000001127424
 10
4773.125069975803
 20
531.7137868582113
 30
0.0000000001127424
 10
4773.743446776107
 20
531.7004423672361
 30
0.0000000001127424
 10
4774.294249013657
 20
531.687951613173
 30
0.0000000001127424
 10
4774.78771492471
 20
531.6762976245273
 30
0.0000000001127424
 10
4775.232599162478
 20
531.6654085922182
 30
0.0000000001127424
 10
4775.636031389484
 20
531.6551848359068
 30
0.0000000001127424
 10
4776.003640063555
 20
531.6455236948723
 30
0.0000000001127424
 10
4776.339817855923
 20
531.6363356673146
 30
0.0000000001127424
 10
4776.648060815643
 20
531.6275514149465
 30
0.0000000001127424
 10
4776.931300843095
 20
531.6191206863159
 30
0.0000000001127424
 10
4777.192148004098
 20
531.6110025440967
 30
0.0000000001127424
 10
4777.432988768121
 20
531.6031567663968
 30
0.0000000001127424
 10
4777.655799878848
 20
531.5955083685058
 30
0.0000000001127424
 10
4777.861901629124
 20
531.5880193605262
 30
0.0000000001127424
 10
4778.0525710557
 20
531.58066016265
 30
0.0000000001127424
 10
4778.228870242496
 20
531.573396219921
 30
0.0000000001127424
 10
4778.391676901924
 20
531.566196996072
 30
0.0000000001127424
 10
4778.541692596481
 20
531.5590345517712
 30
0.0000000001127424
 10
4778.679467022462
 20
531.5518844380185
 30
0.0000000001127424
 10
4778.805424938893
 20
531.5447255502604
 30
0.0000000001127424
 10
4778.919896628971
 20
531.5375399082905
 30
0.0000000001127424
 10
4779.023148766347
 20
531.5303121895049
 30
0.0000000001127424
 10
4779.115413620608
 20
531.5230291548096
 30
0.0000000001127424
 10
4779.196914263052
 20
531.5156790252968
 30
0.0000000001127424
 10
4779.267883433764
 20
531.5082508873666
 30
0.0000000001127424
 10
4779.328573976179
 20
531.5007342017516
 30
0.0000000001127424
 10
4779.379257729802
 20
531.4931184702909
 30
0.0000000001127424
 10
4779.420213769966
 20
531.4853931443058
 30
0.0000000001127424
 10
4779.451692190007
 20
531.4775474932994
 30
0.0000000001127424
 10
4779.473956450268
 20
531.4695736963358
 30
0.0000000001127424
 10
4779.482901864751
 20
531.4641293823743
 30
0.0000000001127424
 10
4779.485922046691
 20
531.4613637334542
 30
0.0000000001127424
 10
4779.485963259038
 20
531.4613257334277
 30
0.0000000001127424
  0
SPLINE
  5
E31F
330
18
100
AcDbEntity
  8
01
100
AcDbSpline
210
0.0
220
0.0
230
1.0
 70
     8
 71
     3
 72
    72
 73
    68
 74
     0
 42
0.0000000001
 43
0.0000000001
 40
15.00750934014469
 40
15.00750934014469
 40
15.00750934014469
 40
15.00750934014469
 40
15.02843232432125
 40
16.53049646919737
 40
18.0324152851808
 40
19.53419379874
 40
21.03584338477046
 40
22.53736171528528
 40
24.03874274436519
 40
25.53999378859645
 40
27.04112771214198
 40
28.54215567046397
 40
30.04308093062086
 40
31.54389404204495
 40
33.04456953908054
 40
34.54506426226281
 40
36.04531729725415
 40
37.54525145619078
 40
39.04477616053522
 40
40.5437915167312
 40
42.04219328399336
 40
43.53989204930112
 40
45.03675800161749
 40
46.53246463476054
 40
48.02680984883236
 40
49.5196327671632
 40
51.01070145777931
 40
52.49963026458305
 40
53.98583033153574
 40
55.46849693489879
 40
56.9466371012715
 40
58.41913866792249
 40
59.88487258571427
 40
61.34279731596539
 40
62.79196716866709
 40
64.23243788985084
 40
65.66767280624006
 40
67.09897245783819
 40
68.53309700879257
 40
69.97289630837994
 40
71.42045482110842
 40
72.8770160853593
 40
74.34195733899267
 40
75.8138983507115
 40
77.29210428165331
 40
78.7753726145316
 40
80.26246000510453
 40
81.75295331916756
 40
83.24648747166776
 40
84.74254931551982
 40
86.24081380934868
 40
87.7409497150737
 40
89.24264806413913
 40
90.74563078675666
 40
92.24965400652111
 40
93.75450774512872
 40
95.26001361749154
 40
96.76602179172133
 40
98.27240810008331
 40
99.77907176991187
 40
101.2859338425948
 40
102.7929359971494
 40
104.30003921205
 40
105.8072214902855
 40
107.3144737311192
 40
108.8217927415389
 40
110.3291703210024
 40
110.3291703210024
 40
110.3291703210024
 40
110.3291703210024
 10
4779.485963257166
 20
528.3992943504627
 30
0.0000000001127424
 10
4779.485922045434
 20
528.3992563510119
 30
0.0000000001127424
 10
4779.482901863717
 20
528.3964907025784
 30
0.0000000001127424
 10
4779.473956449016
 20
528.3910463881039
 30
0.0000000001127424
 10
4779.451692189155
 20
528.3830725914877
 30
0.0000000001127424
 10
4779.420213768953
 20
528.3752269403067
 30
0.0000000001127424
 10
4779.379257728781
 20
528.3675016142861
 30
0.0000000001127424
 10
4779.328573975129
 20
528.3598858827709
 30
0.0000000001127424
 10
4779.26788343265
 20
528.3523691970568
 30
0.0000000001127424
 10
4779.196914262063
 20
528.3449410592402
 30
0.0000000001127424
 10
4779.115413619051
 20
528.3375909290462
 30
0.0000000001127424
 10
4779.023148766822
 20
528.3303078966528
 30
0.0000000001127424
 10
4778.919896628634
 20
528.3230801769205
 30
0.0000000001127424
 10
4778.805424939777
 20
528.3158945364385
 30
0.0000000001127424
 10
4778.679467019283
 20
528.3087356436754
 30
0.0000000001127424
 10
4778.541692594385
 20
528.3015855311678
 30
0.0000000001127424
 10
4778.39167689954
 20
528.2944230864432
 30
0.0000000001127424
 10
4778.228870240197
 20
528.2872238626242
 30
0.0000000001127424
 10
4778.05257105339
 20
528.2799599198088
 30
0.0000000001127424
 10
4777.861901626832
 20
528.2726007218844
 30
0.0000000001127424
 10
4777.65579987657
 20
528.2651117138494
 30
0.0000000001127424
 10
4777.432988765859
 20
528.2574633159102
 30
0.0000000001127424
 10
4777.192148001853
 20
528.249617538162
 30
0.0000000001127424
 10
4776.931300840867
 20
528.2414993959019
 30
0.0000000001127424
 10
4776.648060813417
 20
528.2330686672094
 30
0.0000000001127424
 10
4776.339817853749
 20
528.2242844148623
 30
0.0000000001127424
 10
4776.003640061237
 20
528.2150963870099
 30
0.0000000001127424
 10
4775.636031387739
 20
528.2054352468504
 30
0.0000000001127424
 10
4775.232599158555
 20
528.1952114870464
 30
0.0000000001127424
 10
4774.787714928503
 20
528.1843224674576
 30
0.0000000001127424
 10
4774.294249015467
 20
528.1726684754985
 30
0.0000000001127424
 10
4773.743446778495
 20
528.160177722435
 30
0.0000000001127424
 10
4773.125069978026
 20
528.1468332312297
 30
0.0000000001127424
 10
4772.427726409557
 20
528.1327077884625
 30
0.0000000001127424
 10
4771.639871491394
 20
528.1179492346282
 30
0.0000000001127424
 10
4770.748641139163
 20
528.1028560969125
 30
0.0000000001127424
 10
4769.752210374892
 20
528.0880722021611
 30
0.0000000001127424
 10
4768.647720606587
 20
528.0736851335732
 30
0.0000000001127424
 10
4767.447621611722
 20
528.0602822837591
 30
0.0000000001127424
 10
4766.167347916943
 20
528.0477495951936
 30
0.0000000001127424
 10
4764.823206761192
 20
528.0360554787849
 30
0.0000000001127424
 10
4763.431823738357
 20
528.0250610877301
 30
0.0000000001127424
 10
4762.006344683705
 20
528.0146010697954
 30
0.0000000001127424
 10
4760.555878709377
 20
528.0045489631912
 30
0.0000000001127424
 10
4759.08830288357
 20
527.9948089265799
 30
0.0000000001127424
 10
4757.608750069461
 20
527.9853029219576
 30
0.0000000001127424
 10
4756.120340819185
 20
527.975991479052
 30
0.0000000001127424
 10
4754.625960642114
 20
527.966835813012
 30
0.0000000001127424
 10
4753.127576151189
 20
527.9577979257929
 30
0.0000000001127424
 10
4751.626260768498
 20
527.9488564244175
 30
0.0000000001127424
 10
4750.123042273885
 20
527.9399893011814
 30
0.0000000001127424
 10
4748.618519578788
 20
527.9311806440537
 30
0.0000000001127424
 10
4747.11312775596
 20
527.9224177231636
 30
0.0000000001127424
 10
4745.60715219035
 20
527.9136907548827
 30
0.0000000001127424
 10
4744.100780549917
 20
527.9049920526086
 30
0.0000000001127424
 10
4742.594133059507
 20
527.8963155505062
 30
0.0000000001127424
 10
4741.08728748376
 20
527.8876564053426
 30
0.0000000001127424
 10
4739.580296014836
 20
527.879010718194
 30
0.0000000001127424
 10
4738.073196414581
 20
527.8703753239542
 30
0.0000000001127424
 10
4736.566018338727
 20
527.8617476259815
 30
0.0000000001127424
 10
4735.058786191023
 20
527.853125454998
 30
0.0000000001127424
 10
4733.551519472621
 20
527.8445069410373
 30
0.0000000001127424
 10
4732.044232596679
 20
527.8358904023853
 30
0.0000000001127424
 10
4730.536932437066
 20
527.8272742406507
 30
0.0000000001127424
 10
4729.029625662098
 20
527.818656924348
 30
0.0000000001127424
 10
4727.52229649366
 20
527.8100368245478
 30
0.0000000001127424
 10
4726.517450170039
 20
527.8042876007812
 30
0.0000000001127424
 10
4726.014993247181
 20
527.8014118923575
 30
0.0000000001127424
  0
SPLINE
  5
E320
330
18
100
AcDbEntity
  8
01
100
AcDbSpline
210
0.0
220
0.0
230
1.0
 70
    24
 71
     9
 72
    40
 73
    30
 74
     0
 42
0.0000000001
 43
0.0000000001
 40
0.512208455789175
 40
0.512208455789175
 40
0.512208455789175
 40
0.512208455789175
 40
0.512208455789175
 40
0.512208455789175
 40
0.512208455789175
 40
0.512208455789175
 40
0.512208455789175
 40
0.512208455789175
 40
0.625
 40
0.625
 40
0.625
 40
0.625
 40
0.625
 40
0.6874999999999999
 40
0.6874999999999999
 40
0.6874999999999999
 40
0.6874999999999999
 40
0.6874999999999999
 40
0.7187499999999999
 40
0.7187499999999999
 40
0.7187499999999999
 40
0.7187499999999999
 40
0.7187499999999999
 40
0.75
 40
0.75
 40
0.75
 40
0.75
 40
0.75
 40
0.9953665347443595
 40
0.9953665347443595
 40
0.9953665347443595
 40
0.9953665347443595
 40
0.9953665347443595
 40
0.9953665347443595
 40
0.9953665347443595
 40
0.9953665347443595
 40
0.9953665347443595
 40
0.9953665347443595
 10
4726.01499324718
 20
540.9303099800436
 30
0.0000000001127424
 10
4726.01499324718
 20
540.93030998005
 30
0.0000000001127424
 10
4726.01499324718
 20
540.9120306832438
 30
0.0000000001127424
 10
4726.01499324718
 20
540.8754720895586
 30
0.0000000001127424
 10
4726.01499324718
 20
540.8206862712141
 30
0.0000000001127424
 10
4726.01499324718
 20
540.7477773727387
 30
0.0000000001127424
 10
4726.01499324718
 20
540.6065450906526
 30
0.0000000001127424
 10
4726.01499324718
 20
540.4224169848558
 30
0.0000000001127424
 10
4726.01499324718
 20
540.1963586950278
 30
0.0000000001127424
 10
4726.01499324718
 20
539.929621642259
 30
0.0000000001127424
 10
4726.01499324718
 20
539.8294067558454
 30
0.0000000001127424
 10
4726.01499324718
 20
539.6715179248586
 30
0.0000000001127424
 10
4726.01499324718
 20
539.5024372071857
 30
0.0000000001127424
 10
4726.01499324718
 20
539.3224159581741
 30
0.0000000001127424
 10
4726.01499324718
 20
539.1317268812318
 30
0.0000000001127424
 10
4726.01499324718
 20
539.066988902041
 30
0.0000000001127424
 10
4726.01499324718
 20
538.9351842727374
 30
0.0000000001127424
 10
4726.01499324718
 20
538.7987657905642
 30
0.0000000001127424
 10
4726.01499324718
 20
538.6578224398154
 30
0.0000000001127424
 10
4726.01499324718
 20
538.5124471617873
 30
0.0000000001127424
 10
4726.01499324718
 20
538.4387491153193
 30
0.0000000001127424
 10
4726.01499324718
 20
537.7884756116591
 30
0.0000000001127424
 10
4726.01499324718
 20
537.1068826510282
 30
0.0000000001127424
 10
4726.01499324718
 20
536.3951038624073
 30
0.0000000001127424
 10
4726.01499324718
 20
535.6543444283298
 30
0.0000000001127424
 10
4726.01499324718
 20
534.9753511842227
 30
0.0000000001127424
 10
4726.01499324718
 20
534.2753623427743
 30
0.0000000001127424
 10
4726.01499324718
 20
533.5553391360118
 30
0.0000000001127424
 10
4726.014993247181
 20
532.8162780476259
 30
0.0000000001127424
 10
4726.014993247181
 20
532.0592082016155
 30
0.0000000001127424
  0
LINE
  5
E321
330
18
100
AcDbEntity
  8
01
100
AcDbLine
 10
4726.014993247181
 20
527.8014118923575
 30
0.0000000001127424
 11
4726.014993247181
 21
518.9303101055739
 31
0.0000000001127424
  0
LINE
  5
E322
330
18
100
AcDbEntity
  8
01
100
AcDbLine
 10
4726.014993247181
 20
531.7753088620493
 30
0.0000000001127424
 11
4726.014993247181
 21
532.0592082016155
 31
0.0000000001127424
  0
LINE
  5
E323
330
18
100
AcDbEntity
  8
01
100
AcDbLine
 10
4726.014993247181
 20
531.7753088620493
 30
0.0000000001127424
 11
4726.014993247181
 21
528.0853112135856
 31
0.0000000001127424
  0
LINE
  5
E324
330
18
100
AcDbEntity
  8
01
100
AcDbLine
 10
4726.014993247181
 20
528.0853112135856
 30
0.0000000001127424
 11
4726.014993247181
 21
527.8014118923575
 31
0.0000000001127424
  0
SPLINE
  5
E325
330
18
100
AcDbEntity
  8
01
100
AcDbSpline
210
0.0
220
0.0
230
1.0
 70
     8
 71
     3
 72
    47
 73
    43
 74
     0
 42
0.0000000001
 43
0.0000000001
 40
0.0
 40
0.0
 40
0.0
 40
0.0
 40
2.332639268878762
 40
6.223636117532867
 40
10.49683156214186
 40
11.87062693750396
 40
14.68411385018382
 40
18.22135913739491
 40
20.91980891637704
 40
22.18831488972875
 40
22.79882857719645
 40
23.39119018204476
 40
23.96507853055223
 40
24.51349423252947
 40
25.05239054509653
 40
25.6219533412461
 40
26.21483331958434
 40
27.34890532394714
 40
28.88829483319288
 40
30.72526762060718
 40
31.59239766353287
 40
33.53048140617052
 40
34.93760648491917
 40
36.00945297397908
 40
36.68518626840063
 40
37.32913970390355
 40
38.58029722362136
 40
40.09349670710979
 40
41.34238031720039
 40
42.92383495347888
 40
44.31401830840684
 40
45.82232018370101
 40
48.24487835656271
 40
49.76592423831741
 40
52.51204997686222
 40
55.59982699489798
 40
58.71425732382043
 40
61.2081290429774
 40
64.79377372381127
 40
68.06553526131827
 40
74.62095034197785
 40
81.19171980669391
 40
81.19171980669391
 40
81.19171980669391
 40
81.19171980669391
 10
4779.485963221648
 20
531.4613257675519
 30
0.0000000001127424
 10
4779.315498073663
 20
531.6185037087043
 30
0.0000000001127424
 10
4778.854836539298
 20
532.0216546154143
 30
0.0000000001127424
 10
4778.044151780862
 20
532.655955229462
 30
0.0000000001127424
 10
4777.253786627963
 20
533.2125146806748
 30
0.0000000001127424
 10
4776.520460955917
 20
533.7035672935444
 30
0.0000000001127424
 10
4775.830440796759
 20
534.1512711463638
 30
0.0000000001127424
 10
4774.978037917926
 20
534.6864181631317
 30
0.0000000001127424
 10
4774.207780504284
 20
535.1613208754652
 30
0.0000000001127424
 10
4773.698982849553
 20
535.4730831641109
 30
0.0000000001127424
 10
4773.412366410956
 20
535.6483937309222
 30
0.0000000001127424
 10
4773.199966859535
 20
535.7782071953543
 30
0.0000000001127424
 10
4772.989834789976
 20
535.9065776863963
 30
0.0000000001127424
 10
4772.776638211881
 20
536.0368053423226
 30
0.0000000001127424
 10
4772.557800274845
 20
536.1707022891069
 30
0.0000000001127424
 10
4772.346048823071
 20
536.3000886499713
 30
0.0000000001127424
 10
4772.069759884897
 20
536.4675518989843
 30
0.0000000001127424
 10
4771.65696977706
 20
536.7136877900957
 30
0.0000000001127424
 10
4771.035954533167
 20
537.072603789532
 30
0.0000000001127424
 10
4770.388292980863
 20
537.4281345435948
 30
0.0000000001127424
 10
4769.615676684467
 20
537.8267948983621
 30
0.0000000001127424
 10
4768.847945037644
 20
538.1944536271976
 30
0.0000000001127424
 10
4767.967694882608
 20
538.555489897255
 30
0.0000000001127424
 10
4767.333357513933
 20
538.7745875057626
 30
0.0000000001127424
 10
4766.870524984993
 20
538.9120430838448
 30
0.0000000001127424
 10
4766.393218274029
 20
539.0367211329585
 30
0.0000000001127424
 10
4765.798810967483
 20
539.1631180175309
 30
0.0000000001127424
 10
4765.108594484638
 20
539.2723132570982
 30
0.0000000001127424
 10
4764.290996967319
 20
539.3705108707309
 30
0.0000000001127424
 10
4763.374744858485
 20
539.4544008583316
 30
0.0000000001127424
 10
4762.24576213545
 20
539.5367095926613
 30
0.0000000001127424
 10
4760.750078391402
 20
539.6302262360114
 30
0.0000000001127424
 10
4759.073438339991
 20
539.7223045184473
 30
0.0000000001127424
 10
4756.938512703851
 20
539.8315547804423
 30
0.0000000001127424
 10
4754.534729977723
 20
539.9470449385935
 30
0.0000000001127424
 10
4751.574917540388
 20
540.0799401682898
 30
0.0000000001127424
 10
4748.684724011381
 20
540.2012625407515
 30
0.0000000001127424
 10
4745.624551746197
 20
540.3222673444252
 30
0.0000000001127424
 10
4742.509901907398
 20
540.4375791932689
 30
0.0000000001127424
 10
4738.041619834853
 20
540.5910389540022
 30
0.0000000001127424
 10
4732.578196284369
 20
540.7588578303939
 30
0.0000000001127424
 10
4728.204483817844
 20
540.875316163133
 30
0.0000000001127424
 10
4726.01499324718
 20
540.9303099800427
 30
0.0000000001127424
  0
LINE
  5
E326
330
18
100
AcDbEntity
  8
01
100
AcDbLine
 10
4779.798353064212
 20
529.1062746189573
 30
0.0000000001127424
 11
4779.798353064212
 21
530.7543454670731
 31
0.0000000001127424
  0
ARC
  5
E327
330
18
100
AcDbEntity
  8
01
100
AcDbCircle
 10
-4778.836882262752
 20
530.7520123684699
 30
-0.0000000001127424
 40
0.9614736551588579
210
0.0
220
0.0
230
-1.0
100
AcDbArc
 50
132.4611181643756
 51
179.8605186726912
  0
ARC
  5
E328
330
18
100
AcDbEntity
  8
01
100
AcDbCircle
 10
4778.836882263817
 20
529.1086077166747
 30
0.0000000001127424
 40
0.9614736540917781
100
AcDbArc
 50
312.4611181355535
 51
359.8605187253227
  0
ARC
  5
E329
330
18
100
AcDbEntity
  8
01
100
AcDbCircle
 10
4728.114993212296
 20
519.2842197578311
 30
0.0000000001127424
 40
0.3000000119209284
100
AcDbArc
 50
271.4980339200977
 51
287.3368756910174
  0
SPLINE
  5
E32D
330
18
100
AcDbEntity
  8
01
100
AcDbSpline
210
0.0
220
0.0
230
1.0
 70
     8
 71
     3
 72
    90
 73
    86
 74
     0
 42
0.0000000001
 43
0.0000000001
 40
0.0
 40
0.0
 40
0.0
 40
0.0
 40
0.685637008152267
 40
1.024545928501598
 40
1.35920607366701
 40
1.689140082139653
 40
2.014509099511825
 40
2.176405376430319
 40
2.337129451450267
 40
2.495065071805935
 40
2.648921747206368
 40
2.799340136915209
 40
2.949313652971686
 40
3.260387681803379
 40
3.96724513021216
 40
4.783363040016011
 40
5.071144172714899
 40
5.363946498582206
 40
5.660515153893665
 40
6.559730090378871
 40
7.460674752888428
 40
8.367272953448277
 40
9.281108797216518
 40
10.20210115801455
 40
11.13000166304855
 40
12.06449144770674
 40
13.00483968439017
 40
13.95029396397636
 40
14.90024691014005
 40
15.85414141112155
 40
16.81142503940715
 40
17.77164833928923
 40
18.73443973456192
 40
19.69945340227258
 40
20.66637252495594
 40
21.63495531481439
 40
22.60500736941173
 40
23.57634756493524
 40
24.54882861023114
 40
25.52233072259388
 40
26.4967435015732
 40
27.47196518225632
 40
28.44790766279311
 40
29.42448891639564
 40
30.40162875850474
 40
31.37926924056492
 40
32.3573731701755
 40
33.33591420250272
 40
34.31486596769199
 40
35.29419058926077
 40
36.27385175078081
 40
37.25382100074473
 40
38.2340772249117
 40
39.21460389974055
 40
40.19537915117576
 40
41.17637315172527
 40
42.15755831656614
 40
43.13891846570005
 40
44.12045141467611
 40
45.1021644815204
 40
46.08406102845036
 40
47.06612968000016
 40
48.04834535131227
 40
49.03067932862844
 40
50.01311437547033
 40
50.99564973707182
 40
51.97829202006402
 40
52.96104206011538
 40
53.94389048539114
 40
54.9268216879885
 40
55.90982547549364
 40
56.89290383173358
 40
57.87606783392833
 40
58.8593223556408
 40
59.8426527759381
 40
60.82602669185692
 40
61.80941807887298
 40
62.79283905492976
 40
63.77634494576048
 40
64.76000123888282
 40
65.74381572954138
 40
66.72771128555638
 40
67.71158356170443
 40
68.69546430165092
 40
69.67954144016505
 40
69.67954144016505
 40
69.67954144016505
 40
69.67954144016505
 10
4986.665761297177
 20
649.4220596102514
 30
0.0000000001127424
 10
4986.665761297273
 20
649.4220596204441
 30
0.0000000001127424
 10
4986.65837516582
 20
649.3735772371597
 30
0.0000000001127424
 10
4986.632577715333
 20
649.2147134589231
 30
0.0000000001127424
 10
4986.605082442875
 20
649.0529483162322
 30
0.0000000001127424
 10
4986.569026175653
 20
648.8523707056179
 30
0.0000000001127424
 10
4986.53133190918
 20
648.6559949380771
 30
0.0000000001127424
 10
4986.49653610098
 20
648.4846628851628
 30
0.0000000001127424
 10
4986.468258836802
 20
648.3505090037402
 30
0.0000000001127424
 10
4986.437981238118
 20
648.2121971563265
 30
0.0000000001127424
 10
4986.405897996477
 20
648.0710773194423
 30
0.0000000001127424
 10
4986.371920376104
 20
647.927133692278
 30
0.0000000001127424
 10
4986.322947453896
 20
647.7273183474063
 30
0.0000000001127424
 10
4986.220200232571
 20
647.3314086540654
 30
0.0000000001127424
 10
4986.031448280143
 20
646.691475748974
 30
0.0000000001127424
 10
4985.810770390839
 20
646.0716973524259
 30
0.0000000001127424
 10
4985.620706616439
 20
645.6015725842431
 30
0.0000000001127424
 10
4985.494732213434
 20
645.3091158981929
 30
0.0000000001127424
 10
4985.269522502103
 20
644.8178686060783
 30
0.0000000001127424
 10
4984.919333020601
 20
644.1408335010647
 30
0.0000000001127424
 10
4984.405692952107
 20
643.3024443411382
 30
0.0000000001127424
 10
4983.832743771218
 20
642.5015161063666
 30
0.0000000001127424
 10
4983.205842685587
 20
641.7402741542478
 30
0.0000000001127424
 10
4982.530638989596
 20
641.0191910060621
 30
0.0000000001127424
 10
4981.813291555061
 20
640.3384015609208
 30
0.0000000001127424
 10
4981.060042600985
 20
639.6968784814403
 30
0.0000000001127424
 10
4980.276197537214
 20
639.0925120605402
 30
0.0000000001127424
 10
4979.466324906744
 20
638.5230179317205
 30
0.0000000001127424
 10
4978.634404909276
 20
637.9860490077986
 30
0.0000000001127424
 10
4977.783768479173
 20
637.4792078448099
 30
0.0000000001127424
 10
4976.917224023521
 20
637.0001906712969
 30
0.0000000001127424
 10
4976.037130946142
 20
636.5468168132797
 30
0.0000000001127424
 10
4975.145433262339
 20
636.1170466577855
 30
0.0000000001127424
 10
4974.243732195248
 20
635.7090213487941
 30
0.0000000001127424
 10
4973.333363049192
 20
635.3210788205033
 30
0.0000000001127424
 10
4972.415448909349
 20
634.9517329938649
 30
0.0000000001127424
 10
4971.490946802401
 20
634.5996451032038
 30
0.0000000001127424
 10
4970.560673005713
 20
634.263596228302
 30
0.0000000001127424
 10
4969.625318759502
 20
633.9424758342766
 30
0.0000000001127424
 10
4968.685467356334
 20
633.6352756937549
 30
0.0000000001127424
 10
4967.741620569276
 20
633.3410851787962
 30
0.0000000001127424
 10
4966.794211992191
 20
633.0590804372268
 30
0.0000000001127424
 10
4965.843610305898
 20
632.7885185164068
 30
0.0000000001127424
 10
4964.8901301229
 20
632.5287365138947
 30
0.0000000001127424
 10
4963.934044475903
 20
632.2791470053603
 30
0.0000000001127424
 10
4962.975598654015
 20
632.0392236180019
 30
0.0000000001127424
 10
4962.015012372388
 20
631.8084800743131
 30
0.0000000001127424
 10
4961.052480622126
 20
631.5864570707181
 30
0.0000000001127424
 10
4960.088175279809
 20
631.3727214463479
 30
0.0000000001127424
 10
4959.122247290092
 20
631.1668717791367
 30
0.0000000001127424
 10
4958.15482922164
 20
630.9685423324586
 30
0.0000000001127424
 10
4957.186035899413
 20
630.7774019425688
 30
0.0000000001127424
 10
4956.21596716045
 20
630.5931500598645
 30
0.0000000001127424
 10
4955.244712782137
 20
630.4155132337655
 30
0.0000000001127424
 10
4954.272354206934
 20
630.2442439056199
 30
0.0000000001127424
 10
4953.298963516063
 20
630.0791228012104
 30
0.0000000001127424
 10
4952.324602673105
 20
629.919960719013
 30
0.0000000001127424
 10
4951.349329940499
 20
629.7665934705465
 30
0.0000000001127424
 10
4950.37320944054
 20
629.6188653591657
 30
0.0000000001127424
 10
4949.396313317943
 20
629.4766092375794
 30
0.0000000001127424
 10
4948.418708598128
 20
629.3396393453622
 30
0.0000000001127424
 10
4947.440443597907
 20
629.2077680470575
 30
0.0000000001127424
 10
4946.461545055753
 20
629.080833703983
 30
0.0000000001127424
 10
4945.482030781983
 20
628.9587192565295
 30
0.0000000001127424
 10
4944.501926242807
 20
628.8413436387391
 30
0.0000000001127424
 10
4943.521268883352
 20
628.7286367726042
 30
0.0000000001127424
 10
4942.540103496503
 20
628.6205168655188
 30
0.0000000001127424
 10
4941.558467187116
 20
628.5168880678134
 30
0.0000000001127424
 10
4940.576385298951
 20
628.4176560264964
 30
0.0000000001127424
 10
4939.593871413887
 20
628.3227450411737
 30
0.0000000001127424
 10
4938.610942217503
 20
628.2321017009672
 30
0.0000000001127424
 10
4937.627624812411
 20
628.1456781314027
 30
0.0000000001127424
 10
4936.643960547889
 20
628.0634106737207
 30
0.0000000001127424
 10
4935.659987957625
 20
627.98521076719
 30
0.0000000001127424
 10
4934.675726078789
 20
627.9109887492023
 30
0.0000000001127424
 10
4933.691166655723
 20
627.8406898634294
 30
0.0000000001127424
 10
4932.706293579857
 20
627.7743177915627
 30
0.0000000001127424
 10
4931.721127620184
 20
627.7118952300102
 30
0.0000000001127424
 10
4930.735738405908
 20
627.6533859981955
 30
0.0000000001127424
 10
4929.750235594085
 20
627.5986251804588
 30
0.0000000001127424
 10
4928.76466979308
 20
627.5473527090949
 30
0.0000000001127424
 10
4927.779005738728
 20
627.4993522245045
 30
0.0000000001127424
 10
4926.793090691217
 20
627.4545888886323
 30
0.0000000001127424
 10
4925.806947420964
 20
627.4131702211284
 30
0.0000000001127424
 10
4925.149604014707
 20
627.3876890370962
 30
0.0000000001127424
 10
4924.821008150606
 20
627.375402508379
 30
0.0000000001127424
  0
SPLINE
  5
E32E
330
18
100
AcDbEntity
  8
01
100
AcDbSpline
210
0.0
220
0.0
230
1.0
 70
     8
 71
     3
 72
    81
 73
    77
 74
     0
 42
0.0000000001
 43
0.0000000001
 40
0.0
 40
0.0
 40
0.0
 40
0.0
 40
1.503388413731647
 40
3.006683209663306
 40
4.509871034636217
 40
6.012940115493324
 40
7.515880419528148
 40
9.018683771775393
 40
10.52134393049949
 40
12.02385662291804
 40
13.52621954420232
 40
15.02843232432125
 40
16.53049646919737
 40
18.0324152851808
 40
19.53419379874
 40
21.03584338477046
 40
22.53736171528528
 40
24.03874274436519
 40
25.53999378859645
 40
27.04112771214198
 40
28.54215567046397
 40
30.04308093062086
 40
31.54389404204495
 40
33.04456953908054
 40
34.54506426226281
 40
36.04531729725415
 40
37.54525145619078
 40
39.04477616053522
 40
40.5437915167312
 40
42.04219328399336
 40
43.53989204930112
 40
45.03675800161749
 40
46.53246463476054
 40
48.02680984883236
 40
49.5196327671632
 40
51.01070145777931
 40
52.49963026458305
 40
53.98583033153574
 40
55.46849693489879
 40
56.9466371012715
 40
58.41913866792249
 40
59.88487258571427
 40
61.34279731596539
 40
62.79196716866709
 40
64.23243788985084
 40
65.66767280624006
 40
67.09897245783819
 40
68.53309700879257
 40
69.97289630837994
 40
71.42045482110842
 40
72.8770160853593
 40
74.34195733899267
 40
75.8138983507115
 40
77.29210428165331
 40
78.7753726145316
 40
80.26246000510453
 40
81.75295331916756
 40
83.24648747166776
 40
84.74254931551982
 40
86.24081380934868
 40
87.7409497150737
 40
89.24264806413913
 40
90.74563078675666
 40
92.24965400652111
 40
93.75450774512872
 40
95.26001361749154
 40
96.76602179172133
 40
98.27240810008331
 40
99.77907176991187
 40
101.2859338425948
 40
102.7929359971494
 40
104.30003921205
 40
105.8072214902855
 40
107.3144737311192
 40
108.8217927415389
 40
110.3271619945023
 40
110.3271619945023
 40
110.3271619945023
 40
110.3271619945023
 10
4924.821240178447
 20
627.3754115624315
 30
0.0000000001127424
 10
4924.319159537232
 20
627.356637990672
 30
0.0000000001127424
 10
4923.314970244371
 20
627.3212396585445
 30
0.0000000001127424
 10
4921.808393908216
 20
627.2747189419483
 30
0.0000000001127424
 10
4920.301637778302
 20
627.2349416946477
 30
0.0000000001127424
 10
4918.794715047805
 20
627.2020936266681
 30
0.0000000001127424
 10
4917.287656999707
 20
627.1763811775259
 30
0.0000000001127424
 10
4915.780493428379
 20
627.1580279293694
 30
0.0000000001127424
 10
4914.273258486787
 20
627.1472718056566
 30
0.0000000001127424
 10
4912.765989662731
 20
627.1443619014271
 30
0.0000000001127424
 10
4911.258728488317
 20
627.1495553371965
 30
0.0000000001127424
 10
4909.751520788149
 20
627.1631140977188
 30
0.0000000001127424
 10
4908.244416569411
 20
627.1853019942855
 30
0.0000000001127424
 10
4906.737471263181
 20
627.2163816104194
 30
0.0000000001127424
 10
4905.230739736402
 20
627.2566120706206
 30
0.0000000001127424
 10
4903.724297589511
 20
627.3062447592574
 30
0.0000000001127424
 10
4902.218207252765
 20
627.3655112130036
 30
0.0000000001127424
 10
4900.712531421608
 20
627.4346739899875
 30
0.0000000001127424
 10
4899.207355063141
 20
627.5139931563635
 30
0.0000000001127424
 10
4897.702764694748
 20
627.6037112234512
 30
0.0000000001127424
 10
4896.198850219271
 20
627.7040507748543
 30
0.0000000001127424
 10
4894.695704523033
 20
627.8152235710177
 30
0.0000000001127424
 10
4893.193425205896
 20
627.9374486030933
 30
0.0000000001127424
 10
4891.692117282988
 20
628.0709768365773
 30
0.0000000001127424
 10
4890.191897205827
 20
628.2161203409714
 30
0.0000000001127424
 10
4888.692898079071
 20
628.3732834103776
 30
0.0000000001127424
 10
4887.195276296994
 20
628.5429936988517
 30
0.0000000001127424
 10
4885.69921892911
 20
628.7259298180306
 30
0.0000000001127424
 10
4884.204954439911
 20
628.9229477344766
 30
0.0000000001127424
 10
4882.712752710569
 20
629.1350869742482
 30
0.0000000001127424
 10
4881.222974532419
 20
629.3636155617119
 30
0.0000000001127424
 10
4879.736138280706
 20
629.6098334082926
 30
0.0000000001127424
 10
4878.2525711947
 20
629.8756491349432
 30
0.0000000001127424
 10
4876.773094958538
 20
630.1634471085522
 30
0.0000000001127424
 10
4875.298662916298
 20
630.4758360878327
 30
0.0000000001127424
 10
4873.830415339893
 20
630.815736546871
 30
0.0000000001127424
 10
4872.369775109095
 20
631.1866139874364
 30
0.0000000001127424
 10
4870.918632464036
 20
631.5928180163146
 30
0.0000000001127424
 10
4869.479605408726
 20
632.0399401270856
 30
0.0000000001127424
 10
4868.056381709333
 20
632.535110152729
 30
0.0000000001127424
 10
4866.654157913271
 20
633.0871674506693
 30
0.0000000001127424
 10
4865.280148901366
 20
633.706566849085
 30
0.0000000001127424
 10
4863.944324253052
 20
634.4051440922512
 30
0.0000000001127424
 10
4862.659543900074
 20
635.1950362508592
 30
0.0000000001127424
 10
4861.442433840069
 20
636.0903038943075
 30
0.0000000001127424
 10
4860.314590040352
 20
637.0933414775304
 30
0.0000000001127424
 10
4859.289953459583
 20
638.207601183025
 30
0.0000000001127424
 10
4858.387997330155
 20
639.4194606593701
 30
0.0000000001127424
 10
4857.607220531338
 20
640.7121009752386
 30
0.0000000001127424
 10
4856.944371691678
 20
642.0680671705622
 30
0.0000000001127424
 10
4856.388571538618
 20
643.4697870562427
 30
0.0000000001127424
 10
4855.925416322772
 20
644.9039245828276
 30
0.0000000001127424
 10
4855.541655181917
 20
646.3616170808705
 30
0.0000000001127424
 10
4855.225789359056
 20
647.8350101982555
 30
0.0000000001127424
 10
4854.966385665994
 20
649.3192830079338
 30
0.0000000001127424
 10
4854.755130289301
 20
650.8116136805193
 30
0.0000000001127424
 10
4854.585249962386
 20
652.3091720452671
 30
0.0000000001127424
 10
4854.449753490411
 20
653.8101010926475
 30
0.0000000001127424
 10
4854.342924866543
 20
655.3134619151442
 30
0.0000000001127424
 10
4854.259693294159
 20
656.8182941301202
 30
0.0000000001127424
 10
4854.19559982782
 20
658.3240762734226
 30
0.0000000001127424
 10
4854.146810313354
 20
659.8304363881589
 30
0.0000000001127424
 10
4854.1100794665
 20
661.3371450686359
 30
0.0000000001127424
 10
4854.082712486636
 20
662.8440623782581
 30
0.0000000001127424
 10
4854.062515859523
 20
664.3511086823255
 30
0.0000000001127424
 10
4854.047742242095
 20
665.8582401129247
 30
0.0000000001127424
 10
4854.037030880138
 20
667.3654322491711
 30
0.0000000001127424
 10
4854.029345957819
 20
668.8726694915999
 30
0.0000000001127424
 10
4854.023915040647
 20
670.3799392825867
 30
0.0000000001127424
 10
4854.020169846262
 20
671.8872298669803
 30
0.0000000001127424
 10
4854.017691563314
 20
673.3945305321595
 30
0.0000000001127424
 10
4854.016162938316
 20
674.9018327949407
 30
0.0000000001127424
 10
4854.015329368694
 20
676.4091326559374
 30
0.0000000001127424
 10
4854.014971165802
 20
677.9164278759827
 30
0.0000000001127424
 10
4854.014889466263
 20
679.4230577562766
 30
0.0000000001127424
 10
4854.014901087843
 20
680.4272256419149
 30
0.0000000001127424
 10
4854.014901087843
 20
680.9289917675433
 30
0.0000000001127424
  0
SPLINE
  5
E32F
330
18
100
AcDbEntity
  8
01
100
AcDbSpline
210
0.0
220
0.0
230
1.0
 70
     8
 71
     7
 72
    41
 73
    33
 74
     0
 42
0.0000000001
 43
0.0000000001
 40
0.36527154170952
 40
0.36527154170952
 40
0.36527154170952
 40
0.36527154170952
 40
0.36527154170952
 40
0.36527154170952
 40
0.36527154170952
 40
0.36527154170952
 40
0.3925000000000001
 40
0.3925000000000001
 40
0.3925000000000001
 40
0.3925000000000001
 40
0.3925000000000001
 40
0.5261500000000001
 40
0.5261500000000001
 40
0.5261500000000001
 40
0.5261500000000001
 40
0.5261500000000001
 40
0.7423696504000001
 40
0.7423696504000001
 40
0.7423696504000001
 40
0.7423696504000001
 40
0.7423696504000001
 40
0.7998457600000001
 40
0.7998457600000001
 40
0.7998457600000001
 40
0.7998457600000001
 40
0.7998457600000001
 40
0.8862760000000001
 40
0.8862760000000001
 40
0.8862760000000001
 40
0.8862760000000001
 40
0.8862760000000001
 40
0.9909938723618601
 40
0.9909938723618601
 40
0.9909938723618601
 40
0.9909938723618601
 40
0.9909938723618601
 40
0.9909938723618601
 40
0.9909938723618601
 40
0.9909938723618601
 10
4898.034010984124
 20
647.1056818751827
 30
0.0000000001127424
 10
4898.566552295183
 20
647.2550362313391
 30
0.0000000001127424
 10
4899.098558431352
 20
647.4061415649012
 30
0.0000000001127424
 10
4899.63015983605
 20
647.5585109567164
 30
0.0000000001127424
 10
4900.161503564492
 20
647.7117105367906
 30
0.0000000001127424
 10
4900.692753634044
 20
647.8653515055262
 30
0.0000000001127424
 10
4903.831973222427
 20
648.7736627026943
 30
0.0000000001127424
 10
4906.974157678185
 20
649.672395344584
 30
0.0000000001127424
 10
4909.596523897609
 20
650.369366874027
 30
0.0000000001127424
 10
4912.238360510872
 20
651.0065907049279
 30
0.0000000001127424
 10
4914.88999199575
 20
651.590955264558
 30
0.0000000001127424
 10
4921.861481708216
 20
652.9757487341394
 30
0.0000000001127424
 10
4928.897097683278
 20
654.0029847873852
 30
0.0000000001127424
 10
4933.26192039677
 20
654.5101960194347
 30
0.0000000001127424
 10
4937.641112759718
 20
654.8929883272494
 30
0.0000000001127424
 10
4942.029140075115
 20
655.1417007959508
 30
0.0000000001127424
 10
4947.588805923159
 20
655.2855644975202
 30
0.0000000001127424
 10
4953.147849183946
 20
655.218379738887
 30
0.0000000001127424
 10
4954.315059553025
 20
655.1950227706202
 30
0.0000000001127424
 10
4955.482459164
 20
655.1625382447978
 30
0.0000000001127424
 10
4956.649135602895
 20
655.1211326022981
 30
0.0000000001127424
 10
4959.569223527591
 20
654.9941353599024
 30
0.0000000001127424
 10
4962.486293010551
 20
654.804750149407
 30
0.0000000001127424
 10
4964.236824849824
 20
654.6663367274782
 30
0.0000000001127424
 10
4965.984494977237
 20
654.4995375351168
 30
0.0000000001127424
 10
4967.729544641951
 20
654.3000369904371
 30
0.0000000001127424
 10
4971.578618450519
 20
653.7865690765584
 30
0.0000000001127424
 10
4975.404442245468
 20
653.1199051655649
 30
0.0000000001127424
 10
4977.492475939458
 20
652.7112149580389
 30
0.0000000001127424
 10
4979.572952873153
 20
652.2656912791581
 30
0.0000000001127424
 10
4981.646204778507
 20
651.7895510090666
 30
0.0000000001127424
 10
4983.713216264706
 20
651.2875781585935
 30
0.0000000001127424
 10
4985.774687328146
 20
650.7636997155364
 30
0.0000000001127424
  0
SPLINE
  5
E330
330
18
100
AcDbEntity
  8
01
100
AcDbSpline
210
0.0
220
0.0
230
1.0
 70
     8
 71
     7
 72
    16
 73
     8
 74
     0
 42
0.0000000001
 43
0.0000000001
 40
0.0
 40
0.0
 40
0.0
 40
0.0
 40
0.0
 40
0.0
 40
0.0
 40
0.0
 40
0.1017716358643688
 40
0.1017716358643688
 40
0.1017716358643688
 40
0.1017716358643688
 40
0.1017716358643688
 40
0.1017716358643688
 40
0.1017716358643688
 40
0.1017716358643688
 10
4878.014901087843
 20
680.9289916868956
 30
0.0000000001127424
 10
4878.014901087843
 20
678.8618299825175
 30
0.0000000001127424
 10
4878.014901087843
 20
676.7946682781394
 30
0.0000000001127424
 10
4878.015789773705
 20
674.7275366902504
 30
0.0000000001127424
 10
4878.017528916553
 20
672.6601954995358
 30
0.0000000001127424
 10
4878.022779988072
 20
670.5931220463144
 30
0.0000000001127424
 10
4878.033940309966
 20
668.5260554345241
 30
0.0000000001127424
 10
4878.057836711321
 20
666.4590250321594
 30
0.0000000001127424
  0
ARC
  5
E331
330
18
100
AcDbEntity
  8
01
100
AcDbCircle
 10
4985.479127693649
 20
649.600667255776
 30
0.0000000001127424
 40
1.199999999999998
100
AcDbArc
 50
351.4403082638237
 51
75.74134529849019
  0
LINE
  5
E332
330
18
100
AcDbEntity
  8
01
100
AcDbLine
 10
4854.103311114692
 20
680.9289917799529
 30
0.0000000001127424
 11
4878.014901087843
 21
680.9289916868956
 31
0.0000000001127424
  0
SPLINE
  5
E333
330
18
100
AcDbEntity
  8
01
100
AcDbSpline
210
0.0
220
0.0
230
1.0
 70
     8
 71
     3
 72
    35
 73
    31
 74
     0
 42
0.0000000001
 43
0.0000000001
 40
0.0
 40
0.0
 40
0.0
 40
0.0
 40
1.079341813305333
 40
2.15876757455452
 40
2.698479553416175
 40
3.238169012553126
 40
4.317431443495252
 40
5.935994130554508
 40
7.01493110766155
 40
8.093957868943166
 40
8.633542657771182
 40
9.173194339283066
 40
10.25259252238
 40
10.79228232805756
 40
11.33192022612186
 40
12.1413222931548
 40
13.49089177019018
 40
14.5703283949536
 40
15.7836840458702
 40
16.86270813953476
 40
18.10977483300877
 40
19.51492166316985
 40
20.63951262074476
 40
22.3256828970515
 40
24.01167295258635
 40
25.69765967388498
 40
28.63796367781883
 40
30.4219476210879
 40
33.39580098316383
 40
37.46486496956485
 40
37.46486496956485
 40
37.46486496956485
 40
37.46486496956485
 10
4898.034010987317
 20
647.1056818651227
 30
0.0000000001127424
 10
4897.687709840834
 20
647.0085596609924
 30
0.0000000001127424
 10
4896.994148308015
 20
646.8161083247242
 30
0.0000000001127424
 10
4896.125614866284
 20
646.5823406546947
 30
0.0000000001127424
 10
4895.429306633706
 20
646.4006607554634
 30
0.0000000001127424
 10
4894.732013358066
 20
646.2230549110745
 30
0.0000000001127424
 10
4893.683637044995
 20
645.9669807828022
 30
0.0000000001127424
 10
4892.454698259497
 20
645.6932367742133
 30
0.0000000001127424
 10
4891.218636274838
 20
645.4542599786282
 30
0.0000000001127424
 10
4890.331250372648
 20
645.3083648695456
 30
0.0000000001127424
 10
4889.618492071109
 20
645.2103073634894
 30
0.0000000001127424
 10
4888.903851875029
 20
645.1262875548987
 30
0.0000000001127424
 10
4888.186587224569
 20
645.0658669495715
 30
0.0000000001127424
 10
4887.467570114339
 20
645.035658245436
 30
0.0000000001127424
 10
4886.837919381835
 20
645.0293062488468
 30
0.0000000001127424
 10
4885.938607204216
 20
645.060969923662
 30
0.0000000001127424
 10
4884.864996084606
 20
645.1937311990819
 30
0.0000000001127424
 10
4883.688869065281
 20
645.506987408759
 30
0.0000000001127424
 10
4882.660266507091
 20
645.9728049176924
 30
0.0000000001127424
 10
4881.69641347564
 20
646.6627331569316
 30
0.0000000001127424
 10
4880.847354832319
 20
647.5807417781234
 30
0.0000000001127424
 10
4880.188966451035
 20
648.6599720426511
 30
0.0000000001127424
 10
4879.630010988673
 20
649.9514843268657
 30
0.0000000001127424
 10
4879.195620864954
 20
651.3886835418557
 30
0.0000000001127424
 10
4878.85322863701
 20
653.0406168344139
 30
0.0000000001127424
 10
4878.550520569592
 20
655.1235373588902
 30
0.0000000001127424
 10
4878.361761589644
 20
657.2527608668611
 30
0.0000000001127424
 10
4878.214548321675
 20
659.814647344645
 30
0.0000000001127424
 10
4878.112091562864
 20
662.7553800272808
 30
0.0000000001127424
 10
4878.073515983886
 20
665.1027734109525
 30
0.0000000001127424
 10
4878.057836711321
 20
666.4590250321594
 30
0.0000000001127424
  0
SPLINE
  5
E338
330
18
100
AcDbEntity
  8
01
100
AcDbSpline
210
0.0
220
0.0
230
1.0
 70
     8
 71
     3
 72
    81
 73
    77
 74
     0
 42
0.0000000001
 43
0.0000000001
 40
0.0
 40
0.0
 40
0.0
 40
0.0
 40
1.507377579222721
 40
3.014696589640451
 40
4.521948830476804
 40
6.02913110871596
 40
7.536234323607392
 40
9.043236478169826
 40
10.550098550863
 40
12.05676222070489
 40
13.56314852908433
 40
15.06915670333719
 40
16.57466257573041
 40
18.07951631437792
 40
19.58353953419419
 40
21.08652225687826
 40
22.58822060602797
 40
24.08835651185822
 40
25.58662100581668
 40
27.0826828498261
 40
28.57621700256012
 40
30.0667103170724
 40
31.55379770817378
 40
33.03706604166707
 40
34.51527197333684
 40
35.98721298592052
 40
37.45215424056653
 40
38.90871550600351
 40
40.35627402009483
 40
41.79607332118604
 40
43.23019787373446
 40
44.66149752695327
 40
46.09673244357403
 40
47.5372031633948
 40
48.98637301493239
 40
50.44429774421598
 40
51.91003166121107
 40
53.38253322720988
 40
54.86067339304874
 40
56.34333999626489
 40
57.82954006358568
 40
59.31846887070137
 40
60.80953756158578
 40
62.30236048014972
 40
63.7967056944248
 40
65.29241232774487
 40
66.78927828021578
 40
68.28697704566122
 40
69.78537881304699
 40
71.2843941693543
 40
72.78391887379972
 40
74.28385303282865
 40
75.78410606790501
 40
77.28460079116621
 40
78.78527628825765
 40
80.28608939968252
 40
81.7870146598402
 40
83.28804261817179
 40
84.78917654174603
 40
86.29042758600403
 40
87.79180861510866
 40
89.29332694564621
 40
90.79497653169751
 40
92.29675504527569
 40
93.79867386127626
 40
95.30073800616076
 40
96.80295078628376
 40
98.3053137075744
 40
99.80782639999852
 40
101.3104865587274
 40
102.8132899109766
 40
104.3162302150131
 40
105.8192992958719
 40
107.322487120846
 40
108.8257819167786
 40
110.3291703305111
 40
110.3291703305111
 40
110.3291703305111
 40
110.3291703305111
 10
4854.103403279792
 20
527.8014118840069
 30
0.0000000001127424
 10
4854.103871460367
 20
527.8042875924298
 30
0.0000000001127424
 10
4854.104798783796
 20
527.8100368308578
 30
0.0000000001127424
 10
4854.106297498565
 20
527.8186569249924
 30
0.0000000001127424
 10
4854.108081524036
 20
527.8272742428821
 30
0.0000000001127424
 10
4854.110350317492
 20
527.8358904039246
 30
0.0000000001127424
 10
4854.113324294462
 20
527.8445069437475
 30
0.0000000001127424
 10
4854.11725914235
 20
527.8531254573895
 30
0.0000000001127424
 10
4854.122473807371
 20
527.861747628453
 30
0.0000000001127424
 10
4854.129389750457
 20
527.8703753263981
 30
0.0000000001127424
 10
4854.138579258088
 20
527.8790107206373
 30
0.0000000001127424
 10
4854.150820539498
 20
527.8876564077782
 30
0.0000000001127424
 10
4854.167157324344
 20
527.8963155529345
 30
0.0000000001127424
 10
4854.188960656226
 20
527.9049920550292
 30
0.0000000001127424
 10
4854.217990532744
 20
527.9136907572965
 30
0.0000000001127424
 10
4854.256455107326
 20
527.9224177255633
 30
0.0000000001127424
 10
4854.307064851308
 20
527.9311806464661
 30
0.0000000001127424
 10
4854.373080222826
 20
527.9399893035065
 30
0.0000000001127424
 10
4854.458347128735
 20
527.9488564270287
 30
0.0000000001127424
 10
4854.567330718332
 20
527.9577979272981
 30
0.0000000001127424
 10
4854.705091994381
 20
527.9668358185922
 30
0.0000000001127424
 10
4854.877333097742
 20
527.9759914835222
 30
0.0000000001127424
 10
4855.090986153068
 20
527.9853029267033
 30
0.0000000001127424
 10
4855.352736429021
 20
527.9948089312311
 30
0.0000000001127424
 10
4855.670764441287
 20
528.004548967845
 30
0.0000000001127424
 10
4856.056217249621
 20
528.0146010744265
 30
0.0000000001127424
 10
4856.52020216308
 20
528.0250610923345
 30
0.0000000001127424
 10
4857.075332701268
 20
528.0360554833824
 30
0.0000000001127424
 10
4857.735171863194
 20
528.0477495996761
 30
0.0000000001127424
 10
4858.509969497082
 20
528.0602822884766
 30
0.0000000001127424
 10
4859.402814408824
 20
528.0736851371671
 30
0.0000000001127424
 10
4860.415377592945
 20
528.0880722096085
 30
0.0000000001127424
 10
4861.530901531009
 20
528.1028560894897
 30
0.0000000001127424
 10
4862.735762044172
 20
528.1179492313572
 30
0.0000000001127424
 10
4864.010322822096
 20
528.1327077841884
 30
0.0000000001127424
 10
4865.337800844892
 20
528.1468332274112
 30
0.0000000001127424
 10
4866.705222895787
 20
528.1601777183864
 30
0.0000000001127424
 10
4868.102325658726
 20
528.1726684724499
 30
0.0000000001127424
 10
4869.521592714575
 20
528.1843224610957
 30
0.0000000001127424
 10
4870.957543298775
 20
528.1952114934047
 30
0.0000000001127424
 10
4872.406253068374
 20
528.2054352497162
 30
0.0000000001127424
 10
4873.864922206491
 20
528.2150963907507
 30
0.0000000001127424
 10
4875.331534249153
 20
528.2242844183079
 30
0.0000000001127424
 10
4876.804589501436
 20
528.2330686706764
 30
0.0000000001127424
 10
4878.282908194577
 20
528.241499399307
 30
0.0000000001127424
 10
4879.765513076721
 20
528.2496175415263
 30
0.0000000001127424
 10
4881.251548601131
 20
528.2574633192257
 30
0.0000000001127424
 10
4882.740582493659
 20
528.2651117171172
 30
0.0000000001127424
 10
4884.232114016098
 20
528.2726007250967
 30
0.0000000001127424
 10
4885.725750079881
 20
528.2799599229725
 30
0.0000000001127424
 10
4887.221201384807
 20
528.2872238657019
 30
0.0000000001127424
 10
4888.718216985206
 20
528.2944230895505
 30
0.0000000001127424
 10
4890.216589774142
 20
528.3015855338517
 30
0.0000000001127424
 10
4891.716145423681
 20
528.3087356476035
 30
0.0000000001127424
 10
4893.216736079402
 20
528.3158945353625
 30
0.0000000001127424
 10
4894.718234202497
 20
528.3230801773325
 30
0.0000000001127424
 10
4896.220527675306
 20
528.330307896118
 30
0.0000000001127424
 10
4897.723515739687
 20
528.3375909308129
 30
0.0000000001127424
 10
4899.227105795856
 20
528.3449410603262
 30
0.0000000001127424
 10
4900.731210792591
 20
528.3523691982564
 30
0.0000000001127424
 10
4902.235747643184
 20
528.3598858838714
 30
0.0000000001127424
 10
4903.740634598716
 20
528.3675016153311
 30
0.0000000001127424
 10
4905.245803356707
 20
528.3752269413162
 30
0.0000000001127424
 10
4906.751195386577
 20
528.3830725923231
 30
0.0000000001127424
 10
4908.256739769671
 20
528.3910463892867
 30
0.0000000001127424
 10
4909.762384872535
 20
528.3991567709841
 30
0.0000000001127424
 10
4911.268078928769
 20
528.4074111485779
 30
0.0000000001127424
 10
4912.773775376239
 20
528.4158162350732
 30
0.0000000001127424
 10
4914.279431627907
 20
528.4243778512132
 30
0.0000000001127424
 10
4915.785009072583
 20
528.4331008779504
 30
0.0000000001127424
 10
4917.290472557625
 20
528.4419891809466
 30
0.0000000001127424
 10
4918.795790210364
 20
528.4510455593445
 30
0.0000000001127424
 10
4920.300932013032
 20
528.46027169836
 30
0.0000000001127424
 10
4921.805872711092
 20
528.4696681665387
 30
0.0000000001127424
 10
4923.310578414017
 20
528.4792343231275
 30
0.0000000001127424
 10
4924.313534168512
 20
528.485723685656
 30
0.0000000001127424
 10
4924.81495356693
 20
528.4889958142103
 30
0.0000000001127424
  0
SPLINE
  5
E339
330
18
100
AcDbEntity
  8
01
100
AcDbSpline
210
0.0
220
0.0
230
1.0
 70
     8
 71
     3
 72
    79
 73
    75
 74
     0
 42
0.0000000001
 43
0.0000000001
 40
3.931374012247683
 40
3.931374012247683
 40
3.931374012247683
 40
3.931374012247683
 40
3.967245128317709
 40
4.375304082629389
 40
4.783363036941069
 40
5.071144169629894
 40
5.363946496194782
 40
5.660515152174336
 40
6.55973008558562
 40
7.460674745373851
 40
8.367272947924162
 40
9.281108791566492
 40
10.20210115232922
 40
11.13000165648409
 40
12.06449143720286
 40
13.00483967379862
 40
13.95029395623434
 40
14.90024690113515
 40
15.85414139974398
 40
16.81142502753991
 40
17.77164832721687
 40
18.73443972196653
 40
19.69945338924898
 40
20.66637251175204
 40
21.63495530143226
 40
22.60500735564777
 40
23.5763475506497
 40
24.54882859540777
 40
25.5223307072382
 40
26.49674348569976
 40
27.47196516594657
 40
28.4479076461914
 40
29.42448889958568
 40
30.40162874139537
 40
31.37926922296445
 40
32.35737315195983
 40
33.33591418376087
 40
34.31486594862551
 40
35.29419057002893
 40
36.27385173133663
 40
37.25382098092285
 40
38.23407720454642
 40
39.21460387880189
 40
40.19537912975807
 40
41.17637312991406
 40
42.15755829440517
 40
43.13891844321646
 40
44.1204513918624
 40
45.10216445840287
 40
46.08406100501743
 40
47.06612965622121
 40
48.04834532712773
 40
49.03067930398206
 40
50.01311435028904
 40
50.9956497113313
 40
51.97829199388121
 40
52.96104203370094
 40
53.94389045887678
 40
54.92682166133747
 40
55.90982544840209
 40
56.89290380394911
 40
57.8760678054314
 40
58.8593223267809
 40
59.84265274709899
 40
60.82602666314254
 40
61.80941804991656
 40
62.7928390252338
 40
63.77634491497864
 40
64.76000120723782
 40
65.74381569752138
 40
66.7277112535595
 40
67.71158352965631
 40
68.69546426922784
 40
69.67954140729671
 40
69.67954140729671
 40
69.67954140729671
 40
69.67954140729671
 10
4984.93953878081
 20
526.3119539645713
 30
0.0000000001127424
 10
4984.935479545835
 20
526.311855847202
 30
0.0000000001127424
 10
4984.885217105259
 20
526.3112198309659
 30
0.0000000001127424
 10
4984.787985389865
 20
526.322712760636
 30
0.0000000001127424
 10
4984.657173515235
 20
526.3526070346775
 30
0.0000000001127424
 10
4984.533850484595
 20
526.3854496993654
 30
0.0000000001127424
 10
4984.419628296812
 20
526.4172260114628
 30
0.0000000001127424
 10
4984.216709819469
 20
526.4736025551229
 30
0.0000000001127424
 10
4983.902744115842
 20
526.5550437161346
 30
0.0000000001127424
 10
4983.440822193597
 20
526.6638449716129
 30
0.0000000001127424
 10
4982.923678028027
 20
526.7754459168009
 30
0.0000000001127424
 10
4982.353772206834
 20
526.886909530881
 30
0.0000000001127424
 10
4981.735330471894
 20
526.9963419286601
 30
0.0000000001127424
 10
4981.0730029431
 20
527.1021301679057
 30
0.0000000001127424
 10
4980.371820330268
 20
527.2032474524158
 30
0.0000000001127424
 10
4979.636682658428
 20
527.29908148912
 30
0.0000000001127424
 10
4978.872062072086
 20
527.3893177795849
 30
0.0000000001127424
 10
4978.081912362951
 20
527.4738578136116
 30
0.0000000001127424
 10
4977.269704425858
 20
527.5527418666197
 30
0.0000000001127424
 10
4976.438442765808
 20
527.6261626146338
 30
0.0000000001127424
 10
4975.590704624345
 20
527.6943614492316
 30
0.0000000001127424
 10
4974.728682965809
 20
527.757625471158
 30
0.0000000001127424
 10
4973.854243113043
 20
527.8162533131572
 30
0.0000000001127424
 10
4972.968965598117
 20
527.8705419975572
 30
0.0000000001127424
 10
4972.074183557518
 20
527.9207818483046
 30
0.0000000001127424
 10
4971.1710268048
 20
527.9672566375111
 30
0.0000000001127424
 10
4970.260465115389
 20
528.0102437810001
 30
0.0000000001127424
 10
4969.343334955082
 20
528.0500112299715
 30
0.0000000001127424
 10
4968.42035684421
 20
528.0868137297539
 30
0.0000000001127424
 10
4967.49216066183
 20
528.1208891909755
 30
0.0000000001127424
 10
4966.559294167436
 20
528.1524551100829
 30
0.0000000001127424
 10
4965.622230857803
 20
528.1817131312928
 30
0.0000000001127424
 10
4964.68138634883
 20
528.2088488425156
 30
0.0000000001127424
 10
4963.737121855665
 20
528.2340313004611
 30
0.0000000001127424
 10
4962.789748991904
 20
528.2574165419755
 30
0.0000000001127424
 10
4961.839535381429
 20
528.2791529169717
 30
0.0000000001127424
 10
4960.886717335865
 20
528.2993839119772
 30
0.0000000001127424
 10
4959.931512395248
 20
528.3182467604825
 30
0.0000000001127424
 10
4958.974122841987
 20
528.3358685775056
 30
0.0000000001127424
 10
4958.014733935637
 20
528.3523629988699
 30
0.0000000001127424
 10
4957.053509373966
 20
528.3678288355018
 30
0.0000000001127424
 10
4956.09059217607
 20
528.3823503057893
 30
0.0000000001127424
 10
4955.126110561478
 20
528.3959979714068
 30
0.0000000001127424
 10
4954.160183515782
 20
528.4088291002613
 30
0.0000000001127424
 10
4953.192921341267
 20
528.4208869541726
 30
0.0000000001127424
 10
4952.224419386628
 20
528.4322021924067
 30
0.0000000001127424
 10
4951.254759567026
 20
528.4427956154937
 30
0.0000000001127424
 10
4950.284005232992
 20
528.4526847184807
 30
0.0000000001127424
 10
4949.312212305477
 20
528.4618961894048
 30
0.0000000001127424
 10
4948.339439362067
 20
528.4704693612775
 30
0.0000000001127424
 10
4947.36575296788
 20
528.4784476905361
 30
0.0000000001127424
 10
4946.3912241483
 20
528.4858633719778
 30
0.0000000001127424
 10
4945.415918356493
 20
528.4927262099263
 30
0.0000000001127424
 10
4944.43988754748
 20
528.4990264905928
 30
0.0000000001127424
 10
4943.463169797469
 20
528.5047471609792
 30
0.0000000001127424
 10
4942.485796541022
 20
528.5098763347942
 30
0.0000000001127424
 10
4941.507801288207
 20
528.5144101975638
 30
0.0000000001127424
 10
4940.529224024151
 20
528.5183446126821
 30
0.0000000001127424
 10
4939.550104642599
 20
528.5216644688007
 30
0.0000000001127424
 10
4938.570476058727
 20
528.5243419848794
 30
0.0000000001127424
 10
4937.590361027549
 20
528.5263469606698
 30
0.0000000001127424
 10
4936.609777862756
 20
528.5276609691964
 30
0.0000000001127424
 10
4935.628751163161
 20
528.5282840077098
 30
0.0000000001127424
 10
4934.647318454703
 20
528.5282198591735
 30
0.0000000001127424
 10
4933.66552363689
 20
528.5274520225212
 30
0.0000000001127424
 10
4932.683397264396
 20
528.5259267322022
 30
0.0000000001127424
 10
4931.700939922242
 20
528.5235796361785
 30
0.0000000001127424
 10
4930.718125347602
 20
528.5203912301881
 30
0.0000000001127424
 10
4929.734934204377
 20
528.5164414973401
 30
0.0000000001127424
 10
4928.751392272648
 20
528.5118899121453
 30
0.0000000001127424
 10
4927.767576521858
 20
528.5068766825207
 30
0.0000000001127424
 10
4926.783545249099
 20
528.501413789138
 30
0.0000000001127424
 10
4925.799269360972
 20
528.4954132222406
 30
0.0000000001127424
 10
4925.142938510641
 20
528.4911364212212
 30
0.0000000001127424
 10
4924.814721752527
 20
528.4889946014514
 30
0.0000000001127424
  0
SPLINE
  5
E33A
330
18
100
AcDbEntity
  8
01
100
AcDbSpline
210
0.0
220
0.0
230
1.0
 70
     8
 71
     3
 72
    79
 73
    75
 74
     0
 42
0.0000000001
 43
0.0000000001
 40
3.931374022388029
 40
3.931374022388029
 40
3.931374022388029
 40
3.931374022388029
 40
3.96724513021216
 40
4.375304085114086
 40
4.783363040016011
 40
5.071144172714899
 40
5.363946498582206
 40
5.660515153893665
 40
6.559730090378871
 40
7.460674752888428
 40
8.367272953448277
 40
9.281108797216518
 40
10.20210115801455
 40
11.13000166304855
 40
12.06449144770674
 40
13.00483968439017
 40
13.95029396397636
 40
14.90024691014005
 40
15.85414141112155
 40
16.81142503940715
 40
17.77164833928923
 40
18.73443973456192
 40
19.69945340227258
 40
20.66637252495594
 40
21.63495531481439
 40
22.60500736941173
 40
23.57634756493524
 40
24.54882861023114
 40
25.52233072259388
 40
26.4967435015732
 40
27.47196518225632
 40
28.44790766279311
 40
29.42448891639564
 40
30.40162875850474
 40
31.37926924056492
 40
32.3573731701755
 40
33.33591420250272
 40
34.31486596769199
 40
35.29419058926077
 40
36.27385175078081
 40
37.25382100074473
 40
38.2340772249117
 40
39.21460389974055
 40
40.19537915117576
 40
41.17637315172527
 40
42.15755831656614
 40
43.13891846570005
 40
44.12045141467611
 40
45.1021644815204
 40
46.08406102845036
 40
47.06612968000016
 40
48.04834535131227
 40
49.03067932862844
 40
50.01311437547033
 40
50.99564973707182
 40
51.97829202006402
 40
52.96104206011538
 40
53.94389048539114
 40
54.9268216879885
 40
55.90982547549364
 40
56.89290383173358
 40
57.87606783392833
 40
58.8593223556408
 40
59.8426527759381
 40
60.82602669185692
 40
61.80941807887298
 40
62.79283905492976
 40
63.77634494576048
 40
64.76000123888282
 40
65.74381572954138
 40
66.72771128555638
 40
67.71158356170443
 40
68.69546430165092
 40
69.67954144016505
 40
69.67954144016505
 40
69.67954144016505
 40
69.67954144016505
 10
4984.939538783913
 20
533.5486661209834
 30
0.0000000001127424
 10
4984.935479549882
 20
533.5487642383023
 30
0.0000000001127424
 10
4984.885217110312
 20
533.5494002543237
 30
0.0000000001127424
 10
4984.78798539578
 20
533.5379073246249
 30
0.0000000001127424
 10
4984.657173520902
 20
533.5080130504457
 30
0.0000000001127424
 10
4984.533850490325
 20
533.475170385691
 30
0.0000000001127424
 10
4984.419628302857
 20
533.4433940735939
 30
0.0000000001127424
 10
4984.216709824153
 20
533.3870175299048
 30
0.0000000001127424
 10
4983.902744118636
 20
533.3055763687676
 30
0.0000000001127424
 10
4983.440822198016
 20
533.1967751127859
 30
0.0000000001127424
 10
4982.923678033016
 20
533.0851741673141
 30
0.0000000001127424
 10
4982.353772210828
 20
532.9737105534314
 30
0.0000000001127424
 10
4981.735330474777
 20
532.864278155701
 30
0.0000000001127424
 10
4981.073002942568
 20
532.7584899167477
 30
0.0000000001127424
 10
4980.371820328138
 20
532.6573726321617
 30
0.0000000001127424
 10
4979.636682657914
 20
532.5615385947476
 30
0.0000000001127424
 10
4978.872062071051
 20
532.4713023045574
 30
0.0000000001127424
 10
4978.081912359641
 20
532.3867622713087
 30
0.0000000001127424
 10
4977.269704421161
 20
532.3078782182865
 30
0.0000000001127424
 10
4976.43844276046
 20
532.2344574700501
 30
0.0000000001127424
 10
4975.590704618537
 20
532.1662586354491
 30
0.0000000001127424
 10
4974.728682959607
 20
532.1029946135027
 30
0.0000000001127424
 10
4973.854243106529
 20
532.044366771433
 30
0.0000000001127424
 10
4972.968965591288
 20
531.9900780870398
 30
0.0000000001127424
 10
4972.07418355026
 20
531.9398382364002
 30
0.0000000001127424
 10
4971.171026796957
 20
531.8933634473533
 30
0.0000000001127424
 10
4970.260465106869
 20
531.8503763040198
 30
0.0000000001127424
 10
4969.343334945918
 20
531.8106088551413
 30
0.0000000001127424
 10
4968.420356834456
 20
531.7738063554079
 30
0.0000000001127424
 10
4967.492160651563
 20
531.7397308941936
 30
0.0000000001127424
 10
4966.559294156787
 20
531.7081649750312
 30
0.0000000001127424
 10
4965.622230846845
 20
531.6789069537967
 30
0.0000000001127424
 10
4964.681386337566
 20
531.6517712426012
 30
0.0000000001127424
 10
4963.737121843952
 20
531.6265887847958
 30
0.0000000001127424
 10
4962.789748979618
 20
531.6032035434228
 30
0.0000000001127424
 10
4961.839535368571
 20
531.5814671684593
 30
0.0000000001127424
 10
4960.886717322563
 20
531.5612361733665
 30
0.0000000001127424
 10
4959.931512381657
 20
531.5423733247508
 30
0.0000000001127424
 10
4958.974122828159
 20
531.5247515077021
 30
0.0000000001127424
 10
4958.014733921481
 20
531.5082570864574
 30
0.0000000001127424
 10
4957.053509359327
 20
531.4927912500252
 30
0.0000000001127424
 10
4956.090592160864
 20
531.4782697798773
 30
0.0000000001127424
 10
4955.126110545738
 20
531.4646221142489
 30
0.0000000001127424
 10
4954.16018349959
 20
531.4517909853016
 30
0.0000000001127424
 10
4953.192921324696
 20
531.4397331312939
 30
0.0000000001127424
 10
4952.224419369761
 20
531.4284178928624
 30
0.0000000001127424
 10
4951.254759549779
 20
531.4178244698778
 30
0.0000000001127424
 10
4950.284005215478
 20
531.4079353666984
 30
0.0000000001127424
 10
4949.312212287608
 20
531.3987238958644
 30
0.0000000001127424
 10
4948.339439343851
 20
531.3901507240407
 30
0.0000000001127424
 10
4947.365752949267
 20
531.3821723949077
 30
0.0000000001127424
 10
4946.39122412929
 20
531.3747567133951
 30
0.0000000001127424
 10
4945.415918336881
 20
531.3678938759858
 30
0.0000000001127424
 10
4944.439887527403
 20
531.3615935950588
 30
0.0000000001127424
 10
4943.463169776866
 20
531.355872924712
 30
0.0000000001127424
 10
4942.485796520105
 20
531.3507437503558
 30
0.0000000001127424
 10
4941.507801266975
 20
531.346209887859
 30
0.0000000001127424
 10
4940.529224002856
 20
531.3422754721269
 30
0.0000000001127424
 10
4939.550104620889
 20
531.3389556171405
 30
0.0000000001127424
 10
4938.570476036638
 20
531.3362781007372
 30
0.0000000001127424
 10
4937.590361004717
 20
531.3342731258576
 30
0.0000000001127424
 10
4936.609777839444
 20
531.3329591164438
 30
0.0000000001127424
 10
4935.628751139448
 20
531.3323360782933
 30
0.0000000001127424
 10
4934.647318430992
 20
531.3324002260788
 30
0.0000000001127424
 10
4933.665523613022
 20
531.3331680639458
 30
0.0000000001127424
 10
4932.683397240273
 20
531.334693353856
 30
0.0000000001127424
 10
4931.700939897227
 20
531.3370404523557
 30
0.0000000001127424
 10
4930.718125321788
 20
531.3402288571024
 30
0.0000000001127424
 10
4929.734934177802
 20
531.3441785896753
 30
0.0000000001127424
 10
4928.751392245721
 20
531.348730173896
 30
0.0000000001127424
 10
4927.767576494807
 20
531.3537434033119
 30
0.0000000001127424
 10
4926.783545221959
 20
531.3592062952075
 30
0.0000000001127424
 10
4925.799269333467
 20
531.3652068649076
 30
0.0000000001127424
 10
4925.142938482837
 20
531.3694836639461
 30
0.0000000001127424
 10
4924.814721724638
 20
531.3716254836509
 30
0.0000000001127424
  0
SPLINE
  5
E33B
330
18
100
AcDbEntity
  8
01
100
AcDbSpline
210
0.0
220
0.0
230
1.0
 70
     8
 71
     3
 72
    81
 73
    77
 74
     0
 42
0.0000000001
 43
0.0000000001
 40
0.0
 40
0.0
 40
0.0
 40
0.0
 40
1.503388413731647
 40
3.006683209663306
 40
4.509871034636217
 40
6.012940115493324
 40
7.515880419528148
 40
9.018683771775393
 40
10.52134393049949
 40
12.02385662291804
 40
13.52621954420232
 40
15.02843232432125
 40
16.53049646919737
 40
18.0324152851808
 40
19.53419379874
 40
21.03584338477046
 40
22.53736171528528
 40
24.03874274436519
 40
25.53999378859645
 40
27.04112771214198
 40
28.54215567046397
 40
30.04308093062086
 40
31.54389404204495
 40
33.04456953908054
 40
34.54506426226281
 40
36.04531729725415
 40
37.54525145619078
 40
39.04477616053522
 40
40.5437915167312
 40
42.04219328399336
 40
43.53989204930112
 40
45.03675800161749
 40
46.53246463476054
 40
48.02680984883236
 40
49.5196327671632
 40
51.01070145777931
 40
52.49963026458305
 40
53.98583033153574
 40
55.46849693489879
 40
56.9466371012715
 40
58.41913866792249
 40
59.88487258571427
 40
61.34279731596539
 40
62.79196716866709
 40
64.23243788985084
 40
65.66767280624006
 40
67.09897245783819
 40
68.53309700879257
 40
69.97289630837994
 40
71.42045482110842
 40
72.8770160853593
 40
74.34195733899267
 40
75.8138983507115
 40
77.29210428165331
 40
78.7753726145316
 40
80.26246000510453
 40
81.75295331916756
 40
83.24648747166776
 40
84.74254931551982
 40
86.24081380934868
 40
87.7409497150737
 40
89.24264806413913
 40
90.74563078675666
 40
92.24965400652111
 40
93.75450774512872
 40
95.26001361749154
 40
96.76602179172133
 40
98.27240810008331
 40
99.77907176991187
 40
101.2859338425948
 40
102.7929359971494
 40
104.30003921205
 40
105.8072214902855
 40
107.3144737311192
 40
108.8217927415389
 40
110.3291703210024
 40
110.3291703210024
 40
110.3291703210024
 40
110.3291703210024
 10
4924.81495356693
 20
531.371624271419
 30
0.0000000001127424
 10
4924.313534168512
 20
531.3748963999733
 30
0.0000000001127424
 10
4923.310578414018
 20
531.3813857625059
 30
0.0000000001127424
 10
4921.805872711093
 20
531.3909519191075
 30
0.0000000001127424
 10
4920.300932013034
 20
531.4003483873234
 30
0.0000000001127424
 10
4918.795790210367
 20
531.4095745264231
 30
0.0000000001127424
 10
4917.29047255763
 20
531.4186309045663
 30
0.0000000001127424
 10
4915.785009072591
 20
531.4275192080036
 30
0.0000000001127424
 10
4914.279431627916
 20
531.4362422346903
 30
0.0000000001127424
 10
4912.773775376249
 20
531.4448038508212
 30
0.0000000001127424
 10
4911.268078928789
 20
531.4532089376271
 30
0.0000000001127424
 10
4909.762384872532
 20
531.4614633142069
 30
0.0000000001127424
 10
4908.256739769723
 20
531.4695736975191
 30
0.0000000001127424
 10
4906.751195386621
 20
531.4775474941353
 30
0.0000000001127424
 10
4905.245803356764
 20
531.4853931453163
 30
0.0000000001127424
 10
4903.74063459878
 20
531.4931184713364
 30
0.0000000001127424
 10
4902.235747643258
 20
531.5007342028516
 30
0.0000000001127424
 10
4900.731210792677
 20
531.5082508885662
 30
0.0000000001127424
 10
4899.227105795942
 20
531.5156790263823
 30
0.0000000001127424
 10
4897.723515739816
 20
531.5230291565763
 30
0.0000000001127424
 10
4896.220527675278
 20
531.5303121889697
 30
0.0000000001127424
 10
4894.718234202543
 20
531.5375399087025
 30
0.0000000001127424
 10
4893.216736079356
 20
531.5447255491836
 30
0.0000000001127424
 10
4891.716145424055
 20
531.5518844419471
 30
0.0000000001127424
 10
4890.216589774416
 20
531.5590345544551
 30
0.0000000001127424
 10
4888.718216985531
 20
531.5661969991797
 30
0.0000000001127424
 10
4887.221201385146
 20
531.5733962229983
 30
0.0000000001127424
 10
4885.725750080243
 20
531.5806601658132
 30
0.0000000001127424
 10
4884.232114016483
 20
531.5880193637386
 30
0.0000000001127424
 10
4882.740582494069
 20
531.5955083717727
 30
0.0000000001127424
 10
4881.251548601566
 20
531.6031567697128
 30
0.0000000001127424
 10
4879.765513077185
 20
531.61100254746
 30
0.0000000001127424
 10
4878.282908195073
 20
531.6191206897206
 30
0.0000000001127424
 10
4876.80458950197
 20
531.6275514184135
 30
0.0000000001127424
 10
4875.331534249718
 20
531.6363356707607
 30
0.0000000001127424
 10
4873.864922207143
 20
531.6455236986126
 30
0.0000000001127424
 10
4872.406253068942
 20
531.6551848387717
 30
0.0000000001127424
 10
4870.95754329975
 20
531.6654085985765
 30
0.0000000001127424
 10
4869.52159271314
 20
531.6762976181653
 30
0.0000000001127424
 10
4868.102325657988
 20
531.687951610124
 30
0.0000000001127424
 10
4866.705222894718
 20
531.7004423631879
 30
0.0000000001127424
 10
4865.337800843734
 20
531.7137868543932
 30
0.0000000001127424
 10
4864.010322820597
 20
531.72791229716
 30
0.0000000001127424
 10
4862.735762042862
 20
531.7426708509943
 30
0.0000000001127424
 10
4861.530901528306
 20
531.7577639887099
 30
0.0000000001127424
 10
4860.41537759714
 20
531.7725478834614
 30
0.0000000001127424
 10
4859.402814410927
 20
531.7869349520497
 30
0.0000000001127424
 10
4858.509969499987
 20
531.8003378018634
 30
0.0000000001127424
 10
4857.73517186614
 20
531.8128704904288
 30
0.0000000001127424
 10
4857.075332704389
 20
531.8245646068376
 30
0.0000000001127424
 10
4856.52020216628
 20
531.8355589978928
 30
0.0000000001127424
 10
4856.056217252878
 20
531.846019015828
 30
0.0000000001127424
 10
4855.670764444573
 20
531.8560711224318
 30
0.0000000001127424
 10
4855.352736432307
 20
531.865811159043
 30
0.0000000001127424
 10
4855.090986156414
 20
531.8753171636654
 30
0.0000000001127424
 10
4854.877333100885
 20
531.8846286065709
 30
0.0000000001127424
 10
4854.705091998278
 20
531.8937842726109
 30
0.0000000001127424
 10
4854.567330719378
 20
531.9028221598301
 30
0.0000000001127424
 10
4854.45834713055
 20
531.911763661205
 30
0.0000000001127424
 10
4854.373080224434
 20
531.9206307844411
 30
0.0000000001127424
 10
4854.307064852974
 20
531.9294394415688
 30
0.0000000001127424
 10
4854.256455108979
 20
531.9382023624594
 30
0.0000000001127424
 10
4854.217990534405
 20
531.9469293307397
 30
0.0000000001127424
 10
4854.18896065789
 20
531.9556280330139
 30
0.0000000001127424
 10
4854.167157326011
 20
531.9643045351168
 30
0.0000000001127424
 10
4854.150820541169
 20
531.9729636802799
 30
0.0000000001127424
 10
4854.138579259764
 20
531.981609367429
 30
0.0000000001127424
 10
4854.129389752133
 20
531.9902447616682
 30
0.0000000001127424
 10
4854.122473809065
 20
531.998872459641
 30
0.0000000001127424
 10
4854.117259143991
 20
532.0074946306245
 30
0.0000000001127424
 10
4854.113324296322
 20
532.0161131445852
 30
0.0000000001127424
 10
4854.110350318548
 20
532.0247296832376
 30
0.0000000001127424
 10
4854.108081525568
 20
532.0333458449727
 30
0.0000000001127424
 10
4854.106297499005
 20
532.0419631612749
 30
0.0000000001127424
 10
4854.104798788142
 20
532.0505832610747
 30
0.0000000001127424
 10
4854.103871454607
 20
532.0563324848413
 30
0.0000000001127424
 10
4854.103403274029
 20
532.0592081932655
 30
0.0000000001127424
  0
SPLINE
  5
E33C
330
18
100
AcDbEntity
  8
01
100
AcDbSpline
210
0.0
220
0.0
230
1.0
 70
     8
 71
     9
 72
    50
 73
    40
 74
     0
 42
0.0000000001
 43
0.0000000001
 40
0.3401980809210514
 40
0.3401980809210514
 40
0.3401980809210514
 40
0.3401980809210514
 40
0.3401980809210514
 40
0.3401980809210514
 40
0.3401980809210514
 40
0.3401980809210514
 40
0.3401980809210514
 40
0.3401980809210514
 40
0.375
 40
0.375
 40
0.375
 40
0.375
 40
0.375
 40
0.5
 40
0.5
 40
0.5
 40
0.5
 40
0.5
 40
0.625
 40
0.625
 40
0.625
 40
0.625
 40
0.625
 40
0.6874999999999999
 40
0.6874999999999999
 40
0.6874999999999999
 40
0.6874999999999999
 40
0.6874999999999999
 40
0.7187499999999999
 40
0.7187499999999999
 40
0.7187499999999999
 40
0.7187499999999999
 40
0.7187499999999999
 40
0.75
 40
0.75
 40
0.75
 40
0.75
 40
0.75
 40
0.9953665347443595
 40
0.9953665347443595
 40
0.9953665347443595
 40
0.9953665347443595
 40
0.9953665347443595
 40
0.9953665347443595
 40
0.9953665347443595
 40
0.9953665347443595
 40
0.9953665347443595
 40
0.9953665347443595
 10
4872.552176712264
 20
520.4255955482481
 30
0.0000000001127424
 10
4872.439464005452
 20
520.3599322400705
 30
0.0000000001127424
 10
4872.325875288537
 20
520.2957726252539
 30
0.0000000001127424
 10
4872.211433487981
 20
520.2331300601663
 30
0.0000000001127424
 10
4872.096161767826
 20
520.1720174933603
 30
0.0000000001127424
 10
4871.980083520997
 20
520.1124474604985
 30
0.0000000001127424
 10
4871.443485591501
 20
519.8460549895508
 30
0.0000000001127424
 10
4870.89088284618
 20
519.6126877377737
 30
0.0000000001127424
 10
4870.324601330803
 20
519.413436689068
 30
0.0000000001127424
 10
4869.747052795346
 20
519.2492013142778
 30
0.0000000001127424
 10
4869.289570689955
 20
519.1425146098145
 30
0.0000000001127424
 10
4868.365583918225
 20
518.9732641490118
 30
0.0000000001127424
 10
4867.428418796953
 20
518.893070708793
 30
0.0000000001127424
 10
4866.487880526221
 20
518.9029303965644
 30
0.0000000001127424
 10
4865.553821348231
 20
519.0025834168541
 30
0.0000000001127424
 10
4865.089639984985
 20
519.0747470663996
 30
0.0000000001127424
 10
4864.39946928191
 20
519.2162139069815
 30
0.0000000001127424
 10
4863.721160110906
 20
519.4069120474724
 30
0.0000000001127424
 10
4863.058705990498
 20
519.6456840682786
 30
0.0000000001127424
 10
4862.415965615903
 20
519.9309984433635
 30
0.0000000001127424
 10
4862.204050313671
 20
520.031213329778
 30
0.0000000001127424
 10
4861.889883180629
 20
520.1891021607644
 30
0.0000000001127424
 10
4861.581582739246
 20
520.3581828784372
 30
0.0000000001127424
 10
4861.279602992709
 20
520.5382041274488
 30
0.0000000001127424
 10
4860.984385217955
 20
520.7288932043907
 30
0.0000000001127424
 10
4860.886746804659
 20
520.7936311835815
 30
0.0000000001127424
 10
4860.693037029873
 20
520.9254358128851
 30
0.0000000001127424
 10
4860.502524727626
 20
521.0618542950588
 30
0.0000000001127424
 10
4860.3153352208
 20
521.2027976458075
 30
0.0000000001127424
 10
4860.131590926489
 20
521.3481729238351
 30
0.0000000001127424
 10
4860.040548418994
 20
521.4218709703036
 30
0.0000000001127424
 10
4859.232974883997
 20
522.0721444739643
 30
0.0000000001127424
 10
4858.450782755582
 20
522.7537374345948
 30
0.0000000001127424
 10
4857.695358976626
 20
523.4655162232157
 30
0.0000000001127424
 10
4856.968031302755
 20
524.2062756572927
 30
0.0000000001127424
 10
4856.34586561282
 20
524.8852689013997
 30
0.0000000001127424
 10
4855.747540245359
 20
525.5852577428482
 30
0.0000000001127424
 10
4855.173857861841
 20
526.3052809496112
 30
0.0000000001127424
 10
4854.625575601416
 20
527.044342037997
 30
0.0000000001127424
 10
4854.103403279792
 20
527.8014118840069
 30
0.0000000001127424
  0
LINE
  5
E33D
330
18
100
AcDbEntity
  8
1DIM
100
AcDbLine
 10
4986.665853456489
 20
529.9303100424904
 30
0.0000000001127424
 11
4986.679219852987
 21
529.9303100424868
 31
0.0000000001127424
  0
SPLINE
  5
E33E
330
18
100
AcDbEntity
  8
01
100
AcDbSpline
210
0.0
220
0.0
230
1.0
 70
     8
 71
     9
 72
    50
 73
    40
 74
     0
 42
0.0000000001
 43
0.0000000001
 40
0.0046334649547446
 40
0.0046334649547446
 40
0.0046334649547446
 40
0.0046334649547446
 40
0.0046334649547446
 40
0.0046334649547446
 40
0.0046334649547446
 40
0.0046334649547446
 40
0.0046334649547446
 40
0.0046334649547446
 40
0.25
 40
0.25
 40
0.25
 40
0.25
 40
0.25
 40
0.2812500000000001
 40
0.2812500000000001
 40
0.2812500000000001
 40
0.2812500000000001
 40
0.2812500000000001
 40
0.3125000000000001
 40
0.3125000000000001
 40
0.3125000000000001
 40
0.3125000000000001
 40
0.3125000000000001
 40
0.375
 40
0.375
 40
0.375
 40
0.375
 40
0.375
 40
0.5
 40
0.5
 40
0.5
 40
0.5
 40
0.5
 40
0.625
 40
0.625
 40
0.625
 40
0.625
 40
0.625
 40
0.6598019190789285
 40
0.6598019190789285
 40
0.6598019190789285
 40
0.6598019190789285
 40
0.6598019190789285
 40
0.6598019190789285
 40
0.6598019190789285
 40
0.6598019190789285
 40
0.6598019190789285
 40
0.6598019190789285
 10
4854.103403274029
 20
532.0592081932655
 30
0.0000000001127424
 10
4854.625575596037
 20
532.8162780403804
 30
0.0000000001127424
 10
4855.173857856916
 20
533.5553391298363
 30
0.0000000001127424
 10
4855.747540240957
 20
534.2753623376298
 30
0.0000000001127424
 10
4856.345865609006
 20
534.975351180065
 30
0.0000000001127424
 10
4856.96803129959
 20
535.6543444251124
 30
0.0000000001127424
 10
4857.695358974162
 20
536.3951038600899
 30
0.0000000001127424
 10
4858.45078275388
 20
537.1068826495507
 30
0.0000000001127424
 10
4859.232974883119
 20
537.788475610957
 30
0.0000000001127424
 10
4860.040548418994
 20
538.4387491153248
 30
0.0000000001127424
 10
4860.131590926489
 20
538.5124471617933
 30
0.0000000001127424
 10
4860.3153352208
 20
538.6578224398208
 30
0.0000000001127424
 10
4860.502524727625
 20
538.7987657905696
 30
0.0000000001127424
 10
4860.693037029873
 20
538.9351842727433
 30
0.0000000001127424
 10
4860.886746804659
 20
539.0669889020469
 30
0.0000000001127424
 10
4860.984385217955
 20
539.1317268812377
 30
0.0000000001127424
 10
4861.279602992709
 20
539.3224159581796
 30
0.0000000001127424
 10
4861.581582739246
 20
539.5024372071907
 30
0.0000000001127424
 10
4861.889883180629
 20
539.671517924864
 30
0.0000000001127424
 10
4862.204050313671
 20
539.8294067558504
 30
0.0000000001127424
 10
4862.415965615903
 20
539.9296216422645
 30
0.0000000001127424
 10
4863.058705990498
 20
540.2149360173494
 30
0.0000000001127424
 10
4863.721160110906
 20
540.453708038156
 30
0.0000000001127424
 10
4864.39946928191
 20
540.6444061786469
 30
0.0000000001127424
 10
4865.089639984984
 20
540.7858730192283
 30
0.0000000001127424
 10
4865.553821348231
 20
540.8580366687743
 30
0.0000000001127424
 10
4866.487880526221
 20
540.957689689064
 30
0.0000000001127424
 10
4867.428418796953
 20
540.9675493768354
 30
0.0000000001127424
 10
4868.365583918225
 20
540.8873559366161
 30
0.0000000001127424
 10
4869.289570689955
 20
540.7181054758139
 30
0.0000000001127424
 10
4869.747052795346
 20
540.6114187713501
 30
0.0000000001127424
 10
4870.324601330803
 20
540.4471833965599
 30
0.0000000001127424
 10
4870.890882846179
 20
540.2479323478547
 30
0.0000000001127424
 10
4871.443485591501
 20
540.0145650960776
 30
0.0000000001127424
 10
4871.980083520997
 20
539.7481726251299
 30
0.0000000001127424
 10
4872.096161767826
 20
539.6886025922686
 30
0.0000000001127424
 10
4872.21143348798
 20
539.6274900254621
 30
0.0000000001127424
 10
4872.325875288536
 20
539.564847460375
 30
0.0000000001127424
 10
4872.439464005451
 20
539.5006878455579
 30
0.0000000001127424
 10
4872.552176712264
 20
539.4350245373807
 30
0.0000000001127424
  0
ARC
  5
E33F
330
18
100
AcDbEntity
  8
01
100
AcDbCircle
 10
-4854.516446939657
 20
528.0857548768372
 30
-0.0000000001127424
 40
0.5014538887337368
210
0.0
220
0.0
230
-1.0
100
AcDbArc
 50
325.4561242035407
 51
359.9493084738323
  0
LINE
  5
E340
330
18
100
AcDbEntity
  8
01
100
AcDbLine
 10
4854.014993247181
 20
528.0853112235732
 30
0.0000000001127424
 11
4854.014993247181
 21
531.7753088720369
 31
0.0000000001127424
  0
ARC
  5
E341
330
18
100
AcDbEntity
  8
01
100
AcDbCircle
 10
4854.516446907513
 20
531.7748652188016
 30
0.0000000001127424
 40
0.501453856589537
100
AcDbArc
 50
145.4561242229152
 51
179.9493084739105
  0
SPLINE
  5
E342
330
18
100
AcDbEntity
  8
01
100
AcDbSpline
210
0.0
220
0.0
230
1.0
 70
     8
 71
     3
 72
    41
 73
    37
 74
     0
 42
0.0000000001
 43
0.0000000001
 40
0.0
 40
0.0
 40
0.0
 40
0.0
 40
11.08193982998654
 40
14.99154269298786
 40
18.35154378333062
 40
22.23369633228443
 40
26.71156673678055
 40
32.37864053121974
 40
36.92203649363651
 40
40.24894827035919
 40
49.22482467983156
 40
53.74929617362417
 40
56.06880929944155
 40
60.71264797340807
 40
67.68071622864879
 40
77.103669649575
 40
84.2542427827832
 40
87.81669066418924
 40
92.56153197610304
 40
94.94213428419388
 40
97.3183615597999
 40
100.2817454981246
 40
102.6455995380487
 40
105.5875895513088
 40
107.3424462868896
 40
109.0869431622517
 40
110.7815911642553
 40
112.1203427922106
 40
112.9180813069901
 40
113.7109603978925
 40
114.6306603689488
 40
115.417425091762
 40
116.602353135144
 40
117.6673469204347
 40
118.4917894533145
 40
119.7888355304252
 40
119.7888355304252
 40
119.7888355304252
 40
119.7888355304252
 10
4984.939358537809
 20
533.5486686136478
 30
0.0000000001127424
 10
4981.297060176012
 20
533.636741899646
 30
0.0000000001127424
 10
4976.343593862214
 20
533.7644509061165
 30
0.0000000001127424
 10
4970.245534303715
 20
533.9457278021155
 30
0.0000000001127424
 10
4966.533230413418
 20
534.0640466879881
 30
0.0000000001127424
 10
4962.628563291801
 20
534.1976901753965
 30
0.0000000001127424
 10
4957.956545276507
 20
534.371515378135
 30
0.0000000001127424
 10
4953.071336371593
 20
534.5724307408063
 30
0.0000000001127424
 10
4948.578617177679
 20
534.7759056486693
 30
0.0000000001127424
 10
4942.9974589788
 20
535.0465317310154
 30
0.0000000001127424
 10
4937.436021580595
 20
535.3435278825032
 30
0.0000000001127424
 10
4932.212938287914
 20
535.6458308775614
 30
0.0000000001127424
 10
4928.420913437213
 20
535.8726019141382
 30
0.0000000001127424
 10
4923.822799988886
 20
536.1557773803188
 30
0.0000000001127424
 10
4916.879917316816
 20
536.5997083349921
 30
0.0000000001127424
 10
4909.108111503999
 20
537.1123403267161
 30
0.0000000001127424
 10
4902.459249432218
 20
537.5532225150755
 30
0.0000000001127424
 10
4897.352765993325
 20
537.8889068559474
 30
0.0000000001127424
 10
4893.819056126521
 20
538.1184733048672
 30
0.0000000001127424
 10
4890.672016031317
 20
538.3196310365565
 30
0.0000000001127424
 10
4888.111138719722
 20
538.481225727201
 30
0.0000000001127424
 10
4885.550921586623
 20
538.6401503081479
 30
0.0000000001127424
 10
4882.799217297878
 20
538.8079958910757
 30
0.0000000001127424
 10
4880.45058229521
 20
538.948869203502
 30
0.0000000001127424
 10
4878.323811867959
 20
539.0753713726958
 30
0.0000000001127424
 10
4876.632424632618
 20
539.1760889307616
 30
0.0000000001127424
 10
4875.122708380118
 20
539.2672027150311
 30
0.0000000001127424
 10
4873.98053804812
 20
539.3385517932725
 30
0.0000000001127424
 10
4873.173976703387
 20
539.3914329591948
 30
0.0000000001127424
 10
4872.542473714233
 20
539.4351302659356
 30
0.0000000001127424
 10
4871.995601088013
 20
539.4761958503514
 30
0.0000000001127424
 10
4871.472734336506
 20
539.5197411495201
 30
0.0000000001127424
 10
4871.0633639133
 20
539.5592288253838
 30
0.0000000001127424
 10
4870.798554050486
 20
539.5897165396018
 30
0.0000000001127424
 10
4870.632794858077
 20
539.6117686355419
 30
0.0000000001127424
 10
4870.5949806691
 20
539.6181815297887
 30
0.0000000001127424
 10
4870.594979867798
 20
539.6181767461371
 30
0.0000000001127424
  0
SPLINE
  5
E343
330
18
100
AcDbEntity
  8
01
100
AcDbSpline
210
0.0
220
0.0
230
1.0
 70
     8
 71
     3
 72
    19
 73
    15
 74
     0
 42
0.0000000001
 43
0.0000000001
 40
0.0
 40
0.0
 40
0.0
 40
0.0
 40
0.3011991842531422
 40
0.6572396169731117
 40
0.9913529493436923
 40
1.245679096740788
 40
1.513786533122847
 40
1.808376470781059
 40
2.175094891148698
 40
2.759066464574248
 40
3.368220073713204
 40
3.912588056327853
 40
4.443752462292782
 40
5.209208424490659
 40
5.209208424490659
 40
5.209208424490659
 40
5.209208424490659
 10
4984.939538753675
 20
533.5486661217146
 30
0.0000000001127424
 10
4985.012209594423
 20
533.5469095708222
 30
0.0000000001127424
 10
4985.182002256528
 20
533.5322317053005
 30
0.0000000001127424
 10
4985.445907741147
 20
533.4635335722178
 30
0.0000000001127424
 10
4985.692131828337
 20
533.3434821833612
 30
0.0000000001127424
 10
4985.892252716908
 20
533.1976813317319
 30
0.0000000001127424
 10
4986.058766078268
 20
533.0334421643402
 30
0.0000000001127424
 10
4986.215703242062
 20
532.8220063552749
 30
0.0000000001127424
 10
4986.37023616232
 20
532.5220778032158
 30
0.0000000001127424
 10
4986.489988818255
 20
532.1441646326102
 30
0.0000000001127424
 10
4986.577475196385
 20
531.6873263698508
 30
0.0000000001127424
 10
4986.632884605802
 20
531.1966118554965
 30
0.0000000001127424
 10
4986.670141524249
 20
530.6179009457005
 30
0.0000000001127424
 10
4986.679219853071
 20
530.184771733645
 30
0.0000000001127424
 10
4986.679219852997
 20
529.9303100424868
 30
0.0000000001127424
  0
SPLINE
  5
E344
330
18
100
AcDbEntity
  8
01
100
AcDbSpline
210
0.0
220
0.0
230
1.0
 70
     8
 71
     3
 72
    19
 73
    15
 74
     0
 42
0.0000000001
 43
0.0000000001
 40
0.0
 40
0.0
 40
0.0
 40
0.0
 40
0.301199185375885
 40
0.6572396195189175
 40
0.9913529535532096
 40
1.245679102724051
 40
1.513786541471116
 40
1.808376482262366
 40
2.175094904247631
 40
2.759066501174226
 40
3.368220101923847
 40
3.912588071774272
 40
4.443752459878601
 40
5.209208425715442
 40
5.209208425715442
 40
5.209208425715442
 40
5.209208425715442
 10
4984.939538746899
 20
526.3119539637519
 30
0.0000000001127424
 10
4985.012209587846
 20
526.313710514642
 30
0.0000000001127424
 10
4985.182002250543
 20
526.3283883802142
 30
0.0000000001127424
 10
4985.445907736041
 20
526.3970865136216
 30
0.0000000001127424
 10
4985.692131824142
 20
526.517137903139
 30
0.0000000001127424
 10
4985.892252713507
 20
526.6629387556131
 30
0.0000000001127424
 10
4986.058766075809
 20
526.8271779243173
 30
0.0000000001127424
 10
4986.215703240165
 20
527.0386137344349
 30
0.0000000001127424
 10
4986.370236164335
 20
527.3385422953884
 30
0.0000000001127424
 10
4986.489988818374
 20
527.7164554656888
 30
0.0000000001127424
 10
4986.577475197166
 20
528.173293736475
 30
0.0000000001127424
 10
4986.632884605767
 20
528.6640082409504
 30
0.0000000001127424
 10
4986.670141523331
 20
529.2427191428492
 30
0.0000000001127424
 10
4986.679219853098
 20
529.6758483500626
 30
0.0000000001127424
 10
4986.679219853175
 20
529.9303100424086
 30
0.0000000001127424
  0
SPLINE
  5
E345
330
18
100
AcDbEntity
  8
01
100
AcDbSpline
210
0.0
220
0.0
230
1.0
 70
     8
 71
     3
 72
    41
 73
    37
 74
     0
 42
0.0000000001
 43
0.0000000001
 40
0.0
 40
0.0
 40
0.0
 40
0.0
 40
11.0819398300156
 40
14.99154269304556
 40
18.35154378341441
 40
22.23369633236754
 40
26.71156673687061
 40
32.37864053132747
 40
36.92203649376385
 40
40.24894827050883
 40
49.22482467999703
 40
53.74929617377158
 40
56.06880929963697
 40
60.7126479736922
 40
67.68071622905353
 40
77.10366965006938
 40
84.25424278329015
 40
87.81669066469904
 40
92.56153197660909
 40
94.94213428468905
 40
97.31836156028353
 40
100.2817454985905
 40
102.6455995384949
 40
105.5875895517143
 40
107.3424462872578
 40
109.0869431625769
 40
110.7815911638733
 40
112.1203427901565
 40
112.9180813039407
 40
113.7109603938573
 40
114.6306603637841
 40
115.41742508564
 40
116.6023531275789
 40
117.6673469115551
 40
118.4917894433869
 40
119.7888355236381
 40
119.7888355236381
 40
119.7888355236381
 40
119.7888355236381
 10
4984.939358531088
 20
526.3119514718192
 30
0.0000000001127424
 10
4981.29706016926
 20
526.2238781858132
 30
0.0000000001127424
 10
4976.34359385541
 20
526.0961691793273
 30
0.0000000001127424
 10
4970.245534296856
 20
525.9148922833037
 30
0.0000000001127424
 10
4966.533230406532
 20
525.7965733974138
 30
0.0000000001127424
 10
4962.628563284903
 20
525.6629299099868
 30
0.0000000001127424
 10
4957.956545269608
 20
525.4891047072242
 30
0.0000000001127424
 10
4953.071336364692
 20
525.2881893445256
 30
0.0000000001127424
 10
4948.578617170771
 20
525.0847144366367
 30
0.0000000001127424
 10
4942.99745897189
 20
524.8140883542587
 30
0.0000000001127424
 10
4937.436021573689
 20
524.5170922027428
 30
0.0000000001127424
 10
4932.212938280996
 20
524.2147892076609
 30
0.0000000001127424
 10
4928.420913430257
 20
523.9880181710678
 30
0.0000000001127424
 10
4923.822799981845
 20
523.7048427048671
 30
0.0000000001127424
 10
4916.879917309677
 20
523.2609117501711
 30
0.0000000001127424
 10
4909.108111496784
 20
522.7482797584344
 30
0.0000000001127424
 10
4902.459249424966
 20
522.307397570074
 30
0.0000000001127424
 10
4897.352765986066
 20
521.9717132292071
 30
0.0000000001127424
 10
4893.819056119256
 20
521.7421467802928
 30
0.0000000001127424
 10
4890.672016024048
 20
521.5409890486108
 30
0.0000000001127424
 10
4888.111138712454
 20
521.3793943579726
 30
0.0000000001127424
 10
4885.550921579357
 20
521.2204697770339
 30
0.0000000001127424
 10
4882.799217290634
 20
521.0526241941152
 30
0.0000000001127424
 10
4880.450582288016
 20
520.9117508816976
 30
0.0000000001127424
 10
4878.323811860882
 20
520.7852487125119
 30
0.0000000001127424
 10
4876.632424625935
 20
520.684531154468
 30
0.0000000001127424
 10
4875.122708374463
 20
520.5934173702517
 30
0.0000000001127424
 10
4873.980538043822
 20
520.5220682920817
 30
0.0000000001127424
 10
4873.173976700418
 20
520.4691871262335
 30
0.0000000001127424
 10
4872.542473712334
 20
520.425489819555
 30
0.0000000001127424
 10
4871.995601087025
 20
520.3844242351979
 30
0.0000000001127424
 10
4871.472734336313
 20
520.3408789360888
 30
0.0000000001127424
 10
4871.0633639136
 20
520.3013912602737
 30
0.0000000001127424
 10
4870.798554050933
 20
520.2709035460807
 30
0.0000000001127424
 10
4870.632794858205
 20
520.2488514501088
 30
0.0000000001127424
 10
4870.594980669097
 20
520.2424385558393
 30
0.0000000001127424
 10
4870.594979867796
 20
520.2424433394908
 30
0.0000000001127424
  0
LINE
  5
E4C9
330
18
100
AcDbEntity
  8
01
100
AcDbLine
 10
4867.014993247181
 20
554.9303100428069
 30
0.0000000001127424
 11
4830.714993247181
 21
554.930310042807
 31
0.0000000001127424
1001
ACAD
1000
DSTYLE
1002
{
1070
     3
1000
φ<>
1070
    40
1040
1.3
1070
    45
1040
0.5
1002
}
  0
LINE
  5
E4CA
330
18
100
AcDbEntity
  8
01
100
AcDbLine
 10
4867.014993247181
 20
504.9303100428078
 30
0.0000000001127424
 11
4830.714993247181
 21
504.9303100428078
 31
0.0000000001127424
1001
ACAD
1000
DSTYLE
1002
{
1070
     3
1000
φ<>
1070
    40
1040
1.3
1070
    45
1040
0.5
1002
}
  0
LINE
  5
E4CB
330
18
100
AcDbEntity
  8
01
100
AcDbLine
 10
4832.014993247181
 20
552.330310042807
 30
0.0000000001127424
 11
4832.014993247181
 21
507.5303100428079
 31
0.0000000001127424
1001
ACAD
1000
DSTYLE
1002
{
1070
     3
1000
φ<>
1070
    40
1040
1.3
1070
    45
1040
0.5
1002
}
  0
LINE
  5
E4CF
330
18
100
AcDbEntity
  8
01
100
AcDbLine
 10
4734.923065003543
 20
519.1752098553261
 30
0.0000000001127424
 11
4734.761918481975
 21
519.202336167582
 31
0.0000000001127424
  0
LINE
  5
E4D0
330
18
100
AcDbEntity
  8
01
100
AcDbLine
 10
4734.761918481975
 20
519.202336167582
 30
0.0000000001127424
 11
4734.541350897937
 21
519.2571114056191
 31
0.0000000001127424
  0
LINE
  5
E4D1
330
18
100
AcDbEntity
  8
01
100
AcDbLine
 10
4734.541350897937
 20
519.2571114056191
 30
0.0000000001127424
 11
4734.194881376415
 21
519.3372009747109
 31
0.0000000001127424
  0
LINE
  5
E4D2
330
18
100
AcDbEntity
  8
01
100
AcDbLine
 10
4734.194881376415
 20
519.3372009747109
 30
0.0000000001127424
 11
4733.733492162614
 21
519.4298370831093
 31
0.0000000001127424
  0
LINE
  5
E4D3
330
18
100
AcDbEntity
  8
01
100
AcDbLine
 10
4733.733492162614
 20
519.4298370831093
 30
0.0000000001127424
 11
4733.174413677841
 21
519.5176628582558
 31
0.0000000001127424
  0
LINE
  5
E4D4
330
18
100
AcDbEntity
  8
01
100
AcDbLine
 10
4733.174413677841
 20
519.5176628582558
 30
0.0000000001127424
 11
4732.538311299472
 21
519.5833786480507
 31
0.0000000001127424
  0
LINE
  5
E4D5
330
18
100
AcDbEntity
  8
01
100
AcDbLine
 10
4732.538311299472
 20
519.5833786480507
 30
0.0000000001127424
 11
4731.852420982509
 21
519.6115959637245
 31
0.0000000001127424
  0
LINE
  5
E4D6
330
18
100
AcDbEntity
  8
01
100
AcDbLine
 10
4731.852420982509
 20
519.6115959637245
 30
0.0000000001127424
 11
4731.150564488559
 21
519.5931976788124
 31
0.0000000001127424
  0
LINE
  5
E4D7
330
18
100
AcDbEntity
  8
01
100
AcDbLine
 10
4731.150564488559
 20
519.5931976788124
 30
0.0000000001127424
 11
4730.469240006595
 21
519.5286262981972
 31
0.0000000001127424
  0
LINE
  5
E4D8
330
18
100
AcDbEntity
  8
01
100
AcDbLine
 10
4730.469240006595
 20
519.5286262981972
 30
0.0000000001127424
 11
4729.839847859531
 21
519.4292610638222
 31
0.0000000001127424
  0
LINE
  5
E4D9
330
18
100
AcDbEntity
  8
01
100
AcDbLine
 10
4729.839847859531
 20
519.4292610638222
 30
0.0000000001127424
 11
4729.288895186573
 21
519.3111999981484
 31
0.0000000001127424
  0
LINE
  5
E4DA
330
18
100
AcDbEntity
  8
01
100
AcDbLine
 10
4729.288895186573
 20
519.3111999981484
 30
0.0000000001127424
 11
4728.835619506031
 21
519.1925743572792
 31
0.0000000001127424
  0
LINE
  5
E4DB
330
18
100
AcDbEntity
  8
01
100
AcDbLine
 10
4728.835619506031
 20
519.1925743572792
 30
0.0000000001127424
 11
4728.495893534809
 21
519.0914581768593
 31
0.0000000001127424
  0
LINE
  5
E4DC
330
18
100
AcDbEntity
  8
01
100
AcDbLine
 10
4728.495893534809
 20
519.0914581768593
 30
0.0000000001127424
 11
4728.283512648731
 21
519.0234650127968
 31
0.0000000001127424
  0
LINE
  5
E4DD
330
18
100
AcDbEntity
  8
01
100
AcDbLine
 10
4728.283512648731
 20
519.0234650127968
 30
0.0000000001127424
 11
4728.204390005434
 21
518.9978489832588
 31
0.0000000001127424
  0
LINE
  5
E4DE
330
18
100
AcDbEntity
  8
01
100
AcDbLine
 10
4779.485964354663
 20
528.3992966168007
 30
0.0000000001127424
 11
4779.153074797779
 21
528.1020115368447
 31
0.0000000001127424
  0
LINE
  5
E4DF
330
18
100
AcDbEntity
  8
01
100
AcDbLine
 10
4779.153074797779
 20
528.1020115368447
 30
0.0000000001127424
 11
4778.813715514331
 21
527.8162601940712
 31
0.0000000001127424
  0
LINE
  5
E4E0
330
18
100
AcDbEntity
  8
01
100
AcDbLine
 10
4778.813715514331
 20
527.8162601940712
 30
0.0000000001127424
 11
4778.466929015308
 21
527.5389946453652
 31
0.0000000001127424
  0
LINE
  5
E4E1
330
18
100
AcDbEntity
  8
01
100
AcDbLine
 10
4778.466929015308
 20
527.5389946453652
 30
0.0000000001127424
 11
4778.111799773365
 21
527.2678364269814
 31
0.0000000001127424
  0
LINE
  5
E4E2
330
18
100
AcDbEntity
  8
01
100
AcDbLine
 10
4778.111799773365
 20
527.2678364269814
 30
0.0000000001127424
 11
4777.747519072681
 21
527.0006016247353
 31
0.0000000001127424
  0
LINE
  5
E4E3
330
18
100
AcDbEntity
  8
01
100
AcDbLine
 10
4777.747519072681
 20
527.0006016247353
 30
0.0000000001127424
 11
4777.373922881275
 21
526.7359970562538
 31
0.0000000001127424
  0
LINE
  5
E4E4
330
18
100
AcDbEntity
  8
01
100
AcDbLine
 10
4777.373922881275
 20
526.7359970562538
 30
0.0000000001127424
 11
4776.991079863697
 21
526.4730690472206
 31
0.0000000001127424
  0
LINE
  5
E4E5
330
18
100
AcDbEntity
  8
01
100
AcDbLine
 10
4776.991079863697
 20
526.4730690472206
 30
0.0000000001127424
 11
4776.599161681323
 21
526.2109440319618
 31
0.0000000001127424
  0
LINE
  5
E4E6
330
18
100
AcDbEntity
  8
01
100
AcDbLine
 10
4776.599161681323
 20
526.2109440319618
 30
0.0000000001127424
 11
4776.198339995532
 21
525.9488018505654
 31
0.0000000001127424
  0
LINE
  5
E4E7
330
18
100
AcDbEntity
  8
01
100
AcDbLine
 10
4776.198339995532
 20
525.9488018505654
 30
0.0000000001127424
 11
4775.78782516399
 21
525.685261582621
 31
0.0000000001127424
  0
LINE
  5
E4E8
330
18
100
AcDbEntity
  8
01
100
AcDbLine
 10
4775.78782516399
 20
525.685261582621
 30
0.0000000001127424
 11
4775.365885314136
 21
525.4184292309365
 31
0.0000000001127424
  0
LINE
  5
E4E9
330
18
100
AcDbEntity
  8
01
100
AcDbLine
 10
4775.365885314136
 20
525.4184292309365
 30
0.0000000001127424
 11
4774.929297026782
 21
525.1456230633339
 31
0.0000000001127424
  0
LINE
  5
E4EA
330
18
100
AcDbEntity
  8
01
100
AcDbLine
 10
4774.929297026782
 20
525.1456230633339
 30
0.0000000001127424
 11
4774.474340972095
 21
524.8639038555702
 31
0.0000000001127424
  0
LINE
  5
E4EB
330
18
100
AcDbEntity
  8
01
100
AcDbLine
 10
4774.474340972095
 20
524.8639038555702
 30
0.0000000001127424
 11
4773.995615538745
 21
524.5694073193154
 31
0.0000000001127424
  0
LINE
  5
E4EC
330
18
100
AcDbEntity
  8
01
100
AcDbLine
 10
4773.995615538745
 20
524.5694073193154
 30
0.0000000001127424
 11
4773.486929473072
 21
524.2578419201454
 31
0.0000000001127424
  0
LINE
  5
E4ED
330
18
100
AcDbEntity
  8
01
100
AcDbLine
 10
4773.486929473072
 20
524.2578419201454
 30
0.0000000001127424
 11
4772.940523680835
 21
523.9239243023476
 31
0.0000000001127424
  0
LINE
  5
E4EE
330
18
100
AcDbEntity
  8
01
100
AcDbLine
 10
4772.940523680835
 20
523.9239243023476
 30
0.0000000001127424
 11
4772.362646636157
 21
523.5708130352577
 31
0.0000000001127424
  0
LINE
  5
E4EF
330
18
100
AcDbEntity
  8
01
100
AcDbLine
 10
4772.362646636157
 20
523.5708130352577
 30
0.0000000001127424
 11
4771.802630004077
 21
523.2343624584755
 31
0.0000000001127424
  0
LINE
  5
E4F0
330
18
100
AcDbEntity
  8
01
100
AcDbLine
 10
4771.802630004077
 20
523.2343624584755
 30
0.0000000001127424
 11
4771.191084441333
 21
522.8793495647988
 31
0.0000000001127424
  0
LINE
  5
E4F1
330
18
100
AcDbEntity
  8
01
100
AcDbLine
 10
4771.191084441333
 20
522.8793495647988
 30
0.0000000001127424
 11
4770.519472655445
 21
522.5066383831581
 31
0.0000000001127424
  0
LINE
  5
E4F2
330
18
100
AcDbEntity
  8
01
100
AcDbLine
 10
4770.519472655445
 20
522.5066383831581
 30
0.0000000001127424
 11
4769.781385955005
 21
522.1212490551552
 31
0.0000000001127424
  0
LINE
  5
E4F3
330
18
100
AcDbEntity
  8
01
100
AcDbLine
 10
4769.781385955005
 20
522.1212490551552
 30
0.0000000001127424
 11
4768.96961837688
 21
521.7320259564003
 31
0.0000000001127424
  0
LINE
  5
E4F4
330
18
100
AcDbEntity
  8
01
100
AcDbLine
 10
4768.96961837688
 20
521.7320259564003
 30
0.0000000001127424
 11
4768.090643462329
 21
521.3604591839394
 31
0.0000000001127424
  0
LINE
  5
E4F5
330
18
100
AcDbEntity
  8
01
100
AcDbLine
 10
4768.090643462329
 20
521.3604591839394
 30
0.0000000001127424
 11
4767.191324767261
 21
521.0453270428261
 31
0.0000000001127424
  0
LINE
  5
E4F6
330
18
100
AcDbEntity
  8
01
100
AcDbLine
 10
4767.191324767261
 20
521.0453270428261
 30
0.0000000001127424
 11
4766.346151885181
 21
520.8172634594521
 31
0.0000000001127424
  0
LINE
  5
E4F7
330
18
100
AcDbEntity
  8
01
100
AcDbLine
 10
4766.346151885181
 20
520.8172634594521
 30
0.0000000001127424
 11
4765.55782943645
 21
520.661600922831
 31
0.0000000001127424
  0
LINE
  5
E4F8
330
18
100
AcDbEntity
  8
01
100
AcDbLine
 10
4765.55782943645
 20
520.661600922831
 30
0.0000000001127424
 11
4764.747580107837
 21
520.5459068768105
 31
0.0000000001127424
  0
LINE
  5
E4F9
330
18
100
AcDbEntity
  8
01
100
AcDbLine
 10
4764.747580107837
 20
520.5459068768105
 30
0.0000000001127424
 11
4763.833992537647
 21
520.4493378155312
 31
0.0000000001127424
  0
LINE
  5
E4FA
330
18
100
AcDbEntity
  8
01
100
AcDbLine
 10
4763.833992537647
 20
520.4493378155312
 30
0.0000000001127424
 11
4762.772419509082
 21
520.3628777020058
 31
0.0000000001127424
  0
LINE
  5
E4FB
330
18
100
AcDbEntity
  8
01
100
AcDbLine
 10
4762.772419509082
 20
520.3628777020058
 30
0.0000000001127424
 11
4761.565245207935
 21
520.2817657940468
 31
0.0000000001127424
  0
LINE
  5
E4FC
330
18
100
AcDbEntity
  8
01
100
AcDbLine
 10
4761.565245207935
 20
520.2817657940468
 30
0.0000000001127424
 11
4760.246126708179
 21
520.2037094585976
 31
0.0000000001127424
  0
LINE
  5
E4FD
330
18
100
AcDbEntity
  8
01
100
AcDbLine
 10
4760.246126708179
 20
520.2037094585976
 30
0.0000000001127424
 11
4758.853889998584
 21
520.127873276957
 31
0.0000000001127424
  0
LINE
  5
E4FE
330
18
100
AcDbEntity
  8
01
100
AcDbLine
 10
4758.853889998584
 20
520.127873276957
 30
0.0000000001127424
 11
4757.417664107471
 21
520.054028367289
 31
0.0000000001127424
  0
LINE
  5
E4FF
330
18
100
AcDbEntity
  8
01
100
AcDbLine
 10
4757.417664107471
 20
520.054028367289
 30
0.0000000001127424
 11
4755.954147872119
 21
519.9821709148964
 31
0.0000000001127424
  0
LINE
  5
E500
330
18
100
AcDbEntity
  8
01
100
AcDbLine
 10
4755.954147872119
 20
519.9821709148964
 30
0.0000000001127424
 11
4754.474783476978
 21
519.9123047344765
 31
0.0000000001127424
  0
LINE
  5
E501
330
18
100
AcDbEntity
  8
01
100
AcDbLine
 10
4754.474783476978
 20
519.9123047344765
 30
0.0000000001127424
 11
4752.985607680469
 21
519.8444221966347
 31
0.0000000001127424
  0
LINE
  5
E502
330
18
100
AcDbEntity
  8
01
100
AcDbLine
 10
4752.985607680469
 20
519.8444221966347
 30
0.0000000001127424
 11
4751.490393218189
 21
519.7785156719765
 31
0.0000000001127424
  0
LINE
  5
E503
330
18
100
AcDbEntity
  8
01
100
AcDbLine
 10
4751.490393218189
 20
519.7785156719765
 30
0.0000000001127424
 11
4749.991594847827
 21
519.7145851605019
 31
0.0000000001127424
  0
LINE
  5
E504
330
18
100
AcDbEntity
  8
01
100
AcDbLine
 10
4749.991594847827
 20
519.7145851605019
 30
0.0000000001127424
 11
4748.490413245349
 21
519.652588700541
 31
0.0000000001127424
  0
LINE
  5
E505
330
18
100
AcDbEntity
  8
01
100
AcDbLine
 10
4748.490413245349
 20
519.652588700541
 30
0.0000000001127424
 11
4746.987803038745
 21
519.5924995892128
 31
0.0000000001127424
  0
LINE
  5
E506
330
18
100
AcDbEntity
  8
01
100
AcDbLine
 10
4746.987803038745
 20
519.5924995892128
 30
0.0000000001127424
 11
4745.484512862354
 21
519.5342834942421
 31
0.0000000001127424
  0
LINE
  5
E507
330
18
100
AcDbEntity
  8
01
100
AcDbLine
 10
4745.484512862354
 20
519.5342834942421
 30
0.0000000001127424
 11
4743.980776366382
 21
519.4779175274452
 31
0.0000000001127424
  0
LINE
  5
E508
330
18
100
AcDbEntity
  8
01
100
AcDbLine
 10
4743.980776366382
 20
519.4779175274452
 30
0.0000000001127424
 11
4742.476746138721
 21
519.4233864300331
 31
0.0000000001127424
  0
LINE
  5
E509
330
18
100
AcDbEntity
  8
01
100
AcDbLine
 10
4742.476746138721
 20
519.4233864300331
 30
0.0000000001127424
 11
4740.972559031635
 21
519.3706329815468
 31
0.0000000001127424
  0
LINE
  5
E50A
330
18
100
AcDbEntity
  8
01
100
AcDbLine
 10
4740.972559031635
 20
519.3706329815468
 30
0.0000000001127424
 11
4739.468273696094
 21
519.3194931500038
 31
0.0000000001127424
  0
LINE
  5
E50B
330
18
100
AcDbEntity
  8
01
100
AcDbLine
 10
4739.468273696094
 20
519.3194931500038
 30
0.0000000001127424
 11
4737.963905867725
 21
519.2706001751503
 31
0.0000000001127424
  0
LINE
  5
E50C
330
18
100
AcDbEntity
  8
01
100
AcDbLine
 10
4737.963905867725
 20
519.2706001751503
 30
0.0000000001127424
 11
4736.459531125217
 21
519.221337174662
 31
0.0000000001127424
  0
LINE
  5
E50D
330
18
100
AcDbEntity
  8
01
100
AcDbLine
 10
4736.459531125217
 20
519.221337174662
 30
0.0000000001127424
 11
4734.923065003543
 21
519.1752098553261
 31
0.0000000001127424
  0
LINE
  5
E50E
330
18
100
AcDbEntity
  8
01
100
AcDbLine
 10
4726.01499324718
 20
518.9303101055702
 30
0.0000000001127424
 11
4728.122875270038
 21
518.9843109600624
 31
0.0000000001127424
  0
LINE
  5
E50F
330
18
100
AcDbEntity
  8
01
100
AcDbLine
 10
4867.015464362294
 20
518.9843223463804
 30
0.0000000001127424
 11
4866.308517035633
 21
519.0076835524351
 31
0.0000000001127424
  0
LINE
  5
E510
330
18
100
AcDbEntity
  8
01
100
AcDbLine
 10
4866.308517035633
 20
519.0076835524351
 30
0.0000000001127424
 11
4865.633422431141
 21
519.0757224928648
 31
0.0000000001127424
  0
LINE
  5
E511
330
18
100
AcDbEntity
  8
01
100
AcDbLine
 10
4865.633422431141
 20
519.0757224928648
 30
0.0000000001127424
 11
4865.01853900829
 21
519.1779106032163
 31
0.0000000001127424
  0
LINE
  5
E512
330
18
100
AcDbEntity
  8
01
100
AcDbLine
 10
4865.01853900829
 20
519.1779106032163
 30
0.0000000001127424
 11
4864.486609992176
 21
519.2986076247007
 31
0.0000000001127424
  0
LINE
  5
E513
330
18
100
AcDbEntity
  8
01
100
AcDbLine
 10
4864.486609992176
 20
519.2986076247007
 30
0.0000000001127424
 11
4864.056533393055
 21
519.4198692213804
 31
0.0000000001127424
  0
LINE
  5
E514
330
18
100
AcDbEntity
  8
01
100
AcDbLine
 10
4864.056533393055
 20
519.4198692213804
 30
0.0000000001127424
 11
4863.744636115223
 21
519.5246742140562
 31
0.0000000001127424
  0
LINE
  5
E515
330
18
100
AcDbEntity
  8
01
100
AcDbLine
 10
4863.744636115223
 20
519.5246742140562
 30
0.0000000001127424
 11
4863.564460333973
 21
519.5972831618101
 31
0.0000000001127424
  0
LINE
  5
E516
330
18
100
AcDbEntity
  8
01
100
AcDbLine
 10
4863.564460333973
 20
519.5972831618101
 30
0.0000000001127424
 11
4863.526000556141
 21
519.6264121901304
 31
0.0000000001127424
  0
LINE
  5
E517
330
18
100
AcDbEntity
  8
01
100
AcDbLine
 10
4863.526000556141
 20
519.6264121901304
 30
0.0000000001127424
 11
4863.632125434071
 21
519.6092765700132
 31
0.0000000001127424
  0
LINE
  5
E518
330
18
100
AcDbEntity
  8
01
100
AcDbLine
 10
4863.632125434071
 20
519.6092765700132
 30
0.0000000001127424
 11
4863.877135810048
 21
519.5522544752866
 31
0.0000000001127424
  0
LINE
  5
E519
330
18
100
AcDbEntity
  8
01
100
AcDbLine
 10
4863.877135810048
 20
519.5522544752866
 30
0.0000000001127424
 11
4864.249465521962
 21
519.4681480299741
 31
0.0000000001127424
  0
LINE
  5
E51A
330
18
100
AcDbEntity
  8
01
100
AcDbLine
 10
4864.249465521962
 20
519.4681480299741
 30
0.0000000001127424
 11
4864.733863410145
 21
519.3725211989195
 31
0.0000000001127424
  0
LINE
  5
E51B
330
18
100
AcDbEntity
  8
01
100
AcDbLine
 10
4864.733863410145
 20
519.3725211989195
 30
0.0000000001127424
 11
4865.311942633778
 21
519.2829673659116
 31
0.0000000001127424
  0
LINE
  5
E51C
330
18
100
AcDbEntity
  8
01
100
AcDbLine
 10
4865.311942633778
 20
519.2829673659116
 30
0.0000000001127424
 11
4865.9613261787
 21
519.2143714796812
 31
0.0000000001127424
  0
LINE
  5
E51D
330
18
100
AcDbEntity
  8
01
100
AcDbLine
 10
4865.9613261787
 20
519.2143714796812
 30
0.0000000001127424
 11
4866.655974921376
 21
519.1788413893491
 31
0.0000000001127424
  0
LINE
  5
E51E
330
18
100
AcDbEntity
  8
01
100
AcDbLine
 10
4866.655974921376
 20
519.1788413893491
 30
0.0000000001127424
 11
4867.366706427723
 21
519.1824348341734
 31
0.0000000001127424
  0
LINE
  5
E51F
330
18
100
AcDbEntity
  8
01
100
AcDbLine
 10
4867.366706427723
 20
519.1824348341734
 30
0.0000000001127424
 11
4868.061439093739
 21
519.2248847853452
 31
0.0000000001127424
  0
LINE
  5
E520
330
18
100
AcDbEntity
  8
01
100
AcDbLine
 10
4868.061439093739
 20
519.2248847853452
 30
0.0000000001127424
 11
4868.711051520497
 21
519.2996147047788
 31
0.0000000001127424
  0
LINE
  5
E521
330
18
100
AcDbEntity
  8
01
100
AcDbLine
 10
4868.711051520497
 20
519.2996147047788
 30
0.0000000001127424
 11
4869.289603766591
 21
519.3941505324156
 31
0.0000000001127424
  0
LINE
  5
E522
330
18
100
AcDbEntity
  8
01
100
AcDbLine
 10
4869.289603766591
 20
519.3941505324156
 30
0.0000000001127424
 11
4869.775222357899
 21
519.4933555495054
 31
0.0000000001127424
  0
LINE
  5
E523
330
18
100
AcDbEntity
  8
01
100
AcDbLine
 10
4869.775222357899
 20
519.4933555495054
 30
0.0000000001127424
 11
4870.149673041493
 21
519.5799415480406
 31
0.0000000001127424
  0
LINE
  5
E524
330
18
100
AcDbEntity
  8
01
100
AcDbLine
 10
4870.149673041493
 20
519.5799415480406
 30
0.0000000001127424
 11
4870.396918830067
 21
519.6375587355406
 31
0.0000000001127424
  0
LINE
  5
E525
330
18
100
AcDbEntity
  8
01
100
AcDbLine
 10
4870.396918830067
 20
519.6375587355406
 30
0.0000000001127424
 11
4870.505248603016
 21
519.653534687689
 31
0.0000000001127424
  0
LINE
  5
E526
330
18
100
AcDbEntity
  8
01
100
AcDbLine
 10
4870.505248603016
 20
519.653534687689
 30
0.0000000001127424
 11
4870.469283637196
 21
519.6222083937437
 31
0.0000000001127424
  0
LINE
  5
E527
330
18
100
AcDbEntity
  8
01
100
AcDbLine
 10
4870.469283637196
 20
519.6222083937437
 30
0.0000000001127424
 11
4870.29164081493
 21
519.5464942824156
 31
0.0000000001127424
  0
LINE
  5
E528
330
18
100
AcDbEntity
  8
01
100
AcDbLine
 10
4870.29164081493
 20
519.5464942824156
 30
0.0000000001127424
 11
4869.982337531239
 21
519.4380958449156
 31
0.0000000001127424
  0
LINE
  5
E529
330
18
100
AcDbEntity
  8
01
100
AcDbLine
 10
4869.982337531239
 20
519.4380958449156
 30
0.0000000001127424
 11
4869.554748114735
 21
519.312973774603
 31
0.0000000001127424
  0
LINE
  5
E52A
330
18
100
AcDbEntity
  8
01
100
AcDbLine
 10
4869.554748114735
 20
519.312973774603
 30
0.0000000001127424
 11
4869.025199469716
 21
519.1884849440366
 31
0.0000000001127424
  0
LINE
  5
E52B
330
18
100
AcDbEntity
  8
01
100
AcDbLine
 10
4869.025199469716
 20
519.1884849440366
 30
0.0000000001127424
 11
4868.412208136708
 21
519.0826805006773
 31
0.0000000001127424
  0
LINE
  5
E52C
330
18
100
AcDbEntity
  8
01
100
AcDbLine
 10
4868.412208136708
 20
519.0826805006773
 30
0.0000000001127424
 11
4867.738372382313
 21
519.0111396681577
 31
0.0000000001127424
  0
LINE
  5
E52D
330
18
100
AcDbEntity
  8
01
100
AcDbLine
 10
4867.738372382313
 20
519.0111396681577
 30
0.0000000001127424
 11
4867.015464362294
 21
518.9843223463804
 31
0.0000000001127424
  0
LINE
  5
E52E
330
18
100
AcDbEntity
  8
01
  6
BYBLOCK
100
AcDbLine
 10
4831.318325353182
 20
552.330310042807
 30
0.0000000001127424
 11
4832.014993247181
 21
554.930310042807
 31
0.0000000001127424
  0
LINE
  5
E52F
330
18
100
AcDbEntity
  8
01
  6
BYBLOCK
100
AcDbLine
 10
4832.014993247181
 20
554.930310042807
 30
0.0000000001127424
 11
4832.711661141181
 21
552.330310042807
 31
0.0000000001127424
  0
LINE
  5
E530
330
18
100
AcDbEntity
  8
01
  6
BYBLOCK
100
AcDbLine
 10
4832.014993247181
 20
554.930310042807
 30
0.0000000001127424
 11
4832.014993247181
 21
552.330310042807
 31
0.0000000001127424
  0
LINE
  5
E531
330
18
100
AcDbEntity
  8
01
  6
BYBLOCK
100
AcDbLine
 10
4832.711661141181
 20
507.5303100428079
 30
0.0000000001127424
 11
4832.014993247181
 21
504.9303100428078
 31
0.0000000001127424
  0
LINE
  5
E532
330
18
100
AcDbEntity
  8
01
  6
BYBLOCK
100
AcDbLine
 10
4832.014993247181
 20
504.9303100428078
 30
0.0000000001127424
 11
4831.318325353182
 21
507.5303100428079
 31
0.0000000001127424
  0
LINE
  5
E533
330
18
100
AcDbEntity
  8
01
  6
BYBLOCK
100
AcDbLine
 10
4832.014993247181
 20
504.9303100428078
 30
0.0000000001127424
 11
4832.014993247181
 21
507.5303100428079
 31
0.0000000001127424
  0
TEXT
  5
E534
330
18
100
AcDbEntity
  8
01
  6
CONTINUOUS
100
AcDbText
 10
4831.104993247181
 20
521.7308071362077
 30
0.0000000001127424
 40
4.55
  1
φ50
 50
90.0
100
AcDbText
1001
ACAD
1000
DSTYLE
1002
{
1070
     3
1000
φ<>
1070
    40
1040
1.3
1070
    45
1040
0.5
1002
}
  0
LINE
  5
E535
330
18
100
AcDbEntity
  8
1DIM
100
AcDbLine
 10
4919.15502080885
 20
627.1456783754711
 30
0.0000000001127424
 11
5033.314993247182
 21
627.1456783754711
 31
0.0000000001127424
1001
ACAD
1000
DSTYLE
1002
{
1070
    40
1040
1.3
1070
    45
1040
0.5
1002
}
  0
LINE
  5
E536
330
18
100
AcDbEntity
  8
1DIM
100
AcDbLine
 10
4969.770141244529
 20
689.9289917297042
 30
0.0000000001127424
 11
5033.314993247182
 21
689.9289917297042
 31
0.0000000001127424
1001
ACAD
1000
DSTYLE
1002
{
1070
    40
1040
1.3
1070
    45
1040
0.5
1002
}
  0
LINE
  5
E537
330
18
100
AcDbEntity
  8
1DIM
100
AcDbLine
 10
5032.014993247181
 20
629.7456783754711
 30
0.0000000001127424
 11
5032.014993247181
 21
687.3289917297042
 31
0.0000000001127424
1001
ACAD
1000
DSTYLE
1002
{
1070
    40
1040
1.3
1070
    45
1040
0.5
1002
}
  0
LINE
  5
E53B
330
18
100
AcDbEntity
  8
1DIM
100
AcDbLine
 10
4854.014901087843
 20
680.9289917675433
 30
0.0000000001127424
 11
4854.014901087843
 21
593.6289917297042
 31
0.0000000001127424
1001
ACAD
1000
DSTYLE
1002
{
1070
    40
1040
1.3
1070
   271
1070
     0
1002
}
  0
LINE
  5
E53C
330
18
100
AcDbEntity
  8
1DIM
100
AcDbLine
 10
4986.679127693649
 20
649.600667255776
 30
0.0000000001127424
 11
4986.679127693649
 21
593.6289917297042
 31
0.0000000001127424
1001
ACAD
1000
DSTYLE
1002
{
1070
    40
1040
1.3
1070
   271
1070
     0
1002
}
  0
LINE
  5
E53D
330
18
100
AcDbEntity
  8
1DIM
100
AcDbLine
 10
4856.614901087843
 20
594.9289917297042
 30
0.0000000001127424
 11
4984.079127693649
 21
594.9289917297042
 31
0.0000000001127424
1001
ACAD
1000
DSTYLE
1002
{
1070
    40
1040
1.3
1070
   271
1070
     0
1002
}
  0
LINE
  5
E541
330
18
100
AcDbEntity
  8
1DIM
100
AcDbLine
 10
4867.014993247181
 20
670.1377818428568
 30
0.0000000001127424
 11
4867.014993247181
 21
603.6289917297042
 31
0.0000000001127424
1001
ACAD
1000
DSTYLE
1002
{
1070
    40
1040
1.3
1070
   271
1070
     0
1002
}
  0
LINE
  5
E542
330
18
100
AcDbEntity
  8
1DIM
100
AcDbLine
 10
4986.665761297177
 20
649.4220596102514
 30
0.0000000001127424
 11
4986.665761297177
 21
603.6289917297042
 31
0.0000000001127424
1001
ACAD
1000
DSTYLE
1002
{
1070
    40
1040
1.3
1070
   271
1070
     0
1002
}
  0
LINE
  5
E543
330
18
100
AcDbEntity
  8
1DIM
100
AcDbLine
 10
4869.614993247182
 20
604.9289917297042
 30
0.0000000001127424
 11
4984.065761297176
 21
604.9289917297042
 31
0.0000000001127424
1001
ACAD
1000
DSTYLE
1002
{
1070
    40
1040
1.3
1070
   271
1070
     0
1002
}
  0
LINE
  5
E547
330
18
100
AcDbEntity
  8
1DIM
100
AcDbLine
 10
4969.770141244529
 20
689.9289917297042
 30
0.0000000001127424
 11
5023.314993247182
 21
689.9289917297042
 31
0.0000000001127424
1001
ACAD
1000
DSTYLE
1002
{
1070
    40
1040
1.3
1070
   271
1070
     0
1002
}
  0
LINE
  5
E548
330
18
100
AcDbEntity
  8
1DIM
100
AcDbLine
 10
4950.040743965129
 20
655.2387190418226
 30
0.0000000001127424
 11
5023.314993247182
 21
655.2387190418226
 31
0.0000000001127424
1001
ACAD
1000
DSTYLE
1002
{
1070
    40
1040
1.3
1070
   271
1070
     0
1002
}
  0
LINE
  5
E549
330
18
100
AcDbEntity
  8
1DIM
100
AcDbLine
 10
5022.014993247181
 20
687.3289917297042
 30
0.0000000001127424
 11
5022.014993247181
 21
657.8387190418226
 31
0.0000000001127424
1001
ACAD
1000
DSTYLE
1002
{
1070
    40
1040
1.3
1070
   271
1070
     0
1002
}
  0
LINE
  5
E54D
330
18
100
AcDbEntity
  8
1DIM
100
AcDbLine
 10
4867.014993247181
 20
540.9303099800491
 30
0.0000000001127424
 11
5023.314993247182
 21
540.9303099800491
 31
0.0000000001127424
1001
ACAD
1000
DSTYLE
1002
{
1070
    40
1040
1.3
1070
   271
1070
     1
1002
}
  0
LINE
  5
E54E
330
18
100
AcDbEntity
  8
1DIM
100
AcDbLine
 10
4867.014993247181
 20
518.9303101055793
 30
0.0000000001127424
 11
5023.314993247182
 21
518.9303101055793
 31
0.0000000001127424
1001
ACAD
1000
DSTYLE
1002
{
1070
    40
1040
1.3
1070
   271
1070
     1
1002
}
  0
LINE
  5
E54F
330
18
100
AcDbEntity
  8
1DIM
100
AcDbLine
 10
5022.014993247181
 20
538.330309980049
 30
0.0000000001127424
 11
5022.014993247181
 21
521.5303101055794
 31
0.0000000001127424
1001
ACAD
1000
DSTYLE
1002
{
1070
    40
1040
1.3
1070
   271
1070
     1
1002
}
  0
LINE
  5
E553
330
18
100
AcDbEntity
  8
0
  6
BYBLOCK
100
AcDbLine
 10
5032.711661141181
 20
629.7456783754711
 30
0.0000000001127424
 11
5032.014993247181
 21
627.1456783754711
 31
0.0000000001127424
  0
LINE
  5
E554
330
18
100
AcDbEntity
  8
0
  6
BYBLOCK
100
AcDbLine
 10
5032.014993247181
 20
627.1456783754711
 30
0.0000000001127424
 11
5031.318325353182
 21
629.7456783754711
 31
0.0000000001127424
  0
LINE
  5
E555
330
18
100
AcDbEntity
  8
0
  6
BYBLOCK
100
AcDbLine
 10
5032.014993247181
 20
627.1456783754711
 30
0.0000000001127424
 11
5032.014993247181
 21
629.7456783754711
 31
0.0000000001127424
  0
LINE
  5
E556
330
18
100
AcDbEntity
  8
0
  6
BYBLOCK
100
AcDbLine
 10
5031.318325353182
 20
687.3289917297042
 30
0.0000000001127424
 11
5032.014993247181
 21
689.9289917297042
 31
0.0000000001127424
  0
LINE
  5
E557
330
18
100
AcDbEntity
  8
0
  6
BYBLOCK
100
AcDbLine
 10
5032.014993247181
 20
689.9289917297042
 30
0.0000000001127424
 11
5032.711661141181
 21
687.3289917297042
 31
0.0000000001127424
  0
LINE
  5
E558
330
18
100
AcDbEntity
  8
0
  6
BYBLOCK
100
AcDbLine
 10
5032.014993247181
 20
689.9289917297042
 30
0.0000000001127424
 11
5032.014993247181
 21
687.3289917297042
 31
0.0000000001127424
  0
TEXT
  5
E559
330
18
100
AcDbEntity
  8
1DIM
  6
CONTINUOUS
100
AcDbText
 10
5031.104993247181
 20
654.729869774811
 30
0.0000000001127424
 40
4.55
  1
63
 50
90.0
100
AcDbText
1001
ACAD
1000
DSTYLE
1002
{
1070
    40
1040
1.3
1070
    45
1040
0.5
1002
}
  0
LINE
  5
E55A
330
18
100
AcDbEntity
  8
0
  6
BYBLOCK
100
AcDbLine
 10
4856.614901087843
 20
594.2323238357042
 30
0.0000000001127424
 11
4854.014901087843
 21
594.9289917297042
 31
0.0000000001127424
  0
LINE
  5
E55B
330
18
100
AcDbEntity
  8
0
  6
BYBLOCK
100
AcDbLine
 10
4854.014901087843
 20
594.9289917297042
 30
0.0000000001127424
 11
4856.614901087843
 21
595.6256596237042
 31
0.0000000001127424
  0
LINE
  5
E55C
330
18
100
AcDbEntity
  8
0
  6
BYBLOCK
100
AcDbLine
 10
4854.014901087843
 20
594.9289917297042
 30
0.0000000001127424
 11
4856.614901087843
 21
594.9289917297042
 31
0.0000000001127424
  0
LINE
  5
E55D
330
18
100
AcDbEntity
  8
0
  6
BYBLOCK
100
AcDbLine
 10
4984.079127693649
 20
595.6256596237042
 30
0.0000000001127424
 11
4986.679127693649
 21
594.9289917297042
 31
0.0000000001127424
  0
LINE
  5
E55E
330
18
100
AcDbEntity
  8
0
  6
BYBLOCK
100
AcDbLine
 10
4986.679127693649
 20
594.9289917297042
 30
0.0000000001127424
 11
4984.079127693649
 21
594.2323238357042
 31
0.0000000001127424
  0
LINE
  5
E55F
330
18
100
AcDbEntity
  8
0
  6
BYBLOCK
100
AcDbLine
 10
4986.679127693649
 20
594.9289917297042
 30
0.0000000001127424
 11
4984.079127693649
 21
594.9289917297042
 31
0.0000000001127424
  0
TEXT
  5
E560
330
18
100
AcDbEntity
  8
1DIM
  6
CONTINUOUS
100
AcDbText
 10
4915.038681057413
 20
595.8389917297042
 30
0.0000000001127424
 40
4.55
  1
133
100
AcDbText
1001
ACAD
1000
DSTYLE
1002
{
1070
    40
1040
1.3
1070
   271
1070
     0
1002
}
  0
LINE
  5
E561
330
18
100
AcDbEntity
  8
0
  6
BYBLOCK
100
AcDbLine
 10
4869.614993247182
 20
604.2323238357042
 30
0.0000000001127424
 11
4867.014993247181
 21
604.9289917297042
 31
0.0000000001127424
  0
LINE
  5
E562
330
18
100
AcDbEntity
  8
0
  6
BYBLOCK
100
AcDbLine
 10
4867.014993247181
 20
604.9289917297042
 30
0.0000000001127424
 11
4869.614993247182
 21
605.6256596237042
 31
0.0000000001127424
  0
LINE
  5
E563
330
18
100
AcDbEntity
  8
0
  6
BYBLOCK
100
AcDbLine
 10
4867.014993247181
 20
604.9289917297042
 30
0.0000000001127424
 11
4869.614993247182
 21
604.9289917297042
 31
0.0000000001127424
  0
LINE
  5
E564
330
18
100
AcDbEntity
  8
0
  6
BYBLOCK
100
AcDbLine
 10
4984.065761297176
 20
605.6256596237042
 30
0.0000000001127424
 11
4986.665761297177
 21
604.9289917297042
 31
0.0000000001127424
  0
LINE
  5
E565
330
18
100
AcDbEntity
  8
0
  6
BYBLOCK
100
AcDbLine
 10
4986.665761297177
 20
604.9289917297042
 30
0.0000000001127424
 11
4984.065761297176
 21
604.2323238357042
 31
0.0000000001127424
  0
LINE
  5
E566
330
18
100
AcDbEntity
  8
0
  6
BYBLOCK
100
AcDbLine
 10
4986.665761297177
 20
604.9289917297042
 30
0.0000000001127424
 11
4984.065761297176
 21
604.9289917297042
 31
0.0000000001127424
  0
TEXT
  5
E567
330
18
100
AcDbEntity
  8
1DIM
  6
CONTINUOUS
100
AcDbText
 10
4921.816418938846
 20
605.8389917297042
 30
0.0000000001127424
 40
4.55
  1
120
100
AcDbText
1001
ACAD
1000
DSTYLE
1002
{
1070
    40
1040
1.3
1070
   271
1070
     0
1002
}
  0
LINE
  5
E568
330
18
100
AcDbEntity
  8
0
  6
BYBLOCK
100
AcDbLine
 10
5021.318325353182
 20
687.3289917297042
 30
0.0000000001127424
 11
5022.014993247181
 21
689.9289917297042
 31
0.0000000001127424
  0
LINE
  5
E569
330
18
100
AcDbEntity
  8
0
  6
BYBLOCK
100
AcDbLine
 10
5022.014993247181
 20
689.9289917297042
 30
0.0000000001127424
 11
5022.711661141181
 21
687.3289917297042
 31
0.0000000001127424
  0
LINE
  5
E56A
330
18
100
AcDbEntity
  8
0
  6
BYBLOCK
100
AcDbLine
 10
5022.014993247181
 20
689.9289917297042
 30
0.0000000001127424
 11
5022.014993247181
 21
687.3289917297042
 31
0.0000000001127424
  0
LINE
  5
E56B
330
18
100
AcDbEntity
  8
0
  6
BYBLOCK
100
AcDbLine
 10
5022.711661141181
 20
657.8387190418226
 30
0.0000000001127424
 11
5022.014993247181
 21
655.2387190418226
 31
0.0000000001127424
  0
LINE
  5
E56C
330
18
100
AcDbEntity
  8
0
  6
BYBLOCK
100
AcDbLine
 10
5022.014993247181
 20
655.2387190418226
 30
0.0000000001127424
 11
5021.318325353182
 21
657.8387190418226
 31
0.0000000001127424
  0
LINE
  5
E56D
330
18
100
AcDbEntity
  8
0
  6
BYBLOCK
100
AcDbLine
 10
5022.014993247181
 20
655.2387190418226
 30
0.0000000001127424
 11
5022.014993247181
 21
657.8387190418226
 31
0.0000000001127424
  0
TEXT
  5
E56E
330
18
100
AcDbEntity
  8
1DIM
  6
CONTINUOUS
100
AcDbText
 10
5021.104993247181
 20
668.7921887190969
 30
0.0000000001127424
 40
4.55
  1
35
 50
90.0
100
AcDbText
1001
ACAD
1000
DSTYLE
1002
{
1070
    40
1040
1.3
1070
   271
1070
     0
1002
}
  0
LINE
  5
E56F
330
18
100
AcDbEntity
  8
0
  6
BYBLOCK
100
AcDbLine
 10
5021.318325353182
 20
538.330309980049
 30
0.0000000001127424
 11
5022.014993247181
 21
540.9303099800491
 31
0.0000000001127424
  0
LINE
  5
E570
330
18
100
AcDbEntity
  8
0
  6
BYBLOCK
100
AcDbLine
 10
5022.014993247181
 20
540.9303099800491
 30
0.0000000001127424
 11
5022.711661141181
 21
538.330309980049
 31
0.0000000001127424
  0
LINE
  5
E571
330
18
100
AcDbEntity
  8
0
  6
BYBLOCK
100
AcDbLine
 10
5022.014993247181
 20
540.9303099800491
 30
0.0000000001127424
 11
5022.014993247181
 21
538.330309980049
 31
0.0000000001127424
  0
LINE
  5
E572
330
18
100
AcDbEntity
  8
0
  6
BYBLOCK
100
AcDbLine
 10
5022.711661141181
 20
521.5303101055794
 30
0.0000000001127424
 11
5022.014993247181
 21
518.9303101055793
 31
0.0000000001127424
  0
LINE
  5
E573
330
18
100
AcDbEntity
  8
0
  6
BYBLOCK
100
AcDbLine
 10
5022.014993247181
 20
518.9303101055793
 30
0.0000000001127424
 11
5021.318325353182
 21
521.5303101055794
 31
0.0000000001127424
  0
LINE
  5
E574
330
18
100
AcDbEntity
  8
0
  6
BYBLOCK
100
AcDbLine
 10
5022.014993247181
 20
518.9303101055793
 30
0.0000000001127424
 11
5022.014993247181
 21
521.5303101055794
 31
0.0000000001127424
  0
TEXT
  5
E575
330
18
100
AcDbEntity
  8
1DIM
  6
CONTINUOUS
100
AcDbText
 10
5021.104993247181
 20
526.1386433761481
 30
0.0000000001127424
 40
4.55
  1
22
 50
90.0
100
AcDbText
1001
ACAD
1000
DSTYLE
1002
{
1070
    40
1040
1.3
1070
   271
1070
     1
1002
}
  0
VIEWPORT
  5
57
330
15
100
AcDbEntity
 67
     1
  8
0
100
AcDbViewport
 68
     1
 10
0.0
 20
0.0
 30
0.0
 40
555.8298653610772
 41
297.0
 68
     1
 69
     1
1001
ACAD
1000
MVIEW
1002
{
1070
    16
1010
0.0
1020
0.0
1030
0.0
1010
0.0
1020
0.0
1030
1.0
1040
0.0
1040
297.0
1040
5.728000000000009
1040
25.339
1040
50.0
1040
0.0
1040
0.0
1070
    16
1070
   100
1070
     0
1070
     1
1070
     0
1070
     0
1070
     0
1070
     0
1040
0.0
1040
0.0
1040
0.0
1040
10.0
1040
10.0
1040
10.0
1040
10.0
1070
     0
1002
{
1002
}
1002
}
  0
ENDSEC
  0
SECTION
  2
OBJECTS
  0
DICTIONARY
  5
C
330
0
100
AcDbDictionary
  3
ACAD_CIP_PREVIOUS_PRODUCT_INFO
350
AEA8
  3
ACAD_COLOR
350
18D
  3
ACAD_GROUP
350
D
  3
ACAD_LAYOUT
350
18E
  3
ACAD_MATERIAL
350
18C
  3
ACAD_MLEADERSTYLE
350
9583
  3
ACAD_MLINESTYLE
350
1B
  3
ACAD_PLOTSETTINGS
350
18F
  3
ACAD_SCALELIST
350
9561
  3
ACAD_VISUALSTYLE
350
9550
  3
ACDBHEADERROUNDTRIPXREC
350
E576
  3
ACDBVARIABLEDICTIONARY
350
37
  3
CONTENTDICTIONARY
350
D8
  3
DRAWINGVARIABLESDICT
350
20
  3
DWGPROPS
350
E579
1001
ACAD
1000
TREAT_AS_HARD
1070
     0
  0
DICTIONARY
  5
96D9
330
2
100
AcDbDictionary
  3
ACAD_LAYERSTATES
360
96DA
1001
ACAD
1000
TREAT_AS_HARD
1070
     1
  0
DICTIONARY
  5
9593
330
E
100
AcDbDictionary
  3
ADSK_XREC_LAYER_RECONCILED
360
9594
1001
ACAD
1000
TREAT_AS_HARD
1070
     1
  0
DICTIONARY
  5
9595
330
29
100
AcDbDictionary
  3
ADSK_XREC_LAYER_RECONCILED
360
9596
1001
ACAD
1000
TREAT_AS_HARD
1070
     1
  0
DICTIONARY
  5
9597
330
31
100
AcDbDictionary
  3
ADSK_XREC_LAYER_RECONCILED
360
9598
1001
ACAD
1000
TREAT_AS_HARD
1070
     1
  0
DICTIONARY
  5
959D
330
243
100
AcDbDictionary
  3
ADSK_XREC_LAYER_RECONCILED
360
959E
1001
ACAD
1000
TREAT_AS_HARD
1070
     1
  0
DICTIONARY
  5
95A3
330
24E
100
AcDbDictionary
  3
ADSK_XREC_LAYER_RECONCILED
360
95A4
1001
ACAD
1000
TREAT_AS_HARD
1070
     1
  0
DICTIONARY
  5
88F
330
18
100
AcDbDictionary
  3
ACAD_SORTENTS
360
890
1001
ACAD
1000
TREAT_AS_HARD
1070
     1
  0
XRECORD
  5
AEA8
102
{ACAD_REACTORS
330
C
102
}
330
C
100
AcDbXrecord
300
ACDLT
300
2012
300
ACDLT_F_S
  0
DICTIONARY
  5
18D
102
{ACAD_REACTORS
330
C
102
}
330
C
100
AcDbDictionary
1001
ACAD
1000
TREAT_AS_HARD
1070
     0
  0
DICTIONARY
  5
D
102
{ACAD_REACTORS
330
C
102
}
330
C
100
AcDbDictionary
1001
ACAD
1000
TREAT_AS_HARD
1070
     0
  0
DICTIONARY
  5
18E
102
{ACAD_REACTORS
330
C
102
}
330
C
100
AcDbDictionary
1001
ACAD
1000
TREAT_AS_HARD
1070
     0
  0
DICTIONARY
  5
18C
102
{ACAD_REACTORS
330
C
102
}
330
C
100
AcDbDictionary
  3
BYBLOCK
350
9540
  3
BYLAYER
350
9538
  3
GLOBAL
350
9548
1001
ACAD
1000
TREAT_AS_HARD
1070
     0
  0
DICTIONARY
  5
9583
102
{ACAD_REACTORS
330
C
102
}
330
C
100
AcDbDictionary
  3
STANDARD
350
9584
1001
ACAD
1000
TREAT_AS_HARD
1070
     0
  0
DICTIONARY
  5
1B
102
{ACAD_REACTORS
330
C
102
}
330
C
100
AcDbDictionary
  3
STANDARD
350
1C
1001
ACAD
1000
TREAT_AS_HARD
1070
     0
  0
DICTIONARY
  5
18F
102
{ACAD_REACTORS
330
C
102
}
330
C
100
AcDbDictionary
1001
ACAD
1000
TREAT_AS_HARD
1070
     0
  0
DICTIONARY
  5
9561
102
{ACAD_REACTORS
330
C
102
}
330
C
100
AcDbDictionary
  3
A0
350
9562
  3
A1
350
9563
  3
A2
350
9564
  3
A3
350
9565
  3
A4
350
9566
  3
A5
350
9567
  3
A6
350
9568
  3
A7
350
9569
  3
A8
350
956A
  3
A9
350
956B
  3
B0
350
956C
  3
B1
350
956D
  3
B2
350
956E
  3
B3
350
956F
  3
B4
350
9570
  3
B5
350
9571
  3
B6
350
9572
  3
B7
350
9573
  3
B8
350
9574
  3
B9
350
9575
  3
C0
350
9576
  3
C1
350
9577
  3
C2
350
9578
  3
C3
350
9579
  3
C4
350
957A
  3
C5
350
957B
  3
C6
350
957C
  3
C7
350
957D
  3
C8
350
957E
  3
C9
350
957F
  3
D0
350
9580
  3
D1
350
9581
  3
D2
350
9582
1001
ACAD
1000
TREAT_AS_HARD
1070
     0
  0
DICTIONARY
  5
9550
102
{ACAD_REACTORS
330
C
102
}
330
C
100
AcDbDictionary
  3
2DWIREFRAME
350
9556
  3
3D_HIDDEN
350
9558
  3
3DWIREFRAME
350
9557
  3
BASIC
350
9555
  3
BRIGHTEN
350
955C
  3
COLORCHANGE
350
9560
  3
CONCEPTUAL
350
9559
  3
DIM
350
955B
  3
EDGECOLOROFF
350
A211
  3
FACEPATTERN
350
955F
  3
FLAT
350
9551
  3
FLATWITHEDGES
350
9552
  3
GOURAUD
350
9553
  3
GOURAUDWITHEDGES
350
9554
  3
HIDDEN
350
A260
  3
JITTEROFF
350
A20F
  3
LINEPATTERN
350
955E
  3
MODELING
350
A266
  3
OVERHANGOFF
350
A210
  3
REALISTIC
350
955A
  3
SHADED
350
A265
  3
SHADED_WITH_EDGES
350
A264
  3
SHADES_OF_GRAY
350
A261
  3
SKETCHY
350
A262
  3
THICKEN
350
955D
  3
WIREFRAME
350
A25F
  3
X-RAY
350
A263
1001
ACAD
1000
TREAT_AS_HARD
1070
     0
  0
DICTIONARY
  5
E576
102
{ACAD_REACTORS
330
C
102
}
330
C
100
AcDbDictionary
  3
COLORDICT
350
E577
  3
MATERIALDICT
350
E578
1001
ACAD
1000
TREAT_AS_HARD
1070
     0
  0
DICTIONARY
  5
37
102
{ACAD_REACTORS
330
C
102
}
330
C
100
AcDbDictionary
  3
CANNOSCALE
350
AAE0
  3
CMLEADERSTYLE
350
9627
  3
CTABLESTYLE
350
29E
  3
DIMADEC
350
38
  3
DIMASSOC
350
1CE
  3
HIDETEXT
350
704E
  3
INDEXCTL
350
962A
  3
INTERSECTIONCOLOR
350
7052
  3
INTERSECTIONDISPLAY
350
7051
  3
MSLTSCALE
350
AB30
  3
OBSCOLOR
350
704F
  3
OBSLTYPE
350
7050
  3
PROJECTNAME
350
1CF
  3
SORTENTS
350
9629
  3
XCLIPFRAME
350
E42F
1001
ACAD
1000
TREAT_AS_HARD
1070
     0
  0
DICTIONARY
  5
D8
102
{ACAD_REACTORS
330
C
102
}
330
C
100
AcDbDictionary
1001
ACAD
1000
TREAT_AS_HARD
1070
     0
  0
DICTIONARY
  5
20
102
{ACAD_REACTORS
330
C
102
}
330
C
100
AcDbDictionary
1001
DRAWINGVARIABLESXDATA
1000
POLARANG
1000
0.261799387799149410000000
1000
POLARMODE
1000
1
1000
POLARSTYLE
1000
1
1001
ACAD
1000
TREAT_AS_HARD
1070
     0
  0
XRECORD
  5
E579
102
{ACAD_REACTORS
330
C
102
}
330
C
100
AcDbXrecord
  1
DWGPROPS COOKIE
  2

  3

  4

  6

  7

  8
3684
  9

300
=
301
=
302
=
303
=
304
=
305
=
306
=
307
=
308
=
309
=
 40
0.0
 41
2451318.246352917
 42
2458159.064936319
  1

 90
        0
  0
DICTIONARY
  5
96DA
102
{ACAD_REACTORS
330
96D9
102
}
330
96D9
100
AcDbDictionary
1001
ACAD
1000
TREAT_AS_HARD
1070
     0
  0
ACAD_PROXY_OBJECT
  5
9594
102
{ACAD_REACTORS
330
9593
102
}
330
9593
100
AcDbZombieObject
 90
      499
 91
      514
 93
       34
310
40C8804040
  0
ACAD_PROXY_OBJECT
  5
9596
102
{ACAD_REACTORS
330
9595
102
}
330
9595
100
AcDbZombieObject
 90
      499
 91
      514
 93
       34
310
40C8804040
  0
ACAD_PROXY_OBJECT
  5
9598
102
{ACAD_REACTORS
330
9597
102
}
330
9597
100
AcDbZombieObject
 90
      499
 91
      514
 93
       34
310
40C8804040
  0
ACAD_PROXY_OBJECT
  5
959E
102
{ACAD_REACTORS
330
959D
102
}
330
959D
100
AcDbZombieObject
 90
      499
 91
      514
 93
       34
310
40C8804040
  0
ACAD_PROXY_OBJECT
  5
95A4
102
{ACAD_REACTORS
330
95A3
102
}
330
95A3
100
AcDbZombieObject
 90
      499
 91
      514
 93
       34
310
40C8804040
  0
SORTENTSTABLE
  5
890
102
{ACAD_REACTORS
330
88F
102
}
330
88F
100
AcDbSortentsTable
330
18
331
0
  5
E2F8
331
E2F8
  5
E31B
331
E2F9
  5
E31C
331
E2FA
  5
E31D
331
E2FB
  5
E31E
331
E2FC
  5
E31F
331
E2FD
  5
E320
331
E312
  5
E321
331
E313
  5
E322
331
E314
  5
E323
331
E316
  5
E324
331
0
  5
E325
331
E318
  5
E336
331
E319
  5
E337
331
E31A
  5
E338
331
E31B
  5
E339
331
E31C
  5
E33A
331
E31D
  5
E33B
331
E31E
  5
E33C
331
E31F
  5
E33D
331
E320
  5
E33E
331
E321
  5
E33F
331
E322
  5
E340
331
E323
  5
E341
331
E324
  5
E342
331
E325
  5
E343
331
E326
  5
E344
331
E327
  5
E345
331
E328
  5
E346
331
E329
  5
E4C9
331
0
  5
E32B
331
0
  5
E32C
331
0
  5
E32D
331
E32D
  5
E50E
331
E32E
  5
E50F
331
E32F
  5
E510
331
E330
  5
E514
331
E331
  5
E515
331
E332
  5
E516
331
E333
  5
E51A
331
0
  5
E504
331
0
  5
E505
331
0
  5
E506
331
0
  5
E507
331
E338
  5
E549
331
E339
  5
E54A
331
E33A
  5
E54B
331
E33B
  5
E54C
331
E33C
  5
E54D
331
E33D
  5
E54E
331
E33E
  5
E54F
331
E33F
  5
E550
331
E340
  5
E551
331
E341
  5
E552
331
E342
  5
E553
331
E343
  5
E554
331
E344
  5
E555
331
E345
  5
E556
331
0
  5
E3FC
331
E4C9
  5
E2F9
331
E4CA
  5
E2FA
331
E4CB
  5
E2FB
331
0
  5
E2FC
331
0
  5
E2FD
331
0
  5
E312
331
E4CF
  5
E4CA
331
E4D0
  5
E4CB
331
E4D1
  5
E4CC
331
E4D2
  5
E4CD
331
E4D3
  5
E4CE
331
E4D4
  5
E4CF
331
E4D5
  5
E4D0
331
E4D6
  5
E4D1
331
E4D7
  5
E4D2
331
E4D8
  5
E4D3
331
E4D9
  5
E4D4
331
E4DA
  5
E4D5
331
E4DB
  5
E4D6
331
E4DC
  5
E4D7
331
E4DD
  5
E4D8
331
E4DE
  5
E4D9
331
E4DF
  5
E4DA
331
E4E0
  5
E4DB
331
E4E1
  5
E4DC
331
E4E2
  5
E4DD
331
E4E3
  5
E4DE
331
E4E4
  5
E4DF
331
E4E5
  5
E4E0
331
E4E6
  5
E4E1
331
E4E7
  5
E4E2
331
E4E8
  5
E4E3
331
E4E9
  5
E4E4
331
E4EA
  5
E4E5
331
E4EB
  5
E4E6
331
E4EC
  5
E4E7
331
E4ED
  5
E4E8
331
E4EE
  5
E4E9
331
E4EF
  5
E4EA
331
E4F0
  5
E4EB
331
E4F1
  5
E4EC
331
E4F2
  5
E4ED
331
E4F3
  5
E4EE
331
E4F4
  5
E4EF
331
E4F5
  5
E4F0
331
E4F6
  5
E4F1
331
E4F7
  5
E4F2
331
E4F8
  5
E4F3
331
E4F9
  5
E4F4
331
E4FA
  5
E4F5
331
E4FB
  5
E4F6
331
E4FC
  5
E4F7
331
E4FD
  5
E4F8
331
E4FE
  5
E4F9
331
E4FF
  5
E4FA
331
E500
  5
E4FB
331
E501
  5
E4FC
331
E502
  5
E4FD
331
E503
  5
E4FE
331
E504
  5
E4FF
331
E505
  5
E500
331
E506
  5
E501
331
E507
  5
E502
331
E508
  5
E503
331
E509
  5
E508
331
E50A
  5
E509
331
E50B
  5
E50A
331
E50C
  5
E50B
331
E50D
  5
E50C
331
E50E
  5
E50D
331
E50F
  5
E557
331
E510
  5
E558
331
E511
  5
E559
331
E512
  5
E55A
331
E513
  5
E55B
331
E514
  5
E55C
331
E515
  5
E55D
331
E516
  5
E55E
331
E517
  5
E55F
331
E518
  5
E560
331
E519
  5
E561
331
E51A
  5
E562
331
E51B
  5
E563
331
E51C
  5
E564
331
E51D
  5
E565
331
E51E
  5
E566
331
E51F
  5
E567
331
E520
  5
E568
331
E521
  5
E569
331
E522
  5
E56A
331
E523
  5
E56B
331
E524
  5
E56C
331
E525
  5
E56D
331
E526
  5
E56E
331
E527
  5
E56F
331
E528
  5
E570
331
E529
  5
E571
331
E52A
  5
E572
331
E52B
  5
E573
331
E52C
  5
E574
331
E52D
  5
E575
331
E52E
  5
E313
331
E52F
  5
E314
331
E530
  5
E315
331
E531
  5
E317
331
E532
  5
E318
331
E533
  5
E319
331
E534
  5
E31A
331
E535
  5
E326
331
E536
  5
E327
331
E537
  5
E328
331
0
  5
E329
331
0
  5
E32A
331
0
  5
E32E
331
E53B
  5
E51B
331
E53C
  5
E51C
331
E53D
  5
E520
331
0
  5
E511
331
0
  5
E512
331
0
  5
E513
331
E541
  5
E52B
331
E542
  5
E52C
331
E543
  5
E52D
331
0
  5
E517
331
0
  5
E518
331
0
  5
E519
331
E547
  5
E535
331
E548
  5
E536
331
E549
  5
E537
331
0
  5
E51D
331
0
  5
E51E
331
0
  5
E51F
331
E54D
  5
E53F
331
E54E
  5
E540
331
E54F
  5
E541
331
0
  5
E523
331
0
  5
E524
331
0
  5
E525
331
E553
  5
E32F
331
E554
  5
E330
331
E555
  5
E331
331
E556
  5
E332
331
E557
  5
E333
331
E558
  5
E334
331
E559
  5
E335
331
E55A
  5
E521
331
E55B
  5
E522
331
E55C
  5
E526
331
E55D
  5
E527
331
E55E
  5
E528
331
E55F
  5
E529
331
E560
  5
E52A
331
E561
  5
E52E
331
E562
  5
E52F
331
E563
  5
E530
331
E564
  5
E531
331
E565
  5
E532
331
E566
  5
E533
331
E567
  5
E534
331
E568
  5
E538
331
E569
  5
E539
331
E56A
  5
E53A
331
E56B
  5
E53B
331
E56C
  5
E53C
331
E56D
  5
E53D
331
E56E
  5
E53E
331
E56F
  5
E542
331
E570
  5
E543
331
E571
  5
E544
331
E572
  5
E545
331
E573
  5
E546
331
E574
  5
E547
331
E575
  5
E548
  0
MATERIAL
  5
9540
102
{ACAD_REACTORS
330
18C
102
}
102
{ACAD_XDICTIONARY
360
E714
102
}
330
18C
100
AcDbMaterial
  1
BYBLOCK
 72
     0
 73
     2
 43
0.0208333333333333
 43
0.0
 43
0.0
 43
0.0
 43
0.0
 43
0.0208333333333333
 43
0.0
 43
0.0
 43
0.0
 43
0.0
 43
1.0
 43
0.0
 43
0.0
 43
0.0
 43
0.0
 43
1.0
 77
     0
 78
     2
 47
0.0208333333333333
 47
0.0
 47
0.0
 47
0.0
 47
0.0
 47
0.0208333333333333
 47
0.0
 47
0.0
 47
0.0
 47
0.0
 47
1.0
 47
0.0
 47
0.0
 47
0.0
 47
0.0
 47
1.0
171
     0
172
     2
 49
0.0208333333333333
 49
0.0
 49
0.0
 49
0.0
 49
0.0
 49
0.0208333333333333
 49
0.0
 49
0.0
 49
0.0
 49
0.0
 49
1.0
 49
0.0
 49
0.0
 49
0.0
 49
0.0
 49
1.0
175
     0
176
     2
142
0.0208333333333333
142
0.0
142
0.0
142
0.0
142
0.0
142
0.0208333333333333
142
0.0
142
0.0
142
0.0
142
0.0
142
1.0
142
0.0
142
0.0
142
0.0
142
0.0
142
1.0
179
     0
270
     2
144
0.0208333333333333
144
0.0
144
0.0
144
0.0
144
0.0
144
0.0208333333333333
144
0.0
144
0.0
144
0.0
144
0.0
144
1.0
144
0.0
144
0.0
144
0.0
144
0.0
144
1.0
274
     2
147
0.0208333333333333
147
0.0
147
0.0
147
0.0
147
0.0
147
0.0208333333333333
147
0.0
147
0.0
147
0.0
147
0.0
147
1.0
147
0.0
147
0.0
147
0.0
147
0.0
147
1.0
  0
MATERIAL
  5
9538
102
{ACAD_REACTORS
330
18C
102
}
102
{ACAD_XDICTIONARY
360
E716
102
}
330
18C
100
AcDbMaterial
  1
BYLAYER
 72
     0
 73
     2
 43
0.0208333333333333
 43
0.0
 43
0.0
 43
0.0
 43
0.0
 43
0.0208333333333333
 43
0.0
 43
0.0
 43
0.0
 43
0.0
 43
1.0
 43
0.0
 43
0.0
 43
0.0
 43
0.0
 43
1.0
 77
     0
 78
     2
 47
0.0208333333333333
 47
0.0
 47
0.0
 47
0.0
 47
0.0
 47
0.0208333333333333
 47
0.0
 47
0.0
 47
0.0
 47
0.0
 47
1.0
 47
0.0
 47
0.0
 47
0.0
 47
0.0
 47
1.0
171
     0
172
     2
 49
0.0208333333333333
 49
0.0
 49
0.0
 49
0.0
 49
0.0
 49
0.0208333333333333
 49
0.0
 49
0.0
 49
0.0
 49
0.0
 49
1.0
 49
0.0
 49
0.0
 49
0.0
 49
0.0
 49
1.0
175
     0
176
     2
142
0.0208333333333333
142
0.0
142
0.0
142
0.0
142
0.0
142
0.0208333333333333
142
0.0
142
0.0
142
0.0
142
0.0
142
1.0
142
0.0
142
0.0
142
0.0
142
0.0
142
1.0
179
     0
270
     2
144
0.0208333333333333
144
0.0
144
0.0
144
0.0
144
0.0
144
0.0208333333333333
144
0.0
144
0.0
144
0.0
144
0.0
144
1.0
144
0.0
144
0.0
144
0.0
144
0.0
144
1.0
274
     2
147
0.0208333333333333
147
0.0
147
0.0
147
0.0
147
0.0
147
0.0208333333333333
147
0.0
147
0.0
147
0.0
147
0.0
147
1.0
147
0.0
147
0.0
147
0.0
147
0.0
147
1.0
  0
MATERIAL
  5
9548
102
{ACAD_REACTORS
330
18C
102
}
102
{ACAD_XDICTIONARY
360
E718
102
}
330
18C
100
AcDbMaterial
  1
GLOBAL
 72
     0
 73
     2
 43
0.0208333333333333
 43
0.0
 43
0.0
 43
0.0
 43
0.0
 43
0.0208333333333333
 43
0.0
 43
0.0
 43
0.0
 43
0.0
 43
1.0
 43
0.0
 43
0.0
 43
0.0
 43
0.0
 43
1.0
 77
     0
 78
     2
 47
0.0208333333333333
 47
0.0
 47
0.0
 47
0.0
 47
0.0
 47
0.0208333333333333
 47
0.0
 47
0.0
 47
0.0
 47
0.0
 47
1.0
 47
0.0
 47
0.0
 47
0.0
 47
0.0
 47
1.0
171
     0
172
     2
 49
0.0208333333333333
 49
0.0
 49
0.0
 49
0.0
 49
0.0
 49
0.0208333333333333
 49
0.0
 49
0.0
 49
0.0
 49
0.0
 49
1.0
 49
0.0
 49
0.0
 49
0.0
 49
0.0
 49
1.0
175
     0
176
     2
142
0.0208333333333333
142
0.0
142
0.0
142
0.0
142
0.0
142
0.0208333333333333
142
0.0
142
0.0
142
0.0
142
0.0
142
1.0
142
0.0
142
0.0
142
0.0
142
0.0
142
1.0
179
     0
270
     2
144
0.0208333333333333
144
0.0
144
0.0
144
0.0
144
0.0
144
0.0208333333333333
144
0.0
144
0.0
144
0.0
144
0.0
144
1.0
144
0.0
144
0.0
144
0.0
144
0.0
144
1.0
274
     2
147
0.0208333333333333
147
0.0
147
0.0
147
0.0
147
0.0
147
0.0208333333333333
147
0.0
147
0.0
147
0.0
147
0.0
147
1.0
147
0.0
147
0.0
147
0.0
147
0.0
147
1.0
  0
ACAD_PROXY_OBJECT
  5
9584
102
{ACAD_REACTORS
330
9583
102
}
330
9583
100
AcDbZombieObject
 90
      499
 91
      511
 93
      610
310
40901902A4063FBFFFFFE000000000000002040AD7A3703D0AD73F4214DD185B99185C990000000000000104090141901A00000000000004100000000000000041025764000000000000300FC0
340
12
340
0
340
F
340
0
 94
        0
1001
ACAD_MLEADERVER
1070
     2
  0
MLINESTYLE
  5
1C
102
{ACAD_REACTORS
330
1B
102
}
330
1B
100
AcDbMlineStyle
  2
STANDARD
 70
     0
  3

 62
   256
 51
90.0
 52
90.0
 71
     2
 49
0.5
 62
   256
  6
BYLAYER
 49
-0.5
 62
   256
  6
BYLAYER
  0
ACAD_PROXY_OBJECT
  5
9562
102
{ACAD_REACTORS
330
9561
102
}
330
9561
100
AcDbZombieObject
 90
      499
 91
      510
 93
       41
310
903313A31580
  0
ACAD_PROXY_OBJECT
  5
9563
102
{ACAD_REACTORS
330
9561
102
}
330
9561
100
AcDbZombieObject
 90
      499
 91
      510
 93
      105
310
903313A324000000000000004000
  0
ACAD_PROXY_OBJECT
  5
9564
102
{ACAD_REACTORS
330
9561
102
}
330
9561
100
AcDbZombieObject
 90
      499
 91
      510
 93
      105
310
903313A344000000000000104000
  0
ACAD_PROXY_OBJECT
  5
9565
102
{ACAD_REACTORS
330
9561
102
}
330
9561
100
AcDbZombieObject
 90
      499
 91
      510
 93
      105
310
903313A354000000000000144000
  0
ACAD_PROXY_OBJECT
  5
9566
102
{ACAD_REACTORS
330
9561
102
}
330
9561
100
AcDbZombieObject
 90
      499
 91
      510
 93
      105
310
903313A384000000000000204000
  0
ACAD_PROXY_OBJECT
  5
9567
102
{ACAD_REACTORS
330
9561
102
}
330
9561
100
AcDbZombieObject
 90
      499
 91
      510
 93
      113
310
904313A31304000000000000244000
  0
ACAD_PROXY_OBJECT
  5
9568
102
{ACAD_REACTORS
330
9561
102
}
330
9561
100
AcDbZombieObject
 90
      499
 91
      510
 93
      113
310
904313A31364000000000000304000
  0
ACAD_PROXY_OBJECT
  5
9569
102
{ACAD_REACTORS
330
9561
102
}
330
9561
100
AcDbZombieObject
 90
      499
 91
      510
 93
      113
310
904313A32304000000000000344000
  0
ACAD_PROXY_OBJECT
  5
956A
102
{ACAD_REACTORS
330
9561
102
}
330
9561
100
AcDbZombieObject
 90
      499
 91
      510
 93
      113
310
904313A333040000000000003E4000
  0
ACAD_PROXY_OBJECT
  5
956B
102
{ACAD_REACTORS
330
9561
102
}
330
9561
100
AcDbZombieObject
 90
      499
 91
      510
 93
      113
310
904313A34304000000000000444000
  0
ACAD_PROXY_OBJECT
  5
956C
102
{ACAD_REACTORS
330
9561
102
}
330
9561
100
AcDbZombieObject
 90
      499
 91
      510
 93
      113
310
904313A35304000000000000494000
  0
ACAD_PROXY_OBJECT
  5
956D
102
{ACAD_REACTORS
330
9561
102
}
330
9561
100
AcDbZombieObject
 90
      499
 91
      510
 93
      121
310
905313A3130304000000000000594000
  0
ACAD_PROXY_OBJECT
  5
956E
102
{ACAD_REACTORS
330
9561
102
}
330
9561
100
AcDbZombieObject
 90
      499
 91
      510
 93
      105
310
903323A310000000000000010100
  0
ACAD_PROXY_OBJECT
  5
956F
102
{ACAD_REACTORS
330
9561
102
}
330
9561
100
AcDbZombieObject
 90
      499
 91
      510
 93
      105
310
903343A310000000000000410100
  0
ACAD_PROXY_OBJECT
  5
9570
102
{ACAD_REACTORS
330
9561
102
}
330
9561
100
AcDbZombieObject
 90
      499
 91
      510
 93
      105
310
903383A310000000000000810100
  0
ACAD_PROXY_OBJECT
  5
9571
102
{ACAD_REACTORS
330
9561
102
}
330
9561
100
AcDbZombieObject
 90
      499
 91
      510
 93
      113
310
90431303A310000000000000910100
  0
ACAD_PROXY_OBJECT
  5
9572
102
{ACAD_REACTORS
330
9561
102
}
330
9561
100
AcDbZombieObject
 90
      499
 91
      510
 93
      121
310
9053130303A310000000000001650100
  0
ACAD_PROXY_OBJECT
  5
9573
102
{ACAD_REACTORS
330
9561
102
}
330
9561
100
AcDbZombieObject
 90
      499
 91
      510
 93
      257
310
90E312F31323822203D2031272D3022000000000000200FC000000000000284000
  0
ACAD_PROXY_OBJECT
  5
9574
102
{ACAD_REACTORS
330
9561
102
}
330
9561
100
AcDbZombieObject
 90
      499
 91
      510
 93
      249
310
90D312F363422203D2031272D3022000000000000240FC000000000000284000
  0
ACAD_PROXY_OBJECT
  5
9575
102
{ACAD_REACTORS
330
9561
102
}
330
9561
100
AcDbZombieObject
 90
      499
 91
      510
 93
      249
310
90D312F333222203D2031272D3022000000000000280FC000000000000284000
  0
ACAD_PROXY_OBJECT
  5
9576
102
{ACAD_REACTORS
330
9561
102
}
330
9561
100
AcDbZombieObject
 90
      499
 91
      510
 93
      249
310
90D312F313622203D2031272D30220000000000002C0FC000000000000284000
  0
ACAD_PROXY_OBJECT
  5
9577
102
{ACAD_REACTORS
330
9561
102
}
330
9561
100
AcDbZombieObject
 90
      499
 91
      510
 93
      249
310
90D332F333222203D2031272D30220000000000002E0FC000000000000284000
  0
ACAD_PROXY_OBJECT
  5
9578
102
{ACAD_REACTORS
330
9561
102
}
330
9561
100
AcDbZombieObject
 90
      499
 91
      510
 93
      241
310
90C312F3822203D2031272D3022000000000000300FC000000000000284000
  0
ACAD_PROXY_OBJECT
  5
9579
102
{ACAD_REACTORS
330
9561
102
}
330
9561
100
AcDbZombieObject
 90
      499
 91
      510
 93
      249
310
90D332F313622203D2031272D3022000000000000320FC000000000000284000
  0
ACAD_PROXY_OBJECT
  5
957A
102
{ACAD_REACTORS
330
9561
102
}
330
9561
100
AcDbZombieObject
 90
      499
 91
      510
 93
      241
310
90C312F3422203D2031272D3022000000000000340FC000000000000284000
  0
ACAD_PROXY_OBJECT
  5
957B
102
{ACAD_REACTORS
330
9561
102
}
330
9561
100
AcDbZombieObject
 90
      499
 91
      510
 93
      241
310
90C332F3822203D2031272D3022000000000000360FC000000000000284000
  0
ACAD_PROXY_OBJECT
  5
957C
102
{ACAD_REACTORS
330
9561
102
}
330
9561
100
AcDbZombieObject
 90
      499
 91
      510
 93
      241
310
90C312F3222203D2031272D3022000000000000380FC000000000000284000
  0
ACAD_PROXY_OBJECT
  5
957D
102
{ACAD_REACTORS
330
9561
102
}
330
9561
100
AcDbZombieObject
 90
      499
 91
      510
 93
      241
310
90C332F3422203D2031272D30220000000000003A0FC000000000000284000
  0
ACAD_PROXY_OBJECT
  5
957E
102
{ACAD_REACTORS
330
9561
102
}
330
9561
100
AcDbZombieObject
 90
      499
 91
      510
 93
      161
310
90A3122203D2031272D30224000000000000284000
  0
ACAD_PROXY_OBJECT
  5
957F
102
{ACAD_REACTORS
330
9561
102
}
330
9561
100
AcDbZombieObject
 90
      499
 91
      510
 93
      257
310
90E312D312F3222203D2031272D30220000000000003E0FC000000000000284000
  0
ACAD_PROXY_OBJECT
  5
9580
102
{ACAD_REACTORS
330
9561
102
}
330
9561
100
AcDbZombieObject
 90
      499
 91
      510
 93
      225
310
90A3322203D2031272D302200000000000002100000000000000284000
  0
ACAD_PROXY_OBJECT
  5
9581
102
{ACAD_REACTORS
330
9561
102
}
330
9561
100
AcDbZombieObject
 90
      499
 91
      510
 93
      225
310
90A3622203D2031272D302200000000000006100000000000000284000
  0
ACAD_PROXY_OBJECT
  5
9582
102
{ACAD_REACTORS
330
9561
102
}
330
9561
100
AcDbZombieObject
 90
      499
 91
      510
 93
      249
310
90D31272D3022203D2031272D30220000000000000A100000000000000284000
  0
ACAD_PROXY_OBJECT
  5
9556
102
{ACAD_REACTORS
330
9550
102
}
330
9550
100
AcDbZombieObject
 90
      499
 91
      509
 93
      436
310
42CC9915DA5C99599C985B595049028333333333333E3BF0000000000000FB0107901411070040501600405405064090741402480A0340
1001
ACAD
1000
AcDbSavedByObjectVersion
1070
     0
  0
ACAD_PROXY_OBJECT
  5
9558
102
{ACAD_REACTORS
330
9550
102
}
330
9550
100
AcDbZombieObject
 90
      499
 91
      509
 93
      500
310
424CD108121A5919195B90640502408333333333333E3BF0000000000000FB01079024090700405020000000000001110200405405064090740C02480A0340
1001
ACAD
1000
AcDbSavedByObjectVersion
1070
     0
  0
ACAD_PROXY_OBJECT
  5
9557
102
{ACAD_REACTORS
330
9550
102
}
330
9550
100
AcDbZombieObject
 90
      499
 91
      509
 93
      436
310
42CCD915DA5C99599C985B595059028333333333333E3BF0000000000000FB0107901411070040501600405405064090741402480A0340
1001
ACAD
1000
AcDbSavedByObjectVersion
1070
     0
  0
ACAD_PROXY_OBJECT
  5
9555
102
{ACAD_REACTORS
330
9550
102
}
330
9550
100
AcDbZombieObject
 90
      499
 91
      509
 93
      388
310
4150985CDA58D07406404333333333333E3BF0000000000000FB0107A41107004050150841D405064090741402480A0350
1001
ACAD
1000
AcDbSavedByObjectVersion
1070
     0
  0
ACAD_PROXY_OBJECT
  5
955C
102
{ACAD_REACTORS
330
9550
102
}
330
9550
100
AcDbZombieObject
 90
      499
 91
      509
 93
      428
310
42109C9A59DA1D195B90C409028333333333333E3BF0000000000000FB010790141107004050150841D405064090741402480A029950
1001
ACAD
1000
AcDbSavedByObjectVersion
1070
     0
  0
ACAD_PROXY_OBJECT
  5
9560
102
{ACAD_REACTORS
330
9550
102
}
330
9550
100
AcDbZombieObject
 90
      499
 91
      509
 93
      452
310
42D0DBDB1BDC90DA185B99D95104090240C333333333333E3BF0000000000000FB0108901411070040501508421405064090741402480A0350
1001
ACAD
1000
AcDbSavedByObjectVersion
1070
     0
  0
ACAD_PROXY_OBJECT
  5
9559
102
{ACAD_REACTORS
330
9550
102
}
330
9550
100
AcDbZombieObject
 90
      499
 91
      509
 93
      500
310
4290DBDB98D95C1D1D585B10940D028333333333333E3BF0000000000000FB0107902409070040501000000000000111010841D405064090740C02480A0340
1001
ACAD
1000
AcDbSavedByObjectVersion
1070
     0
  0
ACAD_PROXY_OBJECT
  5
955B
102
{ACAD_REACTORS
330
9550
102
}
330
9550
100
AcDbZombieObject
 90
      499
 91
      509
 93
      412
310
40D11A5B50B409028333333333333E3BF0000000000000FB010790141107004050150841D405064090741402480A02677FFFFFD0
1001
ACAD
1000
AcDbSavedByObjectVersion
1070
     0
  0
ACAD_PROXY_OBJECT
  5
A211
102
{ACAD_REACTORS
330
9550
102
}
330
9550
100
AcDbZombieObject
 90
      499
 91
      509
 93
      452
310
43115919D950DBDB1BDC93D999916409028333333333333E3BF0000000000000FB010790141107004050150841D405064090741402480A0350
1001
ACAD
1000
AcDbSavedByObjectVersion
1070
     0
  0
ACAD_PROXY_OBJECT
  5
955F
102
{ACAD_REACTORS
330
9550
102
}
330
9550
100
AcDbZombieObject
 90
      499
 91
      509
 93
      444
310
42D19858D95C185D1D195C9B90F409028333333333333E3BF0000000000000FB010790141107004050150841D405064090741402480A0350
1001
ACAD
1000
AcDbSavedByObjectVersion
1070
     0
  0
ACAD_PROXY_OBJECT
  5
9551
102
{ACAD_REACTORS
330
9550
102
}
330
9550
100
AcDbZombieObject
 90
      499
 91
      509
 93
      388
310
41119B185D240901404333333333333E3BF0000000000000F9010740A41107004050150841D405064090741402480A1B50
1001
ACAD
1000
AcDbSavedByObjectVersion
1070
     0
  0
ACAD_PROXY_OBJECT
  5
9552
102
{ACAD_REACTORS
330
9550
102
}
330
9550
100
AcDbZombieObject
 90
      499
 91
      509
 93
      476
310
43519B185D15DA5D1A115919D95CD0140901404333333333333E3BF0000000000000F9010740901411070040501600405405064090741402480A1B50
1001
ACAD
1000
AcDbSavedByObjectVersion
1070
     0
  0
ACAD_PROXY_OBJECT
  5
9553
102
{ACAD_REACTORS
330
9550
102
}
330
9550
100
AcDbZombieObject
 90
      499
 91
      509
 93
      412
310
41D1DBDD5C985D5910240902404333333333333E3BF0000000000000F9010740A411070040501641D405064090741402480A1B50
1001
ACAD
1000
AcDbSavedByObjectVersion
1070
     0
  0
ACAD_PROXY_OBJECT
  5
9554
102
{ACAD_REACTORS
330
9550
102
}
330
9550
100
AcDbZombieObject
 90
      499
 91
      509
 93
      500
310
4411DBDD5C985D5915DA5D1A115919D95CD0340902404333333333333E3BF0000000000000F9010740901411070040501600405405064090741402480A1B50
1001
ACAD
1000
AcDbSavedByObjectVersion
1070
     0
  0
ACAD_PROXY_OBJECT
  5
A260
102
{ACAD_REACTORS
330
9550
102
}
330
9550
100
AcDbZombieObject
 90
      499
 91
      509
 93
      476
310
41921A5919195B90640502408333333333333E3BF0000000000000FB01079024090700405020000000000001110200405405064090740C02480A0340
1001
ACAD
1000
AcDbSavedByObjectVersion
1070
     0
  0
ACAD_PROXY_OBJECT
  5
A20F
102
{ACAD_REACTORS
330
9550
102
}
330
9550
100
AcDbZombieObject
 90
      499
 91
      509
 93
      428
310
42529A5D1D195C93D999914409028333333333333E3BF0000000000000FB010790141107004050150A41D405064090741402480A0350
1001
ACAD
1000
AcDbSavedByObjectVersion
1070
     0
  0
ACAD_PROXY_OBJECT
  5
955E
102
{ACAD_REACTORS
330
9550
102
}
330
9550
100
AcDbZombieObject
 90
      499
 91
      509
 93
      444
310
42D31A5B995C185D1D195C9B90E409028333333333333E3BF0000000000000FB010790141107004050750841D405064090741402483A0350
1001
ACAD
1000
AcDbSavedByObjectVersion
1070
     0
  0
ACAD_PROXY_OBJECT
  5
A266
102
{ACAD_REACTORS
330
9550
102
}
330
9550
100
AcDbZombieObject
 90
      499
 91
      509
 93
      484
310
42135BD9195B1A5B99D0A409028333333333333E3BF0000000000000F901074090290700405010000000000201990108421405064090741402480A1B40
1001
ACAD
1000
AcDbSavedByObjectVersion
1070
     0
  0
ACAD_PROXY_OBJECT
  5
A210
102
{ACAD_REACTORS
330
9550
102
}
330
9550
100
AcDbZombieObject
 90
      499
 91
      509
 93
      444
310
42D3DD995C9A185B99D3D999915409028333333333333E3BF0000000000000FB010790141107004050150941D405064090741402480A0350
1001
ACAD
1000
AcDbSavedByObjectVersion
1070
     0
  0
ACAD_PROXY_OBJECT
  5
955A
102
{ACAD_REACTORS
330
9550
102
}
330
9550
100
AcDbZombieObject
 90
      499
 91
      509
 93
      420
310
425499585B1A5CDD1A58D08409028333333333333E3BF0000000000000FB01079019070040501508421405064090741402480A1B40
1001
ACAD
1000
AcDbSavedByObjectVersion
1070
     0
  0
ACAD_PROXY_OBJECT
  5
A265
102
{ACAD_REACTORS
330
9550
102
}
330
9550
100
AcDbZombieObject
 90
      499
 91
      509
 93
      420
310
4194DA1859195911B40902404333333333333E3BF0000000000000F9010740A41107004050150800405405064090840C02480A0B40
1001
ACAD
1000
AcDbSavedByObjectVersion
1070
     0
  0
ACAD_PROXY_OBJECT
  5
A264
102
{ACAD_REACTORS
330
9550
102
}
330
9550
100
AcDbZombieObject
 90
      499
 91
      509
 93
      516
310
4454DA18591959081DDA5D1A08195919D95CD1A40902404333333333333E3BF0000000000000F901074090142907004050250800405405064090740C02480A0B40
1001
ACAD
1000
AcDbSavedByObjectVersion
1070
     0
  0
ACAD_PROXY_OBJECT
  5
A261
102
{ACAD_REACTORS
330
9550
102
}
330
9550
100
AcDbZombieObject
 90
      499
 91
      509
 93
      532
310
4394DA1859195CC81BD98811DC985E5174090240C333333333333E3BF0000000000000FB01079024090741D01000000000000111010841D405064090740C02480A0340
1001
ACAD
1000
AcDbSavedByObjectVersion
1070
     0
  0
ACAD_PROXY_OBJECT
  5
A262
102
{ACAD_REACTORS
330
9550
102
}
330
9550
100
AcDbZombieObject
 90
      499
 91
      509
 93
      476
310
41D4DAD95D18DA1E51840502408333333333333E3BF0000000000000FB01079024090741D01000000000000111010B41D405064090741802480A0340
1001
ACAD
1000
AcDbSavedByObjectVersion
1070
     0
  0
ACAD_PROXY_OBJECT
  5
955D
102
{ACAD_REACTORS
330
9550
102
}
330
9550
100
AcDbZombieObject
 90
      499
 91
      509
 93
      412
310
41D51A1A58DAD95B90D409028333333333333E3BF0000000000000FB010790141107004050150C41D405064090741402480A0350
1001
ACAD
1000
AcDbSavedByObjectVersion
1070
     0
  0
ACAD_PROXY_OBJECT
  5
A25F
102
{ACAD_REACTORS
330
9550
102
}
330
9550
100
AcDbZombieObject
 90
      499
 91
      509
 93
      420
310
4255DA5C99599C985B595059028333333333333E3BF0000000000000FB0107901411070040501600405405064090740C02480A0340
1001
ACAD
1000
AcDbSavedByObjectVersion
1070
     0
  0
ACAD_PROXY_OBJECT
  5
A263
102
{ACAD_REACTORS
330
9550
102
}
330
9550
100
AcDbZombieObject
 90
      499
 91
      509
 93
      404
310
41560B54985E51940902404000000000000E03F0000000000000FB010740501907004050150841D405064090740C02480A1B40
1001
ACAD
1000
AcDbSavedByObjectVersion
1070
     0
  0
XRECORD
  5
E577
102
{ACAD_REACTORS
330
E576
102
}
330
E576
100
AcDbXrecord
340
18D
  0
XRECORD
  5
E578
102
{ACAD_REACTORS
330
E576
102
}
330
E576
100
AcDbXrecord
340
18C
  0
DICTIONARYVAR
  5
AAE0
102
{ACAD_REACTORS
330
37
102
}
330
37
100
DictionaryVariables
280
     0
  1
1:1
  0
DICTIONARYVAR
  5
9627
102
{ACAD_REACTORS
330
37
102
}
330
37
100
DictionaryVariables
280
     0
  1
Standard
  0
DICTIONARYVAR
  5
29E
102
{ACAD_REACTORS
330
37
102
}
330
37
100
DictionaryVariables
280
     0
  1
Standard
  0
DICTIONARYVAR
  5
38
102
{ACAD_REACTORS
330
37
102
}
330
37
100
DictionaryVariables
280
     0
  1
-1
  0
DICTIONARYVAR
  5
1CE
102
{ACAD_REACTORS
330
37
102
}
330
37
100
DictionaryVariables
280
     0
  1
2
  0
DICTIONARYVAR
  5
704E
102
{ACAD_REACTORS
330
37
102
}
330
37
100
DictionaryVariables
280
     0
  1
1
  0
DICTIONARYVAR
  5
962A
102
{ACAD_REACTORS
330
37
102
}
330
37
100
DictionaryVariables
280
     0
  1
0
  0
DICTIONARYVAR
  5
7052
102
{ACAD_REACTORS
330
37
102
}
330
37
100
DictionaryVariables
280
     0
  1
8
  0
DICTIONARYVAR
  5
7051
102
{ACAD_REACTORS
330
37
102
}
330
37
100
DictionaryVariables
280
     0
  1
1
  0
DICTIONARYVAR
  5
AB30
102
{ACAD_REACTORS
330
37
102
}
330
37
100
DictionaryVariables
280
     0
  1
0
  0
DICTIONARYVAR
  5
704F
102
{ACAD_REACTORS
330
37
102
}
330
37
100
DictionaryVariables
280
     0
  1
8
  0
DICTIONARYVAR
  5
7050
102
{ACAD_REACTORS
330
37
102
}
330
37
100
DictionaryVariables
280
     0
  1
2
  0
DICTIONARYVAR
  5
1CF
102
{ACAD_REACTORS
330
37
102
}
330
37
100
DictionaryVariables
280
     0
  1

  0
DICTIONARYVAR
  5
9629
102
{ACAD_REACTORS
330
37
102
}
330
37
100
DictionaryVariables
280
     0
  1
127
  0
DICTIONARYVAR
  5
E42F
102
{ACAD_REACTORS
330
37
102
}
330
37
100
DictionaryVariables
280
     0
  1
2
  0
DICTIONARY
  5
E714
330
9540
100
AcDbDictionary
  3
ACAD_XREC_ROUNDTRIP
360
E715
1001
ACAD
1000
TREAT_AS_HARD
1070
     1
  0
DICTIONARY
  5
E716
330
9538
100
AcDbDictionary
  3
ACAD_XREC_ROUNDTRIP
360
E717
1001
ACAD
1000
TREAT_AS_HARD
1070
     1
  0
DICTIONARY
  5
E718
330
9548
100
AcDbDictionary
  3
ACAD_XREC_ROUNDTRIP
360
E719
1001
ACAD
1000
TREAT_AS_HARD
1070
     1
  0
XRECORD
  5
E715
102
{ACAD_REACTORS
330
E714
102
}
330
E714
100
AcDbXrecord
102
MATERIAL
148
0.0
149
0.0
149
0.0
 93
        0
 94
      127
282
     0
 72
     0
 77
     0
171
     0
175
     0
179
     0
273
     0
  0
XRECORD
  5
E717
102
{ACAD_REACTORS
330
E716
102
}
330
E716
100
AcDbXrecord
102
MATERIAL
148
0.0
149
0.0
149
0.0
 93
        0
 94
      127
282
     0
 72
     0
 77
     0
171
     0
175
     0
179
     0
273
     0
  0
XRECORD
  5
E719
102
{ACAD_REACTORS
330
E718
102
}
330
E718
100
AcDbXrecord
102
MATERIAL
148
0.0
149
0.0
149
0.0
 93
        0
 94
      127
282
     0
 72
     0
 77
     0
171
     0
175
     0
179
     0
273
     0
  0
ENDSEC
  0
EOF
