  0
SECTION
  2
HEADER
  9
$ACADVER
  1
AC1012
  9
$DWGCODEPAGE
  3
ansi_932
  9
$INSBASE
 10
0.0
 20
0.0
 30
0.0
  9
$EXTMIN
 10
5183.39996204397
 20
-417.6503618121524
 30
0.0000000001127424
  9
$EXTMAX
 10
5493.328244443409
 20
-177.6516801252551
 30
0.0000000002254849
  9
$LIMMIN
 10
0.0
 20
0.0
  9
$LIMMAX
 10
420.0
 20
297.0
  9
$ORTHOMODE
 70
     0
  9
$REGENMODE
 70
     1
  9
$FILLMODE
 70
     1
  9
$QTEXTMODE
 70
     0
  9
$MIRRTEXT
 70
     0
  9
$DRAGMODE
 70
     2
  9
$LTSCALE
 40
0.5
  9
$OSMODE
 70
 14463
  9
$ATTMODE
 70
     1
  9
$TEXTSIZE
 40
4.0
  9
$TRACEWID
 40
1.0
  9
$TEXTSTYLE
  7
STANDARD
  9
$CLAYER
  8
1TEXT
  9
$CELTYPE
  6
BYLAYER
  9
$CECOLOR
 62
   256
  9
$CELTSCALE
 40
1.0
  9
$DELOBJ
 70
     1
  9
$DISPSILH
 70
     0
  9
$DIMSCALE
 40
1.0
  9
$DIMASZ
 40
2.0
  9
$DIMEXO
 40
0.0
  9
$DIMDLI
 40
7.0
  9
$DIMRND
 40
0.0
  9
$DIMDLE
 40
0.0
  9
$DIMEXE
 40
1.0
  9
$DIMTP
 40
0.0
  9
$DIMTM
 40
0.0
  9
$DIMTXT
 40
3.5
  9
$DIMCEN
 40
0.0
  9
$DIMTSZ
 40
0.0
  9
$DIMTOL
 70
     0
  9
$DIMLIM
 70
     0
  9
$DIMTIH
 70
     0
  9
$DIMTOH
 70
     0
  9
$DIMSE1
 70
     0
  9
$DIMSE2
 70
     0
  9
$DIMTAD
 70
     1
  9
$DIMZIN
 70
     8
  9
$DIMBLK
  1

  9
$DIMASO
 70
     1
  9
$DIMSHO
 70
     1
  9
$DIMPOST
  1
 
  9
$DIMAPOST
  1

  9
$DIMALT
 70
     0
  9
$DIMALTD
 70
     2
  9
$DIMALTF
 40
25.4
  9
$DIMLFAC
 40
1.0
  9
$DIMTOFL
 70
     1
  9
$DIMTVP
 40
0.0
  9
$DIMTIX
 70
     0
  9
$DIMSOXD
 70
     0
  9
$DIMSAH
 70
     1
  9
$DIMBLK1
  1
OPEN30
  9
$DIMBLK2
  1
OPEN30
  9
$DIMSTYLE
  2
NEWX10
  9
$DIMCLRD
 70
   256
  9
$DIMCLRE
 70
   256
  9
$DIMCLRT
 70
   201
  9
$DIMTFAC
 40
0.7
  9
$DIMGAP
 40
0.7
  9
$DIMJUST
 70
     0
  9
$DIMSD1
 70
     0
  9
$DIMSD2
 70
     0
  9
$DIMTOLJ
 70
     1
  9
$DIMTZIN
 70
     8
  9
$DIMALTZ
 70
     0
  9
$DIMALTTZ
 70
     0
  9
$DIMFIT
 70
     2
  9
$DIMUPT
 70
     0
  9
$DIMUNIT
 70
     2
  9
$DIMDEC
 70
     2
  9
$DIMTDEC
 70
     4
  9
$DIMALTU
 70
     2
  9
$DIMALTTD
 70
     2
  9
$DIMTXSTY
  7
STANDARD
  9
$DIMAUNIT
 70
     0
  9
$LUNITS
 70
     2
  9
$LUPREC
 70
     4
  9
$SKETCHINC
 40
1.0
  9
$FILLETRAD
 40
0.0
  9
$AUNITS
 70
     0
  9
$AUPREC
 70
     2
  9
$MENU
  1
acad
  9
$ELEVATION
 40
0.0
  9
$PELEVATION
 40
0.0
  9
$THICKNESS
 40
0.0
  9
$LIMCHECK
 70
     0
  9
$CHAMFERA
 40
10.0
  9
$CHAMFERB
 40
10.0
  9
$CHAMFERC
 40
20.0
  9
$CHAMFERD
 40
0.0
  9
$SKPOLY
 70
     0
  9
$TDCREATE
 40
2451318.621352917
  9
$TDUPDATE
 40
2458165.373764896
  9
$TDINDWG
 40
1.5011326968
  9
$TDUSRTIMER
 40
1.5011326968
  9
$USRTIMER
 70
     1
  9
$ANGBASE
 50
0.0
  9
$ANGDIR
 70
     0
  9
$PDMODE
 70
     0
  9
$PDSIZE
 40
0.0
  9
$PLINEWID
 40
0.0
  9
$COORDS
 70
     2
  9
$SPLFRAME
 70
     0
  9
$SPLINETYPE
 70
     6
  9
$SPLINESEGS
 70
     8
  9
$ATTDIA
 70
     0
  9
$ATTREQ
 70
     1
  9
$HANDLING
 70
     1
  9
$HANDSEED
  5
B812
  9
$SURFTAB1
 70
     6
  9
$SURFTAB2
 70
     6
  9
$SURFTYPE
 70
     6
  9
$SURFU
 70
     6
  9
$SURFV
 70
     6
  9
$UCSNAME
  2

  9
$UCSORG
 10
0.0
 20
0.0
 30
0.0
  9
$UCSXDIR
 10
1.0
 20
0.0
 30
0.0
  9
$UCSYDIR
 10
0.0
 20
1.0
 30
0.0
  9
$PUCSNAME
  2

  9
$PUCSORG
 10
0.0
 20
0.0
 30
0.0
  9
$PUCSXDIR
 10
1.0
 20
0.0
 30
0.0
  9
$PUCSYDIR
 10
0.0
 20
1.0
 30
0.0
  9
$USERI1
 70
     0
  9
$USERI2
 70
     0
  9
$USERI3
 70
     0
  9
$USERI4
 70
     0
  9
$USERI5
 70
     0
  9
$USERR1
 40
0.0
  9
$USERR2
 40
0.0
  9
$USERR3
 40
0.0
  9
$USERR4
 40
0.0
  9
$USERR5
 40
0.0
  9
$WORLDVIEW
 70
     1
  9
$SHADEDGE
 70
     3
  9
$SHADEDIF
 70
    70
  9
$TILEMODE
 70
     1
  9
$MAXACTVP
 70
    48
  9
$PINSBASE
 10
0.0
 20
0.0
 30
0.0
  9
$PLIMCHECK
 70
     0
  9
$PEXTMIN
 10
1.000000000000000E+20
 20
1.000000000000000E+20
 30
1.000000000000000E+20
  9
$PEXTMAX
 10
-1.000000000000000E+20
 20
-1.000000000000000E+20
 30
-1.000000000000000E+20
  9
$PLIMMIN
 10
0.0
 20
0.0
  9
$PLIMMAX
 10
420.0
 20
297.0
  9
$UNITMODE
 70
     0
  9
$VISRETAIN
 70
     1
  9
$PLINEGEN
 70
     0
  9
$PSLTSCALE
 70
     1
  9
$TREEDEPTH
 70
  3020
  9
$PICKSTYLE
 70
     1
  9
$CMLSTYLE
  2
STANDARD
  9
$CMLJUST
 70
     0
  9
$CMLSCALE
 40
20.0
  9
$SAVEIMAGES
 70
     1
  0
ENDSEC
  0
SECTION
  2
CLASSES
  0
CLASS
  1
DICTIONARYVAR
  2
AcDbDictionaryVar
  3
ObjectDBX Classes
 90
        0
280
     0
281
     0
  0
CLASS
  1
IDBUFFER
  2
AcDbIdBuffer
  3
ObjectDBX Classes
 90
    32768
280
     0
281
     0
  0
CLASS
  1
LWPOLYLINE
  2
AcDbPolyline
  3
ObjectDBX Classes
 90
    32768
280
     0
281
     1
  0
CLASS
  1
ACDBDICTIONARYWDFLT
  2
AcDbDictionaryWithDefault
  3
ObjectDBX Classes
 90
    32768
280
     0
281
     0
  0
CLASS
  1
ACDBPLACEHOLDER
  2
AcDbPlaceHolder
  3
ObjectDBX Classes
 90
        0
280
     0
281
     0
  0
CLASS
  1
LAYOUT
  2
AcDbLayout
  3
ObjectDBX Classes
 90
        0
280
     0
281
     0
  0
CLASS
  1
TABLESTYLE
  2
AcDbTableStyle
  3
ObjectDBX Classes
 90
     4095
280
     0
281
     0
  0
CLASS
  1
SORTENTSTABLE
  2
AcDbSortentsTable
  3
ObjectDBX Classes
 90
    32768
280
     0
281
     0
  0
CLASS
  1
MATERIAL
  2
AcDbMaterial
  3
ObjectDBX Classes
 90
     1153
280
     0
281
     0
  0
CLASS
  1
VISUALSTYLE
  2
AcDbVisualStyle
  3
ObjectDBX Classes
 90
     4095
280
     0
281
     0
  0
CLASS
  1
SCALE
  2
AcDbScale
  3
ObjectDBX Classes
 90
     1153
280
     0
281
     0
  0
CLASS
  1
MLEADERSTYLE
  2
AcDbMLeaderStyle
  3
ACDB_MLEADERSTYLE_CLASS
 90
     4095
280
     0
281
     0
  0
CLASS
  1
CELLSTYLEMAP
  2
AcDbCellStyleMap
  3
ObjectDBX Classes
 90
     1152
280
     0
281
     0
  0
CLASS
  1
SUN
  2
AcDbSun
  3
SCENEOE
 90
     1153
280
     0
281
     0
  0
CLASS
  1
XRECORD
  2
AcDbXrecord
  3
ObjectDBX Classes
 90
    32768
280
     0
281
     0
  0
CLASS
  1
HATCH
  2
AcDbHatch
  3
ObjectDBX Classes
 90
    32768
280
     0
281
     1
  0
ENDSEC
  0
SECTION
  2
TABLES
  0
TABLE
  2
VPORT
  5
8
330
0
100
AcDbSymbolTable
 70
     1
  0
VPORT
  5
952D
330
8
100
AcDbSymbolTableRecord
100
AcDbViewportTableRecord
  2
*ACTIVE
 70
     0
 10
0.0
 20
0.0
 11
1.0
 21
1.0
 12
5338.36410324369
 22
-297.6510209687037
 13
0.0
 23
0.0
 14
10.0
 24
10.0
 15
10.0
 25
10.0
 16
0.0
 26
0.0
 36
1.0
 17
0.0
 27
0.0
 37
0.0
 40
257.6827950743529
 41
1.871481028151775
 42
50.0
 43
0.0
 44
0.0
 50
0.0
 51
0.0
 71
    16
 72
   100
 73
     1
 74
     1
 75
     0
 76
     0
 77
     0
 78
     0
1001
ACAD_NAV_VCDISPLAY
1070
     3
  0
ENDTAB
  0
TABLE
  2
LTYPE
  5
5
330
0
100
AcDbSymbolTable
 70
     2
  0
LTYPE
  5
12
330
5
100
AcDbSymbolTableRecord
100
AcDbLinetypeTableRecord
  2
BYBLOCK
 70
     0
  3

 72
    65
 73
     0
 40
0.0
  0
LTYPE
  5
13
330
5
100
AcDbSymbolTableRecord
100
AcDbLinetypeTableRecord
  2
BYLAYER
 70
     0
  3

 72
    65
 73
     0
 40
0.0
  0
LTYPE
  5
14
330
5
100
AcDbSymbolTableRecord
100
AcDbLinetypeTableRecord
  2
CONTINUOUS
 70
     0
  3
Solid line
 72
    65
 73
     0
 40
0.0
  0
LTYPE
  5
9837
330
5
100
AcDbSymbolTableRecord
100
AcDbLinetypeTableRecord
  2
CENTER2
 70
     0
  3
Center (.5x) ___ _ ___ _ ___ _ ___ _ ___ _ ___
 72
    65
 73
     4
 40
28.575
 49
19.05
 74
     0
 49
-3.175
 74
     0
 49
3.175
 74
     0
 49
-3.175
 74
     0
  0
ENDTAB
  0
TABLE
  2
LAYER
  5
2
102
{ACAD_XDICTIONARY
360
96D9
102
}
330
0
100
AcDbSymbolTable
 70
     5
  0
LAYER
  5
E
102
{ACAD_XDICTIONARY
360
9593
102
}
330
2
100
AcDbSymbolTableRecord
100
AcDbLayerTableRecord
  2
0
 70
     0
 62
     7
  6
CONTINUOUS
  0
LAYER
  5
29
102
{ACAD_XDICTIONARY
360
9595
102
}
330
2
100
AcDbSymbolTableRecord
100
AcDbLayerTableRecord
  2
1CENTER
 70
     0
 62
     7
  6
CENTER2
  0
LAYER
  5
31
102
{ACAD_XDICTIONARY
360
9597
102
}
330
2
100
AcDbSymbolTableRecord
100
AcDbLayerTableRecord
  2
1TEXT
 70
     0
 62
     7
  6
CONTINUOUS
  0
LAYER
  5
243
102
{ACAD_XDICTIONARY
360
959D
102
}
330
2
100
AcDbSymbolTableRecord
100
AcDbLayerTableRecord
  2
01
 70
     0
 62
     1
  6
CONTINUOUS
  0
LAYER
  5
24E
102
{ACAD_XDICTIONARY
360
95A3
102
}
330
2
100
AcDbSymbolTableRecord
100
AcDbLayerTableRecord
  2
1DIM
 70
     0
 62
     7
  6
CONTINUOUS
  0
ENDTAB
  0
TABLE
  2
STYLE
  5
3
330
0
100
AcDbSymbolTable
 70
     1
  0
STYLE
  5
F
330
3
100
AcDbSymbolTableRecord
100
AcDbTextStyleTableRecord
  2
STANDARD
 70
     0
 40
0.0
 41
1.0
 50
0.0
 71
     0
 42
4.0
  3
txt.shx
  4
extfont.shx
  0
ENDTAB
  0
TABLE
  2
VIEW
  5
6
330
0
100
AcDbSymbolTable
 70
     0
  0
ENDTAB
  0
TABLE
  2
UCS
  5
7
330
0
100
AcDbSymbolTable
 70
     0
  0
ENDTAB
  0
TABLE
  2
APPID
  5
9
330
0
100
AcDbSymbolTable
 70
    16
  0
APPID
  5
10
330
9
100
AcDbSymbolTableRecord
100
AcDbRegAppTableRecord
  2
ACAD
 70
     0
  0
APPID
  5
21
330
9
100
AcDbSymbolTableRecord
100
AcDbRegAppTableRecord
  2
DRAWINGVARIABLESXDATA
 70
     0
  0
APPID
  5
64
330
9
100
AcDbSymbolTableRecord
100
AcDbRegAppTableRecord
  2
CONTENTTABDATA
 70
     0
  0
APPID
  5
65
330
9
100
AcDbSymbolTableRecord
100
AcDbRegAppTableRecord
  2
CONTENTCURRENTTAB
 70
     0
  0
APPID
  5
66
330
9
100
AcDbSymbolTableRecord
100
AcDbRegAppTableRecord
  2
CONTENTBLOCKDESCRIPTION
 70
     0
  0
APPID
  5
67
330
9
100
AcDbSymbolTableRecord
100
AcDbRegAppTableRecord
  2
CONTENTBLOCKICON
 70
     0
  0
APPID
  5
68
330
9
100
AcDbSymbolTableRecord
100
AcDbRegAppTableRecord
  2
CONTENTLONGBLOCKNAME
 70
     0
  0
APPID
  5
2AE
330
9
100
AcDbSymbolTableRecord
100
AcDbRegAppTableRecord
  2
ACAD_PSEXT
 70
     0
  0
APPID
  5
9585
330
9
100
AcDbSymbolTableRecord
100
AcDbRegAppTableRecord
  2
ACAD_MLEADERVER
 70
     0
  0
APPID
  5
A2E3
330
9
100
AcDbSymbolTableRecord
100
AcDbRegAppTableRecord
  2
ACADANNOTATIVE
 70
     0
  0
APPID
  5
A2E4
330
9
100
AcDbSymbolTableRecord
100
AcDbRegAppTableRecord
  2
ACDBBLOCKREPETAG
 70
     0
  0
APPID
  5
AEB1
330
9
100
AcDbSymbolTableRecord
100
AcDbRegAppTableRecord
  2
ACAD_NAV_VCDISPLAY
 70
     0
  0
APPID
  5
AEFE
330
9
100
AcDbSymbolTableRecord
100
AcDbRegAppTableRecord
  2
ACAECLAYERSTANDARD
 70
     0
  0
APPID
  5
B052
330
9
100
AcDbSymbolTableRecord
100
AcDbRegAppTableRecord
  2
ACAD_DSTYLE_DIMJAG
 70
     0
  0
APPID
  5
B053
330
9
100
AcDbSymbolTableRecord
100
AcDbRegAppTableRecord
  2
ACAD_DSTYLE_DIMTALN
 70
     0
  0
APPID
  5
B1D6
330
9
100
AcDbSymbolTableRecord
100
AcDbRegAppTableRecord
  2
ACAD_EXEMPT_FROM_CAD_STAND
 70
     0
  0
ENDTAB
  0
TABLE
  2
DIMSTYLE
  5
A
330
0
100
AcDbSymbolTable
 70
     1
  0
DIMSTYLE
105
48
330
A
100
AcDbSymbolTableRecord
100
AcDbDimStyleTableRecord
  2
NEWX10
 70
     0
  3
 
  4

  5

  6
OPEN30
  7
OPEN30
 40
1.0
 41
2.0
 42
0.0
 43
7.0
 44
1.0
 45
0.0
 46
0.0
 47
0.0
 48
0.0
140
3.5
141
0.0
142
0.0
143
25.4
144
1.0
145
0.0
146
0.7
147
0.7
 71
     0
 72
     0
 73
     0
 74
     0
 75
     0
 76
     0
 77
     1
 78
     8
170
     0
171
     2
172
     1
173
     1
174
     0
175
     0
176
   256
177
   256
178
   201
179
     2
270
     2
271
     2
272
     4
273
     2
274
     2
340
F
275
     0
280
     0
281
     0
282
     0
283
     1
284
     8
285
     0
286
     0
287
     2
288
     0
  0
ENDTAB
  0
TABLE
  2
BLOCK_RECORD
  5
1
330
0
100
AcDbSymbolTable
 70
     8
  0
BLOCK_RECORD
  5
18
102
{ACAD_XDICTIONARY
360
88F
102
}
330
1
100
AcDbSymbolTableRecord
100
AcDbBlockTableRecord
  2
*MODEL_SPACE
  0
BLOCK_RECORD
  5
15
330
1
100
AcDbSymbolTableRecord
100
AcDbBlockTableRecord
  2
*PAPER_SPACE
  0
BLOCK_RECORD
  5
42
330
1
100
AcDbSymbolTableRecord
100
AcDbBlockTableRecord
  2
_OPEN30
  0
BLOCK_RECORD
  5
A333
330
1
100
AcDbSymbolTableRecord
100
AcDbBlockTableRecord
  2
A3WAKUKAWAJUN2017_HYOUDAI_
  0
BLOCK_RECORD
  5
B672
330
1
100
AcDbSymbolTableRecord
100
AcDbBlockTableRecord
  2
*X24
  0
BLOCK_RECORD
  5
B6C0
330
1
100
AcDbSymbolTableRecord
100
AcDbBlockTableRecord
  2
*X25
  0
BLOCK_RECORD
  5
B712
330
1
100
AcDbSymbolTableRecord
100
AcDbBlockTableRecord
  2
*X26
  0
BLOCK_RECORD
  5
B763
330
1
100
AcDbSymbolTableRecord
100
AcDbBlockTableRecord
  2
*X27
  0
BLOCK_RECORD
  5
B7A0
330
1
100
AcDbSymbolTableRecord
100
AcDbBlockTableRecord
  2
*X28
  0
BLOCK_RECORD
  5
B7E0
330
1
100
AcDbSymbolTableRecord
100
AcDbBlockTableRecord
  2
*X29
  0
ENDTAB
  0
ENDSEC
  0
SECTION
  2
BLOCKS
  0
BLOCK
  5
19
330
18
100
AcDbEntity
  8
0
100
AcDbBlockBegin
  2
*MODEL_SPACE
 70
     0
 10
0.0
 20
0.0
 30
0.0
  3
*MODEL_SPACE
  1

  0
ENDBLK
  5
1A
330
18
100
AcDbEntity
  8
0
100
AcDbBlockEnd
  0
BLOCK
  5
16
330
15
100
AcDbEntity
 67
     1
  8
0
100
AcDbBlockBegin
  2
*PAPER_SPACE
 70
     0
 10
0.0
 20
0.0
 30
0.0
  3
*PAPER_SPACE
  1

  0
ENDBLK
  5
17
330
15
100
AcDbEntity
 67
     1
  8
0
100
AcDbBlockEnd
  0
BLOCK
  5
43
330
42
100
AcDbEntity
  8
0
100
AcDbBlockBegin
  2
_OPEN30
 70
     0
 10
0.0
 20
0.0
 30
0.0
  3
_OPEN30
  1

  0
LINE
  5
44
330
42
100
AcDbEntity
  8
0
  6
BYBLOCK
 62
     0
100
AcDbLine
 10
-1.0
 20
0.26794919
 30
0.0
 11
0.0
 21
0.0
 31
0.0
  0
LINE
  5
45
330
42
100
AcDbEntity
  8
0
  6
BYBLOCK
 62
     0
100
AcDbLine
 10
0.0
 20
0.0
 30
0.0
 11
-1.0
 21
-0.26794919
 31
0.0
  0
LINE
  5
46
330
42
100
AcDbEntity
  8
0
  6
BYBLOCK
 62
     0
100
AcDbLine
 10
0.0
 20
0.0
 30
0.0
 11
-1.0
 21
0.0
 31
0.0
  0
ENDBLK
  5
47
330
42
100
AcDbEntity
  8
0
100
AcDbBlockEnd
  0
BLOCK
  5
AA56
330
A333
100
AcDbEntity
  8
0
100
AcDbBlockBegin
  2
A3WAKUKAWAJUN2017_HYOUDAI_
 70
     0
 10
0.0
 20
0.0
 30
0.0
  3
A3WAKUKAWAJUN2017_HYOUDAI_
  1

  0
LINE
  5
A335
330
A333
100
AcDbEntity
  8
0
100
AcDbLine
 10
13.26299999998673
 20
-0.0001000000000317
 30
0.0
 11
9.236999999990758
 21
8.999899999990987
 31
0.0
1001
ACAD
1000
ASC_BOUNDS
1002
{
1070
    19
1005
A376
1002
}
  0
LINE
  5
A336
330
A333
100
AcDbEntity
  8
0
100
AcDbLine
 10
5.657999999994331
 20
0.9999999999989768
 30
0.0
 11
9.236999999990758
 21
8.999999999991019
 31
0.0
1001
ACAD
1000
ASC_BOUNDS
1002
{
1070
    19
1005
A376
1002
}
  0
LINE
  5
A337
330
A333
100
AcDbEntity
  8
0
100
AcDbLine
 10
18.59199999998134
 20
-0.2368999999997641
 30
0.0
 11
16.46099999998353
 21
5.432899999994561
 31
0.0
1001
ACAD
1000
ASC_BOUNDS
1002
{
1070
    19
1005
A377
1002
}
  0
LINE
  5
A338
330
A333
100
AcDbEntity
  8
0
100
AcDbLine
 10
18.59199999998134
 20
-0.2368999999997641
 30
0.0
 11
22.38199999997767
 21
8.763099999991255
 31
0.0
1001
ACAD
1000
ASC_BOUNDS
1002
{
1070
    19
1005
A377
1002
}
  0
LINE
  5
A339
330
A333
100
AcDbEntity
  8
0
100
AcDbLine
 10
14.32899999998563
 20
-0.2368999999997641
 30
0.0
 11
16.46099999998353
 21
5.432899999994561
 31
0.0
1001
ACAD
1000
ASC_BOUNDS
1002
{
1070
    19
1005
A377
1002
}
  0
LINE
  5
A33A
330
A333
100
AcDbEntity
  8
0
100
AcDbLine
 10
14.32899999998563
 20
-0.2368999999997641
 30
0.0
 11
10.53899999998941
 21
8.763099999991255
 31
0.0
1001
ACAD
1000
ASC_BOUNDS
1002
{
1070
    19
1005
A377
1002
}
  0
LINE
  5
A33B
330
A333
100
AcDbEntity
  8
0
100
AcDbLine
 10
19.53899999998043
 20
-0.0001000000000317
 30
0.0
 11
23.56599999997638
 21
8.999899999990987
 31
0.0
1001
ACAD
1000
ASC_BOUNDS
1002
{
1070
    19
1005
A378
1002
}
  0
LINE
  5
A33C
330
A333
100
AcDbEntity
  8
0
100
AcDbLine
 10
26.97358892824991
 20
1.383099999991202
 30
0.0
 11
23.56599999997638
 21
8.999899999990987
 31
0.0
1001
ACAD
1000
ASC_BOUNDS
1002
{
1070
    19
1005
A378
1002
}
  0
LINE
  5
A33D
330
A333
100
AcDbEntity
  8
0
100
AcDbLine
 10
5.657999999994331
 20
0.9999999999989768
 30
0.0
 11
3.181999999996833
 21
4.668599999995308
 31
0.0
1001
ACAD
1000
ASC_BOUNDS
1002
{
1070
    19
1005
A376
1002
}
  0
LINE
  5
A33E
330
A333
100
AcDbEntity
  8
0
100
AcDbLine
 10
4.617999999995391
 20
-0.0001000000000317
 30
0.0
 11
1.420999999998571
 21
4.736799999995242
 31
0.0
1001
ACAD
1000
ASC_BOUNDS
1002
{
1070
    19
1005
A376
1002
}
  0
LINE
  5
A33F
330
A333
100
AcDbEntity
  8
0
100
AcDbLine
 10
1.420999999998571
 20
8.763099999991255
 30
0.0
 11
1.420999999998571
 21
0.0
 31
0.0
1001
ACAD
1000
ASC_BOUNDS
1002
{
1070
    19
1005
A37B
1002
}
  0
LINE
  5
A340
330
A333
100
AcDbEntity
  8
0
100
AcDbLine
 10
0.0
 20
8.763099999991255
 30
0.0
 11
0.0
 21
0.0
 31
0.0
1001
ACAD
1000
ASC_BOUNDS
1002
{
1070
    19
1005
A37B
1002
}
  0
LINE
  5
A341
330
A333
100
AcDbEntity
  8
0
100
AcDbLine
 10
6.766999999993232
 20
-0.0001000000000317
 30
0.0
 11
7.826999999992154
 21
2.368399999997621
 31
0.0
1001
ACAD
1000
ASC_BOUNDS
1002
{
1070
    19
1005
A376
1002
}
  0
LINE
  5
A342
330
A333
100
AcDbEntity
  8
0
100
AcDbLine
 10
0.0
 20
0.0
 30
0.0
 11
1.420999999998571
 21
0.0
 31
0.0
1001
ACAD
1000
ASC_BOUNDS
1002
{
1070
    19
1005
A37B
1002
}
  0
LINE
  5
A343
330
A333
100
AcDbEntity
  8
0
100
AcDbLine
 10
4.617999999995391
 20
0.0
 30
0.0
 11
6.766999999993232
 21
0.0
 31
0.0
1001
ACAD
1000
ASC_BOUNDS
1002
{
1070
    19
1005
A376
1002
}
  0
LINE
  5
A344
330
A333
100
AcDbEntity
  8
0
100
AcDbLine
 10
11.70599999998831
 20
-0.0001000000000317
 30
0.0
 11
10.64699999998936
 21
2.368399999997621
 31
0.0
1001
ACAD
1000
ASC_BOUNDS
1002
{
1070
    19
1005
A376
1002
}
  0
LINE
  5
A345
330
A333
100
AcDbEntity
  8
0
100
AcDbLine
 10
7.826999999992154
 20
2.368399999997621
 30
0.0
 11
10.64699999998936
 21
2.368399999997621
 31
0.0
1001
ACAD
1000
ASC_BOUNDS
1002
{
1070
    19
1005
A376
1002
}
  0
LINE
  5
A346
330
A333
100
AcDbEntity
  8
0
100
AcDbLine
 10
11.70599999998831
 20
0.0
 30
0.0
 11
13.26299999998673
 21
0.0
 31
0.0
1001
ACAD
1000
ASC_BOUNDS
1002
{
1070
    19
1005
A376
1002
}
  0
LINE
  5
A347
330
A333
100
AcDbEntity
  8
0
100
AcDbLine
 10
22.15599999997789
 20
2.368399999997621
 30
0.0
 11
24.97599999997499
 21
2.368399999997621
 31
0.0
1001
ACAD
1000
ASC_BOUNDS
1002
{
1070
    19
1005
A378
1002
}
  0
LINE
  5
A348
330
A333
100
AcDbEntity
  8
0
100
AcDbLine
 10
19.53899999998043
 20
0.0
 30
0.0
 11
21.09599999997886
 21
0.0
 31
0.0
1001
ACAD
1000
ASC_BOUNDS
1002
{
1070
    19
1005
A378
1002
}
  0
LINE
  5
A349
330
A333
100
AcDbEntity
  8
0
100
AcDbLine
 10
21.09599999997886
 20
-0.0001000000000317
 30
0.0
 11
22.15599999997789
 21
2.368399999997621
 31
0.0
1001
ACAD
1000
ASC_BOUNDS
1002
{
1070
    19
1005
A378
1002
}
  0
LINE
  5
A34A
330
A333
100
AcDbEntity
  8
0
100
AcDbLine
 10
26.02015566812236
 20
0.0330999999912365
 30
0.0
 11
24.97599999997499
 21
2.368399999997621
 31
0.0
1001
ACAD
1000
ASC_BOUNDS
1002
{
1070
    19
1005
A378
1002
}
  0
LINE
  5
A34B
330
A333
100
AcDbEntity
  8
0
100
AcDbLine
 10
14.32399999998563
 20
3.315799999996671
 30
0.0
 11
16.46099999998353
 21
8.999899999990987
 31
0.0
1001
ACAD
1000
ASC_BOUNDS
1002
{
1070
    19
1005
A377
1002
}
  0
LINE
  5
A34C
330
A333
100
AcDbEntity
  8
0
100
AcDbLine
 10
6.432999999993513
 20
8.763099999991255
 30
0.0
 11
3.181999999996833
 21
4.668599999995308
 31
0.0
1001
ACAD
1000
ASC_BOUNDS
1002
{
1070
    19
1005
A376
1002
}
  0
LINE
  5
A34D
330
A333
100
AcDbEntity
  8
0
100
AcDbLine
 10
4.617999999995391
 20
8.763099999991255
 30
0.0
 11
1.420999999998571
 21
4.736799999995242
 31
0.0
1001
ACAD
1000
ASC_BOUNDS
1002
{
1070
    19
1005
A376
1002
}
  0
LINE
  5
A34E
330
A333
100
AcDbEntity
  8
0
100
AcDbLine
 10
0.0
 20
8.763099999991255
 30
0.0
 11
1.420999999998571
 21
8.763099999991255
 31
0.0
1001
ACAD
1000
ASC_BOUNDS
1002
{
1070
    19
1005
A37B
1002
}
  0
LINE
  5
A34F
330
A333
100
AcDbEntity
  8
0
100
AcDbLine
 10
4.617999999995391
 20
8.763099999991255
 30
0.0
 11
6.432999999993513
 21
8.763099999991255
 31
0.0
1001
ACAD
1000
ASC_BOUNDS
1002
{
1070
    19
1005
A376
1002
}
  0
LINE
  5
A350
330
A333
100
AcDbEntity
  8
0
100
AcDbLine
 10
14.32399999998563
 20
3.315799999996671
 30
0.0
 11
12.02999999998792
 21
8.763099999991255
 31
0.0
1001
ACAD
1000
ASC_BOUNDS
1002
{
1070
    19
1005
A377
1002
}
  0
LINE
  5
A351
330
A333
100
AcDbEntity
  8
0
100
AcDbLine
 10
10.06399999998996
 20
3.670999999996297
 30
0.0
 11
9.236999999990758
 21
5.5200999999945
 31
0.0
1001
ACAD
1000
ASC_BOUNDS
1002
{
1070
    19
1005
A376
1002
}
  0
LINE
  5
A352
330
A333
100
AcDbEntity
  8
0
100
AcDbLine
 10
8.409999999991555
 20
3.670999999996297
 30
0.0
 11
9.236999999990758
 21
5.5200999999945
 31
0.0
1001
ACAD
1000
ASC_BOUNDS
1002
{
1070
    19
1005
A376
1002
}
  0
LINE
  5
A353
330
A333
100
AcDbEntity
  8
0
100
AcDbLine
 10
8.409999999991555
 20
3.670999999996297
 30
0.0
 11
10.06399999998996
 21
3.670999999996297
 31
0.0
1001
ACAD
1000
ASC_BOUNDS
1002
{
1070
    19
1005
A376
1002
}
  0
LINE
  5
A354
330
A333
100
AcDbEntity
  8
0
100
AcDbLine
 10
10.53899999998941
 20
8.763099999991255
 30
0.0
 11
12.02999999998792
 21
8.763099999991255
 31
0.0
1001
ACAD
1000
ASC_BOUNDS
1002
{
1070
    19
1005
A377
1002
}
  0
LINE
  5
A355
330
A333
100
AcDbEntity
  8
0
100
AcDbLine
 10
22.7389999999773
 20
3.670999999996297
 30
0.0
 11
23.56599999997638
 21
5.5200999999945
 31
0.0
1001
ACAD
1000
ASC_BOUNDS
1002
{
1070
    19
1005
A378
1002
}
  0
LINE
  5
A356
330
A333
100
AcDbEntity
  8
0
100
AcDbLine
 10
22.7389999999773
 20
3.670999999996297
 30
0.0
 11
24.39299999997559
 21
3.670999999996297
 31
0.0
1001
ACAD
1000
ASC_BOUNDS
1002
{
1070
    19
1005
A378
1002
}
  0
LINE
  5
A357
330
A333
100
AcDbEntity
  8
0
100
AcDbLine
 10
18.59799999998143
 20
3.315799999996671
 30
0.0
 11
20.89099999997916
 21
8.763099999991255
 31
0.0
1001
ACAD
1000
ASC_BOUNDS
1002
{
1070
    19
1005
A377
1002
}
  0
LINE
  5
A358
330
A333
100
AcDbEntity
  8
0
100
AcDbLine
 10
18.59799999998143
 20
3.315799999996671
 30
0.0
 11
16.46099999998353
 21
8.999899999990987
 31
0.0
1001
ACAD
1000
ASC_BOUNDS
1002
{
1070
    19
1005
A377
1002
}
  0
LINE
  5
A359
330
A333
100
AcDbEntity
  8
0
100
AcDbLine
 10
20.89099999997916
 20
8.763099999991255
 30
0.0
 11
22.38199999997767
 21
8.763099999991255
 31
0.0
1001
ACAD
1000
ASC_BOUNDS
1002
{
1070
    19
1005
A377
1002
}
  0
LINE
  5
A35A
330
A333
100
AcDbEntity
  8
0
100
AcDbLine
 10
24.39299999997559
 20
3.670999999996297
 30
0.0
 11
23.56599999997638
 21
5.5200999999945
 31
0.0
1001
ACAD
1000
ASC_BOUNDS
1002
{
1070
    19
1005
A378
1002
}
  0
LINE
  5
A35B
330
A333
100
AcDbEntity
  8
0
100
AcDbLine
 10
44.99999999995498
 20
-0.2368999999997641
 30
0.0
 11
40.02599999995994
 21
5.341799999994635
 31
0.0
1001
ACAD
1000
ASC_BOUNDS
1002
{
1070
    19
1005
A37A
1002
}
  0
LINE
  5
A35C
330
A333
100
AcDbEntity
  8
0
100
AcDbLine
 10
40.02599999995994
 20
5.341799999994635
 30
0.0
 11
40.02599999995994
 21
0.0
 31
0.0
1001
ACAD
1000
ASC_BOUNDS
1002
{
1070
    19
1005
A37A
1002
}
  0
LINE
  5
A35D
330
A333
100
AcDbEntity
  8
0
100
AcDbLine
 10
38.60499999996136
 20
8.999999999991019
 30
0.0
 11
38.60499999996136
 21
0.0
 31
0.0
1001
ACAD
1000
ASC_BOUNDS
1002
{
1070
    19
1005
A37A
1002
}
  0
LINE
  5
A35E
330
A333
100
AcDbEntity
  8
0
100
AcDbLine
 10
44.99999999995498
 20
8.763099999991255
 30
0.0
 11
44.99999999995498
 21
-0.2368999999997641
 31
0.0
1001
ACAD
1000
ASC_BOUNDS
1002
{
1070
    19
1005
A37A
1002
}
  0
LINE
  5
A35F
330
A333
100
AcDbEntity
  8
0
100
AcDbLine
 10
38.60499999996136
 20
0.0
 30
0.0
 11
40.02599999995994
 21
0.0
 31
0.0
1001
ACAD
1000
ASC_BOUNDS
1002
{
1070
    19
1005
A37A
1002
}
  0
LINE
  5
A360
330
A333
100
AcDbEntity
  8
0
100
AcDbLine
 10
43.57899999995641
 20
3.421199999996588
 30
0.0
 11
38.60499999996136
 21
8.999899999990987
 31
0.0
1001
ACAD
1000
ASC_BOUNDS
1002
{
1070
    19
1005
A37A
1002
}
  0
LINE
  5
A361
330
A333
100
AcDbEntity
  8
0
100
AcDbLine
 10
43.57899999995641
 20
8.763099999991255
 30
0.0
 11
43.57899999995641
 21
3.421199999996588
 31
0.0
1001
ACAD
1000
ASC_BOUNDS
1002
{
1070
    19
1005
A37A
1002
}
  0
LINE
  5
A362
330
A333
100
AcDbEntity
  8
0
100
AcDbLine
 10
43.57899999995641
 20
8.763099999991255
 30
0.0
 11
44.99999999995498
 21
8.763099999991255
 31
0.0
1001
ACAD
1000
ASC_BOUNDS
1002
{
1070
    19
1005
A37A
1002
}
  0
LINE
  5
A363
330
A333
100
AcDbEntity
  8
0
100
AcDbLine
 10
37.67199999996831
 20
8.763099999991255
 30
0.0
 11
36.23199999996837
 21
8.763099999991255
 31
0.0
  0
LINE
  5
A364
330
A333
100
AcDbEntity
  8
0
100
AcDbLine
 10
31.64199999996833
 20
8.763099999991255
 30
0.0
 11
31.64199999996833
 21
2.481619422925121
 31
0.0
  0
LINE
  5
A365
330
A333
100
AcDbEntity
  8
0
100
AcDbLine
 10
37.67199999996831
 20
8.763099999991255
 30
0.0
 11
37.67199999996831
 21
2.481619422925121
 31
0.0
  0
LINE
  5
A366
330
A333
100
AcDbEntity
  8
0
100
AcDbLine
 10
36.23199999996837
 20
8.763099999991255
 30
0.0
 11
36.23199999996837
 21
2.481619422925064
 31
0.0
  0
LINE
  5
A367
330
A333
100
AcDbEntity
  8
0
100
AcDbLine
 10
33.08199999996839
 20
8.763099999991255
 30
0.0
 11
33.08199999996839
 21
2.481619422925121
 31
0.0
  0
ARC
  5
A368
330
A333
100
AcDbEntity
  8
0
100
AcDbCircle
 10
34.65699999996832
 20
3.183099999991214
 30
0.0
 40
3.420000000000007
100
AcDbArc
 50
240.0000000000255
 51
299.9999999999766
  0
ARC
  5
A369
330
A333
100
AcDbEntity
  8
0
100
AcDbCircle
 10
34.65699999996832
 20
3.183099999991214
 30
0.0
 40
1.97999999999999
100
AcDbArc
 50
240.000000000026
 51
299.9999999999703
  0
LINE
  5
A36A
330
A333
100
AcDbEntity
  8
0
100
AcDbLine
 10
33.08199999996828
 20
8.763099999991255
 30
0.0
 11
31.64199999996833
 21
8.763099999991255
 31
0.0
  0
ARC
  5
A36B
330
A333
100
AcDbEntity
  8
0
100
AcDbCircle
 10
35.06199999996829
 20
2.481619422925064
 30
0.0
 40
1.17
100
AcDbArc
 50
299.9999999999699
 51
0.0
  0
ARC
  5
A36C
330
A333
100
AcDbEntity
  8
0
100
AcDbCircle
 10
34.25199999996835
 20
2.481619422925121
 30
0.0
 40
1.17
100
AcDbArc
 50
180.0
 51
240.0000000000238
  0
ARC
  5
A36D
330
A333
100
AcDbEntity
  8
0
100
AcDbCircle
 10
35.06199999996841
 20
2.481619422925121
 30
0.0
 40
2.61
100
AcDbArc
 50
299.9999999999756
 51
0.0
  0
ARC
  5
A36E
330
A333
100
AcDbEntity
  8
0
100
AcDbCircle
 10
34.25199999996835
 20
2.481619422925121
 30
0.0
 40
2.61
100
AcDbArc
 50
180.0
 51
240.0000000000244
  0
LINE
  5
A36F
330
A333
100
AcDbEntity
  8
0
100
AcDbLine
 10
29.30199999996933
 20
8.763099999991255
 30
0.0
 11
30.74199999996927
 21
8.763099999991255
 31
0.0
1001
ACAD
1000
ASC_BOUNDS
1002
{
1070
    19
1005
A378
1002
}
  0
LINE
  5
A370
330
A333
100
AcDbEntity
  8
0
100
AcDbLine
 10
30.74199999996927
 20
8.763099999991255
 30
0.0
 11
30.74199999996927
 21
2.373099999991211
 31
0.0
1001
ACAD
1000
ASC_BOUNDS
1002
{
1070
    19
1005
A378
1002
}
  0
LINE
  5
A371
330
A333
100
AcDbEntity
  8
0
100
AcDbLine
 10
26.02015566812236
 20
0.0330999999912365
 30
0.0
 11
28.40199999996923
 21
0.0330999999912365
 31
0.0
1001
ACAD
1000
ASC_BOUNDS
1002
{
1070
    19
1005
A378
1002
}
  0
LINE
  5
A372
330
A333
100
AcDbEntity
  8
0
100
AcDbLine
 10
29.30199999996933
 20
8.763099999991255
 30
0.0
 11
29.30199999996933
 21
2.283099999991236
 31
0.0
1001
ACAD
1000
ASC_BOUNDS
1002
{
1070
    19
1005
A378
1002
}
  0
LINE
  5
A373
330
A333
100
AcDbEntity
  8
0
100
AcDbLine
 10
26.97358892824991
 20
1.383099999991202
 30
0.0
 11
28.40199999996923
 21
1.383099999991202
 31
0.0
1001
ACAD
1000
ASC_BOUNDS
1002
{
1070
    19
1005
A378
1002
}
  0
ARC
  5
A374
330
A333
100
AcDbEntity
  8
0
100
AcDbCircle
 10
28.40199999996923
 20
2.283099999991236
 30
0.0
 40
0.9
100
AcDbArc
 50
270.0
 51
0.0
1001
ACAD
1000
ASC_BOUNDS
1002
{
1070
    19
1005
A378
1002
}
  0
ARC
  5
A375
330
A333
100
AcDbEntity
  8
0
100
AcDbCircle
 10
28.40199999996923
 20
2.373099999991211
 30
0.0
 40
2.34
100
AcDbArc
 50
270.0
 51
0.0
1001
ACAD
1000
ASC_BOUNDS
1002
{
1070
    19
1005
A378
1002
}
  0
INSERT
  5
A376
330
A333
100
AcDbEntity
  8
0
100
AcDbBlockReference
  2
*X24
 10
0.0
 20
0.0
 30
0.0
1001
ACAD
1000
HATCH
1002
{
1070
    19
1000
ANSI37
1040
0.15
1040
0.0
1000
ASC_BOUNDS
1070
     2
1070
     2
1070
    12
1005
A335
1005
A336
1005
A33D
1005
A34C
1005
A34F
1005
A34D
1005
A33E
1005
A343
1005
A341
1005
A345
1005
A344
1005
A346
1070
     2
1070
     3
1005
A351
1005
A353
1005
A352
1000
ASC_SEEDPOINT
1011
3.614004224891801
1021
2.996669441146025
1031
0.0
1000
R14_HATCH_DATA
1000
A376
1011
1.0
1021
0.0
1031
0.0
1011
0.0
1021
1.0
1031
0.0
1011
0.0
1021
0.0
1031
1.0
1040
0.0
1010
0.0
1020
0.0
1030
1.0
1000
ANSI37
1070
     0
1070
     1
1071
        2
1071
        7
1070
     0
1070
     1
1071
       17
1040
13.26299999998673
1040
-0.0001000000000317
1040
9.236999999990758
1040
8.999899999990987
1040
9.236999999990758
1040
8.999999999991019
1040
5.657999999994331
1040
0.9999999999989768
1040
3.181999999996833
1040
4.668599999995308
1040
6.432999999993513
1040
8.763099999991255
1040
4.617999999995391
1040
8.763099999991255
1040
1.420999999998571
1040
4.736799999995242
1040
4.617999999995391
1040
-0.0001000000000317
1040
4.617999999995391
1040
0.0
1040
6.766999999993232
1040
0.0
1040
6.766999999993232
1040
-0.0001000000000317
1040
7.826999999992154
1040
2.368399999997621
1040
10.64699999998936
1040
2.368399999997621
1040
11.70599999998831
1040
-0.0001000000000317
1040
11.70599999998831
1040
0.0
1040
13.26299999998673
1040
0.0
1071
       12
1005
A335
1005
A336
1005
A33D
1005
A34C
1005
A34F
1005
A34D
1005
A33E
1005
A343
1005
A341
1005
A345
1005
A344
1005
A346
1071
       22
1070
     0
1070
     1
1071
        3
1040
9.236999999990758
1040
5.5200999999945
1040
10.06399999998996
1040
3.670999999996297
1040
8.409999999991555
1040
3.670999999996297
1071
        3
1005
A351
1005
A353
1005
A352
1070
     0
1070
     1
1040
0.0
1040
0.15
1070
     0
1070
     2
1040
0.7853981633974483
1040
49.29960901727088
1040
-10.17736998311392
1040
-0.3367596045400932
1040
0.3367596045400932
1070
     0
1040
2.356194490192345
1040
49.29960901727088
1040
-10.17736998311392
1040
-0.3367596045400932
1040
-0.3367596045400932
1070
     0
1040
0.0110235143455945
1071
        2
1040
3.614004224891801
1040
2.996669441146025
1040
0.0
1040
3.614004224891801
1040
2.996669441146025
1040
0.0
1002
}
  0
INSERT
  5
A377
330
A333
100
AcDbEntity
  8
0
100
AcDbBlockReference
  2
*X25
 10
0.0
 20
0.0
 30
0.0
1001
ACAD
1000
HATCH
1002
{
1070
    19
1000
ANSI37
1040
0.15
1040
0.0
1000
ASC_BOUNDS
1070
     1
1070
     2
1070
    10
1005
A337
1005
A338
1005
A359
1005
A357
1005
A358
1005
A34B
1005
A350
1005
A354
1005
A33A
1005
A339
1000
ASC_SEEDPOINT
1011
14.73245321214324
1021
2.798246178283421
1031
0.0
1000
R14_HATCH_DATA
1000
A377
1011
1.0
1021
0.0
1031
0.0
1011
0.0
1021
1.0
1031
0.0
1011
0.0
1021
0.0
1031
1.0
1040
0.0
1010
0.0
1020
0.0
1030
1.0
1000
ANSI37
1070
     0
1070
     1
1071
        1
1071
        7
1070
     0
1070
     1
1071
       10
1040
16.46099999998353
1040
5.432899999994561
1040
18.59199999998134
1040
-0.2368999999997641
1040
22.38199999997767
1040
8.763099999991255
1040
20.89099999997916
1040
8.763099999991255
1040
18.59799999998143
1040
3.315799999996671
1040
16.46099999998353
1040
8.999899999990987
1040
14.32399999998563
1040
3.315799999996671
1040
12.02999999998792
1040
8.763099999991255
1040
10.53899999998941
1040
8.763099999991255
1040
14.32899999998563
1040
-0.2368999999997641
1071
       10
1005
A337
1005
A338
1005
A359
1005
A357
1005
A358
1005
A34B
1005
A350
1005
A354
1005
A33A
1005
A339
1070
     0
1070
     1
1040
0.0
1040
0.15
1070
     0
1070
     2
1040
0.7853981633974483
1040
49.29960901727088
1040
-10.17736998311392
1040
-0.3367596045400932
1040
0.3367596045400932
1070
     0
1040
2.356194490192345
1040
49.29960901727088
1040
-10.17736998311392
1040
-0.3367596045400932
1040
-0.3367596045400932
1070
     0
1040
0.0110235143455945
1071
        1
1040
14.73245321214324
1040
2.798246178283421
1040
0.0
1002
}
  0
INSERT
  5
A378
330
A333
100
AcDbEntity
  8
0
100
AcDbBlockReference
  2
*X26
 10
0.0
 20
0.0
 30
0.0
1001
ACAD
1000
HATCH
1002
{
1070
    19
1000
ANSI37
1040
0.15
1040
0.0
1000
ASC_BOUNDS
1070
     2
1070
     2
1070
    13
1005
A33B
1005
A348
1005
A349
1005
A347
1005
A34A
1005
A371
1005
A375
1005
A370
1005
A36F
1005
A372
1005
A374
1005
A373
1005
A33C
1070
     2
1070
     3
1005
A355
1005
A35A
1005
A356
1000
ASC_SEEDPOINT
1011
21.97929957367762
1021
3.294304244259308
1031
0.0
1000
R14_HATCH_DATA
1000
A378
1011
1.0
1021
0.0
1031
0.0
1011
0.0
1021
1.0
1031
0.0
1011
0.0
1021
0.0
1031
1.0
1040
0.0
1010
0.0
1020
0.0
1030
1.0
1000
ANSI37
1070
     0
1070
     1
1071
        2
1071
        7
1070
     1
1070
     1
1071
       15
1040
23.56599999997638
1040
8.999899999990987
1040
0.0
1040
19.53899999998043
1040
-0.0001000000000317
1040
0.0
1040
19.53899999998043
1040
0.0
1040
0.0
1040
21.09599999997886
1040
0.0
1040
0.0
1040
21.09599999997886
1040
-0.0001000000000317
1040
0.0
1040
22.15599999997789
1040
2.368399999997621
1040
0.0
1040
24.97599999997499
1040
2.368399999997621
1040
0.0
1040
26.02015566812236
1040
0.0330999999912365
1040
0.0
1040
28.40199999996923
1040
0.0330999999912365
1040
0.414213562373095
1040
30.74199999996923
1040
2.373099999991211
1040
0.0
1040
30.74199999996927
1040
8.763099999991255
1040
0.0
1040
29.30199999996933
1040
8.763099999991255
1040
0.0
1040
29.30199999996933
1040
2.283099999991236
1040
-0.414213562373095
1040
28.40199999996923
1040
1.383099999991237
1040
0.0
1040
26.97358892824991
1040
1.383099999991202
1040
0.0
1071
       13
1005
A33B
1005
A348
1005
A349
1005
A347
1005
A34A
1005
A371
1005
A375
1005
A370
1005
A36F
1005
A372
1005
A374
1005
A373
1005
A33C
1071
       22
1070
     0
1070
     1
1071
        3
1040
22.7389999999773
1040
3.670999999996297
1040
23.56599999997638
1040
5.5200999999945
1040
24.39299999997559
1040
3.670999999996297
1071
        3
1005
A355
1005
A35A
1005
A356
1070
     0
1070
     1
1040
0.0
1040
0.15
1070
     0
1070
     2
1040
0.7853981633974483
1040
49.29960901727088
1040
-10.17736998311392
1040
-0.3367596045400932
1040
0.3367596045400932
1070
     0
1040
2.356194490192345
1040
49.29960901727088
1040
-10.17736998311392
1040
-0.3367596045400932
1040
-0.3367596045400932
1070
     0
1040
0.0110235143455945
1071
        2
1040
21.97929957367762
1040
3.294304244259308
1040
0.0
1040
21.97929957367762
1040
3.294304244259308
1040
0.0
1002
}
  0
INSERT
  5
A379
330
A333
100
AcDbEntity
  8
0
100
AcDbBlockReference
  2
*X27
 10
0.0
 20
0.0
 30
0.0
1001
ACAD
1000
HATCH
1002
{
1070
    19
1000
ANSI37
1040
0.15
1040
0.0
1000
R14_HATCH_DATA
1000
A379
1011
1.0
1021
0.0
1031
0.0
1011
0.0
1021
1.0
1031
0.0
1011
0.0
1021
0.0
1031
1.0
1040
0.0
1010
0.0
1020
0.0
1030
1.0
1000
ANSI37
1070
     0
1070
     1
1071
        1
1071
        7
1070
     1
1070
     1
1071
       12
1040
31.64199999996833
1040
2.481619422925121
1040
0.2679491924310942
1040
32.94699999997067
1040
0.2212931190493919
1040
0.2679491924301353
1040
36.36699999995983
1040
0.2212931190459813
1040
0.2679491924321411
1040
37.67199999996831
1040
2.481619422928361
1040
0.0
1040
37.67199999996831
1040
8.763099999991255
1040
0.0
1040
36.23199999996837
1040
8.763099999991255
1040
0.0
1040
36.23199999996837
1040
2.481619422925064
1040
-0.2679491924310291
1040
35.64699999996708
1040
1.468369700498386
1040
-0.267949192430519
1040
33.66699999997093
1040
1.468369700497703
1040
-0.267949192431809
1040
33.08199999996839
1040
2.481619422926997
1040
0.0
1040
33.08199999996839
1040
8.763099999991255
1040
0.0
1040
31.64199999996833
1040
8.763099999991255
1040
0.0
1071
        0
1070
     0
1070
     1
1040
0.0
1040
0.15
1070
     0
1070
     2
1040
0.7853981633974483
1040
49.29960901727088
1040
-10.17736998311392
1040
-0.3367596045400932
1040
0.3367596045400932
1070
     0
1040
2.356194490192345
1040
49.29960901727088
1040
-10.17736998311392
1040
-0.3367596045400932
1040
-0.3367596045400932
1070
     0
1040
0.0110235143455945
1071
        1
1040
32.30357378967278
1040
3.988785755459219
1040
0.0
1002
}
  0
INSERT
  5
A37A
330
A333
100
AcDbEntity
  8
0
100
AcDbBlockReference
  2
*X28
 10
0.0
 20
0.0
 30
0.0
1001
ACAD
1000
HATCH
1002
{
1070
    19
1000
ANSI37
1040
0.15
1040
0.0
1000
ASC_BOUNDS
1070
     1
1070
     2
1070
     8
1005
A35B
1005
A35E
1005
A362
1005
A361
1005
A360
1005
A35D
1005
A35F
1005
A35C
1000
ASC_SEEDPOINT
1011
39.74896370716704
1021
4.484843821435049
1031
0.0
1000
R14_HATCH_DATA
1000
A37A
1011
1.0
1021
0.0
1031
0.0
1011
0.0
1021
1.0
1031
0.0
1011
0.0
1021
0.0
1031
1.0
1040
0.0
1010
0.0
1020
0.0
1030
1.0
1000
ANSI37
1070
     0
1070
     1
1071
        1
1071
        7
1070
     0
1070
     1
1071
        9
1040
40.02599999995994
1040
5.341799999994635
1040
44.99999999995498
1040
-0.2368999999997641
1040
44.99999999995498
1040
8.763099999991255
1040
43.57899999995641
1040
8.763099999991255
1040
43.57899999995641
1040
3.421199999996588
1040
38.60499999996136
1040
8.999899999990987
1040
38.60499999996136
1040
8.999999999991019
1040
38.60499999996136
1040
0.0
1040
40.02599999995994
1040
0.0
1071
        8
1005
A35B
1005
A35E
1005
A362
1005
A361
1005
A360
1005
A35D
1005
A35F
1005
A35C
1070
     0
1070
     1
1040
0.0
1040
0.15
1070
     0
1070
     2
1040
0.7853981633974483
1040
49.29960901727088
1040
-10.17736998311392
1040
-0.3367596045400932
1040
0.3367596045400932
1070
     0
1040
2.356194490192345
1040
49.29960901727088
1040
-10.17736998311392
1040
-0.3367596045400932
1040
-0.3367596045400932
1070
     0
1040
0.0110235143455945
1071
        1
1040
39.74896370716704
1040
4.484843821435049
1040
0.0
1002
}
  0
INSERT
  5
A37B
330
A333
100
AcDbEntity
  8
0
100
AcDbBlockReference
  2
*X29
 10
0.0
 20
0.0
 30
0.0
1001
ACAD
1000
HATCH
1002
{
1070
    19
1000
ANSI37
1040
0.15
1040
0.0
1000
ASC_BOUNDS
1070
     1
1070
     2
1070
     4
1005
A33F
1005
A34E
1005
A340
1005
A342
1000
ASC_SEEDPOINT
1011
1.079051535452663
1021
4.148538732891836
1031
0.0
1000
R14_HATCH_DATA
1000
A37B
1011
1.0
1021
0.0
1031
0.0
1011
0.0
1021
1.0
1031
0.0
1011
0.0
1021
0.0
1031
1.0
1040
0.0
1010
0.0
1020
0.0
1030
1.0
1000
ANSI37
1070
     0
1070
     1
1071
        1
1071
        7
1070
     0
1070
     1
1071
        4
1040
1.420999999998571
1040
0.0
1040
1.420999999998571
1040
8.763099999991255
1040
0.0
1040
8.763099999991255
1040
0.0
1040
0.0
1071
        4
1005
A33F
1005
A34E
1005
A340
1005
A342
1070
     0
1070
     1
1040
0.0
1040
0.15
1070
     0
1070
     2
1040
0.7853981633974483
1040
49.29960901727088
1040
-10.17736998311392
1040
-0.3367596045400932
1040
0.3367596045400932
1070
     0
1040
2.356194490192345
1040
49.29960901727088
1040
-10.17736998311392
1040
-0.3367596045400932
1040
-0.3367596045400932
1070
     0
1040
0.0053004257112761
1071
        1
1040
1.079051535452663
1040
4.148538732891836
1040
0.0
1002
}
  0
ENDBLK
  5
AA57
330
A333
100
AcDbEntity
  8
0
100
AcDbBlockEnd
  0
BLOCK
  5
B800
330
B672
100
AcDbEntity
  8
0
100
AcDbBlockBegin
  2
*X24
 70
     1
 10
0.0
 20
0.0
 30
0.0
  3
*X24
  1

  0
LINE
  5
B673
330
B672
100
AcDbEntity
  8
0
  6
CONTINUOUS
100
AcDbLine
 10
3.418023043697893
 20
7.251849696850613
 30
0.0
 11
4.929273346838536
 21
8.763099999991255
 31
0.0
  0
LINE
  5
B674
330
B672
100
AcDbEntity
  8
0
  6
CONTINUOUS
100
AcDbLine
 10
1.483656411257782
 20
4.643963855330318
 30
0.0
 11
5.60279255591872
 21
8.763099999991255
 31
0.0
  0
LINE
  5
B675
330
B672
100
AcDbEntity
  8
0
  6
CONTINUOUS
100
AcDbLine
 10
1.755053947328235
 20
4.241842182320584
 30
0.0
 11
6.276311764998907
 21
8.763099999991255
 31
0.0
  0
LINE
  5
B676
330
B672
100
AcDbEntity
  8
0
  6
CONTINUOUS
100
AcDbLine
 10
2.026451483398688
 20
3.839720509310849
 30
0.0
 11
4.441040904851878
 21
6.254309930764039
 31
0.0
  0
LINE
  5
B677
330
B672
100
AcDbEntity
  8
0
  6
CONTINUOUS
100
AcDbLine
 10
2.297849019469139
 20
3.437598836301114
 30
0.0
 11
3.321765168359338
 21
4.461514985191313
 31
0.0
  0
LINE
  5
B678
330
B672
100
AcDbEntity
  8
0
  6
CONTINUOUS
100
AcDbLine
 10
2.569246555539591
 20
3.03547716329138
 30
0.0
 11
3.593163397972743
 21
4.059394005724531
 31
0.0
  0
LINE
  5
B679
330
B672
100
AcDbEntity
  8
0
  6
CONTINUOUS
100
AcDbLine
 10
2.840644091610043
 20
2.633355490281646
 30
0.0
 11
3.864561627586149
 21
3.657273026257751
 31
0.0
  0
LINE
  5
B67A
330
B672
100
AcDbEntity
  8
0
  6
CONTINUOUS
100
AcDbLine
 10
3.112041627680496
 20
2.231233817271911
 30
0.0
 11
4.135959857199554
 21
3.25515204679097
 31
0.0
  0
LINE
  5
B67B
330
B672
100
AcDbEntity
  8
0
  6
CONTINUOUS
100
AcDbLine
 10
3.383439163750948
 20
1.829112144262177
 30
0.0
 11
4.40735808681296
 21
2.853031067324189
 31
0.0
  0
LINE
  5
B67C
330
B672
100
AcDbEntity
  8
0
  6
CONTINUOUS
100
AcDbLine
 10
3.654836699821399
 20
1.426990471252442
 30
0.0
 11
4.678756316426365
 21
2.450910087857407
 31
0.0
  0
LINE
  5
B67D
330
B672
100
AcDbEntity
  8
0
  6
CONTINUOUS
100
AcDbLine
 10
3.926234235891853
 20
1.024868798242709
 30
0.0
 11
4.95015454603977
 21
2.048789108390626
 31
0.0
  0
LINE
  5
B67E
330
B672
100
AcDbEntity
  8
0
  6
CONTINUOUS
100
AcDbLine
 10
4.197631771962304
 20
0.6227471252329737
 30
0.0
 11
5.221552775653176
 21
1.646668128923846
 31
0.0
  0
LINE
  5
B67F
330
B672
100
AcDbEntity
  8
0
  6
CONTINUOUS
100
AcDbLine
 10
8.715877546767851
 20
7.835069736359266
 30
0.0
 11
9.435953450375058
 21
8.555145639966472
 31
0.0
  0
LINE
  5
B680
330
B672
100
AcDbEntity
  8
0
  6
CONTINUOUS
100
AcDbLine
 10
8.170620868422267
 20
6.616293848933497
 30
0.0
 11
9.644120833743461
 21
8.08979381425469
 31
0.0
  0
LINE
  5
B681
330
B672
100
AcDbEntity
  8
0
  6
CONTINUOUS
100
AcDbLine
 10
7.625364190076684
 20
5.397517961507727
 30
0.0
 11
9.852288217111864
 21
7.624441988542907
 31
0.0
  0
LINE
  5
B682
330
B672
100
AcDbEntity
  8
0
  6
CONTINUOUS
100
AcDbLine
 10
7.080107511731101
 20
4.178742074081957
 30
0.0
 11
10.06045560048027
 21
7.159090162831124
 31
0.0
  0
LINE
  5
B683
330
B672
100
AcDbEntity
  8
0
  6
CONTINUOUS
100
AcDbLine
 10
6.534850833385518
 20
2.959966186656187
 30
0.0
 11
10.26862298384867
 21
6.693738337119342
 31
0.0
  0
LINE
  5
B684
330
B672
100
AcDbEntity
  8
0
  6
CONTINUOUS
100
AcDbLine
 10
4.469029308032756
 20
0.2206254522232385
 30
0.0
 11
5.492951005266582
 21
1.244547149457064
 31
0.0
  0
LINE
  5
B685
330
B672
100
AcDbEntity
  8
0
  6
CONTINUOUS
100
AcDbLine
 10
5.989594155039935
 20
1.741190299230417
 30
0.0
 11
8.806950407233131
 21
4.558546551423613
 31
0.0
  0
LINE
  5
B686
330
B672
100
AcDbEntity
  8
0
  6
CONTINUOUS
100
AcDbLine
 10
9.401251593263643
 20
5.152847737454126
 30
0.0
 11
10.47679036721708
 21
6.228386511407559
 31
0.0
  0
LINE
  5
B687
330
B672
100
AcDbEntity
  8
0
  6
CONTINUOUS
100
AcDbLine
 10
4.921837203428691
 20
-0.0000858614610131
 30
0.0
 11
8.592923064886001
 21
3.670999999996297
 31
0.0
  0
LINE
  5
B688
330
B672
100
AcDbEntity
  8
0
  6
CONTINUOUS
100
AcDbLine
 10
9.609390446785305
 20
4.6874673818956
 30
0.0
 11
10.68495775058548
 21
5.763034685695775
 31
0.0
  0
LINE
  5
B689
330
B672
100
AcDbEntity
  8
0
  6
CONTINUOUS
100
AcDbLine
 10
5.595387755019432
 20
-0.0000545189504582
 30
0.0
 11
7.716137258923768
 21
2.120694984953879
 31
0.0
  0
LINE
  5
B68A
330
B672
100
AcDbEntity
  8
0
  6
CONTINUOUS
100
AcDbLine
 10
6.268938306610172
 20
-0.000023176439905
 30
0.0
 11
7.170485805526503
 21
0.9015243224764267
 31
0.0
  0
LINE
  5
B68B
330
B672
100
AcDbEntity
  8
0
  6
CONTINUOUS
100
AcDbLine
 10
7.963842273967511
 20
2.368399999997621
 30
0.0
 11
9.266442273966188
 21
3.670999999996297
 31
0.0
  0
LINE
  5
B68C
330
B672
100
AcDbEntity
  8
0
  6
CONTINUOUS
100
AcDbLine
 10
8.637361483047696
 20
2.368399999997621
 30
0.0
 11
9.939961483046375
 21
3.670999999996297
 31
0.0
  0
LINE
  5
B68D
330
B672
100
AcDbEntity
  8
0
  6
CONTINUOUS
100
AcDbLine
 10
9.817529300306965
 20
4.222087026337075
 30
0.0
 11
10.89312513395388
 21
5.297682859983993
 31
0.0
  0
LINE
  5
B68E
330
B672
100
AcDbEntity
  8
0
  6
CONTINUOUS
100
AcDbLine
 10
10.02566815382863
 20
3.756706670778549
 30
0.0
 11
11.10129251732229
 21
4.832331034272211
 31
0.0
  0
LINE
  5
B68F
330
B672
100
AcDbEntity
  8
0
  6
CONTINUOUS
100
AcDbLine
 10
9.310880692127883
 20
2.368399999997621
 30
0.0
 11
11.30945990069069
 21
4.366979208560428
 31
0.0
  0
LINE
  5
B690
330
B672
100
AcDbEntity
  8
0
  6
CONTINUOUS
100
AcDbLine
 10
9.98439990120807
 20
2.36839999999762
 30
0.0
 11
11.5176272840591
 21
3.901627382848645
 31
0.0
  0
LINE
  5
B691
330
B672
100
AcDbEntity
  8
0
  6
CONTINUOUS
100
AcDbLine
 10
10.65037369446246
 20
2.36085458417182
 30
0.0
 11
11.7257946674275
 21
3.436275557136862
 31
0.0
  0
LINE
  5
B692
330
B672
100
AcDbEntity
  8
0
  6
CONTINUOUS
100
AcDbLine
 10
10.85847197087848
 20
1.895433651507656
 30
0.0
 11
11.9339620507959
 21
2.97092373142508
 31
0.0
  0
LINE
  5
B693
330
B672
100
AcDbEntity
  8
0
  6
CONTINUOUS
100
AcDbLine
 10
11.0665702472945
 20
1.430012718843491
 30
0.0
 11
12.14212943416431
 21
2.505571905713296
 31
0.0
  0
LINE
  5
B694
330
B672
100
AcDbEntity
  8
0
  6
CONTINUOUS
100
AcDbLine
 10
11.27466852371052
 20
0.9645917861793256
 30
0.0
 11
12.35029681753271
 21
2.040220080001513
 31
0.0
  0
LINE
  5
B695
330
B672
100
AcDbEntity
  8
0
  6
CONTINUOUS
100
AcDbLine
 10
11.48276680012654
 20
0.4991708535151611
 30
0.0
 11
12.55846420090111
 21
1.57486825428973
 31
0.0
  0
LINE
  5
B696
330
B672
100
AcDbEntity
  8
0
  6
CONTINUOUS
100
AcDbLine
 10
11.69086507654257
 20
0.0337499208509957
 30
0.0
 11
12.76663158426952
 21
1.109516428577947
 31
0.0
  0
LINE
  5
B697
330
B672
100
AcDbEntity
  8
0
  6
CONTINUOUS
100
AcDbLine
 10
12.33057447873954
 20
-0.0000598860322123
 30
0.0
 11
12.97479896763792
 21
0.6441646028661663
 31
0.0
  0
LINE
  5
B698
330
B672
100
AcDbEntity
  8
0
  6
CONTINUOUS
100
AcDbLine
 10
13.00413694809395
 20
-0.0000166257579952
 30
0.0
 11
13.18296635100632
 21
0.1788127771543824
 31
0.0
  0
LINE
  5
B699
330
B672
100
AcDbEntity
  8
0
  6
CONTINUOUS
100
AcDbLine
 10
4.772852165289667
 20
-0.000092794222212
 30
0.0
 11
4.296495091028902
 21
0.4762642800385528
 31
0.0
  0
LINE
  5
B69A
330
B672
100
AcDbEntity
  8
0
  6
CONTINUOUS
100
AcDbLine
 10
5.446340034776103
 20
-0.0000614546284616
 30
0.0
 11
2.898195908335625
 21
2.548082671812017
 31
0.0
  0
LINE
  5
B69B
330
B672
100
AcDbEntity
  8
0
  6
CONTINUOUS
100
AcDbLine
 10
6.119827904262539
 20
-0.0000301150347113
 30
0.0
 11
1.499896725642348
 21
4.61990106358548
 31
0.0
  0
LINE
  5
B69C
330
B672
100
AcDbEntity
  8
0
  6
CONTINUOUS
100
AcDbLine
 10
6.775136745476159
 20
0.0181802528318542
 30
0.0
 11
5.699826040202669
 21
1.093490958105344
 31
0.0
  0
LINE
  5
B69D
330
B672
100
AcDbEntity
  8
0
  6
CONTINUOUS
100
AcDbLine
 10
6.983376846288489
 20
0.4834593610997118
 30
0.0
 11
5.908008617934405
 21
1.558827589453796
 31
0.0
  0
LINE
  5
B69E
330
B672
100
AcDbEntity
  8
0
  6
CONTINUOUS
100
AcDbLine
 10
5.377063484962296
 20
1.416253513345719
 30
0.0
 11
1.702276957014131
 21
5.091040041293883
 31
0.0
  0
LINE
  5
B69F
330
B672
100
AcDbEntity
  8
0
  6
CONTINUOUS
100
AcDbLine
 10
3.978745891735324
 20
3.488090315652877
 30
0.0
 11
2.000373521109399
 21
5.466462686278803
 31
0.0
  0
LINE
  5
B6A0
330
B672
100
AcDbEntity
  8
0
  6
CONTINUOUS
100
AcDbLine
 10
7.191616947100819
 20
0.948738469367568
 30
0.0
 11
6.11619119566614
 21
2.024164220802247
 31
0.0
  0
LINE
  5
B6A1
330
B672
100
AcDbEntity
  8
0
  6
CONTINUOUS
100
AcDbLine
 10
7.399857047913149
 20
1.414017577635424
 30
0.0
 11
6.324373773397875
 21
2.489500852150698
 31
0.0
  0
LINE
  5
B6A2
330
B672
100
AcDbEntity
  8
0
  6
CONTINUOUS
100
AcDbLine
 10
7.608097148725479
 20
1.879296685903281
 30
0.0
 11
6.53255635112961
 21
2.95483748349915
 31
0.0
  0
LINE
  5
B6A3
330
B672
100
AcDbEntity
  8
0
  6
CONTINUOUS
100
AcDbLine
 10
7.816337249537808
 20
2.344575794171138
 30
0.0
 11
6.740738928861345
 21
3.420174114847601
 31
0.0
  0
LINE
  5
B6A4
330
B672
100
AcDbEntity
  8
0
  6
CONTINUOUS
100
AcDbLine
 10
3.310241080789734
 20
4.830114335678653
 30
0.0
 11
2.298470085204666
 21
5.84188533126372
 31
0.0
  0
LINE
  5
B6A5
330
B672
100
AcDbEntity
  8
0
  6
CONTINUOUS
100
AcDbLine
 10
3.60832983563551
 20
5.205544789913063
 30
0.0
 11
2.596566649299935
 21
6.217307976248638
 31
0.0
  0
LINE
  5
B6A6
330
B672
100
AcDbEntity
  8
0
  6
CONTINUOUS
100
AcDbLine
 10
3.906418590481286
 20
5.580975244147473
 30
0.0
 11
2.894663213395203
 21
6.592730621233557
 31
0.0
  0
LINE
  5
B6A7
330
B672
100
AcDbEntity
  8
0
  6
CONTINUOUS
100
AcDbLine
 10
4.204507345327062
 20
5.956405698381884
 30
0.0
 11
3.192759777490472
 21
6.968153266218474
 31
0.0
  0
LINE
  5
B6A8
330
B672
100
AcDbEntity
  8
0
  6
CONTINUOUS
100
AcDbLine
 10
8.466032252791512
 20
2.368399999997621
 30
0.0
 11
6.948921506593081
 21
3.885510746196053
 31
0.0
  0
LINE
  5
B6A9
330
B672
100
AcDbEntity
  8
0
  6
CONTINUOUS
100
AcDbLine
 10
9.139551461871699
 20
2.36839999999762
 30
0.0
 11
7.157104084324816
 21
4.350847377544504
 31
0.0
  0
LINE
  5
B6AA
330
B672
100
AcDbEntity
  8
0
  6
CONTINUOUS
100
AcDbLine
 10
4.502596100172839
 20
6.331836152616295
 30
0.0
 11
3.49085634158574
 21
7.343575911203393
 31
0.0
  0
LINE
  5
B6AB
330
B672
100
AcDbEntity
  8
0
  6
CONTINUOUS
100
AcDbLine
 10
4.800684855018615
 20
6.707266606850705
 30
0.0
 11
3.788952905681008
 21
7.718998556188312
 31
0.0
  0
LINE
  5
B6AC
330
B672
100
AcDbEntity
  8
0
  6
CONTINUOUS
100
AcDbLine
 10
12.18154012887317
 20
-0.0000694579236642
 30
0.0
 11
11.32140332908496
 21
0.8600673418645499
 31
0.0
  0
LINE
  5
B6AD
330
B672
100
AcDbEntity
  8
0
  6
CONTINUOUS
100
AcDbLine
 10
12.85501608323566
 20
-0.0000262032059659
 30
0.0
 11
10.77672456435345
 21
2.078265315676246
 31
0.0
  0
LINE
  5
B6AE
330
B672
100
AcDbEntity
  8
0
  6
CONTINUOUS
100
AcDbLine
 10
9.813070670951886
 20
2.36839999999762
 30
0.0
 11
8.51047067095321
 21
3.670999999996297
 31
0.0
  0
LINE
  5
B6AF
330
B672
100
AcDbEntity
  8
0
  6
CONTINUOUS
100
AcDbLine
 10
10.48658988003207
 20
2.36839999999762
 30
0.0
 11
9.183989880033396
 21
3.670999999996297
 31
0.0
  0
LINE
  5
B6B0
330
B672
100
AcDbEntity
  8
0
  6
CONTINUOUS
100
AcDbLine
 10
8.441048632286794
 20
3.740422038662712
 30
0.0
 11
7.365286662056551
 21
4.816184008892956
 31
0.0
  0
LINE
  5
B6B1
330
B672
100
AcDbEntity
  8
0
  6
CONTINUOUS
100
AcDbLine
 10
8.649187485808454
 20
4.205802394221237
 30
0.0
 11
7.573469239788285
 21
5.281520640241407
 31
0.0
  0
LINE
  5
B6B2
330
B672
100
AcDbEntity
  8
0
  6
CONTINUOUS
100
AcDbLine
 10
5.098773609864391
 20
7.082697061085115
 30
0.0
 11
4.087049469776277
 21
8.09442120117323
 31
0.0
  0
LINE
  5
B6B3
330
B672
100
AcDbEntity
  8
0
  6
CONTINUOUS
100
AcDbLine
 10
5.396862364710167
 20
7.458127515319526
 30
0.0
 11
4.385146033871544
 21
8.469843846158149
 31
0.0
  0
LINE
  5
B6B4
330
B672
100
AcDbEntity
  8
0
  6
CONTINUOUS
100
AcDbLine
 10
13.04801363231285
 20
0.4804954567970334
 30
0.0
 11
9.85750908911358
 21
3.670999999996297
 31
0.0
  0
LINE
  5
B6B5
330
B672
100
AcDbEntity
  8
0
  6
CONTINUOUS
100
AcDbLine
 10
8.857326339330116
 20
4.671182749779763
 30
0.0
 11
7.781651817520021
 21
5.746857271589858
 31
0.0
  0
LINE
  5
B6B6
330
B672
100
AcDbEntity
  8
0
  6
CONTINUOUS
100
AcDbLine
 10
5.694951119555943
 20
7.833557969553937
 30
0.0
 11
4.765409089118624
 21
8.763099999991255
 31
0.0
  0
LINE
  5
B6B7
330
B672
100
AcDbEntity
  8
0
  6
CONTINUOUS
100
AcDbLine
 10
12.50286117236978
 20
1.699167125820288
 30
0.0
 11
9.68611877250287
 21
4.515909525687196
 31
0.0
  0
LINE
  5
B6B8
330
B672
100
AcDbEntity
  8
0
  6
CONTINUOUS
100
AcDbLine
 10
9.065465192851777
 20
5.136563105338288
 30
0.0
 11
7.989834395251757
 21
6.21219390293831
 31
0.0
  0
LINE
  5
B6B9
330
B672
100
AcDbEntity
  8
0
  6
CONTINUOUS
100
AcDbLine
 10
5.993039874401719
 20
8.208988423788346
 30
0.0
 11
5.43892829819881
 21
8.763099999991255
 31
0.0
  0
LINE
  5
B6BA
330
B672
100
AcDbEntity
  8
0
  6
CONTINUOUS
100
AcDbLine
 10
11.95770871242671
 20
2.917838794843543
 30
0.0
 11
8.19801697298349
 21
6.677530534286761
 31
0.0
  0
LINE
  5
B6BB
330
B672
100
AcDbEntity
  8
0
  6
CONTINUOUS
100
AcDbLine
 10
6.291128629247495
 20
8.584418878022756
 30
0.0
 11
6.112447507278997
 21
8.763099999991255
 31
0.0
  0
LINE
  5
B6BC
330
B672
100
AcDbEntity
  8
0
  6
CONTINUOUS
100
AcDbLine
 10
11.41255625248364
 20
4.136510463866797
 30
0.0
 11
8.406199550715227
 21
7.142867165635211
 31
0.0
  0
LINE
  5
B6BD
330
B672
100
AcDbEntity
  8
0
  6
CONTINUOUS
100
AcDbLine
 10
10.86740379254057
 20
5.355182132890051
 30
0.0
 11
8.614382128446962
 21
7.608203796983664
 31
0.0
  0
LINE
  5
B6BE
330
B672
100
AcDbEntity
  8
0
  6
CONTINUOUS
100
AcDbLine
 10
10.3222513325975
 20
6.573853801913305
 30
0.0
 11
8.822564706178696
 21
8.073540428332114
 31
0.0
  0
LINE
  5
B6BF
330
B672
100
AcDbEntity
  8
0
  6
CONTINUOUS
100
AcDbLine
 10
9.777098872654436
 20
7.792525470936562
 30
0.0
 11
9.030747283910433
 21
8.538877059680566
 31
0.0
  0
ENDBLK
  5
B801
330
B672
100
AcDbEntity
  8
0
100
AcDbBlockEnd
  0
BLOCK
  5
B802
330
B6C0
100
AcDbEntity
  8
0
100
AcDbBlockBegin
  2
*X25
 70
     1
 10
0.0
 20
0.0
 30
0.0
  3
*X25
  1

  0
LINE
  5
B6C1
330
B6C0
100
AcDbEntity
  8
0
  6
CONTINUOUS
100
AcDbLine
 10
10.67292308101235
 20
8.445076852443387
 30
0.0
 11
10.99094622856022
 21
8.763099999991255
 31
0.0
  0
LINE
  5
B6C2
330
B6C0
100
AcDbEntity
  8
0
  6
CONTINUOUS
100
AcDbLine
 10
10.87250383178748
 20
7.971138394138331
 30
0.0
 11
11.6644654376404
 21
8.763099999991255
 31
0.0
  0
LINE
  5
B6C3
330
B6C0
100
AcDbEntity
  8
0
  6
CONTINUOUS
100
AcDbLine
 10
11.07208458256261
 20
7.497199935833273
 30
0.0
 11
12.12126590876355
 21
8.546381262034211
 31
0.0
  0
LINE
  5
B6C4
330
B6C0
100
AcDbEntity
  8
0
  6
CONTINUOUS
100
AcDbLine
 10
11.27166533333774
 20
7.023261477528216
 30
0.0
 11
12.32085164573666
 21
8.072447789927136
 31
0.0
  0
LINE
  5
B6C5
330
B6C0
100
AcDbEntity
  8
0
  6
CONTINUOUS
100
AcDbLine
 10
11.47124608411287
 20
6.549323019223158
 30
0.0
 11
12.52043738270977
 21
7.59851431782006
 31
0.0
  0
LINE
  5
B6C6
330
B6C0
100
AcDbEntity
  8
0
  6
CONTINUOUS
100
AcDbLine
 10
11.670826834888
 20
6.075384560918101
 30
0.0
 11
12.72002311968288
 21
7.124580845712984
 31
0.0
  0
LINE
  5
B6C7
330
B6C0
100
AcDbEntity
  8
0
  6
CONTINUOUS
100
AcDbLine
 10
11.87040758566313
 20
5.601446102613043
 30
0.0
 11
12.91960885665599
 21
6.650647373605907
 31
0.0
  0
LINE
  5
B6C8
330
B6C0
100
AcDbEntity
  8
0
  6
CONTINUOUS
100
AcDbLine
 10
12.06998833643825
 20
5.127507644307986
 30
0.0
 11
13.1191945936291
 21
6.176713901498832
 31
0.0
  0
LINE
  5
B6C9
330
B6C0
100
AcDbEntity
  8
0
  6
CONTINUOUS
100
AcDbLine
 10
12.26956908721338
 20
4.65356918600293
 30
0.0
 11
13.31878033060221
 21
5.702780429391757
 31
0.0
  0
LINE
  5
B6CA
330
B6C0
100
AcDbEntity
  8
0
  6
CONTINUOUS
100
AcDbLine
 10
12.46914983798851
 20
4.179630727697873
 30
0.0
 11
13.51836606757532
 21
5.228846957284683
 31
0.0
  0
LINE
  5
B6CB
330
B6C0
100
AcDbEntity
  8
0
  6
CONTINUOUS
100
AcDbLine
 10
12.66873058876364
 20
3.705692269392816
 30
0.0
 11
13.71795180454843
 21
4.754913485177607
 31
0.0
  0
LINE
  5
B6CC
330
B6C0
100
AcDbEntity
  8
0
  6
CONTINUOUS
100
AcDbLine
 10
12.86831133953877
 20
3.231753811087759
 30
0.0
 11
13.91753754152154
 21
4.280980013070531
 31
0.0
  0
LINE
  5
B6CD
330
B6C0
100
AcDbEntity
  8
0
  6
CONTINUOUS
100
AcDbLine
 10
13.0678920903139
 20
2.757815352782702
 30
0.0
 11
14.11712327849465
 21
3.807046540963456
 31
0.0
  0
LINE
  5
B6CE
330
B6C0
100
AcDbEntity
  8
0
  6
CONTINUOUS
100
AcDbLine
 10
13.26747284108903
 20
2.283876894477644
 30
0.0
 11
14.31670901546777
 21
3.333113068856379
 31
0.0
  0
LINE
  5
B6CF
330
B6C0
100
AcDbEntity
  8
0
  6
CONTINUOUS
100
AcDbLine
 10
16.36767838827179
 20
8.751678487061342
 30
0.0
 11
16.50332410898388
 21
8.887324207773432
 31
0.0
  0
LINE
  5
B6D0
330
B6C0
100
AcDbEntity
  8
0
  6
CONTINUOUS
100
AcDbLine
 10
15.96190732182191
 20
7.67238821153127
 30
0.0
 11
16.68735328004734
 21
8.397834169756699
 31
0.0
  0
LINE
  5
B6D1
330
B6C0
100
AcDbEntity
  8
0
  6
CONTINUOUS
100
AcDbLine
 10
15.55613625537202
 20
6.593097936001196
 30
0.0
 11
16.87138245111079
 21
7.908344131739965
 31
0.0
  0
LINE
  5
B6D2
330
B6C0
100
AcDbEntity
  8
0
  6
CONTINUOUS
100
AcDbLine
 10
15.15036518892213
 20
5.513807660471122
 30
0.0
 11
17.05541162217424
 21
7.418854093723231
 31
0.0
  0
LINE
  5
B6D3
330
B6C0
100
AcDbEntity
  8
0
  6
CONTINUOUS
100
AcDbLine
 10
14.74459412247225
 20
4.434517384941048
 30
0.0
 11
17.2394407932377
 21
6.929364055706499
 31
0.0
  0
LINE
  5
B6D4
330
B6C0
100
AcDbEntity
  8
0
  6
CONTINUOUS
100
AcDbLine
 10
14.33882305602236
 20
3.355227109410975
 30
0.0
 11
17.42346996430115
 21
6.439874017689766
 31
0.0
  0
LINE
  5
B6D5
330
B6C0
100
AcDbEntity
  8
0
  6
CONTINUOUS
100
AcDbLine
 10
13.46705359186416
 20
1.809938436172586
 30
0.0
 11
16.0819338255367
 21
4.424818669845129
 31
0.0
  0
LINE
  5
B6D6
330
B6C0
100
AcDbEntity
  8
0
  6
CONTINUOUS
100
AcDbLine
 10
16.63283254238972
 20
4.975717386698149
 30
0.0
 11
17.60749913536461
 21
5.950383979673033
 31
0.0
  0
LINE
  5
B6D7
330
B6C0
100
AcDbEntity
  8
0
  6
CONTINUOUS
100
AcDbLine
 10
13.66663434263929
 20
1.335999977867529
 30
0.0
 11
15.67604797733754
 21
3.345413612565779
 31
0.0
  0
LINE
  5
B6D8
330
B6C0
100
AcDbEntity
  8
0
  6
CONTINUOUS
100
AcDbLine
 10
13.86621509341442
 20
0.8620615195624723
 30
0.0
 11
15.27016212913838
 21
2.26600855528643
 31
0.0
  0
LINE
  5
B6D9
330
B6C0
100
AcDbEntity
  8
0
  6
CONTINUOUS
100
AcDbLine
 10
16.81682257348267
 20
4.486188208710908
 30
0.0
 11
17.79152830642806
 21
5.460893941656299
 31
0.0
  0
LINE
  5
B6DA
330
B6C0
100
AcDbEntity
  8
0
  6
CONTINUOUS
100
AcDbLine
 10
17.00081260457561
 20
3.996659030723667
 30
0.0
 11
17.97555747749151
 21
4.971403903639565
 31
0.0
  0
LINE
  5
B6DB
330
B6C0
100
AcDbEntity
  8
0
  6
CONTINUOUS
100
AcDbLine
 10
20.74362343514722
 20
8.412989070375462
 30
0.0
 11
21.09373436476302
 21
8.763099999991256
 31
0.0
  0
LINE
  5
B6DC
330
B6C0
100
AcDbEntity
  8
0
  6
CONTINUOUS
100
AcDbLine
 10
20.25401257174777
 20
7.249858997895826
 30
0.0
 11
21.7672535738432
 21
8.763099999991255
 31
0.0
  0
LINE
  5
B6DD
330
B6C0
100
AcDbEntity
  8
0
  6
CONTINUOUS
100
AcDbLine
 10
14.06579584418955
 20
0.3881230612574149
 30
0.0
 11
14.86427628093921
 21
1.186603498007082
 31
0.0
  0
LINE
  5
B6DE
330
B6C0
100
AcDbEntity
  8
0
  6
CONTINUOUS
100
AcDbLine
 10
14.26537659496467
 20
-0.0858153970476412
 30
0.0
 11
14.45839043274005
 21
0.1071984407277329
 31
0.0
  0
LINE
  5
B6DF
330
B6C0
100
AcDbEntity
  8
0
  6
CONTINUOUS
100
AcDbLine
 10
17.18480263566856
 20
3.507129852736426
 30
0.0
 11
18.15958664855496
 21
4.481913865622833
 31
0.0
  0
LINE
  5
B6E0
330
B6C0
100
AcDbEntity
  8
0
  6
CONTINUOUS
100
AcDbLine
 10
17.3687926667615
 20
3.017600674749186
 30
0.0
 11
18.34361581961842
 21
3.9924238276061
 31
0.0
  0
LINE
  5
B6E1
330
B6C0
100
AcDbEntity
  8
0
  6
CONTINUOUS
100
AcDbLine
 10
19.76440170834832
 20
6.086728925416191
 30
0.0
 11
22.33924590259489
 21
8.661573119662755
 31
0.0
  0
LINE
  5
B6E2
330
B6C0
100
AcDbEntity
  8
0
  6
CONTINUOUS
100
AcDbLine
 10
19.27479084494887
 20
4.923598852936555
 30
0.0
 11
21.84929622842713
 21
7.498104236414807
 31
0.0
  0
LINE
  5
B6E3
330
B6C0
100
AcDbEntity
  8
0
  6
CONTINUOUS
100
AcDbLine
 10
17.55278269785445
 20
2.528071496761945
 30
0.0
 11
18.52764499068187
 21
3.502933789589366
 31
0.0
  0
LINE
  5
B6E4
330
B6C0
100
AcDbEntity
  8
0
  6
CONTINUOUS
100
AcDbLine
 10
18.78517998154942
 20
3.760468780456919
 30
0.0
 11
21.35934655425936
 21
6.33463535316686
 31
0.0
  0
LINE
  5
B6E5
330
B6C0
100
AcDbEntity
  8
0
  6
CONTINUOUS
100
AcDbLine
 10
17.73677272894739
 20
2.038542318774704
 30
0.0
 11
20.8693968800916
 21
5.171166469918914
 31
0.0
  0
LINE
  5
B6E6
330
B6C0
100
AcDbEntity
  8
0
  6
CONTINUOUS
100
AcDbLine
 10
17.92076276004034
 20
1.549013140787464
 30
0.0
 11
20.37944720592384
 21
4.007697586670968
 31
0.0
  0
LINE
  5
B6E7
330
B6C0
100
AcDbEntity
  8
0
  6
CONTINUOUS
100
AcDbLine
 10
18.10475279113329
 20
1.059483962800223
 30
0.0
 11
19.88949753175608
 21
2.84422870342302
 31
0.0
  0
LINE
  5
B6E8
330
B6C0
100
AcDbEntity
  8
0
  6
CONTINUOUS
100
AcDbLine
 10
18.28874282222623
 20
0.5699547848129822
 30
0.0
 11
19.39954785758832
 21
1.680759820175074
 31
0.0
  0
LINE
  5
B6E9
330
B6C0
100
AcDbEntity
  8
0
  6
CONTINUOUS
100
AcDbLine
 10
18.47273285331918
 20
0.0804256068257416
 30
0.0
 11
18.90959818342056
 21
0.517290936927127
 31
0.0
  0
LINE
  5
B6EA
330
B6C0
100
AcDbEntity
  8
0
  6
CONTINUOUS
100
AcDbLine
 10
14.3590401358224
 20
-0.1570118376323384
 30
0.0
 11
14.24903296539946
 21
-0.0470046672093929
 31
0.0
  0
LINE
  5
B6EB
330
B6C0
100
AcDbEntity
  8
0
  6
CONTINUOUS
100
AcDbLine
 10
14.54309291258661
 20
0.332454594683643
 30
0.0
 11
13.75908329123172
 21
1.116464216038529
 31
0.0
  0
LINE
  5
B6EC
330
B6C0
100
AcDbEntity
  8
0
  6
CONTINUOUS
100
AcDbLine
 10
14.72714568935081
 20
0.8219210269996244
 30
0.0
 11
13.26913361706399
 21
2.27993309928645
 31
0.0
  0
LINE
  5
B6ED
330
B6C0
100
AcDbEntity
  8
0
  6
CONTINUOUS
100
AcDbLine
 10
14.91119846611502
 20
1.311387459315606
 30
0.0
 11
12.77918394289625
 21
3.443401982534371
 31
0.0
  0
LINE
  5
B6EE
330
B6C0
100
AcDbEntity
  8
0
  6
CONTINUOUS
100
AcDbLine
 10
15.09525124287922
 20
1.800853891631587
 30
0.0
 11
12.28923426872852
 21
4.606870865782293
 31
0.0
  0
LINE
  5
B6EF
330
B6C0
100
AcDbEntity
  8
0
  6
CONTINUOUS
100
AcDbLine
 10
15.27930401964343
 20
2.290320323947569
 30
0.0
 11
11.79928459456078
 21
5.770339749030213
 31
0.0
  0
LINE
  5
B6F0
330
B6C0
100
AcDbEntity
  8
0
  6
CONTINUOUS
100
AcDbLine
 10
15.46335679640763
 20
2.77978675626355
 30
0.0
 11
14.48885470994921
 21
3.754288842721972
 31
0.0
  0
LINE
  5
B6F1
330
B6C0
100
AcDbEntity
  8
0
  6
CONTINUOUS
100
AcDbLine
 10
13.88507249233704
 20
4.358071060334137
 30
0.0
 11
11.30933492039305
 21
6.933808632278135
 31
0.0
  0
LINE
  5
B6F2
330
B6C0
100
AcDbEntity
  8
0
  6
CONTINUOUS
100
AcDbLine
 10
18.75840522805855
 20
0.1582575336928151
 30
0.0
 11
18.25383727664818
 21
0.6628254851031863
 31
0.0
  0
LINE
  5
B6F3
330
B6C0
100
AcDbEntity
  8
0
  6
CONTINUOUS
100
AcDbLine
 10
15.64740957317184
 20
3.269253188579531
 30
0.0
 11
14.67288388101266
 21
4.243778880738705
 31
0.0
  0
LINE
  5
B6F4
330
B6C0
100
AcDbEntity
  8
0
  6
CONTINUOUS
100
AcDbLine
 10
13.39509276772158
 20
5.521569994029786
 30
0.0
 11
10.81938524622531
 21
8.097277515526056
 31
0.0
  0
LINE
  5
B6F5
330
B6C0
100
AcDbEntity
  8
0
  6
CONTINUOUS
100
AcDbLine
 10
18.95798597883369
 20
0.6321959919978686
 30
0.0
 11
17.84825644852853
 21
1.741925522303024
 31
0.0
  0
LINE
  5
B6F6
330
B6C0
100
AcDbEntity
  8
0
  6
CONTINUOUS
100
AcDbLine
 10
19.15756672960882
 20
1.106134450302922
 30
0.0
 11
17.44267562040888
 21
2.821025559502861
 31
0.0
  0
LINE
  5
B6F7
330
B6C0
100
AcDbEntity
  8
0
  6
CONTINUOUS
100
AcDbLine
 10
15.83146234993604
 20
3.758719620895513
 30
0.0
 11
14.85691305207612
 21
4.733268918755439
 31
0.0
  0
LINE
  5
B6F8
330
B6C0
100
AcDbEntity
  8
0
  6
CONTINUOUS
100
AcDbLine
 10
16.01551512670025
 20
4.248186053211494
 30
0.0
 11
15.04094222313957
 21
5.222758956772172
 31
0.0
  0
LINE
  5
B6F9
330
B6C0
100
AcDbEntity
  8
0
  6
CONTINUOUS
100
AcDbLine
 10
12.90511304310612
 20
6.685068927725435
 30
0.0
 11
10.8270819708403
 21
8.763099999991255
 31
0.0
  0
LINE
  5
B6FA
330
B6C0
100
AcDbEntity
  8
0
  6
CONTINUOUS
100
AcDbLine
 10
12.41513331849066
 20
7.848567861421083
 30
0.0
 11
11.50060117992049
 21
8.763099999991255
 31
0.0
  0
LINE
  5
B6FB
330
B6C0
100
AcDbEntity
  8
0
  6
CONTINUOUS
100
AcDbLine
 10
19.35714748038395
 20
1.580072908607975
 30
0.0
 11
17.03709479228923
 21
3.900125596702697
 31
0.0
  0
LINE
  5
B6FC
330
B6C0
100
AcDbEntity
  8
0
  6
CONTINUOUS
100
AcDbLine
 10
19.55672823115909
 20
2.054011366913028
 30
0.0
 11
16.63151396416958
 21
4.979225633902534
 31
0.0
  0
LINE
  5
B6FD
330
B6C0
100
AcDbEntity
  8
0
  6
CONTINUOUS
100
AcDbLine
 10
16.19956790346445
 20
4.737652485527476
 30
0.0
 11
15.22497139420302
 21
5.712248994788904
 31
0.0
  0
LINE
  5
B6FE
330
B6C0
100
AcDbEntity
  8
0
  6
CONTINUOUS
100
AcDbLine
 10
16.38362068022866
 20
5.227118917843457
 30
0.0
 11
15.40900056526648
 21
6.201739032805637
 31
0.0
  0
LINE
  5
B6FF
330
B6C0
100
AcDbEntity
  8
0
  6
CONTINUOUS
100
AcDbLine
 10
19.75630898193422
 20
2.527949825218081
 30
0.0
 11
18.70774536448286
 21
3.576513442669441
 31
0.0
  0
LINE
  5
B700
330
B6C0
100
AcDbEntity
  8
0
  6
CONTINUOUS
100
AcDbLine
 10
19.95588973270936
 20
3.001888283523134
 30
0.0
 11
18.90726987211446
 21
4.050508144118028
 31
0.0
  0
LINE
  5
B701
330
B6C0
100
AcDbEntity
  8
0
  6
CONTINUOUS
100
AcDbLine
 10
20.15547048348449
 20
3.475826741828186
 30
0.0
 11
19.10679437974606
 21
4.524502845566614
 31
0.0
  0
LINE
  5
B702
330
B6C0
100
AcDbEntity
  8
0
  6
CONTINUOUS
100
AcDbLine
 10
20.35505123425962
 20
3.94976520013324
 30
0.0
 11
19.30631888737766
 21
4.998497547015201
 31
0.0
  0
LINE
  5
B703
330
B6C0
100
AcDbEntity
  8
0
  6
CONTINUOUS
100
AcDbLine
 10
20.55463198503475
 20
4.423703658438292
 30
0.0
 11
19.50584339500926
 21
5.472492248463787
 31
0.0
  0
LINE
  5
B704
330
B6C0
100
AcDbEntity
  8
0
  6
CONTINUOUS
100
AcDbLine
 10
18.37481191085755
 20
3.909446896294752
 30
0.0
 11
15.59302973632993
 21
6.691229070822371
 31
0.0
  0
LINE
  5
B705
330
B6C0
100
AcDbEntity
  8
0
  6
CONTINUOUS
100
AcDbLine
 10
17.96904084440766
 20
4.988737171824825
 30
0.0
 11
15.77705890739338
 21
7.180719108839104
 31
0.0
  0
LINE
  5
B706
330
B6C0
100
AcDbEntity
  8
0
  6
CONTINUOUS
100
AcDbLine
 10
17.56326977795777
 20
6.068027447354899
 30
0.0
 11
15.96108807845684
 21
7.670209146855838
 31
0.0
  0
LINE
  5
B707
330
B6C0
100
AcDbEntity
  8
0
  6
CONTINUOUS
100
AcDbLine
 10
17.15749871150789
 20
7.147317722884972
 30
0.0
 11
16.14511724952029
 21
8.15969918487257
 31
0.0
  0
LINE
  5
B708
330
B6C0
100
AcDbEntity
  8
0
  6
CONTINUOUS
100
AcDbLine
 10
16.751727645058
 20
8.226607998415046
 30
0.0
 11
16.32914642058374
 21
8.649189222889303
 31
0.0
  0
LINE
  5
B709
330
B6C0
100
AcDbEntity
  8
0
  6
CONTINUOUS
100
AcDbLine
 10
20.75421273580989
 20
4.897642116743345
 30
0.0
 11
19.70536790264086
 21
5.946486949912374
 31
0.0
  0
LINE
  5
B70A
330
B6C0
100
AcDbEntity
  8
0
  6
CONTINUOUS
100
AcDbLine
 10
20.95379348658502
 20
5.371580575048398
 30
0.0
 11
19.90489241027246
 21
6.42048165136096
 31
0.0
  0
LINE
  5
B70B
330
B6C0
100
AcDbEntity
  8
0
  6
CONTINUOUS
100
AcDbLine
 10
21.15337423736015
 20
5.845519033353452
 30
0.0
 11
20.10441691790406
 21
6.894476352809547
 31
0.0
  0
LINE
  5
B70C
330
B6C0
100
AcDbEntity
  8
0
  6
CONTINUOUS
100
AcDbLine
 10
21.35295498813529
 20
6.319457491658505
 30
0.0
 11
20.30394142553566
 21
7.368471054258134
 31
0.0
  0
LINE
  5
B70D
330
B6C0
100
AcDbEntity
  8
0
  6
CONTINUOUS
100
AcDbLine
 10
21.55253573891042
 20
6.793395949963558
 30
0.0
 11
20.50346593316726
 21
7.842465755706721
 31
0.0
  0
LINE
  5
B70E
330
B6C0
100
AcDbEntity
  8
0
  6
CONTINUOUS
100
AcDbLine
 10
21.75211648968556
 20
7.267334408268612
 30
0.0
 11
20.70299044079886
 21
8.316460457155308
 31
0.0
  0
LINE
  5
B70F
330
B6C0
100
AcDbEntity
  8
0
  6
CONTINUOUS
100
AcDbLine
 10
21.95169724046069
 20
7.741272866573663
 30
0.0
 11
20.9298701070431
 21
8.763099999991256
 31
0.0
  0
LINE
  5
B710
330
B6C0
100
AcDbEntity
  8
0
  6
CONTINUOUS
100
AcDbLine
 10
22.15127799123582
 20
8.215211324878716
 30
0.0
 11
21.60338931612328
 21
8.763099999991256
 31
0.0
  0
LINE
  5
B711
330
B6C0
100
AcDbEntity
  8
0
  6
CONTINUOUS
100
AcDbLine
 10
22.35085874201096
 20
8.689149783183769
 30
0.0
 11
22.27690852520347
 21
8.763099999991255
 31
0.0
  0
ENDBLK
  5
B803
330
B6C0
100
AcDbEntity
  8
0
100
AcDbBlockEnd
  0
BLOCK
  5
B804
330
B712
100
AcDbEntity
  8
0
100
AcDbBlockBegin
  2
*X26
 70
     1
 10
0.0
 20
0.0
 30
0.0
  3
*X26
  1

  0
LINE
  5
B713
330
B712
100
AcDbEntity
  8
0
  6
CONTINUOUS
100
AcDbLine
 10
23.19462913593892
 20
8.169917934846424
 30
0.0
 11
23.70775465517246
 21
8.683043454079957
 31
0.0
  0
LINE
  5
B714
330
B712
100
AcDbEntity
  8
0
  6
CONTINUOUS
100
AcDbLine
 10
22.64923161835078
 20
6.951001208178088
 30
0.0
 11
23.9159364069932
 21
8.217705996820516
 31
0.0
  0
LINE
  5
B715
330
B712
100
AcDbEntity
  8
0
  6
CONTINUOUS
100
AcDbLine
 10
22.10383410076263
 20
5.732084481509751
 30
0.0
 11
24.12411815881395
 21
7.752368539561078
 31
0.0
  0
LINE
  5
B716
330
B712
100
AcDbEntity
  8
0
  6
CONTINUOUS
100
AcDbLine
 10
21.55843658317447
 20
4.513167754841414
 30
0.0
 11
24.3322999106347
 21
7.287031082301639
 31
0.0
  0
LINE
  5
B717
330
B712
100
AcDbEntity
  8
0
  6
CONTINUOUS
100
AcDbLine
 10
21.01303906558632
 20
3.294251028173077
 30
0.0
 11
24.54048166245544
 21
6.821693625042199
 31
0.0
  0
LINE
  5
B718
330
B712
100
AcDbEntity
  8
0
  6
CONTINUOUS
100
AcDbLine
 10
20.46764154799817
 20
2.075334301504738
 30
0.0
 11
23.28571549467848
 21
4.89340824818505
 31
0.0
  0
LINE
  5
B719
330
B712
100
AcDbEntity
  8
0
  6
CONTINUOUS
100
AcDbLine
 10
19.92224403041002
 20
0.8564175748364002
 30
0.0
 11
22.74075865492779
 21
3.674932199354171
 31
0.0
  0
LINE
  5
B71A
330
B712
100
AcDbEntity
  8
0
  6
CONTINUOUS
100
AcDbLine
 10
23.67305085490148
 20
5.280743608408048
 30
0.0
 11
24.74866341427619
 21
6.356356167782759
 31
0.0
  0
LINE
  5
B71B
330
B712
100
AcDbEntity
  8
0
  6
CONTINUOUS
100
AcDbLine
 10
23.88118970842314
 20
4.815363252849522
 30
0.0
 11
24.95684516609694
 21
5.89101871052332
 31
0.0
  0
LINE
  5
B71C
330
B712
100
AcDbEntity
  8
0
  6
CONTINUOUS
100
AcDbLine
 10
19.73925852647308
 20
-0.0000871381807288
 30
0.0
 11
23.4103456646501
 21
3.670999999996297
 31
0.0
  0
LINE
  5
B71D
330
B712
100
AcDbEntity
  8
0
  6
CONTINUOUS
100
AcDbLine
 10
24.0893285619448
 20
4.349982897290997
 30
0.0
 11
25.16502691791769
 21
5.42568125326388
 31
0.0
  0
LINE
  5
B71E
330
B712
100
AcDbEntity
  8
0
  6
CONTINUOUS
100
AcDbLine
 10
20.41282099582748
 20
-0.0000438779065108
 30
0.0
 11
21.64944178675636
 21
1.236576913022366
 31
0.0
  0
LINE
  5
B71F
330
B712
100
AcDbEntity
  8
0
  6
CONTINUOUS
100
AcDbLine
 10
22.78126487373161
 20
2.36839999999762
 30
0.0
 11
24.08386487373029
 21
3.670999999996297
 31
0.0
  0
LINE
  5
B720
330
B712
100
AcDbEntity
  8
0
  6
CONTINUOUS
100
AcDbLine
 10
24.29746741546646
 20
3.884602541732471
 30
0.0
 11
25.37320866973843
 21
4.960343796004441
 31
0.0
  0
LINE
  5
B721
330
B712
100
AcDbEntity
  8
0
  6
CONTINUOUS
100
AcDbLine
 10
21.08638346518189
 20
-0.0000006176322938
 30
0.0
 11
21.10379033335899
 21
0.0174062505448083
 31
0.0
  0
LINE
  5
B722
330
B712
100
AcDbEntity
  8
0
  6
CONTINUOUS
100
AcDbLine
 10
23.4547840828118
 20
2.36839999999762
 30
0.0
 11
25.58139042155918
 21
4.495006338745002
 31
0.0
  0
LINE
  5
B723
330
B712
100
AcDbEntity
  8
0
  6
CONTINUOUS
100
AcDbLine
 10
29.30199999996933
 20
8.215615917155148
 30
0.0
 11
29.84948408280543
 21
8.763099999991255
 31
0.0
  0
LINE
  5
B724
330
B712
100
AcDbEntity
  8
0
  6
CONTINUOUS
100
AcDbLine
 10
24.12830329189199
 20
2.36839999999762
 30
0.0
 11
25.78957217337993
 21
4.029668881485562
 31
0.0
  0
LINE
  5
B725
330
B712
100
AcDbEntity
  8
0
  6
CONTINUOUS
100
AcDbLine
 10
29.30199999996933
 20
7.54209670807496
 30
0.0
 11
30.52300329188562
 21
8.763099999991255
 31
0.0
  0
LINE
  5
B726
330
B712
100
AcDbEntity
  8
0
  6
CONTINUOUS
100
AcDbLine
 10
24.80182250097217
 20
2.36839999999762
 30
0.0
 11
25.99775392520067
 21
3.564331424226122
 31
0.0
  0
LINE
  5
B727
330
B712
100
AcDbEntity
  8
0
  6
CONTINUOUS
100
AcDbLine
 10
29.30199999996933
 20
6.868577498994774
 30
0.0
 11
30.74199999996926
 21
8.308577498994712
 31
0.0
  0
LINE
  5
B728
330
B712
100
AcDbEntity
  8
0
  6
CONTINUOUS
100
AcDbLine
 10
25.13028238392013
 20
2.023340673865392
 30
0.0
 11
26.20593567702142
 21
3.098993966966683
 31
0.0
  0
LINE
  5
B729
330
B712
100
AcDbEntity
  8
0
  6
CONTINUOUS
100
AcDbLine
 10
25.33838066033617
 20
1.557919741201244
 30
0.0
 11
26.41411742884217
 21
2.633656509707244
 31
0.0
  0
LINE
  5
B72A
330
B712
100
AcDbEntity
  8
0
  6
CONTINUOUS
100
AcDbLine
 10
25.54647893675221
 20
1.092498808537098
 30
0.0
 11
26.62229918066291
 21
2.168319052447804
 31
0.0
  0
LINE
  5
B72B
330
B712
100
AcDbEntity
  8
0
  6
CONTINUOUS
100
AcDbLine
 10
25.75457721316825
 20
0.62707787587295
 30
0.0
 11
26.83048093248366
 21
1.702981595188365
 31
0.0
  0
LINE
  5
B72C
330
B712
100
AcDbEntity
  8
0
  6
CONTINUOUS
100
AcDbLine
 10
29.30199999996933
 20
6.195058289914587
 30
0.0
 11
30.74199999996926
 21
7.635058289914522
 31
0.0
  0
LINE
  5
B72D
330
B712
100
AcDbEntity
  8
0
  6
CONTINUOUS
100
AcDbLine
 10
29.30199999996933
 20
5.521539080834401
 30
0.0
 11
30.74199999996926
 21
6.961539080834331
 31
0.0
  0
LINE
  5
B72E
330
B712
100
AcDbEntity
  8
0
  6
CONTINUOUS
100
AcDbLine
 10
29.30199999996933
 20
4.848019871754214
 30
0.0
 11
30.74199999996925
 21
6.288019871754143
 31
0.0
  0
LINE
  5
B72F
330
B712
100
AcDbEntity
  8
0
  6
CONTINUOUS
100
AcDbLine
 10
29.30199999996933
 20
4.174500662674028
 30
0.0
 11
30.74199999996925
 21
5.614500662673953
 31
0.0
  0
LINE
  5
B730
330
B712
100
AcDbEntity
  8
0
  6
CONTINUOUS
100
AcDbLine
 10
25.96267548958429
 20
0.1616569432088024
 30
0.0
 11
27.18411854636669
 21
1.383099999991207
 31
0.0
  0
LINE
  5
B731
330
B712
100
AcDbEntity
  8
0
  6
CONTINUOUS
100
AcDbLine
 10
29.30199999996933
 20
3.500981453593841
 30
0.0
 11
30.74199999996925
 21
4.940981453593762
 31
0.0
  0
LINE
  5
B732
330
B712
100
AcDbEntity
  8
0
  6
CONTINUOUS
100
AcDbLine
 10
26.50763775544691
 20
0.0330999999912356
 30
0.0
 11
27.85763775544689
 21
1.383099999991223
 31
0.0
  0
LINE
  5
B733
330
B712
100
AcDbEntity
  8
0
  6
CONTINUOUS
100
AcDbLine
 10
29.30199999996933
 20
2.827462244513656
 30
0.0
 11
30.74199999996925
 21
4.267462244513574
 31
0.0
  0
LINE
  5
B734
330
B712
100
AcDbEntity
  8
0
  6
CONTINUOUS
100
AcDbLine
 10
27.18115696452709
 20
0.0330999999912356
 30
0.0
 11
28.55073879889363
 21
1.402681834357775
 31
0.0
  0
LINE
  5
B735
330
B712
100
AcDbEntity
  8
0
  6
CONTINUOUS
100
AcDbLine
 10
29.28241816560272
 20
2.134361201066866
 30
0.0
 11
30.74199999996924
 21
3.593943035433383
 31
0.0
  0
LINE
  5
B736
330
B712
100
AcDbEntity
  8
0
  6
CONTINUOUS
100
AcDbLine
 10
27.85467617360728
 20
0.0330999999912356
 30
0.0
 11
30.74199999996924
 21
2.920423826353195
 31
0.0
  0
LINE
  5
B737
330
B712
100
AcDbEntity
  8
0
  6
CONTINUOUS
100
AcDbLine
 10
28.53897559587887
 20
0.0438802131826428
 30
0.0
 11
30.73121978677781
 21
2.236124404081585
 31
0.0
  0
LINE
  5
B738
330
B712
100
AcDbEntity
  8
0
  6
CONTINUOUS
100
AcDbLine
 10
29.45140055588722
 20
0.2827859641107988
 30
0.0
 11
30.49231403584965
 21
1.323699444073236
 31
0.0
  0
LINE
  5
B739
330
B712
100
AcDbEntity
  8
0
  6
CONTINUOUS
100
AcDbLine
 10
19.59027867740337
 20
-0.0000967065718083
 30
0.0
 11
19.55485265190471
 21
0.035329318926844
 31
0.0
  0
LINE
  5
B73A
330
B712
100
AcDbEntity
  8
0
  6
CONTINUOUS
100
AcDbLine
 10
20.26375463176586
 20
-0.0000534518541091
 30
0.0
 11
19.76305575737534
 21
0.5006454225364014
 31
0.0
  0
LINE
  5
B73B
330
B712
100
AcDbEntity
  8
0
  6
CONTINUOUS
100
AcDbLine
 10
20.93723058612834
 20
-0.0000101971364099
 30
0.0
 11
19.97125886284597
 21
0.965961526145958
 31
0.0
  0
LINE
  5
B73C
330
B712
100
AcDbEntity
  8
0
  6
CONTINUOUS
100
AcDbLine
 10
21.25514828313686
 20
0.355591314935257
 30
0.0
 11
20.1794619683166
 21
1.431277629755512
 31
0.0
  0
LINE
  5
B73D
330
B712
100
AcDbEntity
  8
0
  6
CONTINUOUS
100
AcDbLine
 10
21.46338838394921
 20
0.8208704232030986
 30
0.0
 11
20.38766507378723
 21
1.896593733365069
 31
0.0
  0
LINE
  5
B73E
330
B712
100
AcDbEntity
  8
0
  6
CONTINUOUS
100
AcDbLine
 10
21.67162848476155
 20
1.28614953147094
 30
0.0
 11
20.59586817925786
 21
2.361909836974626
 31
0.0
  0
LINE
  5
B73F
330
B712
100
AcDbEntity
  8
0
  6
CONTINUOUS
100
AcDbLine
 10
21.8798685855739
 20
1.751428639738782
 30
0.0
 11
20.80407128472849
 21
2.827225940584183
 31
0.0
  0
LINE
  5
B740
330
B712
100
AcDbEntity
  8
0
  6
CONTINUOUS
100
AcDbLine
 10
22.08810868638624
 20
2.216707748006623
 30
0.0
 11
21.01227439019912
 21
3.292542044193739
 31
0.0
  0
LINE
  5
B741
330
B712
100
AcDbEntity
  8
0
  6
CONTINUOUS
100
AcDbLine
 10
22.60993564347543
 20
2.36839999999762
 30
0.0
 11
21.22047749566975
 21
3.757858147803296
 31
0.0
  0
LINE
  5
B742
330
B712
100
AcDbEntity
  8
0
  6
CONTINUOUS
100
AcDbLine
 10
23.28345485255561
 20
2.36839999999762
 30
0.0
 11
21.42868060114038
 21
4.223174251412853
 31
0.0
  0
LINE
  5
B743
330
B712
100
AcDbEntity
  8
0
  6
CONTINUOUS
100
AcDbLine
 10
26.29227406164219
 20
0.0330999999912356
 30
0.0
 11
25.80009199592872
 21
0.5252820657046957
 31
0.0
  0
LINE
  5
B744
330
B712
100
AcDbEntity
  8
0
  6
CONTINUOUS
100
AcDbLine
 10
23.9569740616358
 20
2.36839999999762
 30
0.0
 11
21.63688370661101
 21
4.688490355022409
 31
0.0
  0
LINE
  5
B745
330
B712
100
AcDbEntity
  8
0
  6
CONTINUOUS
100
AcDbLine
 10
26.96579327072237
 20
0.0330999999912356
 30
0.0
 11
25.2554132311971
 21
1.743480039516508
 31
0.0
  0
LINE
  5
B746
330
B712
100
AcDbEntity
  8
0
  6
CONTINUOUS
100
AcDbLine
 10
24.63049327071599
 20
2.36839999999762
 30
0.0
 11
23.32789327071731
 21
3.670999999996297
 31
0.0
  0
LINE
  5
B747
330
B712
100
AcDbEntity
  8
0
  6
CONTINUOUS
100
AcDbLine
 10
22.92098674744635
 20
4.077906523267254
 30
0.0
 11
21.84508681208164
 21
5.153806458631966
 31
0.0
  0
LINE
  5
B748
330
B712
100
AcDbEntity
  8
0
  6
CONTINUOUS
100
AcDbLine
 10
27.63931247980256
 20
0.0330999999912356
 30
0.0
 11
24.0014124797975
 21
3.670999999996297
 31
0.0
  0
LINE
  5
B749
330
B712
100
AcDbEntity
  8
0
  6
CONTINUOUS
100
AcDbLine
 10
23.129125600968
 20
4.5432868788258
 30
0.0
 11
22.05328991755227
 21
5.619122562241522
 31
0.0
  0
LINE
  5
B74A
330
B712
100
AcDbEntity
  8
0
  6
CONTINUOUS
100
AcDbLine
 10
28.31283168888275
 20
0.0330999999912356
 30
0.0
 11
24.16488385994816
 21
4.181047828925828
 31
0.0
  0
LINE
  5
B74B
330
B712
100
AcDbEntity
  8
0
  6
CONTINUOUS
100
AcDbLine
 10
23.33726445448964
 20
5.008667234384345
 30
0.0
 11
22.2614930230229
 21
6.084438665851079
 31
0.0
  0
LINE
  5
B74C
330
B712
100
AcDbEntity
  8
0
  6
CONTINUOUS
100
AcDbLine
 10
28.92085740005492
 20
0.0985934978992438
 30
0.0
 11
27.63635089796295
 21
1.383099999991217
 31
0.0
  0
LINE
  5
B74D
330
B712
100
AcDbEntity
  8
0
  6
CONTINUOUS
100
AcDbLine
 10
26.43704649509776
 20
2.582404402856405
 30
0.0
 11
23.61992702019732
 21
5.399523877756844
 31
0.0
  0
LINE
  5
B74E
330
B712
100
AcDbEntity
  8
0
  6
CONTINUOUS
100
AcDbLine
 10
23.54540330801128
 20
5.47404758994289
 30
0.0
 11
22.46969612849353
 21
6.549754769460635
 31
0.0
  0
LINE
  5
B74F
330
B712
100
AcDbEntity
  8
0
  6
CONTINUOUS
100
AcDbLine
 10
29.42225615078443
 20
0.2707139562499279
 30
0.0
 11
28.30987010704312
 21
1.383099999991234
 31
0.0
  0
LINE
  5
B750
330
B712
100
AcDbEntity
  8
0
  6
CONTINUOUS
100
AcDbLine
 10
25.89179548232307
 20
3.801174624711282
 30
0.0
 11
22.67789923396416
 21
7.015070873070191
 31
0.0
  0
LINE
  5
B751
330
B712
100
AcDbEntity
  8
0
  6
CONTINUOUS
100
AcDbLine
 10
29.83624534690007
 20
0.5302439692144705
 30
0.0
 11
28.85811781497101
 21
1.508371501143527
 31
0.0
  0
LINE
  5
B752
330
B712
100
AcDbEntity
  8
0
  6
CONTINUOUS
100
AcDbLine
 10
25.34654446954838
 20
5.01994484656616
 30
0.0
 11
22.88610233943479
 21
7.480386976679748
 31
0.0
  0
LINE
  5
B753
330
B712
100
AcDbEntity
  8
0
  6
CONTINUOUS
100
AcDbLine
 10
30.17865975401872
 20
0.8613487711760022
 30
0.0
 11
29.18888744090175
 21
1.851121084292977
 31
0.0
  0
LINE
  5
B754
330
B712
100
AcDbEntity
  8
0
  6
CONTINUOUS
100
AcDbLine
 10
24.80129345677369
 20
6.238715068421037
 30
0.0
 11
23.09430544490542
 21
7.945703080289305
 31
0.0
  0
LINE
  5
B755
330
B712
100
AcDbEntity
  8
0
  6
CONTINUOUS
100
AcDbLine
 10
30.45496647202376
 20
1.258561262251155
 30
0.0
 11
29.30199999996933
 21
2.411527734305588
 31
0.0
  0
LINE
  5
B756
330
B712
100
AcDbEntity
  8
0
  6
CONTINUOUS
100
AcDbLine
 10
24.256042443999
 20
7.457485290275915
 30
0.0
 11
23.30250855037605
 21
8.411019183898862
 31
0.0
  0
LINE
  5
B757
330
B712
100
AcDbEntity
  8
0
  6
CONTINUOUS
100
AcDbLine
 10
30.64868582078271
 20
1.738361122572387
 30
0.0
 11
29.30199999996933
 21
3.085046943385775
 31
0.0
  0
LINE
  5
B758
330
B712
100
AcDbEntity
  8
0
  6
CONTINUOUS
100
AcDbLine
 10
23.71079143122431
 20
8.676255512130794
 30
0.0
 11
23.51071165584668
 21
8.876335287508416
 31
0.0
  0
LINE
  5
B759
330
B712
100
AcDbEntity
  8
0
  6
CONTINUOUS
100
AcDbLine
 10
30.73802122914428
 20
2.322544923291007
 30
0.0
 11
29.30199999996933
 21
3.758566152465961
 31
0.0
  0
LINE
  5
B75A
330
B712
100
AcDbEntity
  8
0
  6
CONTINUOUS
100
AcDbLine
 10
30.74199999996924
 20
2.992085361546236
 30
0.0
 11
29.30199999996933
 21
4.432085361546148
 31
0.0
  0
LINE
  5
B75B
330
B712
100
AcDbEntity
  8
0
  6
CONTINUOUS
100
AcDbLine
 10
30.74199999996924
 20
3.665604570626419
 30
0.0
 11
29.30199999996933
 21
5.105604570626333
 31
0.0
  0
LINE
  5
B75C
330
B712
100
AcDbEntity
  8
0
  6
CONTINUOUS
100
AcDbLine
 10
30.74199999996925
 20
4.339123779706602
 30
0.0
 11
29.30199999996933
 21
5.77912377970652
 31
0.0
  0
LINE
  5
B75D
330
B712
100
AcDbEntity
  8
0
  6
CONTINUOUS
100
AcDbLine
 10
30.74199999996925
 20
5.012642988786785
 30
0.0
 11
29.30199999996933
 21
6.452642988786707
 31
0.0
  0
LINE
  5
B75E
330
B712
100
AcDbEntity
  8
0
  6
CONTINUOUS
100
AcDbLine
 10
30.74199999996925
 20
5.68616219786697
 30
0.0
 11
29.30199999996933
 21
7.126162197866894
 31
0.0
  0
LINE
  5
B75F
330
B712
100
AcDbEntity
  8
0
  6
CONTINUOUS
100
AcDbLine
 10
30.74199999996925
 20
6.359681406947153
 30
0.0
 11
29.30199999996933
 21
7.799681406947081
 31
0.0
  0
LINE
  5
B760
330
B712
100
AcDbEntity
  8
0
  6
CONTINUOUS
100
AcDbLine
 10
30.74199999996926
 20
7.033200616027337
 30
0.0
 11
29.30199999996933
 21
8.473200616027269
 31
0.0
  0
LINE
  5
B761
330
B712
100
AcDbEntity
  8
0
  6
CONTINUOUS
100
AcDbLine
 10
30.74199999996926
 20
7.706719825107518
 30
0.0
 11
29.68561982508552
 21
8.763099999991255
 31
0.0
  0
LINE
  5
B762
330
B712
100
AcDbEntity
  8
0
  6
CONTINUOUS
100
AcDbLine
 10
30.74199999996926
 20
8.380239034187703
 30
0.0
 11
30.35913903416571
 21
8.763099999991255
 31
0.0
  0
ENDBLK
  5
B805
330
B712
100
AcDbEntity
  8
0
100
AcDbBlockEnd
  0
BLOCK
  5
B806
330
B763
100
AcDbEntity
  8
0
100
AcDbBlockBegin
  2
*X27
 70
     1
 10
0.0
 20
0.0
 30
0.0
  3
*X27
  1

  0
LINE
  5
B764
330
B763
100
AcDbEntity
  8
0
  6
CONTINUOUS
100
AcDbLine
 10
31.64199999996833
 20
8.535058289913598
 30
0.0
 11
31.87004171004599
 21
8.763099999991255
 31
0.0
  0
LINE
  5
B765
330
B763
100
AcDbEntity
  8
0
  6
CONTINUOUS
100
AcDbLine
 10
31.64199999996833
 20
7.861539080833412
 30
0.0
 11
32.54356091912618
 21
8.763099999991255
 31
0.0
  0
LINE
  5
B766
330
B763
100
AcDbEntity
  8
0
  6
CONTINUOUS
100
AcDbLine
 10
31.64199999996833
 20
7.188019871753226
 30
0.0
 11
33.08199999996839
 21
8.628019871753281
 31
0.0
  0
LINE
  5
B767
330
B763
100
AcDbEntity
  8
0
  6
CONTINUOUS
100
AcDbLine
 10
31.64199999996833
 20
6.51450066267304
 30
0.0
 11
33.08199999996839
 21
7.954500662673095
 31
0.0
  0
LINE
  5
B768
330
B763
100
AcDbEntity
  8
0
  6
CONTINUOUS
100
AcDbLine
 10
31.64199999996833
 20
5.840981453592853
 30
0.0
 11
33.08199999996839
 21
7.280981453592908
 31
0.0
  0
LINE
  5
B769
330
B763
100
AcDbEntity
  8
0
  6
CONTINUOUS
100
AcDbLine
 10
31.64199999996833
 20
5.167462244512667
 30
0.0
 11
33.08199999996839
 21
6.607462244512721
 31
0.0
  0
LINE
  5
B76A
330
B763
100
AcDbEntity
  8
0
  6
CONTINUOUS
100
AcDbLine
 10
31.64199999996833
 20
4.493943035432481
 30
0.0
 11
33.08199999996839
 21
5.933943035432535
 31
0.0
  0
LINE
  5
B76B
330
B763
100
AcDbEntity
  8
0
  6
CONTINUOUS
100
AcDbLine
 10
31.64199999996833
 20
3.820423826352293
 30
0.0
 11
33.08199999996839
 21
5.260423826352348
 31
0.0
  0
LINE
  5
B76C
330
B763
100
AcDbEntity
  8
0
  6
CONTINUOUS
100
AcDbLine
 10
31.64199999996833
 20
3.146904617272106
 30
0.0
 11
33.08199999996839
 21
4.586904617272161
 31
0.0
  0
LINE
  5
B76D
330
B763
100
AcDbEntity
  8
0
  6
CONTINUOUS
100
AcDbLine
 10
36.23199999996837
 20
8.410423826352325
 30
0.0
 11
36.5846761736073
 21
8.763099999991255
 31
0.0
  0
LINE
  5
B76E
330
B763
100
AcDbEntity
  8
0
  6
CONTINUOUS
100
AcDbLine
 10
36.23199999996837
 20
7.73690461727214
 30
0.0
 11
37.25819538268748
 21
8.763099999991255
 31
0.0
  0
LINE
  5
B76F
330
B763
100
AcDbEntity
  8
0
  6
CONTINUOUS
100
AcDbLine
 10
31.64257403601376
 20
2.473959444237348
 30
0.0
 11
33.08199999996839
 21
3.913385408191974
 31
0.0
  0
LINE
  5
B770
330
B763
100
AcDbEntity
  8
0
  6
CONTINUOUS
100
AcDbLine
 10
36.23199999996837
 20
7.063385408191953
 30
0.0
 11
37.67199999996831
 21
8.503385408191894
 31
0.0
  0
LINE
  5
B771
330
B763
100
AcDbEntity
  8
0
  6
CONTINUOUS
100
AcDbLine
 10
31.72013636841932
 20
1.87800256756272
 30
0.0
 11
33.08199999996839
 21
3.239866199111788
 31
0.0
  0
LINE
  5
B772
330
B763
100
AcDbEntity
  8
0
  6
CONTINUOUS
100
AcDbLine
 10
36.23199999996837
 20
6.389866199111767
 30
0.0
 11
37.67199999996831
 21
7.829866199111708
 31
0.0
  0
LINE
  5
B773
330
B763
100
AcDbEntity
  8
0
  6
CONTINUOUS
100
AcDbLine
 10
31.89042734314753
 20
1.374774333210744
 30
0.0
 11
33.08199999996839
 21
2.566346990031601
 31
0.0
  0
LINE
  5
B774
330
B763
100
AcDbEntity
  8
0
  6
CONTINUOUS
100
AcDbLine
 10
36.23199999996837
 20
5.71634699003158
 30
0.0
 11
37.67199999996831
 21
7.156346990031521
 31
0.0
  0
LINE
  5
B775
330
B763
100
AcDbEntity
  8
0
  6
CONTINUOUS
100
AcDbLine
 10
32.14210568064475
 20
0.952933461627778
 30
0.0
 11
33.18745552475986
 21
1.998283305742888
 31
0.0
  0
LINE
  5
B776
330
B763
100
AcDbEntity
  8
0
  6
CONTINUOUS
100
AcDbLine
 10
36.23199999996837
 20
5.042827780951393
 30
0.0
 11
37.67199999996831
 21
6.482827780951334
 31
0.0
  0
LINE
  5
B777
330
B763
100
AcDbEntity
  8
0
  6
CONTINUOUS
100
AcDbLine
 10
32.45820639400955
 20
0.5955149659123915
 30
0.0
 11
33.47242681921943
 21
1.60973539112227
 31
0.0
  0
LINE
  5
B778
330
B763
100
AcDbEntity
  8
0
  6
CONTINUOUS
100
AcDbLine
 10
36.23199999996837
 20
4.369308571871207
 30
0.0
 11
37.67199999996831
 21
5.809308571871147
 31
0.0
  0
LINE
  5
B779
330
B763
100
AcDbEntity
  8
0
  6
CONTINUOUS
100
AcDbLine
 10
32.83432456621412
 20
0.2981139290367771
 30
0.0
 11
33.89722476612215
 21
1.361014128944803
 31
0.0
  0
LINE
  5
B77A
330
B763
100
AcDbEntity
  8
0
  6
CONTINUOUS
100
AcDbLine
 10
36.23199999996837
 20
3.69578936279102
 30
0.0
 11
37.67199999996831
 21
5.135789362790962
 31
0.0
  0
LINE
  5
B77B
330
B763
100
AcDbEntity
  8
0
  6
CONTINUOUS
100
AcDbLine
 10
33.2711633111245
 20
0.0614334648669672
 30
0.0
 11
34.43247338014423
 21
1.222743533886696
 31
0.0
  0
LINE
  5
B77C
330
B763
100
AcDbEntity
  8
0
  6
CONTINUOUS
100
AcDbLine
 10
36.23199999996837
 20
3.022270153710834
 30
0.0
 11
37.67199999996831
 21
4.462270153710775
 31
0.0
  0
LINE
  5
B77D
330
B763
100
AcDbEntity
  8
0
  6
CONTINUOUS
100
AcDbLine
 10
33.76515245874577
 20
-0.1180965965919523
 30
0.0
 11
35.1587445516215
 21
1.27549549628378
 31
0.0
  0
LINE
  5
B77E
330
B763
100
AcDbEntity
  8
0
  6
CONTINUOUS
100
AcDbLine
 10
36.21639478609585
 20
2.333145730758136
 30
0.0
 11
37.67199999996831
 21
3.788750944630588
 31
0.0
  0
LINE
  5
B77F
330
B763
100
AcDbEntity
  8
0
  6
CONTINUOUS
100
AcDbLine
 10
34.34060583368432
 20
-0.2161624307335863
 30
0.0
 11
37.67199999996831
 21
3.115231735550401
 31
0.0
  0
LINE
  5
B780
330
B763
100
AcDbEntity
  8
0
  6
CONTINUOUS
100
AcDbLine
 10
35.01698193613905
 20
-0.2133055373590427
 30
0.0
 11
37.66876712070525
 21
2.438479647207154
 31
0.0
  0
LINE
  5
B781
330
B763
100
AcDbEntity
  8
0
  6
CONTINUOUS
100
AcDbLine
 10
35.90743367693304
 20
0.0036269943547609
 30
0.0
 11
37.51723902192366
 21
1.613432339345381
 31
0.0
  0
LINE
  5
B782
330
B763
100
AcDbEntity
  8
0
  6
CONTINUOUS
100
AcDbLine
 10
32.55309425579761
 20
0.5074718966376706
 30
0.0
 11
32.27784730925847
 21
0.7827188431768102
 31
0.0
  0
LINE
  5
B783
330
B763
100
AcDbEntity
  8
0
  6
CONTINUOUS
100
AcDbLine
 10
33.87496468909684
 20
-0.1408793275813673
 30
0.0
 11
31.67993083278052
 21
2.054154528734943
 31
0.0
  0
LINE
  5
B784
330
B763
100
AcDbEntity
  8
0
  6
CONTINUOUS
100
AcDbLine
 10
34.64362813207632
 20
-0.2360235614806649
 30
0.0
 11
31.64199999996833
 21
2.765604570627322
 31
0.0
  0
LINE
  5
B785
330
B763
100
AcDbEntity
  8
0
  6
CONTINUOUS
100
AcDbLine
 10
35.25801106796118
 20
-0.1768872882853429
 30
0.0
 11
31.64199999996833
 21
3.439123779707508
 31
0.0
  0
LINE
  5
B786
330
B763
100
AcDbEntity
  8
0
  6
CONTINUOUS
100
AcDbLine
 10
35.79065650332146
 20
-0.0360135145654361
 30
0.0
 11
34.54143210838231
 21
1.213210880373721
 31
0.0
  0
LINE
  5
B787
330
B763
100
AcDbEntity
  8
0
  6
CONTINUOUS
100
AcDbLine
 10
33.08199999996839
 20
2.67264298878764
 30
0.0
 11
31.64199999996833
 21
4.112642988787695
 31
0.0
  0
LINE
  5
B788
330
B763
100
AcDbEntity
  8
0
  6
CONTINUOUS
100
AcDbLine
 10
36.25975597779143
 20
0.1684062200447833
 30
0.0
 11
35.15395110240023
 21
1.274211095435983
 31
0.0
  0
LINE
  5
B789
330
B763
100
AcDbEntity
  8
0
  6
CONTINUOUS
100
AcDbLine
 10
33.08199999996839
 20
3.346162197867826
 30
0.0
 11
31.64199999996833
 21
4.786162197867881
 31
0.0
  0
LINE
  5
B78A
330
B763
100
AcDbEntity
  8
0
  6
CONTINUOUS
100
AcDbLine
 10
36.67226329638774
 20
0.4294181105286579
 30
0.0
 11
35.63766478748767
 21
1.464016619428737
 31
0.0
  0
LINE
  5
B78B
330
B763
100
AcDbEntity
  8
0
  6
CONTINUOUS
100
AcDbLine
 10
33.08199999996839
 20
4.019681406948012
 30
0.0
 11
31.64199999996833
 21
5.459681406948068
 31
0.0
  0
LINE
  5
B78C
330
B763
100
AcDbEntity
  8
0
  6
CONTINUOUS
100
AcDbLine
 10
37.01677749710036
 20
0.7584231188962329
 30
0.0
 11
35.99563422741351
 21
1.779566388583076
 31
0.0
  0
LINE
  5
B78D
330
B763
100
AcDbEntity
  8
0
  6
CONTINUOUS
100
AcDbLine
 10
33.08199999996839
 20
4.693200616028199
 30
0.0
 11
31.64199999996833
 21
6.133200616028255
 31
0.0
  0
LINE
  5
B78E
330
B763
100
AcDbEntity
  8
0
  6
CONTINUOUS
100
AcDbLine
 10
37.29859977568887
 20
1.1501200493879
 30
0.0
 11
36.20680593341555
 21
2.241913891661226
 31
0.0
  0
LINE
  5
B78F
330
B763
100
AcDbEntity
  8
0
  6
CONTINUOUS
100
AcDbLine
 10
33.08199999996839
 20
5.366719825108386
 30
0.0
 11
31.64199999996833
 21
6.80671982510844
 31
0.0
  0
LINE
  5
B790
330
B763
100
AcDbEntity
  8
0
  6
CONTINUOUS
100
AcDbLine
 10
37.5148623517228
 20
1.607376682434161
 30
0.0
 11
36.23199999996837
 21
2.890239034188594
 31
0.0
  0
LINE
  5
B791
330
B763
100
AcDbEntity
  8
0
  6
CONTINUOUS
100
AcDbLine
 10
33.08199999996839
 20
6.040239034188573
 30
0.0
 11
31.64199999996833
 21
7.480239034188627
 31
0.0
  0
LINE
  5
B792
330
B763
100
AcDbEntity
  8
0
  6
CONTINUOUS
100
AcDbLine
 10
37.64705163358367
 20
2.148706609653477
 30
0.0
 11
36.23199999996837
 21
3.56375824326878
 31
0.0
  0
LINE
  5
B793
330
B763
100
AcDbEntity
  8
0
  6
CONTINUOUS
100
AcDbLine
 10
33.08199999996839
 20
6.713758243268758
 30
0.0
 11
31.64199999996833
 21
8.153758243268815
 31
0.0
  0
LINE
  5
B794
330
B763
100
AcDbEntity
  8
0
  6
CONTINUOUS
100
AcDbLine
 10
37.67199999996831
 20
2.797277452349026
 30
0.0
 11
36.23199999996837
 21
4.237277452348967
 31
0.0
  0
LINE
  5
B795
330
B763
100
AcDbEntity
  8
0
  6
CONTINUOUS
100
AcDbLine
 10
37.67199999996831
 20
3.470796661429213
 30
0.0
 11
36.23199999996837
 21
4.910796661429154
 31
0.0
  0
LINE
  5
B796
330
B763
100
AcDbEntity
  8
0
  6
CONTINUOUS
100
AcDbLine
 10
37.67199999996831
 20
4.144315870509399
 30
0.0
 11
36.23199999996837
 21
5.58431587050934
 31
0.0
  0
LINE
  5
B797
330
B763
100
AcDbEntity
  8
0
  6
CONTINUOUS
100
AcDbLine
 10
33.08199999996839
 20
7.387277452348945
 30
0.0
 11
31.70617745232608
 21
8.763099999991255
 31
0.0
  0
LINE
  5
B798
330
B763
100
AcDbEntity
  8
0
  6
CONTINUOUS
100
AcDbLine
 10
33.08199999996839
 20
8.060796661429132
 30
0.0
 11
32.37969666140626
 21
8.763099999991255
 31
0.0
  0
LINE
  5
B799
330
B763
100
AcDbEntity
  8
0
  6
CONTINUOUS
100
AcDbLine
 10
33.08199999996839
 20
8.734315870509318
 30
0.0
 11
33.05321587048645
 21
8.763099999991255
 31
0.0
  0
LINE
  5
B79A
330
B763
100
AcDbEntity
  8
0
  6
CONTINUOUS
100
AcDbLine
 10
37.67199999996831
 20
4.817835079589585
 30
0.0
 11
36.23199999996837
 21
6.257835079589526
 31
0.0
  0
LINE
  5
B79B
330
B763
100
AcDbEntity
  8
0
  6
CONTINUOUS
100
AcDbLine
 10
37.67199999996831
 20
5.491354288669771
 30
0.0
 11
36.23199999996837
 21
6.931354288669713
 31
0.0
  0
LINE
  5
B79C
330
B763
100
AcDbEntity
  8
0
  6
CONTINUOUS
100
AcDbLine
 10
37.67199999996831
 20
6.164873497749958
 30
0.0
 11
36.23199999996837
 21
7.6048734977499
 31
0.0
  0
LINE
  5
B79D
330
B763
100
AcDbEntity
  8
0
  6
CONTINUOUS
100
AcDbLine
 10
37.67199999996831
 20
6.838392706830144
 30
0.0
 11
36.23199999996837
 21
8.278392706830086
 31
0.0
  0
LINE
  5
B79E
330
B763
100
AcDbEntity
  8
0
  6
CONTINUOUS
100
AcDbLine
 10
37.67199999996831
 20
7.511911915910332
 30
0.0
 11
36.42081191588738
 21
8.763099999991255
 31
0.0
  0
LINE
  5
B79F
330
B763
100
AcDbEntity
  8
0
  6
CONTINUOUS
100
AcDbLine
 10
37.67199999996831
 20
8.185431124990519
 30
0.0
 11
37.09433112496757
 21
8.763099999991255
 31
0.0
  0
ENDBLK
  5
B807
330
B763
100
AcDbEntity
  8
0
100
AcDbBlockEnd
  0
BLOCK
  5
B808
330
B7A0
100
AcDbEntity
  8
0
100
AcDbBlockBegin
  2
*X28
 70
     1
 10
0.0
 20
0.0
 30
0.0
  3
*X28
  1

  0
LINE
  5
B7A1
330
B7A0
100
AcDbEntity
  8
0
  6
CONTINUOUS
100
AcDbLine
 10
38.60499999996136
 20
8.762866199104765
 30
0.0
 11
38.71672554182345
 21
8.874591740966855
 31
0.0
  0
LINE
  5
B7A2
330
B7A0
100
AcDbEntity
  8
0
  6
CONTINUOUS
100
AcDbLine
 10
38.60499999996136
 20
8.089346990024577
 30
0.0
 11
39.03418785440363
 21
8.518534844466847
 31
0.0
  0
LINE
  5
B7A3
330
B7A0
100
AcDbEntity
  8
0
  6
CONTINUOUS
100
AcDbLine
 10
38.60499999996136
 20
7.41582778094439
 30
0.0
 11
39.35165016698382
 21
8.16247794796684
 31
0.0
  0
LINE
  5
B7A4
330
B7A0
100
AcDbEntity
  8
0
  6
CONTINUOUS
100
AcDbLine
 10
38.60499999996136
 20
6.742308571864204
 30
0.0
 11
39.66911247956399
 21
7.806421051466834
 31
0.0
  0
LINE
  5
B7A5
330
B7A0
100
AcDbEntity
  8
0
  6
CONTINUOUS
100
AcDbLine
 10
38.60499999996136
 20
6.068789362784018
 30
0.0
 11
39.98657479214418
 21
7.450364154966827
 31
0.0
  0
LINE
  5
B7A6
330
B7A0
100
AcDbEntity
  8
0
  6
CONTINUOUS
100
AcDbLine
 10
38.60499999996136
 20
5.395270153703832
 30
0.0
 11
40.30403710472435
 21
7.09430725846682
 31
0.0
  0
LINE
  5
B7A7
330
B7A0
100
AcDbEntity
  8
0
  6
CONTINUOUS
100
AcDbLine
 10
38.60499999996136
 20
4.721750944623645
 30
0.0
 11
40.62149941730453
 21
6.738250361966813
 31
0.0
  0
LINE
  5
B7A8
330
B7A0
100
AcDbEntity
  8
0
  6
CONTINUOUS
100
AcDbLine
 10
38.60499999996136
 20
4.048231735543458
 30
0.0
 11
40.93896172988471
 21
6.382193465466806
 31
0.0
  0
LINE
  5
B7A9
330
B7A0
100
AcDbEntity
  8
0
  6
CONTINUOUS
100
AcDbLine
 10
38.60499999996136
 20
3.374712526463272
 30
0.0
 11
40.02599999995994
 21
4.795712526461843
 31
0.0
  0
LINE
  5
B7AA
330
B7A0
100
AcDbEntity
  8
0
  6
CONTINUOUS
100
AcDbLine
 10
38.60499999996136
 20
2.701193317383085
 30
0.0
 11
40.02599999995994
 21
4.122193317381657
 31
0.0
  0
LINE
  5
B7AB
330
B7A0
100
AcDbEntity
  8
0
  6
CONTINUOUS
100
AcDbLine
 10
40.28339754687704
 20
5.053110073378947
 30
0.0
 11
41.25642404246489
 21
6.026136568966799
 31
0.0
  0
LINE
  5
B7AC
330
B7A0
100
AcDbEntity
  8
0
  6
CONTINUOUS
100
AcDbLine
 10
40.60085985945722
 20
4.697053176878939
 30
0.0
 11
41.57388635504507
 21
5.670079672466793
 31
0.0
  0
LINE
  5
B7AD
330
B7A0
100
AcDbEntity
  8
0
  6
CONTINUOUS
100
AcDbLine
 10
43.57899999995641
 20
8.348712526458318
 30
0.0
 11
43.99338747348935
 21
8.763099999991255
 31
0.0
  0
LINE
  5
B7AE
330
B7A0
100
AcDbEntity
  8
0
  6
CONTINUOUS
100
AcDbLine
 10
43.57899999995641
 20
7.675193317378131
 30
0.0
 11
44.66690668256953
 21
8.763099999991255
 31
0.0
  0
LINE
  5
B7AF
330
B7A0
100
AcDbEntity
  8
0
  6
CONTINUOUS
100
AcDbLine
 10
38.60499999996136
 20
2.027674108302898
 30
0.0
 11
40.02599999995994
 21
3.44867410830147
 31
0.0
  0
LINE
  5
B7B0
330
B7A0
100
AcDbEntity
  8
0
  6
CONTINUOUS
100
AcDbLine
 10
38.60499999996136
 20
1.354154899222712
 30
0.0
 11
40.02599999995994
 21
2.775154899221284
 31
0.0
  0
LINE
  5
B7B1
330
B7A0
100
AcDbEntity
  8
0
  6
CONTINUOUS
100
AcDbLine
 10
38.60499999996136
 20
0.6806356901425255
 30
0.0
 11
40.02599999995994
 21
2.101635690141098
 31
0.0
  0
LINE
  5
B7B2
330
B7A0
100
AcDbEntity
  8
0
  6
CONTINUOUS
100
AcDbLine
 10
38.60499999996136
 20
0.0071164810623383
 30
0.0
 11
40.02599999995994
 21
1.428116481060911
 31
0.0
  0
LINE
  5
B7B3
330
B7A0
100
AcDbEntity
  8
0
  6
CONTINUOUS
100
AcDbLine
 10
40.9183221720374
 20
4.340996280378933
 30
0.0
 11
41.89134866762525
 21
5.314022775966786
 31
0.0
  0
LINE
  5
B7B4
330
B7A0
100
AcDbEntity
  8
0
  6
CONTINUOUS
100
AcDbLine
 10
41.23578448461758
 20
3.984939383878926
 30
0.0
 11
42.20881098020543
 21
4.957965879466778
 31
0.0
  0
LINE
  5
B7B5
330
B7A0
100
AcDbEntity
  8
0
  6
CONTINUOUS
100
AcDbLine
 10
41.55324679719776
 20
3.628882487378919
 30
0.0
 11
42.52627329278561
 21
4.601908982966772
 31
0.0
  0
LINE
  5
B7B6
330
B7A0
100
AcDbEntity
  8
0
  6
CONTINUOUS
100
AcDbLine
 10
41.87070910977793
 20
3.272825590878912
 30
0.0
 11
42.84373560536579
 21
4.245852086466765
 31
0.0
  0
LINE
  5
B7B7
330
B7A0
100
AcDbEntity
  8
0
  6
CONTINUOUS
100
AcDbLine
 10
43.57899999995641
 20
7.001674108297943
 30
0.0
 11
44.99999999995498
 21
8.422674108296516
 31
0.0
  0
LINE
  5
B7B8
330
B7A0
100
AcDbEntity
  8
0
  6
CONTINUOUS
100
AcDbLine
 10
43.57899999995641
 20
6.328154899217758
 30
0.0
 11
44.99999999995498
 21
7.749154899216329
 31
0.0
  0
LINE
  5
B7B9
330
B7A0
100
AcDbEntity
  8
0
  6
CONTINUOUS
100
AcDbLine
 10
43.57899999995641
 20
5.654635690137571
 30
0.0
 11
44.99999999995498
 21
7.075635690136142
 31
0.0
  0
LINE
  5
B7BA
330
B7A0
100
AcDbEntity
  8
0
  6
CONTINUOUS
100
AcDbLine
 10
43.57899999995641
 20
4.981116481057384
 30
0.0
 11
44.99999999995498
 21
6.402116481055955
 31
0.0
  0
LINE
  5
B7BB
330
B7A0
100
AcDbEntity
  8
0
  6
CONTINUOUS
100
AcDbLine
 10
39.27140272797921
 20
-0.0000000000000009
 30
0.0
 11
40.02599999995994
 21
0.7545972719807246
 31
0.0
  0
LINE
  5
B7BC
330
B7A0
100
AcDbEntity
  8
0
  6
CONTINUOUS
100
AcDbLine
 10
39.9449219370594
 20
-0.0000000000000009
 30
0.0
 11
40.02599999995994
 21
0.0810780629005379
 31
0.0
  0
LINE
  5
B7BD
330
B7A0
100
AcDbEntity
  8
0
  6
CONTINUOUS
100
AcDbLine
 10
42.18817142235812
 20
2.916768694378905
 30
0.0
 11
43.16119791794597
 21
3.889795189966758
 31
0.0
  0
LINE
  5
B7BE
330
B7A0
100
AcDbEntity
  8
0
  6
CONTINUOUS
100
AcDbLine
 10
42.50563373493829
 20
2.560711797878898
 30
0.0
 11
43.47866023052615
 21
3.533738293466751
 31
0.0
  0
LINE
  5
B7BF
330
B7A0
100
AcDbEntity
  8
0
  6
CONTINUOUS
100
AcDbLine
 10
43.57899999995641
 20
4.307597271977198
 30
0.0
 11
44.99999999995498
 21
5.728597271975769
 31
0.0
  0
LINE
  5
B7C0
330
B7A0
100
AcDbEntity
  8
0
  6
CONTINUOUS
100
AcDbLine
 10
43.57899999995641
 20
3.634078062897011
 30
0.0
 11
44.99999999995498
 21
5.055078062895582
 31
0.0
  0
LINE
  5
B7C1
330
B7A0
100
AcDbEntity
  8
0
  6
CONTINUOUS
100
AcDbLine
 10
42.82309604751848
 20
2.204654901378891
 30
0.0
 11
44.99999999995498
 21
4.381558853815395
 31
0.0
  0
LINE
  5
B7C2
330
B7A0
100
AcDbEntity
  8
0
  6
CONTINUOUS
100
AcDbLine
 10
43.14055836009865
 20
1.848598004878885
 30
0.0
 11
44.99999999995498
 21
3.70803964473521
 31
0.0
  0
LINE
  5
B7C3
330
B7A0
100
AcDbEntity
  8
0
  6
CONTINUOUS
100
AcDbLine
 10
43.45802067267883
 20
1.492541108378878
 30
0.0
 11
44.99999999995498
 21
3.034520435655023
 31
0.0
  0
LINE
  5
B7C4
330
B7A0
100
AcDbEntity
  8
0
  6
CONTINUOUS
100
AcDbLine
 10
43.77548298525902
 20
1.136484211878871
 30
0.0
 11
44.99999999995498
 21
2.361001226574837
 31
0.0
  0
LINE
  5
B7C5
330
B7A0
100
AcDbEntity
  8
0
  6
CONTINUOUS
100
AcDbLine
 10
44.09294529783919
 20
0.7804273153788639
 30
0.0
 11
44.99999999995498
 21
1.687482017494649
 31
0.0
  0
LINE
  5
B7C6
330
B7A0
100
AcDbEntity
  8
0
  6
CONTINUOUS
100
AcDbLine
 10
44.41040761041938
 20
0.4243704188788566
 30
0.0
 11
44.99999999995498
 21
1.013962808414463
 31
0.0
  0
LINE
  5
B7C7
330
B7A0
100
AcDbEntity
  8
0
  6
CONTINUOUS
100
AcDbLine
 10
44.72786992299955
 20
0.0683135223788494
 30
0.0
 11
44.99999999995498
 21
0.340443599334276
 31
0.0
  0
LINE
  5
B7C8
330
B7A0
100
AcDbEntity
  8
0
  6
CONTINUOUS
100
AcDbLine
 10
39.12223903415696
 20
-0.0000000000000009
 30
0.0
 11
38.60499999996136
 21
0.5172390341955961
 31
0.0
  0
LINE
  5
B7C9
330
B7A0
100
AcDbEntity
  8
0
  6
CONTINUOUS
100
AcDbLine
 10
39.79575824323715
 20
-0.0000000000000009
 30
0.0
 11
38.60499999996136
 21
1.190758243275783
 31
0.0
  0
LINE
  5
B7CA
330
B7A0
100
AcDbEntity
  8
0
  6
CONTINUOUS
100
AcDbLine
 10
40.02599999995994
 20
0.443277452357397
 30
0.0
 11
38.60499999996136
 21
1.864277452355969
 31
0.0
  0
LINE
  5
B7CB
330
B7A0
100
AcDbEntity
  8
0
  6
CONTINUOUS
100
AcDbLine
 10
40.02599999995994
 20
1.116796661437583
 30
0.0
 11
38.60499999996136
 21
2.537796661436155
 31
0.0
  0
LINE
  5
B7CC
330
B7A0
100
AcDbEntity
  8
0
  6
CONTINUOUS
100
AcDbLine
 10
40.02599999995994
 20
1.79031587051777
 30
0.0
 11
38.60499999996136
 21
3.211315870516341
 31
0.0
  0
LINE
  5
B7CD
330
B7A0
100
AcDbEntity
  8
0
  6
CONTINUOUS
100
AcDbLine
 10
40.02599999995994
 20
2.463835079597956
 30
0.0
 11
38.60499999996136
 21
3.884835079596527
 31
0.0
  0
LINE
  5
B7CE
330
B7A0
100
AcDbEntity
  8
0
  6
CONTINUOUS
100
AcDbLine
 10
40.02599999995994
 20
3.137354288678143
 30
0.0
 11
38.60499999996136
 21
4.558354288676714
 31
0.0
  0
LINE
  5
B7CF
330
B7A0
100
AcDbEntity
  8
0
  6
CONTINUOUS
100
AcDbLine
 10
40.02599999995994
 20
3.810873497758329
 30
0.0
 11
38.60499999996136
 21
5.2318734977569
 31
0.0
  0
LINE
  5
B7D0
330
B7A0
100
AcDbEntity
  8
0
  6
CONTINUOUS
100
AcDbLine
 10
40.02599999995994
 20
4.484392706838515
 30
0.0
 11
38.60499999996136
 21
5.905392706837086
 31
0.0
  0
LINE
  5
B7D1
330
B7A0
100
AcDbEntity
  8
0
  6
CONTINUOUS
100
AcDbLine
 10
44.99999999995498
 20
0.183911915923658
 30
0.0
 11
41.53858364506288
 21
3.64532827081576
 31
0.0
  0
LINE
  5
B7D2
330
B7A0
100
AcDbEntity
  8
0
  6
CONTINUOUS
100
AcDbLine
 10
40.02599999995994
 20
5.157911915918703
 30
0.0
 11
38.60499999996136
 21
6.578911915917274
 31
0.0
  0
LINE
  5
B7D3
330
B7A0
100
AcDbEntity
  8
0
  6
CONTINUOUS
100
AcDbLine
 10
44.99999999995498
 20
0.8574311250038447
 30
0.0
 11
38.60499999996136
 21
7.25243112499746
 31
0.0
  0
LINE
  5
B7D4
330
B7A0
100
AcDbEntity
  8
0
  6
CONTINUOUS
100
AcDbLine
 10
44.99999999995498
 20
1.530950334084031
 30
0.0
 11
38.60499999996136
 21
7.925950334077647
 31
0.0
  0
LINE
  5
B7D5
330
B7A0
100
AcDbEntity
  8
0
  6
CONTINUOUS
100
AcDbLine
 10
44.99999999995498
 20
2.204469543164218
 30
0.0
 11
43.57899999995641
 21
3.625469543162789
 31
0.0
  0
LINE
  5
B7D6
330
B7A0
100
AcDbEntity
  8
0
  6
CONTINUOUS
100
AcDbLine
 10
41.89876730984767
 20
5.305702233271528
 30
0.0
 11
38.60499999996136
 21
8.599469543157834
 31
0.0
  0
LINE
  5
B7D7
330
B7A0
100
AcDbEntity
  8
0
  6
CONTINUOUS
100
AcDbLine
 10
44.99999999995498
 20
2.877988752244405
 30
0.0
 11
43.57899999995641
 21
4.298988752242975
 31
0.0
  0
LINE
  5
B7D8
330
B7A0
100
AcDbEntity
  8
0
  6
CONTINUOUS
100
AcDbLine
 10
44.99999999995498
 20
3.551507961324591
 30
0.0
 11
43.57899999995641
 21
4.972507961323163
 31
0.0
  0
LINE
  5
B7D9
330
B7A0
100
AcDbEntity
  8
0
  6
CONTINUOUS
100
AcDbLine
 10
44.99999999995498
 20
4.225027170404777
 30
0.0
 11
43.57899999995641
 21
5.646027170403348
 31
0.0
  0
LINE
  5
B7DA
330
B7A0
100
AcDbEntity
  8
0
  6
CONTINUOUS
100
AcDbLine
 10
44.99999999995498
 20
4.898546379484964
 30
0.0
 11
43.57899999995641
 21
6.319546379483535
 31
0.0
  0
LINE
  5
B7DB
330
B7A0
100
AcDbEntity
  8
0
  6
CONTINUOUS
100
AcDbLine
 10
44.99999999995498
 20
5.572065588565151
 30
0.0
 11
43.57899999995641
 21
6.993065588563722
 31
0.0
  0
LINE
  5
B7DC
330
B7A0
100
AcDbEntity
  8
0
  6
CONTINUOUS
100
AcDbLine
 10
44.99999999995498
 20
6.245584797645336
 30
0.0
 11
43.57899999995641
 21
7.666584797643908
 31
0.0
  0
LINE
  5
B7DD
330
B7A0
100
AcDbEntity
  8
0
  6
CONTINUOUS
100
AcDbLine
 10
44.99999999995498
 20
6.919104006725522
 30
0.0
 11
43.57899999995641
 21
8.340104006724093
 31
0.0
  0
LINE
  5
B7DE
330
B7A0
100
AcDbEntity
  8
0
  6
CONTINUOUS
100
AcDbLine
 10
44.99999999995498
 20
7.592623215805709
 30
0.0
 11
43.82952321576943
 21
8.763099999991255
 31
0.0
  0
LINE
  5
B7DF
330
B7A0
100
AcDbEntity
  8
0
  6
CONTINUOUS
100
AcDbLine
 10
44.99999999995498
 20
8.266142424885896
 30
0.0
 11
44.50304242484962
 21
8.763099999991255
 31
0.0
  0
ENDBLK
  5
B809
330
B7A0
100
AcDbEntity
  8
0
100
AcDbBlockEnd
  0
BLOCK
  5
B80A
330
B7E0
100
AcDbEntity
  8
0
100
AcDbBlockBegin
  2
*X29
 70
     1
 10
0.0
 20
0.0
 30
0.0
  3
*X29
  1

  0
LINE
  5
B7E1
330
B7E0
100
AcDbEntity
  8
0
  6
CONTINUOUS
100
AcDbLine
 10
0.0
 20
8.548461116714023
 30
0.0
 11
0.2146388832772324
 21
8.763099999991255
 31
0.0
  0
LINE
  5
B7E2
330
B7E0
100
AcDbEntity
  8
0
  6
CONTINUOUS
100
AcDbLine
 10
-0.0000000000000002
 20
7.874941907633837
 30
0.0
 11
0.8881580923574184
 21
8.763099999991255
 31
0.0
  0
LINE
  5
B7E3
330
B7E0
100
AcDbEntity
  8
0
  6
CONTINUOUS
100
AcDbLine
 10
0.0
 20
7.20142269855365
 30
0.0
 11
1.420999999998572
 21
8.622422698552223
 31
0.0
  0
LINE
  5
B7E4
330
B7E0
100
AcDbEntity
  8
0
  6
CONTINUOUS
100
AcDbLine
 10
-0.0000000000000001
 20
6.527903489473465
 30
0.0
 11
1.420999999998571
 21
7.948903489472036
 31
0.0
  0
LINE
  5
B7E5
330
B7E0
100
AcDbEntity
  8
0
  6
CONTINUOUS
100
AcDbLine
 10
-0.0000000000000002
 20
5.854384280393278
 30
0.0
 11
1.420999999998571
 21
7.275384280391849
 31
0.0
  0
LINE
  5
B7E6
330
B7E0
100
AcDbEntity
  8
0
  6
CONTINUOUS
100
AcDbLine
 10
-0.0000000000000002
 20
5.180865071313091
 30
0.0
 11
1.420999999998571
 21
6.601865071311663
 31
0.0
  0
LINE
  5
B7E7
330
B7E0
100
AcDbEntity
  8
0
  6
CONTINUOUS
100
AcDbLine
 10
0.0
 20
4.507345862232905
 30
0.0
 11
1.420999999998571
 21
5.928345862231477
 31
0.0
  0
LINE
  5
B7E8
330
B7E0
100
AcDbEntity
  8
0
  6
CONTINUOUS
100
AcDbLine
 10
-0.0000000000000003
 20
3.833826653152718
 30
0.0
 11
1.420999999998571
 21
5.25482665315129
 31
0.0
  0
LINE
  5
B7E9
330
B7E0
100
AcDbEntity
  8
0
  6
CONTINUOUS
100
AcDbLine
 10
-0.0000000000000002
 20
3.160307444072532
 30
0.0
 11
1.420999999998571
 21
4.581307444071103
 31
0.0
  0
LINE
  5
B7EA
330
B7E0
100
AcDbEntity
  8
0
  6
CONTINUOUS
100
AcDbLine
 10
-0.0000000000000001
 20
2.486788234992345
 30
0.0
 11
1.420999999998571
 21
3.907788234990917
 31
0.0
  0
LINE
  5
B7EB
330
B7E0
100
AcDbEntity
  8
0
  6
CONTINUOUS
100
AcDbLine
 10
-0.0000000000000006
 20
1.813269025912159
 30
0.0
 11
1.420999999998571
 21
3.234269025910731
 31
0.0
  0
LINE
  5
B7EC
330
B7E0
100
AcDbEntity
  8
0
  6
CONTINUOUS
100
AcDbLine
 10
0.0
 20
1.139749816831973
 30
0.0
 11
1.420999999998571
 21
2.560749816830544
 31
0.0
  0
LINE
  5
B7ED
330
B7E0
100
AcDbEntity
  8
0
  6
CONTINUOUS
100
AcDbLine
 10
0.0000000000000002
 20
0.466230607751787
 30
0.0
 11
1.420999999998571
 21
1.887230607750358
 31
0.0
  0
LINE
  5
B7EE
330
B7E0
100
AcDbEntity
  8
0
  6
CONTINUOUS
100
AcDbLine
 10
0.2072886013284003
 20
-0.0000000000000009
 30
0.0
 11
1.420999999998571
 21
1.213711398670171
 31
0.0
  0
LINE
  5
B7EF
330
B7E0
100
AcDbEntity
  8
0
  6
CONTINUOUS
100
AcDbLine
 10
0.8808078104085864
 20
-0.0000000000000009
 30
0.0
 11
1.420999999998571
 21
0.5401921895899839
 31
0.0
  0
LINE
  5
B7F0
330
B7E0
100
AcDbEntity
  8
0
  6
CONTINUOUS
100
AcDbLine
 10
0.0581249075061505
 20
-0.0000000000000009
 30
0.0
 11
-0.0000000000000002
 21
0.0581249075061496
 31
0.0
  0
LINE
  5
B7F1
330
B7E0
100
AcDbEntity
  8
0
  6
CONTINUOUS
100
AcDbLine
 10
0.7316441165863372
 20
-0.0000000000000009
 30
0.0
 11
-0.0000000000000002
 21
0.7316441165863363
 31
0.0
  0
LINE
  5
B7F2
330
B7E0
100
AcDbEntity
  8
0
  6
CONTINUOUS
100
AcDbLine
 10
1.405163325666523
 20
-0.0000000000000009
 30
0.0
 11
-0.0000000000000002
 21
1.405163325666523
 31
0.0
  0
LINE
  5
B7F3
330
B7E0
100
AcDbEntity
  8
0
  6
CONTINUOUS
100
AcDbLine
 10
1.420999999998572
 20
0.6576825347481381
 30
0.0
 11
-0.0000000000000001
 21
2.07868253474671
 31
0.0
  0
LINE
  5
B7F4
330
B7E0
100
AcDbEntity
  8
0
  6
CONTINUOUS
100
AcDbLine
 10
1.420999999998571
 20
1.331201743828324
 30
0.0
 11
-0.0000000000000001
 21
2.752201743826896
 31
0.0
  0
LINE
  5
B7F5
330
B7E0
100
AcDbEntity
  8
0
  6
CONTINUOUS
100
AcDbLine
 10
1.420999999998571
 20
2.004720952908511
 30
0.0
 11
-0.0000000000000002
 21
3.425720952907082
 31
0.0
  0
LINE
  5
B7F6
330
B7E0
100
AcDbEntity
  8
0
  6
CONTINUOUS
100
AcDbLine
 10
1.420999999998571
 20
2.678240161988697
 30
0.0
 11
-0.0000000000000001
 21
4.099240161987269
 31
0.0
  0
LINE
  5
B7F7
330
B7E0
100
AcDbEntity
  8
0
  6
CONTINUOUS
100
AcDbLine
 10
1.420999999998572
 20
3.351759371068884
 30
0.0
 11
0.0
 21
4.772759371067455
 31
0.0
  0
LINE
  5
B7F8
330
B7E0
100
AcDbEntity
  8
0
  6
CONTINUOUS
100
AcDbLine
 10
1.420999999998571
 20
4.02527858014907
 30
0.0
 11
-0.0000000000000003
 21
5.446278580147642
 31
0.0
  0
LINE
  5
B7F9
330
B7E0
100
AcDbEntity
  8
0
  6
CONTINUOUS
100
AcDbLine
 10
1.420999999998571
 20
4.698797789229257
 30
0.0
 11
0.0
 21
6.119797789227828
 31
0.0
  0
LINE
  5
B7FA
330
B7E0
100
AcDbEntity
  8
0
  6
CONTINUOUS
100
AcDbLine
 10
1.420999999998571
 20
5.372316998309444
 30
0.0
 11
-0.0000000000000001
 21
6.793316998308015
 31
0.0
  0
LINE
  5
B7FB
330
B7E0
100
AcDbEntity
  8
0
  6
CONTINUOUS
100
AcDbLine
 10
1.420999999998572
 20
6.045836207389629
 30
0.0
 11
-0.0000000000000004
 21
7.466836207388202
 31
0.0
  0
LINE
  5
B7FC
330
B7E0
100
AcDbEntity
  8
0
  6
CONTINUOUS
100
AcDbLine
 10
1.420999999998571
 20
6.719355416469816
 30
0.0
 11
0.0
 21
8.140355416468388
 31
0.0
  0
LINE
  5
B7FD
330
B7E0
100
AcDbEntity
  8
0
  6
CONTINUOUS
100
AcDbLine
 10
1.420999999998571
 20
7.392874625550003
 30
0.0
 11
0.0507746255573185
 21
8.763099999991255
 31
0.0
  0
LINE
  5
B7FE
330
B7E0
100
AcDbEntity
  8
0
  6
CONTINUOUS
100
AcDbLine
 10
1.420999999998571
 20
8.06639383463019
 30
0.0
 11
0.7242938346375052
 21
8.763099999991255
 31
0.0
  0
LINE
  5
B7FF
330
B7E0
100
AcDbEntity
  8
0
  6
CONTINUOUS
100
AcDbLine
 10
1.420999999998571
 20
8.739913043710375
 30
0.0
 11
1.397813043717691
 21
8.763099999991255
 31
0.0
  0
ENDBLK
  5
B80B
330
B7E0
100
AcDbEntity
  8
0
100
AcDbBlockEnd
  0
ENDSEC
  0
SECTION
  2
ENTITIES
  0
LINE
  5
AF4F
330
18
100
AcDbEntity
  8
01
100
AcDbLine
 10
5311.5282474264
 20
-196.1516801252551
 30
0.0000000001127424
 11
5359.5282474264
 21
-196.1516801252551
 31
0.0000000001127424
  0
LINE
  5
AF50
330
18
100
AcDbEntity
  8
01
100
AcDbLine
 10
5310.5282474264
 20
-187.6516801252551
 30
0.0000000001127424
 11
5310.5282474264
 21
-195.1516801252551
 31
0.0000000001127424
  0
ARC
  5
AF51
330
18
100
AcDbEntity
  8
01
100
AcDbCircle
 10
5311.5282474264
 20
-195.1516801252551
 30
0.0000000001127424
 40
1.0
100
AcDbArc
 50
180.0
 51
270.0
  0
LINE
  5
AF52
330
18
100
AcDbEntity
  8
01
100
AcDbLine
 10
5360.5282474264
 20
-187.6516801252551
 30
0.0000000001127424
 11
5360.5282474264
 21
-195.1516801252551
 31
0.0000000001127424
  0
ARC
  5
AF53
330
18
100
AcDbEntity
  8
01
100
AcDbCircle
 10
5359.5282474264
 20
-195.1516801252551
 30
0.0000000001127424
 40
1.0
100
AcDbArc
 50
270.0
 51
0.0
  0
ARC
  5
AF54
330
18
100
AcDbEntity
  8
01
100
AcDbCircle
 10
5335.5282474264
 20
-347.6503618121524
 30
0.0000000001127424
 40
25.0
100
AcDbArc
 50
15.11725906590955
 51
344.8829277189238
  0
LINE
  5
AF56
330
18
100
AcDbEntity
  8
01
100
AcDbLine
 10
5185.5282474264
 20
-322.6503618121524
 30
0.0000000001127424
 11
5185.5282474264
 21
-372.6503618121524
 31
0.0000000001127424
  0
LINE
  5
AF57
330
18
100
AcDbEntity
  8
01
100
AcDbLine
 10
5194.0282474264
 20
-371.6503618121524
 30
0.0000000001127424
 11
5194.0282474264
 21
-323.6503618121524
 31
0.0000000001127424
  0
LINE
  5
AF58
330
18
100
AcDbEntity
  8
01
100
AcDbLine
 10
5185.5282474264
 20
-372.6503618121524
 30
0.0000000001127424
 11
5193.0282474264
 21
-372.6503618121524
 31
0.0000000001127424
  0
ARC
  5
AF59
330
18
100
AcDbEntity
  8
01
100
AcDbCircle
 10
5193.0282474264
 20
-371.6503618121524
 30
0.0000000001127424
 40
1.0
100
AcDbArc
 50
270.0
 51
0.0
  0
LINE
  5
AF5A
330
18
100
AcDbEntity
  8
01
100
AcDbLine
 10
5185.5282474264
 20
-322.6503618121524
 30
0.0000000001127424
 11
5193.0282474264
 21
-322.6503618121524
 31
0.0000000001127424
  0
ARC
  5
AF5B
330
18
100
AcDbEntity
  8
01
100
AcDbCircle
 10
5193.0282474264
 20
-323.6503618121524
 30
0.0000000001127424
 40
1.0
100
AcDbArc
 50
0.0
 51
90.0
  0
LINE
  5
AF70
330
18
100
AcDbEntity
  8
01
100
AcDbLine
 10
5183.39996204397
 20
-347.6503618121524
 30
0.0000000001127424
 11
5206.0282474264
 21
-347.6503618121524
 31
0.0000000001127424
  0
LINE
  5
AF71
330
18
100
AcDbEntity
  8
01
100
AcDbLine
 10
5310.5282474264
 20
-187.6516801252551
 30
0.0000000001127424
 11
5360.5282474264
 21
-187.6516801252551
 31
0.0000000001127424
  0
LINE
  5
AF72
330
18
100
AcDbEntity
  8
01
  6
BYBLOCK
100
AcDbLine
 10
5284.529015268718
 20
-187.6516801252551
 30
0.0000000001127424
 11
5438.283395423749
 21
-187.6516801252551
 31
0.0000000001127424
  0
LINE
  5
AF78
330
18
100
AcDbEntity
  8
01
100
AcDbLine
 10
5335.5282474264
 20
-182.6516801252551
 30
0.0000000001127424
 11
5335.5282474264
 21
-209.1516801252551
 31
0.0000000001127424
  0
LINE
  5
AF88
330
18
100
AcDbEntity
  8
01
100
AcDbLine
 10
5185.5282474264
 20
-227.6503618121524
 30
0.0000000001127424
 11
5185.5282474264
 21
-417.6503618121524
 31
0.0000000001127424
  0
LINE
  5
AF89
330
18
100
AcDbEntity
  8
1CENTER
100
AcDbLine
 10
5200.2282474264
 20
-362.6503618121524
 30
0.0000000001127424
 11
5200.2282474264
 21
-354.6503618121524
 31
0.0000000001127424
  0
LINE
  5
AF90
330
18
100
AcDbEntity
  8
01
100
AcDbLine
 10
5305.5282474264
 20
-347.6503618121524
 30
0.0000000001127424
 11
5365.5282474264
 21
-347.6503618121524
 31
0.0000000001127424
  0
LINE
  5
AF91
330
18
100
AcDbEntity
  8
01
100
AcDbLine
 10
5335.5282474264
 20
-317.6503618121524
 30
0.0000000001127424
 11
5335.5282474264
 21
-377.6503618121524
 31
0.0000000001127424
  0
TEXT
  5
AF94
330
18
100
AcDbEntity
  8
1TEXT
100
AcDbText
 10
5185.5282474264
 20
-187.6516801252551
 30
0.0000000001127424
 40
10.0
  1
FLC
 41
1.0171875
100
AcDbText
  0
ARC
  5
B2DD
330
18
100
AcDbEntity
  8
01
100
AcDbCircle
 10
5335.5282474264
 20
-347.6503618121524
 30
0.0000000001127424
 40
13.00002170361696
100
AcDbArc
 50
39.12040548140968
 51
150.0850525146528
  0
ARC
  5
B2DE
330
18
100
AcDbEntity
  8
01
100
AcDbCircle
 10
5335.5282474264
 20
-347.6502851282053
 30
0.0000000001127424
 40
13.00002170361696
100
AcDbArc
 50
209.9149474853472
 51
320.8795945185903
  0
LINE
  5
B2E2
330
18
100
AcDbEntity
  8
01
100
AcDbLine
 10
5360.528244443406
 20
-353.8961883667176
 30
0.0000000001127424
 11
5360.528244443406
 21
-341.4044678522688
 31
0.0000000001127424
  0
LINE
  5
B2E3
330
18
100
AcDbEntity
  8
01
100
AcDbLine
 10
5460.528244443402
 20
-343.8665404538087
 30
0.0000000001127424
 11
5460.528244443402
 21
-351.4341064865488
 31
0.0000000001127424
  0
LINE
  5
B2E4
330
18
100
AcDbEntity
  8
01
100
AcDbLine
 10
5460.528244443402
 20
-343.8665404538087
 30
0.0000000001127424
 11
5460.528244443402
 21
-342.5919066434242
 31
0.0000000001127424
  0
LINE
  5
B2E5
330
18
100
AcDbEntity
  8
01
100
AcDbLine
 10
5460.528244443402
 20
-342.5919066434242
 30
0.0000000001127424
 11
5460.528244443402
 21
-341.4250620555889
 31
0.0000000001127424
  0
LINE
  5
B2E6
330
18
100
AcDbEntity
  8
01
100
AcDbLine
 10
5460.528244443402
 20
-351.4341064865488
 30
0.0000000001127424
 11
5460.528244443402
 21
-352.7087402969333
 31
0.0000000001127424
  0
LINE
  5
B2E7
330
18
100
AcDbEntity
  8
01
100
AcDbLine
 10
5460.528244443402
 20
-352.7087402969333
 30
0.0000000001127424
 11
5460.528244443402
 21
-353.8755848847687
 31
0.0000000001127424
  0
ARC
  5
B2E8
330
18
100
AcDbEntity
  8
01
100
AcDbCircle
 10
5460.728244446383
 20
-353.8755848847687
 30
0.0000000001127424
 40
0.2000000029802322
100
AcDbArc
 50
180.0
 51
269.9999999997394
  0
ARC
  5
B2E9
330
18
100
AcDbEntity
  8
01
100
AcDbCircle
 10
5460.728244446383
 20
-341.4250620555889
 30
0.0000000001127424
 40
0.2000000029802322
100
AcDbArc
 50
90.00000000020843
 51
180.0
  0
LINE
  5
B2EA
330
18
100
AcDbEntity
  8
01
100
AcDbLine
 10
5460.728244446383
 20
-341.2250620526087
 30
0.0000000001127424
 11
5465.528233709802
 21
-341.2250620526087
 31
0.0000000001127424
  0
LINE
  5
B2EB
330
18
100
AcDbEntity
  8
01
100
AcDbLine
 10
5460.728244446383
 20
-354.075584887749
 30
0.0000000001127424
 11
5465.528233709802
 21
-354.075584887749
 31
0.0000000001127424
  0
ARC
  5
B2EC
330
18
100
AcDbEntity
  8
01
100
AcDbCircle
 10
5465.52819710701
 20
-352.5755375516276
 30
0.0000000001127424
 40
1.50003635173652
100
AcDbArc
 50
270.0013989834188
 51
359.9986010372755
  0
ARC
  5
B2ED
330
18
100
AcDbEntity
  8
01
100
AcDbCircle
 10
5465.528197107009
 20
-342.7251093887322
 30
0.0000000001127424
 40
1.500036351738131
100
AcDbArc
 50
0.0013989628026717
 51
89.99860101652911
  0
LINE
  5
B2EE
330
18
100
AcDbEntity
  8
01
100
AcDbLine
 10
5467.028244443409
 20
-352.5755741541429
 30
0.0000000001127424
 11
5467.028244443409
 21
-342.7250727862147
 31
0.0000000001127424
  0
ARC
  5
B2EF
330
18
100
AcDbEntity
  8
01
100
AcDbCircle
 10
5360.328318780545
 20
-341.4043670825057
 30
0.0000000001127424
 40
0.19992568379499
100
AcDbArc
 50
359.9737799769567
 51
83.79795921557857
  0
ARC
  5
B2F0
330
18
100
AcDbEntity
  8
01
100
AcDbCircle
 10
5360.328318780545
 20
-353.8962798578516
 30
0.0000000001127424
 40
0.1999256837953324
100
AcDbArc
 50
276.2020407845263
 51
0.0262200229715936
  0
ARC
  5
B2F3
330
18
100
AcDbEntity
  8
01
100
AcDbCircle
 10
5324.789290282788
 20
-352.0358892559768
 30
0.0000000001127424
 40
1.506188916503771
100
AcDbArc
 50
199.4559438846175
 51
208.43688881182
  0
ARC
  5
B2F5
330
18
100
AcDbEntity
  8
01
100
AcDbCircle
 10
5324.78968155612
 20
-343.2649314924646
 30
0.0000000001127424
 40
1.506615742867575
100
AcDbArc
 50
151.5637872059875
 51
160.5422147590605
  0
LINE
  5
B2F8
330
18
100
AcDbEntity
  8
01
100
AcDbLine
 10
5460.528244443406
 20
-341.4250620526087
 30
0.0000000001127424
 11
5360.528244443406
 21
-341.4250620526087
 31
0.0000000001127424
  0
LINE
  5
B2F9
330
18
100
AcDbEntity
  8
01
100
AcDbLine
 10
5460.528244443406
 20
-353.547718134129
 30
0.0000000001127424
 11
5360.528244443406
 21
-353.547718134129
 31
0.0000000001127424
  0
LINE
  5
B2FA
330
18
100
AcDbEntity
  8
01
100
AcDbLine
 10
5347.5282474264
 20
-196.6516801252551
 30
0.0000000001127424
 11
5323.5282474264
 21
-196.6516801252551
 31
0.0000000001127424
  0
LINE
  5
B2FB
330
18
100
AcDbEntity
  8
01
100
AcDbLine
 10
5322.528247426728
 20
-196.6516799066981
 30
0.0000000001127424
 11
5323.5282474264
 21
-196.6516801252551
 31
0.0000000001127424
  0
LINE
  5
B2FC
330
18
100
AcDbEntity
  8
01
100
AcDbLine
 10
5348.528247426073
 20
-196.6516799066981
 30
0.0000000001127424
 11
5347.5282474264
 21
-196.6516801252551
 31
0.0000000001127424
  0
LINE
  5
B2FD
330
18
100
AcDbEntity
  8
01
100
AcDbLine
 10
5360.528247426399
 20
-253.4098780902978
 30
0.0000000001127424
 11
5360.528247426399
 21
-254.4516788146741
 31
0.0000000001127424
  0
LINE
  5
B2FE
330
18
100
AcDbEntity
  8
01
100
AcDbLine
 10
5360.528247426399
 20
-253.4098771964698
 30
0.0000000001127424
 11
5360.528247426399
 21
-229.8913756589479
 31
0.0000000001127424
  0
LINE
  5
B2FF
330
18
100
AcDbEntity
  8
01
100
AcDbLine
 10
5360.528247426399
 20
-229.891384525203
 30
0.0000000001127424
 11
5360.528247426399
 21
-228.8516669892217
 31
0.0000000001127424
  0
ARC
  5
B300
330
18
100
AcDbEntity
  8
01
100
AcDbCircle
 10
5360.328247423418
 20
-254.4516768706583
 30
0.0000000001127424
 40
0.200000002980232
100
AcDbArc
 50
269.9972507344761
 51
359.9999999997785
  0
ARC
  5
B301
330
18
100
AcDbEntity
  8
01
100
AcDbCircle
 10
5360.328247423418
 20
-228.8516649881235
 30
0.0000000001127424
 40
0.2000000029802326
100
AcDbArc
 50
0.0000000002214684
 51
89.98702072343565
  0
ARC
  5
B302
330
18
100
AcDbEntity
  8
01
100
AcDbCircle
 10
5463.975593143781
 20
-230.651678111122
 30
0.0000000001127424
 40
1.999998039029693
100
AcDbArc
 50
10.93261467829669
 51
90.00004634535983
  0
ARC
  5
B303
330
18
100
AcDbEntity
  8
01
100
AcDbCircle
 10
5407.02764085507
 20
-241.651680075576
 30
0.0000000001127424
 40
60.00059556263356
100
AcDbArc
 50
349.0674487086176
 51
10.93255129130191
  0
ARC
  5
B304
330
18
100
AcDbEntity
  8
01
100
AcDbCircle
 10
5463.975591034719
 20
-252.6516794759998
 30
0.0000000001127424
 40
2.000000596093273
100
AcDbArc
 50
270.0000140746023
 51
349.0673246593985
  0
LINE
  5
B305
330
18
100
AcDbEntity
  8
01
100
AcDbLine
 10
5460.528247426395
 20
-229.8961245728387
 30
0.0000000001127424
 11
5460.528247426395
 21
-253.4072356827783
 31
0.0000000001127424
  0
LINE
  5
B306
330
18
100
AcDbEntity
  8
01
100
AcDbLine
 10
5460.528247426395
 20
-229.896124572839
 30
0.0000000001127424
 11
5460.528247426395
 21
-228.8516800750729
 31
0.0000000001127424
  0
LINE
  5
B307
330
18
100
AcDbEntity
  8
01
100
AcDbLine
 10
5460.728247429375
 20
-254.6516800720926
 30
0.0000000001127424
 11
5463.975591526017
 21
-254.6516800720926
 31
0.0000000001127424
  0
ARC
  5
B308
330
18
100
AcDbEntity
  8
01
100
AcDbCircle
 10
5460.728247429375
 20
-254.4516800691124
 30
0.0000000001127424
 40
0.2000000029802322
100
AcDbArc
 50
180.0
 51
269.9999999997394
  0
LINE
  5
B309
330
18
100
AcDbEntity
  8
01
100
AcDbLine
 10
5460.728247429375
 20
-228.6516800720926
 30
0.0000000001127424
 11
5463.975591526018
 21
-228.6516800720926
 31
0.0000000001127424
  0
ARC
  5
B30A
330
18
100
AcDbEntity
  8
01
100
AcDbCircle
 10
5460.728247429375
 20
-228.8516800750729
 30
0.0000000001127424
 40
0.2000000029802322
100
AcDbArc
 50
90.00000000020842
 51
180.0
  0
LINE
  5
B30E
330
18
100
AcDbEntity
  8
01
100
AcDbLine
 10
5460.528247426399
 20
-254.4516775648724
 30
0.0000000001127424
 11
5360.528247426399
 21
-254.4516775648724
 31
0.0000000001127424
  0
LINE
  5
B30F
330
18
100
AcDbEntity
  8
01
100
AcDbLine
 10
5460.528247426399
 20
-228.8516775648718
 30
0.0000000001127424
 11
5360.528247426399
 21
-228.8516775648718
 31
0.0000000001127424
  0
LINE
  5
B310
330
18
100
AcDbEntity
  8
01
100
AcDbLine
 10
5460.528247426399
 20
-253.4072331595892
 30
0.0000000001127424
 11
5460.528247426399
 21
-254.4516775648724
 31
0.0000000001127424
  0
LINE
  5
B311
330
18
100
AcDbEntity
  8
01
100
AcDbLine
 10
5360.528247426399
 20
-254.4503193748412
 30
0.0000000001127424
 11
5360.528247426399
 21
-254.4516775648724
 31
0.0000000001127424
  0
LINE
  5
B312
330
18
100
AcDbEntity
  8
01
100
AcDbLine
 10
5360.528247426399
 20
-228.8530229325943
 30
0.0000000001127424
 11
5360.528247426399
 21
-228.8516775648718
 31
0.0000000001127424
  0
LINE
  5
B314
330
18
100
AcDbEntity
  8
01
100
AcDbLine
 10
5252.528247780346
 20
-351.4366208150291
 30
0.0000000001127424
 11
5252.528219217771
 21
-351.4458342275061
 31
0.0000000001127424
  0
LINE
  5
B315
330
18
100
AcDbEntity
  8
01
100
AcDbLine
 10
5252.528245836186
 20
-343.8641049223415
 30
0.0000000001127424
 11
5252.528245836186
 21
-351.4366208700476
 31
0.0000000001127424
  0
LINE
  5
B316
330
18
100
AcDbEntity
  8
01
100
AcDbLine
 10
5252.528243869639
 20
-343.8606956748431
 30
0.0000000001127424
 11
5252.528247780432
 21
-343.864104977361
 31
0.0000000001127424
  0
LINE
  5
B317
330
18
100
AcDbEntity
  8
01
100
AcDbLine
 10
5252.528243870647
 20
-351.4400293556641
 30
0.0000000001127424
 11
5252.528247780432
 21
-351.4366208150295
 31
0.0000000001127424
  0
LINE
  5
B31D
330
18
100
AcDbEntity
  8
01
100
AcDbLine
 10
5358.255017827401
 20
-228.6268157099207
 30
0.0000000001127424
 11
5360.32829053248
 21
-228.6516722773035
 31
0.0000000001127424
  0
LINE
  5
B31E
330
18
100
AcDbEntity
  8
01
100
AcDbLine
 10
5360.778244443406
 20
-353.547718134129
 30
0.0000000001127424
 11
5360.778244443406
 21
-353.5503228989508
 31
0.0000000001127424
  0
LINE
  5
B31F
330
18
100
AcDbEntity
  8
01
100
AcDbLine
 10
5460.278244443406
 20
-353.547718134129
 30
0.0000000001127424
 11
5460.278244443406
 21
-353.5503228989508
 31
0.0000000001127424
  0
LINE
  5
B320
330
18
100
AcDbEntity
  8
01
100
AcDbLine
 10
5460.078244440426
 20
-353.750322901931
 30
0.0000000001127424
 11
5460.278244443406
 21
-353.5503228989508
 31
0.0000000001127424
  0
LINE
  5
B321
330
18
100
AcDbEntity
  8
01
100
AcDbLine
 10
5360.978244446386
 20
-353.750322901931
 30
0.0000000001127424
 11
5360.778244443406
 21
-353.5503228989508
 31
0.0000000001127424
  0
LINE
  5
B322
330
18
100
AcDbEntity
  8
01
100
AcDbLine
 10
5460.078244440426
 20
-353.750322901931
 30
0.0000000001127424
 11
5453.928045632807
 21
-353.750322901931
 31
0.0000000001127424
  0
LINE
  5
B323
330
18
100
AcDbEntity
  8
01
100
AcDbLine
 10
5447.128328796778
 20
-353.750322901931
 30
0.0000000001127424
 11
5373.928045632805
 21
-353.750322901931
 31
0.0000000001127424
  0
LINE
  5
B324
330
18
100
AcDbEntity
  8
01
100
AcDbLine
 10
5367.128328796778
 20
-353.750322901931
 30
0.0000000001127424
 11
5360.978244446386
 21
-353.750322901931
 31
0.0000000001127424
  0
LINE
  5
B327
330
18
100
AcDbEntity
  8
01
100
AcDbLine
 10
5373.906569110552
 20
-353.7490972480978
 30
0.0000000001127424
 11
5373.914572811499
 21
-353.7498249438754
 31
0.0000000001127424
  0
LINE
  5
B328
330
18
100
AcDbEntity
  8
01
100
AcDbLine
 10
5367.147926827382
 20
-353.7493411589264
 30
0.0000000001127424
 11
5367.141754239016
 21
-353.7498528787906
 31
0.0000000001127424
  0
LINE
  5
B32B
330
18
100
AcDbEntity
  8
01
100
AcDbLine
 10
5453.906569110556
 20
-353.749097248098
 30
0.0000000001127424
 11
5453.914572811494
 21
-353.7498249438765
 31
0.0000000001127424
  0
LINE
  5
B32C
330
18
100
AcDbEntity
  8
01
100
AcDbLine
 10
5447.147926828438
 20
-353.7493411588107
 30
0.0000000001127424
 11
5447.141754239016
 21
-353.7498528787885
 31
0.0000000001127424
  0
LINE
  5
B4AC
330
18
100
AcDbEntity
  8
01
100
AcDbLine
 10
5335.5282474264
 20
-322.6503618121524
 30
0.0000000002254849
 11
5299.2282474264
 21
-322.6503618121524
 31
0.0000000002254849
1001
ACAD
1000
DSTYLE
1002
{
1070
     3
1000
φ<>
1070
    40
1040
1.3
1070
    45
1040
0.5
1002
}
  0
LINE
  5
B4AD
330
18
100
AcDbEntity
  8
01
100
AcDbLine
 10
5335.5282474264
 20
-372.6503618121515
 30
0.0000000002254849
 11
5299.2282474264
 21
-372.6503618121515
 31
0.0000000002254849
1001
ACAD
1000
DSTYLE
1002
{
1070
     3
1000
φ<>
1070
    40
1040
1.3
1070
    45
1040
0.5
1002
}
  0
LINE
  5
B4AE
330
18
100
AcDbEntity
  8
01
100
AcDbLine
 10
5300.5282474264
 20
-325.2503618121524
 30
0.0000000002254849
 11
5300.5282474264
 21
-370.0503618121514
 31
0.0000000002254849
1001
ACAD
1000
DSTYLE
1002
{
1070
     3
1000
φ<>
1070
    40
1040
1.3
1070
    45
1040
0.5
1002
}
  0
LINE
  5
B4B2
330
18
100
AcDbEntity
  8
01
100
AcDbLine
 10
5338.359049268237
 20
-359.4969249563849
 30
0.0000000001127424
 11
5338.005030103198
 21
-359.6631542044317
 31
0.0000000001127424
  0
LINE
  5
B4B3
330
18
100
AcDbEntity
  8
01
100
AcDbLine
 10
5338.005030103198
 20
-359.6631542044317
 30
0.0000000001127424
 11
5337.525606580249
 21
-359.8304668265021
 31
0.0000000001127424
  0
LINE
  5
B4B4
330
18
100
AcDbEntity
  8
01
100
AcDbLine
 10
5337.525606580249
 20
-359.8304668265021
 30
0.0000000001127424
 11
5336.942240186206
 21
-359.9759898977911
 31
0.0000000001127424
  0
LINE
  5
B4B5
330
18
100
AcDbEntity
  8
01
100
AcDbLine
 10
5336.942240186206
 20
-359.9759898977911
 30
0.0000000001127424
 11
5336.280146069995
 21
-360.07765157992
 31
0.0000000001127424
  0
LINE
  5
B4B6
330
18
100
AcDbEntity
  8
01
100
AcDbLine
 10
5336.280146069995
 20
-360.07765157992
 30
0.0000000001127424
 11
5335.528246350756
 21
-360.1197887259161
 31
0.0000000001127424
  0
LINE
  5
B4B7
330
18
100
AcDbEntity
  8
01
100
AcDbLine
 10
5335.528246350756
 20
-360.1197887259161
 30
0.0000000001127424
 11
5334.870897717944
 21
-360.095344145838
 31
0.0000000001127424
  0
LINE
  5
B4B8
330
18
100
AcDbEntity
  8
01
100
AcDbLine
 10
5334.870897717944
 20
-360.095344145838
 30
0.0000000001127424
 11
5334.246347852221
 21
-360.0190502005255
 31
0.0000000001127424
  0
LINE
  5
B4B9
330
18
100
AcDbEntity
  8
01
100
AcDbLine
 10
5334.246347852221
 20
-360.0190502005255
 30
0.0000000001127424
 11
5333.683557935229
 21
-359.9032207327521
 31
0.0000000001127424
  0
LINE
  5
B4BA
330
18
100
AcDbEntity
  8
01
100
AcDbLine
 10
5333.683557935229
 20
-359.9032207327521
 30
0.0000000001127424
 11
5333.204798169604
 21
-359.7648464041388
 31
0.0000000001127424
  0
LINE
  5
B4BB
330
18
100
AcDbEntity
  8
01
100
AcDbLine
 10
5333.204798169604
 20
-359.7648464041388
 30
0.0000000001127424
 11
5332.778002210131
 21
-359.5997005301153
 31
0.0000000001127424
  0
LINE
  5
B4BC
330
18
100
AcDbEntity
  8
01
100
AcDbLine
 10
5335.529894299975
 20
-360.4180217581427
 30
0.0000000001127424
 11
5334.802385755053
 21
-360.3939967947638
 31
0.0000000001127424
  0
LINE
  5
B4BD
330
18
100
AcDbEntity
  8
01
100
AcDbLine
 10
5334.802385755053
 20
-360.3939967947638
 30
0.0000000001127424
 11
5334.110338635913
 21
-360.318618376795
 31
0.0000000001127424
  0
LINE
  5
B4BE
330
18
100
AcDbEntity
  8
01
100
AcDbLine
 10
5334.110338635913
 20
-360.318618376795
 30
0.0000000001127424
 11
5333.485079236499
 21
-360.2038265066778
 31
0.0000000001127424
  0
LINE
  5
B4BF
330
18
100
AcDbEntity
  8
01
100
AcDbLine
 10
5333.485079236499
 20
-360.2038265066778
 30
0.0000000001127424
 11
5332.950830884448
 21
-360.0661388235724
 31
0.0000000001127424
  0
LINE
  5
B4C0
330
18
100
AcDbEntity
  8
01
100
AcDbLine
 10
5332.950830884448
 20
-360.0661388235724
 30
0.0000000001127424
 11
5332.527483411303
 21
-359.9234386282599
 31
0.0000000001127424
  0
LINE
  5
B4C1
330
18
100
AcDbEntity
  8
01
100
AcDbLine
 10
5332.527483411303
 20
-359.9234386282599
 30
0.0000000001127424
 11
5332.231638379565
 21
-359.7920680838263
 31
0.0000000001127424
  0
LINE
  5
B4C2
330
18
100
AcDbEntity
  8
01
100
AcDbLine
 10
5332.231638379565
 20
-359.7920680838263
 30
0.0000000001127424
 11
5332.077196546069
 21
-359.6867976980841
 31
0.0000000001127424
  0
LINE
  5
B4C3
330
18
100
AcDbEntity
  8
01
100
AcDbLine
 10
5332.077196546069
 20
-359.6867976980841
 30
0.0000000001127424
 11
5332.072550244799
 21
-359.6162181692755
 31
0.0000000001127424
  0
LINE
  5
B4C4
330
18
100
AcDbEntity
  8
01
100
AcDbLine
 10
5332.072550244799
 20
-359.6162181692755
 30
0.0000000001127424
 11
5332.220888562671
 21
-359.5833736258185
 31
0.0000000001127424
  0
LINE
  5
B4C5
330
18
100
AcDbEntity
  8
01
100
AcDbLine
 10
5332.220888562671
 20
-359.5833736258185
 30
0.0000000001127424
 11
5332.515642590991
 21
-359.5830989676153
 31
0.0000000001127424
  0
LINE
  5
B4C6
330
18
100
AcDbEntity
  8
01
100
AcDbLine
 10
5332.515642590991
 20
-359.5830989676153
 30
0.0000000001127424
 11
5332.943994946948
 21
-359.6054530935919
 31
0.0000000001127424
  0
LINE
  5
B4C7
330
18
100
AcDbEntity
  8
01
100
AcDbLine
 10
5332.943994946948
 20
-359.6054530935919
 30
0.0000000001127424
 11
5333.486376233569
 21
-359.6377178030646
 31
0.0000000001127424
  0
LINE
  5
B4C8
330
18
100
AcDbEntity
  8
01
100
AcDbLine
 10
5333.486376233569
 20
-359.6377178030646
 30
0.0000000001127424
 11
5334.119440503589
 21
-359.6665950613653
 31
0.0000000001127424
  0
LINE
  5
B4C9
330
18
100
AcDbEntity
  8
01
100
AcDbLine
 10
5334.119440503589
 20
-359.6665950613653
 30
0.0000000001127424
 11
5334.814897962085
 21
-359.6822887259161
 31
0.0000000001127424
  0
LINE
  5
B4CA
330
18
100
AcDbEntity
  8
01
100
AcDbLine
 10
5334.814897962085
 20
-359.6822887259161
 30
0.0000000001127424
 11
5335.542231030932
 21
-359.6775890188849
 31
0.0000000001127424
  0
LINE
  5
B4CB
330
18
100
AcDbEntity
  8
01
100
AcDbLine
 10
5335.542231030932
 20
-359.6775890188849
 30
0.0000000001127424
 11
5336.268709607592
 21
-359.6521068411505
 31
0.0000000001127424
  0
LINE
  5
B4CC
330
18
100
AcDbEntity
  8
01
100
AcDbLine
 10
5336.268709607592
 20
-359.6521068411505
 30
0.0000000001127424
 11
5336.961656995288
 21
-359.6090312796271
 31
0.0000000001127424
  0
LINE
  5
B4CD
330
18
100
AcDbEntity
  8
01
100
AcDbLine
 10
5336.961656995288
 20
-359.6090312796271
 30
0.0000000001127424
 11
5337.591539807788
 21
-359.557746489588
 31
0.0000000001127424
  0
LINE
  5
B4CE
330
18
100
AcDbEntity
  8
01
100
AcDbLine
 10
5337.591539807788
 20
-359.557746489588
 30
0.0000000001127424
 11
5338.130701489917
 21
-359.5099101858771
 31
0.0000000001127424
  0
LINE
  5
B4CF
330
18
100
AcDbEntity
  8
01
100
AcDbLine
 10
5338.130701489917
 20
-359.5099101858771
 30
0.0000000001127424
 11
5338.555796094409
 21
-359.4794002371466
 31
0.0000000001127424
  0
LINE
  5
B4D0
330
18
100
AcDbEntity
  8
01
100
AcDbLine
 10
5338.555796094409
 20
-359.4794002371466
 30
0.0000000001127424
 11
5338.847467847339
 21
-359.4791484671271
 31
0.0000000001127424
  0
LINE
  5
B4D1
330
18
100
AcDbEntity
  8
01
100
AcDbLine
 10
5338.847467847339
 20
-359.4791484671271
 30
0.0000000001127424
 11
5338.992205090991
 21
-359.518554289881
 31
0.0000000001127424
  0
LINE
  5
B4D2
330
18
100
AcDbEntity
  8
01
100
AcDbLine
 10
5338.992205090991
 20
-359.518554289881
 30
0.0000000001127424
 11
5338.984392590991
 21
-359.6006236868536
 31
0.0000000001127424
  0
LINE
  5
B4D3
330
18
100
AcDbEntity
  8
01
100
AcDbLine
 10
5338.984392590991
 20
-359.6006236868536
 30
0.0000000001127424
 11
5338.827982373706
 21
-359.7200160818732
 31
0.0000000001127424
  0
LINE
  5
B4D4
330
18
100
AcDbEntity
  8
01
100
AcDbLine
 10
5338.827982373706
 20
-359.7200160818732
 30
0.0000000001127424
 11
5338.531511731616
 21
-359.8664317923224
 31
0.0000000001127424
  0
LINE
  5
B4D5
330
18
100
AcDbEntity
  8
01
100
AcDbLine
 10
5338.531511731616
 20
-359.8664317923224
 30
0.0000000001127424
 11
5338.108690686694
 21
-360.0235896902716
 31
0.0000000001127424
  0
LINE
  5
B4D6
330
18
100
AcDbEntity
  8
01
100
AcDbLine
 10
5338.108690686694
 20
-360.0235896902716
 30
0.0000000001127424
 11
5337.575739331714
 21
-360.1741939383185
 31
0.0000000001127424
  0
LINE
  5
B4D7
330
18
100
AcDbEntity
  8
01
100
AcDbLine
 10
5337.575739331714
 20
-360.1741939383185
 30
0.0000000001127424
 11
5336.952005811206
 21
-360.3002391653692
 31
0.0000000001127424
  0
LINE
  5
B4D8
330
18
100
AcDbEntity
  8
01
100
AcDbLine
 10
5336.952005811206
 20
-360.3002391653692
 30
0.0000000001127424
 11
5336.260919995776
 21
-360.3852840262091
 31
0.0000000001127424
  0
LINE
  5
B4D9
330
18
100
AcDbEntity
  8
01
100
AcDbLine
 10
5336.260919995776
 20
-360.3852840262091
 30
0.0000000001127424
 11
5335.529894299975
 21
-360.4180217581427
 31
0.0000000001127424
  0
LINE
  5
B4DA
330
18
100
AcDbEntity
  8
01
100
AcDbLine
 10
5343.30765003728
 20
-356.3146358328497
 30
0.0000000001127424
 11
5343.367006726733
 21
-356.2977825003302
 31
0.0000000001127424
  0
LINE
  5
B4DB
330
18
100
AcDbEntity
  8
01
100
AcDbLine
 10
5343.367006726733
 20
-356.2977825003302
 30
0.0000000001127424
 11
5343.55236286687
 21
-356.2501369314825
 31
0.0000000001127424
  0
LINE
  5
B4DC
330
18
100
AcDbEntity
  8
01
100
AcDbLine
 10
5343.55236286687
 20
-356.2501369314825
 30
0.0000000001127424
 11
5343.87250752019
 21
-356.1762462454474
 31
0.0000000001127424
  0
LINE
  5
B4DD
330
18
100
AcDbEntity
  8
01
100
AcDbLine
 10
5343.87250752019
 20
-356.1762462454474
 30
0.0000000001127424
 11
5344.33474201726
 21
-356.0804744558966
 31
0.0000000001127424
  0
LINE
  5
B4DE
330
18
100
AcDbEntity
  8
01
100
AcDbLine
 10
5344.33474201726
 20
-356.0804744558966
 30
0.0000000001127424
 11
5344.943521924487
 21
-355.9666210013067
 31
0.0000000001127424
  0
LINE
  5
B4DF
330
18
100
AcDbEntity
  8
01
100
AcDbLine
 10
5344.943521924487
 20
-355.9666210013067
 30
0.0000000001127424
 11
5345.702539868823
 21
-355.8383327322638
 31
0.0000000001127424
  0
LINE
  5
B4E0
330
18
100
AcDbEntity
  8
01
100
AcDbLine
 10
5345.702539868823
 20
-355.8383327322638
 30
0.0000000001127424
 11
5346.612368054858
 21
-355.6985927420294
 31
0.0000000001127424
  0
LINE
  5
B4E1
330
18
100
AcDbEntity
  8
01
100
AcDbLine
 10
5346.612368054858
 20
-355.6985927420294
 30
0.0000000001127424
 11
5347.670488782397
 21
-355.5499721365607
 31
0.0000000001127424
  0
LINE
  5
B4E2
330
18
100
AcDbEntity
  8
01
100
AcDbLine
 10
5347.670488782397
 20
-355.5499721365607
 30
0.0000000001127424
 11
5348.86486286687
 21
-355.3948436575567
 31
0.0000000001127424
  0
LINE
  5
B4E3
330
18
100
AcDbEntity
  8
01
100
AcDbLine
 10
5348.86486286687
 20
-355.3948436575567
 30
0.0000000001127424
 11
5350.170496411792
 21
-355.2354656057989
 31
0.0000000001127424
  0
LINE
  5
B4E4
330
18
100
AcDbEntity
  8
01
100
AcDbLine
 10
5350.170496411792
 20
-355.2354656057989
 30
0.0000000001127424
 11
5351.553385205737
 21
-355.0737377005255
 31
0.0000000001127424
  0
LINE
  5
B4E5
330
18
100
AcDbEntity
  8
01
100
AcDbLine
 10
5351.553385205737
 20
-355.0737377005255
 30
0.0000000001127424
 11
5352.982637830249
 21
-354.9109264212286
 31
0.0000000001127424
  0
LINE
  5
B4E6
330
18
100
AcDbEntity
  8
01
100
AcDbLine
 10
5352.982637830249
 20
-354.9109264212286
 30
0.0000000001127424
 11
5354.436800427905
 21
-354.747687895838
 31
0.0000000001127424
  0
LINE
  5
B4E7
330
18
100
AcDbEntity
  8
01
100
AcDbLine
 10
5354.436800427905
 20
-354.747687895838
 30
0.0000000001127424
 11
5355.903177686206
 21
-354.5844493704474
 31
0.0000000001127424
  0
LINE
  5
B4E8
330
18
100
AcDbEntity
  8
01
100
AcDbLine
 10
5355.903177686206
 20
-354.5844493704474
 30
0.0000000001127424
 11
5357.374720044604
 21
-354.4215923147833
 31
0.0000000001127424
  0
LINE
  5
B4E9
330
18
100
AcDbEntity
  8
01
100
AcDbLine
 10
5357.374720044604
 20
-354.4215923147833
 30
0.0000000001127424
 11
5358.846300549975
 21
-354.2595439749396
 31
0.0000000001127424
  0
LINE
  5
B4EA
330
18
100
AcDbEntity
  8
01
100
AcDbLine
 10
5358.846300549975
 20
-354.2595439749396
 30
0.0000000001127424
 11
5360.349916882983
 21
-354.0950160818732
 31
0.0000000001127424
  0
LINE
  5
B4EB
330
18
100
AcDbEntity
  8
01
100
AcDbLine
 10
5324.260263867846
 20
-354.1335750418341
 30
0.0000000001127424
 11
5324.20674366521
 21
-354.041991789881
 31
0.0000000001127424
  0
LINE
  5
B4EC
330
18
100
AcDbEntity
  8
01
100
AcDbLine
 10
5324.20674366521
 20
-354.041991789881
 30
0.0000000001127424
 11
5324.106707044116
 21
-353.8732143240607
 31
0.0000000001127424
  0
LINE
  5
B4ED
330
18
100
AcDbEntity
  8
01
100
AcDbLine
 10
5324.106707044116
 20
-353.8732143240607
 30
0.0000000001127424
 11
5323.960924573413
 21
-353.6270900564825
 31
0.0000000001127424
  0
LINE
  5
B4EE
330
18
100
AcDbEntity
  8
01
100
AcDbLine
 10
5323.960924573413
 20
-353.6270900564825
 30
0.0000000001127424
 11
5323.771715589038
 21
-353.3022304373419
 31
0.0000000001127424
  0
LINE
  5
B4EF
330
18
100
AcDbEntity
  8
01
100
AcDbLine
 10
5323.771715589038
 20
-353.3022304373419
 30
0.0000000001127424
 11
5323.466837354174
 21
-352.7564693289435
 31
0.0000000001127424
  0
LINE
  5
B4F0
330
18
100
AcDbEntity
  8
01
100
AcDbLine
 10
5323.367861218921
 20
-342.7672649222052
 30
0.0000000001127424
 11
5323.244226880542
 21
-343.1311641531622
 31
0.0000000001127424
  0
LINE
  5
B4F1
330
18
100
AcDbEntity
  8
01
100
AcDbLine
 10
5323.244226880542
 20
-343.1311641531622
 30
0.0000000001127424
 11
5323.127253003589
 21
-343.5056224661505
 31
0.0000000001127424
  0
LINE
  5
B4F2
330
18
100
AcDbEntity
  8
01
100
AcDbLine
 10
5323.127253003589
 20
-343.5056224661505
 30
0.0000000001127424
 11
5323.017336316577
 21
-343.8921123343146
 31
0.0000000001127424
  0
LINE
  5
B4F3
330
18
100
AcDbEntity
  8
01
100
AcDbLine
 10
5323.017336316577
 20
-343.8921123343146
 30
0.0000000001127424
 11
5322.914873548022
 21
-344.2925563650763
 31
0.0000000001127424
  0
LINE
  5
B4F4
330
18
100
AcDbEntity
  8
01
100
AcDbLine
 10
5322.914873548022
 20
-344.2925563650763
 30
0.0000000001127424
 11
5322.820253797046
 21
-344.7107539969122
 31
0.0000000001127424
  0
LINE
  5
B4F5
330
18
100
AcDbEntity
  8
01
100
AcDbLine
 10
5322.820253797046
 20
-344.7107539969122
 30
0.0000000001127424
 11
5322.734079785815
 21
-345.1520534353888
 31
0.0000000001127424
  0
LINE
  5
B4F6
330
18
100
AcDbEntity
  8
01
100
AcDbLine
 10
5322.734079785815
 20
-345.1520534353888
 30
0.0000000001127424
 11
5322.657808728686
 21
-345.6212306814825
 31
0.0000000001127424
  0
LINE
  5
B4F7
330
18
100
AcDbEntity
  8
01
100
AcDbLine
 10
5322.657808728686
 20
-345.6212306814825
 30
0.0000000001127424
 11
5322.592905469409
 21
-346.1304241018927
 31
0.0000000001127424
  0
LINE
  5
B4F8
330
18
100
AcDbEntity
  8
01
100
AcDbLine
 10
5322.592905469409
 20
-346.1304241018927
 30
0.0000000001127424
 11
5322.542955823413
 21
-346.6914363699591
 31
0.0000000001127424
  0
LINE
  5
B4F9
330
18
100
AcDbEntity
  8
01
100
AcDbLine
 10
5322.542955823413
 20
-346.6914363699591
 30
0.0000000001127424
 11
5322.514086194506
 21
-347.3097453909552
 31
0.0000000001127424
  0
LINE
  5
B4FA
330
18
100
AcDbEntity
  8
01
100
AcDbLine
 10
5322.514086194506
 20
-347.3097453909552
 30
0.0000000001127424
 11
5322.513323255053
 21
-347.9581523733771
 31
0.0000000001127424
  0
LINE
  5
B4FB
330
18
100
AcDbEntity
  8
01
100
AcDbLine
 10
5322.513323255053
 20
-347.9581523733771
 30
0.0000000001127424
 11
5322.540903516284
 21
-348.5789409475958
 31
0.0000000001127424
  0
LINE
  5
B4FC
330
18
100
AcDbEntity
  8
01
100
AcDbLine
 10
5322.540903516284
 20
-348.5789409475958
 30
0.0000000001127424
 11
5322.589975781909
 21
-349.1431194143927
 31
0.0000000001127424
  0
LINE
  5
B4FD
330
18
100
AcDbEntity
  8
01
100
AcDbLine
 10
5322.589975781909
 20
-349.1431194143927
 30
0.0000000001127424
 11
5322.654200025073
 21
-349.6545482474005
 31
0.0000000001127424
  0
LINE
  5
B4FE
330
18
100
AcDbEntity
  8
01
100
AcDbLine
 10
5322.654200025073
 20
-349.6545482474005
 30
0.0000000001127424
 11
5322.730066724292
 21
-350.1261363821661
 31
0.0000000001127424
  0
LINE
  5
B4FF
330
18
100
AcDbEntity
  8
01
100
AcDbLine
 10
5322.730066724292
 20
-350.1261363821661
 30
0.0000000001127424
 11
5322.815668530932
 21
-350.5680690603888
 31
0.0000000001127424
  0
LINE
  5
B500
330
18
100
AcDbEntity
  8
01
100
AcDbLine
 10
5322.815668530932
 20
-350.5680690603888
 30
0.0000000001127424
 11
5322.909876294604
 21
-350.9873271780646
 31
0.0000000001127424
  0
LINE
  5
B501
330
18
100
AcDbEntity
  8
01
100
AcDbLine
 10
5322.909876294604
 20
-350.9873271780646
 30
0.0000000001127424
 11
5323.011812634936
 21
-351.3880458670294
 31
0.0000000001127424
  0
LINE
  5
B502
330
18
100
AcDbEntity
  8
01
100
AcDbLine
 10
5323.011812634936
 20
-351.3880458670294
 30
0.0000000001127424
 11
5323.121607251635
 21
-351.7760234671271
 31
0.0000000001127424
  0
LINE
  5
B503
330
18
100
AcDbEntity
  8
01
100
AcDbLine
 10
5323.121607251635
 20
-351.7760234671271
 30
0.0000000001127424
 11
5323.238047070971
 21
-352.1503063040411
 31
0.0000000001127424
  0
LINE
  5
B504
330
18
100
AcDbEntity
  8
01
100
AcDbLine
 10
5323.238047070971
 20
-352.1503063040411
 30
0.0000000001127424
 11
5323.36794514226
 21
-352.5337138968146
 31
0.0000000001127424
  0
LINE
  5
B505
330
18
100
AcDbEntity
  8
01
100
AcDbLine
 10
5343.30765003728
 20
-338.9860072928105
 30
0.0000000001127424
 11
5343.367006726733
 21
-339.0028606253301
 31
0.0000000001127424
  0
LINE
  5
B506
330
18
100
AcDbEntity
  8
01
100
AcDbLine
 10
5343.367006726733
 20
-339.0028606253301
 30
0.0000000001127424
 11
5343.55236286687
 21
-339.0505061941777
 31
0.0000000001127424
  0
LINE
  5
B507
330
18
100
AcDbEntity
  8
01
100
AcDbLine
 10
5343.55236286687
 20
-339.0505061941777
 30
0.0000000001127424
 11
5343.87250752019
 21
-339.1243968802129
 31
0.0000000001127424
  0
LINE
  5
B508
330
18
100
AcDbEntity
  8
01
100
AcDbLine
 10
5343.87250752019
 20
-339.1243968802129
 30
0.0000000001127424
 11
5344.33474201726
 21
-339.2201686697637
 31
0.0000000001127424
  0
LINE
  5
B509
330
18
100
AcDbEntity
  8
01
100
AcDbLine
 10
5344.33474201726
 20
-339.2201686697637
 30
0.0000000001127424
 11
5344.943521924487
 21
-339.334029753748
 31
0.0000000001127424
  0
LINE
  5
B50A
330
18
100
AcDbEntity
  8
01
100
AcDbLine
 10
5344.943521924487
 20
-339.334029753748
 30
0.0000000001127424
 11
5345.702539868823
 21
-339.462318022791
 31
0.0000000001127424
  0
LINE
  5
B50B
330
18
100
AcDbEntity
  8
01
100
AcDbLine
 10
5345.702539868823
 20
-339.462318022791
 30
0.0000000001127424
 11
5346.612368054858
 21
-339.6020580130254
 31
0.0000000001127424
  0
LINE
  5
B50C
330
18
100
AcDbEntity
  8
01
100
AcDbLine
 10
5346.612368054858
 20
-339.6020580130254
 30
0.0000000001127424
 11
5347.670488782397
 21
-339.7506786184942
 31
0.0000000001127424
  0
LINE
  5
B50D
330
18
100
AcDbEntity
  8
01
100
AcDbLine
 10
5347.670488782397
 20
-339.7506786184942
 30
0.0000000001127424
 11
5348.86486286687
 21
-339.9058070974982
 31
0.0000000001127424
  0
LINE
  5
B50E
330
18
100
AcDbEntity
  8
01
100
AcDbLine
 10
5348.86486286687
 20
-339.9058070974982
 30
0.0000000001127424
 11
5350.170496411792
 21
-340.065185149256
 31
0.0000000001127424
  0
LINE
  5
B50F
330
18
100
AcDbEntity
  8
01
100
AcDbLine
 10
5350.170496411792
 20
-340.065185149256
 30
0.0000000001127424
 11
5351.553385205737
 21
-340.2269054251349
 31
0.0000000001127424
  0
LINE
  5
B510
330
18
100
AcDbEntity
  8
01
100
AcDbLine
 10
5351.553385205737
 20
-340.2269054251349
 30
0.0000000001127424
 11
5352.982637830249
 21
-340.3897243338263
 31
0.0000000001127424
  0
LINE
  5
B511
330
18
100
AcDbEntity
  8
01
100
AcDbLine
 10
5352.982637830249
 20
-340.3897243338263
 30
0.0000000001127424
 11
5354.436800427905
 21
-340.5529552298224
 31
0.0000000001127424
  0
LINE
  5
B512
330
18
100
AcDbEntity
  8
01
100
AcDbLine
 10
5354.436800427905
 20
-340.5529552298224
 30
0.0000000001127424
 11
5355.903177686206
 21
-340.716193755213
 31
0.0000000001127424
  0
LINE
  5
B513
330
18
100
AcDbEntity
  8
01
100
AcDbLine
 10
5355.903177686206
 20
-340.716193755213
 30
0.0000000001127424
 11
5357.374720044604
 21
-340.8790584402716
 31
0.0000000001127424
  0
LINE
  5
B514
330
18
100
AcDbEntity
  8
01
100
AcDbLine
 10
5357.374720044604
 20
-340.8790584402716
 30
0.0000000001127424
 11
5358.846300549975
 21
-341.0410991507208
 31
0.0000000001127424
  0
LINE
  5
B515
330
18
100
AcDbEntity
  8
01
100
AcDbLine
 10
5358.846300549975
 20
-341.0410991507208
 30
0.0000000001127424
 11
5360.349916882983
 21
-341.2056346731817
 31
0.0000000001127424
  0
LINE
  5
B516
330
18
100
AcDbEntity
  8
01
100
AcDbLine
 10
5324.260263867846
 20
-341.1670680838263
 30
0.0000000001127424
 11
5324.20674366521
 21
-341.2586589651739
 31
0.0000000001127424
  0
LINE
  5
B517
330
18
100
AcDbEntity
  8
01
100
AcDbLine
 10
5324.20674366521
 20
-341.2586589651739
 30
0.0000000001127424
 11
5324.106707044116
 21
-341.4274288015997
 31
0.0000000001127424
  0
LINE
  5
B518
330
18
100
AcDbEntity
  8
01
100
AcDbLine
 10
5324.106707044116
 20
-341.4274288015997
 30
0.0000000001127424
 11
5323.960924573413
 21
-341.6735606985724
 31
0.0000000001127424
  0
LINE
  5
B519
330
18
100
AcDbEntity
  8
01
100
AcDbLine
 10
5323.960924573413
 20
-341.6735606985724
 30
0.0000000001127424
 11
5323.771715589038
 21
-341.9984126883185
 31
0.0000000001127424
  0
LINE
  5
B51A
330
18
100
AcDbEntity
  8
01
100
AcDbLine
 10
5323.771715589038
 20
-341.9984126883185
 30
0.0000000001127424
 11
5323.466837354174
 21
-342.5441737967169
 31
0.0000000001127424
  0
LINE
  5
B51B
330
18
100
AcDbEntity
  8
01
100
AcDbLine
 10
5322.528249333749
 20
-196.6516722773035
 30
0.0000000001127424
 11
5322.518926213632
 21
-198.6307372187098
 31
0.0000000001127424
  0
LINE
  5
B51C
330
18
100
AcDbEntity
  8
01
100
AcDbLine
 10
5322.518926213632
 20
-198.6307372187098
 30
0.0000000001127424
 11
5322.512006352792
 21
-200.609802160116
 31
0.0000000001127424
  0
LINE
  5
B51D
330
18
100
AcDbEntity
  8
01
100
AcDbLine
 10
5322.512006352792
 20
-200.609802160116
 30
0.0000000001127424
 11
5322.510045598397
 21
-202.5888976191004
 31
0.0000000001127424
  0
LINE
  5
B51E
330
18
100
AcDbEntity
  8
01
100
AcDbLine
 10
5322.510045598397
 20
-202.5888976191004
 30
0.0000000001127424
 11
5322.515653203378
 21
-204.5680083368738
 31
0.0000000001127424
  0
LINE
  5
B51F
330
18
100
AcDbEntity
  8
01
100
AcDbLine
 10
5322.515653203378
 20
-204.5680083368738
 30
0.0000000001127424
 11
5322.531873296151
 21
-206.547042760702
 31
0.0000000001127424
  0
LINE
  5
B520
330
18
100
AcDbEntity
  8
01
100
AcDbLine
 10
5322.531873296151
 20
-206.547042760702
 30
0.0000000001127424
 11
5322.561902593026
 21
-208.5258635614832
 31
0.0000000001127424
  0
LINE
  5
B521
330
18
100
AcDbEntity
  8
01
100
AcDbLine
 10
5322.561902593026
 20
-208.5258635614832
 30
0.0000000001127424
 11
5322.608953069101
 21
-210.5043639276942
 31
0.0000000001127424
  0
LINE
  5
B522
330
18
100
AcDbEntity
  8
01
100
AcDbLine
 10
5322.608953069101
 20
-210.5043639276942
 30
0.0000000001127424
 11
5322.676396916757
 21
-212.4823302362879
 31
0.0000000001127424
  0
LINE
  5
B523
330
18
100
AcDbEntity
  8
01
100
AcDbLine
 10
5322.676396916757
 20
-212.4823302362879
 30
0.0000000001127424
 11
5322.768170903573
 21
-214.4592589472254
 31
0.0000000001127424
  0
LINE
  5
B524
330
18
100
AcDbEntity
  8
01
100
AcDbLine
 10
5322.768170903573
 20
-214.4592589472254
 30
0.0000000001127424
 11
5322.888272832284
 21
-216.4346617792567
 31
0.0000000001127424
  0
LINE
  5
B525
330
18
100
AcDbEntity
  8
01
100
AcDbLine
 10
5322.888272832284
 20
-216.4346617792567
 30
0.0000000001127424
 11
5323.040860722909
 21
-218.407897863241
 31
0.0000000001127424
  0
LINE
  5
B526
330
18
100
AcDbEntity
  8
01
100
AcDbLine
 10
5323.040860722909
 20
-218.407897863241
 30
0.0000000001127424
 11
5323.230687688241
 21
-220.3778227899988
 31
0.0000000001127424
  0
LINE
  5
B527
330
18
100
AcDbEntity
  8
01
100
AcDbLine
 10
5323.230687688241
 20
-220.3778227899988
 30
0.0000000001127424
 11
5323.46263654078
 21
-222.3431700800379
 31
0.0000000001127424
  0
LINE
  5
B528
330
18
100
AcDbEntity
  8
01
100
AcDbLine
 10
5323.46263654078
 20
-222.3431700800379
 30
0.0000000001127424
 11
5323.741811345468
 21
-224.302429113241
 31
0.0000000001127424
  0
LINE
  5
B529
330
18
100
AcDbEntity
  8
01
100
AcDbLine
 10
5323.741811345468
 20
-224.302429113241
 30
0.0000000001127424
 11
5324.073773930917
 21
-226.2534178827723
 31
0.0000000001127424
  0
LINE
  5
B52A
330
18
100
AcDbEntity
  8
01
100
AcDbLine
 10
5324.073773930917
 20
-226.2534178827723
 30
0.0000000001127424
 11
5324.464307378183
 21
-228.1935118769129
 31
0.0000000001127424
  0
LINE
  5
B52B
330
18
100
AcDbEntity
  8
01
100
AcDbLine
 10
5324.464307378183
 20
-228.1935118769129
 30
0.0000000001127424
 11
5324.919454167733
 21
-230.1194457148035
 31
0.0000000001127424
  0
LINE
  5
B52C
330
18
100
AcDbEntity
  8
01
100
AcDbLine
 10
5324.919454167733
 20
-230.1194457148035
 30
0.0000000001127424
 11
5325.445409367929
 21
-232.0272521112879
 31
0.0000000001127424
  0
LINE
  5
B52D
330
18
100
AcDbEntity
  8
01
100
AcDbLine
 10
5325.445409367929
 20
-232.0272521112879
 30
0.0000000001127424
 11
5326.048528264413
 21
-233.9120940302332
 31
0.0000000001127424
  0
LINE
  5
B52E
330
18
100
AcDbEntity
  8
01
100
AcDbLine
 10
5326.048528264413
 20
-233.9120940302332
 30
0.0000000001127424
 11
5326.735112737069
 21
-235.7680815790613
 31
0.0000000001127424
  0
LINE
  5
B52F
330
18
100
AcDbEntity
  8
01
100
AcDbLine
 10
5326.735112737069
 20
-235.7680815790613
 30
0.0000000001127424
 11
5327.511365483651
 21
-237.588302526327
 31
0.0000000001127424
  0
LINE
  5
B530
330
18
100
AcDbEntity
  8
01
100
AcDbLine
 10
5327.511365483651
 20
-237.588302526327
 30
0.0000000001127424
 11
5328.383145879159
 21
-239.3647917841395
 31
0.0000000001127424
  0
LINE
  5
B531
330
18
100
AcDbEntity
  8
01
100
AcDbLine
 10
5328.383145879159
 20
-239.3647917841395
 30
0.0000000001127424
 11
5329.35563428248
 21
-241.0884245966395
 31
0.0000000001127424
  0
LINE
  5
B532
330
18
100
AcDbEntity
  8
01
100
AcDbLine
 10
5329.35563428248
 20
-241.0884245966395
 30
0.0000000001127424
 11
5330.432416509042
 21
-242.7483824823817
 31
0.0000000001127424
  0
LINE
  5
B533
330
18
100
AcDbEntity
  8
01
100
AcDbLine
 10
5330.432416509042
 20
-242.7483824823817
 30
0.0000000001127424
 11
5331.616574834237
 21
-244.3335112665613
 31
0.0000000001127424
  0
LINE
  5
B534
330
18
100
AcDbEntity
  8
01
100
AcDbLine
 10
5331.616574834237
 20
-244.3335112665613
 30
0.0000000001127424
 11
5332.908681462655
 21
-245.8321227167567
 31
0.0000000001127424
  0
LINE
  5
B535
330
18
100
AcDbEntity
  8
01
100
AcDbLine
 10
5332.908681462655
 20
-245.8321227167567
 30
0.0000000001127424
 11
5334.306844304452
 21
-247.2320250605067
 31
0.0000000001127424
  0
LINE
  5
B536
330
18
100
AcDbEntity
  8
01
100
AcDbLine
 10
5334.306844304452
 20
-247.2320250605067
 30
0.0000000001127424
 11
5335.807607243905
 21
-248.5214537714442
 31
0.0000000001127424
  0
LINE
  5
B537
330
18
100
AcDbEntity
  8
01
100
AcDbLine
 10
5335.807607243905
 20
-248.5214537714442
 30
0.0000000001127424
 11
5337.404347966562
 21
-249.6899565790613
 31
0.0000000001127424
  0
LINE
  5
B538
330
18
100
AcDbEntity
  8
01
100
AcDbLine
 10
5337.404347966562
 20
-249.6899565790613
 30
0.0000000001127424
 11
5339.087445805917
 21
-250.7302092646082
 31
0.0000000001127424
  0
LINE
  5
B539
330
18
100
AcDbEntity
  8
01
100
AcDbLine
 10
5339.087445805917
 20
-250.7302092646082
 30
0.0000000001127424
 11
5340.846005986581
 21
-251.6365050409754
 31
0.0000000001127424
  0
LINE
  5
B53A
330
18
100
AcDbEntity
  8
01
100
AcDbLine
 10
5340.846005986581
 20
-251.6365050409754
 30
0.0000000001127424
 11
5342.668279240976
 21
-252.4071959589442
 31
0.0000000001127424
  0
LINE
  5
B53B
330
18
100
AcDbEntity
  8
01
100
AcDbLine
 10
5342.668279240976
 20
-252.4071959589442
 30
0.0000000001127424
 11
5344.541448186288
 21
-253.0455168817957
 31
0.0000000001127424
  0
LINE
  5
B53C
330
18
100
AcDbEntity
  8
01
100
AcDbLine
 10
5344.541448186288
 20
-253.0455168817957
 30
0.0000000001127424
 11
5346.453099797616
 21
-253.5562743280848
 31
0.0000000001127424
  0
LINE
  5
B53D
330
18
100
AcDbEntity
  8
01
100
AcDbLine
 10
5346.453099797616
 20
-253.5562743280848
 30
0.0000000001127424
 11
5348.392537663827
 21
-253.9494170282801
 31
0.0000000001127424
  0
LINE
  5
B53E
330
18
100
AcDbEntity
  8
01
100
AcDbLine
 10
5348.392537663827
 20
-253.9494170282801
 30
0.0000000001127424
 11
5350.350385259042
 21
-254.2371825312098
 31
0.0000000001127424
  0
LINE
  5
B53F
330
18
100
AcDbEntity
  8
01
100
AcDbLine
 10
5350.350385259042
 20
-254.2371825312098
 30
0.0000000001127424
 11
5352.319448064218
 21
-254.4340972040613
 31
0.0000000001127424
  0
LINE
  5
B540
330
18
100
AcDbEntity
  8
01
100
AcDbLine
 10
5352.319448064218
 20
-254.4340972040613
 30
0.0000000001127424
 11
5354.294690678964
 21
-254.5563811396082
 31
0.0000000001127424
  0
LINE
  5
B541
330
18
100
AcDbEntity
  8
01
100
AcDbLine
 10
5354.294690678964
 20
-254.5563811396082
 30
0.0000000001127424
 11
5356.272687505136
 21
-254.6214293573817
 31
0.0000000001127424
  0
LINE
  5
B542
330
18
100
AcDbEntity
  8
01
100
AcDbLine
 10
5356.272687505136
 20
-254.6214293573817
 30
0.0000000001127424
 11
5358.251584599862
 21
-254.6470946405848
 31
0.0000000001127424
  0
LINE
  5
B543
330
18
100
AcDbEntity
  8
01
100
AcDbLine
 10
5358.251584599862
 20
-254.6470946405848
 30
0.0000000001127424
 11
5360.257192204843
 21
-254.6516722773035
 31
0.0000000001127424
  0
LINE
  5
B544
330
18
100
AcDbEntity
  8
01
100
AcDbLine
 10
5348.528249333749
 20
-196.6516722773035
 30
0.0000000001127424
 11
5348.533902715097
 21
-197.6051024530848
 31
0.0000000001127424
  0
LINE
  5
B545
330
18
100
AcDbEntity
  8
01
100
AcDbLine
 10
5348.533902715097
 20
-197.6051024530848
 30
0.0000000001127424
 11
5348.539029668222
 21
-198.558532628866
 31
0.0000000001127424
  0
LINE
  5
B546
330
18
100
AcDbEntity
  8
01
100
AcDbLine
 10
5348.539029668222
 20
-198.558532628866
 30
0.0000000001127424
 11
5348.543332646737
 21
-199.5119628046473
 31
0.0000000001127424
  0
LINE
  5
B547
330
18
100
AcDbEntity
  8
01
100
AcDbLine
 10
5348.543332646737
 20
-199.5119628046473
 30
0.0000000001127424
 11
5348.54678876246
 21
-200.4653929804285
 31
0.0000000001127424
  0
LINE
  5
B548
330
18
100
AcDbEntity
  8
01
100
AcDbLine
 10
5348.54678876246
 20
-200.4653929804285
 30
0.0000000001127424
 11
5348.549642156015
 21
-201.4188384149988
 31
0.0000000001127424
  0
LINE
  5
B549
330
18
100
AcDbEntity
  8
01
100
AcDbLine
 10
5348.549642156015
 20
-201.4188384149988
 30
0.0000000001127424
 11
5348.552213261972
 21
-202.3722838495692
 31
0.0000000001127424
  0
LINE
  5
B54A
330
18
100
AcDbEntity
  8
01
100
AcDbLine
 10
5348.552213261972
 20
-202.3722838495692
 30
0.0000000001127424
 11
5348.555020879159
 21
-203.3257292841395
 31
0.0000000001127424
  0
LINE
  5
B54B
330
18
100
AcDbEntity
  8
01
100
AcDbLine
 10
5348.555020879159
 20
-203.3257292841395
 30
0.0000000001127424
 11
5348.558660100351
 21
-204.2791747187098
 31
0.0000000001127424
  0
LINE
  5
B54C
330
18
100
AcDbEntity
  8
01
100
AcDbLine
 10
5348.558660100351
 20
-204.2791747187098
 30
0.0000000001127424
 11
5348.563741277108
 21
-205.232604894491
 31
0.0000000001127424
  0
LINE
  5
B54D
330
18
100
AcDbEntity
  8
01
100
AcDbLine
 10
5348.563741277108
 20
-205.232604894491
 30
0.0000000001127424
 11
5348.570851872812
 21
-206.1860045526942
 31
0.0000000001127424
  0
LINE
  5
B54E
330
18
100
AcDbEntity
  8
01
100
AcDbLine
 10
5348.570851872812
 20
-206.1860045526942
 30
0.0000000001127424
 11
5348.580586980233
 21
-207.1393889521082
 31
0.0000000001127424
  0
LINE
  5
B54F
330
18
100
AcDbEntity
  8
01
100
AcDbLine
 10
5348.580586980233
 20
-207.1393889521082
 30
0.0000000001127424
 11
5348.593556950937
 21
-208.0927428339442
 31
0.0000000001127424
  0
LINE
  5
B550
330
18
100
AcDbEntity
  8
01
100
AcDbLine
 10
5348.593556950937
 20
-208.0927428339442
 30
0.0000000001127424
 11
5348.610456059823
 21
-209.0460204218348
 31
0.0000000001127424
  0
LINE
  5
B551
330
18
100
AcDbEntity
  8
01
100
AcDbLine
 10
5348.610456059823
 20
-209.0460204218348
 30
0.0000000001127424
 11
5348.63207013453
 21
-209.9992217157801
 31
0.0000000001127424
  0
LINE
  5
B552
330
18
100
AcDbEntity
  8
01
100
AcDbLine
 10
5348.63207013453
 20
-209.9992217157801
 30
0.0000000001127424
 11
5348.659185002694
 21
-210.9522856806238
 31
0.0000000001127424
  0
LINE
  5
B553
330
18
100
AcDbEntity
  8
01
100
AcDbLine
 10
5348.659185002694
 20
-210.9522856806238
 30
0.0000000001127424
 11
5348.692624638925
 21
-211.9051512812098
 31
0.0000000001127424
  0
LINE
  5
B554
330
18
100
AcDbEntity
  8
01
100
AcDbLine
 10
5348.692624638925
 20
-211.9051512812098
 30
0.0000000001127424
 11
5348.73354871119
 21
-212.8577422235926
 31
0.0000000001127424
  0
LINE
  5
B555
330
18
100
AcDbEntity
  8
01
100
AcDbLine
 10
5348.73354871119
 20
-212.8577422235926
 30
0.0000000001127424
 11
5348.783322881112
 21
-213.8098754023035
 31
0.0000000001127424
  0
LINE
  5
B556
330
18
100
AcDbEntity
  8
01
100
AcDbLine
 10
5348.783322881112
 20
-213.8098754023035
 30
0.0000000001127424
 11
5348.843328069101
 21
-214.761398229452
 31
0.0000000001127424
  0
LINE
  5
B557
330
18
100
AcDbEntity
  8
01
100
AcDbLine
 10
5348.843328069101
 20
-214.761398229452
 30
0.0000000001127424
 11
5348.915013860116
 21
-215.7121275995692
 31
0.0000000001127424
  0
LINE
  5
B558
330
18
100
AcDbEntity
  8
01
100
AcDbLine
 10
5348.915013860116
 20
-215.7121275995692
 30
0.0000000001127424
 11
5349.000325749765
 21
-216.6617430780848
 31
0.0000000001127424
  0
LINE
  5
B559
330
18
100
AcDbEntity
  8
01
100
AcDbLine
 10
5349.000325749765
 20
-216.6617430780848
 30
0.0000000001127424
 11
5349.10172803248
 21
-217.6097716425379
 31
0.0000000001127424
  0
LINE
  5
B55A
330
18
100
AcDbEntity
  8
01
100
AcDbLine
 10
5349.10172803248
 20
-217.6097716425379
 30
0.0000000001127424
 11
5349.221967290292
 21
-218.555587682577
 31
0.0000000001127424
  0
LINE
  5
B55B
330
18
100
AcDbEntity
  8
01
100
AcDbLine
 10
5349.221967290292
 20
-218.555587682577
 30
0.0000000001127424
 11
5349.364194463144
 21
-219.4984282587488
 31
0.0000000001127424
  0
LINE
  5
B55C
330
18
100
AcDbEntity
  8
01
100
AcDbLine
 10
5349.364194463144
 20
-219.4984282587488
 30
0.0000000001127424
 11
5349.533124516855
 21
-220.436706456991
 31
0.0000000001127424
  0
LINE
  5
B55D
330
18
100
AcDbEntity
  8
01
100
AcDbLine
 10
5349.533124516855
 20
-220.436706456991
 30
0.0000000001127424
 11
5349.73388440455
 21
-221.3686827753504
 31
0.0000000001127424
  0
LINE
  5
B55E
330
18
100
AcDbEntity
  8
01
100
AcDbLine
 10
5349.73388440455
 20
-221.3686827753504
 30
0.0000000001127424
 11
5349.973111699472
 21
-222.2915495966395
 31
0.0000000001127424
  0
LINE
  5
B55F
330
18
100
AcDbEntity
  8
01
100
AcDbLine
 10
5349.973111699472
 20
-222.2915495966395
 30
0.0000000001127424
 11
5350.259610722909
 21
-223.2008055780848
 31
0.0000000001127424
  0
LINE
  5
B560
330
18
100
AcDbEntity
  8
01
100
AcDbLine
 10
5350.259610722909
 20
-223.2008055780848
 30
0.0000000001127424
 11
5350.604108403573
 21
-224.0896605585535
 31
0.0000000001127424
  0
LINE
  5
B561
330
18
100
AcDbEntity
  8
01
100
AcDbLine
 10
5350.604108403573
 20
-224.0896605585535
 30
0.0000000001127424
 11
5351.019895146737
 21
-224.9472960566004
 31
0.0000000001127424
  0
LINE
  5
B562
330
18
100
AcDbEntity
  8
01
100
AcDbLine
 10
5351.019895146737
 20
-224.9472960566004
 30
0.0000000001127424
 11
5351.52188641871
 21
-225.7573088739832
 31
0.0000000001127424
  0
LINE
  5
B563
330
18
100
AcDbEntity
  8
01
100
AcDbLine
 10
5351.52188641871
 20
-225.7573088739832
 30
0.0000000001127424
 11
5352.123082707772
 21
-226.4963378046473
 31
0.0000000001127424
  0
LINE
  5
B564
330
18
100
AcDbEntity
  8
01
100
AcDbLine
 10
5352.123082707772
 20
-226.4963378046473
 30
0.0000000001127424
 11
5352.828328679452
 21
-227.1365050409754
 31
0.0000000001127424
  0
LINE
  5
B565
330
18
100
AcDbEntity
  8
01
100
AcDbLine
 10
5352.828328679452
 20
-227.1365050409754
 30
0.0000000001127424
 11
5353.628133366952
 21
-227.6537016962488
 31
0.0000000001127424
  0
LINE
  5
B566
330
18
100
AcDbEntity
  8
01
100
AcDbLine
 10
5353.628133366952
 20
-227.6537016962488
 30
0.0000000001127424
 11
5354.498647282968
 21
-228.0399321649988
 31
0.0000000001127424
  0
LINE
  5
B567
330
18
100
AcDbEntity
  8
01
100
AcDbLine
 10
5354.498647282968
 20
-228.0399321649988
 30
0.0000000001127424
 11
5355.413640569101
 21
-228.3069457148035
 31
0.0000000001127424
  0
LINE
  5
B568
330
18
100
AcDbEntity
  8
01
100
AcDbLine
 10
5355.413640569101
 20
-228.3069457148035
 30
0.0000000001127424
 11
5356.351361821542
 21
-228.4773406122645
 31
0.0000000001127424
  0
LINE
  5
B569
330
18
100
AcDbEntity
  8
01
100
AcDbLine
 10
5356.351361821542
 20
-228.4773406122645
 30
0.0000000001127424
 11
5357.299504826913
 21
-228.576354894491
 31
0.0000000001127424
  0
LINE
  5
B56A
330
18
100
AcDbEntity
  8
01
100
AcDbLine
 10
5357.299504826913
 20
-228.576354894491
 30
0.0000000001127424
 11
5358.255017827401
 21
-228.6268004511317
 31
0.0000000001127424
  0
LINE
  5
B56B
330
18
100
AcDbEntity
  8
01
100
AcDbLine
 10
5358.255017827401
 20
-228.6268157099207
 30
0.0000000001127424
 11
5357.30296857203
 21
-228.5765685175379
 31
0.0000000001127424
  0
LINE
  5
B56C
330
18
100
AcDbEntity
  8
01
100
AcDbLine
 10
5357.30296857203
 20
-228.5765685175379
 30
0.0000000001127424
 11
5356.35472638453
 21
-228.4777831171473
 31
0.0000000001127424
  0
LINE
  5
B56D
330
18
100
AcDbEntity
  8
01
100
AcDbLine
 10
5356.35472638453
 20
-228.4777831171473
 30
0.0000000001127424
 11
5355.416928838144
 21
-228.3076933954676
 31
0.0000000001127424
  0
LINE
  5
B56E
330
18
100
AcDbEntity
  8
01
100
AcDbLine
 10
5355.416928838144
 20
-228.3076933954676
 30
0.0000000001127424
 11
5354.502027104745
 21
-228.041198644491
 31
0.0000000001127424
  0
LINE
  5
B56F
330
18
100
AcDbEntity
  8
01
100
AcDbLine
 10
5354.502027104745
 20
-228.041198644491
 30
0.0000000001127424
 11
5353.630979131112
 21
-227.6553954218348
 31
0.0000000001127424
  0
LINE
  5
B570
330
18
100
AcDbEntity
  8
01
100
AcDbLine
 10
5353.630979131112
 20
-227.6553954218348
 30
0.0000000001127424
 11
5352.830930302987
 21
-227.1386260126551
 31
0.0000000001127424
  0
LINE
  5
B571
330
18
100
AcDbEntity
  8
01
100
AcDbLine
 10
5352.830930302987
 20
-227.1386260126551
 30
0.0000000001127424
 11
5352.125707219491
 21
-226.4987639521082
 31
0.0000000001127424
  0
LINE
  5
B572
330
18
100
AcDbEntity
  8
01
100
AcDbLine
 10
5352.125707219491
 20
-226.4987639521082
 30
0.0000000001127424
 11
5351.523816655526
 21
-225.7600859735926
 31
0.0000000001127424
  0
LINE
  5
B573
330
18
100
AcDbEntity
  8
01
100
AcDbLine
 10
5351.523816655526
 20
-225.7600859735926
 30
0.0000000001127424
 11
5351.021489690194
 21
-224.9502867792567
 31
0.0000000001127424
  0
LINE
  5
B574
330
18
100
AcDbEntity
  8
01
100
AcDbLine
 10
5351.021489690194
 20
-224.9502867792567
 30
0.0000000001127424
 11
5350.605283330331
 21
-224.0931548212488
 31
0.0000000001127424
  0
LINE
  5
B575
330
18
100
AcDbEntity
  8
01
100
AcDbLine
 10
5350.605283330331
 20
-224.0931548212488
 30
0.0000000001127424
 11
5350.260724614511
 21
-223.2039336298426
 31
0.0000000001127424
  0
LINE
  5
B576
330
18
100
AcDbEntity
  8
01
100
AcDbLine
 10
5350.260724614511
 20
-223.2039336298426
 30
0.0000000001127424
 11
5349.974080632577
 21
-222.2946929071863
 31
0.0000000001127424
  0
LINE
  5
B577
330
18
100
AcDbEntity
  8
01
100
AcDbLine
 10
5349.974080632577
 20
-222.2946929071863
 30
0.0000000001127424
 11
5349.734418462167
 21
-221.3721312616785
 31
0.0000000001127424
  0
LINE
  5
B578
330
18
100
AcDbEntity
  8
01
100
AcDbLine
 10
5349.734418462167
 20
-221.3721312616785
 30
0.0000000001127424
 11
5349.533574651132
 21
-220.4401702021082
 31
0.0000000001127424
  0
LINE
  5
B579
330
18
100
AcDbEntity
  8
01
100
AcDbLine
 10
5349.533574651132
 20
-220.4401702021082
 30
0.0000000001127424
 11
5349.36489636744
 21
-219.5015868280848
 31
0.0000000001127424
  0
LINE
  5
B57A
330
18
100
AcDbEntity
  8
01
100
AcDbLine
 10
5349.36489636744
 20
-219.5015868280848
 30
0.0000000001127424
 11
5349.222287724862
 21
-218.5588530634363
 31
0.0000000001127424
  0
LINE
  5
B57B
330
18
100
AcDbEntity
  8
01
100
AcDbLine
 10
5349.222287724862
 20
-218.5588530634363
 30
0.0000000001127424
 11
5349.101911137948
 21
-217.6130827997645
 31
0.0000000001127424
  0
LINE
  5
B57C
330
18
100
AcDbEntity
  8
01
100
AcDbLine
 10
5349.101911137948
 20
-217.6130827997645
 30
0.0000000001127424
 11
5349.000615666757
 21
-216.6650237177332
 31
0.0000000001127424
  0
LINE
  5
B57D
330
18
100
AcDbEntity
  8
01
100
AcDbLine
 10
5349.000615666757
 20
-216.6650237177332
 30
0.0000000001127424
 11
5348.915235112558
 21
-215.7154082392176
 31
0.0000000001127424
  0
LINE
  5
B57E
330
18
100
AcDbEntity
  8
01
100
AcDbLine
 10
5348.915235112558
 20
-215.7154082392176
 30
0.0000000001127424
 11
5348.843358586679
 21
-214.7647093866785
 31
0.0000000001127424
  0
LINE
  5
B57F
330
18
100
AcDbEntity
  8
01
100
AcDbLine
 10
5348.843358586679
 20
-214.7647093866785
 30
0.0000000001127424
 11
5348.783376286874
 21
-213.813171300741
 31
0.0000000001127424
  0
LINE
  5
B580
330
18
100
AcDbEntity
  8
01
100
AcDbLine
 10
5348.783376286874
 20
-213.813171300741
 30
0.0000000001127424
 11
5348.733724187265
 21
-212.8609923456629
 31
0.0000000001127424
  0
LINE
  5
B581
330
18
100
AcDbEntity
  8
01
100
AcDbLine
 10
5348.733724187265
 20
-212.8609923456629
 30
0.0000000001127424
 11
5348.692838261972
 21
-211.908370885702
 31
0.0000000001127424
  0
LINE
  5
B582
330
18
100
AcDbEntity
  8
01
100
AcDbLine
 10
5348.692838261972
 20
-211.908370885702
 30
0.0000000001127424
 11
5348.659276555429
 21
-210.955490026327
 31
0.0000000001127424
  0
LINE
  5
B583
330
18
100
AcDbEntity
  8
01
100
AcDbLine
 10
5348.659276555429
 20
-210.955490026327
 30
0.0000000001127424
 11
5348.632085393319
 21
-210.0024413202723
 31
0.0000000001127424
  0
LINE
  5
B584
330
18
100
AcDbEntity
  8
01
100
AcDbLine
 10
5348.632085393319
 20
-210.0024413202723
 30
0.0000000001127424
 11
5348.610463689218
 21
-209.049240026327
 31
0.0000000001127424
  0
LINE
  5
B585
330
18
100
AcDbEntity
  8
01
100
AcDbLine
 10
5348.610463689218
 20
-209.049240026327
 30
0.0000000001127424
 11
5348.593587468515
 21
-208.0959471796473
 31
0.0000000001127424
  0
LINE
  5
B586
330
18
100
AcDbEntity
  8
01
100
AcDbLine
 10
5348.593587468515
 20
-208.0959471796473
 30
0.0000000001127424
 11
5348.58064801539
 21
-207.1425780390223
 31
0.0000000001127424
  0
LINE
  5
B587
330
18
100
AcDbEntity
  8
01
100
AcDbLine
 10
5348.58064801539
 20
-207.1425780390223
 30
0.0000000001127424
 11
5348.57095105494
 21
-206.1891783808192
 31
0.0000000001127424
  0
LINE
  5
B588
330
18
100
AcDbEntity
  8
01
100
AcDbLine
 10
5348.57095105494
 20
-206.1891783808192
 30
0.0000000001127424
 11
5348.563870976815
 21
-205.235763463827
 31
0.0000000001127424
  0
LINE
  5
B589
330
18
100
AcDbEntity
  8
01
100
AcDbLine
 10
5348.563870976815
 20
-205.235763463827
 30
0.0000000001127424
 11
5348.558805058847
 21
-204.2823180292567
 31
0.0000000001127424
  0
LINE
  5
B58A
330
18
100
AcDbEntity
  8
01
100
AcDbLine
 10
5348.558805058847
 20
-204.2823180292567
 30
0.0000000001127424
 11
5348.555150578866
 21
-203.3288725946863
 31
0.0000000001127424
  0
LINE
  5
B58B
330
18
100
AcDbEntity
  8
01
100
AcDbLine
 10
5348.555150578866
 20
-203.3288725946863
 30
0.0000000001127424
 11
5348.552297185312
 21
-202.375427160116
 31
0.0000000001127424
  0
LINE
  5
B58C
330
18
100
AcDbEntity
  8
01
100
AcDbLine
 10
5348.552297185312
 20
-202.375427160116
 30
0.0000000001127424
 11
5348.549687932382
 21
-201.4219817255457
 31
0.0000000001127424
  0
LINE
  5
B58D
330
18
100
AcDbEntity
  8
01
100
AcDbLine
 10
5348.549687932382
 20
-201.4219817255457
 30
0.0000000001127424
 11
5348.546804021249
 21
-200.4685362909754
 31
0.0000000001127424
  0
LINE
  5
B58E
330
18
100
AcDbEntity
  8
01
100
AcDbLine
 10
5348.546804021249
 20
-200.4685362909754
 30
0.0000000001127424
 11
5348.543210576425
 21
-199.5150908564051
 31
0.0000000001127424
  0
LINE
  5
B58F
330
18
100
AcDbEntity
  8
01
100
AcDbLine
 10
5348.543210576425
 20
-199.5150908564051
 30
0.0000000001127424
 11
5348.538854192147
 21
-198.5616454218348
 31
0.0000000001127424
  0
LINE
  5
B590
330
18
100
AcDbEntity
  8
01
100
AcDbLine
 10
5348.538854192147
 20
-198.5616454218348
 30
0.0000000001127424
 11
5348.533834050546
 21
-197.6082152460535
 31
0.0000000001127424
  0
LINE
  5
B591
330
18
100
AcDbEntity
  8
01
100
AcDbLine
 10
5348.533834050546
 20
-197.6082152460535
 30
0.0000000001127424
 11
5348.528249333749
 21
-196.6516875360926
 31
0.0000000001127424
  0
LINE
  5
B592
330
18
100
AcDbEntity
  8
01
100
AcDbLine
 10
5194.52824413624
 20
-334.6503789782905
 30
0.0000000001127424
 11
5194.52824413624
 21
-334.7240369677925
 31
0.0000000001127424
  0
LINE
  5
B593
330
18
100
AcDbEntity
  8
01
100
AcDbLine
 10
5194.52824413624
 20
-334.7240369677925
 30
0.0000000001127424
 11
5194.52824413624
 21
-334.9441764712715
 31
0.0000000001127424
  0
LINE
  5
B594
330
18
100
AcDbEntity
  8
01
100
AcDbLine
 10
5194.52824413624
 20
-334.9441764712715
 30
0.0000000001127424
 11
5194.52824413624
 21
-335.3083030343437
 31
0.0000000001127424
  0
LINE
  5
B595
330
18
100
AcDbEntity
  8
01
100
AcDbLine
 10
5194.52824413624
 20
-335.3083030343437
 30
0.0000000001127424
 11
5194.52824413624
 21
-335.8122910023117
 31
0.0000000001127424
  0
LINE
  5
B596
330
18
100
AcDbEntity
  8
01
100
AcDbLine
 10
5194.52824413624
 20
-335.8122910023117
 30
0.0000000001127424
 11
5194.52824413624
 21
-336.4504295796537
 31
0.0000000001127424
  0
LINE
  5
B597
330
18
100
AcDbEntity
  8
01
100
AcDbLine
 10
5194.52824413624
 20
-336.4504295796537
 30
0.0000000001127424
 11
5194.52824413624
 21
-337.2154876947784
 31
0.0000000001127424
  0
LINE
  5
B598
330
18
100
AcDbEntity
  8
01
100
AcDbLine
 10
5194.52824413624
 20
-337.2154876947784
 30
0.0000000001127424
 11
5194.52824413624
 21
-338.0987956881904
 31
0.0000000001127424
  0
LINE
  5
B599
330
18
100
AcDbEntity
  8
01
100
AcDbLine
 10
5194.52824413624
 20
-338.0987956881904
 30
0.0000000001127424
 11
5194.52824413624
 21
-339.0903439879798
 31
0.0000000001127424
  0
LINE
  5
B59A
330
18
100
AcDbEntity
  8
01
100
AcDbLine
 10
5194.52824413624
 20
-339.0903439879798
 30
0.0000000001127424
 11
5194.52824413624
 21
-340.1788959861183
 31
0.0000000001127424
  0
LINE
  5
B59B
330
18
100
AcDbEntity
  8
01
100
AcDbLine
 10
5194.52824413624
 20
-340.1788959861183
 30
0.0000000001127424
 11
5194.52824413624
 21
-341.3521154284858
 31
0.0000000001127424
  0
LINE
  5
B59C
330
18
100
AcDbEntity
  8
01
100
AcDbLine
 10
5194.52824413624
 20
-341.3521154284858
 30
0.0000000001127424
 11
5194.528244136241
 21
-360.6503450306638
 31
0.0000000001127424
  0
LINE
  5
B59D
330
18
100
AcDbEntity
  8
01
100
AcDbLine
 10
5194.528244136241
 20
-360.6503450306638
 30
0.0000000001127424
 11
5196.661440381919
 21
-360.4181829248159
 31
0.0000000001127424
  0
LINE
  5
B59E
330
18
100
AcDbEntity
  8
01
100
AcDbLine
 10
5251.326355098154
 20
-352.9578817248725
 30
0.0000000001127424
 11
5250.56745922413
 21
-353.1606519580268
 31
0.0000000001127424
  0
LINE
  5
B59F
330
18
100
AcDbEntity
  8
01
100
AcDbLine
 10
5250.56745922413
 20
-353.1606519580268
 30
0.0000000001127424
 11
5249.654876826669
 21
-353.4045446277046
 31
0.0000000001127424
  0
LINE
  5
B5A0
330
18
100
AcDbEntity
  8
01
100
AcDbLine
 10
5249.654876826669
 20
-353.4045446277046
 30
0.0000000001127424
 11
5248.615356562997
 21
-353.6779706836128
 31
0.0000000001127424
  0
LINE
  5
B5A1
330
18
100
AcDbEntity
  8
01
100
AcDbLine
 10
5248.615356562997
 20
-353.6779706836128
 30
0.0000000001127424
 11
5247.474731562997
 21
-353.9686334491157
 31
0.0000000001127424
  0
LINE
  5
B5A2
330
18
100
AcDbEntity
  8
01
100
AcDbLine
 10
5247.474731562997
 20
-353.9686334491157
 30
0.0000000001127424
 11
5246.257522700693
 21
-354.2643239856147
 31
0.0000000001127424
  0
LINE
  5
B5A3
330
18
100
AcDbEntity
  8
01
100
AcDbLine
 10
5246.257522700693
 20
-354.2643239856147
 30
0.0000000001127424
 11
5244.987899897958
 21
-354.5536725879097
 31
0.0000000001127424
  0
LINE
  5
B5A4
330
18
100
AcDbEntity
  8
01
100
AcDbLine
 10
5244.987899897958
 20
-354.5536725879097
 30
0.0000000001127424
 11
5243.686889766122
 21
-354.8287275195503
 31
0.0000000001127424
  0
LINE
  5
B5A5
330
18
100
AcDbEntity
  8
01
100
AcDbLine
 10
5243.686889766122
 20
-354.8287275195503
 30
0.0000000001127424
 11
5242.372177241708
 21
-355.0838754535102
 31
0.0000000001127424
  0
LINE
  5
B5A6
330
18
100
AcDbEntity
  8
01
100
AcDbLine
 10
5242.372177241708
 20
-355.0838754535102
 30
0.0000000001127424
 11
5241.050354121591
 21
-355.3190267444038
 31
0.0000000001127424
  0
LINE
  5
B5A7
330
18
100
AcDbEntity
  8
01
100
AcDbLine
 10
5241.050354121591
 20
-355.3190267444038
 30
0.0000000001127424
 11
5239.717331050302
 21
-355.5371854663276
 31
0.0000000001127424
  0
LINE
  5
B5A8
330
18
100
AcDbEntity
  8
01
100
AcDbLine
 10
5239.717331050302
 20
-355.5371854663276
 30
0.0000000001127424
 11
5238.364120601083
 21
-355.742334163227
 31
0.0000000001127424
  0
LINE
  5
B5A9
330
18
100
AcDbEntity
  8
01
100
AcDbLine
 10
5238.364120601083
 20
-355.742334163227
 30
0.0000000001127424
 11
5236.981628535654
 21
-355.9384248614692
 31
0.0000000001127424
  0
LINE
  5
B5AA
330
18
100
AcDbEntity
  8
01
100
AcDbLine
 10
5236.981628535654
 20
-355.9384248614692
 30
0.0000000001127424
 11
5235.564666865732
 21
-356.1282556414985
 31
0.0000000001127424
  0
LINE
  5
B5AB
330
18
100
AcDbEntity
  8
01
100
AcDbLine
 10
5235.564666865732
 20
-356.1282556414985
 30
0.0000000001127424
 11
5234.112075923349
 21
-356.313644206562
 31
0.0000000001127424
  0
LINE
  5
B5AC
330
18
100
AcDbEntity
  8
01
100
AcDbLine
 10
5234.112075923349
 20
-356.313644206562
 30
0.0000000001127424
 11
5232.625122187997
 21
-356.4959352374458
 31
0.0000000001127424
  0
LINE
  5
B5AD
330
18
100
AcDbEntity
  8
01
100
AcDbLine
 10
5232.625122187997
 20
-356.4959352374458
 30
0.0000000001127424
 11
5231.10685741749
 21
-356.6760480761909
 31
0.0000000001127424
  0
LINE
  5
B5AE
330
18
100
AcDbEntity
  8
01
100
AcDbLine
 10
5231.10685741749
 20
-356.6760480761909
 30
0.0000000001127424
 11
5229.561157344247
 21
-356.8545740008735
 31
0.0000000001127424
  0
LINE
  5
B5AF
330
18
100
AcDbEntity
  8
01
100
AcDbLine
 10
5229.561157344247
 20
-356.8545740008735
 30
0.0000000001127424
 11
5227.992080806162
 21
-357.0320184588813
 31
0.0000000001127424
  0
LINE
  5
B5B0
330
18
100
AcDbEntity
  8
01
100
AcDbLine
 10
5227.992080806162
 20
-357.0320184588813
 30
0.0000000001127424
 11
5226.403625605966
 21
-357.2087457538032
 31
0.0000000001127424
  0
LINE
  5
B5B1
330
18
100
AcDbEntity
  8
01
100
AcDbLine
 10
5226.403625605966
 20
-357.2087457538032
 30
0.0000000001127424
 11
5224.79956066456
 21
-357.3850114703559
 31
0.0000000001127424
  0
LINE
  5
B5B2
330
18
100
AcDbEntity
  8
01
100
AcDbLine
 10
5224.79956066456
 20
-357.3850114703559
 30
0.0000000001127424
 11
5223.182952998544
 21
-357.5609910846138
 31
0.0000000001127424
  0
LINE
  5
B5B3
330
18
100
AcDbEntity
  8
01
100
AcDbLine
 10
5223.182952998544
 20
-357.5609910846138
 30
0.0000000001127424
 11
5221.556656001474
 21
-357.73683336977
 31
0.0000000001127424
  0
LINE
  5
B5B4
330
18
100
AcDbEntity
  8
01
100
AcDbLine
 10
5221.556656001474
 20
-357.73683336977
 30
0.0000000001127424
 11
5219.923278926279
 21
-357.9126737475776
 31
0.0000000001127424
  0
LINE
  5
B5B5
330
18
100
AcDbEntity
  8
01
100
AcDbLine
 10
5219.923278926279
 20
-357.9126737475776
 30
0.0000000001127424
 11
5218.284454463388
 21
-358.0885846972847
 31
0.0000000001127424
  0
LINE
  5
B5B6
330
18
100
AcDbEntity
  8
01
100
AcDbLine
 10
5218.284454463388
 20
-358.0885846972847
 30
0.0000000001127424
 11
5216.641632197763
 21
-358.2646215320015
 31
0.0000000001127424
  0
LINE
  5
B5B7
330
18
100
AcDbEntity
  8
01
100
AcDbLine
 10
5216.641632197763
 20
-358.2646215320015
 30
0.0000000001127424
 11
5214.996215937997
 21
-358.4408376574897
 31
0.0000000001127424
  0
LINE
  5
B5B8
330
18
100
AcDbEntity
  8
01
100
AcDbLine
 10
5214.996215937997
 20
-358.4408376574897
 30
0.0000000001127424
 11
5213.349182246591
 21
-358.6172712207222
 31
0.0000000001127424
  0
LINE
  5
B5B9
330
18
100
AcDbEntity
  8
01
100
AcDbLine
 10
5213.349182246591
 20
-358.6172712207222
 30
0.0000000001127424
 11
5211.701156733896
 21
-358.7939432025337
 31
0.0000000001127424
  0
LINE
  5
B5BA
330
18
100
AcDbEntity
  8
01
100
AcDbLine
 10
5211.701156733896
 20
-358.7939432025337
 30
0.0000000001127424
 11
5210.052581904794
 21
-358.9708688617134
 31
0.0000000001127424
  0
LINE
  5
B5BB
330
18
100
AcDbEntity
  8
01
100
AcDbLine
 10
5210.052581904794
 20
-358.9708688617134
 30
0.0000000001127424
 11
5208.403823970224
 21
-359.1480577350044
 31
0.0000000001127424
  0
LINE
  5
B5BC
330
18
100
AcDbEntity
  8
01
100
AcDbLine
 10
5208.403823970224
 20
-359.1480577350044
 30
0.0000000001127424
 11
5206.755142329599
 21
-359.325513637104
 31
0.0000000001127424
  0
LINE
  5
B5BD
330
18
100
AcDbEntity
  8
01
100
AcDbLine
 10
5206.755142329599
 20
-359.325513637104
 30
0.0000000001127424
 11
5205.106628535654
 21
-359.5032365680122
 31
0.0000000001127424
  0
LINE
  5
B5BE
330
18
100
AcDbEntity
  8
01
100
AcDbLine
 10
5205.106628535654
 20
-359.5032365680122
 30
0.0000000001127424
 11
5203.448577998544
 21
-359.682296550312
 31
0.0000000001127424
  0
LINE
  5
B5BF
330
18
100
AcDbEntity
  8
01
100
AcDbLine
 10
5251.326355098154
 20
-352.9578855395698
 30
0.0000000001127424
 11
5251.453292964365
 21
-352.9196145892524
 31
0.0000000001127424
  0
LINE
  5
B5C0
330
18
100
AcDbEntity
  8
01
100
AcDbLine
 10
5251.453292964365
 20
-352.9196145892524
 30
0.0000000001127424
 11
5251.60734569874
 21
-352.8583734393501
 31
0.0000000001127424
  0
LINE
  5
B5C1
330
18
100
AcDbEntity
  8
01
100
AcDbLine
 10
5251.60734569874
 20
-352.8583734393501
 30
0.0000000001127424
 11
5251.793670771982
 21
-352.758992946186
 31
0.0000000001127424
  0
LINE
  5
B5C2
330
18
100
AcDbEntity
  8
01
100
AcDbLine
 10
5251.793670771982
 20
-352.758992946186
 30
0.0000000001127424
 11
5252.006332515146
 21
-352.6005657077217
 31
0.0000000001127424
  0
LINE
  5
B5C3
330
18
100
AcDbEntity
  8
01
100
AcDbLine
 10
5252.006332515146
 20
-352.6005657077217
 30
0.0000000001127424
 11
5252.218124507333
 21
-352.3713500857734
 31
0.0000000001127424
  0
LINE
  5
B5C4
330
18
100
AcDbEntity
  8
01
100
AcDbLine
 10
5252.218124507333
 20
-352.3713500857734
 30
0.0000000001127424
 11
5252.38777172413
 21
-352.0868575930976
 31
0.0000000001127424
  0
LINE
  5
B5C5
330
18
100
AcDbEntity
  8
01
100
AcDbLine
 10
5252.38777172413
 20
-352.0868575930976
 30
0.0000000001127424
 11
5252.487243770029
 21
-351.7962510943794
 31
0.0000000001127424
  0
LINE
  5
B5C6
330
18
100
AcDbEntity
  8
01
100
AcDbLine
 10
5252.487243770029
 20
-351.7962510943794
 30
0.0000000001127424
 11
5252.523223994638
 21
-351.565051829853
 31
0.0000000001127424
  0
LINE
  5
B5C7
330
18
100
AcDbEntity
  8
01
100
AcDbLine
 10
5252.523223994638
 20
-351.565051829853
 30
0.0000000001127424
 11
5252.52824413624
 21
-351.4400270343208
 31
0.0000000001127424
  0
LINE
  5
B5C8
330
18
100
AcDbEntity
  8
01
100
AcDbLine
 10
5252.52824413624
 20
-343.8641050219917
 30
0.0000000001127424
 11
5252.524566768076
 21
-343.75387791399
 31
0.0000000001127424
  0
LINE
  5
B5C9
330
18
100
AcDbEntity
  8
01
100
AcDbLine
 10
5252.524566768076
 20
-343.75387791399
 30
0.0000000001127424
 11
5252.493179438974
 21
-343.530920302906
 31
0.0000000001127424
  0
LINE
  5
B5CA
330
18
100
AcDbEntity
  8
01
100
AcDbLine
 10
5252.493179438974
 20
-343.530920302906
 30
0.0000000001127424
 11
5252.400070308115
 21
-343.2414133906746
 31
0.0000000001127424
  0
LINE
  5
B5CB
330
18
100
AcDbEntity
  8
01
100
AcDbLine
 10
5252.400070308115
 20
-343.2414133906746
 30
0.0000000001127424
 11
5252.235366938974
 21
-342.9525583148384
 31
0.0000000001127424
  0
LINE
  5
B5CC
330
18
100
AcDbEntity
  8
01
100
AcDbLine
 10
5252.235366938974
 20
-342.9525583148384
 30
0.0000000001127424
 11
5252.024185298349
 21
-342.7161372065925
 31
0.0000000001127424
  0
LINE
  5
B5CD
330
18
100
AcDbEntity
  8
01
100
AcDbLine
 10
5252.024185298349
 20
-342.7161372065925
 30
0.0000000001127424
 11
5251.808990596201
 21
-342.5515168071174
 31
0.0000000001127424
  0
LINE
  5
B5CE
330
18
100
AcDbEntity
  8
01
100
AcDbLine
 10
5251.808990596201
 20
-342.5515168071174
 30
0.0000000001127424
 11
5251.619339106943
 21
-342.4478953242683
 31
0.0000000001127424
  0
LINE
  5
B5CF
330
18
100
AcDbEntity
  8
01
100
AcDbLine
 10
5251.619339106943
 20
-342.4478953242683
 30
0.0000000001127424
 11
5251.462509272958
 21
-342.3841894030952
 31
0.0000000001127424
  0
LINE
  5
B5D0
330
18
100
AcDbEntity
  8
01
100
AcDbLine
 10
5251.462509272958
 20
-342.3841894030952
 30
0.0000000001127424
 11
5251.326355098154
 21
-342.3428380847358
 31
0.0000000001127424
  0
LINE
  5
B5D1
330
18
100
AcDbEntity
  8
01
100
AcDbLine
 10
5194.52824413624
 20
-334.6503789782905
 30
0.0000000001127424
 11
5196.150253413583
 21
-334.8269416451835
 31
0.0000000001127424
  0
LINE
  5
B5D2
330
18
100
AcDbEntity
  8
01
100
AcDbLine
 10
5196.150253413583
 20
-334.8269416451835
 30
0.0000000001127424
 11
5197.772262690927
 21
-335.0032832980537
 31
0.0000000001127424
  0
LINE
  5
B5D3
330
18
100
AcDbEntity
  8
01
100
AcDbLine
 10
5197.772262690927
 20
-335.0032832980537
 30
0.0000000001127424
 11
5199.394348262216
 21
-335.1793941617393
 31
0.0000000001127424
  0
LINE
  5
B5D4
330
18
100
AcDbEntity
  8
01
100
AcDbLine
 10
5199.394348262216
 20
-335.1793941617393
 30
0.0000000001127424
 11
5201.016540645029
 21
-335.3552646994972
 31
0.0000000001127424
  0
LINE
  5
B5D5
330
18
100
AcDbEntity
  8
01
100
AcDbLine
 10
5201.016540645029
 20
-335.3552646994972
 30
0.0000000001127424
 11
5202.638946650888
 21
-335.5308854937934
 31
0.0000000001127424
  0
LINE
  5
B5D6
330
18
100
AcDbEntity
  8
01
100
AcDbLine
 10
5202.638946650888
 20
-335.5308854937934
 30
0.0000000001127424
 11
5204.261566279794
 21
-335.7062502265358
 31
0.0000000001127424
  0
LINE
  5
B5D7
330
18
100
AcDbEntity
  8
01
100
AcDbLine
 10
5204.261566279794
 20
-335.7062502265358
 30
0.0000000001127424
 11
5205.884369014169
 21
-335.8813568711662
 31
0.0000000001127424
  0
LINE
  5
B5D8
330
18
100
AcDbEntity
  8
01
100
AcDbLine
 10
5205.884369014169
 20
-335.8813568711662
 30
0.0000000001127424
 11
5207.507339595224
 21
-336.0562034011268
 31
0.0000000001127424
  0
LINE
  5
B5D9
330
18
100
AcDbEntity
  8
01
100
AcDbLine
 10
5207.507339595224
 20
-336.0562034011268
 30
0.0000000001127424
 11
5209.13044750538
 21
-336.2307881176853
 31
0.0000000001127424
  0
LINE
  5
B5DA
330
18
100
AcDbEntity
  8
01
100
AcDbLine
 10
5209.13044750538
 20
-336.2307881176853
 30
0.0000000001127424
 11
5210.753601191904
 21
-336.4051104247951
 31
0.0000000001127424
  0
LINE
  5
B5DB
330
18
100
AcDbEntity
  8
01
100
AcDbLine
 10
5210.753601191904
 20
-336.4051104247951
 30
0.0000000001127424
 11
5212.376480220224
 21
-336.5791808873796
 31
0.0000000001127424
  0
LINE
  5
B5DC
330
18
100
AcDbEntity
  8
01
100
AcDbLine
 10
5212.376480220224
 20
-336.5791808873796
 30
0.0000000001127424
 11
5213.998581050302
 21
-336.7530150398993
 31
0.0000000001127424
  0
LINE
  5
B5DD
330
18
100
AcDbEntity
  8
01
100
AcDbLine
 10
5213.998581050302
 20
-336.7530150398993
 30
0.0000000001127424
 11
5215.619430659677
 21
-336.9266284615182
 31
0.0000000001127424
  0
LINE
  5
B5DE
330
18
100
AcDbEntity
  8
01
100
AcDbLine
 10
5215.619430659677
 20
-336.9266284615182
 30
0.0000000001127424
 11
5217.238418696787
 21
-337.1000417530918
 31
0.0000000001127424
  0
LINE
  5
B5DF
330
18
100
AcDbEntity
  8
01
100
AcDbLine
 10
5217.238418696787
 20
-337.1000417530918
 30
0.0000000001127424
 11
5218.854446528818
 21
-337.2732972860717
 31
0.0000000001127424
  0
LINE
  5
B5E0
330
18
100
AcDbEntity
  8
01
100
AcDbLine
 10
5218.854446528818
 20
-337.2732972860717
 30
0.0000000001127424
 11
5220.46623241749
 21
-337.4464432359123
 31
0.0000000001127424
  0
LINE
  5
B5E1
330
18
100
AcDbEntity
  8
01
100
AcDbLine
 10
5220.46623241749
 20
-337.4464432359123
 30
0.0000000001127424
 11
5222.072357295419
 21
-337.6195390582466
 31
0.0000000001127424
  0
LINE
  5
B5E2
330
18
100
AcDbEntity
  8
01
100
AcDbLine
 10
5222.072357295419
 20
-337.6195390582466
 30
0.0000000001127424
 11
5223.67065441456
 21
-337.792688047924
 31
0.0000000001127424
  0
LINE
  5
B5E3
330
18
100
AcDbEntity
  8
01
100
AcDbLine
 10
5223.67065441456
 20
-337.792688047924
 30
0.0000000001127424
 11
5225.258804438974
 21
-337.9660048842811
 31
0.0000000001127424
  0
LINE
  5
B5E4
330
18
100
AcDbEntity
  8
01
100
AcDbLine
 10
5225.258804438974
 20
-337.9660048842811
 30
0.0000000001127424
 11
5226.834121821787
 21
-338.1396314263725
 31
0.0000000001127424
  0
LINE
  5
B5E5
330
18
100
AcDbEntity
  8
01
100
AcDbLine
 10
5226.834121821787
 20
-338.1396314263725
 30
0.0000000001127424
 11
5228.393295405771
 21
-338.3137598395729
 31
0.0000000001127424
  0
LINE
  5
B5E6
330
18
100
AcDbEntity
  8
01
100
AcDbLine
 10
5228.393295405771
 20
-338.3137598395729
 30
0.0000000001127424
 11
5229.932724116708
 21
-338.4886792064094
 31
0.0000000001127424
  0
LINE
  5
B5E7
330
18
100
AcDbEntity
  8
01
100
AcDbLine
 10
5229.932724116708
 20
-338.4886792064094
 30
0.0000000001127424
 11
5231.448547480966
 21
-338.6647705197715
 31
0.0000000001127424
  0
LINE
  5
B5E8
330
18
100
AcDbEntity
  8
01
100
AcDbLine
 10
5231.448547480966
 20
-338.6647705197715
 30
0.0000000001127424
 11
5232.936889766122
 21
-338.8424725890541
 31
0.0000000001127424
  0
LINE
  5
B5E9
330
18
100
AcDbEntity
  8
01
100
AcDbLine
 10
5232.936889766122
 20
-338.8424725890541
 30
0.0000000001127424
 11
5234.394134639169
 21
-339.0224466681861
 31
0.0000000001127424
  0
LINE
  5
B5EA
330
18
100
AcDbEntity
  8
01
100
AcDbLine
 10
5234.394134639169
 20
-339.0224466681861
 30
0.0000000001127424
 11
5235.817840693857
 21
-339.2056756377601
 31
0.0000000001127424
  0
LINE
  5
B5EB
330
18
100
AcDbEntity
  8
01
100
AcDbLine
 10
5235.817840693857
 20
-339.2056756377601
 30
0.0000000001127424
 11
5237.206817744638
 21
-339.3934307456398
 31
0.0000000001127424
  0
LINE
  5
B5EC
330
18
100
AcDbEntity
  8
01
100
AcDbLine
 10
5237.206817744638
 20
-339.3934307456398
 30
0.0000000001127424
 11
5238.563049434091
 21
-339.5876691699409
 31
0.0000000001127424
  0
LINE
  5
B5ED
330
18
100
AcDbEntity
  8
01
100
AcDbLine
 10
5238.563049434091
 20
-339.5876691699409
 30
0.0000000001127424
 11
5239.891967891122
 21
-339.79121044878
 31
0.0000000001127424
  0
LINE
  5
B5EE
330
18
100
AcDbEntity
  8
01
100
AcDbLine
 10
5239.891967891122
 20
-339.79121044878
 30
0.0000000001127424
 11
5241.202316401865
 21
-340.0077319503212
 31
0.0000000001127424
  0
LINE
  5
B5EF
330
18
100
AcDbEntity
  8
01
100
AcDbLine
 10
5241.202316401865
 20
-340.0077319503212
 30
0.0000000001127424
 11
5242.502914546396
 21
-340.2412281394386
 31
0.0000000001127424
  0
LINE
  5
B5F0
330
18
100
AcDbEntity
  8
01
100
AcDbLine
 10
5242.502914546396
 20
-340.2412281394386
 30
0.0000000001127424
 11
5243.796508906747
 21
-340.4942987323188
 31
0.0000000001127424
  0
LINE
  5
B5F1
330
18
100
AcDbEntity
  8
01
100
AcDbLine
 10
5243.796508906747
 20
-340.4942987323188
 30
0.0000000001127424
 11
5245.075363276865
 21
-340.7662003398323
 31
0.0000000001127424
  0
LINE
  5
B5F2
330
18
100
AcDbEntity
  8
01
100
AcDbLine
 10
5245.075363276865
 20
-340.7662003398323
 30
0.0000000001127424
 11
5246.323211787607
 21
-341.0519173503303
 31
0.0000000001127424
  0
LINE
  5
B5F3
330
18
100
AcDbEntity
  8
01
100
AcDbLine
 10
5246.323211787607
 20
-341.0519173503303
 30
0.0000000001127424
 11
5247.51863109913
 21
-341.3430488467598
 31
0.0000000001127424
  0
LINE
  5
B5F4
330
18
100
AcDbEntity
  8
01
100
AcDbLine
 10
5247.51863109913
 20
-341.3430488467598
 30
0.0000000001127424
 11
5248.638961909677
 21
-341.6288812518501
 31
0.0000000001127424
  0
LINE
  5
B5F5
330
18
100
AcDbEntity
  8
01
100
AcDbLine
 10
5248.638961909677
 20
-341.6288812518501
 30
0.0000000001127424
 11
5249.660797236826
 21
-341.8977835536384
 31
0.0000000001127424
  0
LINE
  5
B5F6
330
18
100
AcDbEntity
  8
01
100
AcDbLine
 10
5249.660797236826
 20
-341.8977835536384
 30
0.0000000001127424
 11
5250.559417842294
 21
-342.1379268527412
 31
0.0000000001127424
  0
LINE
  5
B5F7
330
18
100
AcDbEntity
  8
01
100
AcDbLine
 10
5250.559417842294
 20
-342.1379268527412
 30
0.0000000001127424
 11
5251.326355098154
 21
-342.3428409457588
 31
0.0000000001127424
  0
LINE
  5
B5F8
330
18
100
AcDbEntity
  8
01
100
AcDbLine
 10
5196.661407588388
 20
-360.4181821704292
 30
0.0000000001127424
 11
5196.815246699716
 21
-360.3750131488227
 31
0.0000000001127424
  0
LINE
  5
B5F9
330
18
100
AcDbEntity
  8
01
100
AcDbLine
 10
5196.815246699716
 20
-360.3750131488227
 30
0.0000000001127424
 11
5197.055847285654
 21
-360.2943113208198
 31
0.0000000001127424
  0
LINE
  5
B5FA
330
18
100
AcDbEntity
  8
01
100
AcDbLine
 10
5197.055847285654
 20
-360.2943113208198
 30
0.0000000001127424
 11
5197.431549189951
 21
-360.1755807757759
 31
0.0000000001127424
  0
LINE
  5
B5FB
330
18
100
AcDbEntity
  8
01
100
AcDbLine
 10
5197.431549189951
 20
-360.1755807757759
 30
0.0000000001127424
 11
5197.926300166513
 21
-360.0357435107612
 31
0.0000000001127424
  0
LINE
  5
B5FC
330
18
100
AcDbEntity
  8
01
100
AcDbLine
 10
5197.926300166513
 20
-360.0357435107612
 30
0.0000000001127424
 11
5198.520996211435
 21
-359.8933923602485
 31
0.0000000001127424
  0
LINE
  5
B5FD
330
18
100
AcDbEntity
  8
01
100
AcDbLine
 10
5198.520996211435
 20
-359.8933923602485
 30
0.0000000001127424
 11
5199.191772578622
 21
-359.765964305439
 31
0.0000000001127424
  0
LINE
  5
B5FE
330
18
100
AcDbEntity
  8
01
100
AcDbLine
 10
5199.191772578622
 20
-359.765964305439
 30
0.0000000001127424
 11
5199.909515498544
 21
-359.6687105060005
 31
0.0000000001127424
  0
LINE
  5
B5FF
330
18
100
AcDbEntity
  8
01
100
AcDbLine
 10
5199.909515498544
 20
-359.6687105060005
 30
0.0000000001127424
 11
5200.638458369638
 21
-359.6091325641059
 31
0.0000000001127424
  0
LINE
  5
B600
330
18
100
AcDbEntity
  8
01
100
AcDbLine
 10
5200.638458369638
 20
-359.6091325641059
 30
0.0000000001127424
 11
5201.340362666513
 21
-359.5884664416694
 31
0.0000000001127424
  0
LINE
  5
B601
330
18
100
AcDbEntity
  8
01
100
AcDbLine
 10
5201.340362666513
 20
-359.5884664416694
 30
0.0000000001127424
 11
5201.979110835458
 21
-359.5978105426216
 31
0.0000000001127424
  0
LINE
  5
B602
330
18
100
AcDbEntity
  8
01
100
AcDbLine
 10
5201.979110835458
 20
-359.5978105426216
 30
0.0000000001127424
 11
5202.524200557138
 21
-359.6251657367134
 31
0.0000000001127424
  0
LINE
  5
B603
330
18
100
AcDbEntity
  8
01
100
AcDbLine
 10
5202.524200557138
 20
-359.6251657367134
 30
0.0000000001127424
 11
5202.953094600107
 21
-359.6561334491157
 31
0.0000000001127424
  0
LINE
  5
B604
330
18
100
AcDbEntity
  8
01
100
AcDbLine
 10
5202.953094600107
 20
-359.6561334491157
 30
0.0000000001127424
 11
5203.250213740732
 21
-359.6787240863227
 31
0.0000000001127424
  0
LINE
  5
B605
330
18
100
AcDbEntity
  8
01
100
AcDbLine
 10
5203.250213740732
 20
-359.6787240863227
 30
0.0000000001127424
 11
5203.447937129404
 21
-359.6821992755317
 31
0.0000000001127424
  0
LINE
  5
B606
330
18
100
AcDbEntity
  8
01
100
AcDbLine
 10
5367.138307996264
 20
-353.7499919729864
 30
0.0000000001127424
 11
5367.21821064519
 21
-353.7455364065802
 31
0.0000000001127424
  0
LINE
  5
B607
330
18
100
AcDbEntity
  8
01
100
AcDbLine
 10
5367.21821064519
 20
-353.7455364065802
 30
0.0000000001127424
 11
5367.41734547185
 21
-353.7348247366583
 31
0.0000000001127424
  0
LINE
  5
B608
330
18
100
AcDbEntity
  8
01
100
AcDbLine
 10
5367.41734547185
 20
-353.7348247366583
 30
0.0000000001127424
 11
5367.73139423894
 21
-353.7192912893927
 31
0.0000000001127424
  0
LINE
  5
B609
330
18
100
AcDbEntity
  8
01
100
AcDbLine
 10
5367.73139423894
 20
-353.7192912893927
 30
0.0000000001127424
 11
5368.148775525561
 21
-353.7011409598028
 31
0.0000000001127424
  0
LINE
  5
B60A
330
18
100
AcDbEntity
  8
01
100
AcDbLine
 10
5368.148775525561
 20
-353.7011409598028
 30
0.0000000001127424
 11
5368.654299207202
 21
-353.6830974417364
 31
0.0000000001127424
  0
LINE
  5
B60B
330
18
100
AcDbEntity
  8
01
100
AcDbLine
 10
5368.654299207202
 20
-353.6830974417364
 30
0.0000000001127424
 11
5369.229509778491
 21
-353.6677776175177
 31
0.0000000001127424
  0
LINE
  5
B60C
330
18
100
AcDbEntity
  8
01
100
AcDbLine
 10
5369.229509778491
 20
-353.6677776175177
 30
0.0000000001127424
 11
5369.853044934741
 21
-353.6574474173224
 31
0.0000000001127424
  0
LINE
  5
B60D
330
18
100
AcDbEntity
  8
01
100
AcDbLine
 10
5369.853044934741
 20
-353.6574474173224
 30
0.0000000001127424
 11
5370.528246350756
 21
-353.6535869436896
 31
0.0000000001127424
  0
LINE
  5
B60E
330
18
100
AcDbEntity
  8
01
100
AcDbLine
 10
5373.928034253589
 20
-353.7502742605841
 30
0.0000000001127424
 11
5373.850977368823
 21
-353.7462993460333
 31
0.0000000001127424
  0
LINE
  5
B60F
330
18
100
AcDbEntity
  8
01
100
AcDbLine
 10
5373.850977368823
 20
-353.7462993460333
 30
0.0000000001127424
 11
5373.659815259448
 21
-353.7359309988653
 31
0.0000000001127424
  0
LINE
  5
B610
330
18
100
AcDbEntity
  8
01
100
AcDbLine
 10
5373.659815259448
 20
-353.7359309988653
 30
0.0000000001127424
 11
5373.350573010913
 21
-353.7204814749396
 31
0.0000000001127424
  0
LINE
  5
B611
330
18
100
AcDbEntity
  8
01
100
AcDbLine
 10
5373.350573010913
 20
-353.7204814749396
 30
0.0000000001127424
 11
5372.934648938647
 21
-353.7022319632208
 31
0.0000000001127424
  0
LINE
  5
B612
330
18
100
AcDbEntity
  8
01
100
AcDbLine
 10
5372.934648938647
 20
-353.7022319632208
 30
0.0000000001127424
 11
5372.427591748706
 21
-353.6838908987677
 31
0.0000000001127424
  0
LINE
  5
B613
330
18
100
AcDbEntity
  8
01
100
AcDbLine
 10
5372.427591748706
 20
-353.6838908987677
 30
0.0000000001127424
 11
5371.84817738103
 21
-353.6683116751349
 31
0.0000000001127424
  0
LINE
  5
B614
330
18
100
AcDbEntity
  8
01
100
AcDbLine
 10
5371.84817738103
 20
-353.6683116751349
 30
0.0000000001127424
 11
5371.218645520678
 21
-353.6576228933966
 31
0.0000000001127424
  0
LINE
  5
B615
330
18
100
AcDbEntity
  8
01
100
AcDbLine
 10
5371.218645520678
 20
-353.6576228933966
 30
0.0000000001127424
 11
5370.528246350756
 21
-353.6535869436896
 31
0.0000000001127424
  0
LINE
  5
B616
330
18
100
AcDbEntity
  8
01
100
AcDbLine
 10
5447.138307996264
 20
-353.7499919729864
 30
0.0000000001127424
 11
5447.218203015796
 21
-353.7455364065802
 31
0.0000000001127424
  0
LINE
  5
B617
330
18
100
AcDbEntity
  8
01
100
AcDbLine
 10
5447.218203015796
 20
-353.7455364065802
 30
0.0000000001127424
 11
5447.41734547185
 21
-353.7348247366583
 31
0.0000000001127424
  0
LINE
  5
B618
330
18
100
AcDbEntity
  8
01
100
AcDbLine
 10
5447.41734547185
 20
-353.7348247366583
 30
0.0000000001127424
 11
5447.731401868335
 21
-353.7192912893927
 31
0.0000000001127424
  0
LINE
  5
B619
330
18
100
AcDbEntity
  8
01
100
AcDbLine
 10
5447.731401868335
 20
-353.7192912893927
 30
0.0000000001127424
 11
5448.148775525561
 21
-353.7011409598028
 31
0.0000000001127424
  0
LINE
  5
B61A
330
18
100
AcDbEntity
  8
01
100
AcDbLine
 10
5448.148775525561
 20
-353.7011409598028
 30
0.0000000001127424
 11
5448.654299207202
 21
-353.6830974417364
 31
0.0000000001127424
  0
LINE
  5
B61B
330
18
100
AcDbEntity
  8
01
100
AcDbLine
 10
5448.654299207202
 20
-353.6830974417364
 30
0.0000000001127424
 11
5449.229509778491
 21
-353.6677776175177
 31
0.0000000001127424
  0
LINE
  5
B61C
330
18
100
AcDbEntity
  8
01
100
AcDbLine
 10
5449.229509778491
 20
-353.6677776175177
 30
0.0000000001127424
 11
5449.853044934741
 21
-353.6574474173224
 31
0.0000000001127424
  0
LINE
  5
B61D
330
18
100
AcDbEntity
  8
01
100
AcDbLine
 10
5449.853044934741
 20
-353.6574474173224
 30
0.0000000001127424
 11
5450.528246350756
 21
-353.6535869436896
 31
0.0000000001127424
  0
LINE
  5
B61E
330
18
100
AcDbEntity
  8
01
100
AcDbLine
 10
5453.928026624194
 20
-353.7502742605841
 30
0.0000000001127424
 11
5453.850969739428
 21
-353.7462993460333
 31
0.0000000001127424
  0
LINE
  5
B61F
330
18
100
AcDbEntity
  8
01
100
AcDbLine
 10
5453.850969739428
 20
-353.7462993460333
 30
0.0000000001127424
 11
5453.659807630053
 21
-353.7359309988653
 31
0.0000000001127424
  0
LINE
  5
B620
330
18
100
AcDbEntity
  8
01
100
AcDbLine
 10
5453.659807630053
 20
-353.7359309988653
 30
0.0000000001127424
 11
5453.350573010913
 21
-353.7204814749396
 31
0.0000000001127424
  0
LINE
  5
B621
330
18
100
AcDbEntity
  8
01
100
AcDbLine
 10
5453.350573010913
 20
-353.7204814749396
 30
0.0000000001127424
 11
5452.934648938647
 21
-353.7022319632208
 31
0.0000000001127424
  0
LINE
  5
B622
330
18
100
AcDbEntity
  8
01
100
AcDbLine
 10
5452.934648938647
 20
-353.7022319632208
 30
0.0000000001127424
 11
5452.4275993781
 21
-353.6838908987677
 31
0.0000000001127424
  0
LINE
  5
B623
330
18
100
AcDbEntity
  8
01
100
AcDbLine
 10
5452.4275993781
 20
-353.6838908987677
 30
0.0000000001127424
 11
5451.84817738103
 21
-353.6683116751349
 31
0.0000000001127424
  0
LINE
  5
B624
330
18
100
AcDbEntity
  8
01
100
AcDbLine
 10
5451.84817738103
 20
-353.6683116751349
 30
0.0000000001127424
 11
5451.218645520678
 21
-353.6576228933966
 31
0.0000000001127424
  0
LINE
  5
B625
330
18
100
AcDbEntity
  8
01
100
AcDbLine
 10
5451.218645520678
 20
-353.6576228933966
 30
0.0000000001127424
 11
5450.528246350756
 21
-353.6535869436896
 31
0.0000000001127424
  0
LINE
  5
B626
330
18
100
AcDbEntity
  8
01
  6
BYBLOCK
100
AcDbLine
 10
5299.831579532401
 20
-325.2503618121524
 30
0.0000000002254849
 11
5300.5282474264
 21
-322.6503618121524
 31
0.0000000002254849
  0
LINE
  5
B627
330
18
100
AcDbEntity
  8
01
  6
BYBLOCK
100
AcDbLine
 10
5300.5282474264
 20
-322.6503618121524
 30
0.0000000002254849
 11
5301.2249153204
 21
-325.2503618121524
 31
0.0000000002254849
  0
LINE
  5
B628
330
18
100
AcDbEntity
  8
01
  6
BYBLOCK
100
AcDbLine
 10
5300.5282474264
 20
-322.6503618121524
 30
0.0000000002254849
 11
5300.5282474264
 21
-325.2503618121524
 31
0.0000000002254849
  0
LINE
  5
B629
330
18
100
AcDbEntity
  8
01
  6
BYBLOCK
100
AcDbLine
 10
5301.2249153204
 20
-370.0503618121514
 30
0.0000000002254849
 11
5300.5282474264
 21
-372.6503618121515
 31
0.0000000002254849
  0
LINE
  5
B62A
330
18
100
AcDbEntity
  8
01
  6
BYBLOCK
100
AcDbLine
 10
5300.5282474264
 20
-372.6503618121515
 30
0.0000000002254849
 11
5299.831579532401
 21
-370.0503618121514
 31
0.0000000002254849
  0
LINE
  5
B62B
330
18
100
AcDbEntity
  8
01
  6
BYBLOCK
100
AcDbLine
 10
5300.5282474264
 20
-372.6503618121515
 30
0.0000000002254849
 11
5300.5282474264
 21
-370.0503618121514
 31
0.0000000002254849
  0
TEXT
  5
B62C
330
18
100
AcDbEntity
  8
01
  6
CONTINUOUS
100
AcDbText
 10
5299.618247426401
 20
-355.8498647187516
 30
0.0000000002254849
 40
4.55
  1
φ50
 50
90.0
100
AcDbText
1001
ACAD
1000
DSTYLE
1002
{
1070
     3
1000
φ<>
1070
    40
1040
1.3
1070
    45
1040
0.5
1002
}
  0
LINE
  5
B62D
330
18
100
AcDbEntity
  8
1DIM
100
AcDbLine
 10
5438.283395423748
 20
-187.6516801252551
 30
0.0000000002254849
 11
5483.328244443409
 21
-187.6516801252551
 31
0.0000000002254849
1001
ACAD
1000
DSTYLE
1002
{
1070
    40
1040
1.3
1002
}
  0
LINE
  5
B62E
330
18
100
AcDbEntity
  8
1DIM
100
AcDbLine
 10
5463.975593143781
 20
-228.6516800720923
 30
0.0000000002254849
 11
5483.328244443409
 21
-228.6516800720923
 31
0.0000000002254849
1001
ACAD
1000
DSTYLE
1002
{
1070
    40
1040
1.3
1002
}
  0
LINE
  5
B62F
330
18
100
AcDbEntity
  8
1DIM
100
AcDbLine
 10
5482.028244443409
 20
-190.2516801252551
 30
0.0000000002254849
 11
5482.028244443409
 21
-226.0516800720923
 31
0.0000000002254849
1001
ACAD
1000
DSTYLE
1002
{
1070
    40
1040
1.3
1002
}
  0
LINE
  5
B633
330
18
100
AcDbEntity
  8
1DIM
100
AcDbLine
 10
5438.283395423748
 20
-187.6516801252551
 30
0.0000000002254849
 11
5493.328244443409
 21
-187.6516801252551
 31
0.0000000002254849
1001
ACAD
1000
DSTYLE
1002
{
1070
    40
1040
1.3
1002
}
  0
LINE
  5
B634
330
18
100
AcDbEntity
  8
1DIM
100
AcDbLine
 10
5463.975591034719
 20
-254.6516800720931
 30
0.0000000002254849
 11
5493.328244443409
 21
-254.6516800720931
 31
0.0000000002254849
1001
ACAD
1000
DSTYLE
1002
{
1070
    40
1040
1.3
1002
}
  0
LINE
  5
B635
330
18
100
AcDbEntity
  8
1DIM
100
AcDbLine
 10
5492.028244443409
 20
-190.2516801252551
 30
0.0000000002254849
 11
5492.028244443409
 21
-252.0516800720931
 31
0.0000000002254849
1001
ACAD
1000
DSTYLE
1002
{
1070
    40
1040
1.3
1002
}
  0
LINE
  5
B639
330
18
100
AcDbEntity
  8
1DIM
100
AcDbLine
 10
5335.5282474264
 20
-209.1516801252551
 30
0.0000000002254849
 11
5335.5282474264
 21
-270.9516800720926
 31
0.0000000002254849
1001
ACAD
1000
DSTYLE
1002
{
1070
    40
1040
1.3
1002
}
  0
LINE
  5
B63A
330
18
100
AcDbEntity
  8
1DIM
100
AcDbLine
 10
5467.028236417704
 20
-241.6516800756106
 30
0.0000000002254849
 11
5467.028236417704
 21
-270.9516800720926
 31
0.0000000002254849
1001
ACAD
1000
DSTYLE
1002
{
1070
    40
1040
1.3
1002
}
  0
LINE
  5
B63B
330
18
100
AcDbEntity
  8
1DIM
100
AcDbLine
 10
5338.128247426401
 20
-269.6516800720926
 30
0.0000000002254849
 11
5464.428236417703
 21
-269.6516800720926
 31
0.0000000002254849
1001
ACAD
1000
DSTYLE
1002
{
1070
    40
1040
1.3
1002
}
  0
LINE
  5
B63F
330
18
100
AcDbEntity
  8
1DIM
100
AcDbLine
 10
5322.510478768982
 20
-202.1516751200549
 30
0.0000000002254849
 11
5322.510478768982
 21
-280.9516800720926
 31
0.0000000002254849
1001
ACAD
1000
DSTYLE
1002
{
1070
    40
1040
1.3
1070
   271
1070
     1
1002
}
  0
LINE
  5
B640
330
18
100
AcDbEntity
  8
1DIM
100
AcDbLine
 10
5467.028236417704
 20
-241.6516800756106
 30
0.0000000002254849
 11
5467.028236417704
 21
-280.9516800720926
 31
0.0000000002254849
1001
ACAD
1000
DSTYLE
1002
{
1070
    40
1040
1.3
1070
   271
1070
     1
1002
}
  0
LINE
  5
B641
330
18
100
AcDbEntity
  8
1DIM
100
AcDbLine
 10
5325.110478768982
 20
-279.6516800720926
 30
0.0000000002254849
 11
5464.428236417703
 21
-279.6516800720926
 31
0.0000000002254849
1001
ACAD
1000
DSTYLE
1002
{
1070
    40
1040
1.3
1070
   271
1070
     1
1002
}
  0
LINE
  5
B645
330
18
100
AcDbEntity
  8
1DIM
100
AcDbLine
 10
5465.528233709802
 20
-354.075584887749
 30
0.0000000002254849
 11
5483.328244443409
 21
-354.075584887749
 31
0.0000000002254849
1001
ACAD
1000
DSTYLE
1002
{
1070
    40
1040
1.3
1070
   271
1070
     0
1002
}
  0
LINE
  5
B646
330
18
100
AcDbEntity
  8
1DIM
100
AcDbLine
 10
5465.528233709802
 20
-341.2250620526088
 30
0.0000000002254849
 11
5483.328244443409
 21
-341.2250620526088
 31
0.0000000002254849
1001
ACAD
1000
DSTYLE
1002
{
1070
    40
1040
1.3
1070
   271
1070
     0
1002
}
  0
LINE
  5
B647
330
18
100
AcDbEntity
  8
1DIM
100
AcDbLine
 10
5482.028244443409
 20
-351.4755848877489
 30
0.0000000002254849
 11
5482.028244443409
 21
-343.8250620526088
 31
0.0000000002254849
1001
ACAD
1000
DSTYLE
1002
{
1070
    40
1040
1.3
1070
   271
1070
     0
1002
}
  0
LINE
  5
B64B
330
18
100
AcDbEntity
  8
0
  6
BYBLOCK
100
AcDbLine
 10
5481.331576549409
 20
-190.2516801252551
 30
0.0000000002254849
 11
5482.028244443409
 21
-187.6516801252551
 31
0.0000000002254849
  0
LINE
  5
B64C
330
18
100
AcDbEntity
  8
0
  6
BYBLOCK
100
AcDbLine
 10
5482.028244443409
 20
-187.6516801252551
 30
0.0000000002254849
 11
5482.724912337409
 21
-190.2516801252551
 31
0.0000000002254849
  0
LINE
  5
B64D
330
18
100
AcDbEntity
  8
0
  6
BYBLOCK
100
AcDbLine
 10
5482.028244443409
 20
-187.6516801252551
 30
0.0000000002254849
 11
5482.028244443409
 21
-190.2516801252551
 31
0.0000000002254849
  0
LINE
  5
B64E
330
18
100
AcDbEntity
  8
0
  6
BYBLOCK
100
AcDbLine
 10
5482.724912337409
 20
-226.0516800720923
 30
0.0000000002254849
 11
5482.028244443409
 21
-228.6516800720923
 31
0.0000000002254849
  0
LINE
  5
B64F
330
18
100
AcDbEntity
  8
0
  6
BYBLOCK
100
AcDbLine
 10
5482.028244443409
 20
-228.6516800720923
 30
0.0000000002254849
 11
5481.331576549409
 21
-226.0516800720923
 31
0.0000000002254849
  0
LINE
  5
B650
330
18
100
AcDbEntity
  8
0
  6
BYBLOCK
100
AcDbLine
 10
5482.028244443409
 20
-228.6516800720923
 30
0.0000000002254849
 11
5482.028244443409
 21
-226.0516800720923
 31
0.0000000002254849
  0
TEXT
  5
B651
330
18
100
AcDbEntity
  8
1DIM
  6
CONTINUOUS
100
AcDbText
 10
5481.118244443409
 20
-211.1850134320066
 30
0.0000000002254849
 40
4.55
  1
41
 50
90.0
100
AcDbText
1001
ACAD
1000
DSTYLE
1002
{
1070
    40
1040
1.3
1002
}
  0
LINE
  5
B652
330
18
100
AcDbEntity
  8
0
  6
BYBLOCK
100
AcDbLine
 10
5491.331576549409
 20
-190.2516801252551
 30
0.0000000002254849
 11
5492.028244443409
 21
-187.6516801252551
 31
0.0000000002254849
  0
LINE
  5
B653
330
18
100
AcDbEntity
  8
0
  6
BYBLOCK
100
AcDbLine
 10
5492.028244443409
 20
-187.6516801252551
 30
0.0000000002254849
 11
5492.724912337409
 21
-190.2516801252551
 31
0.0000000002254849
  0
LINE
  5
B654
330
18
100
AcDbEntity
  8
0
  6
BYBLOCK
100
AcDbLine
 10
5492.028244443409
 20
-187.6516801252551
 30
0.0000000002254849
 11
5492.028244443409
 21
-190.2516801252551
 31
0.0000000002254849
  0
LINE
  5
B655
330
18
100
AcDbEntity
  8
0
  6
BYBLOCK
100
AcDbLine
 10
5492.724912337409
 20
-252.0516800720931
 30
0.0000000002254849
 11
5492.028244443409
 21
-254.6516800720931
 31
0.0000000002254849
  0
LINE
  5
B656
330
18
100
AcDbEntity
  8
0
  6
BYBLOCK
100
AcDbLine
 10
5492.028244443409
 20
-254.6516800720931
 30
0.0000000002254849
 11
5491.331576549409
 21
-252.0516800720931
 31
0.0000000002254849
  0
LINE
  5
B657
330
18
100
AcDbEntity
  8
0
  6
BYBLOCK
100
AcDbLine
 10
5492.028244443409
 20
-254.6516800720931
 30
0.0000000002254849
 11
5492.028244443409
 21
-252.0516800720931
 31
0.0000000002254849
  0
TEXT
  5
B658
330
18
100
AcDbEntity
  8
1DIM
  6
CONTINUOUS
100
AcDbText
 10
5491.118244443408
 20
-224.9591453764506
 30
0.0000000002254849
 40
4.55
  1
67
 50
90.0
100
AcDbText
1001
ACAD
1000
DSTYLE
1002
{
1070
    40
1040
1.3
1002
}
  0
LINE
  5
B659
330
18
100
AcDbEntity
  8
0
  6
BYBLOCK
100
AcDbLine
 10
5338.128247426401
 20
-270.3483479660926
 30
0.0000000002254849
 11
5335.5282474264
 21
-269.6516800720926
 31
0.0000000002254849
  0
LINE
  5
B65A
330
18
100
AcDbEntity
  8
0
  6
BYBLOCK
100
AcDbLine
 10
5335.5282474264
 20
-269.6516800720926
 30
0.0000000002254849
 11
5338.128247426401
 21
-268.9550121780927
 31
0.0000000002254849
  0
LINE
  5
B65B
330
18
100
AcDbEntity
  8
0
  6
BYBLOCK
100
AcDbLine
 10
5335.5282474264
 20
-269.6516800720926
 30
0.0000000002254849
 11
5338.128247426401
 21
-269.6516800720926
 31
0.0000000002254849
  0
LINE
  5
B65C
330
18
100
AcDbEntity
  8
0
  6
BYBLOCK
100
AcDbLine
 10
5464.428236417703
 20
-268.9550121780927
 30
0.0000000002254849
 11
5467.028236417704
 21
-269.6516800720926
 31
0.0000000002254849
  0
LINE
  5
B65D
330
18
100
AcDbEntity
  8
0
  6
BYBLOCK
100
AcDbLine
 10
5467.028236417704
 20
-269.6516800720926
 30
0.0000000002254849
 11
5464.428236417703
 21
-270.3483479660926
 31
0.0000000002254849
  0
LINE
  5
B65E
330
18
100
AcDbEntity
  8
0
  6
BYBLOCK
100
AcDbLine
 10
5467.028236417704
 20
-269.6516800720926
 30
0.0000000002254849
 11
5464.428236417703
 21
-269.6516800720926
 31
0.0000000002254849
  0
TEXT
  5
B65F
330
18
100
AcDbEntity
  8
1DIM
  6
CONTINUOUS
100
AcDbText
 10
5393.694908588719
 20
-268.7416800720927
 30
0.0000000002254849
 40
4.55
  1
131.5
100
AcDbText
1001
ACAD
1000
DSTYLE
1002
{
1070
    40
1040
1.3
1002
}
  0
LINE
  5
B660
330
18
100
AcDbEntity
  8
0
  6
BYBLOCK
100
AcDbLine
 10
5325.110478768982
 20
-280.3483479660926
 30
0.0000000002254849
 11
5322.510478768982
 21
-279.6516800720926
 31
0.0000000002254849
  0
LINE
  5
B661
330
18
100
AcDbEntity
  8
0
  6
BYBLOCK
100
AcDbLine
 10
5322.510478768982
 20
-279.6516800720926
 30
0.0000000002254849
 11
5325.110478768982
 21
-278.9550121780927
 31
0.0000000002254849
  0
LINE
  5
B662
330
18
100
AcDbEntity
  8
0
  6
BYBLOCK
100
AcDbLine
 10
5322.510478768982
 20
-279.6516800720926
 30
0.0000000002254849
 11
5325.110478768982
 21
-279.6516800720926
 31
0.0000000002254849
  0
LINE
  5
B663
330
18
100
AcDbEntity
  8
0
  6
BYBLOCK
100
AcDbLine
 10
5464.428236417703
 20
-278.9550121780927
 30
0.0000000002254849
 11
5467.028236417704
 21
-279.6516800720926
 31
0.0000000002254849
  0
LINE
  5
B664
330
18
100
AcDbEntity
  8
0
  6
BYBLOCK
100
AcDbLine
 10
5467.028236417704
 20
-279.6516800720926
 30
0.0000000002254849
 11
5464.428236417703
 21
-280.3483479660926
 31
0.0000000002254849
  0
LINE
  5
B665
330
18
100
AcDbEntity
  8
0
  6
BYBLOCK
100
AcDbLine
 10
5467.028236417704
 20
-279.6516800720926
 30
0.0000000002254849
 11
5464.428236417703
 21
-279.6516800720926
 31
0.0000000002254849
  0
TEXT
  5
B666
330
18
100
AcDbEntity
  8
1DIM
  6
CONTINUOUS
100
AcDbText
 10
5395.186579676742
 20
-278.7416800720927
 30
0.0000000002254849
 40
4.55
  1
144.5
100
AcDbText
1001
ACAD
1000
DSTYLE
1002
{
1070
    40
1040
1.3
1070
   271
1070
     1
1002
}
  0
LINE
  5
B667
330
18
100
AcDbEntity
  8
0
  6
BYBLOCK
100
AcDbLine
 10
5482.724912337409
 20
-351.4755848877489
 30
0.0000000002254849
 11
5482.028244443409
 21
-354.075584887749
 31
0.0000000002254849
  0
LINE
  5
B668
330
18
100
AcDbEntity
  8
0
  6
BYBLOCK
100
AcDbLine
 10
5482.028244443409
 20
-354.075584887749
 30
0.0000000002254849
 11
5481.331576549409
 21
-351.4755848877489
 31
0.0000000002254849
  0
LINE
  5
B669
330
18
100
AcDbEntity
  8
0
  6
BYBLOCK
100
AcDbLine
 10
5482.028244443409
 20
-354.075584887749
 30
0.0000000002254849
 11
5482.028244443409
 21
-351.4755848877489
 31
0.0000000002254849
  0
LINE
  5
B66A
330
18
100
AcDbEntity
  8
0
  6
BYBLOCK
100
AcDbLine
 10
5481.331576549409
 20
-343.8250620526088
 30
0.0000000002254849
 11
5482.028244443409
 21
-341.2250620526088
 31
0.0000000002254849
  0
LINE
  5
B66B
330
18
100
AcDbEntity
  8
0
  6
BYBLOCK
100
AcDbLine
 10
5482.028244443409
 20
-341.2250620526088
 30
0.0000000002254849
 11
5482.724912337409
 21
-343.8250620526088
 31
0.0000000002254849
  0
LINE
  5
B66C
330
18
100
AcDbEntity
  8
0
  6
BYBLOCK
100
AcDbLine
 10
5482.028244443409
 20
-341.2250620526088
 30
0.0000000002254849
 11
5482.028244443409
 21
-343.8250620526088
 31
0.0000000002254849
  0
TEXT
  5
B66D
330
18
100
AcDbEntity
  8
1DIM
  6
CONTINUOUS
100
AcDbText
 10
5481.118244443408
 20
-350.6836568035114
 30
0.0000000002254849
 40
4.55
  1
13
 50
90.0
100
AcDbText
1001
ACAD
1000
DSTYLE
1002
{
1070
    40
1040
1.3
1070
   271
1070
     0
1002
}
  0
VIEWPORT
  5
57
330
15
100
AcDbEntity
 67
     1
  8
0
100
AcDbViewport
 68
     1
 10
0.0
 20
0.0
 30
0.0
 40
555.829865361077
 41
296.9999999999999
 68
     1
 69
     1
1001
ACAD
1000
MVIEW
1002
{
1070
    16
1010
0.0
1020
0.0
1030
0.0
1010
0.0
1020
0.0
1030
1.0
1040
0.0
1040
296.9999999999999
1040
5.728000000000009
1040
25.33899999999998
1040
50.0
1040
0.0
1040
0.0
1070
    16
1070
   100
1070
     0
1070
     1
1070
     0
1070
     0
1070
     0
1070
     0
1040
0.0
1040
0.0
1040
0.0
1040
10.0
1040
10.0
1040
10.0
1040
10.0
1070
     0
1002
{
1002
}
1002
}
  0
ENDSEC
  0
SECTION
  2
OBJECTS
  0
DICTIONARY
  5
C
330
0
100
AcDbDictionary
  3
ACAD_CIP_PREVIOUS_PRODUCT_INFO
350
AEA8
  3
ACAD_COLOR
350
18D
  3
ACAD_GROUP
350
D
  3
ACAD_LAYOUT
350
18E
  3
ACAD_MATERIAL
350
18C
  3
ACAD_MLEADERSTYLE
350
9583
  3
ACAD_MLINESTYLE
350
1B
  3
ACAD_PLOTSETTINGS
350
18F
  3
ACAD_SCALELIST
350
9561
  3
ACAD_VISUALSTYLE
350
9550
  3
ACDBHEADERROUNDTRIPXREC
350
B66E
  3
ACDBVARIABLEDICTIONARY
350
37
  3
AEC_PROPERTY_SET_DEFS
350
AF4D
  3
CONTENTDICTIONARY
350
D8
  3
DRAWINGVARIABLESDICT
350
20
  3
DWGPROPS
350
B671
1001
ACAD
1000
TREAT_AS_HARD
1070
     0
  0
DICTIONARY
  5
96D9
330
2
100
AcDbDictionary
  3
ACAD_LAYERSTATES
360
96DA
1001
ACAD
1000
TREAT_AS_HARD
1070
     1
  0
DICTIONARY
  5
9593
330
E
100
AcDbDictionary
  3
ADSK_XREC_LAYER_RECONCILED
360
9594
1001
ACAD
1000
TREAT_AS_HARD
1070
     1
  0
DICTIONARY
  5
9595
330
29
100
AcDbDictionary
  3
ADSK_XREC_LAYER_RECONCILED
360
9596
1001
ACAD
1000
TREAT_AS_HARD
1070
     1
  0
DICTIONARY
  5
9597
330
31
100
AcDbDictionary
  3
ADSK_XREC_LAYER_RECONCILED
360
9598
1001
ACAD
1000
TREAT_AS_HARD
1070
     1
  0
DICTIONARY
  5
959D
330
243
100
AcDbDictionary
  3
ADSK_XREC_LAYER_RECONCILED
360
959E
1001
ACAD
1000
TREAT_AS_HARD
1070
     1
  0
DICTIONARY
  5
95A3
330
24E
100
AcDbDictionary
  3
ADSK_XREC_LAYER_RECONCILED
360
95A4
1001
ACAD
1000
TREAT_AS_HARD
1070
     1
  0
DICTIONARY
  5
88F
330
18
100
AcDbDictionary
  3
ACAD_SORTENTS
360
890
1001
ACAD
1000
TREAT_AS_HARD
1070
     1
  0
XRECORD
  5
AEA8
102
{ACAD_REACTORS
330
C
102
}
330
C
100
AcDbXrecord
300
ACDLT
300
2012
300
ACDLT_F_S
  0
DICTIONARY
  5
18D
102
{ACAD_REACTORS
330
C
102
}
330
C
100
AcDbDictionary
1001
ACAD
1000
TREAT_AS_HARD
1070
     0
  0
DICTIONARY
  5
D
102
{ACAD_REACTORS
330
C
102
}
330
C
100
AcDbDictionary
1001
ACAD
1000
TREAT_AS_HARD
1070
     0
  0
DICTIONARY
  5
18E
102
{ACAD_REACTORS
330
C
102
}
330
C
100
AcDbDictionary
1001
ACAD
1000
TREAT_AS_HARD
1070
     0
  0
DICTIONARY
  5
18C
102
{ACAD_REACTORS
330
C
102
}
330
C
100
AcDbDictionary
  3
BYBLOCK
350
9540
  3
BYLAYER
350
9538
  3
GLOBAL
350
9548
1001
ACAD
1000
TREAT_AS_HARD
1070
     0
  0
DICTIONARY
  5
9583
102
{ACAD_REACTORS
330
C
102
}
330
C
100
AcDbDictionary
  3
STANDARD
350
9584
1001
ACAD
1000
TREAT_AS_HARD
1070
     0
  0
DICTIONARY
  5
1B
102
{ACAD_REACTORS
330
C
102
}
330
C
100
AcDbDictionary
  3
STANDARD
350
1C
1001
ACAD
1000
TREAT_AS_HARD
1070
     0
  0
DICTIONARY
  5
18F
102
{ACAD_REACTORS
330
C
102
}
330
C
100
AcDbDictionary
1001
ACAD
1000
TREAT_AS_HARD
1070
     0
  0
DICTIONARY
  5
9561
102
{ACAD_REACTORS
330
C
102
}
330
C
100
AcDbDictionary
  3
A0
350
9562
  3
A1
350
9563
  3
A2
350
9564
  3
A3
350
9565
  3
A4
350
9566
  3
A5
350
9567
  3
A6
350
9568
  3
A7
350
9569
  3
A8
350
956A
  3
A9
350
956B
  3
B0
350
956C
  3
B1
350
956D
  3
B2
350
956E
  3
B3
350
956F
  3
B4
350
9570
  3
B5
350
9571
  3
B6
350
9572
  3
B7
350
9573
  3
B8
350
9574
  3
B9
350
9575
  3
C0
350
9576
  3
C1
350
9577
  3
C2
350
9578
  3
C3
350
9579
  3
C4
350
957A
  3
C5
350
957B
  3
C6
350
957C
  3
C7
350
957D
  3
C8
350
957E
  3
C9
350
957F
  3
D0
350
9580
  3
D1
350
9581
  3
D2
350
9582
1001
ACAD
1000
TREAT_AS_HARD
1070
     0
  0
DICTIONARY
  5
9550
102
{ACAD_REACTORS
330
C
102
}
330
C
100
AcDbDictionary
  3
2DWIREFRAME
350
9556
  3
3D_HIDDEN
350
9558
  3
3DWIREFRAME
350
9557
  3
BASIC
350
9555
  3
BRIGHTEN
350
955C
  3
COLORCHANGE
350
9560
  3
CONCEPTUAL
350
9559
  3
DIM
350
955B
  3
EDGECOLOROFF
350
A211
  3
FACEPATTERN
350
955F
  3
FLAT
350
9551
  3
FLATWITHEDGES
350
9552
  3
GOURAUD
350
9553
  3
GOURAUDWITHEDGES
350
9554
  3
HIDDEN
350
A260
  3
JITTEROFF
350
A20F
  3
LINEPATTERN
350
955E
  3
MODELING
350
A266
  3
OVERHANGOFF
350
A210
  3
REALISTIC
350
955A
  3
SHADED
350
A265
  3
SHADED_WITH_EDGES
350
A264
  3
SHADES_OF_GRAY
350
A261
  3
SKETCHY
350
A262
  3
THICKEN
350
955D
  3
WIREFRAME
350
A25F
  3
X-RAY
350
A263
1001
ACAD
1000
TREAT_AS_HARD
1070
     0
  0
DICTIONARY
  5
B66E
102
{ACAD_REACTORS
330
C
102
}
330
C
100
AcDbDictionary
  3
COLORDICT
350
B66F
  3
MATERIALDICT
350
B670
1001
ACAD
1000
TREAT_AS_HARD
1070
     0
  0
DICTIONARY
  5
37
102
{ACAD_REACTORS
330
C
102
}
330
C
100
AcDbDictionary
  3
CANNOSCALE
350
AAE0
  3
CMLEADERSTYLE
350
9627
  3
CTABLESTYLE
350
29E
  3
DIMADEC
350
38
  3
DIMASSOC
350
1CE
  3
HIDETEXT
350
704E
  3
INDEXCTL
350
962A
  3
INTERSECTIONCOLOR
350
7052
  3
INTERSECTIONDISPLAY
350
7051
  3
MSLTSCALE
350
AB30
  3
OBSCOLOR
350
704F
  3
OBSLTYPE
350
7050
  3
PROJECTNAME
350
1CF
  3
SORTENTS
350
9629
  3
XCLIPFRAME
350
B412
1001
ACAD
1000
TREAT_AS_HARD
1070
     0
  0
DICTIONARY
  5
AF4D
102
{ACAD_REACTORS
330
C
102
}
330
C
100
AcDbDictionary
1001
ACAD
1000
TREAT_AS_HARD
1070
     0
  0
DICTIONARY
  5
D8
102
{ACAD_REACTORS
330
C
102
}
330
C
100
AcDbDictionary
1001
ACAD
1000
TREAT_AS_HARD
1070
     0
  0
DICTIONARY
  5
20
102
{ACAD_REACTORS
330
C
102
}
330
C
100
AcDbDictionary
1001
DRAWINGVARIABLESXDATA
1000
POLARANG
1000
0.261799387799149410000000
1000
POLARMODE
1000
1
1000
POLARSTYLE
1000
1
1001
ACAD
1000
TREAT_AS_HARD
1070
     0
  0
XRECORD
  5
B671
102
{ACAD_REACTORS
330
C
102
}
330
C
100
AcDbXrecord
  1
DWGPROPS COOKIE
  2

  3

  4

  6

  7

  8
3684
  9

300
=
301
=
302
=
303
=
304
=
305
=
306
=
307
=
308
=
309
=
 40
0.0
 41
2451318.246352917
 42
2458164.998764896
  1

 90
        0
  0
DICTIONARY
  5
96DA
102
{ACAD_REACTORS
330
96D9
102
}
330
96D9
100
AcDbDictionary
1001
ACAD
1000
TREAT_AS_HARD
1070
     0
  0
ACAD_PROXY_OBJECT
  5
9594
102
{ACAD_REACTORS
330
9593
102
}
330
9593
100
AcDbZombieObject
 90
      499
 91
      514
 93
       34
310
40C8804040
  0
ACAD_PROXY_OBJECT
  5
9596
102
{ACAD_REACTORS
330
9595
102
}
330
9595
100
AcDbZombieObject
 90
      499
 91
      514
 93
       34
310
40C8804040
  0
ACAD_PROXY_OBJECT
  5
9598
102
{ACAD_REACTORS
330
9597
102
}
330
9597
100
AcDbZombieObject
 90
      499
 91
      514
 93
       34
310
40C8804040
  0
ACAD_PROXY_OBJECT
  5
959E
102
{ACAD_REACTORS
330
959D
102
}
330
959D
100
AcDbZombieObject
 90
      499
 91
      514
 93
       34
310
40C8804040
  0
ACAD_PROXY_OBJECT
  5
95A4
102
{ACAD_REACTORS
330
95A3
102
}
330
95A3
100
AcDbZombieObject
 90
      499
 91
      514
 93
       34
310
40C8804040
  0
SORTENTSTABLE
  5
890
102
{ACAD_REACTORS
330
88F
102
}
330
88F
100
AcDbSortentsTable
330
18
331
AF56
  5
AF91
331
AF57
  5
AF94
331
AF58
  5
B2D8
331
AF59
  5
B2D9
331
AF5A
  5
B2DA
331
AF5B
  5
B2DB
331
AF70
  5
B2DC
331
AF71
  5
B2DD
331
AF72
  5
B2DE
331
AF78
  5
B2E2
331
AF88
  5
B2E3
331
AF89
  5
B2E4
331
AF90
  5
B2E5
331
AF91
  5
B2E6
331
AF94
  5
B2E7
331
0
  5
B2E8
331
0
  5
B2E9
331
0
  5
B2EA
331
0
  5
B2EB
331
0
  5
B2EC
331
B2DD
  5
B4BF
331
B2DE
  5
B4C0
331
B2E2
  5
B4E9
331
B2E3
  5
B4EA
331
B2E4
  5
B4EB
331
B2E5
  5
B4EC
331
B2E6
  5
B4ED
331
B2E7
  5
B4EE
331
B2E8
  5
B4EF
331
B2E9
  5
B4F0
331
B2EA
  5
B4F1
331
B2EB
  5
B4F2
331
B2EC
  5
B4F3
331
B2ED
  5
B4F4
331
B2EE
  5
B4F5
331
B2EF
  5
B4F6
331
B2F0
  5
B4F7
331
B2F3
  5
B50E
331
B2F5
  5
B524
331
B2F8
  5
B53B
331
B2F9
  5
B53C
331
B2FA
  5
B53D
331
B2FB
  5
B53E
331
B2FC
  5
B53F
331
B2FD
  5
B540
331
B2FE
  5
B541
331
B2FF
  5
B542
331
B300
  5
B543
331
B301
  5
B544
331
B302
  5
B545
331
B303
  5
B546
331
B304
  5
B547
331
B305
  5
B548
331
B306
  5
B549
331
B307
  5
B54A
331
B308
  5
B54B
331
B309
  5
B54C
331
B30A
  5
B54D
331
B30E
  5
B5C5
331
B30F
  5
B5C6
331
B310
  5
B5C7
331
B311
  5
B5C8
331
B312
  5
B5C9
331
B314
  5
B5D6
331
B315
  5
B5D7
331
B316
  5
B5D8
331
B317
  5
B5D9
331
B31D
  5
B642
331
B31E
  5
B643
331
B31F
  5
B644
331
B320
  5
B645
331
B321
  5
B646
331
B322
  5
B647
331
B323
  5
B648
331
B324
  5
B649
331
B327
  5
B65A
331
B328
  5
B65B
331
B32B
  5
B66C
331
B32C
  5
B66D
331
B4AC
  5
AF56
331
B4AD
  5
AF57
331
B4AE
  5
AF58
331
0
  5
AF59
331
0
  5
AF5A
331
0
  5
AF5B
331
B4B2
  5
B4C1
331
B4B3
  5
B4C2
331
B4B4
  5
B4C3
331
B4B5
  5
B4C4
331
B4B6
  5
B4C5
331
B4B7
  5
B4C6
331
B4B8
  5
B4C7
331
B4B9
  5
B4C8
331
B4BA
  5
B4C9
331
B4BB
  5
B4CA
331
B4BC
  5
B4CB
331
B4BD
  5
B4CC
331
B4BE
  5
B4CD
331
B4BF
  5
B4CE
331
B4C0
  5
B4CF
331
B4C1
  5
B4D0
331
B4C2
  5
B4D1
331
B4C3
  5
B4D2
331
B4C4
  5
B4D3
331
B4C5
  5
B4D4
331
B4C6
  5
B4D5
331
B4C7
  5
B4D6
331
B4C8
  5
B4D7
331
B4C9
  5
B4D8
331
B4CA
  5
B4D9
331
B4CB
  5
B4DA
331
B4CC
  5
B4DB
331
B4CD
  5
B4DC
331
B4CE
  5
B4DD
331
B4CF
  5
B4DE
331
B4D0
  5
B4DF
331
B4D1
  5
B4E0
331
B4D2
  5
B4E1
331
B4D3
  5
B4E2
331
B4D4
  5
B4E3
331
B4D5
  5
B4E4
331
B4D6
  5
B4E5
331
B4D7
  5
B4E6
331
B4D8
  5
B4E7
331
B4D9
  5
B4E8
331
B4DA
  5
B4F8
331
B4DB
  5
B4F9
331
B4DC
  5
B4FA
331
B4DD
  5
B4FB
331
B4DE
  5
B4FC
331
B4DF
  5
B4FD
331
B4E0
  5
B4FE
331
B4E1
  5
B4FF
331
B4E2
  5
B500
331
B4E3
  5
B501
331
B4E4
  5
B502
331
B4E5
  5
B503
331
B4E6
  5
B504
331
B4E7
  5
B505
331
B4E8
  5
B506
331
B4E9
  5
B507
331
B4EA
  5
B508
331
B4EB
  5
B509
331
B4EC
  5
B50A
331
B4ED
  5
B50B
331
B4EE
  5
B50C
331
B4EF
  5
B50D
331
B4F0
  5
B50F
331
B4F1
  5
B510
331
B4F2
  5
B511
331
B4F3
  5
B512
331
B4F4
  5
B513
331
B4F5
  5
B514
331
B4F6
  5
B515
331
B4F7
  5
B516
331
B4F8
  5
B517
331
B4F9
  5
B518
331
B4FA
  5
B519
331
B4FB
  5
B51A
331
B4FC
  5
B51B
331
B4FD
  5
B51C
331
B4FE
  5
B51D
331
B4FF
  5
B51E
331
B500
  5
B51F
331
B501
  5
B520
331
B502
  5
B521
331
B503
  5
B522
331
B504
  5
B523
331
B505
  5
B525
331
B506
  5
B526
331
B507
  5
B527
331
B508
  5
B528
331
B509
  5
B529
331
B50A
  5
B52A
331
B50B
  5
B52B
331
B50C
  5
B52C
331
B50D
  5
B52D
331
B50E
  5
B52E
331
B50F
  5
B52F
331
B510
  5
B530
331
B511
  5
B531
331
B512
  5
B532
331
B513
  5
B533
331
B514
  5
B534
331
B515
  5
B535
331
B516
  5
B536
331
B517
  5
B537
331
B518
  5
B538
331
B519
  5
B539
331
B51A
  5
B53A
331
B51B
  5
B54E
331
B51C
  5
B54F
331
B51D
  5
B550
331
B51E
  5
B551
331
B51F
  5
B552
331
B520
  5
B553
331
B521
  5
B554
331
B522
  5
B555
331
B523
  5
B556
331
B524
  5
B557
331
B525
  5
B558
331
B526
  5
B559
331
B527
  5
B55A
331
B528
  5
B55B
331
B529
  5
B55C
331
B52A
  5
B55D
331
B52B
  5
B55E
331
B52C
  5
B55F
331
B52D
  5
B560
331
B52E
  5
B561
331
B52F
  5
B562
331
B530
  5
B563
331
B531
  5
B564
331
B532
  5
B565
331
B533
  5
B566
331
B534
  5
B567
331
B535
  5
B568
331
B536
  5
B569
331
B537
  5
B56A
331
B538
  5
B56B
331
B539
  5
B56C
331
B53A
  5
B56D
331
B53B
  5
B56E
331
B53C
  5
B56F
331
B53D
  5
B570
331
B53E
  5
B571
331
B53F
  5
B572
331
B540
  5
B573
331
B541
  5
B574
331
B542
  5
B575
331
B543
  5
B576
331
B544
  5
B577
331
B545
  5
B578
331
B546
  5
B579
331
B547
  5
B57A
331
B548
  5
B57B
331
B549
  5
B57C
331
B54A
  5
B57D
331
B54B
  5
B57E
331
B54C
  5
B57F
331
B54D
  5
B580
331
B54E
  5
B581
331
B54F
  5
B582
331
B550
  5
B583
331
B551
  5
B584
331
B552
  5
B585
331
B553
  5
B586
331
B554
  5
B587
331
B555
  5
B588
331
B556
  5
B589
331
B557
  5
B58A
331
B558
  5
B58B
331
B559
  5
B58C
331
B55A
  5
B58D
331
B55B
  5
B58E
331
B55C
  5
B58F
331
B55D
  5
B590
331
B55E
  5
B591
331
B55F
  5
B592
331
B560
  5
B593
331
B561
  5
B594
331
B562
  5
B595
331
B563
  5
B596
331
B564
  5
B597
331
B565
  5
B598
331
B566
  5
B599
331
B567
  5
B59A
331
B568
  5
B59B
331
B569
  5
B59C
331
B56A
  5
B59D
331
B56B
  5
B59E
331
B56C
  5
B59F
331
B56D
  5
B5A0
331
B56E
  5
B5A1
331
B56F
  5
B5A2
331
B570
  5
B5A3
331
B571
  5
B5A4
331
B572
  5
B5A5
331
B573
  5
B5A6
331
B574
  5
B5A7
331
B575
  5
B5A8
331
B576
  5
B5A9
331
B577
  5
B5AA
331
B578
  5
B5AB
331
B579
  5
B5AC
331
B57A
  5
B5AD
331
B57B
  5
B5AE
331
B57C
  5
B5AF
331
B57D
  5
B5B0
331
B57E
  5
B5B1
331
B57F
  5
B5B2
331
B580
  5
B5B3
331
B581
  5
B5B4
331
B582
  5
B5B5
331
B583
  5
B5B6
331
B584
  5
B5B7
331
B585
  5
B5B8
331
B586
  5
B5B9
331
B587
  5
B5BA
331
B588
  5
B5BB
331
B589
  5
B5BC
331
B58A
  5
B5BD
331
B58B
  5
B5BE
331
B58C
  5
B5BF
331
B58D
  5
B5C0
331
B58E
  5
B5C1
331
B58F
  5
B5C2
331
B590
  5
B5C3
331
B591
  5
B5C4
331
B592
  5
B5CA
331
B593
  5
B5CB
331
B594
  5
B5CC
331
B595
  5
B5CD
331
B596
  5
B5CE
331
B597
  5
B5CF
331
B598
  5
B5D0
331
B599
  5
B5D1
331
B59A
  5
B5D2
331
B59B
  5
B5D3
331
B59C
  5
B5D4
331
B59D
  5
B5D5
331
B59E
  5
B5DA
331
B59F
  5
B5DB
331
B5A0
  5
B5DC
331
B5A1
  5
B5DD
331
B5A2
  5
B5DE
331
B5A3
  5
B5DF
331
B5A4
  5
B5E0
331
B5A5
  5
B5E1
331
B5A6
  5
B5E2
331
B5A7
  5
B5E3
331
B5A8
  5
B5E4
331
B5A9
  5
B5E5
331
B5AA
  5
B5E6
331
B5AB
  5
B5E7
331
B5AC
  5
B5E8
331
B5AD
  5
B5E9
331
B5AE
  5
B5EA
331
B5AF
  5
B5EB
331
B5B0
  5
B5EC
331
B5B1
  5
B5ED
331
B5B2
  5
B5EE
331
B5B3
  5
B5EF
331
B5B4
  5
B5F0
331
B5B5
  5
B5F1
331
B5B6
  5
B5F2
331
B5B7
  5
B5F3
331
B5B8
  5
B5F4
331
B5B9
  5
B5F5
331
B5BA
  5
B5F6
331
B5BB
  5
B5F7
331
B5BC
  5
B5F8
331
B5BD
  5
B5F9
331
B5BE
  5
B5FA
331
B5BF
  5
B5FB
331
B5C0
  5
B5FC
331
B5C1
  5
B5FD
331
B5C2
  5
B5FE
331
B5C3
  5
B5FF
331
B5C4
  5
B600
331
B5C5
  5
B601
331
B5C6
  5
B602
331
B5C7
  5
B603
331
B5C8
  5
B604
331
B5C9
  5
B605
331
B5CA
  5
B606
331
B5CB
  5
B607
331
B5CC
  5
B608
331
B5CD
  5
B609
331
B5CE
  5
B60A
331
B5CF
  5
B60B
331
B5D0
  5
B60C
331
B5D1
  5
B60D
331
B5D2
  5
B60E
331
B5D3
  5
B60F
331
B5D4
  5
B610
331
B5D5
  5
B611
331
B5D6
  5
B612
331
B5D7
  5
B613
331
B5D8
  5
B614
331
B5D9
  5
B615
331
B5DA
  5
B616
331
B5DB
  5
B617
331
B5DC
  5
B618
331
B5DD
  5
B619
331
B5DE
  5
B61A
331
B5DF
  5
B61B
331
B5E0
  5
B61C
331
B5E1
  5
B61D
331
B5E2
  5
B61E
331
B5E3
  5
B61F
331
B5E4
  5
B620
331
B5E5
  5
B621
331
B5E6
  5
B622
331
B5E7
  5
B623
331
B5E8
  5
B624
331
B5E9
  5
B625
331
B5EA
  5
B626
331
B5EB
  5
B627
331
B5EC
  5
B628
331
B5ED
  5
B629
331
B5EE
  5
B62A
331
B5EF
  5
B62B
331
B5F0
  5
B62C
331
B5F1
  5
B62D
331
B5F2
  5
B62E
331
B5F3
  5
B62F
331
B5F4
  5
B630
331
B5F5
  5
B631
331
B5F6
  5
B632
331
B5F7
  5
B633
331
B5F8
  5
B634
331
B5F9
  5
B635
331
B5FA
  5
B636
331
B5FB
  5
B637
331
B5FC
  5
B638
331
B5FD
  5
B639
331
B5FE
  5
B63A
331
B5FF
  5
B63B
331
B600
  5
B63C
331
B601
  5
B63D
331
B602
  5
B63E
331
B603
  5
B63F
331
B604
  5
B640
331
B605
  5
B641
331
B606
  5
B64A
331
B607
  5
B64B
331
B608
  5
B64C
331
B609
  5
B64D
331
B60A
  5
B64E
331
B60B
  5
B64F
331
B60C
  5
B650
331
B60D
  5
B651
331
B60E
  5
B652
331
B60F
  5
B653
331
B610
  5
B654
331
B611
  5
B655
331
B612
  5
B656
331
B613
  5
B657
331
B614
  5
B658
331
B615
  5
B659
331
B616
  5
B65C
331
B617
  5
B65D
331
B618
  5
B65E
331
B619
  5
B65F
331
B61A
  5
B660
331
B61B
  5
B661
331
B61C
  5
B662
331
B61D
  5
B663
331
B61E
  5
B664
331
B61F
  5
B665
331
B620
  5
B666
331
B621
  5
B667
331
B622
  5
B668
331
B623
  5
B669
331
B624
  5
B66A
331
B625
  5
B66B
331
B626
  5
AF70
331
B627
  5
AF71
331
B628
  5
AF72
331
B629
  5
AF78
331
B62A
  5
AF88
331
B62B
  5
AF89
331
B62C
  5
AF90
331
B62D
  5
B2ED
331
B62E
  5
B2EE
331
B62F
  5
B2EF
331
0
  5
B2F0
331
0
  5
B2F3
331
0
  5
B2F5
331
B633
  5
B305
331
B634
  5
B306
331
B635
  5
B30A
331
0
  5
B2FB
331
0
  5
B2FC
331
0
  5
B2FD
331
B639
  5
B31E
331
B63A
  5
B31F
331
B63B
  5
B320
331
0
  5
B301
331
0
  5
B302
331
0
  5
B303
331
B63F
  5
B32C
331
B640
  5
B4AC
331
B641
  5
B4AD
331
0
  5
B307
331
0
  5
B308
331
0
  5
B309
331
B645
  5
B4B5
331
B646
  5
B4B6
331
B647
  5
B4B7
331
0
  5
B310
331
0
  5
B311
331
0
  5
B312
331
B64B
  5
B2F8
331
B64C
  5
B2F9
331
B64D
  5
B2FA
331
B64E
  5
B2FE
331
B64F
  5
B2FF
331
B650
  5
B300
331
B651
  5
B304
331
B652
  5
B30E
331
B653
  5
B30F
331
B654
  5
B314
331
B655
  5
B315
331
B656
  5
B316
331
B657
  5
B317
331
B658
  5
B31D
331
B659
  5
B321
331
B65A
  5
B322
331
B65B
  5
B323
331
B65C
  5
B324
331
B65D
  5
B327
331
B65E
  5
B328
331
B65F
  5
B32B
331
B660
  5
B4AE
331
B661
  5
B4AF
331
B662
  5
B4B0
331
B663
  5
B4B1
331
B664
  5
B4B2
331
B665
  5
B4B3
331
B666
  5
B4B4
331
B667
  5
B4B8
331
B668
  5
B4B9
331
B669
  5
B4BA
331
B66A
  5
B4BB
331
B66B
  5
B4BC
331
B66C
  5
B4BD
331
B66D
  5
B4BE
  0
MATERIAL
  5
9540
102
{ACAD_REACTORS
330
18C
102
}
102
{ACAD_XDICTIONARY
360
B80C
102
}
330
18C
100
AcDbMaterial
  1
BYBLOCK
 72
     0
 73
     2
 43
0.0208333333333333
 43
0.0
 43
0.0
 43
0.0
 43
0.0
 43
0.0208333333333333
 43
0.0
 43
0.0
 43
0.0
 43
0.0
 43
1.0
 43
0.0
 43
0.0
 43
0.0
 43
0.0
 43
1.0
 77
     0
 78
     2
 47
0.0208333333333333
 47
0.0
 47
0.0
 47
0.0
 47
0.0
 47
0.0208333333333333
 47
0.0
 47
0.0
 47
0.0
 47
0.0
 47
1.0
 47
0.0
 47
0.0
 47
0.0
 47
0.0
 47
1.0
171
     0
172
     2
 49
0.0208333333333333
 49
0.0
 49
0.0
 49
0.0
 49
0.0
 49
0.0208333333333333
 49
0.0
 49
0.0
 49
0.0
 49
0.0
 49
1.0
 49
0.0
 49
0.0
 49
0.0
 49
0.0
 49
1.0
175
     0
176
     2
142
0.0208333333333333
142
0.0
142
0.0
142
0.0
142
0.0
142
0.0208333333333333
142
0.0
142
0.0
142
0.0
142
0.0
142
1.0
142
0.0
142
0.0
142
0.0
142
0.0
142
1.0
179
     0
270
     2
144
0.0208333333333333
144
0.0
144
0.0
144
0.0
144
0.0
144
0.0208333333333333
144
0.0
144
0.0
144
0.0
144
0.0
144
1.0
144
0.0
144
0.0
144
0.0
144
0.0
144
1.0
274
     2
147
0.0208333333333333
147
0.0
147
0.0
147
0.0
147
0.0
147
0.0208333333333333
147
0.0
147
0.0
147
0.0
147
0.0
147
1.0
147
0.0
147
0.0
147
0.0
147
0.0
147
1.0
  0
MATERIAL
  5
9538
102
{ACAD_REACTORS
330
18C
102
}
102
{ACAD_XDICTIONARY
360
B80E
102
}
330
18C
100
AcDbMaterial
  1
BYLAYER
 72
     0
 73
     2
 43
0.0208333333333333
 43
0.0
 43
0.0
 43
0.0
 43
0.0
 43
0.0208333333333333
 43
0.0
 43
0.0
 43
0.0
 43
0.0
 43
1.0
 43
0.0
 43
0.0
 43
0.0
 43
0.0
 43
1.0
 77
     0
 78
     2
 47
0.0208333333333333
 47
0.0
 47
0.0
 47
0.0
 47
0.0
 47
0.0208333333333333
 47
0.0
 47
0.0
 47
0.0
 47
0.0
 47
1.0
 47
0.0
 47
0.0
 47
0.0
 47
0.0
 47
1.0
171
     0
172
     2
 49
0.0208333333333333
 49
0.0
 49
0.0
 49
0.0
 49
0.0
 49
0.0208333333333333
 49
0.0
 49
0.0
 49
0.0
 49
0.0
 49
1.0
 49
0.0
 49
0.0
 49
0.0
 49
0.0
 49
1.0
175
     0
176
     2
142
0.0208333333333333
142
0.0
142
0.0
142
0.0
142
0.0
142
0.0208333333333333
142
0.0
142
0.0
142
0.0
142
0.0
142
1.0
142
0.0
142
0.0
142
0.0
142
0.0
142
1.0
179
     0
270
     2
144
0.0208333333333333
144
0.0
144
0.0
144
0.0
144
0.0
144
0.0208333333333333
144
0.0
144
0.0
144
0.0
144
0.0
144
1.0
144
0.0
144
0.0
144
0.0
144
0.0
144
1.0
274
     2
147
0.0208333333333333
147
0.0
147
0.0
147
0.0
147
0.0
147
0.0208333333333333
147
0.0
147
0.0
147
0.0
147
0.0
147
1.0
147
0.0
147
0.0
147
0.0
147
0.0
147
1.0
  0
MATERIAL
  5
9548
102
{ACAD_REACTORS
330
18C
102
}
102
{ACAD_XDICTIONARY
360
B810
102
}
330
18C
100
AcDbMaterial
  1
GLOBAL
 72
     0
 73
     2
 43
0.0208333333333333
 43
0.0
 43
0.0
 43
0.0
 43
0.0
 43
0.0208333333333333
 43
0.0
 43
0.0
 43
0.0
 43
0.0
 43
1.0
 43
0.0
 43
0.0
 43
0.0
 43
0.0
 43
1.0
 77
     0
 78
     2
 47
0.0208333333333333
 47
0.0
 47
0.0
 47
0.0
 47
0.0
 47
0.0208333333333333
 47
0.0
 47
0.0
 47
0.0
 47
0.0
 47
1.0
 47
0.0
 47
0.0
 47
0.0
 47
0.0
 47
1.0
171
     0
172
     2
 49
0.0208333333333333
 49
0.0
 49
0.0
 49
0.0
 49
0.0
 49
0.0208333333333333
 49
0.0
 49
0.0
 49
0.0
 49
0.0
 49
1.0
 49
0.0
 49
0.0
 49
0.0
 49
0.0
 49
1.0
175
     0
176
     2
142
0.0208333333333333
142
0.0
142
0.0
142
0.0
142
0.0
142
0.0208333333333333
142
0.0
142
0.0
142
0.0
142
0.0
142
1.0
142
0.0
142
0.0
142
0.0
142
0.0
142
1.0
179
     0
270
     2
144
0.0208333333333333
144
0.0
144
0.0
144
0.0
144
0.0
144
0.0208333333333333
144
0.0
144
0.0
144
0.0
144
0.0
144
1.0
144
0.0
144
0.0
144
0.0
144
0.0
144
1.0
274
     2
147
0.0208333333333333
147
0.0
147
0.0
147
0.0
147
0.0
147
0.0208333333333333
147
0.0
147
0.0
147
0.0
147
0.0
147
1.0
147
0.0
147
0.0
147
0.0
147
0.0
147
1.0
  0
ACAD_PROXY_OBJECT
  5
9584
102
{ACAD_REACTORS
330
9583
102
}
330
9583
100
AcDbZombieObject
 90
      499
 91
      511
 93
      610
310
40901902A4063FBFFFFFE000000000000002040AD7A3703D0AD73F4214DD185B99185C990000000000000104090141901A00000000000004100000000000000041025764000000000000300FC0
340
12
340
0
340
F
340
0
 94
        0
1001
ACAD_MLEADERVER
1070
     2
  0
MLINESTYLE
  5
1C
102
{ACAD_REACTORS
330
1B
102
}
330
1B
100
AcDbMlineStyle
  2
STANDARD
 70
     0
  3

 62
   256
 51
90.0
 52
90.0
 71
     2
 49
0.5
 62
   256
  6
BYLAYER
 49
-0.5
 62
   256
  6
BYLAYER
  0
ACAD_PROXY_OBJECT
  5
9562
102
{ACAD_REACTORS
330
9561
102
}
330
9561
100
AcDbZombieObject
 90
      499
 91
      510
 93
       41
310
903313A31580
  0
ACAD_PROXY_OBJECT
  5
9563
102
{ACAD_REACTORS
330
9561
102
}
330
9561
100
AcDbZombieObject
 90
      499
 91
      510
 93
      105
310
903313A324000000000000004000
  0
ACAD_PROXY_OBJECT
  5
9564
102
{ACAD_REACTORS
330
9561
102
}
330
9561
100
AcDbZombieObject
 90
      499
 91
      510
 93
      105
310
903313A344000000000000104000
  0
ACAD_PROXY_OBJECT
  5
9565
102
{ACAD_REACTORS
330
9561
102
}
330
9561
100
AcDbZombieObject
 90
      499
 91
      510
 93
      105
310
903313A354000000000000144000
  0
ACAD_PROXY_OBJECT
  5
9566
102
{ACAD_REACTORS
330
9561
102
}
330
9561
100
AcDbZombieObject
 90
      499
 91
      510
 93
      105
310
903313A384000000000000204000
  0
ACAD_PROXY_OBJECT
  5
9567
102
{ACAD_REACTORS
330
9561
102
}
330
9561
100
AcDbZombieObject
 90
      499
 91
      510
 93
      113
310
904313A31304000000000000244000
  0
ACAD_PROXY_OBJECT
  5
9568
102
{ACAD_REACTORS
330
9561
102
}
330
9561
100
AcDbZombieObject
 90
      499
 91
      510
 93
      113
310
904313A31364000000000000304000
  0
ACAD_PROXY_OBJECT
  5
9569
102
{ACAD_REACTORS
330
9561
102
}
330
9561
100
AcDbZombieObject
 90
      499
 91
      510
 93
      113
310
904313A32304000000000000344000
  0
ACAD_PROXY_OBJECT
  5
956A
102
{ACAD_REACTORS
330
9561
102
}
330
9561
100
AcDbZombieObject
 90
      499
 91
      510
 93
      113
310
904313A333040000000000003E4000
  0
ACAD_PROXY_OBJECT
  5
956B
102
{ACAD_REACTORS
330
9561
102
}
330
9561
100
AcDbZombieObject
 90
      499
 91
      510
 93
      113
310
904313A34304000000000000444000
  0
ACAD_PROXY_OBJECT
  5
956C
102
{ACAD_REACTORS
330
9561
102
}
330
9561
100
AcDbZombieObject
 90
      499
 91
      510
 93
      113
310
904313A35304000000000000494000
  0
ACAD_PROXY_OBJECT
  5
956D
102
{ACAD_REACTORS
330
9561
102
}
330
9561
100
AcDbZombieObject
 90
      499
 91
      510
 93
      121
310
905313A3130304000000000000594000
  0
ACAD_PROXY_OBJECT
  5
956E
102
{ACAD_REACTORS
330
9561
102
}
330
9561
100
AcDbZombieObject
 90
      499
 91
      510
 93
      105
310
903323A310000000000000010100
  0
ACAD_PROXY_OBJECT
  5
956F
102
{ACAD_REACTORS
330
9561
102
}
330
9561
100
AcDbZombieObject
 90
      499
 91
      510
 93
      105
310
903343A310000000000000410100
  0
ACAD_PROXY_OBJECT
  5
9570
102
{ACAD_REACTORS
330
9561
102
}
330
9561
100
AcDbZombieObject
 90
      499
 91
      510
 93
      105
310
903383A310000000000000810100
  0
ACAD_PROXY_OBJECT
  5
9571
102
{ACAD_REACTORS
330
9561
102
}
330
9561
100
AcDbZombieObject
 90
      499
 91
      510
 93
      113
310
90431303A310000000000000910100
  0
ACAD_PROXY_OBJECT
  5
9572
102
{ACAD_REACTORS
330
9561
102
}
330
9561
100
AcDbZombieObject
 90
      499
 91
      510
 93
      121
310
9053130303A310000000000001650100
  0
ACAD_PROXY_OBJECT
  5
9573
102
{ACAD_REACTORS
330
9561
102
}
330
9561
100
AcDbZombieObject
 90
      499
 91
      510
 93
      257
310
90E312F31323822203D2031272D3022000000000000200FC000000000000284000
  0
ACAD_PROXY_OBJECT
  5
9574
102
{ACAD_REACTORS
330
9561
102
}
330
9561
100
AcDbZombieObject
 90
      499
 91
      510
 93
      249
310
90D312F363422203D2031272D3022000000000000240FC000000000000284000
  0
ACAD_PROXY_OBJECT
  5
9575
102
{ACAD_REACTORS
330
9561
102
}
330
9561
100
AcDbZombieObject
 90
      499
 91
      510
 93
      249
310
90D312F333222203D2031272D3022000000000000280FC000000000000284000
  0
ACAD_PROXY_OBJECT
  5
9576
102
{ACAD_REACTORS
330
9561
102
}
330
9561
100
AcDbZombieObject
 90
      499
 91
      510
 93
      249
310
90D312F313622203D2031272D30220000000000002C0FC000000000000284000
  0
ACAD_PROXY_OBJECT
  5
9577
102
{ACAD_REACTORS
330
9561
102
}
330
9561
100
AcDbZombieObject
 90
      499
 91
      510
 93
      249
310
90D332F333222203D2031272D30220000000000002E0FC000000000000284000
  0
ACAD_PROXY_OBJECT
  5
9578
102
{ACAD_REACTORS
330
9561
102
}
330
9561
100
AcDbZombieObject
 90
      499
 91
      510
 93
      241
310
90C312F3822203D2031272D3022000000000000300FC000000000000284000
  0
ACAD_PROXY_OBJECT
  5
9579
102
{ACAD_REACTORS
330
9561
102
}
330
9561
100
AcDbZombieObject
 90
      499
 91
      510
 93
      249
310
90D332F313622203D2031272D3022000000000000320FC000000000000284000
  0
ACAD_PROXY_OBJECT
  5
957A
102
{ACAD_REACTORS
330
9561
102
}
330
9561
100
AcDbZombieObject
 90
      499
 91
      510
 93
      241
310
90C312F3422203D2031272D3022000000000000340FC000000000000284000
  0
ACAD_PROXY_OBJECT
  5
957B
102
{ACAD_REACTORS
330
9561
102
}
330
9561
100
AcDbZombieObject
 90
      499
 91
      510
 93
      241
310
90C332F3822203D2031272D3022000000000000360FC000000000000284000
  0
ACAD_PROXY_OBJECT
  5
957C
102
{ACAD_REACTORS
330
9561
102
}
330
9561
100
AcDbZombieObject
 90
      499
 91
      510
 93
      241
310
90C312F3222203D2031272D3022000000000000380FC000000000000284000
  0
ACAD_PROXY_OBJECT
  5
957D
102
{ACAD_REACTORS
330
9561
102
}
330
9561
100
AcDbZombieObject
 90
      499
 91
      510
 93
      241
310
90C332F3422203D2031272D30220000000000003A0FC000000000000284000
  0
ACAD_PROXY_OBJECT
  5
957E
102
{ACAD_REACTORS
330
9561
102
}
330
9561
100
AcDbZombieObject
 90
      499
 91
      510
 93
      161
310
90A3122203D2031272D30224000000000000284000
  0
ACAD_PROXY_OBJECT
  5
957F
102
{ACAD_REACTORS
330
9561
102
}
330
9561
100
AcDbZombieObject
 90
      499
 91
      510
 93
      257
310
90E312D312F3222203D2031272D30220000000000003E0FC000000000000284000
  0
ACAD_PROXY_OBJECT
  5
9580
102
{ACAD_REACTORS
330
9561
102
}
330
9561
100
AcDbZombieObject
 90
      499
 91
      510
 93
      225
310
90A3322203D2031272D302200000000000002100000000000000284000
  0
ACAD_PROXY_OBJECT
  5
9581
102
{ACAD_REACTORS
330
9561
102
}
330
9561
100
AcDbZombieObject
 90
      499
 91
      510
 93
      225
310
90A3622203D2031272D302200000000000006100000000000000284000
  0
ACAD_PROXY_OBJECT
  5
9582
102
{ACAD_REACTORS
330
9561
102
}
330
9561
100
AcDbZombieObject
 90
      499
 91
      510
 93
      249
310
90D31272D3022203D2031272D30220000000000000A100000000000000284000
  0
ACAD_PROXY_OBJECT
  5
9556
102
{ACAD_REACTORS
330
9550
102
}
330
9550
100
AcDbZombieObject
 90
      499
 91
      509
 93
      436
310
42CC9915DA5C99599C985B595049028333333333333E3BF0000000000000FB0107901411070040501600405405064090741402480A0340
1001
ACAD
1000
AcDbSavedByObjectVersion
1070
     0
  0
ACAD_PROXY_OBJECT
  5
9558
102
{ACAD_REACTORS
330
9550
102
}
330
9550
100
AcDbZombieObject
 90
      499
 91
      509
 93
      500
310
424CD108121A5919195B90640502408333333333333E3BF0000000000000FB01079024090700405020000000000001110200405405064090740C02480A0340
1001
ACAD
1000
AcDbSavedByObjectVersion
1070
     0
  0
ACAD_PROXY_OBJECT
  5
9557
102
{ACAD_REACTORS
330
9550
102
}
330
9550
100
AcDbZombieObject
 90
      499
 91
      509
 93
      436
310
42CCD915DA5C99599C985B595059028333333333333E3BF0000000000000FB0107901411070040501600405405064090741402480A0340
1001
ACAD
1000
AcDbSavedByObjectVersion
1070
     0
  0
ACAD_PROXY_OBJECT
  5
9555
102
{ACAD_REACTORS
330
9550
102
}
330
9550
100
AcDbZombieObject
 90
      499
 91
      509
 93
      388
310
4150985CDA58D07406404333333333333E3BF0000000000000FB0107A41107004050150841D405064090741402480A0350
1001
ACAD
1000
AcDbSavedByObjectVersion
1070
     0
  0
ACAD_PROXY_OBJECT
  5
955C
102
{ACAD_REACTORS
330
9550
102
}
330
9550
100
AcDbZombieObject
 90
      499
 91
      509
 93
      428
310
42109C9A59DA1D195B90C409028333333333333E3BF0000000000000FB010790141107004050150841D405064090741402480A029950
1001
ACAD
1000
AcDbSavedByObjectVersion
1070
     0
  0
ACAD_PROXY_OBJECT
  5
9560
102
{ACAD_REACTORS
330
9550
102
}
330
9550
100
AcDbZombieObject
 90
      499
 91
      509
 93
      452
310
42D0DBDB1BDC90DA185B99D95104090240C333333333333E3BF0000000000000FB0108901411070040501508421405064090741402480A0350
1001
ACAD
1000
AcDbSavedByObjectVersion
1070
     0
  0
ACAD_PROXY_OBJECT
  5
9559
102
{ACAD_REACTORS
330
9550
102
}
330
9550
100
AcDbZombieObject
 90
      499
 91
      509
 93
      500
310
4290DBDB98D95C1D1D585B10940D028333333333333E3BF0000000000000FB0107902409070040501000000000000111010841D405064090740C02480A0340
1001
ACAD
1000
AcDbSavedByObjectVersion
1070
     0
  0
ACAD_PROXY_OBJECT
  5
955B
102
{ACAD_REACTORS
330
9550
102
}
330
9550
100
AcDbZombieObject
 90
      499
 91
      509
 93
      412
310
40D11A5B50B409028333333333333E3BF0000000000000FB010790141107004050150841D405064090741402480A02677FFFFFD0
1001
ACAD
1000
AcDbSavedByObjectVersion
1070
     0
  0
ACAD_PROXY_OBJECT
  5
A211
102
{ACAD_REACTORS
330
9550
102
}
330
9550
100
AcDbZombieObject
 90
      499
 91
      509
 93
      452
310
43115919D950DBDB1BDC93D999916409028333333333333E3BF0000000000000FB010790141107004050150841D405064090741402480A0350
1001
ACAD
1000
AcDbSavedByObjectVersion
1070
     0
  0
ACAD_PROXY_OBJECT
  5
955F
102
{ACAD_REACTORS
330
9550
102
}
330
9550
100
AcDbZombieObject
 90
      499
 91
      509
 93
      444
310
42D19858D95C185D1D195C9B90F409028333333333333E3BF0000000000000FB010790141107004050150841D405064090741402480A0350
1001
ACAD
1000
AcDbSavedByObjectVersion
1070
     0
  0
ACAD_PROXY_OBJECT
  5
9551
102
{ACAD_REACTORS
330
9550
102
}
330
9550
100
AcDbZombieObject
 90
      499
 91
      509
 93
      388
310
41119B185D240901404333333333333E3BF0000000000000F9010740A41107004050150841D405064090741402480A1B50
1001
ACAD
1000
AcDbSavedByObjectVersion
1070
     0
  0
ACAD_PROXY_OBJECT
  5
9552
102
{ACAD_REACTORS
330
9550
102
}
330
9550
100
AcDbZombieObject
 90
      499
 91
      509
 93
      476
310
43519B185D15DA5D1A115919D95CD0140901404333333333333E3BF0000000000000F9010740901411070040501600405405064090741402480A1B50
1001
ACAD
1000
AcDbSavedByObjectVersion
1070
     0
  0
ACAD_PROXY_OBJECT
  5
9553
102
{ACAD_REACTORS
330
9550
102
}
330
9550
100
AcDbZombieObject
 90
      499
 91
      509
 93
      412
310
41D1DBDD5C985D5910240902404333333333333E3BF0000000000000F9010740A411070040501641D405064090741402480A1B50
1001
ACAD
1000
AcDbSavedByObjectVersion
1070
     0
  0
ACAD_PROXY_OBJECT
  5
9554
102
{ACAD_REACTORS
330
9550
102
}
330
9550
100
AcDbZombieObject
 90
      499
 91
      509
 93
      500
310
4411DBDD5C985D5915DA5D1A115919D95CD0340902404333333333333E3BF0000000000000F9010740901411070040501600405405064090741402480A1B50
1001
ACAD
1000
AcDbSavedByObjectVersion
1070
     0
  0
ACAD_PROXY_OBJECT
  5
A260
102
{ACAD_REACTORS
330
9550
102
}
330
9550
100
AcDbZombieObject
 90
      499
 91
      509
 93
      476
310
41921A5919195B90640502408333333333333E3BF0000000000000FB01079024090700405020000000000001110200405405064090740C02480A0340
1001
ACAD
1000
AcDbSavedByObjectVersion
1070
     0
  0
ACAD_PROXY_OBJECT
  5
A20F
102
{ACAD_REACTORS
330
9550
102
}
330
9550
100
AcDbZombieObject
 90
      499
 91
      509
 93
      428
310
42529A5D1D195C93D999914409028333333333333E3BF0000000000000FB010790141107004050150A41D405064090741402480A0350
1001
ACAD
1000
AcDbSavedByObjectVersion
1070
     0
  0
ACAD_PROXY_OBJECT
  5
955E
102
{ACAD_REACTORS
330
9550
102
}
330
9550
100
AcDbZombieObject
 90
      499
 91
      509
 93
      444
310
42D31A5B995C185D1D195C9B90E409028333333333333E3BF0000000000000FB010790141107004050750841D405064090741402483A0350
1001
ACAD
1000
AcDbSavedByObjectVersion
1070
     0
  0
ACAD_PROXY_OBJECT
  5
A266
102
{ACAD_REACTORS
330
9550
102
}
330
9550
100
AcDbZombieObject
 90
      499
 91
      509
 93
      484
310
42135BD9195B1A5B99D0A409028333333333333E3BF0000000000000F901074090290700405010000000000201990108421405064090741402480A1B40
1001
ACAD
1000
AcDbSavedByObjectVersion
1070
     0
  0
ACAD_PROXY_OBJECT
  5
A210
102
{ACAD_REACTORS
330
9550
102
}
330
9550
100
AcDbZombieObject
 90
      499
 91
      509
 93
      444
310
42D3DD995C9A185B99D3D999915409028333333333333E3BF0000000000000FB010790141107004050150941D405064090741402480A0350
1001
ACAD
1000
AcDbSavedByObjectVersion
1070
     0
  0
ACAD_PROXY_OBJECT
  5
955A
102
{ACAD_REACTORS
330
9550
102
}
330
9550
100
AcDbZombieObject
 90
      499
 91
      509
 93
      420
310
425499585B1A5CDD1A58D08409028333333333333E3BF0000000000000FB01079019070040501508421405064090741402480A1B40
1001
ACAD
1000
AcDbSavedByObjectVersion
1070
     0
  0
ACAD_PROXY_OBJECT
  5
A265
102
{ACAD_REACTORS
330
9550
102
}
330
9550
100
AcDbZombieObject
 90
      499
 91
      509
 93
      420
310
4194DA1859195911B40902404333333333333E3BF0000000000000F9010740A41107004050150800405405064090840C02480A0B40
1001
ACAD
1000
AcDbSavedByObjectVersion
1070
     0
  0
ACAD_PROXY_OBJECT
  5
A264
102
{ACAD_REACTORS
330
9550
102
}
330
9550
100
AcDbZombieObject
 90
      499
 91
      509
 93
      516
310
4454DA18591959081DDA5D1A08195919D95CD1A40902404333333333333E3BF0000000000000F901074090142907004050250800405405064090740C02480A0B40
1001
ACAD
1000
AcDbSavedByObjectVersion
1070
     0
  0
ACAD_PROXY_OBJECT
  5
A261
102
{ACAD_REACTORS
330
9550
102
}
330
9550
100
AcDbZombieObject
 90
      499
 91
      509
 93
      532
310
4394DA1859195CC81BD98811DC985E5174090240C333333333333E3BF0000000000000FB01079024090741D01000000000000111010841D405064090740C02480A0340
1001
ACAD
1000
AcDbSavedByObjectVersion
1070
     0
  0
ACAD_PROXY_OBJECT
  5
A262
102
{ACAD_REACTORS
330
9550
102
}
330
9550
100
AcDbZombieObject
 90
      499
 91
      509
 93
      476
310
41D4DAD95D18DA1E51840502408333333333333E3BF0000000000000FB01079024090741D01000000000000111010B41D405064090741802480A0340
1001
ACAD
1000
AcDbSavedByObjectVersion
1070
     0
  0
ACAD_PROXY_OBJECT
  5
955D
102
{ACAD_REACTORS
330
9550
102
}
330
9550
100
AcDbZombieObject
 90
      499
 91
      509
 93
      412
310
41D51A1A58DAD95B90D409028333333333333E3BF0000000000000FB010790141107004050150C41D405064090741402480A0350
1001
ACAD
1000
AcDbSavedByObjectVersion
1070
     0
  0
ACAD_PROXY_OBJECT
  5
A25F
102
{ACAD_REACTORS
330
9550
102
}
330
9550
100
AcDbZombieObject
 90
      499
 91
      509
 93
      420
310
4255DA5C99599C985B595059028333333333333E3BF0000000000000FB0107901411070040501600405405064090740C02480A0340
1001
ACAD
1000
AcDbSavedByObjectVersion
1070
     0
  0
ACAD_PROXY_OBJECT
  5
A263
102
{ACAD_REACTORS
330
9550
102
}
330
9550
100
AcDbZombieObject
 90
      499
 91
      509
 93
      404
310
41560B54985E51940902404000000000000E03F0000000000000FB010740501907004050150841D405064090740C02480A1B40
1001
ACAD
1000
AcDbSavedByObjectVersion
1070
     0
  0
XRECORD
  5
B66F
102
{ACAD_REACTORS
330
B66E
102
}
330
B66E
100
AcDbXrecord
340
18D
  0
XRECORD
  5
B670
102
{ACAD_REACTORS
330
B66E
102
}
330
B66E
100
AcDbXrecord
340
18C
  0
DICTIONARYVAR
  5
AAE0
102
{ACAD_REACTORS
330
37
102
}
330
37
100
DictionaryVariables
280
     0
  1
1:1
  0
DICTIONARYVAR
  5
9627
102
{ACAD_REACTORS
330
37
102
}
330
37
100
DictionaryVariables
280
     0
  1
Standard
  0
DICTIONARYVAR
  5
29E
102
{ACAD_REACTORS
330
37
102
}
330
37
100
DictionaryVariables
280
     0
  1
Standard
  0
DICTIONARYVAR
  5
38
102
{ACAD_REACTORS
330
37
102
}
330
37
100
DictionaryVariables
280
     0
  1
-1
  0
DICTIONARYVAR
  5
1CE
102
{ACAD_REACTORS
330
37
102
}
330
37
100
DictionaryVariables
280
     0
  1
2
  0
DICTIONARYVAR
  5
704E
102
{ACAD_REACTORS
330
37
102
}
330
37
100
DictionaryVariables
280
     0
  1
1
  0
DICTIONARYVAR
  5
962A
102
{ACAD_REACTORS
330
37
102
}
330
37
100
DictionaryVariables
280
     0
  1
0
  0
DICTIONARYVAR
  5
7052
102
{ACAD_REACTORS
330
37
102
}
330
37
100
DictionaryVariables
280
     0
  1
8
  0
DICTIONARYVAR
  5
7051
102
{ACAD_REACTORS
330
37
102
}
330
37
100
DictionaryVariables
280
     0
  1
1
  0
DICTIONARYVAR
  5
AB30
102
{ACAD_REACTORS
330
37
102
}
330
37
100
DictionaryVariables
280
     0
  1
0
  0
DICTIONARYVAR
  5
704F
102
{ACAD_REACTORS
330
37
102
}
330
37
100
DictionaryVariables
280
     0
  1
8
  0
DICTIONARYVAR
  5
7050
102
{ACAD_REACTORS
330
37
102
}
330
37
100
DictionaryVariables
280
     0
  1
2
  0
DICTIONARYVAR
  5
1CF
102
{ACAD_REACTORS
330
37
102
}
330
37
100
DictionaryVariables
280
     0
  1

  0
DICTIONARYVAR
  5
9629
102
{ACAD_REACTORS
330
37
102
}
330
37
100
DictionaryVariables
280
     0
  1
127
  0
DICTIONARYVAR
  5
B412
102
{ACAD_REACTORS
330
37
102
}
330
37
100
DictionaryVariables
280
     0
  1
2
  0
DICTIONARY
  5
B80C
330
9540
100
AcDbDictionary
  3
ACAD_XREC_ROUNDTRIP
360
B80D
1001
ACAD
1000
TREAT_AS_HARD
1070
     1
  0
DICTIONARY
  5
B80E
330
9538
100
AcDbDictionary
  3
ACAD_XREC_ROUNDTRIP
360
B80F
1001
ACAD
1000
TREAT_AS_HARD
1070
     1
  0
DICTIONARY
  5
B810
330
9548
100
AcDbDictionary
  3
ACAD_XREC_ROUNDTRIP
360
B811
1001
ACAD
1000
TREAT_AS_HARD
1070
     1
  0
XRECORD
  5
B80D
102
{ACAD_REACTORS
330
B80C
102
}
330
B80C
100
AcDbXrecord
102
MATERIAL
148
0.0
149
0.0
149
0.0
 93
        0
 94
      127
282
     0
 72
     0
 77
     0
171
     0
175
     0
179
     0
273
     0
  0
XRECORD
  5
B80F
102
{ACAD_REACTORS
330
B80E
102
}
330
B80E
100
AcDbXrecord
102
MATERIAL
148
0.0
149
0.0
149
0.0
 93
        0
 94
      127
282
     0
 72
     0
 77
     0
171
     0
175
     0
179
     0
273
     0
  0
XRECORD
  5
B811
102
{ACAD_REACTORS
330
B810
102
}
330
B810
100
AcDbXrecord
102
MATERIAL
148
0.0
149
0.0
149
0.0
 93
        0
 94
      127
282
     0
 72
     0
 77
     0
171
     0
175
     0
179
     0
273
     0
  0
ENDSEC
  0
EOF
