  0
SECTION
  2
HEADER
  9
$ACADVER
  1
AC1012
  9
$DWGCODEPAGE
  3
ansi_932
  9
$INSBASE
 10
0.0
 20
0.0
 30
0.0
  9
$EXTMIN
 10
5097.805628620114
 20
-398.1517474957459
 30
0.0
  9
$EXTMAX
 10
5416.233914002544
 20
-81.1517474957459
 30
0.0
  9
$LIMMIN
 10
0.0
 20
0.0
  9
$LIMMAX
 10
420.0
 20
297.0
  9
$ORTHOMODE
 70
     0
  9
$REGENMODE
 70
     1
  9
$FILLMODE
 70
     1
  9
$QTEXTMODE
 70
     0
  9
$MIRRTEXT
 70
     0
  9
$DRAGMODE
 70
     2
  9
$LTSCALE
 40
0.5
  9
$OSMODE
 70
 14463
  9
$ATTMODE
 70
     1
  9
$TEXTSIZE
 40
4.0
  9
$TRACEWID
 40
1.0
  9
$TEXTSTYLE
  7
STANDARD
  9
$CLAYER
  8
1TEXT
  9
$CELTYPE
  6
BYLAYER
  9
$CECOLOR
 62
   256
  9
$CELTSCALE
 40
1.0
  9
$DELOBJ
 70
     1
  9
$DISPSILH
 70
     0
  9
$DIMSCALE
 40
1.0
  9
$DIMASZ
 40
2.0
  9
$DIMEXO
 40
0.0
  9
$DIMDLI
 40
7.0
  9
$DIMRND
 40
0.0
  9
$DIMDLE
 40
0.0
  9
$DIMEXE
 40
1.0
  9
$DIMTP
 40
0.0
  9
$DIMTM
 40
0.0
  9
$DIMTXT
 40
3.5
  9
$DIMCEN
 40
0.0
  9
$DIMTSZ
 40
0.0
  9
$DIMTOL
 70
     0
  9
$DIMLIM
 70
     0
  9
$DIMTIH
 70
     0
  9
$DIMTOH
 70
     0
  9
$DIMSE1
 70
     0
  9
$DIMSE2
 70
     0
  9
$DIMTAD
 70
     1
  9
$DIMZIN
 70
     8
  9
$DIMBLK
  1

  9
$DIMASO
 70
     1
  9
$DIMSHO
 70
     1
  9
$DIMPOST
  1
 
  9
$DIMAPOST
  1

  9
$DIMALT
 70
     0
  9
$DIMALTD
 70
     2
  9
$DIMALTF
 40
25.4
  9
$DIMLFAC
 40
1.0
  9
$DIMTOFL
 70
     1
  9
$DIMTVP
 40
0.0
  9
$DIMTIX
 70
     0
  9
$DIMSOXD
 70
     0
  9
$DIMSAH
 70
     1
  9
$DIMBLK1
  1
OPEN30
  9
$DIMBLK2
  1
OPEN30
  9
$DIMSTYLE
  2
NEWX10
  9
$DIMCLRD
 70
   256
  9
$DIMCLRE
 70
   256
  9
$DIMCLRT
 70
   201
  9
$DIMTFAC
 40
0.7
  9
$DIMGAP
 40
0.7
  9
$DIMJUST
 70
     0
  9
$DIMSD1
 70
     0
  9
$DIMSD2
 70
     0
  9
$DIMTOLJ
 70
     1
  9
$DIMTZIN
 70
     8
  9
$DIMALTZ
 70
     0
  9
$DIMALTTZ
 70
     0
  9
$DIMFIT
 70
     2
  9
$DIMUPT
 70
     0
  9
$DIMUNIT
 70
     2
  9
$DIMDEC
 70
     2
  9
$DIMTDEC
 70
     4
  9
$DIMALTU
 70
     2
  9
$DIMALTTD
 70
     2
  9
$DIMTXSTY
  7
STANDARD
  9
$DIMAUNIT
 70
     0
  9
$LUNITS
 70
     2
  9
$LUPREC
 70
     4
  9
$SKETCHINC
 40
1.0
  9
$FILLETRAD
 40
0.0
  9
$AUNITS
 70
     0
  9
$AUPREC
 70
     2
  9
$MENU
  1
acad
  9
$ELEVATION
 40
0.0
  9
$PELEVATION
 40
0.0
  9
$THICKNESS
 40
0.0
  9
$LIMCHECK
 70
     0
  9
$CHAMFERA
 40
10.0
  9
$CHAMFERB
 40
10.0
  9
$CHAMFERC
 40
20.0
  9
$CHAMFERD
 40
0.0
  9
$SKPOLY
 70
     0
  9
$TDCREATE
 40
2451318.621352917
  9
$TDUPDATE
 40
2458165.375632199
  9
$TDINDWG
 40
1.4928294097
  9
$TDUSRTIMER
 40
1.4928294097
  9
$USRTIMER
 70
     1
  9
$ANGBASE
 50
0.0
  9
$ANGDIR
 70
     0
  9
$PDMODE
 70
     0
  9
$PDSIZE
 40
0.0
  9
$PLINEWID
 40
0.0
  9
$COORDS
 70
     2
  9
$SPLFRAME
 70
     0
  9
$SPLINETYPE
 70
     6
  9
$SPLINESEGS
 70
     8
  9
$ATTDIA
 70
     0
  9
$ATTREQ
 70
     1
  9
$HANDLING
 70
     1
  9
$HANDSEED
  5
BDB9
  9
$SURFTAB1
 70
     6
  9
$SURFTAB2
 70
     6
  9
$SURFTYPE
 70
     6
  9
$SURFU
 70
     6
  9
$SURFV
 70
     6
  9
$UCSNAME
  2

  9
$UCSORG
 10
0.0
 20
0.0
 30
0.0
  9
$UCSXDIR
 10
1.0
 20
0.0
 30
0.0
  9
$UCSYDIR
 10
0.0
 20
1.0
 30
0.0
  9
$PUCSNAME
  2

  9
$PUCSORG
 10
0.0
 20
0.0
 30
0.0
  9
$PUCSXDIR
 10
1.0
 20
0.0
 30
0.0
  9
$PUCSYDIR
 10
0.0
 20
1.0
 30
0.0
  9
$USERI1
 70
     0
  9
$USERI2
 70
     0
  9
$USERI3
 70
     0
  9
$USERI4
 70
     0
  9
$USERI5
 70
     0
  9
$USERR1
 40
0.0
  9
$USERR2
 40
0.0
  9
$USERR3
 40
0.0
  9
$USERR4
 40
0.0
  9
$USERR5
 40
0.0
  9
$WORLDVIEW
 70
     1
  9
$SHADEDGE
 70
     3
  9
$SHADEDIF
 70
    70
  9
$TILEMODE
 70
     1
  9
$MAXACTVP
 70
    48
  9
$PINSBASE
 10
0.0
 20
0.0
 30
0.0
  9
$PLIMCHECK
 70
     0
  9
$PEXTMIN
 10
1.000000000000000E+20
 20
1.000000000000000E+20
 30
1.000000000000000E+20
  9
$PEXTMAX
 10
-1.000000000000000E+20
 20
-1.000000000000000E+20
 30
-1.000000000000000E+20
  9
$PLIMMIN
 10
0.0
 20
0.0
  9
$PLIMMAX
 10
420.0
 20
297.0
  9
$UNITMODE
 70
     0
  9
$VISRETAIN
 70
     1
  9
$PLINEGEN
 70
     0
  9
$PSLTSCALE
 70
     1
  9
$TREEDEPTH
 70
  3020
  9
$PICKSTYLE
 70
     1
  9
$CMLSTYLE
  2
STANDARD
  9
$CMLJUST
 70
     0
  9
$CMLSCALE
 40
20.0
  9
$SAVEIMAGES
 70
     1
  0
ENDSEC
  0
SECTION
  2
CLASSES
  0
CLASS
  1
DICTIONARYVAR
  2
AcDbDictionaryVar
  3
ObjectDBX Classes
 90
        0
280
     0
281
     0
  0
CLASS
  1
IDBUFFER
  2
AcDbIdBuffer
  3
ObjectDBX Classes
 90
    32768
280
     0
281
     0
  0
CLASS
  1
LWPOLYLINE
  2
AcDbPolyline
  3
ObjectDBX Classes
 90
    32768
280
     0
281
     1
  0
CLASS
  1
ACDBDICTIONARYWDFLT
  2
AcDbDictionaryWithDefault
  3
ObjectDBX Classes
 90
    32768
280
     0
281
     0
  0
CLASS
  1
ACDBPLACEHOLDER
  2
AcDbPlaceHolder
  3
ObjectDBX Classes
 90
        0
280
     0
281
     0
  0
CLASS
  1
LAYOUT
  2
AcDbLayout
  3
ObjectDBX Classes
 90
        0
280
     0
281
     0
  0
CLASS
  1
TABLESTYLE
  2
AcDbTableStyle
  3
ObjectDBX Classes
 90
     4095
280
     0
281
     0
  0
CLASS
  1
SORTENTSTABLE
  2
AcDbSortentsTable
  3
ObjectDBX Classes
 90
    32768
280
     0
281
     0
  0
CLASS
  1
MATERIAL
  2
AcDbMaterial
  3
ObjectDBX Classes
 90
     1153
280
     0
281
     0
  0
CLASS
  1
VISUALSTYLE
  2
AcDbVisualStyle
  3
ObjectDBX Classes
 90
     4095
280
     0
281
     0
  0
CLASS
  1
SCALE
  2
AcDbScale
  3
ObjectDBX Classes
 90
     1153
280
     0
281
     0
  0
CLASS
  1
MLEADERSTYLE
  2
AcDbMLeaderStyle
  3
ACDB_MLEADERSTYLE_CLASS
 90
     4095
280
     0
281
     0
  0
CLASS
  1
CELLSTYLEMAP
  2
AcDbCellStyleMap
  3
ObjectDBX Classes
 90
     1152
280
     0
281
     0
  0
CLASS
  1
SUN
  2
AcDbSun
  3
SCENEOE
 90
     1153
280
     0
281
     0
  0
CLASS
  1
DIMASSOC
  2
AcDbDimAssoc
  3
"AcDbDimAssoc|Product Desc:     AcDim ARX App For Dimension|Company:          Autodesk, Inc.|WEB Address:      www.autodesk.com"
 90
        0
280
     0
281
     0
  0
CLASS
  1
XRECORD
  2
AcDbXrecord
  3
ObjectDBX Classes
 90
    32768
280
     0
281
     0
  0
CLASS
  1
HATCH
  2
AcDbHatch
  3
ObjectDBX Classes
 90
    32768
280
     0
281
     1
  0
ENDSEC
  0
SECTION
  2
TABLES
  0
TABLE
  2
VPORT
  5
8
330
0
100
AcDbSymbolTable
 70
     1
  0
VPORT
  5
952D
330
8
100
AcDbSymbolTableRecord
100
AcDbViewportTableRecord
  2
*ACTIVE
 70
     0
 10
0.0
 20
0.0
 11
1.0
 21
1.0
 12
5257.019771311328
 22
-239.6517474957459
 13
0.0
 23
0.0
 14
10.0
 24
10.0
 15
10.0
 25
10.0
 16
0.0
 26
0.0
 36
1.0
 17
0.0
 27
0.0
 37
0.0
 40
340.3578947368421
 41
1.871481028151775
 42
50.0
 43
0.0
 44
0.0
 50
0.0
 51
0.0
 71
    16
 72
   100
 73
     1
 74
     1
 75
     0
 76
     0
 77
     0
 78
     0
1001
ACAD_NAV_VCDISPLAY
1070
     3
  0
ENDTAB
  0
TABLE
  2
LTYPE
  5
5
330
0
100
AcDbSymbolTable
 70
     2
  0
LTYPE
  5
12
330
5
100
AcDbSymbolTableRecord
100
AcDbLinetypeTableRecord
  2
BYBLOCK
 70
     0
  3

 72
    65
 73
     0
 40
0.0
  0
LTYPE
  5
13
330
5
100
AcDbSymbolTableRecord
100
AcDbLinetypeTableRecord
  2
BYLAYER
 70
     0
  3

 72
    65
 73
     0
 40
0.0
  0
LTYPE
  5
14
330
5
100
AcDbSymbolTableRecord
100
AcDbLinetypeTableRecord
  2
CONTINUOUS
 70
     0
  3
Solid line
 72
    65
 73
     0
 40
0.0
  0
LTYPE
  5
9837
330
5
100
AcDbSymbolTableRecord
100
AcDbLinetypeTableRecord
  2
CENTER2
 70
     0
  3
Center (.5x) ___ _ ___ _ ___ _ ___ _ ___ _ ___
 72
    65
 73
     4
 40
28.575
 49
19.05
 74
     0
 49
-3.175
 74
     0
 49
3.175
 74
     0
 49
-3.175
 74
     0
  0
ENDTAB
  0
TABLE
  2
LAYER
  5
2
102
{ACAD_XDICTIONARY
360
96D9
102
}
330
0
100
AcDbSymbolTable
 70
     5
  0
LAYER
  5
E
102
{ACAD_XDICTIONARY
360
9593
102
}
330
2
100
AcDbSymbolTableRecord
100
AcDbLayerTableRecord
  2
0
 70
     0
 62
     7
  6
CONTINUOUS
  0
LAYER
  5
29
102
{ACAD_XDICTIONARY
360
9595
102
}
330
2
100
AcDbSymbolTableRecord
100
AcDbLayerTableRecord
  2
1CENTER
 70
     0
 62
     7
  6
CENTER2
  0
LAYER
  5
31
102
{ACAD_XDICTIONARY
360
9597
102
}
330
2
100
AcDbSymbolTableRecord
100
AcDbLayerTableRecord
  2
1TEXT
 70
     0
 62
     7
  6
CONTINUOUS
  0
LAYER
  5
243
102
{ACAD_XDICTIONARY
360
959D
102
}
330
2
100
AcDbSymbolTableRecord
100
AcDbLayerTableRecord
  2
01
 70
     0
 62
     1
  6
CONTINUOUS
  0
LAYER
  5
24E
102
{ACAD_XDICTIONARY
360
95A3
102
}
330
2
100
AcDbSymbolTableRecord
100
AcDbLayerTableRecord
  2
1DIM
 70
     0
 62
     7
  6
CONTINUOUS
  0
ENDTAB
  0
TABLE
  2
STYLE
  5
3
330
0
100
AcDbSymbolTable
 70
     1
  0
STYLE
  5
F
330
3
100
AcDbSymbolTableRecord
100
AcDbTextStyleTableRecord
  2
STANDARD
 70
     0
 40
0.0
 41
1.0
 50
0.0
 71
     0
 42
4.0
  3
txt.shx
  4
extfont.shx
  0
ENDTAB
  0
TABLE
  2
VIEW
  5
6
330
0
100
AcDbSymbolTable
 70
     0
  0
ENDTAB
  0
TABLE
  2
UCS
  5
7
330
0
100
AcDbSymbolTable
 70
     0
  0
ENDTAB
  0
TABLE
  2
APPID
  5
9
330
0
100
AcDbSymbolTable
 70
    14
  0
APPID
  5
10
330
9
100
AcDbSymbolTableRecord
100
AcDbRegAppTableRecord
  2
ACAD
 70
     0
  0
APPID
  5
21
330
9
100
AcDbSymbolTableRecord
100
AcDbRegAppTableRecord
  2
DRAWINGVARIABLESXDATA
 70
     0
  0
APPID
  5
64
330
9
100
AcDbSymbolTableRecord
100
AcDbRegAppTableRecord
  2
CONTENTTABDATA
 70
     0
  0
APPID
  5
65
330
9
100
AcDbSymbolTableRecord
100
AcDbRegAppTableRecord
  2
CONTENTCURRENTTAB
 70
     0
  0
APPID
  5
66
330
9
100
AcDbSymbolTableRecord
100
AcDbRegAppTableRecord
  2
CONTENTBLOCKDESCRIPTION
 70
     0
  0
APPID
  5
67
330
9
100
AcDbSymbolTableRecord
100
AcDbRegAppTableRecord
  2
CONTENTBLOCKICON
 70
     0
  0
APPID
  5
68
330
9
100
AcDbSymbolTableRecord
100
AcDbRegAppTableRecord
  2
CONTENTLONGBLOCKNAME
 70
     0
  0
APPID
  5
2AE
330
9
100
AcDbSymbolTableRecord
100
AcDbRegAppTableRecord
  2
ACAD_PSEXT
 70
     0
  0
APPID
  5
9585
330
9
100
AcDbSymbolTableRecord
100
AcDbRegAppTableRecord
  2
ACAD_MLEADERVER
 70
     0
  0
APPID
  5
A2E3
330
9
100
AcDbSymbolTableRecord
100
AcDbRegAppTableRecord
  2
ACADANNOTATIVE
 70
     0
  0
APPID
  5
A2E4
330
9
100
AcDbSymbolTableRecord
100
AcDbRegAppTableRecord
  2
ACDBBLOCKREPETAG
 70
     0
  0
APPID
  5
AEC0
330
9
100
AcDbSymbolTableRecord
100
AcDbRegAppTableRecord
  2
ACAD_NAV_VCDISPLAY
 70
     0
  0
APPID
  5
AF18
330
9
100
AcDbSymbolTableRecord
100
AcDbRegAppTableRecord
  2
ACAECLAYERSTANDARD
 70
     0
  0
APPID
  5
B27F
330
9
100
AcDbSymbolTableRecord
100
AcDbRegAppTableRecord
  2
ACAD_EXEMPT_FROM_CAD_STAND
 70
     0
  0
ENDTAB
  0
TABLE
  2
DIMSTYLE
  5
A
330
0
100
AcDbSymbolTable
 70
     1
  0
DIMSTYLE
105
48
330
A
100
AcDbSymbolTableRecord
100
AcDbDimStyleTableRecord
  2
NEWX10
 70
     0
  3
 
  4

  5

  6
OPEN30
  7
OPEN30
 40
1.0
 41
2.0
 42
0.0
 43
7.0
 44
1.0
 45
0.0
 46
0.0
 47
0.0
 48
0.0
140
3.5
141
0.0
142
0.0
143
25.4
144
1.0
145
0.0
146
0.7
147
0.7
 71
     0
 72
     0
 73
     0
 74
     0
 75
     0
 76
     0
 77
     1
 78
     8
170
     0
171
     2
172
     1
173
     1
174
     0
175
     0
176
   256
177
   256
178
   201
179
     2
270
     2
271
     2
272
     4
273
     2
274
     2
340
F
275
     0
280
     0
281
     0
282
     0
283
     1
284
     8
285
     0
286
     0
287
     2
288
     0
  0
ENDTAB
  0
TABLE
  2
BLOCK_RECORD
  5
1
330
0
100
AcDbSymbolTable
 70
     8
  0
BLOCK_RECORD
  5
18
102
{ACAD_XDICTIONARY
360
88F
102
}
330
1
100
AcDbSymbolTableRecord
100
AcDbBlockTableRecord
  2
*MODEL_SPACE
  0
BLOCK_RECORD
  5
15
330
1
100
AcDbSymbolTableRecord
100
AcDbBlockTableRecord
  2
*PAPER_SPACE
  0
BLOCK_RECORD
  5
42
330
1
100
AcDbSymbolTableRecord
100
AcDbBlockTableRecord
  2
_OPEN30
  0
BLOCK_RECORD
  5
A333
330
1
100
AcDbSymbolTableRecord
100
AcDbBlockTableRecord
  2
A3WAKUKAWAJUN2017_HYOUDAI_
  0
BLOCK_RECORD
  5
BC19
330
1
100
AcDbSymbolTableRecord
100
AcDbBlockTableRecord
  2
*X27
  0
BLOCK_RECORD
  5
BC67
330
1
100
AcDbSymbolTableRecord
100
AcDbBlockTableRecord
  2
*X28
  0
BLOCK_RECORD
  5
BCB9
330
1
100
AcDbSymbolTableRecord
100
AcDbBlockTableRecord
  2
*X29
  0
BLOCK_RECORD
  5
BD0A
330
1
100
AcDbSymbolTableRecord
100
AcDbBlockTableRecord
  2
*X30
  0
BLOCK_RECORD
  5
BD47
330
1
100
AcDbSymbolTableRecord
100
AcDbBlockTableRecord
  2
*X31
  0
BLOCK_RECORD
  5
BD87
330
1
100
AcDbSymbolTableRecord
100
AcDbBlockTableRecord
  2
*X32
  0
ENDTAB
  0
ENDSEC
  0
SECTION
  2
BLOCKS
  0
BLOCK
  5
19
330
18
100
AcDbEntity
  8
0
100
AcDbBlockBegin
  2
*MODEL_SPACE
 70
     0
 10
0.0
 20
0.0
 30
0.0
  3
*MODEL_SPACE
  1

  0
ENDBLK
  5
1A
330
18
100
AcDbEntity
  8
0
100
AcDbBlockEnd
  0
BLOCK
  5
16
330
15
100
AcDbEntity
 67
     1
  8
0
100
AcDbBlockBegin
  2
*PAPER_SPACE
 70
     0
 10
0.0
 20
0.0
 30
0.0
  3
*PAPER_SPACE
  1

  0
ENDBLK
  5
17
330
15
100
AcDbEntity
 67
     1
  8
0
100
AcDbBlockEnd
  0
BLOCK
  5
43
330
42
100
AcDbEntity
  8
0
100
AcDbBlockBegin
  2
_OPEN30
 70
     0
 10
0.0
 20
0.0
 30
0.0
  3
_OPEN30
  1

  0
LINE
  5
44
330
42
100
AcDbEntity
  8
0
  6
BYBLOCK
 62
     0
100
AcDbLine
 10
-1.0
 20
0.26794919
 30
0.0
 11
0.0
 21
0.0
 31
0.0
  0
LINE
  5
45
330
42
100
AcDbEntity
  8
0
  6
BYBLOCK
 62
     0
100
AcDbLine
 10
0.0
 20
0.0
 30
0.0
 11
-1.0
 21
-0.26794919
 31
0.0
  0
LINE
  5
46
330
42
100
AcDbEntity
  8
0
  6
BYBLOCK
 62
     0
100
AcDbLine
 10
0.0
 20
0.0
 30
0.0
 11
-1.0
 21
0.0
 31
0.0
  0
ENDBLK
  5
47
330
42
100
AcDbEntity
  8
0
100
AcDbBlockEnd
  0
BLOCK
  5
AA56
330
A333
100
AcDbEntity
  8
0
100
AcDbBlockBegin
  2
A3WAKUKAWAJUN2017_HYOUDAI_
 70
     0
 10
0.0
 20
0.0
 30
0.0
  3
A3WAKUKAWAJUN2017_HYOUDAI_
  1

  0
LINE
  5
A335
330
A333
100
AcDbEntity
  8
0
100
AcDbLine
 10
13.26299999998673
 20
-0.0001000000000317
 30
0.0
 11
9.236999999990758
 21
8.999899999990987
 31
0.0
1001
ACAD
1000
ASC_BOUNDS
1002
{
1070
    19
1005
A376
1002
}
  0
LINE
  5
A336
330
A333
100
AcDbEntity
  8
0
100
AcDbLine
 10
5.657999999994331
 20
0.9999999999989768
 30
0.0
 11
9.236999999990758
 21
8.999999999991019
 31
0.0
1001
ACAD
1000
ASC_BOUNDS
1002
{
1070
    19
1005
A376
1002
}
  0
LINE
  5
A337
330
A333
100
AcDbEntity
  8
0
100
AcDbLine
 10
18.59199999998134
 20
-0.2368999999997641
 30
0.0
 11
16.46099999998353
 21
5.432899999994561
 31
0.0
1001
ACAD
1000
ASC_BOUNDS
1002
{
1070
    19
1005
A377
1002
}
  0
LINE
  5
A338
330
A333
100
AcDbEntity
  8
0
100
AcDbLine
 10
18.59199999998134
 20
-0.2368999999997641
 30
0.0
 11
22.38199999997767
 21
8.763099999991255
 31
0.0
1001
ACAD
1000
ASC_BOUNDS
1002
{
1070
    19
1005
A377
1002
}
  0
LINE
  5
A339
330
A333
100
AcDbEntity
  8
0
100
AcDbLine
 10
14.32899999998563
 20
-0.2368999999997641
 30
0.0
 11
16.46099999998353
 21
5.432899999994561
 31
0.0
1001
ACAD
1000
ASC_BOUNDS
1002
{
1070
    19
1005
A377
1002
}
  0
LINE
  5
A33A
330
A333
100
AcDbEntity
  8
0
100
AcDbLine
 10
14.32899999998563
 20
-0.2368999999997641
 30
0.0
 11
10.53899999998941
 21
8.763099999991255
 31
0.0
1001
ACAD
1000
ASC_BOUNDS
1002
{
1070
    19
1005
A377
1002
}
  0
LINE
  5
A33B
330
A333
100
AcDbEntity
  8
0
100
AcDbLine
 10
19.53899999998043
 20
-0.0001000000000317
 30
0.0
 11
23.56599999997638
 21
8.999899999990987
 31
0.0
1001
ACAD
1000
ASC_BOUNDS
1002
{
1070
    19
1005
A378
1002
}
  0
LINE
  5
A33C
330
A333
100
AcDbEntity
  8
0
100
AcDbLine
 10
26.97358892824991
 20
1.383099999991202
 30
0.0
 11
23.56599999997638
 21
8.999899999990987
 31
0.0
1001
ACAD
1000
ASC_BOUNDS
1002
{
1070
    19
1005
A378
1002
}
  0
LINE
  5
A33D
330
A333
100
AcDbEntity
  8
0
100
AcDbLine
 10
5.657999999994331
 20
0.9999999999989768
 30
0.0
 11
3.181999999996833
 21
4.668599999995308
 31
0.0
1001
ACAD
1000
ASC_BOUNDS
1002
{
1070
    19
1005
A376
1002
}
  0
LINE
  5
A33E
330
A333
100
AcDbEntity
  8
0
100
AcDbLine
 10
4.617999999995391
 20
-0.0001000000000317
 30
0.0
 11
1.420999999998571
 21
4.736799999995242
 31
0.0
1001
ACAD
1000
ASC_BOUNDS
1002
{
1070
    19
1005
A376
1002
}
  0
LINE
  5
A33F
330
A333
100
AcDbEntity
  8
0
100
AcDbLine
 10
1.420999999998571
 20
8.763099999991255
 30
0.0
 11
1.420999999998571
 21
0.0
 31
0.0
1001
ACAD
1000
ASC_BOUNDS
1002
{
1070
    19
1005
A37B
1002
}
  0
LINE
  5
A340
330
A333
100
AcDbEntity
  8
0
100
AcDbLine
 10
0.0
 20
8.763099999991255
 30
0.0
 11
0.0
 21
0.0
 31
0.0
1001
ACAD
1000
ASC_BOUNDS
1002
{
1070
    19
1005
A37B
1002
}
  0
LINE
  5
A341
330
A333
100
AcDbEntity
  8
0
100
AcDbLine
 10
6.766999999993232
 20
-0.0001000000000317
 30
0.0
 11
7.826999999992154
 21
2.368399999997621
 31
0.0
1001
ACAD
1000
ASC_BOUNDS
1002
{
1070
    19
1005
A376
1002
}
  0
LINE
  5
A342
330
A333
100
AcDbEntity
  8
0
100
AcDbLine
 10
0.0
 20
0.0
 30
0.0
 11
1.420999999998571
 21
0.0
 31
0.0
1001
ACAD
1000
ASC_BOUNDS
1002
{
1070
    19
1005
A37B
1002
}
  0
LINE
  5
A343
330
A333
100
AcDbEntity
  8
0
100
AcDbLine
 10
4.617999999995391
 20
0.0
 30
0.0
 11
6.766999999993232
 21
0.0
 31
0.0
1001
ACAD
1000
ASC_BOUNDS
1002
{
1070
    19
1005
A376
1002
}
  0
LINE
  5
A344
330
A333
100
AcDbEntity
  8
0
100
AcDbLine
 10
11.70599999998831
 20
-0.0001000000000317
 30
0.0
 11
10.64699999998936
 21
2.368399999997621
 31
0.0
1001
ACAD
1000
ASC_BOUNDS
1002
{
1070
    19
1005
A376
1002
}
  0
LINE
  5
A345
330
A333
100
AcDbEntity
  8
0
100
AcDbLine
 10
7.826999999992154
 20
2.368399999997621
 30
0.0
 11
10.64699999998936
 21
2.368399999997621
 31
0.0
1001
ACAD
1000
ASC_BOUNDS
1002
{
1070
    19
1005
A376
1002
}
  0
LINE
  5
A346
330
A333
100
AcDbEntity
  8
0
100
AcDbLine
 10
11.70599999998831
 20
0.0
 30
0.0
 11
13.26299999998673
 21
0.0
 31
0.0
1001
ACAD
1000
ASC_BOUNDS
1002
{
1070
    19
1005
A376
1002
}
  0
LINE
  5
A347
330
A333
100
AcDbEntity
  8
0
100
AcDbLine
 10
22.15599999997789
 20
2.368399999997621
 30
0.0
 11
24.97599999997499
 21
2.368399999997621
 31
0.0
1001
ACAD
1000
ASC_BOUNDS
1002
{
1070
    19
1005
A378
1002
}
  0
LINE
  5
A348
330
A333
100
AcDbEntity
  8
0
100
AcDbLine
 10
19.53899999998043
 20
0.0
 30
0.0
 11
21.09599999997886
 21
0.0
 31
0.0
1001
ACAD
1000
ASC_BOUNDS
1002
{
1070
    19
1005
A378
1002
}
  0
LINE
  5
A349
330
A333
100
AcDbEntity
  8
0
100
AcDbLine
 10
21.09599999997886
 20
-0.0001000000000317
 30
0.0
 11
22.15599999997789
 21
2.368399999997621
 31
0.0
1001
ACAD
1000
ASC_BOUNDS
1002
{
1070
    19
1005
A378
1002
}
  0
LINE
  5
A34A
330
A333
100
AcDbEntity
  8
0
100
AcDbLine
 10
26.02015566812236
 20
0.0330999999912365
 30
0.0
 11
24.97599999997499
 21
2.368399999997621
 31
0.0
1001
ACAD
1000
ASC_BOUNDS
1002
{
1070
    19
1005
A378
1002
}
  0
LINE
  5
A34B
330
A333
100
AcDbEntity
  8
0
100
AcDbLine
 10
14.32399999998563
 20
3.315799999996671
 30
0.0
 11
16.46099999998353
 21
8.999899999990987
 31
0.0
1001
ACAD
1000
ASC_BOUNDS
1002
{
1070
    19
1005
A377
1002
}
  0
LINE
  5
A34C
330
A333
100
AcDbEntity
  8
0
100
AcDbLine
 10
6.432999999993513
 20
8.763099999991255
 30
0.0
 11
3.181999999996833
 21
4.668599999995308
 31
0.0
1001
ACAD
1000
ASC_BOUNDS
1002
{
1070
    19
1005
A376
1002
}
  0
LINE
  5
A34D
330
A333
100
AcDbEntity
  8
0
100
AcDbLine
 10
4.617999999995391
 20
8.763099999991255
 30
0.0
 11
1.420999999998571
 21
4.736799999995242
 31
0.0
1001
ACAD
1000
ASC_BOUNDS
1002
{
1070
    19
1005
A376
1002
}
  0
LINE
  5
A34E
330
A333
100
AcDbEntity
  8
0
100
AcDbLine
 10
0.0
 20
8.763099999991255
 30
0.0
 11
1.420999999998571
 21
8.763099999991255
 31
0.0
1001
ACAD
1000
ASC_BOUNDS
1002
{
1070
    19
1005
A37B
1002
}
  0
LINE
  5
A34F
330
A333
100
AcDbEntity
  8
0
100
AcDbLine
 10
4.617999999995391
 20
8.763099999991255
 30
0.0
 11
6.432999999993513
 21
8.763099999991255
 31
0.0
1001
ACAD
1000
ASC_BOUNDS
1002
{
1070
    19
1005
A376
1002
}
  0
LINE
  5
A350
330
A333
100
AcDbEntity
  8
0
100
AcDbLine
 10
14.32399999998563
 20
3.315799999996671
 30
0.0
 11
12.02999999998792
 21
8.763099999991255
 31
0.0
1001
ACAD
1000
ASC_BOUNDS
1002
{
1070
    19
1005
A377
1002
}
  0
LINE
  5
A351
330
A333
100
AcDbEntity
  8
0
100
AcDbLine
 10
10.06399999998996
 20
3.670999999996297
 30
0.0
 11
9.236999999990758
 21
5.5200999999945
 31
0.0
1001
ACAD
1000
ASC_BOUNDS
1002
{
1070
    19
1005
A376
1002
}
  0
LINE
  5
A352
330
A333
100
AcDbEntity
  8
0
100
AcDbLine
 10
8.409999999991555
 20
3.670999999996297
 30
0.0
 11
9.236999999990758
 21
5.5200999999945
 31
0.0
1001
ACAD
1000
ASC_BOUNDS
1002
{
1070
    19
1005
A376
1002
}
  0
LINE
  5
A353
330
A333
100
AcDbEntity
  8
0
100
AcDbLine
 10
8.409999999991555
 20
3.670999999996297
 30
0.0
 11
10.06399999998996
 21
3.670999999996297
 31
0.0
1001
ACAD
1000
ASC_BOUNDS
1002
{
1070
    19
1005
A376
1002
}
  0
LINE
  5
A354
330
A333
100
AcDbEntity
  8
0
100
AcDbLine
 10
10.53899999998941
 20
8.763099999991255
 30
0.0
 11
12.02999999998792
 21
8.763099999991255
 31
0.0
1001
ACAD
1000
ASC_BOUNDS
1002
{
1070
    19
1005
A377
1002
}
  0
LINE
  5
A355
330
A333
100
AcDbEntity
  8
0
100
AcDbLine
 10
22.7389999999773
 20
3.670999999996297
 30
0.0
 11
23.56599999997638
 21
5.5200999999945
 31
0.0
1001
ACAD
1000
ASC_BOUNDS
1002
{
1070
    19
1005
A378
1002
}
  0
LINE
  5
A356
330
A333
100
AcDbEntity
  8
0
100
AcDbLine
 10
22.7389999999773
 20
3.670999999996297
 30
0.0
 11
24.39299999997559
 21
3.670999999996297
 31
0.0
1001
ACAD
1000
ASC_BOUNDS
1002
{
1070
    19
1005
A378
1002
}
  0
LINE
  5
A357
330
A333
100
AcDbEntity
  8
0
100
AcDbLine
 10
18.59799999998143
 20
3.315799999996671
 30
0.0
 11
20.89099999997916
 21
8.763099999991255
 31
0.0
1001
ACAD
1000
ASC_BOUNDS
1002
{
1070
    19
1005
A377
1002
}
  0
LINE
  5
A358
330
A333
100
AcDbEntity
  8
0
100
AcDbLine
 10
18.59799999998143
 20
3.315799999996671
 30
0.0
 11
16.46099999998353
 21
8.999899999990987
 31
0.0
1001
ACAD
1000
ASC_BOUNDS
1002
{
1070
    19
1005
A377
1002
}
  0
LINE
  5
A359
330
A333
100
AcDbEntity
  8
0
100
AcDbLine
 10
20.89099999997916
 20
8.763099999991255
 30
0.0
 11
22.38199999997767
 21
8.763099999991255
 31
0.0
1001
ACAD
1000
ASC_BOUNDS
1002
{
1070
    19
1005
A377
1002
}
  0
LINE
  5
A35A
330
A333
100
AcDbEntity
  8
0
100
AcDbLine
 10
24.39299999997559
 20
3.670999999996297
 30
0.0
 11
23.56599999997638
 21
5.5200999999945
 31
0.0
1001
ACAD
1000
ASC_BOUNDS
1002
{
1070
    19
1005
A378
1002
}
  0
LINE
  5
A35B
330
A333
100
AcDbEntity
  8
0
100
AcDbLine
 10
44.99999999995498
 20
-0.2368999999997641
 30
0.0
 11
40.02599999995994
 21
5.341799999994635
 31
0.0
1001
ACAD
1000
ASC_BOUNDS
1002
{
1070
    19
1005
A37A
1002
}
  0
LINE
  5
A35C
330
A333
100
AcDbEntity
  8
0
100
AcDbLine
 10
40.02599999995994
 20
5.341799999994635
 30
0.0
 11
40.02599999995994
 21
0.0
 31
0.0
1001
ACAD
1000
ASC_BOUNDS
1002
{
1070
    19
1005
A37A
1002
}
  0
LINE
  5
A35D
330
A333
100
AcDbEntity
  8
0
100
AcDbLine
 10
38.60499999996136
 20
8.999999999991019
 30
0.0
 11
38.60499999996136
 21
0.0
 31
0.0
1001
ACAD
1000
ASC_BOUNDS
1002
{
1070
    19
1005
A37A
1002
}
  0
LINE
  5
A35E
330
A333
100
AcDbEntity
  8
0
100
AcDbLine
 10
44.99999999995498
 20
8.763099999991255
 30
0.0
 11
44.99999999995498
 21
-0.2368999999997641
 31
0.0
1001
ACAD
1000
ASC_BOUNDS
1002
{
1070
    19
1005
A37A
1002
}
  0
LINE
  5
A35F
330
A333
100
AcDbEntity
  8
0
100
AcDbLine
 10
38.60499999996136
 20
0.0
 30
0.0
 11
40.02599999995994
 21
0.0
 31
0.0
1001
ACAD
1000
ASC_BOUNDS
1002
{
1070
    19
1005
A37A
1002
}
  0
LINE
  5
A360
330
A333
100
AcDbEntity
  8
0
100
AcDbLine
 10
43.57899999995641
 20
3.421199999996588
 30
0.0
 11
38.60499999996136
 21
8.999899999990987
 31
0.0
1001
ACAD
1000
ASC_BOUNDS
1002
{
1070
    19
1005
A37A
1002
}
  0
LINE
  5
A361
330
A333
100
AcDbEntity
  8
0
100
AcDbLine
 10
43.57899999995641
 20
8.763099999991255
 30
0.0
 11
43.57899999995641
 21
3.421199999996588
 31
0.0
1001
ACAD
1000
ASC_BOUNDS
1002
{
1070
    19
1005
A37A
1002
}
  0
LINE
  5
A362
330
A333
100
AcDbEntity
  8
0
100
AcDbLine
 10
43.57899999995641
 20
8.763099999991255
 30
0.0
 11
44.99999999995498
 21
8.763099999991255
 31
0.0
1001
ACAD
1000
ASC_BOUNDS
1002
{
1070
    19
1005
A37A
1002
}
  0
LINE
  5
A363
330
A333
100
AcDbEntity
  8
0
100
AcDbLine
 10
37.67199999996831
 20
8.763099999991255
 30
0.0
 11
36.23199999996837
 21
8.763099999991255
 31
0.0
  0
LINE
  5
A364
330
A333
100
AcDbEntity
  8
0
100
AcDbLine
 10
31.64199999996833
 20
8.763099999991255
 30
0.0
 11
31.64199999996833
 21
2.481619422925121
 31
0.0
  0
LINE
  5
A365
330
A333
100
AcDbEntity
  8
0
100
AcDbLine
 10
37.67199999996831
 20
8.763099999991255
 30
0.0
 11
37.67199999996831
 21
2.481619422925121
 31
0.0
  0
LINE
  5
A366
330
A333
100
AcDbEntity
  8
0
100
AcDbLine
 10
36.23199999996837
 20
8.763099999991255
 30
0.0
 11
36.23199999996837
 21
2.481619422925064
 31
0.0
  0
LINE
  5
A367
330
A333
100
AcDbEntity
  8
0
100
AcDbLine
 10
33.08199999996839
 20
8.763099999991255
 30
0.0
 11
33.08199999996839
 21
2.481619422925121
 31
0.0
  0
ARC
  5
A368
330
A333
100
AcDbEntity
  8
0
100
AcDbCircle
 10
34.65699999996832
 20
3.183099999991214
 30
0.0
 40
3.420000000000007
100
AcDbArc
 50
240.0000000000255
 51
299.9999999999766
  0
ARC
  5
A369
330
A333
100
AcDbEntity
  8
0
100
AcDbCircle
 10
34.65699999996832
 20
3.183099999991214
 30
0.0
 40
1.97999999999999
100
AcDbArc
 50
240.000000000026
 51
299.9999999999703
  0
LINE
  5
A36A
330
A333
100
AcDbEntity
  8
0
100
AcDbLine
 10
33.08199999996828
 20
8.763099999991255
 30
0.0
 11
31.64199999996833
 21
8.763099999991255
 31
0.0
  0
ARC
  5
A36B
330
A333
100
AcDbEntity
  8
0
100
AcDbCircle
 10
35.06199999996829
 20
2.481619422925064
 30
0.0
 40
1.17
100
AcDbArc
 50
299.9999999999699
 51
0.0
  0
ARC
  5
A36C
330
A333
100
AcDbEntity
  8
0
100
AcDbCircle
 10
34.25199999996835
 20
2.481619422925121
 30
0.0
 40
1.17
100
AcDbArc
 50
180.0
 51
240.0000000000238
  0
ARC
  5
A36D
330
A333
100
AcDbEntity
  8
0
100
AcDbCircle
 10
35.06199999996841
 20
2.481619422925121
 30
0.0
 40
2.61
100
AcDbArc
 50
299.9999999999756
 51
0.0
  0
ARC
  5
A36E
330
A333
100
AcDbEntity
  8
0
100
AcDbCircle
 10
34.25199999996835
 20
2.481619422925121
 30
0.0
 40
2.61
100
AcDbArc
 50
180.0
 51
240.0000000000244
  0
LINE
  5
A36F
330
A333
100
AcDbEntity
  8
0
100
AcDbLine
 10
29.30199999996933
 20
8.763099999991255
 30
0.0
 11
30.74199999996927
 21
8.763099999991255
 31
0.0
1001
ACAD
1000
ASC_BOUNDS
1002
{
1070
    19
1005
A378
1002
}
  0
LINE
  5
A370
330
A333
100
AcDbEntity
  8
0
100
AcDbLine
 10
30.74199999996927
 20
8.763099999991255
 30
0.0
 11
30.74199999996927
 21
2.373099999991211
 31
0.0
1001
ACAD
1000
ASC_BOUNDS
1002
{
1070
    19
1005
A378
1002
}
  0
LINE
  5
A371
330
A333
100
AcDbEntity
  8
0
100
AcDbLine
 10
26.02015566812236
 20
0.0330999999912365
 30
0.0
 11
28.40199999996923
 21
0.0330999999912365
 31
0.0
1001
ACAD
1000
ASC_BOUNDS
1002
{
1070
    19
1005
A378
1002
}
  0
LINE
  5
A372
330
A333
100
AcDbEntity
  8
0
100
AcDbLine
 10
29.30199999996933
 20
8.763099999991255
 30
0.0
 11
29.30199999996933
 21
2.283099999991236
 31
0.0
1001
ACAD
1000
ASC_BOUNDS
1002
{
1070
    19
1005
A378
1002
}
  0
LINE
  5
A373
330
A333
100
AcDbEntity
  8
0
100
AcDbLine
 10
26.97358892824991
 20
1.383099999991202
 30
0.0
 11
28.40199999996923
 21
1.383099999991202
 31
0.0
1001
ACAD
1000
ASC_BOUNDS
1002
{
1070
    19
1005
A378
1002
}
  0
ARC
  5
A374
330
A333
100
AcDbEntity
  8
0
100
AcDbCircle
 10
28.40199999996923
 20
2.283099999991236
 30
0.0
 40
0.9
100
AcDbArc
 50
270.0
 51
0.0
1001
ACAD
1000
ASC_BOUNDS
1002
{
1070
    19
1005
A378
1002
}
  0
ARC
  5
A375
330
A333
100
AcDbEntity
  8
0
100
AcDbCircle
 10
28.40199999996923
 20
2.373099999991211
 30
0.0
 40
2.34
100
AcDbArc
 50
270.0
 51
0.0
1001
ACAD
1000
ASC_BOUNDS
1002
{
1070
    19
1005
A378
1002
}
  0
INSERT
  5
A376
330
A333
100
AcDbEntity
  8
0
100
AcDbBlockReference
  2
*X27
 10
0.0
 20
0.0
 30
0.0
1001
ACAD
1000
HATCH
1002
{
1070
    19
1000
ANSI37
1040
0.15
1040
0.0
1000
ASC_BOUNDS
1070
     2
1070
     2
1070
    12
1005
A335
1005
A336
1005
A33D
1005
A34C
1005
A34F
1005
A34D
1005
A33E
1005
A343
1005
A341
1005
A345
1005
A344
1005
A346
1070
     2
1070
     3
1005
A351
1005
A353
1005
A352
1000
ASC_SEEDPOINT
1011
3.614004224891801
1021
2.996669441146025
1031
0.0
1000
R14_HATCH_DATA
1000
A376
1011
1.0
1021
0.0
1031
0.0
1011
0.0
1021
1.0
1031
0.0
1011
0.0
1021
0.0
1031
1.0
1040
0.0
1010
0.0
1020
0.0
1030
1.0
1000
ANSI37
1070
     0
1070
     1
1071
        2
1071
        7
1070
     0
1070
     1
1071
       17
1040
13.26299999998673
1040
-0.0001000000000317
1040
9.236999999990758
1040
8.999899999990987
1040
9.236999999990758
1040
8.999999999991019
1040
5.657999999994331
1040
0.9999999999989768
1040
3.181999999996833
1040
4.668599999995308
1040
6.432999999993513
1040
8.763099999991255
1040
4.617999999995391
1040
8.763099999991255
1040
1.420999999998571
1040
4.736799999995242
1040
4.617999999995391
1040
-0.0001000000000317
1040
4.617999999995391
1040
0.0
1040
6.766999999993232
1040
0.0
1040
6.766999999993232
1040
-0.0001000000000317
1040
7.826999999992154
1040
2.368399999997621
1040
10.64699999998936
1040
2.368399999997621
1040
11.70599999998831
1040
-0.0001000000000317
1040
11.70599999998831
1040
0.0
1040
13.26299999998673
1040
0.0
1071
       12
1005
A335
1005
A336
1005
A33D
1005
A34C
1005
A34F
1005
A34D
1005
A33E
1005
A343
1005
A341
1005
A345
1005
A344
1005
A346
1071
       22
1070
     0
1070
     1
1071
        3
1040
9.236999999990758
1040
5.5200999999945
1040
10.06399999998996
1040
3.670999999996297
1040
8.409999999991555
1040
3.670999999996297
1071
        3
1005
A351
1005
A353
1005
A352
1070
     0
1070
     1
1040
0.0
1040
0.15
1070
     0
1070
     2
1040
0.7853981633974483
1040
49.29960901727088
1040
-10.17736998311392
1040
-0.3367596045400932
1040
0.3367596045400932
1070
     0
1040
2.356194490192345
1040
49.29960901727088
1040
-10.17736998311392
1040
-0.3367596045400932
1040
-0.3367596045400932
1070
     0
1040
0.0110235143455945
1071
        2
1040
3.614004224891801
1040
2.996669441146025
1040
0.0
1040
3.614004224891801
1040
2.996669441146025
1040
0.0
1002
}
  0
INSERT
  5
A377
330
A333
100
AcDbEntity
  8
0
100
AcDbBlockReference
  2
*X28
 10
0.0
 20
0.0
 30
0.0
1001
ACAD
1000
HATCH
1002
{
1070
    19
1000
ANSI37
1040
0.15
1040
0.0
1000
ASC_BOUNDS
1070
     1
1070
     2
1070
    10
1005
A337
1005
A338
1005
A359
1005
A357
1005
A358
1005
A34B
1005
A350
1005
A354
1005
A33A
1005
A339
1000
ASC_SEEDPOINT
1011
14.73245321214324
1021
2.798246178283421
1031
0.0
1000
R14_HATCH_DATA
1000
A377
1011
1.0
1021
0.0
1031
0.0
1011
0.0
1021
1.0
1031
0.0
1011
0.0
1021
0.0
1031
1.0
1040
0.0
1010
0.0
1020
0.0
1030
1.0
1000
ANSI37
1070
     0
1070
     1
1071
        1
1071
        7
1070
     0
1070
     1
1071
       10
1040
16.46099999998353
1040
5.432899999994561
1040
18.59199999998134
1040
-0.2368999999997641
1040
22.38199999997767
1040
8.763099999991255
1040
20.89099999997916
1040
8.763099999991255
1040
18.59799999998143
1040
3.315799999996671
1040
16.46099999998353
1040
8.999899999990987
1040
14.32399999998563
1040
3.315799999996671
1040
12.02999999998792
1040
8.763099999991255
1040
10.53899999998941
1040
8.763099999991255
1040
14.32899999998563
1040
-0.2368999999997641
1071
       10
1005
A337
1005
A338
1005
A359
1005
A357
1005
A358
1005
A34B
1005
A350
1005
A354
1005
A33A
1005
A339
1070
     0
1070
     1
1040
0.0
1040
0.15
1070
     0
1070
     2
1040
0.7853981633974483
1040
49.29960901727088
1040
-10.17736998311392
1040
-0.3367596045400932
1040
0.3367596045400932
1070
     0
1040
2.356194490192345
1040
49.29960901727088
1040
-10.17736998311392
1040
-0.3367596045400932
1040
-0.3367596045400932
1070
     0
1040
0.0110235143455945
1071
        1
1040
14.73245321214324
1040
2.798246178283421
1040
0.0
1002
}
  0
INSERT
  5
A378
330
A333
100
AcDbEntity
  8
0
100
AcDbBlockReference
  2
*X29
 10
0.0
 20
0.0
 30
0.0
1001
ACAD
1000
HATCH
1002
{
1070
    19
1000
ANSI37
1040
0.15
1040
0.0
1000
ASC_BOUNDS
1070
     2
1070
     2
1070
    13
1005
A33B
1005
A348
1005
A349
1005
A347
1005
A34A
1005
A371
1005
A375
1005
A370
1005
A36F
1005
A372
1005
A374
1005
A373
1005
A33C
1070
     2
1070
     3
1005
A355
1005
A35A
1005
A356
1000
ASC_SEEDPOINT
1011
21.97929957367762
1021
3.294304244259308
1031
0.0
1000
R14_HATCH_DATA
1000
A378
1011
1.0
1021
0.0
1031
0.0
1011
0.0
1021
1.0
1031
0.0
1011
0.0
1021
0.0
1031
1.0
1040
0.0
1010
0.0
1020
0.0
1030
1.0
1000
ANSI37
1070
     0
1070
     1
1071
        2
1071
        7
1070
     1
1070
     1
1071
       15
1040
23.56599999997638
1040
8.999899999990987
1040
0.0
1040
19.53899999998043
1040
-0.0001000000000317
1040
0.0
1040
19.53899999998043
1040
0.0
1040
0.0
1040
21.09599999997886
1040
0.0
1040
0.0
1040
21.09599999997886
1040
-0.0001000000000317
1040
0.0
1040
22.15599999997789
1040
2.368399999997621
1040
0.0
1040
24.97599999997499
1040
2.368399999997621
1040
0.0
1040
26.02015566812236
1040
0.0330999999912365
1040
0.0
1040
28.40199999996923
1040
0.0330999999912365
1040
0.414213562373095
1040
30.74199999996923
1040
2.373099999991211
1040
0.0
1040
30.74199999996927
1040
8.763099999991255
1040
0.0
1040
29.30199999996933
1040
8.763099999991255
1040
0.0
1040
29.30199999996933
1040
2.283099999991236
1040
-0.414213562373095
1040
28.40199999996923
1040
1.383099999991237
1040
0.0
1040
26.97358892824991
1040
1.383099999991202
1040
0.0
1071
       13
1005
A33B
1005
A348
1005
A349
1005
A347
1005
A34A
1005
A371
1005
A375
1005
A370
1005
A36F
1005
A372
1005
A374
1005
A373
1005
A33C
1071
       22
1070
     0
1070
     1
1071
        3
1040
22.7389999999773
1040
3.670999999996297
1040
23.56599999997638
1040
5.5200999999945
1040
24.39299999997559
1040
3.670999999996297
1071
        3
1005
A355
1005
A35A
1005
A356
1070
     0
1070
     1
1040
0.0
1040
0.15
1070
     0
1070
     2
1040
0.7853981633974483
1040
49.29960901727088
1040
-10.17736998311392
1040
-0.3367596045400932
1040
0.3367596045400932
1070
     0
1040
2.356194490192345
1040
49.29960901727088
1040
-10.17736998311392
1040
-0.3367596045400932
1040
-0.3367596045400932
1070
     0
1040
0.0110235143455945
1071
        2
1040
21.97929957367762
1040
3.294304244259308
1040
0.0
1040
21.97929957367762
1040
3.294304244259308
1040
0.0
1002
}
  0
INSERT
  5
A379
330
A333
100
AcDbEntity
  8
0
100
AcDbBlockReference
  2
*X30
 10
0.0
 20
0.0
 30
0.0
1001
ACAD
1000
HATCH
1002
{
1070
    19
1000
ANSI37
1040
0.15
1040
0.0
1000
R14_HATCH_DATA
1000
A379
1011
1.0
1021
0.0
1031
0.0
1011
0.0
1021
1.0
1031
0.0
1011
0.0
1021
0.0
1031
1.0
1040
0.0
1010
0.0
1020
0.0
1030
1.0
1000
ANSI37
1070
     0
1070
     1
1071
        1
1071
        7
1070
     1
1070
     1
1071
       12
1040
31.64199999996833
1040
2.481619422925121
1040
0.2679491924310942
1040
32.94699999997067
1040
0.2212931190493919
1040
0.2679491924301353
1040
36.36699999995983
1040
0.2212931190459813
1040
0.2679491924321411
1040
37.67199999996831
1040
2.481619422928361
1040
0.0
1040
37.67199999996831
1040
8.763099999991255
1040
0.0
1040
36.23199999996837
1040
8.763099999991255
1040
0.0
1040
36.23199999996837
1040
2.481619422925064
1040
-0.2679491924310291
1040
35.64699999996708
1040
1.468369700498386
1040
-0.267949192430519
1040
33.66699999997093
1040
1.468369700497703
1040
-0.267949192431809
1040
33.08199999996839
1040
2.481619422926997
1040
0.0
1040
33.08199999996839
1040
8.763099999991255
1040
0.0
1040
31.64199999996833
1040
8.763099999991255
1040
0.0
1071
        0
1070
     0
1070
     1
1040
0.0
1040
0.15
1070
     0
1070
     2
1040
0.7853981633974483
1040
49.29960901727088
1040
-10.17736998311392
1040
-0.3367596045400932
1040
0.3367596045400932
1070
     0
1040
2.356194490192345
1040
49.29960901727088
1040
-10.17736998311392
1040
-0.3367596045400932
1040
-0.3367596045400932
1070
     0
1040
0.0110235143455945
1071
        1
1040
32.30357378967278
1040
3.988785755459219
1040
0.0
1002
}
  0
INSERT
  5
A37A
330
A333
100
AcDbEntity
  8
0
100
AcDbBlockReference
  2
*X31
 10
0.0
 20
0.0
 30
0.0
1001
ACAD
1000
HATCH
1002
{
1070
    19
1000
ANSI37
1040
0.15
1040
0.0
1000
ASC_BOUNDS
1070
     1
1070
     2
1070
     8
1005
A35B
1005
A35E
1005
A362
1005
A361
1005
A360
1005
A35D
1005
A35F
1005
A35C
1000
ASC_SEEDPOINT
1011
39.74896370716704
1021
4.484843821435049
1031
0.0
1000
R14_HATCH_DATA
1000
A37A
1011
1.0
1021
0.0
1031
0.0
1011
0.0
1021
1.0
1031
0.0
1011
0.0
1021
0.0
1031
1.0
1040
0.0
1010
0.0
1020
0.0
1030
1.0
1000
ANSI37
1070
     0
1070
     1
1071
        1
1071
        7
1070
     0
1070
     1
1071
        9
1040
40.02599999995994
1040
5.341799999994635
1040
44.99999999995498
1040
-0.2368999999997641
1040
44.99999999995498
1040
8.763099999991255
1040
43.57899999995641
1040
8.763099999991255
1040
43.57899999995641
1040
3.421199999996588
1040
38.60499999996136
1040
8.999899999990987
1040
38.60499999996136
1040
8.999999999991019
1040
38.60499999996136
1040
0.0
1040
40.02599999995994
1040
0.0
1071
        8
1005
A35B
1005
A35E
1005
A362
1005
A361
1005
A360
1005
A35D
1005
A35F
1005
A35C
1070
     0
1070
     1
1040
0.0
1040
0.15
1070
     0
1070
     2
1040
0.7853981633974483
1040
49.29960901727088
1040
-10.17736998311392
1040
-0.3367596045400932
1040
0.3367596045400932
1070
     0
1040
2.356194490192345
1040
49.29960901727088
1040
-10.17736998311392
1040
-0.3367596045400932
1040
-0.3367596045400932
1070
     0
1040
0.0110235143455945
1071
        1
1040
39.74896370716704
1040
4.484843821435049
1040
0.0
1002
}
  0
INSERT
  5
A37B
330
A333
100
AcDbEntity
  8
0
100
AcDbBlockReference
  2
*X32
 10
0.0
 20
0.0
 30
0.0
1001
ACAD
1000
HATCH
1002
{
1070
    19
1000
ANSI37
1040
0.15
1040
0.0
1000
ASC_BOUNDS
1070
     1
1070
     2
1070
     4
1005
A33F
1005
A34E
1005
A340
1005
A342
1000
ASC_SEEDPOINT
1011
1.079051535452663
1021
4.148538732891836
1031
0.0
1000
R14_HATCH_DATA
1000
A37B
1011
1.0
1021
0.0
1031
0.0
1011
0.0
1021
1.0
1031
0.0
1011
0.0
1021
0.0
1031
1.0
1040
0.0
1010
0.0
1020
0.0
1030
1.0
1000
ANSI37
1070
     0
1070
     1
1071
        1
1071
        7
1070
     0
1070
     1
1071
        4
1040
1.420999999998571
1040
0.0
1040
1.420999999998571
1040
8.763099999991255
1040
0.0
1040
8.763099999991255
1040
0.0
1040
0.0
1071
        4
1005
A33F
1005
A34E
1005
A340
1005
A342
1070
     0
1070
     1
1040
0.0
1040
0.15
1070
     0
1070
     2
1040
0.7853981633974483
1040
49.29960901727088
1040
-10.17736998311392
1040
-0.3367596045400932
1040
0.3367596045400932
1070
     0
1040
2.356194490192345
1040
49.29960901727088
1040
-10.17736998311392
1040
-0.3367596045400932
1040
-0.3367596045400932
1070
     0
1040
0.0053004257112761
1071
        1
1040
1.079051535452663
1040
4.148538732891836
1040
0.0
1002
}
  0
ENDBLK
  5
AA57
330
A333
100
AcDbEntity
  8
0
100
AcDbBlockEnd
  0
BLOCK
  5
BDA7
330
BC19
100
AcDbEntity
  8
0
100
AcDbBlockBegin
  2
*X27
 70
     1
 10
0.0
 20
0.0
 30
0.0
  3
*X27
  1

  0
LINE
  5
BC1A
330
BC19
100
AcDbEntity
  8
0
  6
CONTINUOUS
100
AcDbLine
 10
3.418023043697893
 20
7.251849696850613
 30
0.0
 11
4.929273346838536
 21
8.763099999991255
 31
0.0
  0
LINE
  5
BC1B
330
BC19
100
AcDbEntity
  8
0
  6
CONTINUOUS
100
AcDbLine
 10
1.483656411257782
 20
4.643963855330318
 30
0.0
 11
5.60279255591872
 21
8.763099999991255
 31
0.0
  0
LINE
  5
BC1C
330
BC19
100
AcDbEntity
  8
0
  6
CONTINUOUS
100
AcDbLine
 10
1.755053947328235
 20
4.241842182320584
 30
0.0
 11
6.276311764998907
 21
8.763099999991255
 31
0.0
  0
LINE
  5
BC1D
330
BC19
100
AcDbEntity
  8
0
  6
CONTINUOUS
100
AcDbLine
 10
2.026451483398688
 20
3.839720509310849
 30
0.0
 11
4.441040904851878
 21
6.254309930764039
 31
0.0
  0
LINE
  5
BC1E
330
BC19
100
AcDbEntity
  8
0
  6
CONTINUOUS
100
AcDbLine
 10
2.297849019469139
 20
3.437598836301114
 30
0.0
 11
3.321765168359338
 21
4.461514985191313
 31
0.0
  0
LINE
  5
BC1F
330
BC19
100
AcDbEntity
  8
0
  6
CONTINUOUS
100
AcDbLine
 10
2.569246555539591
 20
3.03547716329138
 30
0.0
 11
3.593163397972743
 21
4.059394005724531
 31
0.0
  0
LINE
  5
BC20
330
BC19
100
AcDbEntity
  8
0
  6
CONTINUOUS
100
AcDbLine
 10
2.840644091610043
 20
2.633355490281646
 30
0.0
 11
3.864561627586149
 21
3.657273026257751
 31
0.0
  0
LINE
  5
BC21
330
BC19
100
AcDbEntity
  8
0
  6
CONTINUOUS
100
AcDbLine
 10
3.112041627680496
 20
2.231233817271911
 30
0.0
 11
4.135959857199554
 21
3.25515204679097
 31
0.0
  0
LINE
  5
BC22
330
BC19
100
AcDbEntity
  8
0
  6
CONTINUOUS
100
AcDbLine
 10
3.383439163750948
 20
1.829112144262177
 30
0.0
 11
4.40735808681296
 21
2.853031067324189
 31
0.0
  0
LINE
  5
BC23
330
BC19
100
AcDbEntity
  8
0
  6
CONTINUOUS
100
AcDbLine
 10
3.654836699821399
 20
1.426990471252442
 30
0.0
 11
4.678756316426365
 21
2.450910087857407
 31
0.0
  0
LINE
  5
BC24
330
BC19
100
AcDbEntity
  8
0
  6
CONTINUOUS
100
AcDbLine
 10
3.926234235891853
 20
1.024868798242709
 30
0.0
 11
4.95015454603977
 21
2.048789108390626
 31
0.0
  0
LINE
  5
BC25
330
BC19
100
AcDbEntity
  8
0
  6
CONTINUOUS
100
AcDbLine
 10
4.197631771962304
 20
0.6227471252329737
 30
0.0
 11
5.221552775653176
 21
1.646668128923846
 31
0.0
  0
LINE
  5
BC26
330
BC19
100
AcDbEntity
  8
0
  6
CONTINUOUS
100
AcDbLine
 10
8.715877546767851
 20
7.835069736359266
 30
0.0
 11
9.435953450375058
 21
8.555145639966472
 31
0.0
  0
LINE
  5
BC27
330
BC19
100
AcDbEntity
  8
0
  6
CONTINUOUS
100
AcDbLine
 10
8.170620868422267
 20
6.616293848933497
 30
0.0
 11
9.644120833743461
 21
8.08979381425469
 31
0.0
  0
LINE
  5
BC28
330
BC19
100
AcDbEntity
  8
0
  6
CONTINUOUS
100
AcDbLine
 10
7.625364190076684
 20
5.397517961507727
 30
0.0
 11
9.852288217111864
 21
7.624441988542907
 31
0.0
  0
LINE
  5
BC29
330
BC19
100
AcDbEntity
  8
0
  6
CONTINUOUS
100
AcDbLine
 10
7.080107511731101
 20
4.178742074081957
 30
0.0
 11
10.06045560048027
 21
7.159090162831124
 31
0.0
  0
LINE
  5
BC2A
330
BC19
100
AcDbEntity
  8
0
  6
CONTINUOUS
100
AcDbLine
 10
6.534850833385518
 20
2.959966186656187
 30
0.0
 11
10.26862298384867
 21
6.693738337119342
 31
0.0
  0
LINE
  5
BC2B
330
BC19
100
AcDbEntity
  8
0
  6
CONTINUOUS
100
AcDbLine
 10
4.469029308032756
 20
0.2206254522232385
 30
0.0
 11
5.492951005266582
 21
1.244547149457064
 31
0.0
  0
LINE
  5
BC2C
330
BC19
100
AcDbEntity
  8
0
  6
CONTINUOUS
100
AcDbLine
 10
5.989594155039935
 20
1.741190299230417
 30
0.0
 11
8.806950407233131
 21
4.558546551423613
 31
0.0
  0
LINE
  5
BC2D
330
BC19
100
AcDbEntity
  8
0
  6
CONTINUOUS
100
AcDbLine
 10
9.401251593263643
 20
5.152847737454126
 30
0.0
 11
10.47679036721708
 21
6.228386511407559
 31
0.0
  0
LINE
  5
BC2E
330
BC19
100
AcDbEntity
  8
0
  6
CONTINUOUS
100
AcDbLine
 10
4.921837203428691
 20
-0.0000858614610131
 30
0.0
 11
8.592923064886001
 21
3.670999999996297
 31
0.0
  0
LINE
  5
BC2F
330
BC19
100
AcDbEntity
  8
0
  6
CONTINUOUS
100
AcDbLine
 10
9.609390446785305
 20
4.6874673818956
 30
0.0
 11
10.68495775058548
 21
5.763034685695775
 31
0.0
  0
LINE
  5
BC30
330
BC19
100
AcDbEntity
  8
0
  6
CONTINUOUS
100
AcDbLine
 10
5.595387755019432
 20
-0.0000545189504582
 30
0.0
 11
7.716137258923768
 21
2.120694984953879
 31
0.0
  0
LINE
  5
BC31
330
BC19
100
AcDbEntity
  8
0
  6
CONTINUOUS
100
AcDbLine
 10
6.268938306610172
 20
-0.000023176439905
 30
0.0
 11
7.170485805526503
 21
0.9015243224764267
 31
0.0
  0
LINE
  5
BC32
330
BC19
100
AcDbEntity
  8
0
  6
CONTINUOUS
100
AcDbLine
 10
7.963842273967511
 20
2.368399999997621
 30
0.0
 11
9.266442273966188
 21
3.670999999996297
 31
0.0
  0
LINE
  5
BC33
330
BC19
100
AcDbEntity
  8
0
  6
CONTINUOUS
100
AcDbLine
 10
8.637361483047696
 20
2.368399999997621
 30
0.0
 11
9.939961483046375
 21
3.670999999996297
 31
0.0
  0
LINE
  5
BC34
330
BC19
100
AcDbEntity
  8
0
  6
CONTINUOUS
100
AcDbLine
 10
9.817529300306965
 20
4.222087026337075
 30
0.0
 11
10.89312513395388
 21
5.297682859983993
 31
0.0
  0
LINE
  5
BC35
330
BC19
100
AcDbEntity
  8
0
  6
CONTINUOUS
100
AcDbLine
 10
10.02566815382863
 20
3.756706670778549
 30
0.0
 11
11.10129251732229
 21
4.832331034272211
 31
0.0
  0
LINE
  5
BC36
330
BC19
100
AcDbEntity
  8
0
  6
CONTINUOUS
100
AcDbLine
 10
9.310880692127883
 20
2.368399999997621
 30
0.0
 11
11.30945990069069
 21
4.366979208560428
 31
0.0
  0
LINE
  5
BC37
330
BC19
100
AcDbEntity
  8
0
  6
CONTINUOUS
100
AcDbLine
 10
9.98439990120807
 20
2.36839999999762
 30
0.0
 11
11.5176272840591
 21
3.901627382848645
 31
0.0
  0
LINE
  5
BC38
330
BC19
100
AcDbEntity
  8
0
  6
CONTINUOUS
100
AcDbLine
 10
10.65037369446246
 20
2.36085458417182
 30
0.0
 11
11.7257946674275
 21
3.436275557136862
 31
0.0
  0
LINE
  5
BC39
330
BC19
100
AcDbEntity
  8
0
  6
CONTINUOUS
100
AcDbLine
 10
10.85847197087848
 20
1.895433651507656
 30
0.0
 11
11.9339620507959
 21
2.97092373142508
 31
0.0
  0
LINE
  5
BC3A
330
BC19
100
AcDbEntity
  8
0
  6
CONTINUOUS
100
AcDbLine
 10
11.0665702472945
 20
1.430012718843491
 30
0.0
 11
12.14212943416431
 21
2.505571905713296
 31
0.0
  0
LINE
  5
BC3B
330
BC19
100
AcDbEntity
  8
0
  6
CONTINUOUS
100
AcDbLine
 10
11.27466852371052
 20
0.9645917861793256
 30
0.0
 11
12.35029681753271
 21
2.040220080001513
 31
0.0
  0
LINE
  5
BC3C
330
BC19
100
AcDbEntity
  8
0
  6
CONTINUOUS
100
AcDbLine
 10
11.48276680012654
 20
0.4991708535151611
 30
0.0
 11
12.55846420090111
 21
1.57486825428973
 31
0.0
  0
LINE
  5
BC3D
330
BC19
100
AcDbEntity
  8
0
  6
CONTINUOUS
100
AcDbLine
 10
11.69086507654257
 20
0.0337499208509957
 30
0.0
 11
12.76663158426952
 21
1.109516428577947
 31
0.0
  0
LINE
  5
BC3E
330
BC19
100
AcDbEntity
  8
0
  6
CONTINUOUS
100
AcDbLine
 10
12.33057447873954
 20
-0.0000598860322123
 30
0.0
 11
12.97479896763792
 21
0.6441646028661663
 31
0.0
  0
LINE
  5
BC3F
330
BC19
100
AcDbEntity
  8
0
  6
CONTINUOUS
100
AcDbLine
 10
13.00413694809395
 20
-0.0000166257579952
 30
0.0
 11
13.18296635100632
 21
0.1788127771543824
 31
0.0
  0
LINE
  5
BC40
330
BC19
100
AcDbEntity
  8
0
  6
CONTINUOUS
100
AcDbLine
 10
4.772852165289667
 20
-0.000092794222212
 30
0.0
 11
4.296495091028902
 21
0.4762642800385528
 31
0.0
  0
LINE
  5
BC41
330
BC19
100
AcDbEntity
  8
0
  6
CONTINUOUS
100
AcDbLine
 10
5.446340034776103
 20
-0.0000614546284616
 30
0.0
 11
2.898195908335625
 21
2.548082671812017
 31
0.0
  0
LINE
  5
BC42
330
BC19
100
AcDbEntity
  8
0
  6
CONTINUOUS
100
AcDbLine
 10
6.119827904262539
 20
-0.0000301150347113
 30
0.0
 11
1.499896725642348
 21
4.61990106358548
 31
0.0
  0
LINE
  5
BC43
330
BC19
100
AcDbEntity
  8
0
  6
CONTINUOUS
100
AcDbLine
 10
6.775136745476159
 20
0.0181802528318542
 30
0.0
 11
5.699826040202669
 21
1.093490958105344
 31
0.0
  0
LINE
  5
BC44
330
BC19
100
AcDbEntity
  8
0
  6
CONTINUOUS
100
AcDbLine
 10
6.983376846288489
 20
0.4834593610997118
 30
0.0
 11
5.908008617934405
 21
1.558827589453796
 31
0.0
  0
LINE
  5
BC45
330
BC19
100
AcDbEntity
  8
0
  6
CONTINUOUS
100
AcDbLine
 10
5.377063484962296
 20
1.416253513345719
 30
0.0
 11
1.702276957014131
 21
5.091040041293883
 31
0.0
  0
LINE
  5
BC46
330
BC19
100
AcDbEntity
  8
0
  6
CONTINUOUS
100
AcDbLine
 10
3.978745891735324
 20
3.488090315652877
 30
0.0
 11
2.000373521109399
 21
5.466462686278803
 31
0.0
  0
LINE
  5
BC47
330
BC19
100
AcDbEntity
  8
0
  6
CONTINUOUS
100
AcDbLine
 10
7.191616947100819
 20
0.948738469367568
 30
0.0
 11
6.11619119566614
 21
2.024164220802247
 31
0.0
  0
LINE
  5
BC48
330
BC19
100
AcDbEntity
  8
0
  6
CONTINUOUS
100
AcDbLine
 10
7.399857047913149
 20
1.414017577635424
 30
0.0
 11
6.324373773397875
 21
2.489500852150698
 31
0.0
  0
LINE
  5
BC49
330
BC19
100
AcDbEntity
  8
0
  6
CONTINUOUS
100
AcDbLine
 10
7.608097148725479
 20
1.879296685903281
 30
0.0
 11
6.53255635112961
 21
2.95483748349915
 31
0.0
  0
LINE
  5
BC4A
330
BC19
100
AcDbEntity
  8
0
  6
CONTINUOUS
100
AcDbLine
 10
7.816337249537808
 20
2.344575794171138
 30
0.0
 11
6.740738928861345
 21
3.420174114847601
 31
0.0
  0
LINE
  5
BC4B
330
BC19
100
AcDbEntity
  8
0
  6
CONTINUOUS
100
AcDbLine
 10
3.310241080789734
 20
4.830114335678653
 30
0.0
 11
2.298470085204666
 21
5.84188533126372
 31
0.0
  0
LINE
  5
BC4C
330
BC19
100
AcDbEntity
  8
0
  6
CONTINUOUS
100
AcDbLine
 10
3.60832983563551
 20
5.205544789913063
 30
0.0
 11
2.596566649299935
 21
6.217307976248638
 31
0.0
  0
LINE
  5
BC4D
330
BC19
100
AcDbEntity
  8
0
  6
CONTINUOUS
100
AcDbLine
 10
3.906418590481286
 20
5.580975244147473
 30
0.0
 11
2.894663213395203
 21
6.592730621233557
 31
0.0
  0
LINE
  5
BC4E
330
BC19
100
AcDbEntity
  8
0
  6
CONTINUOUS
100
AcDbLine
 10
4.204507345327062
 20
5.956405698381884
 30
0.0
 11
3.192759777490472
 21
6.968153266218474
 31
0.0
  0
LINE
  5
BC4F
330
BC19
100
AcDbEntity
  8
0
  6
CONTINUOUS
100
AcDbLine
 10
8.466032252791512
 20
2.368399999997621
 30
0.0
 11
6.948921506593081
 21
3.885510746196053
 31
0.0
  0
LINE
  5
BC50
330
BC19
100
AcDbEntity
  8
0
  6
CONTINUOUS
100
AcDbLine
 10
9.139551461871699
 20
2.36839999999762
 30
0.0
 11
7.157104084324816
 21
4.350847377544504
 31
0.0
  0
LINE
  5
BC51
330
BC19
100
AcDbEntity
  8
0
  6
CONTINUOUS
100
AcDbLine
 10
4.502596100172839
 20
6.331836152616295
 30
0.0
 11
3.49085634158574
 21
7.343575911203393
 31
0.0
  0
LINE
  5
BC52
330
BC19
100
AcDbEntity
  8
0
  6
CONTINUOUS
100
AcDbLine
 10
4.800684855018615
 20
6.707266606850705
 30
0.0
 11
3.788952905681008
 21
7.718998556188312
 31
0.0
  0
LINE
  5
BC53
330
BC19
100
AcDbEntity
  8
0
  6
CONTINUOUS
100
AcDbLine
 10
12.18154012887317
 20
-0.0000694579236642
 30
0.0
 11
11.32140332908496
 21
0.8600673418645499
 31
0.0
  0
LINE
  5
BC54
330
BC19
100
AcDbEntity
  8
0
  6
CONTINUOUS
100
AcDbLine
 10
12.85501608323566
 20
-0.0000262032059659
 30
0.0
 11
10.77672456435345
 21
2.078265315676246
 31
0.0
  0
LINE
  5
BC55
330
BC19
100
AcDbEntity
  8
0
  6
CONTINUOUS
100
AcDbLine
 10
9.813070670951886
 20
2.36839999999762
 30
0.0
 11
8.51047067095321
 21
3.670999999996297
 31
0.0
  0
LINE
  5
BC56
330
BC19
100
AcDbEntity
  8
0
  6
CONTINUOUS
100
AcDbLine
 10
10.48658988003207
 20
2.36839999999762
 30
0.0
 11
9.183989880033396
 21
3.670999999996297
 31
0.0
  0
LINE
  5
BC57
330
BC19
100
AcDbEntity
  8
0
  6
CONTINUOUS
100
AcDbLine
 10
8.441048632286794
 20
3.740422038662712
 30
0.0
 11
7.365286662056551
 21
4.816184008892956
 31
0.0
  0
LINE
  5
BC58
330
BC19
100
AcDbEntity
  8
0
  6
CONTINUOUS
100
AcDbLine
 10
8.649187485808454
 20
4.205802394221237
 30
0.0
 11
7.573469239788285
 21
5.281520640241407
 31
0.0
  0
LINE
  5
BC59
330
BC19
100
AcDbEntity
  8
0
  6
CONTINUOUS
100
AcDbLine
 10
5.098773609864391
 20
7.082697061085115
 30
0.0
 11
4.087049469776277
 21
8.09442120117323
 31
0.0
  0
LINE
  5
BC5A
330
BC19
100
AcDbEntity
  8
0
  6
CONTINUOUS
100
AcDbLine
 10
5.396862364710167
 20
7.458127515319526
 30
0.0
 11
4.385146033871544
 21
8.469843846158149
 31
0.0
  0
LINE
  5
BC5B
330
BC19
100
AcDbEntity
  8
0
  6
CONTINUOUS
100
AcDbLine
 10
13.04801363231285
 20
0.4804954567970334
 30
0.0
 11
9.85750908911358
 21
3.670999999996297
 31
0.0
  0
LINE
  5
BC5C
330
BC19
100
AcDbEntity
  8
0
  6
CONTINUOUS
100
AcDbLine
 10
8.857326339330116
 20
4.671182749779763
 30
0.0
 11
7.781651817520021
 21
5.746857271589858
 31
0.0
  0
LINE
  5
BC5D
330
BC19
100
AcDbEntity
  8
0
  6
CONTINUOUS
100
AcDbLine
 10
5.694951119555943
 20
7.833557969553937
 30
0.0
 11
4.765409089118624
 21
8.763099999991255
 31
0.0
  0
LINE
  5
BC5E
330
BC19
100
AcDbEntity
  8
0
  6
CONTINUOUS
100
AcDbLine
 10
12.50286117236978
 20
1.699167125820288
 30
0.0
 11
9.68611877250287
 21
4.515909525687196
 31
0.0
  0
LINE
  5
BC5F
330
BC19
100
AcDbEntity
  8
0
  6
CONTINUOUS
100
AcDbLine
 10
9.065465192851777
 20
5.136563105338288
 30
0.0
 11
7.989834395251757
 21
6.21219390293831
 31
0.0
  0
LINE
  5
BC60
330
BC19
100
AcDbEntity
  8
0
  6
CONTINUOUS
100
AcDbLine
 10
5.993039874401719
 20
8.208988423788346
 30
0.0
 11
5.43892829819881
 21
8.763099999991255
 31
0.0
  0
LINE
  5
BC61
330
BC19
100
AcDbEntity
  8
0
  6
CONTINUOUS
100
AcDbLine
 10
11.95770871242671
 20
2.917838794843543
 30
0.0
 11
8.19801697298349
 21
6.677530534286761
 31
0.0
  0
LINE
  5
BC62
330
BC19
100
AcDbEntity
  8
0
  6
CONTINUOUS
100
AcDbLine
 10
6.291128629247495
 20
8.584418878022756
 30
0.0
 11
6.112447507278997
 21
8.763099999991255
 31
0.0
  0
LINE
  5
BC63
330
BC19
100
AcDbEntity
  8
0
  6
CONTINUOUS
100
AcDbLine
 10
11.41255625248364
 20
4.136510463866797
 30
0.0
 11
8.406199550715227
 21
7.142867165635211
 31
0.0
  0
LINE
  5
BC64
330
BC19
100
AcDbEntity
  8
0
  6
CONTINUOUS
100
AcDbLine
 10
10.86740379254057
 20
5.355182132890051
 30
0.0
 11
8.614382128446962
 21
7.608203796983664
 31
0.0
  0
LINE
  5
BC65
330
BC19
100
AcDbEntity
  8
0
  6
CONTINUOUS
100
AcDbLine
 10
10.3222513325975
 20
6.573853801913305
 30
0.0
 11
8.822564706178696
 21
8.073540428332114
 31
0.0
  0
LINE
  5
BC66
330
BC19
100
AcDbEntity
  8
0
  6
CONTINUOUS
100
AcDbLine
 10
9.777098872654436
 20
7.792525470936562
 30
0.0
 11
9.030747283910433
 21
8.538877059680566
 31
0.0
  0
ENDBLK
  5
BDA8
330
BC19
100
AcDbEntity
  8
0
100
AcDbBlockEnd
  0
BLOCK
  5
BDA9
330
BC67
100
AcDbEntity
  8
0
100
AcDbBlockBegin
  2
*X28
 70
     1
 10
0.0
 20
0.0
 30
0.0
  3
*X28
  1

  0
LINE
  5
BC68
330
BC67
100
AcDbEntity
  8
0
  6
CONTINUOUS
100
AcDbLine
 10
10.67292308101235
 20
8.445076852443387
 30
0.0
 11
10.99094622856022
 21
8.763099999991255
 31
0.0
  0
LINE
  5
BC69
330
BC67
100
AcDbEntity
  8
0
  6
CONTINUOUS
100
AcDbLine
 10
10.87250383178748
 20
7.971138394138331
 30
0.0
 11
11.6644654376404
 21
8.763099999991255
 31
0.0
  0
LINE
  5
BC6A
330
BC67
100
AcDbEntity
  8
0
  6
CONTINUOUS
100
AcDbLine
 10
11.07208458256261
 20
7.497199935833273
 30
0.0
 11
12.12126590876355
 21
8.546381262034211
 31
0.0
  0
LINE
  5
BC6B
330
BC67
100
AcDbEntity
  8
0
  6
CONTINUOUS
100
AcDbLine
 10
11.27166533333774
 20
7.023261477528216
 30
0.0
 11
12.32085164573666
 21
8.072447789927136
 31
0.0
  0
LINE
  5
BC6C
330
BC67
100
AcDbEntity
  8
0
  6
CONTINUOUS
100
AcDbLine
 10
11.47124608411287
 20
6.549323019223158
 30
0.0
 11
12.52043738270977
 21
7.59851431782006
 31
0.0
  0
LINE
  5
BC6D
330
BC67
100
AcDbEntity
  8
0
  6
CONTINUOUS
100
AcDbLine
 10
11.670826834888
 20
6.075384560918101
 30
0.0
 11
12.72002311968288
 21
7.124580845712984
 31
0.0
  0
LINE
  5
BC6E
330
BC67
100
AcDbEntity
  8
0
  6
CONTINUOUS
100
AcDbLine
 10
11.87040758566313
 20
5.601446102613043
 30
0.0
 11
12.91960885665599
 21
6.650647373605907
 31
0.0
  0
LINE
  5
BC6F
330
BC67
100
AcDbEntity
  8
0
  6
CONTINUOUS
100
AcDbLine
 10
12.06998833643825
 20
5.127507644307986
 30
0.0
 11
13.1191945936291
 21
6.176713901498832
 31
0.0
  0
LINE
  5
BC70
330
BC67
100
AcDbEntity
  8
0
  6
CONTINUOUS
100
AcDbLine
 10
12.26956908721338
 20
4.65356918600293
 30
0.0
 11
13.31878033060221
 21
5.702780429391757
 31
0.0
  0
LINE
  5
BC71
330
BC67
100
AcDbEntity
  8
0
  6
CONTINUOUS
100
AcDbLine
 10
12.46914983798851
 20
4.179630727697873
 30
0.0
 11
13.51836606757532
 21
5.228846957284683
 31
0.0
  0
LINE
  5
BC72
330
BC67
100
AcDbEntity
  8
0
  6
CONTINUOUS
100
AcDbLine
 10
12.66873058876364
 20
3.705692269392816
 30
0.0
 11
13.71795180454843
 21
4.754913485177607
 31
0.0
  0
LINE
  5
BC73
330
BC67
100
AcDbEntity
  8
0
  6
CONTINUOUS
100
AcDbLine
 10
12.86831133953877
 20
3.231753811087759
 30
0.0
 11
13.91753754152154
 21
4.280980013070531
 31
0.0
  0
LINE
  5
BC74
330
BC67
100
AcDbEntity
  8
0
  6
CONTINUOUS
100
AcDbLine
 10
13.0678920903139
 20
2.757815352782702
 30
0.0
 11
14.11712327849465
 21
3.807046540963456
 31
0.0
  0
LINE
  5
BC75
330
BC67
100
AcDbEntity
  8
0
  6
CONTINUOUS
100
AcDbLine
 10
13.26747284108903
 20
2.283876894477644
 30
0.0
 11
14.31670901546777
 21
3.333113068856379
 31
0.0
  0
LINE
  5
BC76
330
BC67
100
AcDbEntity
  8
0
  6
CONTINUOUS
100
AcDbLine
 10
16.36767838827179
 20
8.751678487061342
 30
0.0
 11
16.50332410898388
 21
8.887324207773432
 31
0.0
  0
LINE
  5
BC77
330
BC67
100
AcDbEntity
  8
0
  6
CONTINUOUS
100
AcDbLine
 10
15.96190732182191
 20
7.67238821153127
 30
0.0
 11
16.68735328004734
 21
8.397834169756699
 31
0.0
  0
LINE
  5
BC78
330
BC67
100
AcDbEntity
  8
0
  6
CONTINUOUS
100
AcDbLine
 10
15.55613625537202
 20
6.593097936001196
 30
0.0
 11
16.87138245111079
 21
7.908344131739965
 31
0.0
  0
LINE
  5
BC79
330
BC67
100
AcDbEntity
  8
0
  6
CONTINUOUS
100
AcDbLine
 10
15.15036518892213
 20
5.513807660471122
 30
0.0
 11
17.05541162217424
 21
7.418854093723231
 31
0.0
  0
LINE
  5
BC7A
330
BC67
100
AcDbEntity
  8
0
  6
CONTINUOUS
100
AcDbLine
 10
14.74459412247225
 20
4.434517384941048
 30
0.0
 11
17.2394407932377
 21
6.929364055706499
 31
0.0
  0
LINE
  5
BC7B
330
BC67
100
AcDbEntity
  8
0
  6
CONTINUOUS
100
AcDbLine
 10
14.33882305602236
 20
3.355227109410975
 30
0.0
 11
17.42346996430115
 21
6.439874017689766
 31
0.0
  0
LINE
  5
BC7C
330
BC67
100
AcDbEntity
  8
0
  6
CONTINUOUS
100
AcDbLine
 10
13.46705359186416
 20
1.809938436172586
 30
0.0
 11
16.0819338255367
 21
4.424818669845129
 31
0.0
  0
LINE
  5
BC7D
330
BC67
100
AcDbEntity
  8
0
  6
CONTINUOUS
100
AcDbLine
 10
16.63283254238972
 20
4.975717386698149
 30
0.0
 11
17.60749913536461
 21
5.950383979673033
 31
0.0
  0
LINE
  5
BC7E
330
BC67
100
AcDbEntity
  8
0
  6
CONTINUOUS
100
AcDbLine
 10
13.66663434263929
 20
1.335999977867529
 30
0.0
 11
15.67604797733754
 21
3.345413612565779
 31
0.0
  0
LINE
  5
BC7F
330
BC67
100
AcDbEntity
  8
0
  6
CONTINUOUS
100
AcDbLine
 10
13.86621509341442
 20
0.8620615195624723
 30
0.0
 11
15.27016212913838
 21
2.26600855528643
 31
0.0
  0
LINE
  5
BC80
330
BC67
100
AcDbEntity
  8
0
  6
CONTINUOUS
100
AcDbLine
 10
16.81682257348267
 20
4.486188208710908
 30
0.0
 11
17.79152830642806
 21
5.460893941656299
 31
0.0
  0
LINE
  5
BC81
330
BC67
100
AcDbEntity
  8
0
  6
CONTINUOUS
100
AcDbLine
 10
17.00081260457561
 20
3.996659030723667
 30
0.0
 11
17.97555747749151
 21
4.971403903639565
 31
0.0
  0
LINE
  5
BC82
330
BC67
100
AcDbEntity
  8
0
  6
CONTINUOUS
100
AcDbLine
 10
20.74362343514722
 20
8.412989070375462
 30
0.0
 11
21.09373436476302
 21
8.763099999991256
 31
0.0
  0
LINE
  5
BC83
330
BC67
100
AcDbEntity
  8
0
  6
CONTINUOUS
100
AcDbLine
 10
20.25401257174777
 20
7.249858997895826
 30
0.0
 11
21.7672535738432
 21
8.763099999991255
 31
0.0
  0
LINE
  5
BC84
330
BC67
100
AcDbEntity
  8
0
  6
CONTINUOUS
100
AcDbLine
 10
14.06579584418955
 20
0.3881230612574149
 30
0.0
 11
14.86427628093921
 21
1.186603498007082
 31
0.0
  0
LINE
  5
BC85
330
BC67
100
AcDbEntity
  8
0
  6
CONTINUOUS
100
AcDbLine
 10
14.26537659496467
 20
-0.0858153970476412
 30
0.0
 11
14.45839043274005
 21
0.1071984407277329
 31
0.0
  0
LINE
  5
BC86
330
BC67
100
AcDbEntity
  8
0
  6
CONTINUOUS
100
AcDbLine
 10
17.18480263566856
 20
3.507129852736426
 30
0.0
 11
18.15958664855496
 21
4.481913865622833
 31
0.0
  0
LINE
  5
BC87
330
BC67
100
AcDbEntity
  8
0
  6
CONTINUOUS
100
AcDbLine
 10
17.3687926667615
 20
3.017600674749186
 30
0.0
 11
18.34361581961842
 21
3.9924238276061
 31
0.0
  0
LINE
  5
BC88
330
BC67
100
AcDbEntity
  8
0
  6
CONTINUOUS
100
AcDbLine
 10
19.76440170834832
 20
6.086728925416191
 30
0.0
 11
22.33924590259489
 21
8.661573119662755
 31
0.0
  0
LINE
  5
BC89
330
BC67
100
AcDbEntity
  8
0
  6
CONTINUOUS
100
AcDbLine
 10
19.27479084494887
 20
4.923598852936555
 30
0.0
 11
21.84929622842713
 21
7.498104236414807
 31
0.0
  0
LINE
  5
BC8A
330
BC67
100
AcDbEntity
  8
0
  6
CONTINUOUS
100
AcDbLine
 10
17.55278269785445
 20
2.528071496761945
 30
0.0
 11
18.52764499068187
 21
3.502933789589366
 31
0.0
  0
LINE
  5
BC8B
330
BC67
100
AcDbEntity
  8
0
  6
CONTINUOUS
100
AcDbLine
 10
18.78517998154942
 20
3.760468780456919
 30
0.0
 11
21.35934655425936
 21
6.33463535316686
 31
0.0
  0
LINE
  5
BC8C
330
BC67
100
AcDbEntity
  8
0
  6
CONTINUOUS
100
AcDbLine
 10
17.73677272894739
 20
2.038542318774704
 30
0.0
 11
20.8693968800916
 21
5.171166469918914
 31
0.0
  0
LINE
  5
BC8D
330
BC67
100
AcDbEntity
  8
0
  6
CONTINUOUS
100
AcDbLine
 10
17.92076276004034
 20
1.549013140787464
 30
0.0
 11
20.37944720592384
 21
4.007697586670968
 31
0.0
  0
LINE
  5
BC8E
330
BC67
100
AcDbEntity
  8
0
  6
CONTINUOUS
100
AcDbLine
 10
18.10475279113329
 20
1.059483962800223
 30
0.0
 11
19.88949753175608
 21
2.84422870342302
 31
0.0
  0
LINE
  5
BC8F
330
BC67
100
AcDbEntity
  8
0
  6
CONTINUOUS
100
AcDbLine
 10
18.28874282222623
 20
0.5699547848129822
 30
0.0
 11
19.39954785758832
 21
1.680759820175074
 31
0.0
  0
LINE
  5
BC90
330
BC67
100
AcDbEntity
  8
0
  6
CONTINUOUS
100
AcDbLine
 10
18.47273285331918
 20
0.0804256068257416
 30
0.0
 11
18.90959818342056
 21
0.517290936927127
 31
0.0
  0
LINE
  5
BC91
330
BC67
100
AcDbEntity
  8
0
  6
CONTINUOUS
100
AcDbLine
 10
14.3590401358224
 20
-0.1570118376323384
 30
0.0
 11
14.24903296539946
 21
-0.0470046672093929
 31
0.0
  0
LINE
  5
BC92
330
BC67
100
AcDbEntity
  8
0
  6
CONTINUOUS
100
AcDbLine
 10
14.54309291258661
 20
0.332454594683643
 30
0.0
 11
13.75908329123172
 21
1.116464216038529
 31
0.0
  0
LINE
  5
BC93
330
BC67
100
AcDbEntity
  8
0
  6
CONTINUOUS
100
AcDbLine
 10
14.72714568935081
 20
0.8219210269996244
 30
0.0
 11
13.26913361706399
 21
2.27993309928645
 31
0.0
  0
LINE
  5
BC94
330
BC67
100
AcDbEntity
  8
0
  6
CONTINUOUS
100
AcDbLine
 10
14.91119846611502
 20
1.311387459315606
 30
0.0
 11
12.77918394289625
 21
3.443401982534371
 31
0.0
  0
LINE
  5
BC95
330
BC67
100
AcDbEntity
  8
0
  6
CONTINUOUS
100
AcDbLine
 10
15.09525124287922
 20
1.800853891631587
 30
0.0
 11
12.28923426872852
 21
4.606870865782293
 31
0.0
  0
LINE
  5
BC96
330
BC67
100
AcDbEntity
  8
0
  6
CONTINUOUS
100
AcDbLine
 10
15.27930401964343
 20
2.290320323947569
 30
0.0
 11
11.79928459456078
 21
5.770339749030213
 31
0.0
  0
LINE
  5
BC97
330
BC67
100
AcDbEntity
  8
0
  6
CONTINUOUS
100
AcDbLine
 10
15.46335679640763
 20
2.77978675626355
 30
0.0
 11
14.48885470994921
 21
3.754288842721972
 31
0.0
  0
LINE
  5
BC98
330
BC67
100
AcDbEntity
  8
0
  6
CONTINUOUS
100
AcDbLine
 10
13.88507249233704
 20
4.358071060334137
 30
0.0
 11
11.30933492039305
 21
6.933808632278135
 31
0.0
  0
LINE
  5
BC99
330
BC67
100
AcDbEntity
  8
0
  6
CONTINUOUS
100
AcDbLine
 10
18.75840522805855
 20
0.1582575336928151
 30
0.0
 11
18.25383727664818
 21
0.6628254851031863
 31
0.0
  0
LINE
  5
BC9A
330
BC67
100
AcDbEntity
  8
0
  6
CONTINUOUS
100
AcDbLine
 10
15.64740957317184
 20
3.269253188579531
 30
0.0
 11
14.67288388101266
 21
4.243778880738705
 31
0.0
  0
LINE
  5
BC9B
330
BC67
100
AcDbEntity
  8
0
  6
CONTINUOUS
100
AcDbLine
 10
13.39509276772158
 20
5.521569994029786
 30
0.0
 11
10.81938524622531
 21
8.097277515526056
 31
0.0
  0
LINE
  5
BC9C
330
BC67
100
AcDbEntity
  8
0
  6
CONTINUOUS
100
AcDbLine
 10
18.95798597883369
 20
0.6321959919978686
 30
0.0
 11
17.84825644852853
 21
1.741925522303024
 31
0.0
  0
LINE
  5
BC9D
330
BC67
100
AcDbEntity
  8
0
  6
CONTINUOUS
100
AcDbLine
 10
19.15756672960882
 20
1.106134450302922
 30
0.0
 11
17.44267562040888
 21
2.821025559502861
 31
0.0
  0
LINE
  5
BC9E
330
BC67
100
AcDbEntity
  8
0
  6
CONTINUOUS
100
AcDbLine
 10
15.83146234993604
 20
3.758719620895513
 30
0.0
 11
14.85691305207612
 21
4.733268918755439
 31
0.0
  0
LINE
  5
BC9F
330
BC67
100
AcDbEntity
  8
0
  6
CONTINUOUS
100
AcDbLine
 10
16.01551512670025
 20
4.248186053211494
 30
0.0
 11
15.04094222313957
 21
5.222758956772172
 31
0.0
  0
LINE
  5
BCA0
330
BC67
100
AcDbEntity
  8
0
  6
CONTINUOUS
100
AcDbLine
 10
12.90511304310612
 20
6.685068927725435
 30
0.0
 11
10.8270819708403
 21
8.763099999991255
 31
0.0
  0
LINE
  5
BCA1
330
BC67
100
AcDbEntity
  8
0
  6
CONTINUOUS
100
AcDbLine
 10
12.41513331849066
 20
7.848567861421083
 30
0.0
 11
11.50060117992049
 21
8.763099999991255
 31
0.0
  0
LINE
  5
BCA2
330
BC67
100
AcDbEntity
  8
0
  6
CONTINUOUS
100
AcDbLine
 10
19.35714748038395
 20
1.580072908607975
 30
0.0
 11
17.03709479228923
 21
3.900125596702697
 31
0.0
  0
LINE
  5
BCA3
330
BC67
100
AcDbEntity
  8
0
  6
CONTINUOUS
100
AcDbLine
 10
19.55672823115909
 20
2.054011366913028
 30
0.0
 11
16.63151396416958
 21
4.979225633902534
 31
0.0
  0
LINE
  5
BCA4
330
BC67
100
AcDbEntity
  8
0
  6
CONTINUOUS
100
AcDbLine
 10
16.19956790346445
 20
4.737652485527476
 30
0.0
 11
15.22497139420302
 21
5.712248994788904
 31
0.0
  0
LINE
  5
BCA5
330
BC67
100
AcDbEntity
  8
0
  6
CONTINUOUS
100
AcDbLine
 10
16.38362068022866
 20
5.227118917843457
 30
0.0
 11
15.40900056526648
 21
6.201739032805637
 31
0.0
  0
LINE
  5
BCA6
330
BC67
100
AcDbEntity
  8
0
  6
CONTINUOUS
100
AcDbLine
 10
19.75630898193422
 20
2.527949825218081
 30
0.0
 11
18.70774536448286
 21
3.576513442669441
 31
0.0
  0
LINE
  5
BCA7
330
BC67
100
AcDbEntity
  8
0
  6
CONTINUOUS
100
AcDbLine
 10
19.95588973270936
 20
3.001888283523134
 30
0.0
 11
18.90726987211446
 21
4.050508144118028
 31
0.0
  0
LINE
  5
BCA8
330
BC67
100
AcDbEntity
  8
0
  6
CONTINUOUS
100
AcDbLine
 10
20.15547048348449
 20
3.475826741828186
 30
0.0
 11
19.10679437974606
 21
4.524502845566614
 31
0.0
  0
LINE
  5
BCA9
330
BC67
100
AcDbEntity
  8
0
  6
CONTINUOUS
100
AcDbLine
 10
20.35505123425962
 20
3.94976520013324
 30
0.0
 11
19.30631888737766
 21
4.998497547015201
 31
0.0
  0
LINE
  5
BCAA
330
BC67
100
AcDbEntity
  8
0
  6
CONTINUOUS
100
AcDbLine
 10
20.55463198503475
 20
4.423703658438292
 30
0.0
 11
19.50584339500926
 21
5.472492248463787
 31
0.0
  0
LINE
  5
BCAB
330
BC67
100
AcDbEntity
  8
0
  6
CONTINUOUS
100
AcDbLine
 10
18.37481191085755
 20
3.909446896294752
 30
0.0
 11
15.59302973632993
 21
6.691229070822371
 31
0.0
  0
LINE
  5
BCAC
330
BC67
100
AcDbEntity
  8
0
  6
CONTINUOUS
100
AcDbLine
 10
17.96904084440766
 20
4.988737171824825
 30
0.0
 11
15.77705890739338
 21
7.180719108839104
 31
0.0
  0
LINE
  5
BCAD
330
BC67
100
AcDbEntity
  8
0
  6
CONTINUOUS
100
AcDbLine
 10
17.56326977795777
 20
6.068027447354899
 30
0.0
 11
15.96108807845684
 21
7.670209146855838
 31
0.0
  0
LINE
  5
BCAE
330
BC67
100
AcDbEntity
  8
0
  6
CONTINUOUS
100
AcDbLine
 10
17.15749871150789
 20
7.147317722884972
 30
0.0
 11
16.14511724952029
 21
8.15969918487257
 31
0.0
  0
LINE
  5
BCAF
330
BC67
100
AcDbEntity
  8
0
  6
CONTINUOUS
100
AcDbLine
 10
16.751727645058
 20
8.226607998415046
 30
0.0
 11
16.32914642058374
 21
8.649189222889303
 31
0.0
  0
LINE
  5
BCB0
330
BC67
100
AcDbEntity
  8
0
  6
CONTINUOUS
100
AcDbLine
 10
20.75421273580989
 20
4.897642116743345
 30
0.0
 11
19.70536790264086
 21
5.946486949912374
 31
0.0
  0
LINE
  5
BCB1
330
BC67
100
AcDbEntity
  8
0
  6
CONTINUOUS
100
AcDbLine
 10
20.95379348658502
 20
5.371580575048398
 30
0.0
 11
19.90489241027246
 21
6.42048165136096
 31
0.0
  0
LINE
  5
BCB2
330
BC67
100
AcDbEntity
  8
0
  6
CONTINUOUS
100
AcDbLine
 10
21.15337423736015
 20
5.845519033353452
 30
0.0
 11
20.10441691790406
 21
6.894476352809547
 31
0.0
  0
LINE
  5
BCB3
330
BC67
100
AcDbEntity
  8
0
  6
CONTINUOUS
100
AcDbLine
 10
21.35295498813529
 20
6.319457491658505
 30
0.0
 11
20.30394142553566
 21
7.368471054258134
 31
0.0
  0
LINE
  5
BCB4
330
BC67
100
AcDbEntity
  8
0
  6
CONTINUOUS
100
AcDbLine
 10
21.55253573891042
 20
6.793395949963558
 30
0.0
 11
20.50346593316726
 21
7.842465755706721
 31
0.0
  0
LINE
  5
BCB5
330
BC67
100
AcDbEntity
  8
0
  6
CONTINUOUS
100
AcDbLine
 10
21.75211648968556
 20
7.267334408268612
 30
0.0
 11
20.70299044079886
 21
8.316460457155308
 31
0.0
  0
LINE
  5
BCB6
330
BC67
100
AcDbEntity
  8
0
  6
CONTINUOUS
100
AcDbLine
 10
21.95169724046069
 20
7.741272866573663
 30
0.0
 11
20.9298701070431
 21
8.763099999991256
 31
0.0
  0
LINE
  5
BCB7
330
BC67
100
AcDbEntity
  8
0
  6
CONTINUOUS
100
AcDbLine
 10
22.15127799123582
 20
8.215211324878716
 30
0.0
 11
21.60338931612328
 21
8.763099999991256
 31
0.0
  0
LINE
  5
BCB8
330
BC67
100
AcDbEntity
  8
0
  6
CONTINUOUS
100
AcDbLine
 10
22.35085874201096
 20
8.689149783183769
 30
0.0
 11
22.27690852520347
 21
8.763099999991255
 31
0.0
  0
ENDBLK
  5
BDAA
330
BC67
100
AcDbEntity
  8
0
100
AcDbBlockEnd
  0
BLOCK
  5
BDAB
330
BCB9
100
AcDbEntity
  8
0
100
AcDbBlockBegin
  2
*X29
 70
     1
 10
0.0
 20
0.0
 30
0.0
  3
*X29
  1

  0
LINE
  5
BCBA
330
BCB9
100
AcDbEntity
  8
0
  6
CONTINUOUS
100
AcDbLine
 10
23.19462913593892
 20
8.169917934846424
 30
0.0
 11
23.70775465517246
 21
8.683043454079957
 31
0.0
  0
LINE
  5
BCBB
330
BCB9
100
AcDbEntity
  8
0
  6
CONTINUOUS
100
AcDbLine
 10
22.64923161835078
 20
6.951001208178088
 30
0.0
 11
23.9159364069932
 21
8.217705996820516
 31
0.0
  0
LINE
  5
BCBC
330
BCB9
100
AcDbEntity
  8
0
  6
CONTINUOUS
100
AcDbLine
 10
22.10383410076263
 20
5.732084481509751
 30
0.0
 11
24.12411815881395
 21
7.752368539561078
 31
0.0
  0
LINE
  5
BCBD
330
BCB9
100
AcDbEntity
  8
0
  6
CONTINUOUS
100
AcDbLine
 10
21.55843658317447
 20
4.513167754841414
 30
0.0
 11
24.3322999106347
 21
7.287031082301639
 31
0.0
  0
LINE
  5
BCBE
330
BCB9
100
AcDbEntity
  8
0
  6
CONTINUOUS
100
AcDbLine
 10
21.01303906558632
 20
3.294251028173077
 30
0.0
 11
24.54048166245544
 21
6.821693625042199
 31
0.0
  0
LINE
  5
BCBF
330
BCB9
100
AcDbEntity
  8
0
  6
CONTINUOUS
100
AcDbLine
 10
20.46764154799817
 20
2.075334301504738
 30
0.0
 11
23.28571549467848
 21
4.89340824818505
 31
0.0
  0
LINE
  5
BCC0
330
BCB9
100
AcDbEntity
  8
0
  6
CONTINUOUS
100
AcDbLine
 10
19.92224403041002
 20
0.8564175748364002
 30
0.0
 11
22.74075865492779
 21
3.674932199354171
 31
0.0
  0
LINE
  5
BCC1
330
BCB9
100
AcDbEntity
  8
0
  6
CONTINUOUS
100
AcDbLine
 10
23.67305085490148
 20
5.280743608408048
 30
0.0
 11
24.74866341427619
 21
6.356356167782759
 31
0.0
  0
LINE
  5
BCC2
330
BCB9
100
AcDbEntity
  8
0
  6
CONTINUOUS
100
AcDbLine
 10
23.88118970842314
 20
4.815363252849522
 30
0.0
 11
24.95684516609694
 21
5.89101871052332
 31
0.0
  0
LINE
  5
BCC3
330
BCB9
100
AcDbEntity
  8
0
  6
CONTINUOUS
100
AcDbLine
 10
19.73925852647308
 20
-0.0000871381807288
 30
0.0
 11
23.4103456646501
 21
3.670999999996297
 31
0.0
  0
LINE
  5
BCC4
330
BCB9
100
AcDbEntity
  8
0
  6
CONTINUOUS
100
AcDbLine
 10
24.0893285619448
 20
4.349982897290997
 30
0.0
 11
25.16502691791769
 21
5.42568125326388
 31
0.0
  0
LINE
  5
BCC5
330
BCB9
100
AcDbEntity
  8
0
  6
CONTINUOUS
100
AcDbLine
 10
20.41282099582748
 20
-0.0000438779065108
 30
0.0
 11
21.64944178675636
 21
1.236576913022366
 31
0.0
  0
LINE
  5
BCC6
330
BCB9
100
AcDbEntity
  8
0
  6
CONTINUOUS
100
AcDbLine
 10
22.78126487373161
 20
2.36839999999762
 30
0.0
 11
24.08386487373029
 21
3.670999999996297
 31
0.0
  0
LINE
  5
BCC7
330
BCB9
100
AcDbEntity
  8
0
  6
CONTINUOUS
100
AcDbLine
 10
24.29746741546646
 20
3.884602541732471
 30
0.0
 11
25.37320866973843
 21
4.960343796004441
 31
0.0
  0
LINE
  5
BCC8
330
BCB9
100
AcDbEntity
  8
0
  6
CONTINUOUS
100
AcDbLine
 10
21.08638346518189
 20
-0.0000006176322938
 30
0.0
 11
21.10379033335899
 21
0.0174062505448083
 31
0.0
  0
LINE
  5
BCC9
330
BCB9
100
AcDbEntity
  8
0
  6
CONTINUOUS
100
AcDbLine
 10
23.4547840828118
 20
2.36839999999762
 30
0.0
 11
25.58139042155918
 21
4.495006338745002
 31
0.0
  0
LINE
  5
BCCA
330
BCB9
100
AcDbEntity
  8
0
  6
CONTINUOUS
100
AcDbLine
 10
29.30199999996933
 20
8.215615917155148
 30
0.0
 11
29.84948408280543
 21
8.763099999991255
 31
0.0
  0
LINE
  5
BCCB
330
BCB9
100
AcDbEntity
  8
0
  6
CONTINUOUS
100
AcDbLine
 10
24.12830329189199
 20
2.36839999999762
 30
0.0
 11
25.78957217337993
 21
4.029668881485562
 31
0.0
  0
LINE
  5
BCCC
330
BCB9
100
AcDbEntity
  8
0
  6
CONTINUOUS
100
AcDbLine
 10
29.30199999996933
 20
7.54209670807496
 30
0.0
 11
30.52300329188562
 21
8.763099999991255
 31
0.0
  0
LINE
  5
BCCD
330
BCB9
100
AcDbEntity
  8
0
  6
CONTINUOUS
100
AcDbLine
 10
24.80182250097217
 20
2.36839999999762
 30
0.0
 11
25.99775392520067
 21
3.564331424226122
 31
0.0
  0
LINE
  5
BCCE
330
BCB9
100
AcDbEntity
  8
0
  6
CONTINUOUS
100
AcDbLine
 10
29.30199999996933
 20
6.868577498994774
 30
0.0
 11
30.74199999996926
 21
8.308577498994712
 31
0.0
  0
LINE
  5
BCCF
330
BCB9
100
AcDbEntity
  8
0
  6
CONTINUOUS
100
AcDbLine
 10
25.13028238392013
 20
2.023340673865392
 30
0.0
 11
26.20593567702142
 21
3.098993966966683
 31
0.0
  0
LINE
  5
BCD0
330
BCB9
100
AcDbEntity
  8
0
  6
CONTINUOUS
100
AcDbLine
 10
25.33838066033617
 20
1.557919741201244
 30
0.0
 11
26.41411742884217
 21
2.633656509707244
 31
0.0
  0
LINE
  5
BCD1
330
BCB9
100
AcDbEntity
  8
0
  6
CONTINUOUS
100
AcDbLine
 10
25.54647893675221
 20
1.092498808537098
 30
0.0
 11
26.62229918066291
 21
2.168319052447804
 31
0.0
  0
LINE
  5
BCD2
330
BCB9
100
AcDbEntity
  8
0
  6
CONTINUOUS
100
AcDbLine
 10
25.75457721316825
 20
0.62707787587295
 30
0.0
 11
26.83048093248366
 21
1.702981595188365
 31
0.0
  0
LINE
  5
BCD3
330
BCB9
100
AcDbEntity
  8
0
  6
CONTINUOUS
100
AcDbLine
 10
29.30199999996933
 20
6.195058289914587
 30
0.0
 11
30.74199999996926
 21
7.635058289914522
 31
0.0
  0
LINE
  5
BCD4
330
BCB9
100
AcDbEntity
  8
0
  6
CONTINUOUS
100
AcDbLine
 10
29.30199999996933
 20
5.521539080834401
 30
0.0
 11
30.74199999996926
 21
6.961539080834331
 31
0.0
  0
LINE
  5
BCD5
330
BCB9
100
AcDbEntity
  8
0
  6
CONTINUOUS
100
AcDbLine
 10
29.30199999996933
 20
4.848019871754214
 30
0.0
 11
30.74199999996925
 21
6.288019871754143
 31
0.0
  0
LINE
  5
BCD6
330
BCB9
100
AcDbEntity
  8
0
  6
CONTINUOUS
100
AcDbLine
 10
29.30199999996933
 20
4.174500662674028
 30
0.0
 11
30.74199999996925
 21
5.614500662673953
 31
0.0
  0
LINE
  5
BCD7
330
BCB9
100
AcDbEntity
  8
0
  6
CONTINUOUS
100
AcDbLine
 10
25.96267548958429
 20
0.1616569432088024
 30
0.0
 11
27.18411854636669
 21
1.383099999991207
 31
0.0
  0
LINE
  5
BCD8
330
BCB9
100
AcDbEntity
  8
0
  6
CONTINUOUS
100
AcDbLine
 10
29.30199999996933
 20
3.500981453593841
 30
0.0
 11
30.74199999996925
 21
4.940981453593762
 31
0.0
  0
LINE
  5
BCD9
330
BCB9
100
AcDbEntity
  8
0
  6
CONTINUOUS
100
AcDbLine
 10
26.50763775544691
 20
0.0330999999912356
 30
0.0
 11
27.85763775544689
 21
1.383099999991223
 31
0.0
  0
LINE
  5
BCDA
330
BCB9
100
AcDbEntity
  8
0
  6
CONTINUOUS
100
AcDbLine
 10
29.30199999996933
 20
2.827462244513656
 30
0.0
 11
30.74199999996925
 21
4.267462244513574
 31
0.0
  0
LINE
  5
BCDB
330
BCB9
100
AcDbEntity
  8
0
  6
CONTINUOUS
100
AcDbLine
 10
27.18115696452709
 20
0.0330999999912356
 30
0.0
 11
28.55073879889363
 21
1.402681834357775
 31
0.0
  0
LINE
  5
BCDC
330
BCB9
100
AcDbEntity
  8
0
  6
CONTINUOUS
100
AcDbLine
 10
29.28241816560272
 20
2.134361201066866
 30
0.0
 11
30.74199999996924
 21
3.593943035433383
 31
0.0
  0
LINE
  5
BCDD
330
BCB9
100
AcDbEntity
  8
0
  6
CONTINUOUS
100
AcDbLine
 10
27.85467617360728
 20
0.0330999999912356
 30
0.0
 11
30.74199999996924
 21
2.920423826353195
 31
0.0
  0
LINE
  5
BCDE
330
BCB9
100
AcDbEntity
  8
0
  6
CONTINUOUS
100
AcDbLine
 10
28.53897559587887
 20
0.0438802131826428
 30
0.0
 11
30.73121978677781
 21
2.236124404081585
 31
0.0
  0
LINE
  5
BCDF
330
BCB9
100
AcDbEntity
  8
0
  6
CONTINUOUS
100
AcDbLine
 10
29.45140055588722
 20
0.2827859641107988
 30
0.0
 11
30.49231403584965
 21
1.323699444073236
 31
0.0
  0
LINE
  5
BCE0
330
BCB9
100
AcDbEntity
  8
0
  6
CONTINUOUS
100
AcDbLine
 10
19.59027867740337
 20
-0.0000967065718083
 30
0.0
 11
19.55485265190471
 21
0.035329318926844
 31
0.0
  0
LINE
  5
BCE1
330
BCB9
100
AcDbEntity
  8
0
  6
CONTINUOUS
100
AcDbLine
 10
20.26375463176586
 20
-0.0000534518541091
 30
0.0
 11
19.76305575737534
 21
0.5006454225364014
 31
0.0
  0
LINE
  5
BCE2
330
BCB9
100
AcDbEntity
  8
0
  6
CONTINUOUS
100
AcDbLine
 10
20.93723058612834
 20
-0.0000101971364099
 30
0.0
 11
19.97125886284597
 21
0.965961526145958
 31
0.0
  0
LINE
  5
BCE3
330
BCB9
100
AcDbEntity
  8
0
  6
CONTINUOUS
100
AcDbLine
 10
21.25514828313686
 20
0.355591314935257
 30
0.0
 11
20.1794619683166
 21
1.431277629755512
 31
0.0
  0
LINE
  5
BCE4
330
BCB9
100
AcDbEntity
  8
0
  6
CONTINUOUS
100
AcDbLine
 10
21.46338838394921
 20
0.8208704232030986
 30
0.0
 11
20.38766507378723
 21
1.896593733365069
 31
0.0
  0
LINE
  5
BCE5
330
BCB9
100
AcDbEntity
  8
0
  6
CONTINUOUS
100
AcDbLine
 10
21.67162848476155
 20
1.28614953147094
 30
0.0
 11
20.59586817925786
 21
2.361909836974626
 31
0.0
  0
LINE
  5
BCE6
330
BCB9
100
AcDbEntity
  8
0
  6
CONTINUOUS
100
AcDbLine
 10
21.8798685855739
 20
1.751428639738782
 30
0.0
 11
20.80407128472849
 21
2.827225940584183
 31
0.0
  0
LINE
  5
BCE7
330
BCB9
100
AcDbEntity
  8
0
  6
CONTINUOUS
100
AcDbLine
 10
22.08810868638624
 20
2.216707748006623
 30
0.0
 11
21.01227439019912
 21
3.292542044193739
 31
0.0
  0
LINE
  5
BCE8
330
BCB9
100
AcDbEntity
  8
0
  6
CONTINUOUS
100
AcDbLine
 10
22.60993564347543
 20
2.36839999999762
 30
0.0
 11
21.22047749566975
 21
3.757858147803296
 31
0.0
  0
LINE
  5
BCE9
330
BCB9
100
AcDbEntity
  8
0
  6
CONTINUOUS
100
AcDbLine
 10
23.28345485255561
 20
2.36839999999762
 30
0.0
 11
21.42868060114038
 21
4.223174251412853
 31
0.0
  0
LINE
  5
BCEA
330
BCB9
100
AcDbEntity
  8
0
  6
CONTINUOUS
100
AcDbLine
 10
26.29227406164219
 20
0.0330999999912356
 30
0.0
 11
25.80009199592872
 21
0.5252820657046957
 31
0.0
  0
LINE
  5
BCEB
330
BCB9
100
AcDbEntity
  8
0
  6
CONTINUOUS
100
AcDbLine
 10
23.9569740616358
 20
2.36839999999762
 30
0.0
 11
21.63688370661101
 21
4.688490355022409
 31
0.0
  0
LINE
  5
BCEC
330
BCB9
100
AcDbEntity
  8
0
  6
CONTINUOUS
100
AcDbLine
 10
26.96579327072237
 20
0.0330999999912356
 30
0.0
 11
25.2554132311971
 21
1.743480039516508
 31
0.0
  0
LINE
  5
BCED
330
BCB9
100
AcDbEntity
  8
0
  6
CONTINUOUS
100
AcDbLine
 10
24.63049327071599
 20
2.36839999999762
 30
0.0
 11
23.32789327071731
 21
3.670999999996297
 31
0.0
  0
LINE
  5
BCEE
330
BCB9
100
AcDbEntity
  8
0
  6
CONTINUOUS
100
AcDbLine
 10
22.92098674744635
 20
4.077906523267254
 30
0.0
 11
21.84508681208164
 21
5.153806458631966
 31
0.0
  0
LINE
  5
BCEF
330
BCB9
100
AcDbEntity
  8
0
  6
CONTINUOUS
100
AcDbLine
 10
27.63931247980256
 20
0.0330999999912356
 30
0.0
 11
24.0014124797975
 21
3.670999999996297
 31
0.0
  0
LINE
  5
BCF0
330
BCB9
100
AcDbEntity
  8
0
  6
CONTINUOUS
100
AcDbLine
 10
23.129125600968
 20
4.5432868788258
 30
0.0
 11
22.05328991755227
 21
5.619122562241522
 31
0.0
  0
LINE
  5
BCF1
330
BCB9
100
AcDbEntity
  8
0
  6
CONTINUOUS
100
AcDbLine
 10
28.31283168888275
 20
0.0330999999912356
 30
0.0
 11
24.16488385994816
 21
4.181047828925828
 31
0.0
  0
LINE
  5
BCF2
330
BCB9
100
AcDbEntity
  8
0
  6
CONTINUOUS
100
AcDbLine
 10
23.33726445448964
 20
5.008667234384345
 30
0.0
 11
22.2614930230229
 21
6.084438665851079
 31
0.0
  0
LINE
  5
BCF3
330
BCB9
100
AcDbEntity
  8
0
  6
CONTINUOUS
100
AcDbLine
 10
28.92085740005492
 20
0.0985934978992438
 30
0.0
 11
27.63635089796295
 21
1.383099999991217
 31
0.0
  0
LINE
  5
BCF4
330
BCB9
100
AcDbEntity
  8
0
  6
CONTINUOUS
100
AcDbLine
 10
26.43704649509776
 20
2.582404402856405
 30
0.0
 11
23.61992702019732
 21
5.399523877756844
 31
0.0
  0
LINE
  5
BCF5
330
BCB9
100
AcDbEntity
  8
0
  6
CONTINUOUS
100
AcDbLine
 10
23.54540330801128
 20
5.47404758994289
 30
0.0
 11
22.46969612849353
 21
6.549754769460635
 31
0.0
  0
LINE
  5
BCF6
330
BCB9
100
AcDbEntity
  8
0
  6
CONTINUOUS
100
AcDbLine
 10
29.42225615078443
 20
0.2707139562499279
 30
0.0
 11
28.30987010704312
 21
1.383099999991234
 31
0.0
  0
LINE
  5
BCF7
330
BCB9
100
AcDbEntity
  8
0
  6
CONTINUOUS
100
AcDbLine
 10
25.89179548232307
 20
3.801174624711282
 30
0.0
 11
22.67789923396416
 21
7.015070873070191
 31
0.0
  0
LINE
  5
BCF8
330
BCB9
100
AcDbEntity
  8
0
  6
CONTINUOUS
100
AcDbLine
 10
29.83624534690007
 20
0.5302439692144705
 30
0.0
 11
28.85811781497101
 21
1.508371501143527
 31
0.0
  0
LINE
  5
BCF9
330
BCB9
100
AcDbEntity
  8
0
  6
CONTINUOUS
100
AcDbLine
 10
25.34654446954838
 20
5.01994484656616
 30
0.0
 11
22.88610233943479
 21
7.480386976679748
 31
0.0
  0
LINE
  5
BCFA
330
BCB9
100
AcDbEntity
  8
0
  6
CONTINUOUS
100
AcDbLine
 10
30.17865975401872
 20
0.8613487711760022
 30
0.0
 11
29.18888744090175
 21
1.851121084292977
 31
0.0
  0
LINE
  5
BCFB
330
BCB9
100
AcDbEntity
  8
0
  6
CONTINUOUS
100
AcDbLine
 10
24.80129345677369
 20
6.238715068421037
 30
0.0
 11
23.09430544490542
 21
7.945703080289305
 31
0.0
  0
LINE
  5
BCFC
330
BCB9
100
AcDbEntity
  8
0
  6
CONTINUOUS
100
AcDbLine
 10
30.45496647202376
 20
1.258561262251155
 30
0.0
 11
29.30199999996933
 21
2.411527734305588
 31
0.0
  0
LINE
  5
BCFD
330
BCB9
100
AcDbEntity
  8
0
  6
CONTINUOUS
100
AcDbLine
 10
24.256042443999
 20
7.457485290275915
 30
0.0
 11
23.30250855037605
 21
8.411019183898862
 31
0.0
  0
LINE
  5
BCFE
330
BCB9
100
AcDbEntity
  8
0
  6
CONTINUOUS
100
AcDbLine
 10
30.64868582078271
 20
1.738361122572387
 30
0.0
 11
29.30199999996933
 21
3.085046943385775
 31
0.0
  0
LINE
  5
BCFF
330
BCB9
100
AcDbEntity
  8
0
  6
CONTINUOUS
100
AcDbLine
 10
23.71079143122431
 20
8.676255512130794
 30
0.0
 11
23.51071165584668
 21
8.876335287508416
 31
0.0
  0
LINE
  5
BD00
330
BCB9
100
AcDbEntity
  8
0
  6
CONTINUOUS
100
AcDbLine
 10
30.73802122914428
 20
2.322544923291007
 30
0.0
 11
29.30199999996933
 21
3.758566152465961
 31
0.0
  0
LINE
  5
BD01
330
BCB9
100
AcDbEntity
  8
0
  6
CONTINUOUS
100
AcDbLine
 10
30.74199999996924
 20
2.992085361546236
 30
0.0
 11
29.30199999996933
 21
4.432085361546148
 31
0.0
  0
LINE
  5
BD02
330
BCB9
100
AcDbEntity
  8
0
  6
CONTINUOUS
100
AcDbLine
 10
30.74199999996924
 20
3.665604570626419
 30
0.0
 11
29.30199999996933
 21
5.105604570626333
 31
0.0
  0
LINE
  5
BD03
330
BCB9
100
AcDbEntity
  8
0
  6
CONTINUOUS
100
AcDbLine
 10
30.74199999996925
 20
4.339123779706602
 30
0.0
 11
29.30199999996933
 21
5.77912377970652
 31
0.0
  0
LINE
  5
BD04
330
BCB9
100
AcDbEntity
  8
0
  6
CONTINUOUS
100
AcDbLine
 10
30.74199999996925
 20
5.012642988786785
 30
0.0
 11
29.30199999996933
 21
6.452642988786707
 31
0.0
  0
LINE
  5
BD05
330
BCB9
100
AcDbEntity
  8
0
  6
CONTINUOUS
100
AcDbLine
 10
30.74199999996925
 20
5.68616219786697
 30
0.0
 11
29.30199999996933
 21
7.126162197866894
 31
0.0
  0
LINE
  5
BD06
330
BCB9
100
AcDbEntity
  8
0
  6
CONTINUOUS
100
AcDbLine
 10
30.74199999996925
 20
6.359681406947153
 30
0.0
 11
29.30199999996933
 21
7.799681406947081
 31
0.0
  0
LINE
  5
BD07
330
BCB9
100
AcDbEntity
  8
0
  6
CONTINUOUS
100
AcDbLine
 10
30.74199999996926
 20
7.033200616027337
 30
0.0
 11
29.30199999996933
 21
8.473200616027269
 31
0.0
  0
LINE
  5
BD08
330
BCB9
100
AcDbEntity
  8
0
  6
CONTINUOUS
100
AcDbLine
 10
30.74199999996926
 20
7.706719825107518
 30
0.0
 11
29.68561982508552
 21
8.763099999991255
 31
0.0
  0
LINE
  5
BD09
330
BCB9
100
AcDbEntity
  8
0
  6
CONTINUOUS
100
AcDbLine
 10
30.74199999996926
 20
8.380239034187703
 30
0.0
 11
30.35913903416571
 21
8.763099999991255
 31
0.0
  0
ENDBLK
  5
BDAC
330
BCB9
100
AcDbEntity
  8
0
100
AcDbBlockEnd
  0
BLOCK
  5
BDAD
330
BD0A
100
AcDbEntity
  8
0
100
AcDbBlockBegin
  2
*X30
 70
     1
 10
0.0
 20
0.0
 30
0.0
  3
*X30
  1

  0
LINE
  5
BD0B
330
BD0A
100
AcDbEntity
  8
0
  6
CONTINUOUS
100
AcDbLine
 10
31.64199999996833
 20
8.535058289913598
 30
0.0
 11
31.87004171004599
 21
8.763099999991255
 31
0.0
  0
LINE
  5
BD0C
330
BD0A
100
AcDbEntity
  8
0
  6
CONTINUOUS
100
AcDbLine
 10
31.64199999996833
 20
7.861539080833412
 30
0.0
 11
32.54356091912618
 21
8.763099999991255
 31
0.0
  0
LINE
  5
BD0D
330
BD0A
100
AcDbEntity
  8
0
  6
CONTINUOUS
100
AcDbLine
 10
31.64199999996833
 20
7.188019871753226
 30
0.0
 11
33.08199999996839
 21
8.628019871753281
 31
0.0
  0
LINE
  5
BD0E
330
BD0A
100
AcDbEntity
  8
0
  6
CONTINUOUS
100
AcDbLine
 10
31.64199999996833
 20
6.51450066267304
 30
0.0
 11
33.08199999996839
 21
7.954500662673095
 31
0.0
  0
LINE
  5
BD0F
330
BD0A
100
AcDbEntity
  8
0
  6
CONTINUOUS
100
AcDbLine
 10
31.64199999996833
 20
5.840981453592853
 30
0.0
 11
33.08199999996839
 21
7.280981453592908
 31
0.0
  0
LINE
  5
BD10
330
BD0A
100
AcDbEntity
  8
0
  6
CONTINUOUS
100
AcDbLine
 10
31.64199999996833
 20
5.167462244512667
 30
0.0
 11
33.08199999996839
 21
6.607462244512721
 31
0.0
  0
LINE
  5
BD11
330
BD0A
100
AcDbEntity
  8
0
  6
CONTINUOUS
100
AcDbLine
 10
31.64199999996833
 20
4.493943035432481
 30
0.0
 11
33.08199999996839
 21
5.933943035432535
 31
0.0
  0
LINE
  5
BD12
330
BD0A
100
AcDbEntity
  8
0
  6
CONTINUOUS
100
AcDbLine
 10
31.64199999996833
 20
3.820423826352293
 30
0.0
 11
33.08199999996839
 21
5.260423826352348
 31
0.0
  0
LINE
  5
BD13
330
BD0A
100
AcDbEntity
  8
0
  6
CONTINUOUS
100
AcDbLine
 10
31.64199999996833
 20
3.146904617272106
 30
0.0
 11
33.08199999996839
 21
4.586904617272161
 31
0.0
  0
LINE
  5
BD14
330
BD0A
100
AcDbEntity
  8
0
  6
CONTINUOUS
100
AcDbLine
 10
36.23199999996837
 20
8.410423826352325
 30
0.0
 11
36.5846761736073
 21
8.763099999991255
 31
0.0
  0
LINE
  5
BD15
330
BD0A
100
AcDbEntity
  8
0
  6
CONTINUOUS
100
AcDbLine
 10
36.23199999996837
 20
7.73690461727214
 30
0.0
 11
37.25819538268748
 21
8.763099999991255
 31
0.0
  0
LINE
  5
BD16
330
BD0A
100
AcDbEntity
  8
0
  6
CONTINUOUS
100
AcDbLine
 10
31.64257403601376
 20
2.473959444237348
 30
0.0
 11
33.08199999996839
 21
3.913385408191974
 31
0.0
  0
LINE
  5
BD17
330
BD0A
100
AcDbEntity
  8
0
  6
CONTINUOUS
100
AcDbLine
 10
36.23199999996837
 20
7.063385408191953
 30
0.0
 11
37.67199999996831
 21
8.503385408191894
 31
0.0
  0
LINE
  5
BD18
330
BD0A
100
AcDbEntity
  8
0
  6
CONTINUOUS
100
AcDbLine
 10
31.72013636841932
 20
1.87800256756272
 30
0.0
 11
33.08199999996839
 21
3.239866199111788
 31
0.0
  0
LINE
  5
BD19
330
BD0A
100
AcDbEntity
  8
0
  6
CONTINUOUS
100
AcDbLine
 10
36.23199999996837
 20
6.389866199111767
 30
0.0
 11
37.67199999996831
 21
7.829866199111708
 31
0.0
  0
LINE
  5
BD1A
330
BD0A
100
AcDbEntity
  8
0
  6
CONTINUOUS
100
AcDbLine
 10
31.89042734314753
 20
1.374774333210744
 30
0.0
 11
33.08199999996839
 21
2.566346990031601
 31
0.0
  0
LINE
  5
BD1B
330
BD0A
100
AcDbEntity
  8
0
  6
CONTINUOUS
100
AcDbLine
 10
36.23199999996837
 20
5.71634699003158
 30
0.0
 11
37.67199999996831
 21
7.156346990031521
 31
0.0
  0
LINE
  5
BD1C
330
BD0A
100
AcDbEntity
  8
0
  6
CONTINUOUS
100
AcDbLine
 10
32.14210568064475
 20
0.952933461627778
 30
0.0
 11
33.18745552475986
 21
1.998283305742888
 31
0.0
  0
LINE
  5
BD1D
330
BD0A
100
AcDbEntity
  8
0
  6
CONTINUOUS
100
AcDbLine
 10
36.23199999996837
 20
5.042827780951393
 30
0.0
 11
37.67199999996831
 21
6.482827780951334
 31
0.0
  0
LINE
  5
BD1E
330
BD0A
100
AcDbEntity
  8
0
  6
CONTINUOUS
100
AcDbLine
 10
32.45820639400955
 20
0.5955149659123915
 30
0.0
 11
33.47242681921943
 21
1.60973539112227
 31
0.0
  0
LINE
  5
BD1F
330
BD0A
100
AcDbEntity
  8
0
  6
CONTINUOUS
100
AcDbLine
 10
36.23199999996837
 20
4.369308571871207
 30
0.0
 11
37.67199999996831
 21
5.809308571871147
 31
0.0
  0
LINE
  5
BD20
330
BD0A
100
AcDbEntity
  8
0
  6
CONTINUOUS
100
AcDbLine
 10
32.83432456621412
 20
0.2981139290367771
 30
0.0
 11
33.89722476612215
 21
1.361014128944803
 31
0.0
  0
LINE
  5
BD21
330
BD0A
100
AcDbEntity
  8
0
  6
CONTINUOUS
100
AcDbLine
 10
36.23199999996837
 20
3.69578936279102
 30
0.0
 11
37.67199999996831
 21
5.135789362790962
 31
0.0
  0
LINE
  5
BD22
330
BD0A
100
AcDbEntity
  8
0
  6
CONTINUOUS
100
AcDbLine
 10
33.2711633111245
 20
0.0614334648669672
 30
0.0
 11
34.43247338014423
 21
1.222743533886696
 31
0.0
  0
LINE
  5
BD23
330
BD0A
100
AcDbEntity
  8
0
  6
CONTINUOUS
100
AcDbLine
 10
36.23199999996837
 20
3.022270153710834
 30
0.0
 11
37.67199999996831
 21
4.462270153710775
 31
0.0
  0
LINE
  5
BD24
330
BD0A
100
AcDbEntity
  8
0
  6
CONTINUOUS
100
AcDbLine
 10
33.76515245874577
 20
-0.1180965965919523
 30
0.0
 11
35.1587445516215
 21
1.27549549628378
 31
0.0
  0
LINE
  5
BD25
330
BD0A
100
AcDbEntity
  8
0
  6
CONTINUOUS
100
AcDbLine
 10
36.21639478609585
 20
2.333145730758136
 30
0.0
 11
37.67199999996831
 21
3.788750944630588
 31
0.0
  0
LINE
  5
BD26
330
BD0A
100
AcDbEntity
  8
0
  6
CONTINUOUS
100
AcDbLine
 10
34.34060583368432
 20
-0.2161624307335863
 30
0.0
 11
37.67199999996831
 21
3.115231735550401
 31
0.0
  0
LINE
  5
BD27
330
BD0A
100
AcDbEntity
  8
0
  6
CONTINUOUS
100
AcDbLine
 10
35.01698193613905
 20
-0.2133055373590427
 30
0.0
 11
37.66876712070525
 21
2.438479647207154
 31
0.0
  0
LINE
  5
BD28
330
BD0A
100
AcDbEntity
  8
0
  6
CONTINUOUS
100
AcDbLine
 10
35.90743367693304
 20
0.0036269943547609
 30
0.0
 11
37.51723902192366
 21
1.613432339345381
 31
0.0
  0
LINE
  5
BD29
330
BD0A
100
AcDbEntity
  8
0
  6
CONTINUOUS
100
AcDbLine
 10
32.55309425579761
 20
0.5074718966376706
 30
0.0
 11
32.27784730925847
 21
0.7827188431768102
 31
0.0
  0
LINE
  5
BD2A
330
BD0A
100
AcDbEntity
  8
0
  6
CONTINUOUS
100
AcDbLine
 10
33.87496468909684
 20
-0.1408793275813673
 30
0.0
 11
31.67993083278052
 21
2.054154528734943
 31
0.0
  0
LINE
  5
BD2B
330
BD0A
100
AcDbEntity
  8
0
  6
CONTINUOUS
100
AcDbLine
 10
34.64362813207632
 20
-0.2360235614806649
 30
0.0
 11
31.64199999996833
 21
2.765604570627322
 31
0.0
  0
LINE
  5
BD2C
330
BD0A
100
AcDbEntity
  8
0
  6
CONTINUOUS
100
AcDbLine
 10
35.25801106796118
 20
-0.1768872882853429
 30
0.0
 11
31.64199999996833
 21
3.439123779707508
 31
0.0
  0
LINE
  5
BD2D
330
BD0A
100
AcDbEntity
  8
0
  6
CONTINUOUS
100
AcDbLine
 10
35.79065650332146
 20
-0.0360135145654361
 30
0.0
 11
34.54143210838231
 21
1.213210880373721
 31
0.0
  0
LINE
  5
BD2E
330
BD0A
100
AcDbEntity
  8
0
  6
CONTINUOUS
100
AcDbLine
 10
33.08199999996839
 20
2.67264298878764
 30
0.0
 11
31.64199999996833
 21
4.112642988787695
 31
0.0
  0
LINE
  5
BD2F
330
BD0A
100
AcDbEntity
  8
0
  6
CONTINUOUS
100
AcDbLine
 10
36.25975597779143
 20
0.1684062200447833
 30
0.0
 11
35.15395110240023
 21
1.274211095435983
 31
0.0
  0
LINE
  5
BD30
330
BD0A
100
AcDbEntity
  8
0
  6
CONTINUOUS
100
AcDbLine
 10
33.08199999996839
 20
3.346162197867826
 30
0.0
 11
31.64199999996833
 21
4.786162197867881
 31
0.0
  0
LINE
  5
BD31
330
BD0A
100
AcDbEntity
  8
0
  6
CONTINUOUS
100
AcDbLine
 10
36.67226329638774
 20
0.4294181105286579
 30
0.0
 11
35.63766478748767
 21
1.464016619428737
 31
0.0
  0
LINE
  5
BD32
330
BD0A
100
AcDbEntity
  8
0
  6
CONTINUOUS
100
AcDbLine
 10
33.08199999996839
 20
4.019681406948012
 30
0.0
 11
31.64199999996833
 21
5.459681406948068
 31
0.0
  0
LINE
  5
BD33
330
BD0A
100
AcDbEntity
  8
0
  6
CONTINUOUS
100
AcDbLine
 10
37.01677749710036
 20
0.7584231188962329
 30
0.0
 11
35.99563422741351
 21
1.779566388583076
 31
0.0
  0
LINE
  5
BD34
330
BD0A
100
AcDbEntity
  8
0
  6
CONTINUOUS
100
AcDbLine
 10
33.08199999996839
 20
4.693200616028199
 30
0.0
 11
31.64199999996833
 21
6.133200616028255
 31
0.0
  0
LINE
  5
BD35
330
BD0A
100
AcDbEntity
  8
0
  6
CONTINUOUS
100
AcDbLine
 10
37.29859977568887
 20
1.1501200493879
 30
0.0
 11
36.20680593341555
 21
2.241913891661226
 31
0.0
  0
LINE
  5
BD36
330
BD0A
100
AcDbEntity
  8
0
  6
CONTINUOUS
100
AcDbLine
 10
33.08199999996839
 20
5.366719825108386
 30
0.0
 11
31.64199999996833
 21
6.80671982510844
 31
0.0
  0
LINE
  5
BD37
330
BD0A
100
AcDbEntity
  8
0
  6
CONTINUOUS
100
AcDbLine
 10
37.5148623517228
 20
1.607376682434161
 30
0.0
 11
36.23199999996837
 21
2.890239034188594
 31
0.0
  0
LINE
  5
BD38
330
BD0A
100
AcDbEntity
  8
0
  6
CONTINUOUS
100
AcDbLine
 10
33.08199999996839
 20
6.040239034188573
 30
0.0
 11
31.64199999996833
 21
7.480239034188627
 31
0.0
  0
LINE
  5
BD39
330
BD0A
100
AcDbEntity
  8
0
  6
CONTINUOUS
100
AcDbLine
 10
37.64705163358367
 20
2.148706609653477
 30
0.0
 11
36.23199999996837
 21
3.56375824326878
 31
0.0
  0
LINE
  5
BD3A
330
BD0A
100
AcDbEntity
  8
0
  6
CONTINUOUS
100
AcDbLine
 10
33.08199999996839
 20
6.713758243268758
 30
0.0
 11
31.64199999996833
 21
8.153758243268815
 31
0.0
  0
LINE
  5
BD3B
330
BD0A
100
AcDbEntity
  8
0
  6
CONTINUOUS
100
AcDbLine
 10
37.67199999996831
 20
2.797277452349026
 30
0.0
 11
36.23199999996837
 21
4.237277452348967
 31
0.0
  0
LINE
  5
BD3C
330
BD0A
100
AcDbEntity
  8
0
  6
CONTINUOUS
100
AcDbLine
 10
37.67199999996831
 20
3.470796661429213
 30
0.0
 11
36.23199999996837
 21
4.910796661429154
 31
0.0
  0
LINE
  5
BD3D
330
BD0A
100
AcDbEntity
  8
0
  6
CONTINUOUS
100
AcDbLine
 10
37.67199999996831
 20
4.144315870509399
 30
0.0
 11
36.23199999996837
 21
5.58431587050934
 31
0.0
  0
LINE
  5
BD3E
330
BD0A
100
AcDbEntity
  8
0
  6
CONTINUOUS
100
AcDbLine
 10
33.08199999996839
 20
7.387277452348945
 30
0.0
 11
31.70617745232608
 21
8.763099999991255
 31
0.0
  0
LINE
  5
BD3F
330
BD0A
100
AcDbEntity
  8
0
  6
CONTINUOUS
100
AcDbLine
 10
33.08199999996839
 20
8.060796661429132
 30
0.0
 11
32.37969666140626
 21
8.763099999991255
 31
0.0
  0
LINE
  5
BD40
330
BD0A
100
AcDbEntity
  8
0
  6
CONTINUOUS
100
AcDbLine
 10
33.08199999996839
 20
8.734315870509318
 30
0.0
 11
33.05321587048645
 21
8.763099999991255
 31
0.0
  0
LINE
  5
BD41
330
BD0A
100
AcDbEntity
  8
0
  6
CONTINUOUS
100
AcDbLine
 10
37.67199999996831
 20
4.817835079589585
 30
0.0
 11
36.23199999996837
 21
6.257835079589526
 31
0.0
  0
LINE
  5
BD42
330
BD0A
100
AcDbEntity
  8
0
  6
CONTINUOUS
100
AcDbLine
 10
37.67199999996831
 20
5.491354288669771
 30
0.0
 11
36.23199999996837
 21
6.931354288669713
 31
0.0
  0
LINE
  5
BD43
330
BD0A
100
AcDbEntity
  8
0
  6
CONTINUOUS
100
AcDbLine
 10
37.67199999996831
 20
6.164873497749958
 30
0.0
 11
36.23199999996837
 21
7.6048734977499
 31
0.0
  0
LINE
  5
BD44
330
BD0A
100
AcDbEntity
  8
0
  6
CONTINUOUS
100
AcDbLine
 10
37.67199999996831
 20
6.838392706830144
 30
0.0
 11
36.23199999996837
 21
8.278392706830086
 31
0.0
  0
LINE
  5
BD45
330
BD0A
100
AcDbEntity
  8
0
  6
CONTINUOUS
100
AcDbLine
 10
37.67199999996831
 20
7.511911915910332
 30
0.0
 11
36.42081191588738
 21
8.763099999991255
 31
0.0
  0
LINE
  5
BD46
330
BD0A
100
AcDbEntity
  8
0
  6
CONTINUOUS
100
AcDbLine
 10
37.67199999996831
 20
8.185431124990519
 30
0.0
 11
37.09433112496757
 21
8.763099999991255
 31
0.0
  0
ENDBLK
  5
BDAE
330
BD0A
100
AcDbEntity
  8
0
100
AcDbBlockEnd
  0
BLOCK
  5
BDAF
330
BD47
100
AcDbEntity
  8
0
100
AcDbBlockBegin
  2
*X31
 70
     1
 10
0.0
 20
0.0
 30
0.0
  3
*X31
  1

  0
LINE
  5
BD48
330
BD47
100
AcDbEntity
  8
0
  6
CONTINUOUS
100
AcDbLine
 10
38.60499999996136
 20
8.762866199104765
 30
0.0
 11
38.71672554182345
 21
8.874591740966855
 31
0.0
  0
LINE
  5
BD49
330
BD47
100
AcDbEntity
  8
0
  6
CONTINUOUS
100
AcDbLine
 10
38.60499999996136
 20
8.089346990024577
 30
0.0
 11
39.03418785440363
 21
8.518534844466847
 31
0.0
  0
LINE
  5
BD4A
330
BD47
100
AcDbEntity
  8
0
  6
CONTINUOUS
100
AcDbLine
 10
38.60499999996136
 20
7.41582778094439
 30
0.0
 11
39.35165016698382
 21
8.16247794796684
 31
0.0
  0
LINE
  5
BD4B
330
BD47
100
AcDbEntity
  8
0
  6
CONTINUOUS
100
AcDbLine
 10
38.60499999996136
 20
6.742308571864204
 30
0.0
 11
39.66911247956399
 21
7.806421051466834
 31
0.0
  0
LINE
  5
BD4C
330
BD47
100
AcDbEntity
  8
0
  6
CONTINUOUS
100
AcDbLine
 10
38.60499999996136
 20
6.068789362784018
 30
0.0
 11
39.98657479214418
 21
7.450364154966827
 31
0.0
  0
LINE
  5
BD4D
330
BD47
100
AcDbEntity
  8
0
  6
CONTINUOUS
100
AcDbLine
 10
38.60499999996136
 20
5.395270153703832
 30
0.0
 11
40.30403710472435
 21
7.09430725846682
 31
0.0
  0
LINE
  5
BD4E
330
BD47
100
AcDbEntity
  8
0
  6
CONTINUOUS
100
AcDbLine
 10
38.60499999996136
 20
4.721750944623645
 30
0.0
 11
40.62149941730453
 21
6.738250361966813
 31
0.0
  0
LINE
  5
BD4F
330
BD47
100
AcDbEntity
  8
0
  6
CONTINUOUS
100
AcDbLine
 10
38.60499999996136
 20
4.048231735543458
 30
0.0
 11
40.93896172988471
 21
6.382193465466806
 31
0.0
  0
LINE
  5
BD50
330
BD47
100
AcDbEntity
  8
0
  6
CONTINUOUS
100
AcDbLine
 10
38.60499999996136
 20
3.374712526463272
 30
0.0
 11
40.02599999995994
 21
4.795712526461843
 31
0.0
  0
LINE
  5
BD51
330
BD47
100
AcDbEntity
  8
0
  6
CONTINUOUS
100
AcDbLine
 10
38.60499999996136
 20
2.701193317383085
 30
0.0
 11
40.02599999995994
 21
4.122193317381657
 31
0.0
  0
LINE
  5
BD52
330
BD47
100
AcDbEntity
  8
0
  6
CONTINUOUS
100
AcDbLine
 10
40.28339754687704
 20
5.053110073378947
 30
0.0
 11
41.25642404246489
 21
6.026136568966799
 31
0.0
  0
LINE
  5
BD53
330
BD47
100
AcDbEntity
  8
0
  6
CONTINUOUS
100
AcDbLine
 10
40.60085985945722
 20
4.697053176878939
 30
0.0
 11
41.57388635504507
 21
5.670079672466793
 31
0.0
  0
LINE
  5
BD54
330
BD47
100
AcDbEntity
  8
0
  6
CONTINUOUS
100
AcDbLine
 10
43.57899999995641
 20
8.348712526458318
 30
0.0
 11
43.99338747348935
 21
8.763099999991255
 31
0.0
  0
LINE
  5
BD55
330
BD47
100
AcDbEntity
  8
0
  6
CONTINUOUS
100
AcDbLine
 10
43.57899999995641
 20
7.675193317378131
 30
0.0
 11
44.66690668256953
 21
8.763099999991255
 31
0.0
  0
LINE
  5
BD56
330
BD47
100
AcDbEntity
  8
0
  6
CONTINUOUS
100
AcDbLine
 10
38.60499999996136
 20
2.027674108302898
 30
0.0
 11
40.02599999995994
 21
3.44867410830147
 31
0.0
  0
LINE
  5
BD57
330
BD47
100
AcDbEntity
  8
0
  6
CONTINUOUS
100
AcDbLine
 10
38.60499999996136
 20
1.354154899222712
 30
0.0
 11
40.02599999995994
 21
2.775154899221284
 31
0.0
  0
LINE
  5
BD58
330
BD47
100
AcDbEntity
  8
0
  6
CONTINUOUS
100
AcDbLine
 10
38.60499999996136
 20
0.6806356901425255
 30
0.0
 11
40.02599999995994
 21
2.101635690141098
 31
0.0
  0
LINE
  5
BD59
330
BD47
100
AcDbEntity
  8
0
  6
CONTINUOUS
100
AcDbLine
 10
38.60499999996136
 20
0.0071164810623383
 30
0.0
 11
40.02599999995994
 21
1.428116481060911
 31
0.0
  0
LINE
  5
BD5A
330
BD47
100
AcDbEntity
  8
0
  6
CONTINUOUS
100
AcDbLine
 10
40.9183221720374
 20
4.340996280378933
 30
0.0
 11
41.89134866762525
 21
5.314022775966786
 31
0.0
  0
LINE
  5
BD5B
330
BD47
100
AcDbEntity
  8
0
  6
CONTINUOUS
100
AcDbLine
 10
41.23578448461758
 20
3.984939383878926
 30
0.0
 11
42.20881098020543
 21
4.957965879466778
 31
0.0
  0
LINE
  5
BD5C
330
BD47
100
AcDbEntity
  8
0
  6
CONTINUOUS
100
AcDbLine
 10
41.55324679719776
 20
3.628882487378919
 30
0.0
 11
42.52627329278561
 21
4.601908982966772
 31
0.0
  0
LINE
  5
BD5D
330
BD47
100
AcDbEntity
  8
0
  6
CONTINUOUS
100
AcDbLine
 10
41.87070910977793
 20
3.272825590878912
 30
0.0
 11
42.84373560536579
 21
4.245852086466765
 31
0.0
  0
LINE
  5
BD5E
330
BD47
100
AcDbEntity
  8
0
  6
CONTINUOUS
100
AcDbLine
 10
43.57899999995641
 20
7.001674108297943
 30
0.0
 11
44.99999999995498
 21
8.422674108296516
 31
0.0
  0
LINE
  5
BD5F
330
BD47
100
AcDbEntity
  8
0
  6
CONTINUOUS
100
AcDbLine
 10
43.57899999995641
 20
6.328154899217758
 30
0.0
 11
44.99999999995498
 21
7.749154899216329
 31
0.0
  0
LINE
  5
BD60
330
BD47
100
AcDbEntity
  8
0
  6
CONTINUOUS
100
AcDbLine
 10
43.57899999995641
 20
5.654635690137571
 30
0.0
 11
44.99999999995498
 21
7.075635690136142
 31
0.0
  0
LINE
  5
BD61
330
BD47
100
AcDbEntity
  8
0
  6
CONTINUOUS
100
AcDbLine
 10
43.57899999995641
 20
4.981116481057384
 30
0.0
 11
44.99999999995498
 21
6.402116481055955
 31
0.0
  0
LINE
  5
BD62
330
BD47
100
AcDbEntity
  8
0
  6
CONTINUOUS
100
AcDbLine
 10
39.27140272797921
 20
-0.0000000000000009
 30
0.0
 11
40.02599999995994
 21
0.7545972719807246
 31
0.0
  0
LINE
  5
BD63
330
BD47
100
AcDbEntity
  8
0
  6
CONTINUOUS
100
AcDbLine
 10
39.9449219370594
 20
-0.0000000000000009
 30
0.0
 11
40.02599999995994
 21
0.0810780629005379
 31
0.0
  0
LINE
  5
BD64
330
BD47
100
AcDbEntity
  8
0
  6
CONTINUOUS
100
AcDbLine
 10
42.18817142235812
 20
2.916768694378905
 30
0.0
 11
43.16119791794597
 21
3.889795189966758
 31
0.0
  0
LINE
  5
BD65
330
BD47
100
AcDbEntity
  8
0
  6
CONTINUOUS
100
AcDbLine
 10
42.50563373493829
 20
2.560711797878898
 30
0.0
 11
43.47866023052615
 21
3.533738293466751
 31
0.0
  0
LINE
  5
BD66
330
BD47
100
AcDbEntity
  8
0
  6
CONTINUOUS
100
AcDbLine
 10
43.57899999995641
 20
4.307597271977198
 30
0.0
 11
44.99999999995498
 21
5.728597271975769
 31
0.0
  0
LINE
  5
BD67
330
BD47
100
AcDbEntity
  8
0
  6
CONTINUOUS
100
AcDbLine
 10
43.57899999995641
 20
3.634078062897011
 30
0.0
 11
44.99999999995498
 21
5.055078062895582
 31
0.0
  0
LINE
  5
BD68
330
BD47
100
AcDbEntity
  8
0
  6
CONTINUOUS
100
AcDbLine
 10
42.82309604751848
 20
2.204654901378891
 30
0.0
 11
44.99999999995498
 21
4.381558853815395
 31
0.0
  0
LINE
  5
BD69
330
BD47
100
AcDbEntity
  8
0
  6
CONTINUOUS
100
AcDbLine
 10
43.14055836009865
 20
1.848598004878885
 30
0.0
 11
44.99999999995498
 21
3.70803964473521
 31
0.0
  0
LINE
  5
BD6A
330
BD47
100
AcDbEntity
  8
0
  6
CONTINUOUS
100
AcDbLine
 10
43.45802067267883
 20
1.492541108378878
 30
0.0
 11
44.99999999995498
 21
3.034520435655023
 31
0.0
  0
LINE
  5
BD6B
330
BD47
100
AcDbEntity
  8
0
  6
CONTINUOUS
100
AcDbLine
 10
43.77548298525902
 20
1.136484211878871
 30
0.0
 11
44.99999999995498
 21
2.361001226574837
 31
0.0
  0
LINE
  5
BD6C
330
BD47
100
AcDbEntity
  8
0
  6
CONTINUOUS
100
AcDbLine
 10
44.09294529783919
 20
0.7804273153788639
 30
0.0
 11
44.99999999995498
 21
1.687482017494649
 31
0.0
  0
LINE
  5
BD6D
330
BD47
100
AcDbEntity
  8
0
  6
CONTINUOUS
100
AcDbLine
 10
44.41040761041938
 20
0.4243704188788566
 30
0.0
 11
44.99999999995498
 21
1.013962808414463
 31
0.0
  0
LINE
  5
BD6E
330
BD47
100
AcDbEntity
  8
0
  6
CONTINUOUS
100
AcDbLine
 10
44.72786992299955
 20
0.0683135223788494
 30
0.0
 11
44.99999999995498
 21
0.340443599334276
 31
0.0
  0
LINE
  5
BD6F
330
BD47
100
AcDbEntity
  8
0
  6
CONTINUOUS
100
AcDbLine
 10
39.12223903415696
 20
-0.0000000000000009
 30
0.0
 11
38.60499999996136
 21
0.5172390341955961
 31
0.0
  0
LINE
  5
BD70
330
BD47
100
AcDbEntity
  8
0
  6
CONTINUOUS
100
AcDbLine
 10
39.79575824323715
 20
-0.0000000000000009
 30
0.0
 11
38.60499999996136
 21
1.190758243275783
 31
0.0
  0
LINE
  5
BD71
330
BD47
100
AcDbEntity
  8
0
  6
CONTINUOUS
100
AcDbLine
 10
40.02599999995994
 20
0.443277452357397
 30
0.0
 11
38.60499999996136
 21
1.864277452355969
 31
0.0
  0
LINE
  5
BD72
330
BD47
100
AcDbEntity
  8
0
  6
CONTINUOUS
100
AcDbLine
 10
40.02599999995994
 20
1.116796661437583
 30
0.0
 11
38.60499999996136
 21
2.537796661436155
 31
0.0
  0
LINE
  5
BD73
330
BD47
100
AcDbEntity
  8
0
  6
CONTINUOUS
100
AcDbLine
 10
40.02599999995994
 20
1.79031587051777
 30
0.0
 11
38.60499999996136
 21
3.211315870516341
 31
0.0
  0
LINE
  5
BD74
330
BD47
100
AcDbEntity
  8
0
  6
CONTINUOUS
100
AcDbLine
 10
40.02599999995994
 20
2.463835079597956
 30
0.0
 11
38.60499999996136
 21
3.884835079596527
 31
0.0
  0
LINE
  5
BD75
330
BD47
100
AcDbEntity
  8
0
  6
CONTINUOUS
100
AcDbLine
 10
40.02599999995994
 20
3.137354288678143
 30
0.0
 11
38.60499999996136
 21
4.558354288676714
 31
0.0
  0
LINE
  5
BD76
330
BD47
100
AcDbEntity
  8
0
  6
CONTINUOUS
100
AcDbLine
 10
40.02599999995994
 20
3.810873497758329
 30
0.0
 11
38.60499999996136
 21
5.2318734977569
 31
0.0
  0
LINE
  5
BD77
330
BD47
100
AcDbEntity
  8
0
  6
CONTINUOUS
100
AcDbLine
 10
40.02599999995994
 20
4.484392706838515
 30
0.0
 11
38.60499999996136
 21
5.905392706837086
 31
0.0
  0
LINE
  5
BD78
330
BD47
100
AcDbEntity
  8
0
  6
CONTINUOUS
100
AcDbLine
 10
44.99999999995498
 20
0.183911915923658
 30
0.0
 11
41.53858364506288
 21
3.64532827081576
 31
0.0
  0
LINE
  5
BD79
330
BD47
100
AcDbEntity
  8
0
  6
CONTINUOUS
100
AcDbLine
 10
40.02599999995994
 20
5.157911915918703
 30
0.0
 11
38.60499999996136
 21
6.578911915917274
 31
0.0
  0
LINE
  5
BD7A
330
BD47
100
AcDbEntity
  8
0
  6
CONTINUOUS
100
AcDbLine
 10
44.99999999995498
 20
0.8574311250038447
 30
0.0
 11
38.60499999996136
 21
7.25243112499746
 31
0.0
  0
LINE
  5
BD7B
330
BD47
100
AcDbEntity
  8
0
  6
CONTINUOUS
100
AcDbLine
 10
44.99999999995498
 20
1.530950334084031
 30
0.0
 11
38.60499999996136
 21
7.925950334077647
 31
0.0
  0
LINE
  5
BD7C
330
BD47
100
AcDbEntity
  8
0
  6
CONTINUOUS
100
AcDbLine
 10
44.99999999995498
 20
2.204469543164218
 30
0.0
 11
43.57899999995641
 21
3.625469543162789
 31
0.0
  0
LINE
  5
BD7D
330
BD47
100
AcDbEntity
  8
0
  6
CONTINUOUS
100
AcDbLine
 10
41.89876730984767
 20
5.305702233271528
 30
0.0
 11
38.60499999996136
 21
8.599469543157834
 31
0.0
  0
LINE
  5
BD7E
330
BD47
100
AcDbEntity
  8
0
  6
CONTINUOUS
100
AcDbLine
 10
44.99999999995498
 20
2.877988752244405
 30
0.0
 11
43.57899999995641
 21
4.298988752242975
 31
0.0
  0
LINE
  5
BD7F
330
BD47
100
AcDbEntity
  8
0
  6
CONTINUOUS
100
AcDbLine
 10
44.99999999995498
 20
3.551507961324591
 30
0.0
 11
43.57899999995641
 21
4.972507961323163
 31
0.0
  0
LINE
  5
BD80
330
BD47
100
AcDbEntity
  8
0
  6
CONTINUOUS
100
AcDbLine
 10
44.99999999995498
 20
4.225027170404777
 30
0.0
 11
43.57899999995641
 21
5.646027170403348
 31
0.0
  0
LINE
  5
BD81
330
BD47
100
AcDbEntity
  8
0
  6
CONTINUOUS
100
AcDbLine
 10
44.99999999995498
 20
4.898546379484964
 30
0.0
 11
43.57899999995641
 21
6.319546379483535
 31
0.0
  0
LINE
  5
BD82
330
BD47
100
AcDbEntity
  8
0
  6
CONTINUOUS
100
AcDbLine
 10
44.99999999995498
 20
5.572065588565151
 30
0.0
 11
43.57899999995641
 21
6.993065588563722
 31
0.0
  0
LINE
  5
BD83
330
BD47
100
AcDbEntity
  8
0
  6
CONTINUOUS
100
AcDbLine
 10
44.99999999995498
 20
6.245584797645336
 30
0.0
 11
43.57899999995641
 21
7.666584797643908
 31
0.0
  0
LINE
  5
BD84
330
BD47
100
AcDbEntity
  8
0
  6
CONTINUOUS
100
AcDbLine
 10
44.99999999995498
 20
6.919104006725522
 30
0.0
 11
43.57899999995641
 21
8.340104006724093
 31
0.0
  0
LINE
  5
BD85
330
BD47
100
AcDbEntity
  8
0
  6
CONTINUOUS
100
AcDbLine
 10
44.99999999995498
 20
7.592623215805709
 30
0.0
 11
43.82952321576943
 21
8.763099999991255
 31
0.0
  0
LINE
  5
BD86
330
BD47
100
AcDbEntity
  8
0
  6
CONTINUOUS
100
AcDbLine
 10
44.99999999995498
 20
8.266142424885896
 30
0.0
 11
44.50304242484962
 21
8.763099999991255
 31
0.0
  0
ENDBLK
  5
BDB0
330
BD47
100
AcDbEntity
  8
0
100
AcDbBlockEnd
  0
BLOCK
  5
BDB1
330
BD87
100
AcDbEntity
  8
0
100
AcDbBlockBegin
  2
*X32
 70
     1
 10
0.0
 20
0.0
 30
0.0
  3
*X32
  1

  0
LINE
  5
BD88
330
BD87
100
AcDbEntity
  8
0
  6
CONTINUOUS
100
AcDbLine
 10
0.0
 20
8.548461116714023
 30
0.0
 11
0.2146388832772324
 21
8.763099999991255
 31
0.0
  0
LINE
  5
BD89
330
BD87
100
AcDbEntity
  8
0
  6
CONTINUOUS
100
AcDbLine
 10
-0.0000000000000002
 20
7.874941907633837
 30
0.0
 11
0.8881580923574184
 21
8.763099999991255
 31
0.0
  0
LINE
  5
BD8A
330
BD87
100
AcDbEntity
  8
0
  6
CONTINUOUS
100
AcDbLine
 10
0.0
 20
7.20142269855365
 30
0.0
 11
1.420999999998572
 21
8.622422698552223
 31
0.0
  0
LINE
  5
BD8B
330
BD87
100
AcDbEntity
  8
0
  6
CONTINUOUS
100
AcDbLine
 10
-0.0000000000000001
 20
6.527903489473465
 30
0.0
 11
1.420999999998571
 21
7.948903489472036
 31
0.0
  0
LINE
  5
BD8C
330
BD87
100
AcDbEntity
  8
0
  6
CONTINUOUS
100
AcDbLine
 10
-0.0000000000000002
 20
5.854384280393278
 30
0.0
 11
1.420999999998571
 21
7.275384280391849
 31
0.0
  0
LINE
  5
BD8D
330
BD87
100
AcDbEntity
  8
0
  6
CONTINUOUS
100
AcDbLine
 10
-0.0000000000000002
 20
5.180865071313091
 30
0.0
 11
1.420999999998571
 21
6.601865071311663
 31
0.0
  0
LINE
  5
BD8E
330
BD87
100
AcDbEntity
  8
0
  6
CONTINUOUS
100
AcDbLine
 10
0.0
 20
4.507345862232905
 30
0.0
 11
1.420999999998571
 21
5.928345862231477
 31
0.0
  0
LINE
  5
BD8F
330
BD87
100
AcDbEntity
  8
0
  6
CONTINUOUS
100
AcDbLine
 10
-0.0000000000000003
 20
3.833826653152718
 30
0.0
 11
1.420999999998571
 21
5.25482665315129
 31
0.0
  0
LINE
  5
BD90
330
BD87
100
AcDbEntity
  8
0
  6
CONTINUOUS
100
AcDbLine
 10
-0.0000000000000002
 20
3.160307444072532
 30
0.0
 11
1.420999999998571
 21
4.581307444071103
 31
0.0
  0
LINE
  5
BD91
330
BD87
100
AcDbEntity
  8
0
  6
CONTINUOUS
100
AcDbLine
 10
-0.0000000000000001
 20
2.486788234992345
 30
0.0
 11
1.420999999998571
 21
3.907788234990917
 31
0.0
  0
LINE
  5
BD92
330
BD87
100
AcDbEntity
  8
0
  6
CONTINUOUS
100
AcDbLine
 10
-0.0000000000000006
 20
1.813269025912159
 30
0.0
 11
1.420999999998571
 21
3.234269025910731
 31
0.0
  0
LINE
  5
BD93
330
BD87
100
AcDbEntity
  8
0
  6
CONTINUOUS
100
AcDbLine
 10
0.0
 20
1.139749816831973
 30
0.0
 11
1.420999999998571
 21
2.560749816830544
 31
0.0
  0
LINE
  5
BD94
330
BD87
100
AcDbEntity
  8
0
  6
CONTINUOUS
100
AcDbLine
 10
0.0000000000000002
 20
0.466230607751787
 30
0.0
 11
1.420999999998571
 21
1.887230607750358
 31
0.0
  0
LINE
  5
BD95
330
BD87
100
AcDbEntity
  8
0
  6
CONTINUOUS
100
AcDbLine
 10
0.2072886013284003
 20
-0.0000000000000009
 30
0.0
 11
1.420999999998571
 21
1.213711398670171
 31
0.0
  0
LINE
  5
BD96
330
BD87
100
AcDbEntity
  8
0
  6
CONTINUOUS
100
AcDbLine
 10
0.8808078104085864
 20
-0.0000000000000009
 30
0.0
 11
1.420999999998571
 21
0.5401921895899839
 31
0.0
  0
LINE
  5
BD97
330
BD87
100
AcDbEntity
  8
0
  6
CONTINUOUS
100
AcDbLine
 10
0.0581249075061505
 20
-0.0000000000000009
 30
0.0
 11
-0.0000000000000002
 21
0.0581249075061496
 31
0.0
  0
LINE
  5
BD98
330
BD87
100
AcDbEntity
  8
0
  6
CONTINUOUS
100
AcDbLine
 10
0.7316441165863372
 20
-0.0000000000000009
 30
0.0
 11
-0.0000000000000002
 21
0.7316441165863363
 31
0.0
  0
LINE
  5
BD99
330
BD87
100
AcDbEntity
  8
0
  6
CONTINUOUS
100
AcDbLine
 10
1.405163325666523
 20
-0.0000000000000009
 30
0.0
 11
-0.0000000000000002
 21
1.405163325666523
 31
0.0
  0
LINE
  5
BD9A
330
BD87
100
AcDbEntity
  8
0
  6
CONTINUOUS
100
AcDbLine
 10
1.420999999998572
 20
0.6576825347481381
 30
0.0
 11
-0.0000000000000001
 21
2.07868253474671
 31
0.0
  0
LINE
  5
BD9B
330
BD87
100
AcDbEntity
  8
0
  6
CONTINUOUS
100
AcDbLine
 10
1.420999999998571
 20
1.331201743828324
 30
0.0
 11
-0.0000000000000001
 21
2.752201743826896
 31
0.0
  0
LINE
  5
BD9C
330
BD87
100
AcDbEntity
  8
0
  6
CONTINUOUS
100
AcDbLine
 10
1.420999999998571
 20
2.004720952908511
 30
0.0
 11
-0.0000000000000002
 21
3.425720952907082
 31
0.0
  0
LINE
  5
BD9D
330
BD87
100
AcDbEntity
  8
0
  6
CONTINUOUS
100
AcDbLine
 10
1.420999999998571
 20
2.678240161988697
 30
0.0
 11
-0.0000000000000001
 21
4.099240161987269
 31
0.0
  0
LINE
  5
BD9E
330
BD87
100
AcDbEntity
  8
0
  6
CONTINUOUS
100
AcDbLine
 10
1.420999999998572
 20
3.351759371068884
 30
0.0
 11
0.0
 21
4.772759371067455
 31
0.0
  0
LINE
  5
BD9F
330
BD87
100
AcDbEntity
  8
0
  6
CONTINUOUS
100
AcDbLine
 10
1.420999999998571
 20
4.02527858014907
 30
0.0
 11
-0.0000000000000003
 21
5.446278580147642
 31
0.0
  0
LINE
  5
BDA0
330
BD87
100
AcDbEntity
  8
0
  6
CONTINUOUS
100
AcDbLine
 10
1.420999999998571
 20
4.698797789229257
 30
0.0
 11
0.0
 21
6.119797789227828
 31
0.0
  0
LINE
  5
BDA1
330
BD87
100
AcDbEntity
  8
0
  6
CONTINUOUS
100
AcDbLine
 10
1.420999999998571
 20
5.372316998309444
 30
0.0
 11
-0.0000000000000001
 21
6.793316998308015
 31
0.0
  0
LINE
  5
BDA2
330
BD87
100
AcDbEntity
  8
0
  6
CONTINUOUS
100
AcDbLine
 10
1.420999999998572
 20
6.045836207389629
 30
0.0
 11
-0.0000000000000004
 21
7.466836207388202
 31
0.0
  0
LINE
  5
BDA3
330
BD87
100
AcDbEntity
  8
0
  6
CONTINUOUS
100
AcDbLine
 10
1.420999999998571
 20
6.719355416469816
 30
0.0
 11
0.0
 21
8.140355416468388
 31
0.0
  0
LINE
  5
BDA4
330
BD87
100
AcDbEntity
  8
0
  6
CONTINUOUS
100
AcDbLine
 10
1.420999999998571
 20
7.392874625550003
 30
0.0
 11
0.0507746255573185
 21
8.763099999991255
 31
0.0
  0
LINE
  5
BDA5
330
BD87
100
AcDbEntity
  8
0
  6
CONTINUOUS
100
AcDbLine
 10
1.420999999998571
 20
8.06639383463019
 30
0.0
 11
0.7242938346375052
 21
8.763099999991255
 31
0.0
  0
LINE
  5
BDA6
330
BD87
100
AcDbEntity
  8
0
  6
CONTINUOUS
100
AcDbLine
 10
1.420999999998571
 20
8.739913043710375
 30
0.0
 11
1.397813043717691
 21
8.763099999991255
 31
0.0
  0
ENDBLK
  5
BDB2
330
BD87
100
AcDbEntity
  8
0
100
AcDbBlockEnd
  0
ENDSEC
  0
SECTION
  2
ENTITIES
  0
LINE
  5
AF86
330
18
100
AcDbEntity
  8
01
100
AcDbLine
 10
5097.805628620114
 20
-328.1517474957459
 30
0.0
 11
5120.433914002544
 21
-328.1517474957459
 31
0.0
  0
LINE
  5
AF8B
330
18
100
AcDbEntity
  8
01
100
AcDbLine
 10
5099.933914002544
 20
-208.1517474957459
 30
0.0
 11
5099.933914002544
 21
-398.1517474957459
 31
0.0
  0
LINE
  5
AF8D
330
18
100
AcDbEntity
  8
01
100
AcDbLine
 10
5219.933914002544
 20
-328.1517474957459
 30
0.0
 11
5279.933914002544
 21
-328.1517474957459
 31
0.0
  0
LINE
  5
AF8E
330
18
100
AcDbEntity
  8
01
100
AcDbLine
 10
5249.933914002544
 20
-298.1517474957459
 30
0.0
 11
5249.933914002544
 21
-358.1517474957459
 31
0.0
  0
LINE
  5
AF8F
330
18
100
AcDbEntity
  8
01
100
AcDbLine
 10
5224.933914002544
 20
-214.6517474957459
 30
0.0
 11
5224.933914002544
 21
-391.6517474957459
 31
0.0
  0
ARC
  5
AF90
330
18
100
AcDbEntity
  8
01
100
AcDbCircle
 10
5225.433914002544
 20
-391.6517474957459
 30
0.0
 40
0.5
100
AcDbArc
 50
180.0
 51
270.0
  0
LINE
  5
AF91
330
18
100
AcDbEntity
  8
01
100
AcDbLine
 10
5274.933914002544
 20
-214.6517474957459
 30
0.0
 11
5274.933914002544
 21
-321.9264477362022
 31
0.0
  0
ARC
  5
AF92
330
18
100
AcDbEntity
  8
01
100
AcDbCircle
 10
5274.433914002544
 20
-214.6517474957459
 30
0.0
 40
0.5
100
AcDbArc
 50
0.0
 51
90.0
  0
LINE
  5
AF93
330
18
100
AcDbEntity
  8
01
100
AcDbLine
 10
5274.433914002544
 20
-392.1517474957459
 30
0.0
 11
5225.433914002544
 21
-392.1517474957459
 31
0.0
  0
ARC
  5
AF94
330
18
100
AcDbEntity
  8
01
100
AcDbCircle
 10
5274.433914002544
 20
-391.6517474957459
 30
0.0
 40
0.5
100
AcDbArc
 50
270.0
 51
0.0
  0
LINE
  5
AF95
330
18
100
AcDbEntity
  8
01
100
AcDbLine
 10
5225.433914002544
 20
-214.1517474957459
 30
0.0
 11
5274.433914002544
 21
-214.1517474957459
 31
0.0
  0
ARC
  5
AF96
330
18
100
AcDbEntity
  8
01
100
AcDbCircle
 10
5225.433914002544
 20
-214.6517474957459
 30
0.0
 40
0.5
100
AcDbArc
 50
90.0
 51
180.0
  0
LINE
  5
AF97
330
18
100
AcDbEntity
  8
01
100
AcDbLine
 10
5108.433914002544
 20
-214.6517474957459
 30
0.0
 11
5108.433914002544
 21
-391.6517474957459
 31
0.0
  0
ARC
  5
AF98
330
18
100
AcDbEntity
  8
01
100
AcDbCircle
 10
5107.933914002544
 20
-391.6517474957459
 30
0.0
 40
0.5
100
AcDbArc
 50
270.0
 51
0.0
  0
LINE
  5
AF99
330
18
100
AcDbEntity
  8
01
100
AcDbLine
 10
5099.933914002544
 20
-214.1517474957459
 30
0.0
 11
5099.933914002544
 21
-392.1517474957459
 31
0.0
  0
LINE
  5
AF9A
330
18
100
AcDbEntity
  8
01
100
AcDbLine
 10
5107.933914002544
 20
-214.1517474957459
 30
0.0
 11
5099.933914002544
 21
-214.1517474957459
 31
0.0
  0
ARC
  5
AF9B
330
18
100
AcDbEntity
  8
01
100
AcDbCircle
 10
5107.933914002544
 20
-214.6517474957459
 30
0.0
 40
0.5
100
AcDbArc
 50
0.0
 51
90.0
  0
LINE
  5
AF9C
330
18
100
AcDbEntity
  8
01
100
AcDbLine
 10
5107.933914002544
 20
-392.1517474957459
 30
0.0
 11
5099.933914002544
 21
-392.1517474957459
 31
0.0
  0
LINE
  5
AFA0
330
18
100
AcDbEntity
  8
01
100
AcDbLine
 10
5198.934798184604
 20
-93.12503714628883
 30
0.0
 11
5352.689178339637
 21
-93.12503714628883
 31
0.0
  0
LINE
  5
AFA1
330
18
100
AcDbEntity
  8
01
100
AcDbLine
 10
5224.933914002544
 20
-93.12503714628974
 30
0.0
 11
5274.933914002544
 21
-93.12503714628747
 31
0.0
  0
LINE
  5
AFA2
330
18
100
AcDbEntity
  8
01
100
AcDbLine
 10
5225.43391400254
 20
-101.6250371462897
 30
0.0
 11
5274.433914002544
 21
-101.6250371462861
 31
0.0
  0
LINE
  5
AFA3
330
18
100
AcDbEntity
  8
01
100
AcDbLine
 10
5274.933914002544
 20
-93.12503714628747
 30
0.0
 11
5274.933914002544
 21
-101.1250371462861
 31
0.0
  0
ARC
  5
AFA4
330
18
100
AcDbEntity
  8
01
100
AcDbCircle
 10
5274.433914002544
 20
-101.1250371462861
 30
0.0
 40
0.5
100
AcDbArc
 50
270.0
 51
0.0
  0
LINE
  5
AFA5
330
18
100
AcDbEntity
  8
01
100
AcDbLine
 10
5224.933914002544
 20
-93.12503714628974
 30
0.0
 11
5224.93391400254
 21
-101.1250371462893
 31
0.0
  0
ARC
  5
AFA6
330
18
100
AcDbEntity
  8
01
100
AcDbCircle
 10
5225.43391400254
 20
-101.1250371462897
 30
0.0
 40
0.5
100
AcDbArc
 50
180.0
 51
270.0
  0
TEXT
  5
AFC0
330
18
100
AcDbEntity
  8
1TEXT
100
AcDbText
 10
5099.933914002544
 20
-168.1517474957459
 30
0.0
 40
10.0
  1
FLK
 41
1.0171875
100
AcDbText
  0
LINE
  5
B4DC
330
18
100
AcDbEntity
  8
1CENTER
100
AcDbLine
 10
5249.933914002543
 20
-81.1517474957459
 30
0.0
 11
5249.933914002544
 21
-105.6517474957458
 31
0.0
  0
LINE
  5
B598
330
18
100
AcDbEntity
  8
01
100
AcDbLine
 10
5274.933914002544
 20
-334.0491038177225
 30
0.0
 11
5274.933914002544
 21
-391.6517474957459
 31
0.0
  0
LINE
  5
B7DB
330
18
100
AcDbEntity
  8
1CENTER
100
AcDbLine
 10
5114.633914002544
 20
-343.1517474957459
 30
0.0
 11
5114.633914002544
 21
-335.1517474957459
 31
0.0
  0
ARC
  5
B7E3
330
18
100
AcDbEntity
  8
01
100
AcDbCircle
 10
5249.933914002544
 20
-328.1517474957459
 30
0.0
 40
13.00002170361696
100
AcDbArc
 50
39.12040548140968
 51
150.0850525146528
  0
ARC
  5
B7E4
330
18
100
AcDbEntity
  8
01
100
AcDbCircle
 10
5249.933914002544
 20
-328.1516708117988
 30
0.0
 40
13.00002170361696
100
AcDbArc
 50
209.9149474853472
 51
320.8795945185903
  0
LINE
  5
B7E8
330
18
100
AcDbEntity
  8
01
100
AcDbLine
 10
5274.93391101955
 20
-334.3975740503112
 30
0.0
 11
5274.93391101955
 21
-321.9058535358623
 31
0.0
  0
LINE
  5
B7E9
330
18
100
AcDbEntity
  8
01
100
AcDbLine
 10
5374.933911019546
 20
-324.3679261374023
 30
0.0
 11
5374.933911019546
 21
-331.9354921701423
 31
0.0
  0
LINE
  5
B7EA
330
18
100
AcDbEntity
  8
01
100
AcDbLine
 10
5374.933911019546
 20
-324.3679261374023
 30
0.0
 11
5374.933911019546
 21
-323.0932923270177
 31
0.0
  0
LINE
  5
B7EB
330
18
100
AcDbEntity
  8
01
100
AcDbLine
 10
5374.933911019546
 20
-323.0932923270177
 30
0.0
 11
5374.933911019546
 21
-321.9264477391824
 31
0.0
  0
LINE
  5
B7EC
330
18
100
AcDbEntity
  8
01
100
AcDbLine
 10
5374.933911019546
 20
-331.9354921701423
 30
0.0
 11
5374.933911019546
 21
-333.2101259805269
 31
0.0
  0
LINE
  5
B7ED
330
18
100
AcDbEntity
  8
01
100
AcDbLine
 10
5374.933911019546
 20
-333.2101259805269
 30
0.0
 11
5374.933911019546
 21
-334.3769705683623
 31
0.0
  0
ARC
  5
B7EE
330
18
100
AcDbEntity
  8
01
100
AcDbCircle
 10
5375.133911022526
 20
-334.3769705683623
 30
0.0
 40
0.2000000029802322
100
AcDbArc
 50
180.0
 51
269.9999999997394
  0
ARC
  5
B7EF
330
18
100
AcDbEntity
  8
01
100
AcDbCircle
 10
5375.133911022526
 20
-321.9264477391824
 30
0.0
 40
0.2000000029802322
100
AcDbArc
 50
90.00000000020843
 51
180.0
  0
LINE
  5
B7F0
330
18
100
AcDbEntity
  8
01
100
AcDbLine
 10
5375.133911022526
 20
-321.7264477362022
 30
0.0
 11
5379.933900285946
 21
-321.7264477362022
 31
0.0
  0
LINE
  5
B7F1
330
18
100
AcDbEntity
  8
01
100
AcDbLine
 10
5375.133911022526
 20
-334.5769705713425
 30
0.0
 11
5379.933900285946
 21
-334.5769705713425
 31
0.0
  0
ARC
  5
B7F2
330
18
100
AcDbEntity
  8
01
100
AcDbCircle
 10
5379.933863683154
 20
-333.0769232352211
 30
0.0
 40
1.50003635173652
100
AcDbArc
 50
270.0013989834188
 51
359.9986010372755
  0
ARC
  5
B7F3
330
18
100
AcDbEntity
  8
01
100
AcDbCircle
 10
5379.933863683153
 20
-323.2264950723257
 30
0.0
 40
1.500036351738131
100
AcDbArc
 50
0.0013989628026717
 51
89.99860101652911
  0
LINE
  5
B7F4
330
18
100
AcDbEntity
  8
01
100
AcDbLine
 10
5381.433911019552
 20
-333.0769598377365
 30
0.0
 11
5381.433911019552
 21
-323.2264584698082
 31
0.0
  0
ARC
  5
B7F5
330
18
100
AcDbEntity
  8
01
100
AcDbCircle
 10
5274.733985356689
 20
-321.9057527660992
 30
0.0
 40
0.19992568379499
100
AcDbArc
 50
359.9737799769567
 51
83.79795921557857
  0
ARC
  5
B7F6
330
18
100
AcDbEntity
  8
01
100
AcDbCircle
 10
5274.733985356689
 20
-334.3976655414451
 30
0.0
 40
0.1999256837953324
100
AcDbArc
 50
276.2020407845263
 51
0.0262200229715936
  0
ARC
  5
B7F9
330
18
100
AcDbEntity
  8
01
100
AcDbCircle
 10
5239.194956858932
 20
-332.5372749395704
 30
0.0
 40
1.506188916503771
100
AcDbArc
 50
199.4559438846174
 51
208.4368888118199
  0
ARC
  5
B7FB
330
18
100
AcDbEntity
  8
01
100
AcDbCircle
 10
5239.195348132263
 20
-323.7663171760581
 30
0.0
 40
1.506615742867575
100
AcDbArc
 50
151.5637872059874
 51
160.5422147590605
  0
LINE
  5
B7FE
330
18
100
AcDbEntity
  8
01
100
AcDbLine
 10
5374.93391101955
 20
-321.9264477362022
 30
0.0
 11
5274.93391101955
 21
-321.9264477362022
 31
0.0
  0
LINE
  5
B7FF
330
18
100
AcDbEntity
  8
01
100
AcDbLine
 10
5374.93391101955
 20
-334.0491038177225
 30
0.0
 11
5274.93391101955
 21
-334.0491038177225
 31
0.0
  0
LINE
  5
B800
330
18
100
AcDbEntity
  8
01
100
AcDbLine
 10
5261.93403034229
 20
-102.1250371462888
 30
0.0
 11
5237.93403034229
 21
-102.1250371462888
 31
0.0
  0
LINE
  5
B801
330
18
100
AcDbEntity
  8
01
100
AcDbLine
 10
5236.934030342617
 20
-102.1250369277318
 30
0.0
 11
5237.93403034229
 21
-102.1250371462888
 31
0.0
  0
LINE
  5
B802
330
18
100
AcDbEntity
  8
01
100
AcDbLine
 10
5262.934030341962
 20
-102.1250369277318
 30
0.0
 11
5261.93403034229
 21
-102.1250371462888
 31
0.0
  0
LINE
  5
B803
330
18
100
AcDbEntity
  8
01
100
AcDbLine
 10
5274.933914002542
 20
-233.9112637738913
 30
0.0
 11
5274.933914002542
 21
-234.9530644982676
 31
0.0
  0
LINE
  5
B804
330
18
100
AcDbEntity
  8
01
100
AcDbLine
 10
5274.933914002542
 20
-233.9112628800633
 30
0.0
 11
5274.933914002542
 21
-214.6517474957459
 31
0.0
  0
ARC
  5
B806
330
18
100
AcDbEntity
  8
01
100
AcDbCircle
 10
5274.734030339308
 20
-159.925033891692
 30
0.0
 40
0.200000002980232
100
AcDbArc
 50
269.9972507344761
 51
359.9999999997785
  0
ARC
  5
B807
330
18
100
AcDbEntity
  8
01
100
AcDbCircle
 10
5274.734030339308
 20
-134.3250220091572
 30
0.0
 40
0.2000000029802326
100
AcDbArc
 50
0.0000000002214684
 51
89.98702072343565
  0
ARC
  5
B808
330
18
100
AcDbEntity
  8
01
100
AcDbCircle
 10
5378.38137605967
 20
-136.1250351321557
 30
0.0
 40
1.999998039029693
100
AcDbArc
 50
10.93261467829669
 51
90.00004634535983
  0
ARC
  5
B809
330
18
100
AcDbEntity
  8
01
100
AcDbCircle
 10
5321.433423770959
 20
-147.1250370966097
 30
0.0
 40
60.00059556263356
100
AcDbArc
 50
349.0674487086116
 51
10.9325512912956
  0
ARC
  5
B80A
330
18
100
AcDbEntity
  8
01
100
AcDbCircle
 10
5378.381373950609
 20
-158.1250364970335
 30
0.0
 40
2.000000596093273
100
AcDbArc
 50
270.0000140746023
 51
349.0673246593985
  0
LINE
  5
B80B
330
18
100
AcDbEntity
  8
01
100
AcDbLine
 10
5374.934030342284
 20
-135.3694815938725
 30
0.0
 11
5374.934030342284
 21
-158.880592703812
 31
0.0
  0
LINE
  5
B80C
330
18
100
AcDbEntity
  8
01
100
AcDbLine
 10
5374.934030342284
 20
-135.3694815938727
 30
0.0
 11
5374.934030342284
 21
-134.3250370961066
 31
0.0
  0
LINE
  5
B80D
330
18
100
AcDbEntity
  8
01
100
AcDbLine
 10
5375.134030345264
 20
-160.1250370931264
 30
0.0
 11
5378.381374441906
 21
-160.1250370931264
 31
0.0
  0
ARC
  5
B80E
330
18
100
AcDbEntity
  8
01
100
AcDbCircle
 10
5375.134030345264
 20
-159.9250370901461
 30
0.0
 40
0.2000000029802322
100
AcDbArc
 50
180.0
 51
269.9999999997394
  0
LINE
  5
B80F
330
18
100
AcDbEntity
  8
01
100
AcDbLine
 10
5375.134030345264
 20
-134.1250370931264
 30
0.0
 11
5378.381374441907
 21
-134.1250370931264
 31
0.0
  0
ARC
  5
B810
330
18
100
AcDbEntity
  8
01
100
AcDbCircle
 10
5375.134030345264
 20
-134.3250370961066
 30
0.0
 40
0.2000000029802322
100
AcDbArc
 50
90.00000000020842
 51
180.0
  0
LINE
  5
B814
330
18
100
AcDbEntity
  8
01
100
AcDbLine
 10
5374.934030342288
 20
-159.9250345859061
 30
0.0
 11
5274.934030342288
 21
-159.9250345859061
 31
0.0
  0
LINE
  5
B815
330
18
100
AcDbEntity
  8
01
100
AcDbLine
 10
5374.934030342288
 20
-134.3250345859055
 30
0.0
 11
5274.934030342288
 21
-134.3250345859055
 31
0.0
  0
LINE
  5
B816
330
18
100
AcDbEntity
  8
01
100
AcDbLine
 10
5374.934030342288
 20
-158.8805901806229
 30
0.0
 11
5374.934030342288
 21
-159.9250345859061
 31
0.0
  0
LINE
  5
B817
330
18
100
AcDbEntity
  8
01
100
AcDbLine
 10
5274.934030342288
 20
-159.923676395875
 30
0.0
 11
5274.934030342288
 21
-159.9250345859061
 31
0.0
  0
LINE
  5
B818
330
18
100
AcDbEntity
  8
01
100
AcDbLine
 10
5274.933914002542
 20
-209.3544086161878
 30
0.0
 11
5274.933914002542
 21
-209.3530632484653
 31
0.0
  0
LINE
  5
B81A
330
18
100
AcDbEntity
  8
01
100
AcDbLine
 10
5166.933914356489
 20
-331.9380064986226
 30
0.0
 11
5166.933885793915
 21
-331.9472199110996
 31
0.0
  0
LINE
  5
B81B
330
18
100
AcDbEntity
  8
01
100
AcDbLine
 10
5166.93391241233
 20
-324.3654906059351
 30
0.0
 11
5166.93391241233
 21
-331.9380065536411
 31
0.0
  0
LINE
  5
B81C
330
18
100
AcDbEntity
  8
01
100
AcDbLine
 10
5166.933910445782
 20
-324.3620813584366
 30
0.0
 11
5166.933914356576
 21
-324.3654906609545
 31
0.0
  0
LINE
  5
B81D
330
18
100
AcDbEntity
  8
01
100
AcDbLine
 10
5166.933910446791
 20
-331.9414150392577
 30
0.0
 11
5166.933914356576
 21
-331.9380064986231
 31
0.0
  0
LINE
  5
B823
330
18
100
AcDbEntity
  8
01
100
AcDbLine
 10
5272.660800743291
 20
-134.1001727309545
 30
0.0
 11
5274.734073448369
 21
-134.1250292983373
 31
0.0
  0
LINE
  5
B824
330
18
100
AcDbEntity
  8
01
100
AcDbLine
 10
5275.18391101955
 20
-334.0491038177225
 30
0.0
 11
5275.18391101955
 21
-334.0517085825443
 31
0.0
  0
LINE
  5
B825
330
18
100
AcDbEntity
  8
01
100
AcDbLine
 10
5374.68391101955
 20
-334.0491038177225
 30
0.0
 11
5374.68391101955
 21
-334.0517085825443
 31
0.0
  0
LINE
  5
B826
330
18
100
AcDbEntity
  8
01
100
AcDbLine
 10
5374.483911016569
 20
-334.2517085855245
 30
0.0
 11
5374.68391101955
 21
-334.0517085825443
 31
0.0
  0
LINE
  5
B827
330
18
100
AcDbEntity
  8
01
100
AcDbLine
 10
5275.38391102253
 20
-334.2517085855245
 30
0.0
 11
5275.18391101955
 21
-334.0517085825443
 31
0.0
  0
LINE
  5
B828
330
18
100
AcDbEntity
  8
01
100
AcDbLine
 10
5374.483911016569
 20
-334.2517085855245
 30
0.0
 11
5368.333712208951
 21
-334.2517085855245
 31
0.0
  0
LINE
  5
B829
330
18
100
AcDbEntity
  8
01
100
AcDbLine
 10
5361.533995372922
 20
-334.2517085855245
 30
0.0
 11
5288.333712208949
 21
-334.2517085855245
 31
0.0
  0
LINE
  5
B82A
330
18
100
AcDbEntity
  8
01
100
AcDbLine
 10
5281.533995372922
 20
-334.2517085855245
 30
0.0
 11
5275.38391102253
 21
-334.2517085855245
 31
0.0
  0
LINE
  5
B82D
330
18
100
AcDbEntity
  8
01
100
AcDbLine
 10
5288.312235686695
 20
-334.2504829316913
 30
0.0
 11
5288.320239387643
 21
-334.2512106274689
 31
0.0
  0
LINE
  5
B82E
330
18
100
AcDbEntity
  8
01
100
AcDbLine
 10
5281.553593403526
 20
-334.25072684252
 30
0.0
 11
5281.54742081516
 21
-334.2512385623842
 31
0.0
  0
LINE
  5
B831
330
18
100
AcDbEntity
  8
01
100
AcDbLine
 10
5368.3122356867
 20
-334.2504829316915
 30
0.0
 11
5368.320239387637
 21
-334.2512106274701
 31
0.0
  0
LINE
  5
B832
330
18
100
AcDbEntity
  8
01
100
AcDbLine
 10
5361.553593404582
 20
-334.2507268424042
 30
0.0
 11
5361.54742081516
 21
-334.251238562382
 31
0.0
  0
LINE
  5
B9AF
330
18
100
AcDbEntity
  8
01
100
AcDbLine
 10
5274.934032249964
 20
-158.883241846898
 30
0.0
 11
5274.934032249964
 21
-135.3647403093762
 31
0.0
  0
LINE
  5
BA46
330
18
100
AcDbEntity
  8
01
100
AcDbLine
 10
5252.764715844381
 20
-339.9983106399784
 30
0.0
 11
5252.410696679342
 21
-340.1645398880253
 31
0.0
  0
LINE
  5
BA47
330
18
100
AcDbEntity
  8
01
100
AcDbLine
 10
5252.410696679342
 20
-340.1645398880253
 30
0.0
 11
5251.931273156392
 21
-340.3318525100956
 31
0.0
  0
LINE
  5
BA48
330
18
100
AcDbEntity
  8
01
100
AcDbLine
 10
5251.931273156392
 20
-340.3318525100956
 30
0.0
 11
5251.347906762349
 21
-340.4773755813846
 31
0.0
  0
LINE
  5
BA49
330
18
100
AcDbEntity
  8
01
100
AcDbLine
 10
5251.347906762349
 20
-340.4773755813846
 30
0.0
 11
5250.685812646138
 21
-340.5790372635136
 31
0.0
  0
LINE
  5
BA4A
330
18
100
AcDbEntity
  8
01
100
AcDbLine
 10
5250.685812646138
 20
-340.5790372635136
 30
0.0
 11
5249.9339129269
 21
-340.6211744095096
 31
0.0
  0
LINE
  5
BA4B
330
18
100
AcDbEntity
  8
01
100
AcDbLine
 10
5249.9339129269
 20
-340.6211744095096
 30
0.0
 11
5249.276564294088
 21
-340.5967298294315
 31
0.0
  0
LINE
  5
BA4C
330
18
100
AcDbEntity
  8
01
100
AcDbLine
 10
5249.276564294088
 20
-340.5967298294315
 30
0.0
 11
5248.652014428365
 21
-340.520435884119
 31
0.0
  0
LINE
  5
BA4D
330
18
100
AcDbEntity
  8
01
100
AcDbLine
 10
5248.652014428365
 20
-340.520435884119
 30
0.0
 11
5248.089224511373
 21
-340.4046064163456
 31
0.0
  0
LINE
  5
BA4E
330
18
100
AcDbEntity
  8
01
100
AcDbLine
 10
5248.089224511373
 20
-340.4046064163456
 30
0.0
 11
5247.610464745748
 21
-340.2662320877323
 31
0.0
  0
LINE
  5
BA4F
330
18
100
AcDbEntity
  8
01
100
AcDbLine
 10
5247.610464745748
 20
-340.2662320877323
 30
0.0
 11
5247.183668786275
 21
-340.1010862137089
 31
0.0
  0
LINE
  5
BA50
330
18
100
AcDbEntity
  8
01
100
AcDbLine
 10
5249.935560876119
 20
-340.9194074417362
 30
0.0
 11
5249.208052331197
 21
-340.8953824783573
 31
0.0
  0
LINE
  5
BA51
330
18
100
AcDbEntity
  8
01
100
AcDbLine
 10
5249.208052331197
 20
-340.8953824783573
 30
0.0
 11
5248.516005212056
 21
-340.8200040603886
 31
0.0
  0
LINE
  5
BA52
330
18
100
AcDbEntity
  8
01
100
AcDbLine
 10
5248.516005212056
 20
-340.8200040603886
 30
0.0
 11
5247.890745812642
 21
-340.7052121902714
 31
0.0
  0
LINE
  5
BA53
330
18
100
AcDbEntity
  8
01
100
AcDbLine
 10
5247.890745812642
 20
-340.7052121902714
 30
0.0
 11
5247.356497460592
 21
-340.5675245071659
 31
0.0
  0
LINE
  5
BA54
330
18
100
AcDbEntity
  8
01
100
AcDbLine
 10
5247.356497460592
 20
-340.5675245071659
 30
0.0
 11
5246.933149987447
 21
-340.4248243118534
 31
0.0
  0
LINE
  5
BA55
330
18
100
AcDbEntity
  8
01
100
AcDbLine
 10
5246.933149987447
 20
-340.4248243118534
 30
0.0
 11
5246.637304955709
 21
-340.2934537674198
 31
0.0
  0
LINE
  5
BA56
330
18
100
AcDbEntity
  8
01
100
AcDbLine
 10
5246.637304955709
 20
-340.2934537674198
 30
0.0
 11
5246.482863122213
 21
-340.1881833816776
 31
0.0
  0
LINE
  5
BA57
330
18
100
AcDbEntity
  8
01
100
AcDbLine
 10
5246.482863122213
 20
-340.1881833816776
 30
0.0
 11
5246.478216820943
 21
-340.117603852869
 31
0.0
  0
LINE
  5
BA58
330
18
100
AcDbEntity
  8
01
100
AcDbLine
 10
5246.478216820943
 20
-340.117603852869
 30
0.0
 11
5246.626555138814
 21
-340.084759309412
 31
0.0
  0
LINE
  5
BA59
330
18
100
AcDbEntity
  8
01
100
AcDbLine
 10
5246.626555138814
 20
-340.084759309412
 30
0.0
 11
5246.921309167134
 21
-340.0844846512089
 31
0.0
  0
LINE
  5
BA5A
330
18
100
AcDbEntity
  8
01
100
AcDbLine
 10
5246.921309167134
 20
-340.0844846512089
 30
0.0
 11
5247.349661523092
 21
-340.1068387771854
 31
0.0
  0
LINE
  5
BA5B
330
18
100
AcDbEntity
  8
01
100
AcDbLine
 10
5247.349661523092
 20
-340.1068387771854
 30
0.0
 11
5247.892042809713
 21
-340.1391034866581
 31
0.0
  0
LINE
  5
BA5C
330
18
100
AcDbEntity
  8
01
100
AcDbLine
 10
5247.892042809713
 20
-340.1391034866581
 30
0.0
 11
5248.525107079732
 21
-340.1679807449589
 31
0.0
  0
LINE
  5
BA5D
330
18
100
AcDbEntity
  8
01
100
AcDbLine
 10
5248.525107079732
 20
-340.1679807449589
 30
0.0
 11
5249.220564538228
 21
-340.1836744095096
 31
0.0
  0
LINE
  5
BA5E
330
18
100
AcDbEntity
  8
01
100
AcDbLine
 10
5249.220564538228
 20
-340.1836744095096
 30
0.0
 11
5249.947897607076
 21
-340.1789747024784
 31
0.0
  0
LINE
  5
BA5F
330
18
100
AcDbEntity
  8
01
100
AcDbLine
 10
5249.947897607076
 20
-340.1789747024784
 30
0.0
 11
5250.674376183736
 21
-340.153492524744
 31
0.0
  0
LINE
  5
BA60
330
18
100
AcDbEntity
  8
01
100
AcDbLine
 10
5250.674376183736
 20
-340.153492524744
 30
0.0
 11
5251.367323571431
 21
-340.1104169632206
 31
0.0
  0
LINE
  5
BA61
330
18
100
AcDbEntity
  8
01
100
AcDbLine
 10
5251.367323571431
 20
-340.1104169632206
 30
0.0
 11
5251.997206383931
 21
-340.0591321731815
 31
0.0
  0
LINE
  5
BA62
330
18
100
AcDbEntity
  8
01
100
AcDbLine
 10
5251.997206383931
 20
-340.0591321731815
 30
0.0
 11
5252.53636806606
 21
-340.0112958694706
 31
0.0
  0
LINE
  5
BA63
330
18
100
AcDbEntity
  8
01
100
AcDbLine
 10
5252.53636806606
 20
-340.0112958694706
 30
0.0
 11
5252.961462670552
 21
-339.9807859207401
 31
0.0
  0
LINE
  5
BA64
330
18
100
AcDbEntity
  8
01
100
AcDbLine
 10
5252.961462670552
 20
-339.9807859207401
 30
0.0
 11
5253.253134423482
 21
-339.9805341507206
 31
0.0
  0
LINE
  5
BA65
330
18
100
AcDbEntity
  8
01
100
AcDbLine
 10
5253.253134423482
 20
-339.9805341507206
 30
0.0
 11
5253.397871667134
 21
-340.0199399734745
 31
0.0
  0
LINE
  5
BA66
330
18
100
AcDbEntity
  8
01
100
AcDbLine
 10
5253.397871667134
 20
-340.0199399734745
 30
0.0
 11
5253.390059167134
 21
-340.1020093704471
 31
0.0
  0
LINE
  5
BA67
330
18
100
AcDbEntity
  8
01
100
AcDbLine
 10
5253.390059167134
 20
-340.1020093704471
 30
0.0
 11
5253.233648949849
 21
-340.2214017654667
 31
0.0
  0
LINE
  5
BA68
330
18
100
AcDbEntity
  8
01
100
AcDbLine
 10
5253.233648949849
 20
-340.2214017654667
 30
0.0
 11
5252.937178307759
 21
-340.3678174759159
 31
0.0
  0
LINE
  5
BA69
330
18
100
AcDbEntity
  8
01
100
AcDbLine
 10
5252.937178307759
 20
-340.3678174759159
 30
0.0
 11
5252.514357262838
 21
-340.5249753738651
 31
0.0
  0
LINE
  5
BA6A
330
18
100
AcDbEntity
  8
01
100
AcDbLine
 10
5252.514357262838
 20
-340.5249753738651
 30
0.0
 11
5251.981405907857
 21
-340.675579621912
 31
0.0
  0
LINE
  5
BA6B
330
18
100
AcDbEntity
  8
01
100
AcDbLine
 10
5251.981405907857
 20
-340.675579621912
 30
0.0
 11
5251.357672387349
 21
-340.8016248489628
 31
0.0
  0
LINE
  5
BA6C
330
18
100
AcDbEntity
  8
01
100
AcDbLine
 10
5251.357672387349
 20
-340.8016248489628
 30
0.0
 11
5250.66658657192
 21
-340.8866697098026
 31
0.0
  0
LINE
  5
BA6D
330
18
100
AcDbEntity
  8
01
100
AcDbLine
 10
5250.66658657192
 20
-340.8866697098026
 30
0.0
 11
5249.935560876119
 21
-340.9194074417362
 31
0.0
  0
LINE
  5
BA6E
330
18
100
AcDbEntity
  8
01
100
AcDbLine
 10
5257.713316613424
 20
-336.8160215164432
 30
0.0
 11
5257.772673302877
 21
-336.7991681839237
 31
0.0
  0
LINE
  5
BA6F
330
18
100
AcDbEntity
  8
01
100
AcDbLine
 10
5257.772673302877
 20
-336.7991681839237
 30
0.0
 11
5257.958029443013
 21
-336.7515226150761
 31
0.0
  0
LINE
  5
BA70
330
18
100
AcDbEntity
  8
01
100
AcDbLine
 10
5257.958029443013
 20
-336.7515226150761
 30
0.0
 11
5258.278174096334
 21
-336.6776319290409
 31
0.0
  0
LINE
  5
BA71
330
18
100
AcDbEntity
  8
01
100
AcDbLine
 10
5258.278174096334
 20
-336.6776319290409
 30
0.0
 11
5258.740408593404
 21
-336.5818601394901
 31
0.0
  0
LINE
  5
BA72
330
18
100
AcDbEntity
  8
01
100
AcDbLine
 10
5258.740408593404
 20
-336.5818601394901
 30
0.0
 11
5259.349188500631
 21
-336.4680066849003
 31
0.0
  0
LINE
  5
BA73
330
18
100
AcDbEntity
  8
01
100
AcDbLine
 10
5259.349188500631
 20
-336.4680066849003
 30
0.0
 11
5260.108206444967
 21
-336.3397184158573
 31
0.0
  0
LINE
  5
BA74
330
18
100
AcDbEntity
  8
01
100
AcDbLine
 10
5260.108206444967
 20
-336.3397184158573
 30
0.0
 11
5261.018034631002
 21
-336.1999784256229
 31
0.0
  0
LINE
  5
BA75
330
18
100
AcDbEntity
  8
01
100
AcDbLine
 10
5261.018034631002
 20
-336.1999784256229
 30
0.0
 11
5262.076155358541
 21
-336.0513578201542
 31
0.0
  0
LINE
  5
BA76
330
18
100
AcDbEntity
  8
01
100
AcDbLine
 10
5262.076155358541
 20
-336.0513578201542
 30
0.0
 11
5263.270529443013
 21
-335.8962293411503
 31
0.0
  0
LINE
  5
BA77
330
18
100
AcDbEntity
  8
01
100
AcDbLine
 10
5263.270529443013
 20
-335.8962293411503
 30
0.0
 11
5264.576162987935
 21
-335.7368512893925
 31
0.0
  0
LINE
  5
BA78
330
18
100
AcDbEntity
  8
01
100
AcDbLine
 10
5264.576162987935
 20
-335.7368512893925
 30
0.0
 11
5265.959051781881
 21
-335.575123384119
 31
0.0
  0
LINE
  5
BA79
330
18
100
AcDbEntity
  8
01
100
AcDbLine
 10
5265.959051781881
 20
-335.575123384119
 30
0.0
 11
5267.388304406392
 21
-335.4123121048221
 31
0.0
  0
LINE
  5
BA7A
330
18
100
AcDbEntity
  8
01
100
AcDbLine
 10
5267.388304406392
 20
-335.4123121048221
 30
0.0
 11
5268.842467004049
 21
-335.2490735794315
 31
0.0
  0
LINE
  5
BA7B
330
18
100
AcDbEntity
  8
01
100
AcDbLine
 10
5268.842467004049
 20
-335.2490735794315
 30
0.0
 11
5270.308844262349
 21
-335.0858350540409
 31
0.0
  0
LINE
  5
BA7C
330
18
100
AcDbEntity
  8
01
100
AcDbLine
 10
5270.308844262349
 20
-335.0858350540409
 30
0.0
 11
5271.780386620748
 21
-334.9229779983768
 31
0.0
  0
LINE
  5
BA7D
330
18
100
AcDbEntity
  8
01
100
AcDbLine
 10
5271.780386620748
 20
-334.9229779983768
 30
0.0
 11
5273.251967126119
 21
-334.7609296585331
 31
0.0
  0
LINE
  5
BA7E
330
18
100
AcDbEntity
  8
01
100
AcDbLine
 10
5273.251967126119
 20
-334.7609296585331
 30
0.0
 11
5274.755583459127
 21
-334.5964017654667
 31
0.0
  0
LINE
  5
BA7F
330
18
100
AcDbEntity
  8
01
100
AcDbLine
 10
5238.66593044399
 20
-334.6349607254276
 30
0.0
 11
5238.612410241353
 21
-334.5433774734745
 31
0.0
  0
LINE
  5
BA80
330
18
100
AcDbEntity
  8
01
100
AcDbLine
 10
5238.612410241353
 20
-334.5433774734745
 30
0.0
 11
5238.512373620259
 21
-334.3746000076542
 31
0.0
  0
LINE
  5
BA81
330
18
100
AcDbEntity
  8
01
100
AcDbLine
 10
5238.512373620259
 20
-334.3746000076542
 30
0.0
 11
5238.366591149556
 21
-334.1284757400761
 31
0.0
  0
LINE
  5
BA82
330
18
100
AcDbEntity
  8
01
100
AcDbLine
 10
5238.366591149556
 20
-334.1284757400761
 30
0.0
 11
5238.177382165181
 21
-333.8036161209354
 31
0.0
  0
LINE
  5
BA83
330
18
100
AcDbEntity
  8
01
100
AcDbLine
 10
5238.177382165181
 20
-333.8036161209354
 30
0.0
 11
5237.872503930318
 21
-333.257855012537
 31
0.0
  0
LINE
  5
BA84
330
18
100
AcDbEntity
  8
01
100
AcDbLine
 10
5237.773527795064
 20
-323.2686506057987
 30
0.0
 11
5237.649893456685
 21
-323.6325498367557
 31
0.0
  0
LINE
  5
BA85
330
18
100
AcDbEntity
  8
01
100
AcDbLine
 10
5237.649893456685
 20
-323.6325498367557
 30
0.0
 11
5237.532919579732
 21
-324.007008149744
 31
0.0
  0
LINE
  5
BA86
330
18
100
AcDbEntity
  8
01
100
AcDbLine
 10
5237.532919579732
 20
-324.007008149744
 30
0.0
 11
5237.42300289272
 21
-324.3934980179081
 31
0.0
  0
LINE
  5
BA87
330
18
100
AcDbEntity
  8
01
100
AcDbLine
 10
5237.42300289272
 20
-324.3934980179081
 30
0.0
 11
5237.320540124166
 21
-324.7939420486698
 31
0.0
  0
LINE
  5
BA88
330
18
100
AcDbEntity
  8
01
100
AcDbLine
 10
5237.320540124166
 20
-324.7939420486698
 30
0.0
 11
5237.225920373189
 21
-325.2121396805057
 31
0.0
  0
LINE
  5
BA89
330
18
100
AcDbEntity
  8
01
100
AcDbLine
 10
5237.225920373189
 20
-325.2121396805057
 30
0.0
 11
5237.139746361959
 21
-325.6534391189823
 31
0.0
  0
LINE
  5
BA8A
330
18
100
AcDbEntity
  8
01
100
AcDbLine
 10
5237.139746361959
 20
-325.6534391189823
 30
0.0
 11
5237.06347530483
 21
-326.1226163650761
 31
0.0
  0
LINE
  5
BA8B
330
18
100
AcDbEntity
  8
01
100
AcDbLine
 10
5237.06347530483
 20
-326.1226163650761
 30
0.0
 11
5236.998572045552
 21
-326.6318097854862
 31
0.0
  0
LINE
  5
BA8C
330
18
100
AcDbEntity
  8
01
100
AcDbLine
 10
5236.998572045552
 20
-326.6318097854862
 30
0.0
 11
5236.948622399556
 21
-327.1928220535526
 31
0.0
  0
LINE
  5
BA8D
330
18
100
AcDbEntity
  8
01
100
AcDbLine
 10
5236.948622399556
 20
-327.1928220535526
 30
0.0
 11
5236.91975277065
 21
-327.8111310745487
 31
0.0
  0
LINE
  5
BA8E
330
18
100
AcDbEntity
  8
01
100
AcDbLine
 10
5236.91975277065
 20
-327.8111310745487
 30
0.0
 11
5236.918989831197
 21
-328.4595380569706
 31
0.0
  0
LINE
  5
BA8F
330
18
100
AcDbEntity
  8
01
100
AcDbLine
 10
5236.918989831197
 20
-328.4595380569706
 30
0.0
 11
5236.946570092427
 21
-329.0803266311893
 31
0.0
  0
LINE
  5
BA90
330
18
100
AcDbEntity
  8
01
100
AcDbLine
 10
5236.946570092427
 20
-329.0803266311893
 30
0.0
 11
5236.995642358052
 21
-329.6445050979862
 31
0.0
  0
LINE
  5
BA91
330
18
100
AcDbEntity
  8
01
100
AcDbLine
 10
5236.995642358052
 20
-329.6445050979862
 30
0.0
 11
5237.059866601217
 21
-330.155933930994
 31
0.0
  0
LINE
  5
BA92
330
18
100
AcDbEntity
  8
01
100
AcDbLine
 10
5237.059866601217
 20
-330.155933930994
 30
0.0
 11
5237.135733300435
 21
-330.6275220657596
 31
0.0
  0
LINE
  5
BA93
330
18
100
AcDbEntity
  8
01
100
AcDbLine
 10
5237.135733300435
 20
-330.6275220657596
 30
0.0
 11
5237.221335107076
 21
-331.0694547439823
 31
0.0
  0
LINE
  5
BA94
330
18
100
AcDbEntity
  8
01
100
AcDbLine
 10
5237.221335107076
 20
-331.0694547439823
 30
0.0
 11
5237.315542870748
 21
-331.4887128616581
 31
0.0
  0
LINE
  5
BA95
330
18
100
AcDbEntity
  8
01
100
AcDbLine
 10
5237.315542870748
 20
-331.4887128616581
 30
0.0
 11
5237.41747921108
 21
-331.8894315506229
 31
0.0
  0
LINE
  5
BA96
330
18
100
AcDbEntity
  8
01
100
AcDbLine
 10
5237.41747921108
 20
-331.8894315506229
 30
0.0
 11
5237.527273827779
 21
-332.2774091507206
 31
0.0
  0
LINE
  5
BA97
330
18
100
AcDbEntity
  8
01
100
AcDbLine
 10
5237.527273827779
 20
-332.2774091507206
 30
0.0
 11
5237.643713647115
 21
-332.6516919876346
 31
0.0
  0
LINE
  5
BA98
330
18
100
AcDbEntity
  8
01
100
AcDbLine
 10
5237.643713647115
 20
-332.6516919876346
 30
0.0
 11
5237.773611718404
 21
-333.0350995804081
 31
0.0
  0
LINE
  5
BA99
330
18
100
AcDbEntity
  8
01
100
AcDbLine
 10
5257.713316613424
 20
-319.4873929764041
 30
0.0
 11
5257.772673302877
 21
-319.5042463089236
 31
0.0
  0
LINE
  5
BA9A
330
18
100
AcDbEntity
  8
01
100
AcDbLine
 10
5257.772673302877
 20
-319.5042463089236
 30
0.0
 11
5257.958029443013
 21
-319.5518918777713
 31
0.0
  0
LINE
  5
BA9B
330
18
100
AcDbEntity
  8
01
100
AcDbLine
 10
5257.958029443013
 20
-319.5518918777713
 30
0.0
 11
5258.278174096334
 21
-319.6257825638064
 31
0.0
  0
LINE
  5
BA9C
330
18
100
AcDbEntity
  8
01
100
AcDbLine
 10
5258.278174096334
 20
-319.6257825638064
 30
0.0
 11
5258.740408593404
 21
-319.7215543533572
 31
0.0
  0
LINE
  5
BA9D
330
18
100
AcDbEntity
  8
01
100
AcDbLine
 10
5258.740408593404
 20
-319.7215543533572
 30
0.0
 11
5259.349188500631
 21
-319.8354154373416
 31
0.0
  0
LINE
  5
BA9E
330
18
100
AcDbEntity
  8
01
100
AcDbLine
 10
5259.349188500631
 20
-319.8354154373416
 30
0.0
 11
5260.108206444967
 21
-319.9637037063845
 31
0.0
  0
LINE
  5
BA9F
330
18
100
AcDbEntity
  8
01
100
AcDbLine
 10
5260.108206444967
 20
-319.9637037063845
 30
0.0
 11
5261.018034631002
 21
-320.1034436966189
 31
0.0
  0
LINE
  5
BAA0
330
18
100
AcDbEntity
  8
01
100
AcDbLine
 10
5261.018034631002
 20
-320.1034436966189
 30
0.0
 11
5262.076155358541
 21
-320.2520643020878
 31
0.0
  0
LINE
  5
BAA1
330
18
100
AcDbEntity
  8
01
100
AcDbLine
 10
5262.076155358541
 20
-320.2520643020878
 30
0.0
 11
5263.270529443013
 21
-320.4071927810917
 31
0.0
  0
LINE
  5
BAA2
330
18
100
AcDbEntity
  8
01
100
AcDbLine
 10
5263.270529443013
 20
-320.4071927810917
 30
0.0
 11
5264.576162987935
 21
-320.5665708328495
 31
0.0
  0
LINE
  5
BAA3
330
18
100
AcDbEntity
  8
01
100
AcDbLine
 10
5264.576162987935
 20
-320.5665708328495
 30
0.0
 11
5265.959051781881
 21
-320.7282911087284
 31
0.0
  0
LINE
  5
BAA4
330
18
100
AcDbEntity
  8
01
100
AcDbLine
 10
5265.959051781881
 20
-320.7282911087284
 30
0.0
 11
5267.388304406392
 21
-320.8911100174198
 31
0.0
  0
LINE
  5
BAA5
330
18
100
AcDbEntity
  8
01
100
AcDbLine
 10
5267.388304406392
 20
-320.8911100174198
 30
0.0
 11
5268.842467004049
 21
-321.0543409134159
 31
0.0
  0
LINE
  5
BAA6
330
18
100
AcDbEntity
  8
01
100
AcDbLine
 10
5268.842467004049
 20
-321.0543409134159
 30
0.0
 11
5270.308844262349
 21
-321.2175794388065
 31
0.0
  0
LINE
  5
BAA7
330
18
100
AcDbEntity
  8
01
100
AcDbLine
 10
5270.308844262349
 20
-321.2175794388065
 30
0.0
 11
5271.780386620748
 21
-321.3804441238651
 31
0.0
  0
LINE
  5
BAA8
330
18
100
AcDbEntity
  8
01
100
AcDbLine
 10
5271.780386620748
 20
-321.3804441238651
 30
0.0
 11
5273.251967126119
 21
-321.5424848343143
 31
0.0
  0
LINE
  5
BAA9
330
18
100
AcDbEntity
  8
01
100
AcDbLine
 10
5273.251967126119
 20
-321.5424848343143
 30
0.0
 11
5274.755583459127
 21
-321.7070203567753
 31
0.0
  0
LINE
  5
BAAA
330
18
100
AcDbEntity
  8
01
100
AcDbLine
 10
5238.66593044399
 20
-321.6684537674198
 30
0.0
 11
5238.612410241353
 21
-321.7600446487675
 31
0.0
  0
LINE
  5
BAAB
330
18
100
AcDbEntity
  8
01
100
AcDbLine
 10
5238.612410241353
 20
-321.7600446487675
 30
0.0
 11
5238.512373620259
 21
-321.9288144851932
 31
0.0
  0
LINE
  5
BAAC
330
18
100
AcDbEntity
  8
01
100
AcDbLine
 10
5238.512373620259
 20
-321.9288144851932
 30
0.0
 11
5238.366591149556
 21
-322.1749463821659
 31
0.0
  0
LINE
  5
BAAD
330
18
100
AcDbEntity
  8
01
100
AcDbLine
 10
5238.366591149556
 20
-322.1749463821659
 30
0.0
 11
5238.177382165181
 21
-322.499798371912
 31
0.0
  0
LINE
  5
BAAE
330
18
100
AcDbEntity
  8
01
100
AcDbLine
 10
5238.177382165181
 20
-322.499798371912
 30
0.0
 11
5237.872503930318
 21
-323.0455594803104
 31
0.0
  0
LINE
  5
BAAF
330
18
100
AcDbEntity
  8
01
100
AcDbLine
 10
5236.934032249638
 20
-102.1250292983373
 30
0.0
 11
5236.924709129521
 21
-104.1040942397435
 31
0.0
  0
LINE
  5
BAB0
330
18
100
AcDbEntity
  8
01
100
AcDbLine
 10
5236.924709129521
 20
-104.1040942397435
 30
0.0
 11
5236.917789268681
 21
-106.0831591811498
 31
0.0
  0
LINE
  5
BAB1
330
18
100
AcDbEntity
  8
01
100
AcDbLine
 10
5236.917789268681
 20
-106.0831591811498
 30
0.0
 11
5236.915828514287
 21
-108.0622546401341
 31
0.0
  0
LINE
  5
BAB2
330
18
100
AcDbEntity
  8
01
100
AcDbLine
 10
5236.915828514287
 20
-108.0622546401341
 30
0.0
 11
5236.921436119267
 21
-110.0413653579076
 31
0.0
  0
LINE
  5
BAB3
330
18
100
AcDbEntity
  8
01
100
AcDbLine
 10
5236.921436119267
 20
-110.0413653579076
 30
0.0
 11
5236.937656212041
 21
-112.0203997817357
 31
0.0
  0
LINE
  5
BAB4
330
18
100
AcDbEntity
  8
01
100
AcDbLine
 10
5236.937656212041
 20
-112.0203997817357
 30
0.0
 11
5236.967685508916
 21
-113.999220582517
 31
0.0
  0
LINE
  5
BAB5
330
18
100
AcDbEntity
  8
01
100
AcDbLine
 10
5236.967685508916
 20
-113.999220582517
 30
0.0
 11
5237.01473598499
 21
-115.9777209487279
 31
0.0
  0
LINE
  5
BAB6
330
18
100
AcDbEntity
  8
01
100
AcDbLine
 10
5237.01473598499
 20
-115.9777209487279
 30
0.0
 11
5237.082179832646
 21
-117.9556872573216
 31
0.0
  0
LINE
  5
BAB7
330
18
100
AcDbEntity
  8
01
100
AcDbLine
 10
5237.082179832646
 20
-117.9556872573216
 30
0.0
 11
5237.173953819462
 21
-119.9326159682591
 31
0.0
  0
LINE
  5
BAB8
330
18
100
AcDbEntity
  8
01
100
AcDbLine
 10
5237.173953819462
 20
-119.9326159682591
 30
0.0
 11
5237.294055748173
 21
-121.9080188002904
 31
0.0
  0
LINE
  5
BAB9
330
18
100
AcDbEntity
  8
01
100
AcDbLine
 10
5237.294055748173
 20
-121.9080188002904
 30
0.0
 11
5237.446643638798
 21
-123.8812548842748
 31
0.0
  0
LINE
  5
BABA
330
18
100
AcDbEntity
  8
01
100
AcDbLine
 10
5237.446643638798
 20
-123.8812548842748
 30
0.0
 11
5237.63647060413
 21
-125.8511798110326
 31
0.0
  0
LINE
  5
BABB
330
18
100
AcDbEntity
  8
01
100
AcDbLine
 10
5237.63647060413
 20
-125.8511798110326
 30
0.0
 11
5237.868419456669
 21
-127.8165271010716
 31
0.0
  0
LINE
  5
BABC
330
18
100
AcDbEntity
  8
01
100
AcDbLine
 10
5237.868419456669
 20
-127.8165271010716
 30
0.0
 11
5238.147594261357
 21
-129.7757861342748
 31
0.0
  0
LINE
  5
BABD
330
18
100
AcDbEntity
  8
01
100
AcDbLine
 10
5238.147594261357
 20
-129.7757861342748
 30
0.0
 11
5238.479556846806
 21
-131.726774903806
 31
0.0
  0
LINE
  5
BABE
330
18
100
AcDbEntity
  8
01
100
AcDbLine
 10
5238.479556846806
 20
-131.726774903806
 30
0.0
 11
5238.870090294072
 21
-133.6668688979466
 31
0.0
  0
LINE
  5
BABF
330
18
100
AcDbEntity
  8
01
100
AcDbLine
 10
5238.870090294072
 20
-133.6668688979466
 30
0.0
 11
5239.325237083623
 21
-135.5928027358373
 31
0.0
  0
LINE
  5
BAC0
330
18
100
AcDbEntity
  8
01
100
AcDbLine
 10
5239.325237083623
 20
-135.5928027358373
 30
0.0
 11
5239.851192283818
 21
-137.5006091323216
 31
0.0
  0
LINE
  5
BAC1
330
18
100
AcDbEntity
  8
01
100
AcDbLine
 10
5239.851192283818
 20
-137.5006091323216
 30
0.0
 11
5240.454311180302
 21
-139.385451051267
 31
0.0
  0
LINE
  5
BAC2
330
18
100
AcDbEntity
  8
01
100
AcDbLine
 10
5240.454311180302
 20
-139.385451051267
 30
0.0
 11
5241.140895652959
 21
-141.2414386000951
 31
0.0
  0
LINE
  5
BAC3
330
18
100
AcDbEntity
  8
01
100
AcDbLine
 10
5241.140895652959
 20
-141.2414386000951
 30
0.0
 11
5241.917148399541
 21
-143.0616595473607
 31
0.0
  0
LINE
  5
BAC4
330
18
100
AcDbEntity
  8
01
100
AcDbLine
 10
5241.917148399541
 20
-143.0616595473607
 30
0.0
 11
5242.788928795048
 21
-144.8381488051732
 31
0.0
  0
LINE
  5
BAC5
330
18
100
AcDbEntity
  8
01
100
AcDbLine
 10
5242.788928795048
 20
-144.8381488051732
 30
0.0
 11
5243.761417198369
 21
-146.5617816176732
 31
0.0
  0
LINE
  5
BAC6
330
18
100
AcDbEntity
  8
01
100
AcDbLine
 10
5243.761417198369
 20
-146.5617816176732
 30
0.0
 11
5244.838199424931
 21
-148.2217395034154
 31
0.0
  0
LINE
  5
BAC7
330
18
100
AcDbEntity
  8
01
100
AcDbLine
 10
5244.838199424931
 20
-148.2217395034154
 30
0.0
 11
5246.022357750127
 21
-149.8068682875951
 31
0.0
  0
LINE
  5
BAC8
330
18
100
AcDbEntity
  8
01
100
AcDbLine
 10
5246.022357750127
 20
-149.8068682875951
 30
0.0
 11
5247.314464378544
 21
-151.3054797377904
 31
0.0
  0
LINE
  5
BAC9
330
18
100
AcDbEntity
  8
01
100
AcDbLine
 10
5247.314464378544
 20
-151.3054797377904
 30
0.0
 11
5248.712627220341
 21
-152.7053820815404
 31
0.0
  0
LINE
  5
BACA
330
18
100
AcDbEntity
  8
01
100
AcDbLine
 10
5248.712627220341
 20
-152.7053820815404
 30
0.0
 11
5250.213390159794
 21
-153.9948107924779
 31
0.0
  0
LINE
  5
BACB
330
18
100
AcDbEntity
  8
01
100
AcDbLine
 10
5250.213390159794
 20
-153.9948107924779
 30
0.0
 11
5251.810130882451
 21
-155.1633136000951
 31
0.0
  0
LINE
  5
BACC
330
18
100
AcDbEntity
  8
01
100
AcDbLine
 10
5251.810130882451
 20
-155.1633136000951
 30
0.0
 11
5253.493228721806
 21
-156.203566285642
 31
0.0
  0
LINE
  5
BACD
330
18
100
AcDbEntity
  8
01
100
AcDbLine
 10
5253.493228721806
 20
-156.203566285642
 30
0.0
 11
5255.25178890247
 21
-157.1098620620091
 31
0.0
  0
LINE
  5
BACE
330
18
100
AcDbEntity
  8
01
100
AcDbLine
 10
5255.25178890247
 20
-157.1098620620091
 30
0.0
 11
5257.074062156865
 21
-157.8805529799779
 31
0.0
  0
LINE
  5
BACF
330
18
100
AcDbEntity
  8
01
100
AcDbLine
 10
5257.074062156865
 20
-157.8805529799779
 30
0.0
 11
5258.947231102177
 21
-158.5188739028295
 31
0.0
  0
LINE
  5
BAD0
330
18
100
AcDbEntity
  8
01
100
AcDbLine
 10
5258.947231102177
 20
-158.5188739028295
 30
0.0
 11
5260.858882713505
 21
-159.0296313491185
 31
0.0
  0
LINE
  5
BAD1
330
18
100
AcDbEntity
  8
01
100
AcDbLine
 10
5260.858882713505
 20
-159.0296313491185
 30
0.0
 11
5262.798320579716
 21
-159.4227740493138
 31
0.0
  0
LINE
  5
BAD2
330
18
100
AcDbEntity
  8
01
100
AcDbLine
 10
5262.798320579716
 20
-159.4227740493138
 30
0.0
 11
5264.756168174931
 21
-159.7105395522435
 31
0.0
  0
LINE
  5
BAD3
330
18
100
AcDbEntity
  8
01
100
AcDbLine
 10
5264.756168174931
 20
-159.7105395522435
 30
0.0
 11
5266.725230980107
 21
-159.9074542250951
 31
0.0
  0
LINE
  5
BAD4
330
18
100
AcDbEntity
  8
01
100
AcDbLine
 10
5266.725230980107
 20
-159.9074542250951
 30
0.0
 11
5268.700473594853
 21
-160.029738160642
 31
0.0
  0
LINE
  5
BAD5
330
18
100
AcDbEntity
  8
01
100
AcDbLine
 10
5268.700473594853
 20
-160.029738160642
 30
0.0
 11
5270.678470421025
 21
-160.0947863784154
 31
0.0
  0
LINE
  5
BAD6
330
18
100
AcDbEntity
  8
01
100
AcDbLine
 10
5270.678470421025
 20
-160.0947863784154
 30
0.0
 11
5272.657367515752
 21
-160.1204516616185
 31
0.0
  0
LINE
  5
BAD7
330
18
100
AcDbEntity
  8
01
100
AcDbLine
 10
5272.657367515752
 20
-160.1204516616185
 30
0.0
 11
5274.662975120732
 21
-160.1250292983373
 31
0.0
  0
LINE
  5
BAD8
330
18
100
AcDbEntity
  8
01
100
AcDbLine
 10
5262.934032249638
 20
-102.1250292983373
 30
0.0
 11
5262.939685630986
 21
-103.0784594741185
 31
0.0
  0
LINE
  5
BAD9
330
18
100
AcDbEntity
  8
01
100
AcDbLine
 10
5262.939685630986
 20
-103.0784594741185
 30
0.0
 11
5262.944812584111
 21
-104.0318896498998
 31
0.0
  0
LINE
  5
BADA
330
18
100
AcDbEntity
  8
01
100
AcDbLine
 10
5262.944812584111
 20
-104.0318896498998
 30
0.0
 11
5262.949115562627
 21
-104.985319825681
 31
0.0
  0
LINE
  5
BADB
330
18
100
AcDbEntity
  8
01
100
AcDbLine
 10
5262.949115562627
 20
-104.985319825681
 30
0.0
 11
5262.952571678349
 21
-105.9387500014623
 31
0.0
  0
LINE
  5
BADC
330
18
100
AcDbEntity
  8
01
100
AcDbLine
 10
5262.952571678349
 20
-105.9387500014623
 30
0.0
 11
5262.955425071904
 21
-106.8921954360326
 31
0.0
  0
LINE
  5
BADD
330
18
100
AcDbEntity
  8
01
100
AcDbLine
 10
5262.955425071904
 20
-106.8921954360326
 30
0.0
 11
5262.957996177861
 21
-107.8456408706029
 31
0.0
  0
LINE
  5
BADE
330
18
100
AcDbEntity
  8
01
100
AcDbLine
 10
5262.957996177861
 20
-107.8456408706029
 30
0.0
 11
5262.960803795048
 21
-108.7990863051732
 31
0.0
  0
LINE
  5
BADF
330
18
100
AcDbEntity
  8
01
100
AcDbLine
 10
5262.960803795048
 20
-108.7990863051732
 30
0.0
 11
5262.96444301624
 21
-109.7525317397435
 31
0.0
  0
LINE
  5
BAE0
330
18
100
AcDbEntity
  8
01
100
AcDbLine
 10
5262.96444301624
 20
-109.7525317397435
 30
0.0
 11
5262.969524192998
 21
-110.7059619155248
 31
0.0
  0
LINE
  5
BAE1
330
18
100
AcDbEntity
  8
01
100
AcDbLine
 10
5262.969524192998
 20
-110.7059619155248
 30
0.0
 11
5262.976634788701
 21
-111.6593615737279
 31
0.0
  0
LINE
  5
BAE2
330
18
100
AcDbEntity
  8
01
100
AcDbLine
 10
5262.976634788701
 20
-111.6593615737279
 30
0.0
 11
5262.986369896123
 21
-112.612745973142
 31
0.0
  0
LINE
  5
BAE3
330
18
100
AcDbEntity
  8
01
100
AcDbLine
 10
5262.986369896123
 20
-112.612745973142
 30
0.0
 11
5262.999339866826
 21
-113.5660998549779
 31
0.0
  0
LINE
  5
BAE4
330
18
100
AcDbEntity
  8
01
100
AcDbLine
 10
5262.999339866826
 20
-113.5660998549779
 30
0.0
 11
5263.016238975712
 21
-114.5193774428685
 31
0.0
  0
LINE
  5
BAE5
330
18
100
AcDbEntity
  8
01
100
AcDbLine
 10
5263.016238975712
 20
-114.5193774428685
 30
0.0
 11
5263.037853050419
 21
-115.4725787368138
 31
0.0
  0
LINE
  5
BAE6
330
18
100
AcDbEntity
  8
01
100
AcDbLine
 10
5263.037853050419
 20
-115.4725787368138
 30
0.0
 11
5263.064967918584
 21
-116.4256427016576
 31
0.0
  0
LINE
  5
BAE7
330
18
100
AcDbEntity
  8
01
100
AcDbLine
 10
5263.064967918584
 20
-116.4256427016576
 30
0.0
 11
5263.098407554814
 21
-117.3785083022435
 31
0.0
  0
LINE
  5
BAE8
330
18
100
AcDbEntity
  8
01
100
AcDbLine
 10
5263.098407554814
 20
-117.3785083022435
 30
0.0
 11
5263.13933162708
 21
-118.3310992446263
 31
0.0
  0
LINE
  5
BAE9
330
18
100
AcDbEntity
  8
01
100
AcDbLine
 10
5263.13933162708
 20
-118.3310992446263
 30
0.0
 11
5263.189105797002
 21
-119.2832324233373
 31
0.0
  0
LINE
  5
BAEA
330
18
100
AcDbEntity
  8
01
100
AcDbLine
 10
5263.189105797002
 20
-119.2832324233373
 30
0.0
 11
5263.24911098499
 21
-120.2347552504857
 31
0.0
  0
LINE
  5
BAEB
330
18
100
AcDbEntity
  8
01
100
AcDbLine
 10
5263.24911098499
 20
-120.2347552504857
 30
0.0
 11
5263.320796776005
 21
-121.1854846206029
 31
0.0
  0
LINE
  5
BAEC
330
18
100
AcDbEntity
  8
01
100
AcDbLine
 10
5263.320796776005
 20
-121.1854846206029
 30
0.0
 11
5263.406108665654
 21
-122.1351000991185
 31
0.0
  0
LINE
  5
BAED
330
18
100
AcDbEntity
  8
01
100
AcDbLine
 10
5263.406108665654
 20
-122.1351000991185
 30
0.0
 11
5263.507510948369
 21
-123.0831286635716
 31
0.0
  0
LINE
  5
BAEE
330
18
100
AcDbEntity
  8
01
100
AcDbLine
 10
5263.507510948369
 20
-123.0831286635716
 30
0.0
 11
5263.627750206181
 21
-124.0289447036107
 31
0.0
  0
LINE
  5
BAEF
330
18
100
AcDbEntity
  8
01
100
AcDbLine
 10
5263.627750206181
 20
-124.0289447036107
 30
0.0
 11
5263.769977379033
 21
-124.9717852797826
 31
0.0
  0
LINE
  5
BAF0
330
18
100
AcDbEntity
  8
01
100
AcDbLine
 10
5263.769977379033
 20
-124.9717852797826
 30
0.0
 11
5263.938907432744
 21
-125.9100634780248
 31
0.0
  0
LINE
  5
BAF1
330
18
100
AcDbEntity
  8
01
100
AcDbLine
 10
5263.938907432744
 20
-125.9100634780248
 30
0.0
 11
5264.139667320439
 21
-126.8420397963841
 31
0.0
  0
LINE
  5
BAF2
330
18
100
AcDbEntity
  8
01
100
AcDbLine
 10
5264.139667320439
 20
-126.8420397963841
 30
0.0
 11
5264.378894615361
 21
-127.7649066176732
 31
0.0
  0
LINE
  5
BAF3
330
18
100
AcDbEntity
  8
01
100
AcDbLine
 10
5264.378894615361
 20
-127.7649066176732
 30
0.0
 11
5264.665393638798
 21
-128.6741625991185
 31
0.0
  0
LINE
  5
BAF4
330
18
100
AcDbEntity
  8
01
100
AcDbLine
 10
5264.665393638798
 20
-128.6741625991185
 30
0.0
 11
5265.009891319462
 21
-129.5630175795873
 31
0.0
  0
LINE
  5
BAF5
330
18
100
AcDbEntity
  8
01
100
AcDbLine
 10
5265.009891319462
 20
-129.5630175795873
 30
0.0
 11
5265.425678062627
 21
-130.4206530776341
 31
0.0
  0
LINE
  5
BAF6
330
18
100
AcDbEntity
  8
01
100
AcDbLine
 10
5265.425678062627
 20
-130.4206530776341
 30
0.0
 11
5265.927669334599
 21
-131.230665895017
 31
0.0
  0
LINE
  5
BAF7
330
18
100
AcDbEntity
  8
01
100
AcDbLine
 10
5265.927669334599
 20
-131.230665895017
 30
0.0
 11
5266.528865623662
 21
-131.969694825681
 31
0.0
  0
LINE
  5
BAF8
330
18
100
AcDbEntity
  8
01
100
AcDbLine
 10
5266.528865623662
 20
-131.969694825681
 30
0.0
 11
5267.234111595341
 21
-132.6098620620091
 31
0.0
  0
LINE
  5
BAF9
330
18
100
AcDbEntity
  8
01
100
AcDbLine
 10
5267.234111595341
 20
-132.6098620620091
 30
0.0
 11
5268.033916282841
 21
-133.1270587172826
 31
0.0
  0
LINE
  5
BAFA
330
18
100
AcDbEntity
  8
01
100
AcDbLine
 10
5268.033916282841
 20
-133.1270587172826
 30
0.0
 11
5268.904430198857
 21
-133.5132891860326
 31
0.0
  0
LINE
  5
BAFB
330
18
100
AcDbEntity
  8
01
100
AcDbLine
 10
5268.904430198857
 20
-133.5132891860326
 30
0.0
 11
5269.81942348499
 21
-133.7803027358373
 31
0.0
  0
LINE
  5
BAFC
330
18
100
AcDbEntity
  8
01
100
AcDbLine
 10
5269.81942348499
 20
-133.7803027358373
 30
0.0
 11
5270.757144737431
 21
-133.9506976332982
 31
0.0
  0
LINE
  5
BAFD
330
18
100
AcDbEntity
  8
01
100
AcDbLine
 10
5270.757144737431
 20
-133.9506976332982
 30
0.0
 11
5271.705287742802
 21
-134.0497119155248
 31
0.0
  0
LINE
  5
BAFE
330
18
100
AcDbEntity
  8
01
100
AcDbLine
 10
5271.705287742802
 20
-134.0497119155248
 30
0.0
 11
5272.660800743291
 21
-134.1001574721654
 31
0.0
  0
LINE
  5
BAFF
330
18
100
AcDbEntity
  8
01
100
AcDbLine
 10
5272.660800743291
 20
-134.1001727309545
 30
0.0
 11
5271.708751487919
 21
-134.0499255385716
 31
0.0
  0
LINE
  5
BB00
330
18
100
AcDbEntity
  8
01
100
AcDbLine
 10
5271.708751487919
 20
-134.0499255385716
 30
0.0
 11
5270.760509300419
 21
-133.951140138181
 31
0.0
  0
LINE
  5
BB01
330
18
100
AcDbEntity
  8
01
100
AcDbLine
 10
5270.760509300419
 20
-133.951140138181
 30
0.0
 11
5269.822711754033
 21
-133.7810504165013
 31
0.0
  0
LINE
  5
BB02
330
18
100
AcDbEntity
  8
01
100
AcDbLine
 10
5269.822711754033
 20
-133.7810504165013
 30
0.0
 11
5268.907810020634
 21
-133.5145556655248
 31
0.0
  0
LINE
  5
BB03
330
18
100
AcDbEntity
  8
01
100
AcDbLine
 10
5268.907810020634
 20
-133.5145556655248
 30
0.0
 11
5268.036762047002
 21
-133.1287524428685
 31
0.0
  0
LINE
  5
BB04
330
18
100
AcDbEntity
  8
01
100
AcDbLine
 10
5268.036762047002
 20
-133.1287524428685
 30
0.0
 11
5267.236713218877
 21
-132.6119830336888
 31
0.0
  0
LINE
  5
BB05
330
18
100
AcDbEntity
  8
01
100
AcDbLine
 10
5267.236713218877
 20
-132.6119830336888
 30
0.0
 11
5266.53149013538
 21
-131.972120973142
 31
0.0
  0
LINE
  5
BB06
330
18
100
AcDbEntity
  8
01
100
AcDbLine
 10
5266.53149013538
 20
-131.972120973142
 30
0.0
 11
5265.929599571416
 21
-131.2334429946263
 31
0.0
  0
LINE
  5
BB07
330
18
100
AcDbEntity
  8
01
100
AcDbLine
 10
5265.929599571416
 20
-131.2334429946263
 30
0.0
 11
5265.427272606084
 21
-130.4236438002904
 31
0.0
  0
LINE
  5
BB08
330
18
100
AcDbEntity
  8
01
100
AcDbLine
 10
5265.427272606084
 20
-130.4236438002904
 30
0.0
 11
5265.01106624622
 21
-129.5665118422826
 31
0.0
  0
LINE
  5
BB09
330
18
100
AcDbEntity
  8
01
100
AcDbLine
 10
5265.01106624622
 20
-129.5665118422826
 30
0.0
 11
5264.6665075304
 21
-128.6772906508763
 31
0.0
  0
LINE
  5
BB0A
330
18
100
AcDbEntity
  8
01
100
AcDbLine
 10
5264.6665075304
 20
-128.6772906508763
 30
0.0
 11
5264.379863548466
 21
-127.7680499282201
 31
0.0
  0
LINE
  5
BB0B
330
18
100
AcDbEntity
  8
01
100
AcDbLine
 10
5264.379863548466
 20
-127.7680499282201
 30
0.0
 11
5264.140201378056
 21
-126.8454882827123
 31
0.0
  0
LINE
  5
BB0C
330
18
100
AcDbEntity
  8
01
100
AcDbLine
 10
5264.140201378056
 20
-126.8454882827123
 30
0.0
 11
5263.939357567021
 21
-125.913527223142
 31
0.0
  0
LINE
  5
BB0D
330
18
100
AcDbEntity
  8
01
100
AcDbLine
 10
5263.939357567021
 20
-125.913527223142
 30
0.0
 11
5263.77067928333
 21
-124.9749438491185
 31
0.0
  0
LINE
  5
BB0E
330
18
100
AcDbEntity
  8
01
100
AcDbLine
 10
5263.77067928333
 20
-124.9749438491185
 30
0.0
 11
5263.628070640752
 21
-124.0322100844701
 31
0.0
  0
LINE
  5
BB0F
330
18
100
AcDbEntity
  8
01
100
AcDbLine
 10
5263.628070640752
 20
-124.0322100844701
 30
0.0
 11
5263.507694053837
 21
-123.0864398207982
 31
0.0
  0
LINE
  5
BB10
330
18
100
AcDbEntity
  8
01
100
AcDbLine
 10
5263.507694053837
 20
-123.0864398207982
 30
0.0
 11
5263.406398582646
 21
-122.138380738767
 31
0.0
  0
LINE
  5
BB11
330
18
100
AcDbEntity
  8
01
100
AcDbLine
 10
5263.406398582646
 20
-122.138380738767
 30
0.0
 11
5263.321018028447
 21
-121.1887652602513
 31
0.0
  0
LINE
  5
BB12
330
18
100
AcDbEntity
  8
01
100
AcDbLine
 10
5263.321018028447
 20
-121.1887652602513
 30
0.0
 11
5263.249141502568
 21
-120.2380664077123
 31
0.0
  0
LINE
  5
BB13
330
18
100
AcDbEntity
  8
01
100
AcDbLine
 10
5263.249141502568
 20
-120.2380664077123
 30
0.0
 11
5263.189159202763
 21
-119.2865283217748
 31
0.0
  0
LINE
  5
BB14
330
18
100
AcDbEntity
  8
01
100
AcDbLine
 10
5263.189159202763
 20
-119.2865283217748
 30
0.0
 11
5263.139507103154
 21
-118.3343493666966
 31
0.0
  0
LINE
  5
BB15
330
18
100
AcDbEntity
  8
01
100
AcDbLine
 10
5263.139507103154
 20
-118.3343493666966
 30
0.0
 11
5263.098621177861
 21
-117.3817279067357
 31
0.0
  0
LINE
  5
BB16
330
18
100
AcDbEntity
  8
01
100
AcDbLine
 10
5263.098621177861
 20
-117.3817279067357
 30
0.0
 11
5263.065059471318
 21
-116.4288470473607
 31
0.0
  0
LINE
  5
BB17
330
18
100
AcDbEntity
  8
01
100
AcDbLine
 10
5263.065059471318
 20
-116.4288470473607
 30
0.0
 11
5263.037868309209
 21
-115.475798341306
 31
0.0
  0
LINE
  5
BB18
330
18
100
AcDbEntity
  8
01
100
AcDbLine
 10
5263.037868309209
 20
-115.475798341306
 30
0.0
 11
5263.016246605107
 21
-114.5225970473607
 31
0.0
  0
LINE
  5
BB19
330
18
100
AcDbEntity
  8
01
100
AcDbLine
 10
5263.016246605107
 20
-114.5225970473607
 30
0.0
 11
5262.999370384404
 21
-113.569304200681
 31
0.0
  0
LINE
  5
BB1A
330
18
100
AcDbEntity
  8
01
100
AcDbLine
 10
5262.999370384404
 20
-113.569304200681
 30
0.0
 11
5262.986430931279
 21
-112.615935060056
 31
0.0
  0
LINE
  5
BB1B
330
18
100
AcDbEntity
  8
01
100
AcDbLine
 10
5262.986430931279
 20
-112.615935060056
 30
0.0
 11
5262.97673397083
 21
-111.6625354018529
 31
0.0
  0
LINE
  5
BB1C
330
18
100
AcDbEntity
  8
01
100
AcDbLine
 10
5262.97673397083
 20
-111.6625354018529
 30
0.0
 11
5262.969653892705
 21
-110.7091204848607
 31
0.0
  0
LINE
  5
BB1D
330
18
100
AcDbEntity
  8
01
100
AcDbLine
 10
5262.969653892705
 20
-110.7091204848607
 30
0.0
 11
5262.964587974736
 21
-109.7556750502904
 31
0.0
  0
LINE
  5
BB1E
330
18
100
AcDbEntity
  8
01
100
AcDbLine
 10
5262.964587974736
 20
-109.7556750502904
 30
0.0
 11
5262.960933494755
 21
-108.8022296157201
 31
0.0
  0
LINE
  5
BB1F
330
18
100
AcDbEntity
  8
01
100
AcDbLine
 10
5262.960933494755
 20
-108.8022296157201
 30
0.0
 11
5262.958080101201
 21
-107.8487841811498
 31
0.0
  0
LINE
  5
BB20
330
18
100
AcDbEntity
  8
01
100
AcDbLine
 10
5262.958080101201
 20
-107.8487841811498
 30
0.0
 11
5262.955470848271
 21
-106.8953387465795
 31
0.0
  0
LINE
  5
BB21
330
18
100
AcDbEntity
  8
01
100
AcDbLine
 10
5262.955470848271
 20
-106.8953387465795
 30
0.0
 11
5262.952586937138
 21
-105.9418933120091
 31
0.0
  0
LINE
  5
BB22
330
18
100
AcDbEntity
  8
01
100
AcDbLine
 10
5262.952586937138
 20
-105.9418933120091
 30
0.0
 11
5262.948993492314
 21
-104.9884478774388
 31
0.0
  0
LINE
  5
BB23
330
18
100
AcDbEntity
  8
01
100
AcDbLine
 10
5262.948993492314
 20
-104.9884478774388
 30
0.0
 11
5262.944637108037
 21
-104.0350024428685
 31
0.0
  0
LINE
  5
BB24
330
18
100
AcDbEntity
  8
01
100
AcDbLine
 10
5262.944637108037
 20
-104.0350024428685
 30
0.0
 11
5262.939616966435
 21
-103.0815722670873
 31
0.0
  0
LINE
  5
BB25
330
18
100
AcDbEntity
  8
01
100
AcDbLine
 10
5262.939616966435
 20
-103.0815722670873
 30
0.0
 11
5262.934032249638
 21
-102.1250445571263
 31
0.0
  0
LINE
  5
BB26
330
18
100
AcDbEntity
  8
01
100
AcDbLine
 10
5108.933910712383
 20
-315.151764661884
 30
0.0
 11
5108.933910712383
 21
-315.225422651386
 31
0.0
  0
LINE
  5
BB27
330
18
100
AcDbEntity
  8
01
100
AcDbLine
 10
5108.933910712383
 20
-315.225422651386
 30
0.0
 11
5108.933910712383
 21
-315.445562154865
 31
0.0
  0
LINE
  5
BB28
330
18
100
AcDbEntity
  8
01
100
AcDbLine
 10
5108.933910712383
 20
-315.445562154865
 30
0.0
 11
5108.933910712383
 21
-315.8096887179372
 31
0.0
  0
LINE
  5
BB29
330
18
100
AcDbEntity
  8
01
100
AcDbLine
 10
5108.933910712383
 20
-315.8096887179372
 30
0.0
 11
5108.933910712383
 21
-316.3136766859052
 31
0.0
  0
LINE
  5
BB2A
330
18
100
AcDbEntity
  8
01
100
AcDbLine
 10
5108.933910712383
 20
-316.3136766859052
 30
0.0
 11
5108.933910712383
 21
-316.9518152632472
 31
0.0
  0
LINE
  5
BB2B
330
18
100
AcDbEntity
  8
01
100
AcDbLine
 10
5108.933910712383
 20
-316.9518152632472
 30
0.0
 11
5108.933910712383
 21
-317.7168733783719
 31
0.0
  0
LINE
  5
BB2C
330
18
100
AcDbEntity
  8
01
100
AcDbLine
 10
5108.933910712383
 20
-317.7168733783719
 30
0.0
 11
5108.933910712383
 21
-318.6001813717839
 31
0.0
  0
LINE
  5
BB2D
330
18
100
AcDbEntity
  8
01
100
AcDbLine
 10
5108.933910712383
 20
-318.6001813717839
 30
0.0
 11
5108.933910712383
 21
-319.5917296715734
 31
0.0
  0
LINE
  5
BB2E
330
18
100
AcDbEntity
  8
01
100
AcDbLine
 10
5108.933910712383
 20
-319.5917296715734
 30
0.0
 11
5108.933910712383
 21
-320.6802816697118
 31
0.0
  0
LINE
  5
BB2F
330
18
100
AcDbEntity
  8
01
100
AcDbLine
 10
5108.933910712383
 20
-320.6802816697118
 30
0.0
 11
5108.933910712383
 21
-321.8535011120794
 31
0.0
  0
LINE
  5
BB30
330
18
100
AcDbEntity
  8
01
100
AcDbLine
 10
5108.933910712383
 20
-321.8535011120794
 30
0.0
 11
5108.933910712384
 21
-341.1517307142573
 31
0.0
  0
LINE
  5
BB31
330
18
100
AcDbEntity
  8
01
100
AcDbLine
 10
5108.933910712384
 20
-341.1517307142573
 30
0.0
 11
5111.067106958062
 21
-340.9195686084095
 31
0.0
  0
LINE
  5
BB32
330
18
100
AcDbEntity
  8
01
100
AcDbLine
 10
5165.732021674297
 20
-333.4592674084661
 30
0.0
 11
5164.973125800274
 21
-333.6620376416204
 31
0.0
  0
LINE
  5
BB33
330
18
100
AcDbEntity
  8
01
100
AcDbLine
 10
5164.973125800274
 20
-333.6620376416204
 30
0.0
 11
5164.060543402813
 21
-333.9059303112981
 31
0.0
  0
LINE
  5
BB34
330
18
100
AcDbEntity
  8
01
100
AcDbLine
 10
5164.060543402813
 20
-333.9059303112981
 30
0.0
 11
5163.021023139141
 21
-334.1793563672063
 31
0.0
  0
LINE
  5
BB35
330
18
100
AcDbEntity
  8
01
100
AcDbLine
 10
5163.021023139141
 20
-334.1793563672063
 30
0.0
 11
5161.880398139141
 21
-334.4700191327092
 31
0.0
  0
LINE
  5
BB36
330
18
100
AcDbEntity
  8
01
100
AcDbLine
 10
5161.880398139141
 20
-334.4700191327092
 30
0.0
 11
5160.663189276836
 21
-334.7657096692083
 31
0.0
  0
LINE
  5
BB37
330
18
100
AcDbEntity
  8
01
100
AcDbLine
 10
5160.663189276836
 20
-334.7657096692083
 30
0.0
 11
5159.393566474102
 21
-335.0550582715032
 31
0.0
  0
LINE
  5
BB38
330
18
100
AcDbEntity
  8
01
100
AcDbLine
 10
5159.393566474102
 20
-335.0550582715032
 30
0.0
 11
5158.092556342266
 21
-335.3301132031438
 31
0.0
  0
LINE
  5
BB39
330
18
100
AcDbEntity
  8
01
100
AcDbLine
 10
5158.092556342266
 20
-335.3301132031438
 30
0.0
 11
5156.777843817852
 21
-335.5852611371038
 31
0.0
  0
LINE
  5
BB3A
330
18
100
AcDbEntity
  8
01
100
AcDbLine
 10
5156.777843817852
 20
-335.5852611371038
 30
0.0
 11
5155.456020697735
 21
-335.8204124279973
 31
0.0
  0
LINE
  5
BB3B
330
18
100
AcDbEntity
  8
01
100
AcDbLine
 10
5155.456020697735
 20
-335.8204124279973
 30
0.0
 11
5154.122997626446
 21
-336.0385711499212
 31
0.0
  0
LINE
  5
BB3C
330
18
100
AcDbEntity
  8
01
100
AcDbLine
 10
5154.122997626446
 20
-336.0385711499212
 30
0.0
 11
5152.769787177227
 21
-336.2437198468206
 31
0.0
  0
LINE
  5
BB3D
330
18
100
AcDbEntity
  8
01
100
AcDbLine
 10
5152.769787177227
 20
-336.2437198468206
 30
0.0
 11
5151.387295111797
 21
-336.4398105450628
 31
0.0
  0
LINE
  5
BB3E
330
18
100
AcDbEntity
  8
01
100
AcDbLine
 10
5151.387295111797
 20
-336.4398105450628
 30
0.0
 11
5149.970333441875
 21
-336.6296413250921
 31
0.0
  0
LINE
  5
BB3F
330
18
100
AcDbEntity
  8
01
100
AcDbLine
 10
5149.970333441875
 20
-336.6296413250921
 30
0.0
 11
5148.517742499493
 21
-336.8150298901555
 31
0.0
  0
LINE
  5
BB40
330
18
100
AcDbEntity
  8
01
100
AcDbLine
 10
5148.517742499493
 20
-336.8150298901555
 30
0.0
 11
5147.030788764141
 21
-336.9973209210393
 31
0.0
  0
LINE
  5
BB41
330
18
100
AcDbEntity
  8
01
100
AcDbLine
 10
5147.030788764141
 20
-336.9973209210393
 30
0.0
 11
5145.512523993633
 21
-337.1774337597844
 31
0.0
  0
LINE
  5
BB42
330
18
100
AcDbEntity
  8
01
100
AcDbLine
 10
5145.512523993633
 20
-337.1774337597844
 30
0.0
 11
5143.966823920391
 21
-337.3559596844671
 31
0.0
  0
LINE
  5
BB43
330
18
100
AcDbEntity
  8
01
100
AcDbLine
 10
5143.966823920391
 20
-337.3559596844671
 30
0.0
 11
5142.397747382305
 21
-337.5334041424749
 31
0.0
  0
LINE
  5
BB44
330
18
100
AcDbEntity
  8
01
100
AcDbLine
 10
5142.397747382305
 20
-337.5334041424749
 30
0.0
 11
5140.80929218211
 21
-337.7101314373967
 31
0.0
  0
LINE
  5
BB45
330
18
100
AcDbEntity
  8
01
100
AcDbLine
 10
5140.80929218211
 20
-337.7101314373967
 30
0.0
 11
5139.205227240704
 21
-337.8863971539495
 31
0.0
  0
LINE
  5
BB46
330
18
100
AcDbEntity
  8
01
100
AcDbLine
 10
5139.205227240704
 20
-337.8863971539495
 30
0.0
 11
5137.588619574688
 21
-338.0623767682073
 31
0.0
  0
LINE
  5
BB47
330
18
100
AcDbEntity
  8
01
100
AcDbLine
 10
5137.588619574688
 20
-338.0623767682073
 30
0.0
 11
5135.962322577618
 21
-338.2382190533635
 31
0.0
  0
LINE
  5
BB48
330
18
100
AcDbEntity
  8
01
100
AcDbLine
 10
5135.962322577618
 20
-338.2382190533635
 30
0.0
 11
5134.328945502422
 21
-338.4140594311712
 31
0.0
  0
LINE
  5
BB49
330
18
100
AcDbEntity
  8
01
100
AcDbLine
 10
5134.328945502422
 20
-338.4140594311712
 30
0.0
 11
5132.690121039532
 21
-338.5899703808782
 31
0.0
  0
LINE
  5
BB4A
330
18
100
AcDbEntity
  8
01
100
AcDbLine
 10
5132.690121039532
 20
-338.5899703808782
 30
0.0
 11
5131.047298773907
 21
-338.766007215595
 31
0.0
  0
LINE
  5
BB4B
330
18
100
AcDbEntity
  8
01
100
AcDbLine
 10
5131.047298773907
 20
-338.766007215595
 30
0.0
 11
5129.401882514141
 21
-338.9422233410833
 31
0.0
  0
LINE
  5
BB4C
330
18
100
AcDbEntity
  8
01
100
AcDbLine
 10
5129.401882514141
 20
-338.9422233410833
 30
0.0
 11
5127.754848822735
 21
-339.1186569043157
 31
0.0
  0
LINE
  5
BB4D
330
18
100
AcDbEntity
  8
01
100
AcDbLine
 10
5127.754848822735
 20
-339.1186569043157
 30
0.0
 11
5126.10682331004
 21
-339.2953288861272
 31
0.0
  0
LINE
  5
BB4E
330
18
100
AcDbEntity
  8
01
100
AcDbLine
 10
5126.10682331004
 20
-339.2953288861272
 30
0.0
 11
5124.458248480938
 21
-339.4722545453069
 31
0.0
  0
LINE
  5
BB4F
330
18
100
AcDbEntity
  8
01
100
AcDbLine
 10
5124.458248480938
 20
-339.4722545453069
 30
0.0
 11
5122.809490546368
 21
-339.6494434185979
 31
0.0
  0
LINE
  5
BB50
330
18
100
AcDbEntity
  8
01
100
AcDbLine
 10
5122.809490546368
 20
-339.6494434185979
 30
0.0
 11
5121.160808905743
 21
-339.8268993206975
 31
0.0
  0
LINE
  5
BB51
330
18
100
AcDbEntity
  8
01
100
AcDbLine
 10
5121.160808905743
 20
-339.8268993206975
 30
0.0
 11
5119.512295111797
 21
-340.0046222516057
 31
0.0
  0
LINE
  5
BB52
330
18
100
AcDbEntity
  8
01
100
AcDbLine
 10
5119.512295111797
 20
-340.0046222516057
 30
0.0
 11
5117.854244574688
 21
-340.1836822339055
 31
0.0
  0
LINE
  5
BB53
330
18
100
AcDbEntity
  8
01
100
AcDbLine
 10
5165.732021674297
 20
-333.4592712231633
 30
0.0
 11
5165.858959540508
 21
-333.421000272846
 31
0.0
  0
LINE
  5
BB54
330
18
100
AcDbEntity
  8
01
100
AcDbLine
 10
5165.858959540508
 20
-333.421000272846
 30
0.0
 11
5166.013012274883
 21
-333.3597591229436
 31
0.0
  0
LINE
  5
BB55
330
18
100
AcDbEntity
  8
01
100
AcDbLine
 10
5166.013012274883
 20
-333.3597591229436
 30
0.0
 11
5166.199337348125
 21
-333.2603786297796
 31
0.0
  0
LINE
  5
BB56
330
18
100
AcDbEntity
  8
01
100
AcDbLine
 10
5166.199337348125
 20
-333.2603786297796
 30
0.0
 11
5166.41199909129
 21
-333.1019513913152
 31
0.0
  0
LINE
  5
BB57
330
18
100
AcDbEntity
  8
01
100
AcDbLine
 10
5166.41199909129
 20
-333.1019513913152
 30
0.0
 11
5166.623791083477
 21
-332.872735769367
 31
0.0
  0
LINE
  5
BB58
330
18
100
AcDbEntity
  8
01
100
AcDbLine
 10
5166.623791083477
 20
-332.872735769367
 30
0.0
 11
5166.793438300274
 21
-332.5882432766912
 31
0.0
  0
LINE
  5
BB59
330
18
100
AcDbEntity
  8
01
100
AcDbLine
 10
5166.793438300274
 20
-332.5882432766912
 30
0.0
 11
5166.892910346172
 21
-332.2976367779729
 31
0.0
  0
LINE
  5
BB5A
330
18
100
AcDbEntity
  8
01
100
AcDbLine
 10
5166.892910346172
 20
-332.2976367779729
 30
0.0
 11
5166.928890570782
 21
-332.0664375134465
 31
0.0
  0
LINE
  5
BB5B
330
18
100
AcDbEntity
  8
01
100
AcDbLine
 10
5166.928890570782
 20
-332.0664375134465
 30
0.0
 11
5166.933910712383
 21
-331.9414127179143
 31
0.0
  0
LINE
  5
BB5C
330
18
100
AcDbEntity
  8
01
100
AcDbLine
 10
5166.933910712383
 20
-324.3654907055852
 30
0.0
 11
5166.930233344219
 21
-324.2552635975835
 31
0.0
  0
LINE
  5
BB5D
330
18
100
AcDbEntity
  8
01
100
AcDbLine
 10
5166.930233344219
 20
-324.2552635975835
 30
0.0
 11
5166.898846015118
 21
-324.0323059864995
 31
0.0
  0
LINE
  5
BB5E
330
18
100
AcDbEntity
  8
01
100
AcDbLine
 10
5166.898846015118
 20
-324.0323059864995
 30
0.0
 11
5166.805736884258
 21
-323.7427990742681
 31
0.0
  0
LINE
  5
BB5F
330
18
100
AcDbEntity
  8
01
100
AcDbLine
 10
5166.805736884258
 20
-323.7427990742681
 30
0.0
 11
5166.641033515118
 21
-323.4539439984319
 31
0.0
  0
LINE
  5
BB60
330
18
100
AcDbEntity
  8
01
100
AcDbLine
 10
5166.641033515118
 20
-323.4539439984319
 30
0.0
 11
5166.429851874493
 21
-323.217522890186
 31
0.0
  0
LINE
  5
BB61
330
18
100
AcDbEntity
  8
01
100
AcDbLine
 10
5166.429851874493
 20
-323.217522890186
 30
0.0
 11
5166.214657172344
 21
-323.0529024907109
 31
0.0
  0
LINE
  5
BB62
330
18
100
AcDbEntity
  8
01
100
AcDbLine
 10
5166.214657172344
 20
-323.0529024907109
 30
0.0
 11
5166.025005683086
 21
-322.9492810078618
 31
0.0
  0
LINE
  5
BB63
330
18
100
AcDbEntity
  8
01
100
AcDbLine
 10
5166.025005683086
 20
-322.9492810078618
 30
0.0
 11
5165.868175849102
 21
-322.8855750866887
 31
0.0
  0
LINE
  5
BB64
330
18
100
AcDbEntity
  8
01
100
AcDbLine
 10
5165.868175849102
 20
-322.8855750866887
 30
0.0
 11
5165.732021674297
 21
-322.8442237683294
 31
0.0
  0
LINE
  5
BB65
330
18
100
AcDbEntity
  8
01
100
AcDbLine
 10
5108.933910712383
 20
-315.151764661884
 30
0.0
 11
5110.555919989727
 21
-315.328327328777
 31
0.0
  0
LINE
  5
BB66
330
18
100
AcDbEntity
  8
01
100
AcDbLine
 10
5110.555919989727
 20
-315.328327328777
 30
0.0
 11
5112.177929267071
 21
-315.5046689816472
 31
0.0
  0
LINE
  5
BB67
330
18
100
AcDbEntity
  8
01
100
AcDbLine
 10
5112.177929267071
 20
-315.5046689816472
 30
0.0
 11
5113.80001483836
 21
-315.6807798453328
 31
0.0
  0
LINE
  5
BB68
330
18
100
AcDbEntity
  8
01
100
AcDbLine
 10
5113.80001483836
 20
-315.6807798453328
 30
0.0
 11
5115.422207221172
 21
-315.8566503830907
 31
0.0
  0
LINE
  5
BB69
330
18
100
AcDbEntity
  8
01
100
AcDbLine
 10
5115.422207221172
 20
-315.8566503830907
 30
0.0
 11
5117.044613227032
 21
-316.032271177387
 31
0.0
  0
LINE
  5
BB6A
330
18
100
AcDbEntity
  8
01
100
AcDbLine
 10
5117.044613227032
 20
-316.032271177387
 30
0.0
 11
5118.667232855938
 21
-316.2076359101293
 31
0.0
  0
LINE
  5
BB6B
330
18
100
AcDbEntity
  8
01
100
AcDbLine
 10
5118.667232855938
 20
-316.2076359101293
 30
0.0
 11
5120.290035590313
 21
-316.3827425547597
 31
0.0
  0
LINE
  5
BB6C
330
18
100
AcDbEntity
  8
01
100
AcDbLine
 10
5120.290035590313
 20
-316.3827425547597
 30
0.0
 11
5121.913006171368
 21
-316.5575890847203
 31
0.0
  0
LINE
  5
BB6D
330
18
100
AcDbEntity
  8
01
100
AcDbLine
 10
5121.913006171368
 20
-316.5575890847203
 30
0.0
 11
5123.536114081524
 21
-316.7321738012788
 31
0.0
  0
LINE
  5
BB6E
330
18
100
AcDbEntity
  8
01
100
AcDbLine
 10
5123.536114081524
 20
-316.7321738012788
 30
0.0
 11
5125.159267768047
 21
-316.9064961083886
 31
0.0
  0
LINE
  5
BB6F
330
18
100
AcDbEntity
  8
01
100
AcDbLine
 10
5125.159267768047
 20
-316.9064961083886
 30
0.0
 11
5126.782146796368
 21
-317.0805665709731
 31
0.0
  0
LINE
  5
BB70
330
18
100
AcDbEntity
  8
01
100
AcDbLine
 10
5126.782146796368
 20
-317.0805665709731
 30
0.0
 11
5128.404247626446
 21
-317.2544007234928
 31
0.0
  0
LINE
  5
BB71
330
18
100
AcDbEntity
  8
01
100
AcDbLine
 10
5128.404247626446
 20
-317.2544007234928
 30
0.0
 11
5130.025097235821
 21
-317.4280141451118
 31
0.0
  0
LINE
  5
BB72
330
18
100
AcDbEntity
  8
01
100
AcDbLine
 10
5130.025097235821
 20
-317.4280141451118
 30
0.0
 11
5131.64408527293
 21
-317.6014274366853
 31
0.0
  0
LINE
  5
BB73
330
18
100
AcDbEntity
  8
01
100
AcDbLine
 10
5131.64408527293
 20
-317.6014274366853
 30
0.0
 11
5133.260113104961
 21
-317.7746829696653
 31
0.0
  0
LINE
  5
BB74
330
18
100
AcDbEntity
  8
01
100
AcDbLine
 10
5133.260113104961
 20
-317.7746829696653
 30
0.0
 11
5134.871898993633
 21
-317.9478289195058
 31
0.0
  0
LINE
  5
BB75
330
18
100
AcDbEntity
  8
01
100
AcDbLine
 10
5134.871898993633
 20
-317.9478289195058
 30
0.0
 11
5136.478023871563
 21
-318.1209247418401
 31
0.0
  0
LINE
  5
BB76
330
18
100
AcDbEntity
  8
01
100
AcDbLine
 10
5136.478023871563
 20
-318.1209247418401
 30
0.0
 11
5138.076320990704
 21
-318.2940737315175
 31
0.0
  0
LINE
  5
BB77
330
18
100
AcDbEntity
  8
01
100
AcDbLine
 10
5138.076320990704
 20
-318.2940737315175
 30
0.0
 11
5139.664471015118
 21
-318.4673905678746
 31
0.0
  0
LINE
  5
BB78
330
18
100
AcDbEntity
  8
01
100
AcDbLine
 10
5139.664471015118
 20
-318.4673905678746
 30
0.0
 11
5141.23978839793
 21
-318.641017109966
 31
0.0
  0
LINE
  5
BB79
330
18
100
AcDbEntity
  8
01
100
AcDbLine
 10
5141.23978839793
 20
-318.641017109966
 30
0.0
 11
5142.798961981915
 21
-318.8151455231664
 31
0.0
  0
LINE
  5
BB7A
330
18
100
AcDbEntity
  8
01
100
AcDbLine
 10
5142.798961981915
 20
-318.8151455231664
 30
0.0
 11
5144.338390692852
 21
-318.9900648900029
 31
0.0
  0
LINE
  5
BB7B
330
18
100
AcDbEntity
  8
01
100
AcDbLine
 10
5144.338390692852
 20
-318.9900648900029
 30
0.0
 11
5145.85421405711
 21
-319.1661562033651
 31
0.0
  0
LINE
  5
BB7C
330
18
100
AcDbEntity
  8
01
100
AcDbLine
 10
5145.85421405711
 20
-319.1661562033651
 30
0.0
 11
5147.342556342266
 21
-319.3438582726476
 31
0.0
  0
LINE
  5
BB7D
330
18
100
AcDbEntity
  8
01
100
AcDbLine
 10
5147.342556342266
 20
-319.3438582726476
 30
0.0
 11
5148.799801215313
 21
-319.5238323517797
 31
0.0
  0
LINE
  5
BB7E
330
18
100
AcDbEntity
  8
01
100
AcDbLine
 10
5148.799801215313
 20
-319.5238323517797
 30
0.0
 11
5150.22350727
 21
-319.7070613213536
 31
0.0
  0
LINE
  5
BB7F
330
18
100
AcDbEntity
  8
01
100
AcDbLine
 10
5150.22350727
 20
-319.7070613213536
 30
0.0
 11
5151.612484320782
 21
-319.8948164292333
 31
0.0
  0
LINE
  5
BB80
330
18
100
AcDbEntity
  8
01
100
AcDbLine
 10
5151.612484320782
 20
-319.8948164292333
 30
0.0
 11
5152.968716010235
 21
-320.0890548535344
 31
0.0
  0
LINE
  5
BB81
330
18
100
AcDbEntity
  8
01
100
AcDbLine
 10
5152.968716010235
 20
-320.0890548535344
 30
0.0
 11
5154.297634467266
 21
-320.2925961323735
 31
0.0
  0
LINE
  5
BB82
330
18
100
AcDbEntity
  8
01
100
AcDbLine
 10
5154.297634467266
 20
-320.2925961323735
 30
0.0
 11
5155.607982978008
 21
-320.5091176339147
 31
0.0
  0
LINE
  5
BB83
330
18
100
AcDbEntity
  8
01
100
AcDbLine
 10
5155.607982978008
 20
-320.5091176339147
 30
0.0
 11
5156.90858112254
 21
-320.7426138230321
 31
0.0
  0
LINE
  5
BB84
330
18
100
AcDbEntity
  8
01
100
AcDbLine
 10
5156.90858112254
 20
-320.7426138230321
 30
0.0
 11
5158.202175482891
 21
-320.9956844159124
 31
0.0
  0
LINE
  5
BB85
330
18
100
AcDbEntity
  8
01
100
AcDbLine
 10
5158.202175482891
 20
-320.9956844159124
 30
0.0
 11
5159.481029853008
 21
-321.2675860234258
 31
0.0
  0
LINE
  5
BB86
330
18
100
AcDbEntity
  8
01
100
AcDbLine
 10
5159.481029853008
 20
-321.2675860234258
 30
0.0
 11
5160.72887836375
 21
-321.5533030339238
 31
0.0
  0
LINE
  5
BB87
330
18
100
AcDbEntity
  8
01
100
AcDbLine
 10
5160.72887836375
 20
-321.5533030339238
 30
0.0
 11
5161.924297675274
 21
-321.8444345303533
 31
0.0
  0
LINE
  5
BB88
330
18
100
AcDbEntity
  8
01
100
AcDbLine
 10
5161.924297675274
 20
-321.8444345303533
 30
0.0
 11
5163.044628485821
 21
-322.1302669354436
 31
0.0
  0
LINE
  5
BB89
330
18
100
AcDbEntity
  8
01
100
AcDbLine
 10
5163.044628485821
 20
-322.1302669354436
 30
0.0
 11
5164.066463812969
 21
-322.3991692372319
 31
0.0
  0
LINE
  5
BB8A
330
18
100
AcDbEntity
  8
01
100
AcDbLine
 10
5164.066463812969
 20
-322.3991692372319
 30
0.0
 11
5164.965084418438
 21
-322.6393125363347
 31
0.0
  0
LINE
  5
BB8B
330
18
100
AcDbEntity
  8
01
100
AcDbLine
 10
5164.965084418438
 20
-322.6393125363347
 30
0.0
 11
5165.732021674297
 21
-322.8442266293523
 31
0.0
  0
LINE
  5
BB8C
330
18
100
AcDbEntity
  8
01
100
AcDbLine
 10
5111.067074164532
 20
-340.9195678540227
 30
0.0
 11
5111.22091327586
 21
-340.8763988324163
 31
0.0
  0
LINE
  5
BB8D
330
18
100
AcDbEntity
  8
01
100
AcDbLine
 10
5111.22091327586
 20
-340.8763988324163
 30
0.0
 11
5111.461513861797
 21
-340.7956970044133
 31
0.0
  0
LINE
  5
BB8E
330
18
100
AcDbEntity
  8
01
100
AcDbLine
 10
5111.461513861797
 20
-340.7956970044133
 30
0.0
 11
5111.837215766094
 21
-340.6769664593694
 31
0.0
  0
LINE
  5
BB8F
330
18
100
AcDbEntity
  8
01
100
AcDbLine
 10
5111.837215766094
 20
-340.6769664593694
 30
0.0
 11
5112.331966742657
 21
-340.5371291943547
 31
0.0
  0
LINE
  5
BB90
330
18
100
AcDbEntity
  8
01
100
AcDbLine
 10
5112.331966742657
 20
-340.5371291943547
 30
0.0
 11
5112.926662787579
 21
-340.3947780438421
 31
0.0
  0
LINE
  5
BB91
330
18
100
AcDbEntity
  8
01
100
AcDbLine
 10
5112.926662787579
 20
-340.3947780438421
 30
0.0
 11
5113.597439154766
 21
-340.2673499890325
 31
0.0
  0
LINE
  5
BB92
330
18
100
AcDbEntity
  8
01
100
AcDbLine
 10
5113.597439154766
 20
-340.2673499890325
 30
0.0
 11
5114.315182074688
 21
-340.170096189594
 31
0.0
  0
LINE
  5
BB93
330
18
100
AcDbEntity
  8
01
100
AcDbLine
 10
5114.315182074688
 20
-340.170096189594
 30
0.0
 11
5115.044124945782
 21
-340.1105182476995
 31
0.0
  0
LINE
  5
BB94
330
18
100
AcDbEntity
  8
01
100
AcDbLine
 10
5115.044124945782
 20
-340.1105182476995
 30
0.0
 11
5115.746029242657
 21
-340.089852125263
 31
0.0
  0
LINE
  5
BB95
330
18
100
AcDbEntity
  8
01
100
AcDbLine
 10
5115.746029242657
 20
-340.089852125263
 30
0.0
 11
5116.384777411602
 21
-340.0991962262151
 31
0.0
  0
LINE
  5
BB96
330
18
100
AcDbEntity
  8
01
100
AcDbLine
 10
5116.384777411602
 20
-340.0991962262151
 30
0.0
 11
5116.929867133282
 21
-340.1265514203069
 31
0.0
  0
LINE
  5
BB97
330
18
100
AcDbEntity
  8
01
100
AcDbLine
 10
5116.929867133282
 20
-340.1265514203069
 30
0.0
 11
5117.35876117625
 21
-340.1575191327092
 31
0.0
  0
LINE
  5
BB98
330
18
100
AcDbEntity
  8
01
100
AcDbLine
 10
5117.35876117625
 20
-340.1575191327092
 30
0.0
 11
5117.655880316875
 21
-340.1801097699163
 31
0.0
  0
LINE
  5
BB99
330
18
100
AcDbEntity
  8
01
100
AcDbLine
 10
5117.655880316875
 20
-340.1801097699163
 30
0.0
 11
5117.853603705547
 21
-340.1835849591253
 31
0.0
  0
LINE
  5
BB9A
330
18
100
AcDbEntity
  8
01
100
AcDbLine
 10
5281.543974572408
 20
-334.25137765658
 30
0.0
 11
5281.623877221334
 21
-334.2469220901737
 31
0.0
  0
LINE
  5
BB9B
330
18
100
AcDbEntity
  8
01
100
AcDbLine
 10
5281.623877221334
 20
-334.2469220901737
 30
0.0
 11
5281.823012047994
 21
-334.2362104202518
 31
0.0
  0
LINE
  5
BB9C
330
18
100
AcDbEntity
  8
01
100
AcDbLine
 10
5281.823012047994
 20
-334.2362104202518
 30
0.0
 11
5282.137060815084
 21
-334.2206769729862
 31
0.0
  0
LINE
  5
BB9D
330
18
100
AcDbEntity
  8
01
100
AcDbLine
 10
5282.137060815084
 20
-334.2206769729862
 30
0.0
 11
5282.554442101705
 21
-334.2025266433964
 31
0.0
  0
LINE
  5
BB9E
330
18
100
AcDbEntity
  8
01
100
AcDbLine
 10
5282.554442101705
 20
-334.2025266433964
 30
0.0
 11
5283.059965783345
 21
-334.18448312533
 31
0.0
  0
LINE
  5
BB9F
330
18
100
AcDbEntity
  8
01
100
AcDbLine
 10
5283.059965783345
 20
-334.18448312533
 30
0.0
 11
5283.635176354634
 21
-334.1691633011112
 31
0.0
  0
LINE
  5
BBA0
330
18
100
AcDbEntity
  8
01
100
AcDbLine
 10
5283.635176354634
 20
-334.1691633011112
 30
0.0
 11
5284.258711510884
 21
-334.1588331009159
 31
0.0
  0
LINE
  5
BBA1
330
18
100
AcDbEntity
  8
01
100
AcDbLine
 10
5284.258711510884
 20
-334.1588331009159
 30
0.0
 11
5284.9339129269
 21
-334.1549726272831
 31
0.0
  0
LINE
  5
BBA2
330
18
100
AcDbEntity
  8
01
100
AcDbLine
 10
5288.333700829732
 20
-334.2516599441776
 30
0.0
 11
5288.256643944967
 21
-334.2476850296268
 31
0.0
  0
LINE
  5
BBA3
330
18
100
AcDbEntity
  8
01
100
AcDbLine
 10
5288.256643944967
 20
-334.2476850296268
 30
0.0
 11
5288.065481835592
 21
-334.2373166824589
 31
0.0
  0
LINE
  5
BBA4
330
18
100
AcDbEntity
  8
01
100
AcDbLine
 10
5288.065481835592
 20
-334.2373166824589
 30
0.0
 11
5287.756239587056
 21
-334.2218671585331
 31
0.0
  0
LINE
  5
BBA5
330
18
100
AcDbEntity
  8
01
100
AcDbLine
 10
5287.756239587056
 20
-334.2218671585331
 30
0.0
 11
5287.340315514791
 21
-334.2036176468143
 31
0.0
  0
LINE
  5
BBA6
330
18
100
AcDbEntity
  8
01
100
AcDbLine
 10
5287.340315514791
 20
-334.2036176468143
 30
0.0
 11
5286.833258324849
 21
-334.1852765823612
 31
0.0
  0
LINE
  5
BBA7
330
18
100
AcDbEntity
  8
01
100
AcDbLine
 10
5286.833258324849
 20
-334.1852765823612
 30
0.0
 11
5286.253843957174
 21
-334.1696973587284
 31
0.0
  0
LINE
  5
BBA8
330
18
100
AcDbEntity
  8
01
100
AcDbLine
 10
5286.253843957174
 20
-334.1696973587284
 30
0.0
 11
5285.624312096822
 21
-334.1590085769901
 31
0.0
  0
LINE
  5
BBA9
330
18
100
AcDbEntity
  8
01
100
AcDbLine
 10
5285.624312096822
 20
-334.1590085769901
 30
0.0
 11
5284.9339129269
 21
-334.1549726272831
 31
0.0
  0
LINE
  5
BBAA
330
18
100
AcDbEntity
  8
01
100
AcDbLine
 10
5361.543974572408
 20
-334.25137765658
 30
0.0
 11
5361.623869591939
 21
-334.2469220901737
 31
0.0
  0
LINE
  5
BBAB
330
18
100
AcDbEntity
  8
01
100
AcDbLine
 10
5361.623869591939
 20
-334.2469220901737
 30
0.0
 11
5361.823012047994
 21
-334.2362104202518
 31
0.0
  0
LINE
  5
BBAC
330
18
100
AcDbEntity
  8
01
100
AcDbLine
 10
5361.823012047994
 20
-334.2362104202518
 30
0.0
 11
5362.137068444478
 21
-334.2206769729862
 31
0.0
  0
LINE
  5
BBAD
330
18
100
AcDbEntity
  8
01
100
AcDbLine
 10
5362.137068444478
 20
-334.2206769729862
 30
0.0
 11
5362.554442101705
 21
-334.2025266433964
 31
0.0
  0
LINE
  5
BBAE
330
18
100
AcDbEntity
  8
01
100
AcDbLine
 10
5362.554442101705
 20
-334.2025266433964
 30
0.0
 11
5363.059965783345
 21
-334.18448312533
 31
0.0
  0
LINE
  5
BBAF
330
18
100
AcDbEntity
  8
01
100
AcDbLine
 10
5363.059965783345
 20
-334.18448312533
 30
0.0
 11
5363.635176354634
 21
-334.1691633011112
 31
0.0
  0
LINE
  5
BBB0
330
18
100
AcDbEntity
  8
01
100
AcDbLine
 10
5363.635176354634
 20
-334.1691633011112
 30
0.0
 11
5364.258711510884
 21
-334.1588331009159
 31
0.0
  0
LINE
  5
BBB1
330
18
100
AcDbEntity
  8
01
100
AcDbLine
 10
5364.258711510884
 20
-334.1588331009159
 30
0.0
 11
5364.9339129269
 21
-334.1549726272831
 31
0.0
  0
LINE
  5
BBB2
330
18
100
AcDbEntity
  8
01
100
AcDbLine
 10
5368.333693200338
 20
-334.2516599441776
 30
0.0
 11
5368.256636315572
 21
-334.2476850296268
 31
0.0
  0
LINE
  5
BBB3
330
18
100
AcDbEntity
  8
01
100
AcDbLine
 10
5368.256636315572
 20
-334.2476850296268
 30
0.0
 11
5368.065474206197
 21
-334.2373166824589
 31
0.0
  0
LINE
  5
BBB4
330
18
100
AcDbEntity
  8
01
100
AcDbLine
 10
5368.065474206197
 20
-334.2373166824589
 30
0.0
 11
5367.756239587056
 21
-334.2218671585331
 31
0.0
  0
LINE
  5
BBB5
330
18
100
AcDbEntity
  8
01
100
AcDbLine
 10
5367.756239587056
 20
-334.2218671585331
 30
0.0
 11
5367.340315514791
 21
-334.2036176468143
 31
0.0
  0
LINE
  5
BBB6
330
18
100
AcDbEntity
  8
01
100
AcDbLine
 10
5367.340315514791
 20
-334.2036176468143
 30
0.0
 11
5366.833265954244
 21
-334.1852765823612
 31
0.0
  0
LINE
  5
BBB7
330
18
100
AcDbEntity
  8
01
100
AcDbLine
 10
5366.833265954244
 20
-334.1852765823612
 30
0.0
 11
5366.253843957174
 21
-334.1696973587284
 31
0.0
  0
LINE
  5
BBB8
330
18
100
AcDbEntity
  8
01
100
AcDbLine
 10
5366.253843957174
 20
-334.1696973587284
 30
0.0
 11
5365.624312096822
 21
-334.1590085769901
 31
0.0
  0
LINE
  5
BBB9
330
18
100
AcDbEntity
  8
01
100
AcDbLine
 10
5365.624312096822
 20
-334.1590085769901
 30
0.0
 11
5364.9339129269
 21
-334.1549726272831
 31
0.0
  0
LINE
  5
BBBA
330
18
100
AcDbEntity
  8
1DIM
100
AcDbLine
 10
5274.433914002544
 20
-392.1517474957459
 30
0.0
 11
5416.233914002544
 21
-392.1517474957459
 31
0.0
1001
ACAD
1000
DSTYLE
1002
{
1070
    40
1040
1.3
1070
    45
1040
0.5
1070
   341
1005
0
1002
}
  0
LINE
  5
BBBB
330
18
100
AcDbEntity
  8
1DIM
100
AcDbLine
 10
5274.433914002544
 20
-214.1517474957459
 30
0.0
 11
5416.233914002544
 21
-214.1517474957459
 31
0.0
1001
ACAD
1000
DSTYLE
1002
{
1070
    40
1040
1.3
1070
    45
1040
0.5
1070
   341
1005
0
1002
}
  0
LINE
  5
BBBC
330
18
100
AcDbEntity
  8
1DIM
100
AcDbLine
 10
5414.933914002544
 20
-389.5517474957459
 30
0.0
 11
5414.933914002544
 21
-216.7517474957459
 31
0.0
1001
ACAD
1000
DSTYLE
1002
{
1070
    40
1040
1.3
1070
    45
1040
0.5
1070
   341
1005
0
1002
}
  0
LINE
  5
BBC0
330
18
100
AcDbEntity
  8
1DIM
100
AcDbLine
 10
5224.933914002544
 20
-214.6517474957459
 30
0.0
 11
5224.933914002544
 21
-207.4517474957462
 31
0.0
1001
ACAD
1000
DSTYLE
1002
{
1070
    40
1040
1.3
1070
    45
1040
0.5
1070
   341
1005
0
1002
}
  0
LINE
  5
BBC1
330
18
100
AcDbEntity
  8
1DIM
100
AcDbLine
 10
5274.933914002544
 20
-214.6517474957459
 30
0.0
 11
5274.933914002544
 21
-207.4517474957462
 31
0.0
1001
ACAD
1000
DSTYLE
1002
{
1070
    40
1040
1.3
1070
    45
1040
0.5
1070
   341
1005
0
1002
}
  0
LINE
  5
BBC2
330
18
100
AcDbEntity
  8
1DIM
100
AcDbLine
 10
5227.533914002544
 20
-208.7517474957463
 30
0.0
 11
5272.333914002544
 21
-208.7517474957463
 31
0.0
1001
ACAD
1000
DSTYLE
1002
{
1070
    40
1040
1.3
1070
    45
1040
0.5
1070
   341
1005
0
1002
}
  0
LINE
  5
BBC6
330
18
100
AcDbEntity
  8
1DIM
100
AcDbLine
 10
5352.689178339637
 20
-93.12503714628883
 30
0.0
 11
5397.734027359298
 21
-93.12503714628883
 31
0.0
1001
ACAD
1000
DSTYLE
1002
{
1070
    40
1040
1.3
1002
}
  0
LINE
  5
BBC7
330
18
100
AcDbEntity
  8
1DIM
100
AcDbLine
 10
5378.38137605967
 20
-134.1250370931261
 30
0.0
 11
5397.734027359298
 21
-134.1250370931261
 31
0.0
1001
ACAD
1000
DSTYLE
1002
{
1070
    40
1040
1.3
1002
}
  0
LINE
  5
BBC8
330
18
100
AcDbEntity
  8
1DIM
100
AcDbLine
 10
5396.434027359298
 20
-95.72503714628883
 30
0.0
 11
5396.434027359298
 21
-131.5250370931261
 31
0.0
1001
ACAD
1000
DSTYLE
1002
{
1070
    40
1040
1.3
1002
}
  0
LINE
  5
BBCC
330
18
100
AcDbEntity
  8
1DIM
100
AcDbLine
 10
5352.689178339637
 20
-93.12503714628883
 30
0.0
 11
5407.734027359298
 21
-93.12503714628883
 31
0.0
1001
ACAD
1000
DSTYLE
1002
{
1070
    40
1040
1.3
1002
}
  0
LINE
  5
BBCD
330
18
100
AcDbEntity
  8
1DIM
100
AcDbLine
 10
5378.381373950609
 20
-160.1250370931268
 30
0.0
 11
5407.734027359298
 21
-160.1250370931268
 31
0.0
1001
ACAD
1000
DSTYLE
1002
{
1070
    40
1040
1.3
1002
}
  0
LINE
  5
BBCE
330
18
100
AcDbEntity
  8
1DIM
100
AcDbLine
 10
5406.434027359298
 20
-95.72503714628883
 30
0.0
 11
5406.434027359298
 21
-157.5250370931268
 31
0.0
1001
ACAD
1000
DSTYLE
1002
{
1070
    40
1040
1.3
1002
}
  0
LINE
  5
BBD2
330
18
100
AcDbEntity
  8
1DIM
100
AcDbLine
 10
5249.93403034229
 20
-114.6250371462888
 30
0.0
 11
5249.93403034229
 21
-176.4250370931264
 31
0.0
1001
ACAD
1000
DSTYLE
1002
{
1070
    40
1040
1.3
1002
}
  0
LINE
  5
BBD3
330
18
100
AcDbEntity
  8
1DIM
100
AcDbLine
 10
5381.434019333593
 20
-147.1250370966444
 30
0.0
 11
5381.434019333593
 21
-176.4250370931264
 31
0.0
1001
ACAD
1000
DSTYLE
1002
{
1070
    40
1040
1.3
1002
}
  0
LINE
  5
BBD4
330
18
100
AcDbEntity
  8
1DIM
100
AcDbLine
 10
5252.53403034229
 20
-175.1250370931264
 30
0.0
 11
5378.834019333593
 21
-175.1250370931264
 31
0.0
1001
ACAD
1000
DSTYLE
1002
{
1070
    40
1040
1.3
1002
}
  0
LINE
  5
BBD8
330
18
100
AcDbEntity
  8
1DIM
100
AcDbLine
 10
5236.916261684871
 20
-107.6250321410886
 30
0.0
 11
5236.916261684871
 21
-186.4250370931264
 31
0.0
1001
ACAD
1000
DSTYLE
1002
{
1070
    40
1040
1.3
1070
   271
1070
     1
1002
}
  0
LINE
  5
BBD9
330
18
100
AcDbEntity
  8
1DIM
100
AcDbLine
 10
5381.434019333593
 20
-147.1250370966444
 30
0.0
 11
5381.434019333593
 21
-186.4250370931264
 31
0.0
1001
ACAD
1000
DSTYLE
1002
{
1070
    40
1040
1.3
1070
   271
1070
     1
1002
}
  0
LINE
  5
BBDA
330
18
100
AcDbEntity
  8
1DIM
100
AcDbLine
 10
5239.516261684871
 20
-185.1250370931264
 30
0.0
 11
5378.834019333593
 21
-185.1250370931264
 31
0.0
1001
ACAD
1000
DSTYLE
1002
{
1070
    40
1040
1.3
1070
   271
1070
     1
1002
}
  0
LINE
  5
BBDE
330
18
100
AcDbEntity
  8
1DIM
100
AcDbLine
 10
5379.933900285946
 20
-334.5769705713425
 30
0.0
 11
5397.733911019553
 21
-334.5769705713425
 31
0.0
1001
ACAD
1000
DSTYLE
1002
{
1070
    40
1040
1.3
1070
   271
1070
     0
1002
}
  0
LINE
  5
BBDF
330
18
100
AcDbEntity
  8
1DIM
100
AcDbLine
 10
5379.933900285946
 20
-321.7264477362023
 30
0.0
 11
5397.733911019553
 21
-321.7264477362023
 31
0.0
1001
ACAD
1000
DSTYLE
1002
{
1070
    40
1040
1.3
1070
   271
1070
     0
1002
}
  0
LINE
  5
BBE0
330
18
100
AcDbEntity
  8
1DIM
100
AcDbLine
 10
5396.433911019552
 20
-331.9769705713425
 30
0.0
 11
5396.433911019552
 21
-324.3264477362023
 31
0.0
1001
ACAD
1000
DSTYLE
1002
{
1070
    40
1040
1.3
1070
   271
1070
     0
1002
}
  0
LINE
  5
BBE4
330
18
100
AcDbEntity
  8
0
  6
BYBLOCK
100
AcDbLine
 10
5415.630581896544
 20
-389.5517474957459
 30
0.0
 11
5414.933914002544
 21
-392.1517474957459
 31
0.0
  0
LINE
  5
BBE5
330
18
100
AcDbEntity
  8
0
  6
BYBLOCK
100
AcDbLine
 10
5414.933914002544
 20
-392.1517474957459
 30
0.0
 11
5414.237246108544
 21
-389.5517474957459
 31
0.0
  0
LINE
  5
BBE6
330
18
100
AcDbEntity
  8
0
  6
BYBLOCK
100
AcDbLine
 10
5414.933914002544
 20
-392.1517474957459
 30
0.0
 11
5414.933914002544
 21
-389.5517474957459
 31
0.0
  0
LINE
  5
BBE7
330
18
100
AcDbEntity
  8
0
  6
BYBLOCK
100
AcDbLine
 10
5414.237246108544
 20
-216.7517474957459
 30
0.0
 11
5414.933914002544
 21
-214.1517474957459
 31
0.0
  0
LINE
  5
BBE8
330
18
100
AcDbEntity
  8
0
  6
BYBLOCK
100
AcDbLine
 10
5414.933914002544
 20
-214.1517474957459
 30
0.0
 11
5415.630581896544
 21
-216.7517474957459
 31
0.0
  0
LINE
  5
BBE9
330
18
100
AcDbEntity
  8
0
  6
BYBLOCK
100
AcDbLine
 10
5414.933914002544
 20
-214.1517474957459
 30
0.0
 11
5414.933914002544
 21
-216.7517474957459
 31
0.0
  0
TEXT
  5
BBEA
330
18
100
AcDbEntity
  8
1DIM
  6
CONTINUOUS
100
AcDbText
 10
5414.023914002543
 20
-308.4600808290788
 30
0.0
 40
4.55
  1
178
 50
90.0
100
AcDbText
1001
ACAD
1000
DSTYLE
1002
{
1070
    40
1040
1.3
1070
    45
1040
0.5
1070
   341
1005
0
1002
}
  0
LINE
  5
BBEB
330
18
100
AcDbEntity
  8
0
  6
BYBLOCK
100
AcDbLine
 10
5227.533914002544
 20
-209.4484153897463
 30
0.0
 11
5224.933914002544
 21
-208.7517474957463
 31
0.0
  0
LINE
  5
BBEC
330
18
100
AcDbEntity
  8
0
  6
BYBLOCK
100
AcDbLine
 10
5224.933914002544
 20
-208.7517474957463
 30
0.0
 11
5227.533914002544
 21
-208.0550796017463
 31
0.0
  0
LINE
  5
BBED
330
18
100
AcDbEntity
  8
0
  6
BYBLOCK
100
AcDbLine
 10
5224.933914002544
 20
-208.7517474957463
 30
0.0
 11
5227.533914002544
 21
-208.7517474957463
 31
0.0
  0
LINE
  5
BBEE
330
18
100
AcDbEntity
  8
0
  6
BYBLOCK
100
AcDbLine
 10
5272.333914002544
 20
-208.0550796017463
 30
0.0
 11
5274.933914002544
 21
-208.7517474957463
 31
0.0
  0
LINE
  5
BBEF
330
18
100
AcDbEntity
  8
0
  6
BYBLOCK
100
AcDbLine
 10
5274.933914002544
 20
-208.7517474957463
 30
0.0
 11
5272.333914002544
 21
-209.4484153897463
 31
0.0
  0
LINE
  5
BBF0
330
18
100
AcDbEntity
  8
0
  6
BYBLOCK
100
AcDbLine
 10
5274.933914002544
 20
-208.7517474957463
 30
0.0
 11
5272.333914002544
 21
-208.7517474957463
 31
0.0
  0
TEXT
  5
BBF1
330
18
100
AcDbEntity
  8
1DIM
  6
CONTINUOUS
100
AcDbText
 10
5246.410823724766
 20
-207.8417474957463
 30
0.0
 40
4.55
  1
50
100
AcDbText
1001
ACAD
1000
DSTYLE
1002
{
1070
    40
1040
1.3
1070
    45
1040
0.5
1070
   341
1005
0
1002
}
  0
LINE
  5
BBF2
330
18
100
AcDbEntity
  8
0
  6
BYBLOCK
100
AcDbLine
 10
5395.737359465298
 20
-95.72503714628883
 30
0.0
 11
5396.434027359298
 21
-93.12503714628883
 31
0.0
  0
LINE
  5
BBF3
330
18
100
AcDbEntity
  8
0
  6
BYBLOCK
100
AcDbLine
 10
5396.434027359298
 20
-93.12503714628883
 30
0.0
 11
5397.130695253298
 21
-95.72503714628883
 31
0.0
  0
LINE
  5
BBF4
330
18
100
AcDbEntity
  8
0
  6
BYBLOCK
100
AcDbLine
 10
5396.434027359298
 20
-93.12503714628883
 30
0.0
 11
5396.434027359298
 21
-95.72503714628883
 31
0.0
  0
LINE
  5
BBF5
330
18
100
AcDbEntity
  8
0
  6
BYBLOCK
100
AcDbLine
 10
5397.130695253298
 20
-131.5250370931261
 30
0.0
 11
5396.434027359298
 21
-134.1250370931261
 31
0.0
  0
LINE
  5
BBF6
330
18
100
AcDbEntity
  8
0
  6
BYBLOCK
100
AcDbLine
 10
5396.434027359298
 20
-134.1250370931261
 30
0.0
 11
5395.737359465298
 21
-131.5250370931261
 31
0.0
  0
LINE
  5
BBF7
330
18
100
AcDbEntity
  8
0
  6
BYBLOCK
100
AcDbLine
 10
5396.434027359298
 20
-134.1250370931261
 30
0.0
 11
5396.434027359298
 21
-131.5250370931261
 31
0.0
  0
TEXT
  5
BBF8
330
18
100
AcDbEntity
  8
1DIM
  6
CONTINUOUS
100
AcDbText
 10
5395.524027359298
 20
-116.6583704530403
 30
0.0
 40
4.55
  1
41
 50
90.0
100
AcDbText
1001
ACAD
1000
DSTYLE
1002
{
1070
    40
1040
1.3
1002
}
  0
LINE
  5
BBF9
330
18
100
AcDbEntity
  8
0
  6
BYBLOCK
100
AcDbLine
 10
5405.737359465298
 20
-95.72503714628883
 30
0.0
 11
5406.434027359298
 21
-93.12503714628883
 31
0.0
  0
LINE
  5
BBFA
330
18
100
AcDbEntity
  8
0
  6
BYBLOCK
100
AcDbLine
 10
5406.434027359298
 20
-93.12503714628883
 30
0.0
 11
5407.130695253298
 21
-95.72503714628883
 31
0.0
  0
LINE
  5
BBFB
330
18
100
AcDbEntity
  8
0
  6
BYBLOCK
100
AcDbLine
 10
5406.434027359298
 20
-93.12503714628883
 30
0.0
 11
5406.434027359298
 21
-95.72503714628883
 31
0.0
  0
LINE
  5
BBFC
330
18
100
AcDbEntity
  8
0
  6
BYBLOCK
100
AcDbLine
 10
5407.130695253298
 20
-157.5250370931268
 30
0.0
 11
5406.434027359298
 21
-160.1250370931268
 31
0.0
  0
LINE
  5
BBFD
330
18
100
AcDbEntity
  8
0
  6
BYBLOCK
100
AcDbLine
 10
5406.434027359298
 20
-160.1250370931268
 30
0.0
 11
5405.737359465298
 21
-157.5250370931268
 31
0.0
  0
LINE
  5
BBFE
330
18
100
AcDbEntity
  8
0
  6
BYBLOCK
100
AcDbLine
 10
5406.434027359298
 20
-160.1250370931268
 30
0.0
 11
5406.434027359298
 21
-157.5250370931268
 31
0.0
  0
TEXT
  5
BBFF
330
18
100
AcDbEntity
  8
1DIM
  6
CONTINUOUS
100
AcDbText
 10
5405.524027359297
 20
-130.4325023974843
 30
0.0
 40
4.55
  1
67
 50
90.0
100
AcDbText
1001
ACAD
1000
DSTYLE
1002
{
1070
    40
1040
1.3
1002
}
  0
LINE
  5
BC00
330
18
100
AcDbEntity
  8
0
  6
BYBLOCK
100
AcDbLine
 10
5252.53403034229
 20
-175.8217049871264
 30
0.0
 11
5249.93403034229
 21
-175.1250370931264
 31
0.0
  0
LINE
  5
BC01
330
18
100
AcDbEntity
  8
0
  6
BYBLOCK
100
AcDbLine
 10
5249.93403034229
 20
-175.1250370931264
 30
0.0
 11
5252.53403034229
 21
-174.4283691991264
 31
0.0
  0
LINE
  5
BC02
330
18
100
AcDbEntity
  8
0
  6
BYBLOCK
100
AcDbLine
 10
5249.93403034229
 20
-175.1250370931264
 30
0.0
 11
5252.53403034229
 21
-175.1250370931264
 31
0.0
  0
LINE
  5
BC03
330
18
100
AcDbEntity
  8
0
  6
BYBLOCK
100
AcDbLine
 10
5378.834019333593
 20
-174.4283691991264
 30
0.0
 11
5381.434019333593
 21
-175.1250370931264
 31
0.0
  0
LINE
  5
BC04
330
18
100
AcDbEntity
  8
0
  6
BYBLOCK
100
AcDbLine
 10
5381.434019333593
 20
-175.1250370931264
 30
0.0
 11
5378.834019333593
 21
-175.8217049871264
 31
0.0
  0
LINE
  5
BC05
330
18
100
AcDbEntity
  8
0
  6
BYBLOCK
100
AcDbLine
 10
5381.434019333593
 20
-175.1250370931264
 30
0.0
 11
5378.834019333593
 21
-175.1250370931264
 31
0.0
  0
TEXT
  5
BC06
330
18
100
AcDbEntity
  8
1DIM
  6
CONTINUOUS
100
AcDbText
 10
5308.100691504608
 20
-174.2150370931264
 30
0.0
 40
4.55
  1
131.5
100
AcDbText
1001
ACAD
1000
DSTYLE
1002
{
1070
    40
1040
1.3
1002
}
  0
LINE
  5
BC07
330
18
100
AcDbEntity
  8
0
  6
BYBLOCK
100
AcDbLine
 10
5239.516261684871
 20
-185.8217049871264
 30
0.0
 11
5236.916261684871
 21
-185.1250370931264
 31
0.0
  0
LINE
  5
BC08
330
18
100
AcDbEntity
  8
0
  6
BYBLOCK
100
AcDbLine
 10
5236.916261684871
 20
-185.1250370931264
 30
0.0
 11
5239.516261684871
 21
-184.4283691991264
 31
0.0
  0
LINE
  5
BC09
330
18
100
AcDbEntity
  8
0
  6
BYBLOCK
100
AcDbLine
 10
5236.916261684871
 20
-185.1250370931264
 30
0.0
 11
5239.516261684871
 21
-185.1250370931264
 31
0.0
  0
LINE
  5
BC0A
330
18
100
AcDbEntity
  8
0
  6
BYBLOCK
100
AcDbLine
 10
5378.834019333593
 20
-184.4283691991264
 30
0.0
 11
5381.434019333593
 21
-185.1250370931264
 31
0.0
  0
LINE
  5
BC0B
330
18
100
AcDbEntity
  8
0
  6
BYBLOCK
100
AcDbLine
 10
5381.434019333593
 20
-185.1250370931264
 30
0.0
 11
5378.834019333593
 21
-185.8217049871264
 31
0.0
  0
LINE
  5
BC0C
330
18
100
AcDbEntity
  8
0
  6
BYBLOCK
100
AcDbLine
 10
5381.434019333593
 20
-185.1250370931264
 30
0.0
 11
5378.834019333593
 21
-185.1250370931264
 31
0.0
  0
TEXT
  5
BC0D
330
18
100
AcDbEntity
  8
1DIM
  6
CONTINUOUS
100
AcDbText
 10
5309.592362592632
 20
-184.2150370931264
 30
0.0
 40
4.55
  1
144.5
100
AcDbText
1001
ACAD
1000
DSTYLE
1002
{
1070
    40
1040
1.3
1070
   271
1070
     1
1002
}
  0
LINE
  5
BC0E
330
18
100
AcDbEntity
  8
0
  6
BYBLOCK
100
AcDbLine
 10
5397.130578913552
 20
-331.9769705713425
 30
0.0
 11
5396.433911019552
 21
-334.5769705713425
 31
0.0
  0
LINE
  5
BC0F
330
18
100
AcDbEntity
  8
0
  6
BYBLOCK
100
AcDbLine
 10
5396.433911019552
 20
-334.5769705713425
 30
0.0
 11
5395.737243125553
 21
-331.9769705713425
 31
0.0
  0
LINE
  5
BC10
330
18
100
AcDbEntity
  8
0
  6
BYBLOCK
100
AcDbLine
 10
5396.433911019552
 20
-334.5769705713425
 30
0.0
 11
5396.433911019552
 21
-331.9769705713425
 31
0.0
  0
LINE
  5
BC11
330
18
100
AcDbEntity
  8
0
  6
BYBLOCK
100
AcDbLine
 10
5395.737243125553
 20
-324.3264477362023
 30
0.0
 11
5396.433911019552
 21
-321.7264477362023
 31
0.0
  0
LINE
  5
BC12
330
18
100
AcDbEntity
  8
0
  6
BYBLOCK
100
AcDbLine
 10
5396.433911019552
 20
-321.7264477362023
 30
0.0
 11
5397.130578913552
 21
-324.3264477362023
 31
0.0
  0
LINE
  5
BC13
330
18
100
AcDbEntity
  8
0
  6
BYBLOCK
100
AcDbLine
 10
5396.433911019552
 20
-321.7264477362023
 30
0.0
 11
5396.433911019552
 21
-324.3264477362023
 31
0.0
  0
TEXT
  5
BC14
330
18
100
AcDbEntity
  8
1DIM
  6
CONTINUOUS
100
AcDbText
 10
5395.523911019553
 20
-331.1850424871054
 30
0.0
 40
4.55
  1
13
 50
90.0
100
AcDbText
1001
ACAD
1000
DSTYLE
1002
{
1070
    40
1040
1.3
1070
   271
1070
     0
1002
}
  0
VIEWPORT
  5
57
330
15
100
AcDbEntity
 67
     1
  8
0
100
AcDbViewport
 68
     1
 10
0.0
 20
0.0
 30
0.0
 40
555.8298653610772
 41
297.0
 68
     1
 69
     1
1001
ACAD
1000
MVIEW
1002
{
1070
    16
1010
0.0
1020
0.0
1030
0.0
1010
0.0
1020
0.0
1030
1.0
1040
0.0
1040
297.0
1040
5.728000000000009
1040
25.339
1040
50.0
1040
0.0
1040
0.0
1070
    16
1070
   100
1070
     0
1070
     1
1070
     0
1070
     0
1070
     0
1070
     0
1040
0.0
1040
0.0
1040
0.0
1040
10.0
1040
10.0
1040
10.0
1040
10.0
1070
     0
1002
{
1002
}
1002
}
  0
ENDSEC
  0
SECTION
  2
OBJECTS
  0
DICTIONARY
  5
C
330
0
100
AcDbDictionary
  3
ACAD_CIP_PREVIOUS_PRODUCT_INFO
350
AEA8
  3
ACAD_COLOR
350
18D
  3
ACAD_GROUP
350
D
  3
ACAD_LAYOUT
350
18E
  3
ACAD_MATERIAL
350
18C
  3
ACAD_MLEADERSTYLE
350
9583
  3
ACAD_MLINESTYLE
350
1B
  3
ACAD_PLOTSETTINGS
350
18F
  3
ACAD_SCALELIST
350
9561
  3
ACAD_VISUALSTYLE
350
9550
  3
ACDBHEADERROUNDTRIPXREC
350
BC15
  3
ACDBVARIABLEDICTIONARY
350
37
  3
AEC_PROPERTY_SET_DEFS
350
AF70
  3
CONTENTDICTIONARY
350
D8
  3
DRAWINGVARIABLESDICT
350
20
  3
DWGPROPS
350
BC18
1001
ACAD
1000
TREAT_AS_HARD
1070
     0
  0
DICTIONARY
  5
96D9
330
2
100
AcDbDictionary
  3
ACAD_LAYERSTATES
360
96DA
1001
ACAD
1000
TREAT_AS_HARD
1070
     1
  0
DICTIONARY
  5
9593
330
E
100
AcDbDictionary
  3
ADSK_XREC_LAYER_RECONCILED
360
9594
1001
ACAD
1000
TREAT_AS_HARD
1070
     1
  0
DICTIONARY
  5
9595
330
29
100
AcDbDictionary
  3
ADSK_XREC_LAYER_RECONCILED
360
9596
1001
ACAD
1000
TREAT_AS_HARD
1070
     1
  0
DICTIONARY
  5
9597
330
31
100
AcDbDictionary
  3
ADSK_XREC_LAYER_RECONCILED
360
9598
1001
ACAD
1000
TREAT_AS_HARD
1070
     1
  0
DICTIONARY
  5
959D
330
243
100
AcDbDictionary
  3
ADSK_XREC_LAYER_RECONCILED
360
959E
1001
ACAD
1000
TREAT_AS_HARD
1070
     1
  0
DICTIONARY
  5
95A3
330
24E
100
AcDbDictionary
  3
ADSK_XREC_LAYER_RECONCILED
360
95A4
1001
ACAD
1000
TREAT_AS_HARD
1070
     1
  0
DICTIONARY
  5
88F
330
18
100
AcDbDictionary
  3
ACAD_SORTENTS
360
890
1001
ACAD
1000
TREAT_AS_HARD
1070
     1
  0
XRECORD
  5
AEA8
102
{ACAD_REACTORS
330
C
102
}
330
C
100
AcDbXrecord
300
ACDLT
300
2012
300
ACDLT_F_S
  0
DICTIONARY
  5
18D
102
{ACAD_REACTORS
330
C
102
}
330
C
100
AcDbDictionary
1001
ACAD
1000
TREAT_AS_HARD
1070
     0
  0
DICTIONARY
  5
D
102
{ACAD_REACTORS
330
C
102
}
330
C
100
AcDbDictionary
1001
ACAD
1000
TREAT_AS_HARD
1070
     0
  0
DICTIONARY
  5
18E
102
{ACAD_REACTORS
330
C
102
}
330
C
100
AcDbDictionary
1001
ACAD
1000
TREAT_AS_HARD
1070
     0
  0
DICTIONARY
  5
18C
102
{ACAD_REACTORS
330
C
102
}
330
C
100
AcDbDictionary
  3
BYBLOCK
350
9540
  3
BYLAYER
350
9538
  3
GLOBAL
350
9548
1001
ACAD
1000
TREAT_AS_HARD
1070
     0
  0
DICTIONARY
  5
9583
102
{ACAD_REACTORS
330
C
102
}
330
C
100
AcDbDictionary
  3
STANDARD
350
9584
1001
ACAD
1000
TREAT_AS_HARD
1070
     0
  0
DICTIONARY
  5
1B
102
{ACAD_REACTORS
330
C
102
}
330
C
100
AcDbDictionary
  3
STANDARD
350
1C
1001
ACAD
1000
TREAT_AS_HARD
1070
     0
  0
DICTIONARY
  5
18F
102
{ACAD_REACTORS
330
C
102
}
330
C
100
AcDbDictionary
1001
ACAD
1000
TREAT_AS_HARD
1070
     0
  0
DICTIONARY
  5
9561
102
{ACAD_REACTORS
330
C
102
}
330
C
100
AcDbDictionary
  3
A0
350
9562
  3
A1
350
9563
  3
A2
350
9564
  3
A3
350
9565
  3
A4
350
9566
  3
A5
350
9567
  3
A6
350
9568
  3
A7
350
9569
  3
A8
350
956A
  3
A9
350
956B
  3
B0
350
956C
  3
B1
350
956D
  3
B2
350
956E
  3
B3
350
956F
  3
B4
350
9570
  3
B5
350
9571
  3
B6
350
9572
  3
B7
350
9573
  3
B8
350
9574
  3
B9
350
9575
  3
C0
350
9576
  3
C1
350
9577
  3
C2
350
9578
  3
C3
350
9579
  3
C4
350
957A
  3
C5
350
957B
  3
C6
350
957C
  3
C7
350
957D
  3
C8
350
957E
  3
C9
350
957F
  3
D0
350
9580
  3
D1
350
9581
  3
D2
350
9582
1001
ACAD
1000
TREAT_AS_HARD
1070
     0
  0
DICTIONARY
  5
9550
102
{ACAD_REACTORS
330
C
102
}
330
C
100
AcDbDictionary
  3
2DWIREFRAME
350
9556
  3
3D_HIDDEN
350
9558
  3
3DWIREFRAME
350
9557
  3
BASIC
350
9555
  3
BRIGHTEN
350
955C
  3
COLORCHANGE
350
9560
  3
CONCEPTUAL
350
9559
  3
DIM
350
955B
  3
EDGECOLOROFF
350
A211
  3
FACEPATTERN
350
955F
  3
FLAT
350
9551
  3
FLATWITHEDGES
350
9552
  3
GOURAUD
350
9553
  3
GOURAUDWITHEDGES
350
9554
  3
HIDDEN
350
A260
  3
JITTEROFF
350
A20F
  3
LINEPATTERN
350
955E
  3
MODELING
350
A266
  3
OVERHANGOFF
350
A210
  3
REALISTIC
350
955A
  3
SHADED
350
A265
  3
SHADED_WITH_EDGES
350
A264
  3
SHADES_OF_GRAY
350
A261
  3
SKETCHY
350
A262
  3
THICKEN
350
955D
  3
WIREFRAME
350
A25F
  3
X-RAY
350
A263
1001
ACAD
1000
TREAT_AS_HARD
1070
     0
  0
DICTIONARY
  5
BC15
102
{ACAD_REACTORS
330
C
102
}
330
C
100
AcDbDictionary
  3
COLORDICT
350
BC16
  3
MATERIALDICT
350
BC17
1001
ACAD
1000
TREAT_AS_HARD
1070
     0
  0
DICTIONARY
  5
37
102
{ACAD_REACTORS
330
C
102
}
330
C
100
AcDbDictionary
  3
CANNOSCALE
350
AAE0
  3
CMLEADERSTYLE
350
9627
  3
CTABLESTYLE
350
29E
  3
DIMADEC
350
38
  3
DIMASSOC
350
1CE
  3
HIDETEXT
350
704E
  3
INDEXCTL
350
962A
  3
INTERSECTIONCOLOR
350
7052
  3
INTERSECTIONDISPLAY
350
7051
  3
MSLTSCALE
350
AB30
  3
OBSCOLOR
350
704F
  3
OBSLTYPE
350
7050
  3
PROJECTNAME
350
1CF
  3
SORTENTS
350
9629
  3
XCLIPFRAME
350
B90A
1001
ACAD
1000
TREAT_AS_HARD
1070
     0
  0
DICTIONARY
  5
AF70
102
{ACAD_REACTORS
330
C
102
}
330
C
100
AcDbDictionary
1001
ACAD
1000
TREAT_AS_HARD
1070
     0
  0
DICTIONARY
  5
D8
102
{ACAD_REACTORS
330
C
102
}
330
C
100
AcDbDictionary
1001
ACAD
1000
TREAT_AS_HARD
1070
     0
  0
DICTIONARY
  5
20
102
{ACAD_REACTORS
330
C
102
}
330
C
100
AcDbDictionary
1001
DRAWINGVARIABLESXDATA
1000
POLARANG
1000
0.261799387799149410000000
1000
POLARMODE
1000
1
1000
POLARSTYLE
1000
1
1001
ACAD
1000
TREAT_AS_HARD
1070
     0
  0
XRECORD
  5
BC18
102
{ACAD_REACTORS
330
C
102
}
330
C
100
AcDbXrecord
  1
DWGPROPS COOKIE
  2

  3

  4

  6

  7

  8
3684
  9

300
=
301
=
302
=
303
=
304
=
305
=
306
=
307
=
308
=
309
=
 40
0.0
 41
2451318.246352917
 42
2458165.000632199
  1

 90
        0
  0
DICTIONARY
  5
96DA
102
{ACAD_REACTORS
330
96D9
102
}
330
96D9
100
AcDbDictionary
1001
ACAD
1000
TREAT_AS_HARD
1070
     0
  0
ACAD_PROXY_OBJECT
  5
9594
102
{ACAD_REACTORS
330
9593
102
}
330
9593
100
AcDbZombieObject
 90
      499
 91
      515
 93
       34
310
40C8804040
  0
ACAD_PROXY_OBJECT
  5
9596
102
{ACAD_REACTORS
330
9595
102
}
330
9595
100
AcDbZombieObject
 90
      499
 91
      515
 93
       34
310
40C8804040
  0
ACAD_PROXY_OBJECT
  5
9598
102
{ACAD_REACTORS
330
9597
102
}
330
9597
100
AcDbZombieObject
 90
      499
 91
      515
 93
       34
310
40C8804040
  0
ACAD_PROXY_OBJECT
  5
959E
102
{ACAD_REACTORS
330
959D
102
}
330
959D
100
AcDbZombieObject
 90
      499
 91
      515
 93
       34
310
40C8804040
  0
ACAD_PROXY_OBJECT
  5
95A4
102
{ACAD_REACTORS
330
95A3
102
}
330
95A3
100
AcDbZombieObject
 90
      499
 91
      515
 93
       34
310
40C8804040
  0
SORTENTSTABLE
  5
890
102
{ACAD_REACTORS
330
88F
102
}
330
88F
100
AcDbSortentsTable
330
18
331
AF92
  5
AF93
331
AF93
  5
AF94
331
AF94
  5
AF95
331
AF95
  5
AF96
331
AF96
  5
AF97
331
AF97
  5
AF98
331
AF98
  5
AF99
331
AF99
  5
AF9A
331
AF9A
  5
AF9B
331
AF9B
  5
AF9C
331
AF9C
  5
AF9D
331
0
  5
AF9E
331
0
  5
AFA0
331
AFA0
  5
B7FE
331
AFA1
  5
B7FF
331
AFA2
  5
B803
331
AFA3
  5
B804
331
AFA4
  5
B806
331
AFA5
  5
B80A
331
AFA6
  5
B80B
331
AFC0
  5
B80C
331
0
  5
B49D
331
B4DC
  5
B810
331
B598
  5
AF92
331
B7DB
  5
B814
331
B7E3
  5
BA66
331
B7E4
  5
BA67
331
B7E8
  5
BA90
331
B7E9
  5
BA91
331
B7EA
  5
BA92
331
B7EB
  5
BA93
331
B7EC
  5
BA94
331
B7ED
  5
BA95
331
B7EE
  5
BA96
331
B7EF
  5
BA97
331
B7F0
  5
BA98
331
B7F1
  5
BA99
331
B7F2
  5
BA9A
331
B7F3
  5
BA9B
331
B7F4
  5
BA9C
331
B7F5
  5
BA9D
331
B7F6
  5
BA9E
331
B7F9
  5
BAB5
331
B7FB
  5
BACB
331
B7FE
  5
BAE2
331
B7FF
  5
BAE3
331
B800
  5
BAE4
331
B801
  5
BAE5
331
B802
  5
BAE6
331
B803
  5
BAE7
331
B804
  5
BAE8
331
B806
  5
BAE9
331
B807
  5
BAEA
331
B808
  5
BAEB
331
B809
  5
BAEC
331
B80A
  5
BAED
331
B80B
  5
BAEE
331
B80C
  5
BAEF
331
B80D
  5
BAF0
331
B80E
  5
BAF1
331
B80F
  5
BAF2
331
B810
  5
BAF3
331
B814
  5
BB6B
331
B815
  5
BB6C
331
B816
  5
BB6D
331
B817
  5
BB6E
331
B818
  5
BB6F
331
B81A
  5
BB7C
331
B81B
  5
BB7D
331
B81C
  5
BB7E
331
B81D
  5
BB7F
331
B823
  5
BBE8
331
B824
  5
BBE9
331
B825
  5
BBEA
331
B826
  5
BBEB
331
B827
  5
BBEC
331
B828
  5
BBED
331
B829
  5
BBEE
331
B82A
  5
BBEF
331
B82D
  5
BC00
331
B82E
  5
BC01
331
B831
  5
BC12
331
B832
  5
BC13
331
B9AF
  5
BC14
331
BA46
  5
BA68
331
BA47
  5
BA69
331
BA48
  5
BA6A
331
BA49
  5
BA6B
331
BA4A
  5
BA6C
331
BA4B
  5
BA6D
331
BA4C
  5
BA6E
331
BA4D
  5
BA6F
331
BA4E
  5
BA70
331
BA4F
  5
BA71
331
BA50
  5
BA72
331
BA51
  5
BA73
331
BA52
  5
BA74
331
BA53
  5
BA75
331
BA54
  5
BA76
331
BA55
  5
BA77
331
BA56
  5
BA78
331
BA57
  5
BA79
331
BA58
  5
BA7A
331
BA59
  5
BA7B
331
BA5A
  5
BA7C
331
BA5B
  5
BA7D
331
BA5C
  5
BA7E
331
BA5D
  5
BA7F
331
BA5E
  5
BA80
331
BA5F
  5
BA81
331
BA60
  5
BA82
331
BA61
  5
BA83
331
BA62
  5
BA84
331
BA63
  5
BA85
331
BA64
  5
BA86
331
BA65
  5
BA87
331
BA66
  5
BA88
331
BA67
  5
BA89
331
BA68
  5
BA8A
331
BA69
  5
BA8B
331
BA6A
  5
BA8C
331
BA6B
  5
BA8D
331
BA6C
  5
BA8E
331
BA6D
  5
BA8F
331
BA6E
  5
BA9F
331
BA6F
  5
BAA0
331
BA70
  5
BAA1
331
BA71
  5
BAA2
331
BA72
  5
BAA3
331
BA73
  5
BAA4
331
BA74
  5
BAA5
331
BA75
  5
BAA6
331
BA76
  5
BAA7
331
BA77
  5
BAA8
331
BA78
  5
BAA9
331
BA79
  5
BAAA
331
BA7A
  5
BAAB
331
BA7B
  5
BAAC
331
BA7C
  5
BAAD
331
BA7D
  5
BAAE
331
BA7E
  5
BAAF
331
BA7F
  5
BAB0
331
BA80
  5
BAB1
331
BA81
  5
BAB2
331
BA82
  5
BAB3
331
BA83
  5
BAB4
331
BA84
  5
BAB6
331
BA85
  5
BAB7
331
BA86
  5
BAB8
331
BA87
  5
BAB9
331
BA88
  5
BABA
331
BA89
  5
BABB
331
BA8A
  5
BABC
331
BA8B
  5
BABD
331
BA8C
  5
BABE
331
BA8D
  5
BABF
331
BA8E
  5
BAC0
331
BA8F
  5
BAC1
331
BA90
  5
BAC2
331
BA91
  5
BAC3
331
BA92
  5
BAC4
331
BA93
  5
BAC5
331
BA94
  5
BAC6
331
BA95
  5
BAC7
331
BA96
  5
BAC8
331
BA97
  5
BAC9
331
BA98
  5
BACA
331
BA99
  5
BACC
331
BA9A
  5
BACD
331
BA9B
  5
BACE
331
BA9C
  5
BACF
331
BA9D
  5
BAD0
331
BA9E
  5
BAD1
331
BA9F
  5
BAD2
331
BAA0
  5
BAD3
331
BAA1
  5
BAD4
331
BAA2
  5
BAD5
331
BAA3
  5
BAD6
331
BAA4
  5
BAD7
331
BAA5
  5
BAD8
331
BAA6
  5
BAD9
331
BAA7
  5
BADA
331
BAA8
  5
BADB
331
BAA9
  5
BADC
331
BAAA
  5
BADD
331
BAAB
  5
BADE
331
BAAC
  5
BADF
331
BAAD
  5
BAE0
331
BAAE
  5
BAE1
331
BAAF
  5
BAF4
331
BAB0
  5
BAF5
331
BAB1
  5
BAF6
331
BAB2
  5
BAF7
331
BAB3
  5
BAF8
331
BAB4
  5
BAF9
331
BAB5
  5
BAFA
331
BAB6
  5
BAFB
331
BAB7
  5
BAFC
331
BAB8
  5
BAFD
331
BAB9
  5
BAFE
331
BABA
  5
BAFF
331
BABB
  5
BB00
331
BABC
  5
BB01
331
BABD
  5
BB02
331
BABE
  5
BB03
331
BABF
  5
BB04
331
BAC0
  5
BB05
331
BAC1
  5
BB06
331
BAC2
  5
BB07
331
BAC3
  5
BB08
331
BAC4
  5
BB09
331
BAC5
  5
BB0A
331
BAC6
  5
BB0B
331
BAC7
  5
BB0C
331
BAC8
  5
BB0D
331
BAC9
  5
BB0E
331
BACA
  5
BB0F
331
BACB
  5
BB10
331
BACC
  5
BB11
331
BACD
  5
BB12
331
BACE
  5
BB13
331
BACF
  5
BB14
331
BAD0
  5
BB15
331
BAD1
  5
BB16
331
BAD2
  5
BB17
331
BAD3
  5
BB18
331
BAD4
  5
BB19
331
BAD5
  5
BB1A
331
BAD6
  5
BB1B
331
BAD7
  5
BB1C
331
BAD8
  5
BB1D
331
BAD9
  5
BB1E
331
BADA
  5
BB1F
331
BADB
  5
BB20
331
BADC
  5
BB21
331
BADD
  5
BB22
331
BADE
  5
BB23
331
BADF
  5
BB24
331
BAE0
  5
BB25
331
BAE1
  5
BB26
331
BAE2
  5
BB27
331
BAE3
  5
BB28
331
BAE4
  5
BB29
331
BAE5
  5
BB2A
331
BAE6
  5
BB2B
331
BAE7
  5
BB2C
331
BAE8
  5
BB2D
331
BAE9
  5
BB2E
331
BAEA
  5
BB2F
331
BAEB
  5
BB30
331
BAEC
  5
BB31
331
BAED
  5
BB32
331
BAEE
  5
BB33
331
BAEF
  5
BB34
331
BAF0
  5
BB35
331
BAF1
  5
BB36
331
BAF2
  5
BB37
331
BAF3
  5
BB38
331
BAF4
  5
BB39
331
BAF5
  5
BB3A
331
BAF6
  5
BB3B
331
BAF7
  5
BB3C
331
BAF8
  5
BB3D
331
BAF9
  5
BB3E
331
BAFA
  5
BB3F
331
BAFB
  5
BB40
331
BAFC
  5
BB41
331
BAFD
  5
BB42
331
BAFE
  5
BB43
331
BAFF
  5
BB44
331
BB00
  5
BB45
331
BB01
  5
BB46
331
BB02
  5
BB47
331
BB03
  5
BB48
331
BB04
  5
BB49
331
BB05
  5
BB4A
331
BB06
  5
BB4B
331
BB07
  5
BB4C
331
BB08
  5
BB4D
331
BB09
  5
BB4E
331
BB0A
  5
BB4F
331
BB0B
  5
BB50
331
BB0C
  5
BB51
331
BB0D
  5
BB52
331
BB0E
  5
BB53
331
BB0F
  5
BB54
331
BB10
  5
BB55
331
BB11
  5
BB56
331
BB12
  5
BB57
331
BB13
  5
BB58
331
BB14
  5
BB59
331
BB15
  5
BB5A
331
BB16
  5
BB5B
331
BB17
  5
BB5C
331
BB18
  5
BB5D
331
BB19
  5
BB5E
331
BB1A
  5
BB5F
331
BB1B
  5
BB60
331
BB1C
  5
BB61
331
BB1D
  5
BB62
331
BB1E
  5
BB63
331
BB1F
  5
BB64
331
BB20
  5
BB65
331
BB21
  5
BB66
331
BB22
  5
BB67
331
BB23
  5
BB68
331
BB24
  5
BB69
331
BB25
  5
BB6A
331
BB26
  5
BB70
331
BB27
  5
BB71
331
BB28
  5
BB72
331
BB29
  5
BB73
331
BB2A
  5
BB74
331
BB2B
  5
BB75
331
BB2C
  5
BB76
331
BB2D
  5
BB77
331
BB2E
  5
BB78
331
BB2F
  5
BB79
331
BB30
  5
BB7A
331
BB31
  5
BB7B
331
BB32
  5
BB80
331
BB33
  5
BB81
331
BB34
  5
BB82
331
BB35
  5
BB83
331
BB36
  5
BB84
331
BB37
  5
BB85
331
BB38
  5
BB86
331
BB39
  5
BB87
331
BB3A
  5
BB88
331
BB3B
  5
BB89
331
BB3C
  5
BB8A
331
BB3D
  5
BB8B
331
BB3E
  5
BB8C
331
BB3F
  5
BB8D
331
BB40
  5
BB8E
331
BB41
  5
BB8F
331
BB42
  5
BB90
331
BB43
  5
BB91
331
BB44
  5
BB92
331
BB45
  5
BB93
331
BB46
  5
BB94
331
BB47
  5
BB95
331
BB48
  5
BB96
331
BB49
  5
BB97
331
BB4A
  5
BB98
331
BB4B
  5
BB99
331
BB4C
  5
BB9A
331
BB4D
  5
BB9B
331
BB4E
  5
BB9C
331
BB4F
  5
BB9D
331
BB50
  5
BB9E
331
BB51
  5
BB9F
331
BB52
  5
BBA0
331
BB53
  5
BBA1
331
BB54
  5
BBA2
331
BB55
  5
BBA3
331
BB56
  5
BBA4
331
BB57
  5
BBA5
331
BB58
  5
BBA6
331
BB59
  5
BBA7
331
BB5A
  5
BBA8
331
BB5B
  5
BBA9
331
BB5C
  5
BBAA
331
BB5D
  5
BBAB
331
BB5E
  5
BBAC
331
BB5F
  5
BBAD
331
BB60
  5
BBAE
331
BB61
  5
BBAF
331
BB62
  5
BBB0
331
BB63
  5
BBB1
331
BB64
  5
BBB2
331
BB65
  5
BBB3
331
BB66
  5
BBB4
331
BB67
  5
BBB5
331
BB68
  5
BBB6
331
BB69
  5
BBB7
331
BB6A
  5
BBB8
331
BB6B
  5
BBB9
331
BB6C
  5
BBBA
331
BB6D
  5
BBBB
331
BB6E
  5
BBBC
331
BB6F
  5
BBBD
331
BB70
  5
BBBE
331
BB71
  5
BBBF
331
BB72
  5
BBC0
331
BB73
  5
BBC1
331
BB74
  5
BBC2
331
BB75
  5
BBC3
331
BB76
  5
BBC4
331
BB77
  5
BBC5
331
BB78
  5
BBC6
331
BB79
  5
BBC7
331
BB7A
  5
BBC8
331
BB7B
  5
BBC9
331
BB7C
  5
BBCA
331
BB7D
  5
BBCB
331
BB7E
  5
BBCC
331
BB7F
  5
BBCD
331
BB80
  5
BBCE
331
BB81
  5
BBCF
331
BB82
  5
BBD0
331
BB83
  5
BBD1
331
BB84
  5
BBD2
331
BB85
  5
BBD3
331
BB86
  5
BBD4
331
BB87
  5
BBD5
331
BB88
  5
BBD6
331
BB89
  5
BBD7
331
BB8A
  5
BBD8
331
BB8B
  5
BBD9
331
BB8C
  5
BBDA
331
BB8D
  5
BBDB
331
BB8E
  5
BBDC
331
BB8F
  5
BBDD
331
BB90
  5
BBDE
331
BB91
  5
BBDF
331
BB92
  5
BBE0
331
BB93
  5
BBE1
331
BB94
  5
BBE2
331
BB95
  5
BBE3
331
BB96
  5
BBE4
331
BB97
  5
BBE5
331
BB98
  5
BBE6
331
BB99
  5
BBE7
331
BB9A
  5
BBF0
331
BB9B
  5
BBF1
331
BB9C
  5
BBF2
331
BB9D
  5
BBF3
331
BB9E
  5
BBF4
331
BB9F
  5
BBF5
331
BBA0
  5
BBF6
331
BBA1
  5
BBF7
331
BBA2
  5
BBF8
331
BBA3
  5
BBF9
331
BBA4
  5
BBFA
331
BBA5
  5
BBFB
331
BBA6
  5
BBFC
331
BBA7
  5
BBFD
331
BBA8
  5
BBFE
331
BBA9
  5
BBFF
331
BBAA
  5
BC02
331
BBAB
  5
BC03
331
BBAC
  5
BC04
331
BBAD
  5
BC05
331
BBAE
  5
BC06
331
BBAF
  5
BC07
331
BBB0
  5
BC08
331
BBB1
  5
BC09
331
BBB2
  5
BC0A
331
BBB3
  5
BC0B
331
BBB4
  5
BC0C
331
BBB5
  5
BC0D
331
BBB6
  5
BC0E
331
BBB7
  5
BC0F
331
BBB8
  5
BC10
331
BBB9
  5
BC11
331
BBBA
  5
AFA1
331
BBBB
  5
AFA2
331
BBBC
  5
AFA4
331
0
  5
AFA5
331
0
  5
AFA6
331
0
  5
AFC0
331
BBC0
  5
B7EC
331
BBC1
  5
B7ED
331
BBC2
  5
B7EE
331
0
  5
B7DB
331
0
  5
B7E3
331
0
  5
B7E4
331
BBC6
  5
B815
331
BBC7
  5
B81A
331
BBC8
  5
B81B
331
0
  5
B7F5
331
0
  5
B7F6
331
0
  5
B7F9
331
BBCC
  5
B828
331
BBCD
  5
B829
331
BBCE
  5
B82A
331
0
  5
B800
331
0
  5
B801
331
0
  5
B802
331
BBD2
  5
BA48
331
BBD3
  5
BA49
331
BBD4
  5
BA4A
331
0
  5
B807
331
0
  5
B808
331
0
  5
B809
331
BBD8
  5
BA52
331
BBD9
  5
BA53
331
BBDA
  5
BA54
331
0
  5
B80D
331
0
  5
B80E
331
0
  5
B80F
331
BBDE
  5
BA5C
331
BBDF
  5
BA5D
331
BBE0
  5
BA5E
331
0
  5
B816
331
0
  5
B817
331
0
  5
B818
331
BBE4
  5
B281
331
BBE5
  5
B49C
331
BBE6
  5
B598
331
BBE7
  5
B7E8
331
BBE8
  5
B7E9
331
BBE9
  5
B7EA
331
BBEA
  5
B7EB
331
BBEB
  5
B7EF
331
BBEC
  5
B7F0
331
BBED
  5
B7F1
331
BBEE
  5
B7F2
331
BBEF
  5
B7F3
331
BBF0
  5
B7F4
331
BBF1
  5
B7FB
331
BBF2
  5
B81C
331
BBF3
  5
B81D
331
BBF4
  5
B823
331
BBF5
  5
B824
331
BBF6
  5
B825
331
BBF7
  5
B826
331
BBF8
  5
B827
331
BBF9
  5
B82D
331
BBFA
  5
B82E
331
BBFB
  5
B831
331
BBFC
  5
B832
331
BBFD
  5
B9AF
331
BBFE
  5
BA46
331
BBFF
  5
BA47
331
BC00
  5
BA4B
331
BC01
  5
BA4C
331
BC02
  5
BA4D
331
BC03
  5
BA4E
331
BC04
  5
BA4F
331
BC05
  5
BA50
331
BC06
  5
BA51
331
BC07
  5
BA55
331
BC08
  5
BA56
331
BC09
  5
BA57
331
BC0A
  5
BA58
331
BC0B
  5
BA59
331
BC0C
  5
BA5A
331
BC0D
  5
BA5B
331
BC0E
  5
BA5F
331
BC0F
  5
BA60
331
BC10
  5
BA61
331
BC11
  5
BA62
331
BC12
  5
BA63
331
BC13
  5
BA64
331
BC14
  5
BA65
  0
MATERIAL
  5
9540
102
{ACAD_REACTORS
330
18C
102
}
102
{ACAD_XDICTIONARY
360
BDB3
102
}
330
18C
100
AcDbMaterial
  1
BYBLOCK
 72
     0
 73
     2
 43
0.0208333333333333
 43
0.0
 43
0.0
 43
0.0
 43
0.0
 43
0.0208333333333333
 43
0.0
 43
0.0
 43
0.0
 43
0.0
 43
1.0
 43
0.0
 43
0.0
 43
0.0
 43
0.0
 43
1.0
 77
     0
 78
     2
 47
0.0208333333333333
 47
0.0
 47
0.0
 47
0.0
 47
0.0
 47
0.0208333333333333
 47
0.0
 47
0.0
 47
0.0
 47
0.0
 47
1.0
 47
0.0
 47
0.0
 47
0.0
 47
0.0
 47
1.0
171
     0
172
     2
 49
0.0208333333333333
 49
0.0
 49
0.0
 49
0.0
 49
0.0
 49
0.0208333333333333
 49
0.0
 49
0.0
 49
0.0
 49
0.0
 49
1.0
 49
0.0
 49
0.0
 49
0.0
 49
0.0
 49
1.0
175
     0
176
     2
142
0.0208333333333333
142
0.0
142
0.0
142
0.0
142
0.0
142
0.0208333333333333
142
0.0
142
0.0
142
0.0
142
0.0
142
1.0
142
0.0
142
0.0
142
0.0
142
0.0
142
1.0
179
     0
270
     2
144
0.0208333333333333
144
0.0
144
0.0
144
0.0
144
0.0
144
0.0208333333333333
144
0.0
144
0.0
144
0.0
144
0.0
144
1.0
144
0.0
144
0.0
144
0.0
144
0.0
144
1.0
274
     2
147
0.0208333333333333
147
0.0
147
0.0
147
0.0
147
0.0
147
0.0208333333333333
147
0.0
147
0.0
147
0.0
147
0.0
147
1.0
147
0.0
147
0.0
147
0.0
147
0.0
147
1.0
  0
MATERIAL
  5
9538
102
{ACAD_REACTORS
330
18C
102
}
102
{ACAD_XDICTIONARY
360
BDB5
102
}
330
18C
100
AcDbMaterial
  1
BYLAYER
 72
     0
 73
     2
 43
0.0208333333333333
 43
0.0
 43
0.0
 43
0.0
 43
0.0
 43
0.0208333333333333
 43
0.0
 43
0.0
 43
0.0
 43
0.0
 43
1.0
 43
0.0
 43
0.0
 43
0.0
 43
0.0
 43
1.0
 77
     0
 78
     2
 47
0.0208333333333333
 47
0.0
 47
0.0
 47
0.0
 47
0.0
 47
0.0208333333333333
 47
0.0
 47
0.0
 47
0.0
 47
0.0
 47
1.0
 47
0.0
 47
0.0
 47
0.0
 47
0.0
 47
1.0
171
     0
172
     2
 49
0.0208333333333333
 49
0.0
 49
0.0
 49
0.0
 49
0.0
 49
0.0208333333333333
 49
0.0
 49
0.0
 49
0.0
 49
0.0
 49
1.0
 49
0.0
 49
0.0
 49
0.0
 49
0.0
 49
1.0
175
     0
176
     2
142
0.0208333333333333
142
0.0
142
0.0
142
0.0
142
0.0
142
0.0208333333333333
142
0.0
142
0.0
142
0.0
142
0.0
142
1.0
142
0.0
142
0.0
142
0.0
142
0.0
142
1.0
179
     0
270
     2
144
0.0208333333333333
144
0.0
144
0.0
144
0.0
144
0.0
144
0.0208333333333333
144
0.0
144
0.0
144
0.0
144
0.0
144
1.0
144
0.0
144
0.0
144
0.0
144
0.0
144
1.0
274
     2
147
0.0208333333333333
147
0.0
147
0.0
147
0.0
147
0.0
147
0.0208333333333333
147
0.0
147
0.0
147
0.0
147
0.0
147
1.0
147
0.0
147
0.0
147
0.0
147
0.0
147
1.0
  0
MATERIAL
  5
9548
102
{ACAD_REACTORS
330
18C
102
}
102
{ACAD_XDICTIONARY
360
BDB7
102
}
330
18C
100
AcDbMaterial
  1
GLOBAL
 72
     0
 73
     2
 43
0.0208333333333333
 43
0.0
 43
0.0
 43
0.0
 43
0.0
 43
0.0208333333333333
 43
0.0
 43
0.0
 43
0.0
 43
0.0
 43
1.0
 43
0.0
 43
0.0
 43
0.0
 43
0.0
 43
1.0
 77
     0
 78
     2
 47
0.0208333333333333
 47
0.0
 47
0.0
 47
0.0
 47
0.0
 47
0.0208333333333333
 47
0.0
 47
0.0
 47
0.0
 47
0.0
 47
1.0
 47
0.0
 47
0.0
 47
0.0
 47
0.0
 47
1.0
171
     0
172
     2
 49
0.0208333333333333
 49
0.0
 49
0.0
 49
0.0
 49
0.0
 49
0.0208333333333333
 49
0.0
 49
0.0
 49
0.0
 49
0.0
 49
1.0
 49
0.0
 49
0.0
 49
0.0
 49
0.0
 49
1.0
175
     0
176
     2
142
0.0208333333333333
142
0.0
142
0.0
142
0.0
142
0.0
142
0.0208333333333333
142
0.0
142
0.0
142
0.0
142
0.0
142
1.0
142
0.0
142
0.0
142
0.0
142
0.0
142
1.0
179
     0
270
     2
144
0.0208333333333333
144
0.0
144
0.0
144
0.0
144
0.0
144
0.0208333333333333
144
0.0
144
0.0
144
0.0
144
0.0
144
1.0
144
0.0
144
0.0
144
0.0
144
0.0
144
1.0
274
     2
147
0.0208333333333333
147
0.0
147
0.0
147
0.0
147
0.0
147
0.0208333333333333
147
0.0
147
0.0
147
0.0
147
0.0
147
1.0
147
0.0
147
0.0
147
0.0
147
0.0
147
1.0
  0
ACAD_PROXY_OBJECT
  5
9584
102
{ACAD_REACTORS
330
9583
102
}
330
9583
100
AcDbZombieObject
 90
      499
 91
      511
 93
      610
310
40901902A4063FBFFFFFE000000000000002040AD7A3703D0AD73F4214DD185B99185C990000000000000104090141901A00000000000004100000000000000041025764000000000000300FC0
340
12
340
0
340
F
340
0
 94
        0
1001
ACAD_MLEADERVER
1070
     2
  0
MLINESTYLE
  5
1C
102
{ACAD_REACTORS
330
1B
102
}
330
1B
100
AcDbMlineStyle
  2
STANDARD
 70
     0
  3

 62
   256
 51
90.0
 52
90.0
 71
     2
 49
0.5
 62
   256
  6
BYLAYER
 49
-0.5
 62
   256
  6
BYLAYER
  0
ACAD_PROXY_OBJECT
  5
9562
102
{ACAD_REACTORS
330
9561
102
}
330
9561
100
AcDbZombieObject
 90
      499
 91
      510
 93
       41
310
903313A31580
  0
ACAD_PROXY_OBJECT
  5
9563
102
{ACAD_REACTORS
330
9561
102
}
330
9561
100
AcDbZombieObject
 90
      499
 91
      510
 93
      105
310
903313A324000000000000004000
  0
ACAD_PROXY_OBJECT
  5
9564
102
{ACAD_REACTORS
330
9561
102
}
330
9561
100
AcDbZombieObject
 90
      499
 91
      510
 93
      105
310
903313A344000000000000104000
  0
ACAD_PROXY_OBJECT
  5
9565
102
{ACAD_REACTORS
330
9561
102
}
330
9561
100
AcDbZombieObject
 90
      499
 91
      510
 93
      105
310
903313A354000000000000144000
  0
ACAD_PROXY_OBJECT
  5
9566
102
{ACAD_REACTORS
330
9561
102
}
330
9561
100
AcDbZombieObject
 90
      499
 91
      510
 93
      105
310
903313A384000000000000204000
  0
ACAD_PROXY_OBJECT
  5
9567
102
{ACAD_REACTORS
330
9561
102
}
330
9561
100
AcDbZombieObject
 90
      499
 91
      510
 93
      113
310
904313A31304000000000000244000
  0
ACAD_PROXY_OBJECT
  5
9568
102
{ACAD_REACTORS
330
9561
102
}
330
9561
100
AcDbZombieObject
 90
      499
 91
      510
 93
      113
310
904313A31364000000000000304000
  0
ACAD_PROXY_OBJECT
  5
9569
102
{ACAD_REACTORS
330
9561
102
}
330
9561
100
AcDbZombieObject
 90
      499
 91
      510
 93
      113
310
904313A32304000000000000344000
  0
ACAD_PROXY_OBJECT
  5
956A
102
{ACAD_REACTORS
330
9561
102
}
330
9561
100
AcDbZombieObject
 90
      499
 91
      510
 93
      113
310
904313A333040000000000003E4000
  0
ACAD_PROXY_OBJECT
  5
956B
102
{ACAD_REACTORS
330
9561
102
}
330
9561
100
AcDbZombieObject
 90
      499
 91
      510
 93
      113
310
904313A34304000000000000444000
  0
ACAD_PROXY_OBJECT
  5
956C
102
{ACAD_REACTORS
330
9561
102
}
330
9561
100
AcDbZombieObject
 90
      499
 91
      510
 93
      113
310
904313A35304000000000000494000
  0
ACAD_PROXY_OBJECT
  5
956D
102
{ACAD_REACTORS
330
9561
102
}
330
9561
100
AcDbZombieObject
 90
      499
 91
      510
 93
      121
310
905313A3130304000000000000594000
  0
ACAD_PROXY_OBJECT
  5
956E
102
{ACAD_REACTORS
330
9561
102
}
330
9561
100
AcDbZombieObject
 90
      499
 91
      510
 93
      105
310
903323A310000000000000010100
  0
ACAD_PROXY_OBJECT
  5
956F
102
{ACAD_REACTORS
330
9561
102
}
330
9561
100
AcDbZombieObject
 90
      499
 91
      510
 93
      105
310
903343A310000000000000410100
  0
ACAD_PROXY_OBJECT
  5
9570
102
{ACAD_REACTORS
330
9561
102
}
330
9561
100
AcDbZombieObject
 90
      499
 91
      510
 93
      105
310
903383A310000000000000810100
  0
ACAD_PROXY_OBJECT
  5
9571
102
{ACAD_REACTORS
330
9561
102
}
330
9561
100
AcDbZombieObject
 90
      499
 91
      510
 93
      113
310
90431303A310000000000000910100
  0
ACAD_PROXY_OBJECT
  5
9572
102
{ACAD_REACTORS
330
9561
102
}
330
9561
100
AcDbZombieObject
 90
      499
 91
      510
 93
      121
310
9053130303A310000000000001650100
  0
ACAD_PROXY_OBJECT
  5
9573
102
{ACAD_REACTORS
330
9561
102
}
330
9561
100
AcDbZombieObject
 90
      499
 91
      510
 93
      257
310
90E312F31323822203D2031272D3022000000000000200FC000000000000284000
  0
ACAD_PROXY_OBJECT
  5
9574
102
{ACAD_REACTORS
330
9561
102
}
330
9561
100
AcDbZombieObject
 90
      499
 91
      510
 93
      249
310
90D312F363422203D2031272D3022000000000000240FC000000000000284000
  0
ACAD_PROXY_OBJECT
  5
9575
102
{ACAD_REACTORS
330
9561
102
}
330
9561
100
AcDbZombieObject
 90
      499
 91
      510
 93
      249
310
90D312F333222203D2031272D3022000000000000280FC000000000000284000
  0
ACAD_PROXY_OBJECT
  5
9576
102
{ACAD_REACTORS
330
9561
102
}
330
9561
100
AcDbZombieObject
 90
      499
 91
      510
 93
      249
310
90D312F313622203D2031272D30220000000000002C0FC000000000000284000
  0
ACAD_PROXY_OBJECT
  5
9577
102
{ACAD_REACTORS
330
9561
102
}
330
9561
100
AcDbZombieObject
 90
      499
 91
      510
 93
      249
310
90D332F333222203D2031272D30220000000000002E0FC000000000000284000
  0
ACAD_PROXY_OBJECT
  5
9578
102
{ACAD_REACTORS
330
9561
102
}
330
9561
100
AcDbZombieObject
 90
      499
 91
      510
 93
      241
310
90C312F3822203D2031272D3022000000000000300FC000000000000284000
  0
ACAD_PROXY_OBJECT
  5
9579
102
{ACAD_REACTORS
330
9561
102
}
330
9561
100
AcDbZombieObject
 90
      499
 91
      510
 93
      249
310
90D332F313622203D2031272D3022000000000000320FC000000000000284000
  0
ACAD_PROXY_OBJECT
  5
957A
102
{ACAD_REACTORS
330
9561
102
}
330
9561
100
AcDbZombieObject
 90
      499
 91
      510
 93
      241
310
90C312F3422203D2031272D3022000000000000340FC000000000000284000
  0
ACAD_PROXY_OBJECT
  5
957B
102
{ACAD_REACTORS
330
9561
102
}
330
9561
100
AcDbZombieObject
 90
      499
 91
      510
 93
      241
310
90C332F3822203D2031272D3022000000000000360FC000000000000284000
  0
ACAD_PROXY_OBJECT
  5
957C
102
{ACAD_REACTORS
330
9561
102
}
330
9561
100
AcDbZombieObject
 90
      499
 91
      510
 93
      241
310
90C312F3222203D2031272D3022000000000000380FC000000000000284000
  0
ACAD_PROXY_OBJECT
  5
957D
102
{ACAD_REACTORS
330
9561
102
}
330
9561
100
AcDbZombieObject
 90
      499
 91
      510
 93
      241
310
90C332F3422203D2031272D30220000000000003A0FC000000000000284000
  0
ACAD_PROXY_OBJECT
  5
957E
102
{ACAD_REACTORS
330
9561
102
}
330
9561
100
AcDbZombieObject
 90
      499
 91
      510
 93
      161
310
90A3122203D2031272D30224000000000000284000
  0
ACAD_PROXY_OBJECT
  5
957F
102
{ACAD_REACTORS
330
9561
102
}
330
9561
100
AcDbZombieObject
 90
      499
 91
      510
 93
      257
310
90E312D312F3222203D2031272D30220000000000003E0FC000000000000284000
  0
ACAD_PROXY_OBJECT
  5
9580
102
{ACAD_REACTORS
330
9561
102
}
330
9561
100
AcDbZombieObject
 90
      499
 91
      510
 93
      225
310
90A3322203D2031272D302200000000000002100000000000000284000
  0
ACAD_PROXY_OBJECT
  5
9581
102
{ACAD_REACTORS
330
9561
102
}
330
9561
100
AcDbZombieObject
 90
      499
 91
      510
 93
      225
310
90A3622203D2031272D302200000000000006100000000000000284000
  0
ACAD_PROXY_OBJECT
  5
9582
102
{ACAD_REACTORS
330
9561
102
}
330
9561
100
AcDbZombieObject
 90
      499
 91
      510
 93
      249
310
90D31272D3022203D2031272D30220000000000000A100000000000000284000
  0
ACAD_PROXY_OBJECT
  5
9556
102
{ACAD_REACTORS
330
9550
102
}
330
9550
100
AcDbZombieObject
 90
      499
 91
      509
 93
      436
310
42CC9915DA5C99599C985B595049028333333333333E3BF0000000000000FB0107901411070040501600405405064090741402480A0340
1001
ACAD
1000
AcDbSavedByObjectVersion
1070
     0
  0
ACAD_PROXY_OBJECT
  5
9558
102
{ACAD_REACTORS
330
9550
102
}
330
9550
100
AcDbZombieObject
 90
      499
 91
      509
 93
      500
310
424CD108121A5919195B90640502408333333333333E3BF0000000000000FB01079024090700405020000000000001110200405405064090740C02480A0340
1001
ACAD
1000
AcDbSavedByObjectVersion
1070
     0
  0
ACAD_PROXY_OBJECT
  5
9557
102
{ACAD_REACTORS
330
9550
102
}
330
9550
100
AcDbZombieObject
 90
      499
 91
      509
 93
      436
310
42CCD915DA5C99599C985B595059028333333333333E3BF0000000000000FB0107901411070040501600405405064090741402480A0340
1001
ACAD
1000
AcDbSavedByObjectVersion
1070
     0
  0
ACAD_PROXY_OBJECT
  5
9555
102
{ACAD_REACTORS
330
9550
102
}
330
9550
100
AcDbZombieObject
 90
      499
 91
      509
 93
      388
310
4150985CDA58D07406404333333333333E3BF0000000000000FB0107A41107004050150841D405064090741402480A0350
1001
ACAD
1000
AcDbSavedByObjectVersion
1070
     0
  0
ACAD_PROXY_OBJECT
  5
955C
102
{ACAD_REACTORS
330
9550
102
}
330
9550
100
AcDbZombieObject
 90
      499
 91
      509
 93
      428
310
42109C9A59DA1D195B90C409028333333333333E3BF0000000000000FB010790141107004050150841D405064090741402480A029950
1001
ACAD
1000
AcDbSavedByObjectVersion
1070
     0
  0
ACAD_PROXY_OBJECT
  5
9560
102
{ACAD_REACTORS
330
9550
102
}
330
9550
100
AcDbZombieObject
 90
      499
 91
      509
 93
      452
310
42D0DBDB1BDC90DA185B99D95104090240C333333333333E3BF0000000000000FB0108901411070040501508421405064090741402480A0350
1001
ACAD
1000
AcDbSavedByObjectVersion
1070
     0
  0
ACAD_PROXY_OBJECT
  5
9559
102
{ACAD_REACTORS
330
9550
102
}
330
9550
100
AcDbZombieObject
 90
      499
 91
      509
 93
      500
310
4290DBDB98D95C1D1D585B10940D028333333333333E3BF0000000000000FB0107902409070040501000000000000111010841D405064090740C02480A0340
1001
ACAD
1000
AcDbSavedByObjectVersion
1070
     0
  0
ACAD_PROXY_OBJECT
  5
955B
102
{ACAD_REACTORS
330
9550
102
}
330
9550
100
AcDbZombieObject
 90
      499
 91
      509
 93
      412
310
40D11A5B50B409028333333333333E3BF0000000000000FB010790141107004050150841D405064090741402480A02677FFFFFD0
1001
ACAD
1000
AcDbSavedByObjectVersion
1070
     0
  0
ACAD_PROXY_OBJECT
  5
A211
102
{ACAD_REACTORS
330
9550
102
}
330
9550
100
AcDbZombieObject
 90
      499
 91
      509
 93
      452
310
43115919D950DBDB1BDC93D999916409028333333333333E3BF0000000000000FB010790141107004050150841D405064090741402480A0350
1001
ACAD
1000
AcDbSavedByObjectVersion
1070
     0
  0
ACAD_PROXY_OBJECT
  5
955F
102
{ACAD_REACTORS
330
9550
102
}
330
9550
100
AcDbZombieObject
 90
      499
 91
      509
 93
      444
310
42D19858D95C185D1D195C9B90F409028333333333333E3BF0000000000000FB010790141107004050150841D405064090741402480A0350
1001
ACAD
1000
AcDbSavedByObjectVersion
1070
     0
  0
ACAD_PROXY_OBJECT
  5
9551
102
{ACAD_REACTORS
330
9550
102
}
330
9550
100
AcDbZombieObject
 90
      499
 91
      509
 93
      388
310
41119B185D240901404333333333333E3BF0000000000000F9010740A41107004050150841D405064090741402480A1B50
1001
ACAD
1000
AcDbSavedByObjectVersion
1070
     0
  0
ACAD_PROXY_OBJECT
  5
9552
102
{ACAD_REACTORS
330
9550
102
}
330
9550
100
AcDbZombieObject
 90
      499
 91
      509
 93
      476
310
43519B185D15DA5D1A115919D95CD0140901404333333333333E3BF0000000000000F9010740901411070040501600405405064090741402480A1B50
1001
ACAD
1000
AcDbSavedByObjectVersion
1070
     0
  0
ACAD_PROXY_OBJECT
  5
9553
102
{ACAD_REACTORS
330
9550
102
}
330
9550
100
AcDbZombieObject
 90
      499
 91
      509
 93
      412
310
41D1DBDD5C985D5910240902404333333333333E3BF0000000000000F9010740A411070040501641D405064090741402480A1B50
1001
ACAD
1000
AcDbSavedByObjectVersion
1070
     0
  0
ACAD_PROXY_OBJECT
  5
9554
102
{ACAD_REACTORS
330
9550
102
}
330
9550
100
AcDbZombieObject
 90
      499
 91
      509
 93
      500
310
4411DBDD5C985D5915DA5D1A115919D95CD0340902404333333333333E3BF0000000000000F9010740901411070040501600405405064090741402480A1B50
1001
ACAD
1000
AcDbSavedByObjectVersion
1070
     0
  0
ACAD_PROXY_OBJECT
  5
A260
102
{ACAD_REACTORS
330
9550
102
}
330
9550
100
AcDbZombieObject
 90
      499
 91
      509
 93
      476
310
41921A5919195B90640502408333333333333E3BF0000000000000FB01079024090700405020000000000001110200405405064090740C02480A0340
1001
ACAD
1000
AcDbSavedByObjectVersion
1070
     0
  0
ACAD_PROXY_OBJECT
  5
A20F
102
{ACAD_REACTORS
330
9550
102
}
330
9550
100
AcDbZombieObject
 90
      499
 91
      509
 93
      428
310
42529A5D1D195C93D999914409028333333333333E3BF0000000000000FB010790141107004050150A41D405064090741402480A0350
1001
ACAD
1000
AcDbSavedByObjectVersion
1070
     0
  0
ACAD_PROXY_OBJECT
  5
955E
102
{ACAD_REACTORS
330
9550
102
}
330
9550
100
AcDbZombieObject
 90
      499
 91
      509
 93
      444
310
42D31A5B995C185D1D195C9B90E409028333333333333E3BF0000000000000FB010790141107004050750841D405064090741402483A0350
1001
ACAD
1000
AcDbSavedByObjectVersion
1070
     0
  0
ACAD_PROXY_OBJECT
  5
A266
102
{ACAD_REACTORS
330
9550
102
}
330
9550
100
AcDbZombieObject
 90
      499
 91
      509
 93
      484
310
42135BD9195B1A5B99D0A409028333333333333E3BF0000000000000F901074090290700405010000000000201990108421405064090741402480A1B40
1001
ACAD
1000
AcDbSavedByObjectVersion
1070
     0
  0
ACAD_PROXY_OBJECT
  5
A210
102
{ACAD_REACTORS
330
9550
102
}
330
9550
100
AcDbZombieObject
 90
      499
 91
      509
 93
      444
310
42D3DD995C9A185B99D3D999915409028333333333333E3BF0000000000000FB010790141107004050150941D405064090741402480A0350
1001
ACAD
1000
AcDbSavedByObjectVersion
1070
     0
  0
ACAD_PROXY_OBJECT
  5
955A
102
{ACAD_REACTORS
330
9550
102
}
330
9550
100
AcDbZombieObject
 90
      499
 91
      509
 93
      420
310
425499585B1A5CDD1A58D08409028333333333333E3BF0000000000000FB01079019070040501508421405064090741402480A1B40
1001
ACAD
1000
AcDbSavedByObjectVersion
1070
     0
  0
ACAD_PROXY_OBJECT
  5
A265
102
{ACAD_REACTORS
330
9550
102
}
330
9550
100
AcDbZombieObject
 90
      499
 91
      509
 93
      420
310
4194DA1859195911B40902404333333333333E3BF0000000000000F9010740A41107004050150800405405064090840C02480A0B40
1001
ACAD
1000
AcDbSavedByObjectVersion
1070
     0
  0
ACAD_PROXY_OBJECT
  5
A264
102
{ACAD_REACTORS
330
9550
102
}
330
9550
100
AcDbZombieObject
 90
      499
 91
      509
 93
      516
310
4454DA18591959081DDA5D1A08195919D95CD1A40902404333333333333E3BF0000000000000F901074090142907004050250800405405064090740C02480A0B40
1001
ACAD
1000
AcDbSavedByObjectVersion
1070
     0
  0
ACAD_PROXY_OBJECT
  5
A261
102
{ACAD_REACTORS
330
9550
102
}
330
9550
100
AcDbZombieObject
 90
      499
 91
      509
 93
      532
310
4394DA1859195CC81BD98811DC985E5174090240C333333333333E3BF0000000000000FB01079024090741D01000000000000111010841D405064090740C02480A0340
1001
ACAD
1000
AcDbSavedByObjectVersion
1070
     0
  0
ACAD_PROXY_OBJECT
  5
A262
102
{ACAD_REACTORS
330
9550
102
}
330
9550
100
AcDbZombieObject
 90
      499
 91
      509
 93
      476
310
41D4DAD95D18DA1E51840502408333333333333E3BF0000000000000FB01079024090741D01000000000000111010B41D405064090741802480A0340
1001
ACAD
1000
AcDbSavedByObjectVersion
1070
     0
  0
ACAD_PROXY_OBJECT
  5
955D
102
{ACAD_REACTORS
330
9550
102
}
330
9550
100
AcDbZombieObject
 90
      499
 91
      509
 93
      412
310
41D51A1A58DAD95B90D409028333333333333E3BF0000000000000FB010790141107004050150C41D405064090741402480A0350
1001
ACAD
1000
AcDbSavedByObjectVersion
1070
     0
  0
ACAD_PROXY_OBJECT
  5
A25F
102
{ACAD_REACTORS
330
9550
102
}
330
9550
100
AcDbZombieObject
 90
      499
 91
      509
 93
      420
310
4255DA5C99599C985B595059028333333333333E3BF0000000000000FB0107901411070040501600405405064090740C02480A0340
1001
ACAD
1000
AcDbSavedByObjectVersion
1070
     0
  0
ACAD_PROXY_OBJECT
  5
A263
102
{ACAD_REACTORS
330
9550
102
}
330
9550
100
AcDbZombieObject
 90
      499
 91
      509
 93
      404
310
41560B54985E51940902404000000000000E03F0000000000000FB010740501907004050150841D405064090740C02480A1B40
1001
ACAD
1000
AcDbSavedByObjectVersion
1070
     0
  0
XRECORD
  5
BC16
102
{ACAD_REACTORS
330
BC15
102
}
330
BC15
100
AcDbXrecord
340
18D
  0
XRECORD
  5
BC17
102
{ACAD_REACTORS
330
BC15
102
}
330
BC15
100
AcDbXrecord
340
18C
  0
DICTIONARYVAR
  5
AAE0
102
{ACAD_REACTORS
330
37
102
}
330
37
100
DictionaryVariables
280
     0
  1
1:1
  0
DICTIONARYVAR
  5
9627
102
{ACAD_REACTORS
330
37
102
}
330
37
100
DictionaryVariables
280
     0
  1
Standard
  0
DICTIONARYVAR
  5
29E
102
{ACAD_REACTORS
330
37
102
}
330
37
100
DictionaryVariables
280
     0
  1
Standard
  0
DICTIONARYVAR
  5
38
102
{ACAD_REACTORS
330
37
102
}
330
37
100
DictionaryVariables
280
     0
  1
-1
  0
DICTIONARYVAR
  5
1CE
102
{ACAD_REACTORS
330
37
102
}
330
37
100
DictionaryVariables
280
     0
  1
2
  0
DICTIONARYVAR
  5
704E
102
{ACAD_REACTORS
330
37
102
}
330
37
100
DictionaryVariables
280
     0
  1
1
  0
DICTIONARYVAR
  5
962A
102
{ACAD_REACTORS
330
37
102
}
330
37
100
DictionaryVariables
280
     0
  1
0
  0
DICTIONARYVAR
  5
7052
102
{ACAD_REACTORS
330
37
102
}
330
37
100
DictionaryVariables
280
     0
  1
8
  0
DICTIONARYVAR
  5
7051
102
{ACAD_REACTORS
330
37
102
}
330
37
100
DictionaryVariables
280
     0
  1
1
  0
DICTIONARYVAR
  5
AB30
102
{ACAD_REACTORS
330
37
102
}
330
37
100
DictionaryVariables
280
     0
  1
0
  0
DICTIONARYVAR
  5
704F
102
{ACAD_REACTORS
330
37
102
}
330
37
100
DictionaryVariables
280
     0
  1
8
  0
DICTIONARYVAR
  5
7050
102
{ACAD_REACTORS
330
37
102
}
330
37
100
DictionaryVariables
280
     0
  1
2
  0
DICTIONARYVAR
  5
1CF
102
{ACAD_REACTORS
330
37
102
}
330
37
100
DictionaryVariables
280
     0
  1

  0
DICTIONARYVAR
  5
9629
102
{ACAD_REACTORS
330
37
102
}
330
37
100
DictionaryVariables
280
     0
  1
127
  0
DICTIONARYVAR
  5
B90A
102
{ACAD_REACTORS
330
37
102
}
330
37
100
DictionaryVariables
280
     0
  1
2
  0
DICTIONARY
  5
BDB3
330
9540
100
AcDbDictionary
  3
ACAD_XREC_ROUNDTRIP
360
BDB4
1001
ACAD
1000
TREAT_AS_HARD
1070
     1
  0
DICTIONARY
  5
BDB5
330
9538
100
AcDbDictionary
  3
ACAD_XREC_ROUNDTRIP
360
BDB6
1001
ACAD
1000
TREAT_AS_HARD
1070
     1
  0
DICTIONARY
  5
BDB7
330
9548
100
AcDbDictionary
  3
ACAD_XREC_ROUNDTRIP
360
BDB8
1001
ACAD
1000
TREAT_AS_HARD
1070
     1
  0
XRECORD
  5
BDB4
102
{ACAD_REACTORS
330
BDB3
102
}
330
BDB3
100
AcDbXrecord
102
MATERIAL
148
0.0
149
0.0
149
0.0
 93
        0
 94
      127
282
     0
 72
     0
 77
     0
171
     0
175
     0
179
     0
273
     0
  0
XRECORD
  5
BDB6
102
{ACAD_REACTORS
330
BDB5
102
}
330
BDB5
100
AcDbXrecord
102
MATERIAL
148
0.0
149
0.0
149
0.0
 93
        0
 94
      127
282
     0
 72
     0
 77
     0
171
     0
175
     0
179
     0
273
     0
  0
XRECORD
  5
BDB8
102
{ACAD_REACTORS
330
BDB7
102
}
330
BDB7
100
AcDbXrecord
102
MATERIAL
148
0.0
149
0.0
149
0.0
 93
        0
 94
      127
282
     0
 72
     0
 77
     0
171
     0
175
     0
179
     0
273
     0
  0
ENDSEC
  0
EOF
