  0
SECTION
  2
HEADER
  9
$ACADVER
  1
AC1012
  9
$DWGCODEPAGE
  3
ansi_932
  9
$INSBASE
 10
0.0
 20
0.0
 30
0.0
  9
$EXTMIN
 10
4925.75769332268
 20
-372.4012528884865
 30
0.0
  9
$EXTMAX
 10
5229.185978705099
 20
-132.4025712015892
 30
0.0
  9
$LIMMIN
 10
0.0
 20
0.0
  9
$LIMMAX
 10
420.0
 20
297.0
  9
$ORTHOMODE
 70
     0
  9
$REGENMODE
 70
     1
  9
$FILLMODE
 70
     1
  9
$QTEXTMODE
 70
     0
  9
$MIRRTEXT
 70
     0
  9
$DRAGMODE
 70
     2
  9
$LTSCALE
 40
0.5
  9
$OSMODE
 70
 14463
  9
$ATTMODE
 70
     1
  9
$TEXTSIZE
 40
4.0
  9
$TRACEWID
 40
1.0
  9
$TEXTSTYLE
  7
STANDARD
  9
$CLAYER
  8
1TEXT
  9
$CELTYPE
  6
BYLAYER
  9
$CECOLOR
 62
   256
  9
$CELTSCALE
 40
1.0
  9
$DELOBJ
 70
     1
  9
$DISPSILH
 70
     0
  9
$DIMSCALE
 40
1.0
  9
$DIMASZ
 40
2.0
  9
$DIMEXO
 40
0.0
  9
$DIMDLI
 40
7.0
  9
$DIMRND
 40
0.0
  9
$DIMDLE
 40
0.0
  9
$DIMEXE
 40
1.0
  9
$DIMTP
 40
0.0
  9
$DIMTM
 40
0.0
  9
$DIMTXT
 40
3.5
  9
$DIMCEN
 40
0.0
  9
$DIMTSZ
 40
0.0
  9
$DIMTOL
 70
     0
  9
$DIMLIM
 70
     0
  9
$DIMTIH
 70
     0
  9
$DIMTOH
 70
     0
  9
$DIMSE1
 70
     0
  9
$DIMSE2
 70
     0
  9
$DIMTAD
 70
     1
  9
$DIMZIN
 70
     8
  9
$DIMBLK
  1

  9
$DIMASO
 70
     1
  9
$DIMSHO
 70
     1
  9
$DIMPOST
  1
 
  9
$DIMAPOST
  1

  9
$DIMALT
 70
     0
  9
$DIMALTD
 70
     2
  9
$DIMALTF
 40
25.4
  9
$DIMLFAC
 40
1.0
  9
$DIMTOFL
 70
     1
  9
$DIMTVP
 40
0.0
  9
$DIMTIX
 70
     0
  9
$DIMSOXD
 70
     0
  9
$DIMSAH
 70
     1
  9
$DIMBLK1
  1
OPEN30
  9
$DIMBLK2
  1
OPEN30
  9
$DIMSTYLE
  2
NEWX10
  9
$DIMCLRD
 70
   256
  9
$DIMCLRE
 70
   256
  9
$DIMCLRT
 70
   201
  9
$DIMTFAC
 40
0.7
  9
$DIMGAP
 40
0.7
  9
$DIMJUST
 70
     0
  9
$DIMSD1
 70
     0
  9
$DIMSD2
 70
     0
  9
$DIMTOLJ
 70
     1
  9
$DIMTZIN
 70
     8
  9
$DIMALTZ
 70
     0
  9
$DIMALTTZ
 70
     0
  9
$DIMFIT
 70
     2
  9
$DIMUPT
 70
     0
  9
$DIMUNIT
 70
     2
  9
$DIMDEC
 70
     2
  9
$DIMTDEC
 70
     4
  9
$DIMALTU
 70
     2
  9
$DIMALTTD
 70
     2
  9
$DIMTXSTY
  7
STANDARD
  9
$DIMAUNIT
 70
     0
  9
$LUNITS
 70
     2
  9
$LUPREC
 70
     4
  9
$SKETCHINC
 40
1.0
  9
$FILLETRAD
 40
0.0
  9
$AUNITS
 70
     0
  9
$AUPREC
 70
     2
  9
$MENU
  1
acad
  9
$ELEVATION
 40
0.0
  9
$PELEVATION
 40
0.0
  9
$THICKNESS
 40
0.0
  9
$LIMCHECK
 70
     0
  9
$CHAMFERA
 40
10.0
  9
$CHAMFERB
 40
10.0
  9
$CHAMFERC
 40
20.0
  9
$CHAMFERD
 40
0.0
  9
$SKPOLY
 70
     0
  9
$TDCREATE
 40
2451318.621352917
  9
$TDUPDATE
 40
2458159.597984074
  9
$TDINDWG
 40
1.4800006597
  9
$TDUSRTIMER
 40
1.4800006597
  9
$USRTIMER
 70
     1
  9
$ANGBASE
 50
0.0
  9
$ANGDIR
 70
     0
  9
$PDMODE
 70
     0
  9
$PDSIZE
 40
0.0
  9
$PLINEWID
 40
0.0
  9
$COORDS
 70
     2
  9
$SPLFRAME
 70
     0
  9
$SPLINETYPE
 70
     6
  9
$SPLINESEGS
 70
     8
  9
$ATTDIA
 70
     0
  9
$ATTREQ
 70
     1
  9
$HANDLING
 70
     1
  9
$HANDSEED
  5
B60C
  9
$SURFTAB1
 70
     6
  9
$SURFTAB2
 70
     6
  9
$SURFTYPE
 70
     6
  9
$SURFU
 70
     6
  9
$SURFV
 70
     6
  9
$UCSNAME
  2

  9
$UCSORG
 10
0.0
 20
0.0
 30
0.0
  9
$UCSXDIR
 10
1.0
 20
0.0
 30
0.0
  9
$UCSYDIR
 10
0.0
 20
1.0
 30
0.0
  9
$PUCSNAME
  2

  9
$PUCSORG
 10
0.0
 20
0.0
 30
0.0
  9
$PUCSXDIR
 10
1.0
 20
0.0
 30
0.0
  9
$PUCSYDIR
 10
0.0
 20
1.0
 30
0.0
  9
$USERI1
 70
     0
  9
$USERI2
 70
     0
  9
$USERI3
 70
     0
  9
$USERI4
 70
     0
  9
$USERI5
 70
     0
  9
$USERR1
 40
0.0
  9
$USERR2
 40
0.0
  9
$USERR3
 40
0.0
  9
$USERR4
 40
0.0
  9
$USERR5
 40
0.0
  9
$WORLDVIEW
 70
     1
  9
$SHADEDGE
 70
     3
  9
$SHADEDIF
 70
    70
  9
$TILEMODE
 70
     1
  9
$MAXACTVP
 70
    48
  9
$PINSBASE
 10
0.0
 20
0.0
 30
0.0
  9
$PLIMCHECK
 70
     0
  9
$PEXTMIN
 10
1.000000000000000E+20
 20
1.000000000000000E+20
 30
1.000000000000000E+20
  9
$PEXTMAX
 10
-1.000000000000000E+20
 20
-1.000000000000000E+20
 30
-1.000000000000000E+20
  9
$PLIMMIN
 10
0.0
 20
0.0
  9
$PLIMMAX
 10
420.0
 20
297.0
  9
$UNITMODE
 70
     0
  9
$VISRETAIN
 70
     1
  9
$PLINEGEN
 70
     0
  9
$PSLTSCALE
 70
     1
  9
$TREEDEPTH
 70
  3020
  9
$PICKSTYLE
 70
     1
  9
$CMLSTYLE
  2
STANDARD
  9
$CMLJUST
 70
     0
  9
$CMLSCALE
 40
20.0
  9
$SAVEIMAGES
 70
     1
  0
ENDSEC
  0
SECTION
  2
CLASSES
  0
CLASS
  1
DICTIONARYVAR
  2
AcDbDictionaryVar
  3
ObjectDBX Classes
 90
        0
280
     0
281
     0
  0
CLASS
  1
IDBUFFER
  2
AcDbIdBuffer
  3
ObjectDBX Classes
 90
    32768
280
     0
281
     0
  0
CLASS
  1
LWPOLYLINE
  2
AcDbPolyline
  3
ObjectDBX Classes
 90
    32768
280
     0
281
     1
  0
CLASS
  1
ACDBDICTIONARYWDFLT
  2
AcDbDictionaryWithDefault
  3
ObjectDBX Classes
 90
    32768
280
     0
281
     0
  0
CLASS
  1
ACDBPLACEHOLDER
  2
AcDbPlaceHolder
  3
ObjectDBX Classes
 90
        0
280
     0
281
     0
  0
CLASS
  1
LAYOUT
  2
AcDbLayout
  3
ObjectDBX Classes
 90
        0
280
     0
281
     0
  0
CLASS
  1
TABLESTYLE
  2
AcDbTableStyle
  3
ObjectDBX Classes
 90
     4095
280
     0
281
     0
  0
CLASS
  1
SORTENTSTABLE
  2
AcDbSortentsTable
  3
ObjectDBX Classes
 90
    32768
280
     0
281
     0
  0
CLASS
  1
MATERIAL
  2
AcDbMaterial
  3
ObjectDBX Classes
 90
     1153
280
     0
281
     0
  0
CLASS
  1
VISUALSTYLE
  2
AcDbVisualStyle
  3
ObjectDBX Classes
 90
     4095
280
     0
281
     0
  0
CLASS
  1
SCALE
  2
AcDbScale
  3
ObjectDBX Classes
 90
     1153
280
     0
281
     0
  0
CLASS
  1
MLEADERSTYLE
  2
AcDbMLeaderStyle
  3
ACDB_MLEADERSTYLE_CLASS
 90
     4095
280
     0
281
     0
  0
CLASS
  1
CELLSTYLEMAP
  2
AcDbCellStyleMap
  3
ObjectDBX Classes
 90
     1152
280
     0
281
     0
  0
CLASS
  1
SUN
  2
AcDbSun
  3
SCENEOE
 90
     1153
280
     0
281
     0
  0
CLASS
  1
XRECORD
  2
AcDbXrecord
  3
ObjectDBX Classes
 90
    32768
280
     0
281
     0
  0
CLASS
  1
HATCH
  2
AcDbHatch
  3
ObjectDBX Classes
 90
    32768
280
     0
281
     1
  0
ENDSEC
  0
SECTION
  2
TABLES
  0
TABLE
  2
VPORT
  5
8
330
0
100
AcDbSymbolTable
 70
     1
  0
VPORT
  5
952D
330
8
100
AcDbSymbolTableRecord
100
AcDbViewportTableRecord
  2
*ACTIVE
 70
     0
 10
0.0
 20
0.0
 11
1.0
 21
1.0
 12
5077.47183601389
 22
-252.4019120450379
 13
0.0
 23
0.0
 14
10.0
 24
10.0
 15
10.0
 25
10.0
 16
0.0
 26
0.0
 36
1.0
 17
0.0
 27
0.0
 37
0.0
 40
257.6827950743529
 41
1.871481028151775
 42
50.0
 43
0.0
 44
0.0
 50
0.0
 51
0.0
 71
    16
 72
   100
 73
     1
 74
     1
 75
     0
 76
     0
 77
     0
 78
     0
  0
ENDTAB
  0
TABLE
  2
LTYPE
  5
5
330
0
100
AcDbSymbolTable
 70
     2
  0
LTYPE
  5
12
330
5
100
AcDbSymbolTableRecord
100
AcDbLinetypeTableRecord
  2
BYBLOCK
 70
     0
  3

 72
    65
 73
     0
 40
0.0
  0
LTYPE
  5
13
330
5
100
AcDbSymbolTableRecord
100
AcDbLinetypeTableRecord
  2
BYLAYER
 70
     0
  3

 72
    65
 73
     0
 40
0.0
  0
LTYPE
  5
14
330
5
100
AcDbSymbolTableRecord
100
AcDbLinetypeTableRecord
  2
CONTINUOUS
 70
     0
  3
Solid line
 72
    65
 73
     0
 40
0.0
  0
LTYPE
  5
9837
330
5
100
AcDbSymbolTableRecord
100
AcDbLinetypeTableRecord
  2
CENTER2
 70
     0
  3
Center (.5x) ___ _ ___ _ ___ _ ___ _ ___ _ ___
 72
    65
 73
     4
 40
28.575
 49
19.05
 74
     0
 49
-3.175
 74
     0
 49
3.175
 74
     0
 49
-3.175
 74
     0
  0
ENDTAB
  0
TABLE
  2
LAYER
  5
2
102
{ACAD_XDICTIONARY
360
96D9
102
}
330
0
100
AcDbSymbolTable
 70
     5
  0
LAYER
  5
E
102
{ACAD_XDICTIONARY
360
9593
102
}
330
2
100
AcDbSymbolTableRecord
100
AcDbLayerTableRecord
  2
0
 70
     0
 62
     7
  6
CONTINUOUS
  0
LAYER
  5
29
102
{ACAD_XDICTIONARY
360
9595
102
}
330
2
100
AcDbSymbolTableRecord
100
AcDbLayerTableRecord
  2
1CENTER
 70
     0
 62
     7
  6
CENTER2
  0
LAYER
  5
31
102
{ACAD_XDICTIONARY
360
9597
102
}
330
2
100
AcDbSymbolTableRecord
100
AcDbLayerTableRecord
  2
1TEXT
 70
     0
 62
     7
  6
CONTINUOUS
  0
LAYER
  5
243
102
{ACAD_XDICTIONARY
360
959D
102
}
330
2
100
AcDbSymbolTableRecord
100
AcDbLayerTableRecord
  2
01
 70
     0
 62
     1
  6
CONTINUOUS
  0
LAYER
  5
24E
102
{ACAD_XDICTIONARY
360
95A3
102
}
330
2
100
AcDbSymbolTableRecord
100
AcDbLayerTableRecord
  2
1DIM
 70
     0
 62
     7
  6
CONTINUOUS
  0
ENDTAB
  0
TABLE
  2
STYLE
  5
3
330
0
100
AcDbSymbolTable
 70
     1
  0
STYLE
  5
F
330
3
100
AcDbSymbolTableRecord
100
AcDbTextStyleTableRecord
  2
STANDARD
 70
     0
 40
0.0
 41
1.0
 50
0.0
 71
     0
 42
4.0
  3
txt.shx
  4
extfont.shx
  0
ENDTAB
  0
TABLE
  2
VIEW
  5
6
330
0
100
AcDbSymbolTable
 70
     0
  0
ENDTAB
  0
TABLE
  2
UCS
  5
7
330
0
100
AcDbSymbolTable
 70
     0
  0
ENDTAB
  0
TABLE
  2
APPID
  5
9
330
0
100
AcDbSymbolTable
 70
    12
  0
APPID
  5
10
330
9
100
AcDbSymbolTableRecord
100
AcDbRegAppTableRecord
  2
ACAD
 70
     0
  0
APPID
  5
21
330
9
100
AcDbSymbolTableRecord
100
AcDbRegAppTableRecord
  2
DRAWINGVARIABLESXDATA
 70
     0
  0
APPID
  5
64
330
9
100
AcDbSymbolTableRecord
100
AcDbRegAppTableRecord
  2
CONTENTTABDATA
 70
     0
  0
APPID
  5
65
330
9
100
AcDbSymbolTableRecord
100
AcDbRegAppTableRecord
  2
CONTENTCURRENTTAB
 70
     0
  0
APPID
  5
66
330
9
100
AcDbSymbolTableRecord
100
AcDbRegAppTableRecord
  2
CONTENTBLOCKDESCRIPTION
 70
     0
  0
APPID
  5
67
330
9
100
AcDbSymbolTableRecord
100
AcDbRegAppTableRecord
  2
CONTENTBLOCKICON
 70
     0
  0
APPID
  5
68
330
9
100
AcDbSymbolTableRecord
100
AcDbRegAppTableRecord
  2
CONTENTLONGBLOCKNAME
 70
     0
  0
APPID
  5
2AE
330
9
100
AcDbSymbolTableRecord
100
AcDbRegAppTableRecord
  2
ACAD_PSEXT
 70
     0
  0
APPID
  5
9585
330
9
100
AcDbSymbolTableRecord
100
AcDbRegAppTableRecord
  2
ACAD_MLEADERVER
 70
     0
  0
APPID
  5
A2E3
330
9
100
AcDbSymbolTableRecord
100
AcDbRegAppTableRecord
  2
ACADANNOTATIVE
 70
     0
  0
APPID
  5
A2E4
330
9
100
AcDbSymbolTableRecord
100
AcDbRegAppTableRecord
  2
ACDBBLOCKREPETAG
 70
     0
  0
APPID
  5
AF59
330
9
100
AcDbSymbolTableRecord
100
AcDbRegAppTableRecord
  2
ACAECLAYERSTANDARD
 70
     0
  0
ENDTAB
  0
TABLE
  2
DIMSTYLE
  5
A
330
0
100
AcDbSymbolTable
 70
     1
  0
DIMSTYLE
105
48
330
A
100
AcDbSymbolTableRecord
100
AcDbDimStyleTableRecord
  2
NEWX10
 70
     0
  3
 
  4

  5

  6
OPEN30
  7
OPEN30
 40
1.0
 41
2.0
 42
0.0
 43
7.0
 44
1.0
 45
0.0
 46
0.0
 47
0.0
 48
0.0
140
3.5
141
0.0
142
0.0
143
25.4
144
1.0
145
0.0
146
0.7
147
0.7
 71
     0
 72
     0
 73
     0
 74
     0
 75
     0
 76
     0
 77
     1
 78
     8
170
     0
171
     2
172
     1
173
     1
174
     0
175
     0
176
   256
177
   256
178
   201
179
     2
270
     2
271
     2
272
     4
273
     2
274
     2
340
F
275
     0
280
     0
281
     0
282
     0
283
     1
284
     8
285
     0
286
     0
287
     2
288
     0
  0
ENDTAB
  0
TABLE
  2
BLOCK_RECORD
  5
1
330
0
100
AcDbSymbolTable
 70
     8
  0
BLOCK_RECORD
  5
18
102
{ACAD_XDICTIONARY
360
88F
102
}
330
1
100
AcDbSymbolTableRecord
100
AcDbBlockTableRecord
  2
*MODEL_SPACE
  0
BLOCK_RECORD
  5
15
330
1
100
AcDbSymbolTableRecord
100
AcDbBlockTableRecord
  2
*PAPER_SPACE
  0
BLOCK_RECORD
  5
42
330
1
100
AcDbSymbolTableRecord
100
AcDbBlockTableRecord
  2
_OPEN30
  0
BLOCK_RECORD
  5
A333
330
1
100
AcDbSymbolTableRecord
100
AcDbBlockTableRecord
  2
A3WAKUKAWAJUN2017_HYOUDAI_
  0
BLOCK_RECORD
  5
B46C
330
1
100
AcDbSymbolTableRecord
100
AcDbBlockTableRecord
  2
*X72
  0
BLOCK_RECORD
  5
B4BA
330
1
100
AcDbSymbolTableRecord
100
AcDbBlockTableRecord
  2
*X73
  0
BLOCK_RECORD
  5
B50C
330
1
100
AcDbSymbolTableRecord
100
AcDbBlockTableRecord
  2
*X74
  0
BLOCK_RECORD
  5
B55D
330
1
100
AcDbSymbolTableRecord
100
AcDbBlockTableRecord
  2
*X75
  0
BLOCK_RECORD
  5
B59A
330
1
100
AcDbSymbolTableRecord
100
AcDbBlockTableRecord
  2
*X76
  0
BLOCK_RECORD
  5
B5DA
330
1
100
AcDbSymbolTableRecord
100
AcDbBlockTableRecord
  2
*X77
  0
ENDTAB
  0
ENDSEC
  0
SECTION
  2
BLOCKS
  0
BLOCK
  5
19
330
18
100
AcDbEntity
  8
0
100
AcDbBlockBegin
  2
*MODEL_SPACE
 70
     0
 10
0.0
 20
0.0
 30
0.0
  3
*MODEL_SPACE
  1

  0
ENDBLK
  5
1A
330
18
100
AcDbEntity
  8
0
100
AcDbBlockEnd
  0
BLOCK
  5
16
330
15
100
AcDbEntity
 67
     1
  8
0
100
AcDbBlockBegin
  2
*PAPER_SPACE
 70
     0
 10
0.0
 20
0.0
 30
0.0
  3
*PAPER_SPACE
  1

  0
ENDBLK
  5
17
330
15
100
AcDbEntity
 67
     1
  8
0
100
AcDbBlockEnd
  0
BLOCK
  5
43
330
42
100
AcDbEntity
  8
0
100
AcDbBlockBegin
  2
_OPEN30
 70
     0
 10
0.0
 20
0.0
 30
0.0
  3
_OPEN30
  1

  0
LINE
  5
44
330
42
100
AcDbEntity
  8
0
  6
BYBLOCK
 62
     0
100
AcDbLine
 10
-1.0
 20
0.26794919
 30
0.0
 11
0.0
 21
0.0
 31
0.0
  0
LINE
  5
45
330
42
100
AcDbEntity
  8
0
  6
BYBLOCK
 62
     0
100
AcDbLine
 10
0.0
 20
0.0
 30
0.0
 11
-1.0
 21
-0.26794919
 31
0.0
  0
LINE
  5
46
330
42
100
AcDbEntity
  8
0
  6
BYBLOCK
 62
     0
100
AcDbLine
 10
0.0
 20
0.0
 30
0.0
 11
-1.0
 21
0.0
 31
0.0
  0
ENDBLK
  5
47
330
42
100
AcDbEntity
  8
0
100
AcDbBlockEnd
  0
BLOCK
  5
AA56
330
A333
100
AcDbEntity
  8
0
100
AcDbBlockBegin
  2
A3WAKUKAWAJUN2017_HYOUDAI_
 70
     0
 10
0.0
 20
0.0
 30
0.0
  3
A3WAKUKAWAJUN2017_HYOUDAI_
  1

  0
LINE
  5
A335
330
A333
100
AcDbEntity
  8
0
100
AcDbLine
 10
13.26299999998673
 20
-0.0001000000000317
 30
0.0
 11
9.236999999990758
 21
8.999899999990987
 31
0.0
1001
ACAD
1000
ASC_BOUNDS
1002
{
1070
    19
1005
A376
1002
}
  0
LINE
  5
A336
330
A333
100
AcDbEntity
  8
0
100
AcDbLine
 10
5.657999999994331
 20
0.9999999999989768
 30
0.0
 11
9.236999999990758
 21
8.999999999991019
 31
0.0
1001
ACAD
1000
ASC_BOUNDS
1002
{
1070
    19
1005
A376
1002
}
  0
LINE
  5
A337
330
A333
100
AcDbEntity
  8
0
100
AcDbLine
 10
18.59199999998134
 20
-0.2368999999997641
 30
0.0
 11
16.46099999998353
 21
5.432899999994561
 31
0.0
1001
ACAD
1000
ASC_BOUNDS
1002
{
1070
    19
1005
A377
1002
}
  0
LINE
  5
A338
330
A333
100
AcDbEntity
  8
0
100
AcDbLine
 10
18.59199999998134
 20
-0.2368999999997641
 30
0.0
 11
22.38199999997767
 21
8.763099999991255
 31
0.0
1001
ACAD
1000
ASC_BOUNDS
1002
{
1070
    19
1005
A377
1002
}
  0
LINE
  5
A339
330
A333
100
AcDbEntity
  8
0
100
AcDbLine
 10
14.32899999998563
 20
-0.2368999999997641
 30
0.0
 11
16.46099999998353
 21
5.432899999994561
 31
0.0
1001
ACAD
1000
ASC_BOUNDS
1002
{
1070
    19
1005
A377
1002
}
  0
LINE
  5
A33A
330
A333
100
AcDbEntity
  8
0
100
AcDbLine
 10
14.32899999998563
 20
-0.2368999999997641
 30
0.0
 11
10.53899999998941
 21
8.763099999991255
 31
0.0
1001
ACAD
1000
ASC_BOUNDS
1002
{
1070
    19
1005
A377
1002
}
  0
LINE
  5
A33B
330
A333
100
AcDbEntity
  8
0
100
AcDbLine
 10
19.53899999998043
 20
-0.0001000000000317
 30
0.0
 11
23.56599999997638
 21
8.999899999990987
 31
0.0
1001
ACAD
1000
ASC_BOUNDS
1002
{
1070
    19
1005
A378
1002
}
  0
LINE
  5
A33C
330
A333
100
AcDbEntity
  8
0
100
AcDbLine
 10
26.97358892824991
 20
1.383099999991202
 30
0.0
 11
23.56599999997638
 21
8.999899999990987
 31
0.0
1001
ACAD
1000
ASC_BOUNDS
1002
{
1070
    19
1005
A378
1002
}
  0
LINE
  5
A33D
330
A333
100
AcDbEntity
  8
0
100
AcDbLine
 10
5.657999999994331
 20
0.9999999999989768
 30
0.0
 11
3.181999999996833
 21
4.668599999995308
 31
0.0
1001
ACAD
1000
ASC_BOUNDS
1002
{
1070
    19
1005
A376
1002
}
  0
LINE
  5
A33E
330
A333
100
AcDbEntity
  8
0
100
AcDbLine
 10
4.617999999995391
 20
-0.0001000000000317
 30
0.0
 11
1.420999999998571
 21
4.736799999995242
 31
0.0
1001
ACAD
1000
ASC_BOUNDS
1002
{
1070
    19
1005
A376
1002
}
  0
LINE
  5
A33F
330
A333
100
AcDbEntity
  8
0
100
AcDbLine
 10
1.420999999998571
 20
8.763099999991255
 30
0.0
 11
1.420999999998571
 21
0.0
 31
0.0
1001
ACAD
1000
ASC_BOUNDS
1002
{
1070
    19
1005
A37B
1002
}
  0
LINE
  5
A340
330
A333
100
AcDbEntity
  8
0
100
AcDbLine
 10
0.0
 20
8.763099999991255
 30
0.0
 11
0.0
 21
0.0
 31
0.0
1001
ACAD
1000
ASC_BOUNDS
1002
{
1070
    19
1005
A37B
1002
}
  0
LINE
  5
A341
330
A333
100
AcDbEntity
  8
0
100
AcDbLine
 10
6.766999999993232
 20
-0.0001000000000317
 30
0.0
 11
7.826999999992154
 21
2.368399999997621
 31
0.0
1001
ACAD
1000
ASC_BOUNDS
1002
{
1070
    19
1005
A376
1002
}
  0
LINE
  5
A342
330
A333
100
AcDbEntity
  8
0
100
AcDbLine
 10
0.0
 20
0.0
 30
0.0
 11
1.420999999998571
 21
0.0
 31
0.0
1001
ACAD
1000
ASC_BOUNDS
1002
{
1070
    19
1005
A37B
1002
}
  0
LINE
  5
A343
330
A333
100
AcDbEntity
  8
0
100
AcDbLine
 10
4.617999999995391
 20
0.0
 30
0.0
 11
6.766999999993232
 21
0.0
 31
0.0
1001
ACAD
1000
ASC_BOUNDS
1002
{
1070
    19
1005
A376
1002
}
  0
LINE
  5
A344
330
A333
100
AcDbEntity
  8
0
100
AcDbLine
 10
11.70599999998831
 20
-0.0001000000000317
 30
0.0
 11
10.64699999998936
 21
2.368399999997621
 31
0.0
1001
ACAD
1000
ASC_BOUNDS
1002
{
1070
    19
1005
A376
1002
}
  0
LINE
  5
A345
330
A333
100
AcDbEntity
  8
0
100
AcDbLine
 10
7.826999999992154
 20
2.368399999997621
 30
0.0
 11
10.64699999998936
 21
2.368399999997621
 31
0.0
1001
ACAD
1000
ASC_BOUNDS
1002
{
1070
    19
1005
A376
1002
}
  0
LINE
  5
A346
330
A333
100
AcDbEntity
  8
0
100
AcDbLine
 10
11.70599999998831
 20
0.0
 30
0.0
 11
13.26299999998673
 21
0.0
 31
0.0
1001
ACAD
1000
ASC_BOUNDS
1002
{
1070
    19
1005
A376
1002
}
  0
LINE
  5
A347
330
A333
100
AcDbEntity
  8
0
100
AcDbLine
 10
22.15599999997789
 20
2.368399999997621
 30
0.0
 11
24.97599999997499
 21
2.368399999997621
 31
0.0
1001
ACAD
1000
ASC_BOUNDS
1002
{
1070
    19
1005
A378
1002
}
  0
LINE
  5
A348
330
A333
100
AcDbEntity
  8
0
100
AcDbLine
 10
19.53899999998043
 20
0.0
 30
0.0
 11
21.09599999997886
 21
0.0
 31
0.0
1001
ACAD
1000
ASC_BOUNDS
1002
{
1070
    19
1005
A378
1002
}
  0
LINE
  5
A349
330
A333
100
AcDbEntity
  8
0
100
AcDbLine
 10
21.09599999997886
 20
-0.0001000000000317
 30
0.0
 11
22.15599999997789
 21
2.368399999997621
 31
0.0
1001
ACAD
1000
ASC_BOUNDS
1002
{
1070
    19
1005
A378
1002
}
  0
LINE
  5
A34A
330
A333
100
AcDbEntity
  8
0
100
AcDbLine
 10
26.02015566812236
 20
0.0330999999912365
 30
0.0
 11
24.97599999997499
 21
2.368399999997621
 31
0.0
1001
ACAD
1000
ASC_BOUNDS
1002
{
1070
    19
1005
A378
1002
}
  0
LINE
  5
A34B
330
A333
100
AcDbEntity
  8
0
100
AcDbLine
 10
14.32399999998563
 20
3.315799999996671
 30
0.0
 11
16.46099999998353
 21
8.999899999990987
 31
0.0
1001
ACAD
1000
ASC_BOUNDS
1002
{
1070
    19
1005
A377
1002
}
  0
LINE
  5
A34C
330
A333
100
AcDbEntity
  8
0
100
AcDbLine
 10
6.432999999993513
 20
8.763099999991255
 30
0.0
 11
3.181999999996833
 21
4.668599999995308
 31
0.0
1001
ACAD
1000
ASC_BOUNDS
1002
{
1070
    19
1005
A376
1002
}
  0
LINE
  5
A34D
330
A333
100
AcDbEntity
  8
0
100
AcDbLine
 10
4.617999999995391
 20
8.763099999991255
 30
0.0
 11
1.420999999998571
 21
4.736799999995242
 31
0.0
1001
ACAD
1000
ASC_BOUNDS
1002
{
1070
    19
1005
A376
1002
}
  0
LINE
  5
A34E
330
A333
100
AcDbEntity
  8
0
100
AcDbLine
 10
0.0
 20
8.763099999991255
 30
0.0
 11
1.420999999998571
 21
8.763099999991255
 31
0.0
1001
ACAD
1000
ASC_BOUNDS
1002
{
1070
    19
1005
A37B
1002
}
  0
LINE
  5
A34F
330
A333
100
AcDbEntity
  8
0
100
AcDbLine
 10
4.617999999995391
 20
8.763099999991255
 30
0.0
 11
6.432999999993513
 21
8.763099999991255
 31
0.0
1001
ACAD
1000
ASC_BOUNDS
1002
{
1070
    19
1005
A376
1002
}
  0
LINE
  5
A350
330
A333
100
AcDbEntity
  8
0
100
AcDbLine
 10
14.32399999998563
 20
3.315799999996671
 30
0.0
 11
12.02999999998792
 21
8.763099999991255
 31
0.0
1001
ACAD
1000
ASC_BOUNDS
1002
{
1070
    19
1005
A377
1002
}
  0
LINE
  5
A351
330
A333
100
AcDbEntity
  8
0
100
AcDbLine
 10
10.06399999998996
 20
3.670999999996297
 30
0.0
 11
9.236999999990758
 21
5.5200999999945
 31
0.0
1001
ACAD
1000
ASC_BOUNDS
1002
{
1070
    19
1005
A376
1002
}
  0
LINE
  5
A352
330
A333
100
AcDbEntity
  8
0
100
AcDbLine
 10
8.409999999991555
 20
3.670999999996297
 30
0.0
 11
9.236999999990758
 21
5.5200999999945
 31
0.0
1001
ACAD
1000
ASC_BOUNDS
1002
{
1070
    19
1005
A376
1002
}
  0
LINE
  5
A353
330
A333
100
AcDbEntity
  8
0
100
AcDbLine
 10
8.409999999991555
 20
3.670999999996297
 30
0.0
 11
10.06399999998996
 21
3.670999999996297
 31
0.0
1001
ACAD
1000
ASC_BOUNDS
1002
{
1070
    19
1005
A376
1002
}
  0
LINE
  5
A354
330
A333
100
AcDbEntity
  8
0
100
AcDbLine
 10
10.53899999998941
 20
8.763099999991255
 30
0.0
 11
12.02999999998792
 21
8.763099999991255
 31
0.0
1001
ACAD
1000
ASC_BOUNDS
1002
{
1070
    19
1005
A377
1002
}
  0
LINE
  5
A355
330
A333
100
AcDbEntity
  8
0
100
AcDbLine
 10
22.7389999999773
 20
3.670999999996297
 30
0.0
 11
23.56599999997638
 21
5.5200999999945
 31
0.0
1001
ACAD
1000
ASC_BOUNDS
1002
{
1070
    19
1005
A378
1002
}
  0
LINE
  5
A356
330
A333
100
AcDbEntity
  8
0
100
AcDbLine
 10
22.7389999999773
 20
3.670999999996297
 30
0.0
 11
24.39299999997559
 21
3.670999999996297
 31
0.0
1001
ACAD
1000
ASC_BOUNDS
1002
{
1070
    19
1005
A378
1002
}
  0
LINE
  5
A357
330
A333
100
AcDbEntity
  8
0
100
AcDbLine
 10
18.59799999998143
 20
3.315799999996671
 30
0.0
 11
20.89099999997916
 21
8.763099999991255
 31
0.0
1001
ACAD
1000
ASC_BOUNDS
1002
{
1070
    19
1005
A377
1002
}
  0
LINE
  5
A358
330
A333
100
AcDbEntity
  8
0
100
AcDbLine
 10
18.59799999998143
 20
3.315799999996671
 30
0.0
 11
16.46099999998353
 21
8.999899999990987
 31
0.0
1001
ACAD
1000
ASC_BOUNDS
1002
{
1070
    19
1005
A377
1002
}
  0
LINE
  5
A359
330
A333
100
AcDbEntity
  8
0
100
AcDbLine
 10
20.89099999997916
 20
8.763099999991255
 30
0.0
 11
22.38199999997767
 21
8.763099999991255
 31
0.0
1001
ACAD
1000
ASC_BOUNDS
1002
{
1070
    19
1005
A377
1002
}
  0
LINE
  5
A35A
330
A333
100
AcDbEntity
  8
0
100
AcDbLine
 10
24.39299999997559
 20
3.670999999996297
 30
0.0
 11
23.56599999997638
 21
5.5200999999945
 31
0.0
1001
ACAD
1000
ASC_BOUNDS
1002
{
1070
    19
1005
A378
1002
}
  0
LINE
  5
A35B
330
A333
100
AcDbEntity
  8
0
100
AcDbLine
 10
44.99999999995498
 20
-0.2368999999997641
 30
0.0
 11
40.02599999995994
 21
5.341799999994635
 31
0.0
1001
ACAD
1000
ASC_BOUNDS
1002
{
1070
    19
1005
A37A
1002
}
  0
LINE
  5
A35C
330
A333
100
AcDbEntity
  8
0
100
AcDbLine
 10
40.02599999995994
 20
5.341799999994635
 30
0.0
 11
40.02599999995994
 21
0.0
 31
0.0
1001
ACAD
1000
ASC_BOUNDS
1002
{
1070
    19
1005
A37A
1002
}
  0
LINE
  5
A35D
330
A333
100
AcDbEntity
  8
0
100
AcDbLine
 10
38.60499999996136
 20
8.999999999991019
 30
0.0
 11
38.60499999996136
 21
0.0
 31
0.0
1001
ACAD
1000
ASC_BOUNDS
1002
{
1070
    19
1005
A37A
1002
}
  0
LINE
  5
A35E
330
A333
100
AcDbEntity
  8
0
100
AcDbLine
 10
44.99999999995498
 20
8.763099999991255
 30
0.0
 11
44.99999999995498
 21
-0.2368999999997641
 31
0.0
1001
ACAD
1000
ASC_BOUNDS
1002
{
1070
    19
1005
A37A
1002
}
  0
LINE
  5
A35F
330
A333
100
AcDbEntity
  8
0
100
AcDbLine
 10
38.60499999996136
 20
0.0
 30
0.0
 11
40.02599999995994
 21
0.0
 31
0.0
1001
ACAD
1000
ASC_BOUNDS
1002
{
1070
    19
1005
A37A
1002
}
  0
LINE
  5
A360
330
A333
100
AcDbEntity
  8
0
100
AcDbLine
 10
43.57899999995641
 20
3.421199999996588
 30
0.0
 11
38.60499999996136
 21
8.999899999990987
 31
0.0
1001
ACAD
1000
ASC_BOUNDS
1002
{
1070
    19
1005
A37A
1002
}
  0
LINE
  5
A361
330
A333
100
AcDbEntity
  8
0
100
AcDbLine
 10
43.57899999995641
 20
8.763099999991255
 30
0.0
 11
43.57899999995641
 21
3.421199999996588
 31
0.0
1001
ACAD
1000
ASC_BOUNDS
1002
{
1070
    19
1005
A37A
1002
}
  0
LINE
  5
A362
330
A333
100
AcDbEntity
  8
0
100
AcDbLine
 10
43.57899999995641
 20
8.763099999991255
 30
0.0
 11
44.99999999995498
 21
8.763099999991255
 31
0.0
1001
ACAD
1000
ASC_BOUNDS
1002
{
1070
    19
1005
A37A
1002
}
  0
LINE
  5
A363
330
A333
100
AcDbEntity
  8
0
100
AcDbLine
 10
37.67199999996831
 20
8.763099999991255
 30
0.0
 11
36.23199999996837
 21
8.763099999991255
 31
0.0
  0
LINE
  5
A364
330
A333
100
AcDbEntity
  8
0
100
AcDbLine
 10
31.64199999996833
 20
8.763099999991255
 30
0.0
 11
31.64199999996833
 21
2.481619422925121
 31
0.0
  0
LINE
  5
A365
330
A333
100
AcDbEntity
  8
0
100
AcDbLine
 10
37.67199999996831
 20
8.763099999991255
 30
0.0
 11
37.67199999996831
 21
2.481619422925121
 31
0.0
  0
LINE
  5
A366
330
A333
100
AcDbEntity
  8
0
100
AcDbLine
 10
36.23199999996837
 20
8.763099999991255
 30
0.0
 11
36.23199999996837
 21
2.481619422925064
 31
0.0
  0
LINE
  5
A367
330
A333
100
AcDbEntity
  8
0
100
AcDbLine
 10
33.08199999996839
 20
8.763099999991255
 30
0.0
 11
33.08199999996839
 21
2.481619422925121
 31
0.0
  0
ARC
  5
A368
330
A333
100
AcDbEntity
  8
0
100
AcDbCircle
 10
34.65699999996832
 20
3.183099999991214
 30
0.0
 40
3.420000000000007
100
AcDbArc
 50
240.0000000000255
 51
299.9999999999766
  0
ARC
  5
A369
330
A333
100
AcDbEntity
  8
0
100
AcDbCircle
 10
34.65699999996832
 20
3.183099999991214
 30
0.0
 40
1.97999999999999
100
AcDbArc
 50
240.000000000026
 51
299.9999999999703
  0
LINE
  5
A36A
330
A333
100
AcDbEntity
  8
0
100
AcDbLine
 10
33.08199999996828
 20
8.763099999991255
 30
0.0
 11
31.64199999996833
 21
8.763099999991255
 31
0.0
  0
ARC
  5
A36B
330
A333
100
AcDbEntity
  8
0
100
AcDbCircle
 10
35.06199999996829
 20
2.481619422925064
 30
0.0
 40
1.17
100
AcDbArc
 50
299.9999999999699
 51
0.0
  0
ARC
  5
A36C
330
A333
100
AcDbEntity
  8
0
100
AcDbCircle
 10
34.25199999996835
 20
2.481619422925121
 30
0.0
 40
1.17
100
AcDbArc
 50
180.0
 51
240.0000000000238
  0
ARC
  5
A36D
330
A333
100
AcDbEntity
  8
0
100
AcDbCircle
 10
35.06199999996841
 20
2.481619422925121
 30
0.0
 40
2.61
100
AcDbArc
 50
299.9999999999756
 51
0.0
  0
ARC
  5
A36E
330
A333
100
AcDbEntity
  8
0
100
AcDbCircle
 10
34.25199999996835
 20
2.481619422925121
 30
0.0
 40
2.61
100
AcDbArc
 50
180.0
 51
240.0000000000244
  0
LINE
  5
A36F
330
A333
100
AcDbEntity
  8
0
100
AcDbLine
 10
29.30199999996933
 20
8.763099999991255
 30
0.0
 11
30.74199999996927
 21
8.763099999991255
 31
0.0
1001
ACAD
1000
ASC_BOUNDS
1002
{
1070
    19
1005
A378
1002
}
  0
LINE
  5
A370
330
A333
100
AcDbEntity
  8
0
100
AcDbLine
 10
30.74199999996927
 20
8.763099999991255
 30
0.0
 11
30.74199999996927
 21
2.373099999991211
 31
0.0
1001
ACAD
1000
ASC_BOUNDS
1002
{
1070
    19
1005
A378
1002
}
  0
LINE
  5
A371
330
A333
100
AcDbEntity
  8
0
100
AcDbLine
 10
26.02015566812236
 20
0.0330999999912365
 30
0.0
 11
28.40199999996923
 21
0.0330999999912365
 31
0.0
1001
ACAD
1000
ASC_BOUNDS
1002
{
1070
    19
1005
A378
1002
}
  0
LINE
  5
A372
330
A333
100
AcDbEntity
  8
0
100
AcDbLine
 10
29.30199999996933
 20
8.763099999991255
 30
0.0
 11
29.30199999996933
 21
2.283099999991236
 31
0.0
1001
ACAD
1000
ASC_BOUNDS
1002
{
1070
    19
1005
A378
1002
}
  0
LINE
  5
A373
330
A333
100
AcDbEntity
  8
0
100
AcDbLine
 10
26.97358892824991
 20
1.383099999991202
 30
0.0
 11
28.40199999996923
 21
1.383099999991202
 31
0.0
1001
ACAD
1000
ASC_BOUNDS
1002
{
1070
    19
1005
A378
1002
}
  0
ARC
  5
A374
330
A333
100
AcDbEntity
  8
0
100
AcDbCircle
 10
28.40199999996923
 20
2.283099999991236
 30
0.0
 40
0.9
100
AcDbArc
 50
270.0
 51
0.0
1001
ACAD
1000
ASC_BOUNDS
1002
{
1070
    19
1005
A378
1002
}
  0
ARC
  5
A375
330
A333
100
AcDbEntity
  8
0
100
AcDbCircle
 10
28.40199999996923
 20
2.373099999991211
 30
0.0
 40
2.34
100
AcDbArc
 50
270.0
 51
0.0
1001
ACAD
1000
ASC_BOUNDS
1002
{
1070
    19
1005
A378
1002
}
  0
INSERT
  5
A376
330
A333
100
AcDbEntity
  8
0
100
AcDbBlockReference
  2
*X72
 10
0.0
 20
0.0
 30
0.0
1001
ACAD
1000
HATCH
1002
{
1070
    19
1000
ANSI37
1040
0.15
1040
0.0
1000
ASC_BOUNDS
1070
     2
1070
     2
1070
    12
1005
A335
1005
A336
1005
A33D
1005
A34C
1005
A34F
1005
A34D
1005
A33E
1005
A343
1005
A341
1005
A345
1005
A344
1005
A346
1070
     2
1070
     3
1005
A351
1005
A353
1005
A352
1000
ASC_SEEDPOINT
1011
3.614004224891801
1021
2.996669441146025
1031
0.0
1000
R14_HATCH_DATA
1000
A376
1011
1.0
1021
0.0
1031
0.0
1011
0.0
1021
1.0
1031
0.0
1011
0.0
1021
0.0
1031
1.0
1040
0.0
1010
0.0
1020
0.0
1030
1.0
1000
ANSI37
1070
     0
1070
     1
1071
        2
1071
        7
1070
     0
1070
     1
1071
       17
1040
13.26299999998673
1040
-0.0001000000000317
1040
9.236999999990758
1040
8.999899999990987
1040
9.236999999990758
1040
8.999999999991019
1040
5.657999999994331
1040
0.9999999999989768
1040
3.181999999996833
1040
4.668599999995308
1040
6.432999999993513
1040
8.763099999991255
1040
4.617999999995391
1040
8.763099999991255
1040
1.420999999998571
1040
4.736799999995242
1040
4.617999999995391
1040
-0.0001000000000317
1040
4.617999999995391
1040
0.0
1040
6.766999999993232
1040
0.0
1040
6.766999999993232
1040
-0.0001000000000317
1040
7.826999999992154
1040
2.368399999997621
1040
10.64699999998936
1040
2.368399999997621
1040
11.70599999998831
1040
-0.0001000000000317
1040
11.70599999998831
1040
0.0
1040
13.26299999998673
1040
0.0
1071
       12
1005
A335
1005
A336
1005
A33D
1005
A34C
1005
A34F
1005
A34D
1005
A33E
1005
A343
1005
A341
1005
A345
1005
A344
1005
A346
1071
       22
1070
     0
1070
     1
1071
        3
1040
9.236999999990758
1040
5.5200999999945
1040
10.06399999998996
1040
3.670999999996297
1040
8.409999999991555
1040
3.670999999996297
1071
        3
1005
A351
1005
A353
1005
A352
1070
     0
1070
     1
1040
0.0
1040
0.15
1070
     0
1070
     2
1040
0.7853981633974483
1040
49.29960901727088
1040
-10.17736998311392
1040
-0.3367596045400932
1040
0.3367596045400932
1070
     0
1040
2.356194490192345
1040
49.29960901727088
1040
-10.17736998311392
1040
-0.3367596045400932
1040
-0.3367596045400932
1070
     0
1040
0.0110235143455945
1071
        2
1040
3.614004224891801
1040
2.996669441146025
1040
0.0
1040
3.614004224891801
1040
2.996669441146025
1040
0.0
1002
}
  0
INSERT
  5
A377
330
A333
100
AcDbEntity
  8
0
100
AcDbBlockReference
  2
*X73
 10
0.0
 20
0.0
 30
0.0
1001
ACAD
1000
HATCH
1002
{
1070
    19
1000
ANSI37
1040
0.15
1040
0.0
1000
ASC_BOUNDS
1070
     1
1070
     2
1070
    10
1005
A337
1005
A338
1005
A359
1005
A357
1005
A358
1005
A34B
1005
A350
1005
A354
1005
A33A
1005
A339
1000
ASC_SEEDPOINT
1011
14.73245321214324
1021
2.798246178283421
1031
0.0
1000
R14_HATCH_DATA
1000
A377
1011
1.0
1021
0.0
1031
0.0
1011
0.0
1021
1.0
1031
0.0
1011
0.0
1021
0.0
1031
1.0
1040
0.0
1010
0.0
1020
0.0
1030
1.0
1000
ANSI37
1070
     0
1070
     1
1071
        1
1071
        7
1070
     0
1070
     1
1071
       10
1040
16.46099999998353
1040
5.432899999994561
1040
18.59199999998134
1040
-0.2368999999997641
1040
22.38199999997767
1040
8.763099999991255
1040
20.89099999997916
1040
8.763099999991255
1040
18.59799999998143
1040
3.315799999996671
1040
16.46099999998353
1040
8.999899999990987
1040
14.32399999998563
1040
3.315799999996671
1040
12.02999999998792
1040
8.763099999991255
1040
10.53899999998941
1040
8.763099999991255
1040
14.32899999998563
1040
-0.2368999999997641
1071
       10
1005
A337
1005
A338
1005
A359
1005
A357
1005
A358
1005
A34B
1005
A350
1005
A354
1005
A33A
1005
A339
1070
     0
1070
     1
1040
0.0
1040
0.15
1070
     0
1070
     2
1040
0.7853981633974483
1040
49.29960901727088
1040
-10.17736998311392
1040
-0.3367596045400932
1040
0.3367596045400932
1070
     0
1040
2.356194490192345
1040
49.29960901727088
1040
-10.17736998311392
1040
-0.3367596045400932
1040
-0.3367596045400932
1070
     0
1040
0.0110235143455945
1071
        1
1040
14.73245321214324
1040
2.798246178283421
1040
0.0
1002
}
  0
INSERT
  5
A378
330
A333
100
AcDbEntity
  8
0
100
AcDbBlockReference
  2
*X74
 10
0.0
 20
0.0
 30
0.0
1001
ACAD
1000
HATCH
1002
{
1070
    19
1000
ANSI37
1040
0.15
1040
0.0
1000
ASC_BOUNDS
1070
     2
1070
     2
1070
    13
1005
A33B
1005
A348
1005
A349
1005
A347
1005
A34A
1005
A371
1005
A375
1005
A370
1005
A36F
1005
A372
1005
A374
1005
A373
1005
A33C
1070
     2
1070
     3
1005
A355
1005
A35A
1005
A356
1000
ASC_SEEDPOINT
1011
21.97929957367762
1021
3.294304244259308
1031
0.0
1000
R14_HATCH_DATA
1000
A378
1011
1.0
1021
0.0
1031
0.0
1011
0.0
1021
1.0
1031
0.0
1011
0.0
1021
0.0
1031
1.0
1040
0.0
1010
0.0
1020
0.0
1030
1.0
1000
ANSI37
1070
     0
1070
     1
1071
        2
1071
        7
1070
     1
1070
     1
1071
       15
1040
23.56599999997638
1040
8.999899999990987
1040
0.0
1040
19.53899999998043
1040
-0.0001000000000317
1040
0.0
1040
19.53899999998043
1040
0.0
1040
0.0
1040
21.09599999997886
1040
0.0
1040
0.0
1040
21.09599999997886
1040
-0.0001000000000317
1040
0.0
1040
22.15599999997789
1040
2.368399999997621
1040
0.0
1040
24.97599999997499
1040
2.368399999997621
1040
0.0
1040
26.02015566812236
1040
0.0330999999912365
1040
0.0
1040
28.40199999996923
1040
0.0330999999912365
1040
0.414213562373095
1040
30.74199999996923
1040
2.373099999991211
1040
0.0
1040
30.74199999996927
1040
8.763099999991255
1040
0.0
1040
29.30199999996933
1040
8.763099999991255
1040
0.0
1040
29.30199999996933
1040
2.283099999991236
1040
-0.414213562373095
1040
28.40199999996923
1040
1.383099999991237
1040
0.0
1040
26.97358892824991
1040
1.383099999991202
1040
0.0
1071
       13
1005
A33B
1005
A348
1005
A349
1005
A347
1005
A34A
1005
A371
1005
A375
1005
A370
1005
A36F
1005
A372
1005
A374
1005
A373
1005
A33C
1071
       22
1070
     0
1070
     1
1071
        3
1040
22.7389999999773
1040
3.670999999996297
1040
23.56599999997638
1040
5.5200999999945
1040
24.39299999997559
1040
3.670999999996297
1071
        3
1005
A355
1005
A35A
1005
A356
1070
     0
1070
     1
1040
0.0
1040
0.15
1070
     0
1070
     2
1040
0.7853981633974483
1040
49.29960901727088
1040
-10.17736998311392
1040
-0.3367596045400932
1040
0.3367596045400932
1070
     0
1040
2.356194490192345
1040
49.29960901727088
1040
-10.17736998311392
1040
-0.3367596045400932
1040
-0.3367596045400932
1070
     0
1040
0.0110235143455945
1071
        2
1040
21.97929957367762
1040
3.294304244259308
1040
0.0
1040
21.97929957367762
1040
3.294304244259308
1040
0.0
1002
}
  0
INSERT
  5
A379
330
A333
100
AcDbEntity
  8
0
100
AcDbBlockReference
  2
*X75
 10
0.0
 20
0.0
 30
0.0
1001
ACAD
1000
HATCH
1002
{
1070
    19
1000
ANSI37
1040
0.15
1040
0.0
1000
R14_HATCH_DATA
1000
A379
1011
1.0
1021
0.0
1031
0.0
1011
0.0
1021
1.0
1031
0.0
1011
0.0
1021
0.0
1031
1.0
1040
0.0
1010
0.0
1020
0.0
1030
1.0
1000
ANSI37
1070
     0
1070
     1
1071
        1
1071
        7
1070
     1
1070
     1
1071
       12
1040
31.64199999996833
1040
2.481619422925121
1040
0.2679491924310942
1040
32.94699999997067
1040
0.2212931190493919
1040
0.2679491924301353
1040
36.36699999995983
1040
0.2212931190459813
1040
0.2679491924321411
1040
37.67199999996831
1040
2.481619422928361
1040
0.0
1040
37.67199999996831
1040
8.763099999991255
1040
0.0
1040
36.23199999996837
1040
8.763099999991255
1040
0.0
1040
36.23199999996837
1040
2.481619422925064
1040
-0.2679491924310291
1040
35.64699999996708
1040
1.468369700498386
1040
-0.267949192430519
1040
33.66699999997093
1040
1.468369700497703
1040
-0.267949192431809
1040
33.08199999996839
1040
2.481619422926997
1040
0.0
1040
33.08199999996839
1040
8.763099999991255
1040
0.0
1040
31.64199999996833
1040
8.763099999991255
1040
0.0
1071
        0
1070
     0
1070
     1
1040
0.0
1040
0.15
1070
     0
1070
     2
1040
0.7853981633974483
1040
49.29960901727088
1040
-10.17736998311392
1040
-0.3367596045400932
1040
0.3367596045400932
1070
     0
1040
2.356194490192345
1040
49.29960901727088
1040
-10.17736998311392
1040
-0.3367596045400932
1040
-0.3367596045400932
1070
     0
1040
0.0110235143455945
1071
        1
1040
32.30357378967278
1040
3.988785755459219
1040
0.0
1002
}
  0
INSERT
  5
A37A
330
A333
100
AcDbEntity
  8
0
100
AcDbBlockReference
  2
*X76
 10
0.0
 20
0.0
 30
0.0
1001
ACAD
1000
HATCH
1002
{
1070
    19
1000
ANSI37
1040
0.15
1040
0.0
1000
ASC_BOUNDS
1070
     1
1070
     2
1070
     8
1005
A35B
1005
A35E
1005
A362
1005
A361
1005
A360
1005
A35D
1005
A35F
1005
A35C
1000
ASC_SEEDPOINT
1011
39.74896370716704
1021
4.484843821435049
1031
0.0
1000
R14_HATCH_DATA
1000
A37A
1011
1.0
1021
0.0
1031
0.0
1011
0.0
1021
1.0
1031
0.0
1011
0.0
1021
0.0
1031
1.0
1040
0.0
1010
0.0
1020
0.0
1030
1.0
1000
ANSI37
1070
     0
1070
     1
1071
        1
1071
        7
1070
     0
1070
     1
1071
        9
1040
40.02599999995994
1040
5.341799999994635
1040
44.99999999995498
1040
-0.2368999999997641
1040
44.99999999995498
1040
8.763099999991255
1040
43.57899999995641
1040
8.763099999991255
1040
43.57899999995641
1040
3.421199999996588
1040
38.60499999996136
1040
8.999899999990987
1040
38.60499999996136
1040
8.999999999991019
1040
38.60499999996136
1040
0.0
1040
40.02599999995994
1040
0.0
1071
        8
1005
A35B
1005
A35E
1005
A362
1005
A361
1005
A360
1005
A35D
1005
A35F
1005
A35C
1070
     0
1070
     1
1040
0.0
1040
0.15
1070
     0
1070
     2
1040
0.7853981633974483
1040
49.29960901727088
1040
-10.17736998311392
1040
-0.3367596045400932
1040
0.3367596045400932
1070
     0
1040
2.356194490192345
1040
49.29960901727088
1040
-10.17736998311392
1040
-0.3367596045400932
1040
-0.3367596045400932
1070
     0
1040
0.0110235143455945
1071
        1
1040
39.74896370716704
1040
4.484843821435049
1040
0.0
1002
}
  0
INSERT
  5
A37B
330
A333
100
AcDbEntity
  8
0
100
AcDbBlockReference
  2
*X77
 10
0.0
 20
0.0
 30
0.0
1001
ACAD
1000
HATCH
1002
{
1070
    19
1000
ANSI37
1040
0.15
1040
0.0
1000
ASC_BOUNDS
1070
     1
1070
     2
1070
     4
1005
A33F
1005
A34E
1005
A340
1005
A342
1000
ASC_SEEDPOINT
1011
1.079051535452663
1021
4.148538732891836
1031
0.0
1000
R14_HATCH_DATA
1000
A37B
1011
1.0
1021
0.0
1031
0.0
1011
0.0
1021
1.0
1031
0.0
1011
0.0
1021
0.0
1031
1.0
1040
0.0
1010
0.0
1020
0.0
1030
1.0
1000
ANSI37
1070
     0
1070
     1
1071
        1
1071
        7
1070
     0
1070
     1
1071
        4
1040
1.420999999998571
1040
0.0
1040
1.420999999998571
1040
8.763099999991255
1040
0.0
1040
8.763099999991255
1040
0.0
1040
0.0
1071
        4
1005
A33F
1005
A34E
1005
A340
1005
A342
1070
     0
1070
     1
1040
0.0
1040
0.15
1070
     0
1070
     2
1040
0.7853981633974483
1040
49.29960901727088
1040
-10.17736998311392
1040
-0.3367596045400932
1040
0.3367596045400932
1070
     0
1040
2.356194490192345
1040
49.29960901727088
1040
-10.17736998311392
1040
-0.3367596045400932
1040
-0.3367596045400932
1070
     0
1040
0.0053004257112761
1071
        1
1040
1.079051535452663
1040
4.148538732891836
1040
0.0
1002
}
  0
ENDBLK
  5
AA57
330
A333
100
AcDbEntity
  8
0
100
AcDbBlockEnd
  0
BLOCK
  5
B5FA
330
B46C
100
AcDbEntity
  8
0
100
AcDbBlockBegin
  2
*X72
 70
     1
 10
0.0
 20
0.0
 30
0.0
  3
*X72
  1

  0
LINE
  5
B46D
330
B46C
100
AcDbEntity
  8
0
  6
CONTINUOUS
100
AcDbLine
 10
3.418023043697893
 20
7.251849696850613
 30
0.0
 11
4.929273346838536
 21
8.763099999991255
 31
0.0
  0
LINE
  5
B46E
330
B46C
100
AcDbEntity
  8
0
  6
CONTINUOUS
100
AcDbLine
 10
1.483656411257782
 20
4.643963855330318
 30
0.0
 11
5.60279255591872
 21
8.763099999991255
 31
0.0
  0
LINE
  5
B46F
330
B46C
100
AcDbEntity
  8
0
  6
CONTINUOUS
100
AcDbLine
 10
1.755053947328235
 20
4.241842182320584
 30
0.0
 11
6.276311764998907
 21
8.763099999991255
 31
0.0
  0
LINE
  5
B470
330
B46C
100
AcDbEntity
  8
0
  6
CONTINUOUS
100
AcDbLine
 10
2.026451483398688
 20
3.839720509310849
 30
0.0
 11
4.441040904851878
 21
6.254309930764039
 31
0.0
  0
LINE
  5
B471
330
B46C
100
AcDbEntity
  8
0
  6
CONTINUOUS
100
AcDbLine
 10
2.297849019469139
 20
3.437598836301114
 30
0.0
 11
3.321765168359338
 21
4.461514985191313
 31
0.0
  0
LINE
  5
B472
330
B46C
100
AcDbEntity
  8
0
  6
CONTINUOUS
100
AcDbLine
 10
2.569246555539591
 20
3.03547716329138
 30
0.0
 11
3.593163397972743
 21
4.059394005724531
 31
0.0
  0
LINE
  5
B473
330
B46C
100
AcDbEntity
  8
0
  6
CONTINUOUS
100
AcDbLine
 10
2.840644091610043
 20
2.633355490281646
 30
0.0
 11
3.864561627586149
 21
3.657273026257751
 31
0.0
  0
LINE
  5
B474
330
B46C
100
AcDbEntity
  8
0
  6
CONTINUOUS
100
AcDbLine
 10
3.112041627680496
 20
2.231233817271911
 30
0.0
 11
4.135959857199554
 21
3.25515204679097
 31
0.0
  0
LINE
  5
B475
330
B46C
100
AcDbEntity
  8
0
  6
CONTINUOUS
100
AcDbLine
 10
3.383439163750948
 20
1.829112144262177
 30
0.0
 11
4.40735808681296
 21
2.853031067324189
 31
0.0
  0
LINE
  5
B476
330
B46C
100
AcDbEntity
  8
0
  6
CONTINUOUS
100
AcDbLine
 10
3.654836699821399
 20
1.426990471252442
 30
0.0
 11
4.678756316426365
 21
2.450910087857407
 31
0.0
  0
LINE
  5
B477
330
B46C
100
AcDbEntity
  8
0
  6
CONTINUOUS
100
AcDbLine
 10
3.926234235891853
 20
1.024868798242709
 30
0.0
 11
4.95015454603977
 21
2.048789108390626
 31
0.0
  0
LINE
  5
B478
330
B46C
100
AcDbEntity
  8
0
  6
CONTINUOUS
100
AcDbLine
 10
4.197631771962304
 20
0.6227471252329737
 30
0.0
 11
5.221552775653176
 21
1.646668128923846
 31
0.0
  0
LINE
  5
B479
330
B46C
100
AcDbEntity
  8
0
  6
CONTINUOUS
100
AcDbLine
 10
8.715877546767851
 20
7.835069736359266
 30
0.0
 11
9.435953450375058
 21
8.555145639966472
 31
0.0
  0
LINE
  5
B47A
330
B46C
100
AcDbEntity
  8
0
  6
CONTINUOUS
100
AcDbLine
 10
8.170620868422267
 20
6.616293848933497
 30
0.0
 11
9.644120833743461
 21
8.08979381425469
 31
0.0
  0
LINE
  5
B47B
330
B46C
100
AcDbEntity
  8
0
  6
CONTINUOUS
100
AcDbLine
 10
7.625364190076684
 20
5.397517961507727
 30
0.0
 11
9.852288217111864
 21
7.624441988542907
 31
0.0
  0
LINE
  5
B47C
330
B46C
100
AcDbEntity
  8
0
  6
CONTINUOUS
100
AcDbLine
 10
7.080107511731101
 20
4.178742074081957
 30
0.0
 11
10.06045560048027
 21
7.159090162831124
 31
0.0
  0
LINE
  5
B47D
330
B46C
100
AcDbEntity
  8
0
  6
CONTINUOUS
100
AcDbLine
 10
6.534850833385518
 20
2.959966186656187
 30
0.0
 11
10.26862298384867
 21
6.693738337119342
 31
0.0
  0
LINE
  5
B47E
330
B46C
100
AcDbEntity
  8
0
  6
CONTINUOUS
100
AcDbLine
 10
4.469029308032756
 20
0.2206254522232385
 30
0.0
 11
5.492951005266582
 21
1.244547149457064
 31
0.0
  0
LINE
  5
B47F
330
B46C
100
AcDbEntity
  8
0
  6
CONTINUOUS
100
AcDbLine
 10
5.989594155039935
 20
1.741190299230417
 30
0.0
 11
8.806950407233131
 21
4.558546551423613
 31
0.0
  0
LINE
  5
B480
330
B46C
100
AcDbEntity
  8
0
  6
CONTINUOUS
100
AcDbLine
 10
9.401251593263643
 20
5.152847737454126
 30
0.0
 11
10.47679036721708
 21
6.228386511407559
 31
0.0
  0
LINE
  5
B481
330
B46C
100
AcDbEntity
  8
0
  6
CONTINUOUS
100
AcDbLine
 10
4.921837203428691
 20
-0.0000858614610131
 30
0.0
 11
8.592923064886001
 21
3.670999999996297
 31
0.0
  0
LINE
  5
B482
330
B46C
100
AcDbEntity
  8
0
  6
CONTINUOUS
100
AcDbLine
 10
9.609390446785305
 20
4.6874673818956
 30
0.0
 11
10.68495775058548
 21
5.763034685695775
 31
0.0
  0
LINE
  5
B483
330
B46C
100
AcDbEntity
  8
0
  6
CONTINUOUS
100
AcDbLine
 10
5.595387755019432
 20
-0.0000545189504582
 30
0.0
 11
7.716137258923768
 21
2.120694984953879
 31
0.0
  0
LINE
  5
B484
330
B46C
100
AcDbEntity
  8
0
  6
CONTINUOUS
100
AcDbLine
 10
6.268938306610172
 20
-0.000023176439905
 30
0.0
 11
7.170485805526503
 21
0.9015243224764267
 31
0.0
  0
LINE
  5
B485
330
B46C
100
AcDbEntity
  8
0
  6
CONTINUOUS
100
AcDbLine
 10
7.963842273967511
 20
2.368399999997621
 30
0.0
 11
9.266442273966188
 21
3.670999999996297
 31
0.0
  0
LINE
  5
B486
330
B46C
100
AcDbEntity
  8
0
  6
CONTINUOUS
100
AcDbLine
 10
8.637361483047696
 20
2.368399999997621
 30
0.0
 11
9.939961483046375
 21
3.670999999996297
 31
0.0
  0
LINE
  5
B487
330
B46C
100
AcDbEntity
  8
0
  6
CONTINUOUS
100
AcDbLine
 10
9.817529300306965
 20
4.222087026337075
 30
0.0
 11
10.89312513395388
 21
5.297682859983993
 31
0.0
  0
LINE
  5
B488
330
B46C
100
AcDbEntity
  8
0
  6
CONTINUOUS
100
AcDbLine
 10
10.02566815382863
 20
3.756706670778549
 30
0.0
 11
11.10129251732229
 21
4.832331034272211
 31
0.0
  0
LINE
  5
B489
330
B46C
100
AcDbEntity
  8
0
  6
CONTINUOUS
100
AcDbLine
 10
9.310880692127883
 20
2.368399999997621
 30
0.0
 11
11.30945990069069
 21
4.366979208560428
 31
0.0
  0
LINE
  5
B48A
330
B46C
100
AcDbEntity
  8
0
  6
CONTINUOUS
100
AcDbLine
 10
9.98439990120807
 20
2.36839999999762
 30
0.0
 11
11.5176272840591
 21
3.901627382848645
 31
0.0
  0
LINE
  5
B48B
330
B46C
100
AcDbEntity
  8
0
  6
CONTINUOUS
100
AcDbLine
 10
10.65037369446246
 20
2.36085458417182
 30
0.0
 11
11.7257946674275
 21
3.436275557136862
 31
0.0
  0
LINE
  5
B48C
330
B46C
100
AcDbEntity
  8
0
  6
CONTINUOUS
100
AcDbLine
 10
10.85847197087848
 20
1.895433651507656
 30
0.0
 11
11.9339620507959
 21
2.97092373142508
 31
0.0
  0
LINE
  5
B48D
330
B46C
100
AcDbEntity
  8
0
  6
CONTINUOUS
100
AcDbLine
 10
11.0665702472945
 20
1.430012718843491
 30
0.0
 11
12.14212943416431
 21
2.505571905713296
 31
0.0
  0
LINE
  5
B48E
330
B46C
100
AcDbEntity
  8
0
  6
CONTINUOUS
100
AcDbLine
 10
11.27466852371052
 20
0.9645917861793256
 30
0.0
 11
12.35029681753271
 21
2.040220080001513
 31
0.0
  0
LINE
  5
B48F
330
B46C
100
AcDbEntity
  8
0
  6
CONTINUOUS
100
AcDbLine
 10
11.48276680012654
 20
0.4991708535151611
 30
0.0
 11
12.55846420090111
 21
1.57486825428973
 31
0.0
  0
LINE
  5
B490
330
B46C
100
AcDbEntity
  8
0
  6
CONTINUOUS
100
AcDbLine
 10
11.69086507654257
 20
0.0337499208509957
 30
0.0
 11
12.76663158426952
 21
1.109516428577947
 31
0.0
  0
LINE
  5
B491
330
B46C
100
AcDbEntity
  8
0
  6
CONTINUOUS
100
AcDbLine
 10
12.33057447873954
 20
-0.0000598860322123
 30
0.0
 11
12.97479896763792
 21
0.6441646028661663
 31
0.0
  0
LINE
  5
B492
330
B46C
100
AcDbEntity
  8
0
  6
CONTINUOUS
100
AcDbLine
 10
13.00413694809395
 20
-0.0000166257579952
 30
0.0
 11
13.18296635100632
 21
0.1788127771543824
 31
0.0
  0
LINE
  5
B493
330
B46C
100
AcDbEntity
  8
0
  6
CONTINUOUS
100
AcDbLine
 10
4.772852165289667
 20
-0.000092794222212
 30
0.0
 11
4.296495091028902
 21
0.4762642800385528
 31
0.0
  0
LINE
  5
B494
330
B46C
100
AcDbEntity
  8
0
  6
CONTINUOUS
100
AcDbLine
 10
5.446340034776103
 20
-0.0000614546284616
 30
0.0
 11
2.898195908335625
 21
2.548082671812017
 31
0.0
  0
LINE
  5
B495
330
B46C
100
AcDbEntity
  8
0
  6
CONTINUOUS
100
AcDbLine
 10
6.119827904262539
 20
-0.0000301150347113
 30
0.0
 11
1.499896725642348
 21
4.61990106358548
 31
0.0
  0
LINE
  5
B496
330
B46C
100
AcDbEntity
  8
0
  6
CONTINUOUS
100
AcDbLine
 10
6.775136745476159
 20
0.0181802528318542
 30
0.0
 11
5.699826040202669
 21
1.093490958105344
 31
0.0
  0
LINE
  5
B497
330
B46C
100
AcDbEntity
  8
0
  6
CONTINUOUS
100
AcDbLine
 10
6.983376846288489
 20
0.4834593610997118
 30
0.0
 11
5.908008617934405
 21
1.558827589453796
 31
0.0
  0
LINE
  5
B498
330
B46C
100
AcDbEntity
  8
0
  6
CONTINUOUS
100
AcDbLine
 10
5.377063484962296
 20
1.416253513345719
 30
0.0
 11
1.702276957014131
 21
5.091040041293883
 31
0.0
  0
LINE
  5
B499
330
B46C
100
AcDbEntity
  8
0
  6
CONTINUOUS
100
AcDbLine
 10
3.978745891735324
 20
3.488090315652877
 30
0.0
 11
2.000373521109399
 21
5.466462686278803
 31
0.0
  0
LINE
  5
B49A
330
B46C
100
AcDbEntity
  8
0
  6
CONTINUOUS
100
AcDbLine
 10
7.191616947100819
 20
0.948738469367568
 30
0.0
 11
6.11619119566614
 21
2.024164220802247
 31
0.0
  0
LINE
  5
B49B
330
B46C
100
AcDbEntity
  8
0
  6
CONTINUOUS
100
AcDbLine
 10
7.399857047913149
 20
1.414017577635424
 30
0.0
 11
6.324373773397875
 21
2.489500852150698
 31
0.0
  0
LINE
  5
B49C
330
B46C
100
AcDbEntity
  8
0
  6
CONTINUOUS
100
AcDbLine
 10
7.608097148725479
 20
1.879296685903281
 30
0.0
 11
6.53255635112961
 21
2.95483748349915
 31
0.0
  0
LINE
  5
B49D
330
B46C
100
AcDbEntity
  8
0
  6
CONTINUOUS
100
AcDbLine
 10
7.816337249537808
 20
2.344575794171138
 30
0.0
 11
6.740738928861345
 21
3.420174114847601
 31
0.0
  0
LINE
  5
B49E
330
B46C
100
AcDbEntity
  8
0
  6
CONTINUOUS
100
AcDbLine
 10
3.310241080789734
 20
4.830114335678653
 30
0.0
 11
2.298470085204666
 21
5.84188533126372
 31
0.0
  0
LINE
  5
B49F
330
B46C
100
AcDbEntity
  8
0
  6
CONTINUOUS
100
AcDbLine
 10
3.60832983563551
 20
5.205544789913063
 30
0.0
 11
2.596566649299935
 21
6.217307976248638
 31
0.0
  0
LINE
  5
B4A0
330
B46C
100
AcDbEntity
  8
0
  6
CONTINUOUS
100
AcDbLine
 10
3.906418590481286
 20
5.580975244147473
 30
0.0
 11
2.894663213395203
 21
6.592730621233557
 31
0.0
  0
LINE
  5
B4A1
330
B46C
100
AcDbEntity
  8
0
  6
CONTINUOUS
100
AcDbLine
 10
4.204507345327062
 20
5.956405698381884
 30
0.0
 11
3.192759777490472
 21
6.968153266218474
 31
0.0
  0
LINE
  5
B4A2
330
B46C
100
AcDbEntity
  8
0
  6
CONTINUOUS
100
AcDbLine
 10
8.466032252791512
 20
2.368399999997621
 30
0.0
 11
6.948921506593081
 21
3.885510746196053
 31
0.0
  0
LINE
  5
B4A3
330
B46C
100
AcDbEntity
  8
0
  6
CONTINUOUS
100
AcDbLine
 10
9.139551461871699
 20
2.36839999999762
 30
0.0
 11
7.157104084324816
 21
4.350847377544504
 31
0.0
  0
LINE
  5
B4A4
330
B46C
100
AcDbEntity
  8
0
  6
CONTINUOUS
100
AcDbLine
 10
4.502596100172839
 20
6.331836152616295
 30
0.0
 11
3.49085634158574
 21
7.343575911203393
 31
0.0
  0
LINE
  5
B4A5
330
B46C
100
AcDbEntity
  8
0
  6
CONTINUOUS
100
AcDbLine
 10
4.800684855018615
 20
6.707266606850705
 30
0.0
 11
3.788952905681008
 21
7.718998556188312
 31
0.0
  0
LINE
  5
B4A6
330
B46C
100
AcDbEntity
  8
0
  6
CONTINUOUS
100
AcDbLine
 10
12.18154012887317
 20
-0.0000694579236642
 30
0.0
 11
11.32140332908496
 21
0.8600673418645499
 31
0.0
  0
LINE
  5
B4A7
330
B46C
100
AcDbEntity
  8
0
  6
CONTINUOUS
100
AcDbLine
 10
12.85501608323566
 20
-0.0000262032059659
 30
0.0
 11
10.77672456435345
 21
2.078265315676246
 31
0.0
  0
LINE
  5
B4A8
330
B46C
100
AcDbEntity
  8
0
  6
CONTINUOUS
100
AcDbLine
 10
9.813070670951886
 20
2.36839999999762
 30
0.0
 11
8.51047067095321
 21
3.670999999996297
 31
0.0
  0
LINE
  5
B4A9
330
B46C
100
AcDbEntity
  8
0
  6
CONTINUOUS
100
AcDbLine
 10
10.48658988003207
 20
2.36839999999762
 30
0.0
 11
9.183989880033396
 21
3.670999999996297
 31
0.0
  0
LINE
  5
B4AA
330
B46C
100
AcDbEntity
  8
0
  6
CONTINUOUS
100
AcDbLine
 10
8.441048632286794
 20
3.740422038662712
 30
0.0
 11
7.365286662056551
 21
4.816184008892956
 31
0.0
  0
LINE
  5
B4AB
330
B46C
100
AcDbEntity
  8
0
  6
CONTINUOUS
100
AcDbLine
 10
8.649187485808454
 20
4.205802394221237
 30
0.0
 11
7.573469239788285
 21
5.281520640241407
 31
0.0
  0
LINE
  5
B4AC
330
B46C
100
AcDbEntity
  8
0
  6
CONTINUOUS
100
AcDbLine
 10
5.098773609864391
 20
7.082697061085115
 30
0.0
 11
4.087049469776277
 21
8.09442120117323
 31
0.0
  0
LINE
  5
B4AD
330
B46C
100
AcDbEntity
  8
0
  6
CONTINUOUS
100
AcDbLine
 10
5.396862364710167
 20
7.458127515319526
 30
0.0
 11
4.385146033871544
 21
8.469843846158149
 31
0.0
  0
LINE
  5
B4AE
330
B46C
100
AcDbEntity
  8
0
  6
CONTINUOUS
100
AcDbLine
 10
13.04801363231285
 20
0.4804954567970334
 30
0.0
 11
9.85750908911358
 21
3.670999999996297
 31
0.0
  0
LINE
  5
B4AF
330
B46C
100
AcDbEntity
  8
0
  6
CONTINUOUS
100
AcDbLine
 10
8.857326339330116
 20
4.671182749779763
 30
0.0
 11
7.781651817520021
 21
5.746857271589858
 31
0.0
  0
LINE
  5
B4B0
330
B46C
100
AcDbEntity
  8
0
  6
CONTINUOUS
100
AcDbLine
 10
5.694951119555943
 20
7.833557969553937
 30
0.0
 11
4.765409089118624
 21
8.763099999991255
 31
0.0
  0
LINE
  5
B4B1
330
B46C
100
AcDbEntity
  8
0
  6
CONTINUOUS
100
AcDbLine
 10
12.50286117236978
 20
1.699167125820288
 30
0.0
 11
9.68611877250287
 21
4.515909525687196
 31
0.0
  0
LINE
  5
B4B2
330
B46C
100
AcDbEntity
  8
0
  6
CONTINUOUS
100
AcDbLine
 10
9.065465192851777
 20
5.136563105338288
 30
0.0
 11
7.989834395251757
 21
6.21219390293831
 31
0.0
  0
LINE
  5
B4B3
330
B46C
100
AcDbEntity
  8
0
  6
CONTINUOUS
100
AcDbLine
 10
5.993039874401719
 20
8.208988423788346
 30
0.0
 11
5.43892829819881
 21
8.763099999991255
 31
0.0
  0
LINE
  5
B4B4
330
B46C
100
AcDbEntity
  8
0
  6
CONTINUOUS
100
AcDbLine
 10
11.95770871242671
 20
2.917838794843543
 30
0.0
 11
8.19801697298349
 21
6.677530534286761
 31
0.0
  0
LINE
  5
B4B5
330
B46C
100
AcDbEntity
  8
0
  6
CONTINUOUS
100
AcDbLine
 10
6.291128629247495
 20
8.584418878022756
 30
0.0
 11
6.112447507278997
 21
8.763099999991255
 31
0.0
  0
LINE
  5
B4B6
330
B46C
100
AcDbEntity
  8
0
  6
CONTINUOUS
100
AcDbLine
 10
11.41255625248364
 20
4.136510463866797
 30
0.0
 11
8.406199550715227
 21
7.142867165635211
 31
0.0
  0
LINE
  5
B4B7
330
B46C
100
AcDbEntity
  8
0
  6
CONTINUOUS
100
AcDbLine
 10
10.86740379254057
 20
5.355182132890051
 30
0.0
 11
8.614382128446962
 21
7.608203796983664
 31
0.0
  0
LINE
  5
B4B8
330
B46C
100
AcDbEntity
  8
0
  6
CONTINUOUS
100
AcDbLine
 10
10.3222513325975
 20
6.573853801913305
 30
0.0
 11
8.822564706178696
 21
8.073540428332114
 31
0.0
  0
LINE
  5
B4B9
330
B46C
100
AcDbEntity
  8
0
  6
CONTINUOUS
100
AcDbLine
 10
9.777098872654436
 20
7.792525470936562
 30
0.0
 11
9.030747283910433
 21
8.538877059680566
 31
0.0
  0
ENDBLK
  5
B5FB
330
B46C
100
AcDbEntity
  8
0
100
AcDbBlockEnd
  0
BLOCK
  5
B5FC
330
B4BA
100
AcDbEntity
  8
0
100
AcDbBlockBegin
  2
*X73
 70
     1
 10
0.0
 20
0.0
 30
0.0
  3
*X73
  1

  0
LINE
  5
B4BB
330
B4BA
100
AcDbEntity
  8
0
  6
CONTINUOUS
100
AcDbLine
 10
10.67292308101235
 20
8.445076852443387
 30
0.0
 11
10.99094622856022
 21
8.763099999991255
 31
0.0
  0
LINE
  5
B4BC
330
B4BA
100
AcDbEntity
  8
0
  6
CONTINUOUS
100
AcDbLine
 10
10.87250383178748
 20
7.971138394138331
 30
0.0
 11
11.6644654376404
 21
8.763099999991255
 31
0.0
  0
LINE
  5
B4BD
330
B4BA
100
AcDbEntity
  8
0
  6
CONTINUOUS
100
AcDbLine
 10
11.07208458256261
 20
7.497199935833273
 30
0.0
 11
12.12126590876355
 21
8.546381262034211
 31
0.0
  0
LINE
  5
B4BE
330
B4BA
100
AcDbEntity
  8
0
  6
CONTINUOUS
100
AcDbLine
 10
11.27166533333774
 20
7.023261477528216
 30
0.0
 11
12.32085164573666
 21
8.072447789927136
 31
0.0
  0
LINE
  5
B4BF
330
B4BA
100
AcDbEntity
  8
0
  6
CONTINUOUS
100
AcDbLine
 10
11.47124608411287
 20
6.549323019223158
 30
0.0
 11
12.52043738270977
 21
7.59851431782006
 31
0.0
  0
LINE
  5
B4C0
330
B4BA
100
AcDbEntity
  8
0
  6
CONTINUOUS
100
AcDbLine
 10
11.670826834888
 20
6.075384560918101
 30
0.0
 11
12.72002311968288
 21
7.124580845712984
 31
0.0
  0
LINE
  5
B4C1
330
B4BA
100
AcDbEntity
  8
0
  6
CONTINUOUS
100
AcDbLine
 10
11.87040758566313
 20
5.601446102613043
 30
0.0
 11
12.91960885665599
 21
6.650647373605907
 31
0.0
  0
LINE
  5
B4C2
330
B4BA
100
AcDbEntity
  8
0
  6
CONTINUOUS
100
AcDbLine
 10
12.06998833643825
 20
5.127507644307986
 30
0.0
 11
13.1191945936291
 21
6.176713901498832
 31
0.0
  0
LINE
  5
B4C3
330
B4BA
100
AcDbEntity
  8
0
  6
CONTINUOUS
100
AcDbLine
 10
12.26956908721338
 20
4.65356918600293
 30
0.0
 11
13.31878033060221
 21
5.702780429391757
 31
0.0
  0
LINE
  5
B4C4
330
B4BA
100
AcDbEntity
  8
0
  6
CONTINUOUS
100
AcDbLine
 10
12.46914983798851
 20
4.179630727697873
 30
0.0
 11
13.51836606757532
 21
5.228846957284683
 31
0.0
  0
LINE
  5
B4C5
330
B4BA
100
AcDbEntity
  8
0
  6
CONTINUOUS
100
AcDbLine
 10
12.66873058876364
 20
3.705692269392816
 30
0.0
 11
13.71795180454843
 21
4.754913485177607
 31
0.0
  0
LINE
  5
B4C6
330
B4BA
100
AcDbEntity
  8
0
  6
CONTINUOUS
100
AcDbLine
 10
12.86831133953877
 20
3.231753811087759
 30
0.0
 11
13.91753754152154
 21
4.280980013070531
 31
0.0
  0
LINE
  5
B4C7
330
B4BA
100
AcDbEntity
  8
0
  6
CONTINUOUS
100
AcDbLine
 10
13.0678920903139
 20
2.757815352782702
 30
0.0
 11
14.11712327849465
 21
3.807046540963456
 31
0.0
  0
LINE
  5
B4C8
330
B4BA
100
AcDbEntity
  8
0
  6
CONTINUOUS
100
AcDbLine
 10
13.26747284108903
 20
2.283876894477644
 30
0.0
 11
14.31670901546777
 21
3.333113068856379
 31
0.0
  0
LINE
  5
B4C9
330
B4BA
100
AcDbEntity
  8
0
  6
CONTINUOUS
100
AcDbLine
 10
16.36767838827179
 20
8.751678487061342
 30
0.0
 11
16.50332410898388
 21
8.887324207773432
 31
0.0
  0
LINE
  5
B4CA
330
B4BA
100
AcDbEntity
  8
0
  6
CONTINUOUS
100
AcDbLine
 10
15.96190732182191
 20
7.67238821153127
 30
0.0
 11
16.68735328004734
 21
8.397834169756699
 31
0.0
  0
LINE
  5
B4CB
330
B4BA
100
AcDbEntity
  8
0
  6
CONTINUOUS
100
AcDbLine
 10
15.55613625537202
 20
6.593097936001196
 30
0.0
 11
16.87138245111079
 21
7.908344131739965
 31
0.0
  0
LINE
  5
B4CC
330
B4BA
100
AcDbEntity
  8
0
  6
CONTINUOUS
100
AcDbLine
 10
15.15036518892213
 20
5.513807660471122
 30
0.0
 11
17.05541162217424
 21
7.418854093723231
 31
0.0
  0
LINE
  5
B4CD
330
B4BA
100
AcDbEntity
  8
0
  6
CONTINUOUS
100
AcDbLine
 10
14.74459412247225
 20
4.434517384941048
 30
0.0
 11
17.2394407932377
 21
6.929364055706499
 31
0.0
  0
LINE
  5
B4CE
330
B4BA
100
AcDbEntity
  8
0
  6
CONTINUOUS
100
AcDbLine
 10
14.33882305602236
 20
3.355227109410975
 30
0.0
 11
17.42346996430115
 21
6.439874017689766
 31
0.0
  0
LINE
  5
B4CF
330
B4BA
100
AcDbEntity
  8
0
  6
CONTINUOUS
100
AcDbLine
 10
13.46705359186416
 20
1.809938436172586
 30
0.0
 11
16.0819338255367
 21
4.424818669845129
 31
0.0
  0
LINE
  5
B4D0
330
B4BA
100
AcDbEntity
  8
0
  6
CONTINUOUS
100
AcDbLine
 10
16.63283254238972
 20
4.975717386698149
 30
0.0
 11
17.60749913536461
 21
5.950383979673033
 31
0.0
  0
LINE
  5
B4D1
330
B4BA
100
AcDbEntity
  8
0
  6
CONTINUOUS
100
AcDbLine
 10
13.66663434263929
 20
1.335999977867529
 30
0.0
 11
15.67604797733754
 21
3.345413612565779
 31
0.0
  0
LINE
  5
B4D2
330
B4BA
100
AcDbEntity
  8
0
  6
CONTINUOUS
100
AcDbLine
 10
13.86621509341442
 20
0.8620615195624723
 30
0.0
 11
15.27016212913838
 21
2.26600855528643
 31
0.0
  0
LINE
  5
B4D3
330
B4BA
100
AcDbEntity
  8
0
  6
CONTINUOUS
100
AcDbLine
 10
16.81682257348267
 20
4.486188208710908
 30
0.0
 11
17.79152830642806
 21
5.460893941656299
 31
0.0
  0
LINE
  5
B4D4
330
B4BA
100
AcDbEntity
  8
0
  6
CONTINUOUS
100
AcDbLine
 10
17.00081260457561
 20
3.996659030723667
 30
0.0
 11
17.97555747749151
 21
4.971403903639565
 31
0.0
  0
LINE
  5
B4D5
330
B4BA
100
AcDbEntity
  8
0
  6
CONTINUOUS
100
AcDbLine
 10
20.74362343514722
 20
8.412989070375462
 30
0.0
 11
21.09373436476302
 21
8.763099999991256
 31
0.0
  0
LINE
  5
B4D6
330
B4BA
100
AcDbEntity
  8
0
  6
CONTINUOUS
100
AcDbLine
 10
20.25401257174777
 20
7.249858997895826
 30
0.0
 11
21.7672535738432
 21
8.763099999991255
 31
0.0
  0
LINE
  5
B4D7
330
B4BA
100
AcDbEntity
  8
0
  6
CONTINUOUS
100
AcDbLine
 10
14.06579584418955
 20
0.3881230612574149
 30
0.0
 11
14.86427628093921
 21
1.186603498007082
 31
0.0
  0
LINE
  5
B4D8
330
B4BA
100
AcDbEntity
  8
0
  6
CONTINUOUS
100
AcDbLine
 10
14.26537659496467
 20
-0.0858153970476412
 30
0.0
 11
14.45839043274005
 21
0.1071984407277329
 31
0.0
  0
LINE
  5
B4D9
330
B4BA
100
AcDbEntity
  8
0
  6
CONTINUOUS
100
AcDbLine
 10
17.18480263566856
 20
3.507129852736426
 30
0.0
 11
18.15958664855496
 21
4.481913865622833
 31
0.0
  0
LINE
  5
B4DA
330
B4BA
100
AcDbEntity
  8
0
  6
CONTINUOUS
100
AcDbLine
 10
17.3687926667615
 20
3.017600674749186
 30
0.0
 11
18.34361581961842
 21
3.9924238276061
 31
0.0
  0
LINE
  5
B4DB
330
B4BA
100
AcDbEntity
  8
0
  6
CONTINUOUS
100
AcDbLine
 10
19.76440170834832
 20
6.086728925416191
 30
0.0
 11
22.33924590259489
 21
8.661573119662755
 31
0.0
  0
LINE
  5
B4DC
330
B4BA
100
AcDbEntity
  8
0
  6
CONTINUOUS
100
AcDbLine
 10
19.27479084494887
 20
4.923598852936555
 30
0.0
 11
21.84929622842713
 21
7.498104236414807
 31
0.0
  0
LINE
  5
B4DD
330
B4BA
100
AcDbEntity
  8
0
  6
CONTINUOUS
100
AcDbLine
 10
17.55278269785445
 20
2.528071496761945
 30
0.0
 11
18.52764499068187
 21
3.502933789589366
 31
0.0
  0
LINE
  5
B4DE
330
B4BA
100
AcDbEntity
  8
0
  6
CONTINUOUS
100
AcDbLine
 10
18.78517998154942
 20
3.760468780456919
 30
0.0
 11
21.35934655425936
 21
6.33463535316686
 31
0.0
  0
LINE
  5
B4DF
330
B4BA
100
AcDbEntity
  8
0
  6
CONTINUOUS
100
AcDbLine
 10
17.73677272894739
 20
2.038542318774704
 30
0.0
 11
20.8693968800916
 21
5.171166469918914
 31
0.0
  0
LINE
  5
B4E0
330
B4BA
100
AcDbEntity
  8
0
  6
CONTINUOUS
100
AcDbLine
 10
17.92076276004034
 20
1.549013140787464
 30
0.0
 11
20.37944720592384
 21
4.007697586670968
 31
0.0
  0
LINE
  5
B4E1
330
B4BA
100
AcDbEntity
  8
0
  6
CONTINUOUS
100
AcDbLine
 10
18.10475279113329
 20
1.059483962800223
 30
0.0
 11
19.88949753175608
 21
2.84422870342302
 31
0.0
  0
LINE
  5
B4E2
330
B4BA
100
AcDbEntity
  8
0
  6
CONTINUOUS
100
AcDbLine
 10
18.28874282222623
 20
0.5699547848129822
 30
0.0
 11
19.39954785758832
 21
1.680759820175074
 31
0.0
  0
LINE
  5
B4E3
330
B4BA
100
AcDbEntity
  8
0
  6
CONTINUOUS
100
AcDbLine
 10
18.47273285331918
 20
0.0804256068257416
 30
0.0
 11
18.90959818342056
 21
0.517290936927127
 31
0.0
  0
LINE
  5
B4E4
330
B4BA
100
AcDbEntity
  8
0
  6
CONTINUOUS
100
AcDbLine
 10
14.3590401358224
 20
-0.1570118376323384
 30
0.0
 11
14.24903296539946
 21
-0.0470046672093929
 31
0.0
  0
LINE
  5
B4E5
330
B4BA
100
AcDbEntity
  8
0
  6
CONTINUOUS
100
AcDbLine
 10
14.54309291258661
 20
0.332454594683643
 30
0.0
 11
13.75908329123172
 21
1.116464216038529
 31
0.0
  0
LINE
  5
B4E6
330
B4BA
100
AcDbEntity
  8
0
  6
CONTINUOUS
100
AcDbLine
 10
14.72714568935081
 20
0.8219210269996244
 30
0.0
 11
13.26913361706399
 21
2.27993309928645
 31
0.0
  0
LINE
  5
B4E7
330
B4BA
100
AcDbEntity
  8
0
  6
CONTINUOUS
100
AcDbLine
 10
14.91119846611502
 20
1.311387459315606
 30
0.0
 11
12.77918394289625
 21
3.443401982534371
 31
0.0
  0
LINE
  5
B4E8
330
B4BA
100
AcDbEntity
  8
0
  6
CONTINUOUS
100
AcDbLine
 10
15.09525124287922
 20
1.800853891631587
 30
0.0
 11
12.28923426872852
 21
4.606870865782293
 31
0.0
  0
LINE
  5
B4E9
330
B4BA
100
AcDbEntity
  8
0
  6
CONTINUOUS
100
AcDbLine
 10
15.27930401964343
 20
2.290320323947569
 30
0.0
 11
11.79928459456078
 21
5.770339749030213
 31
0.0
  0
LINE
  5
B4EA
330
B4BA
100
AcDbEntity
  8
0
  6
CONTINUOUS
100
AcDbLine
 10
15.46335679640763
 20
2.77978675626355
 30
0.0
 11
14.48885470994921
 21
3.754288842721972
 31
0.0
  0
LINE
  5
B4EB
330
B4BA
100
AcDbEntity
  8
0
  6
CONTINUOUS
100
AcDbLine
 10
13.88507249233704
 20
4.358071060334137
 30
0.0
 11
11.30933492039305
 21
6.933808632278135
 31
0.0
  0
LINE
  5
B4EC
330
B4BA
100
AcDbEntity
  8
0
  6
CONTINUOUS
100
AcDbLine
 10
18.75840522805855
 20
0.1582575336928151
 30
0.0
 11
18.25383727664818
 21
0.6628254851031863
 31
0.0
  0
LINE
  5
B4ED
330
B4BA
100
AcDbEntity
  8
0
  6
CONTINUOUS
100
AcDbLine
 10
15.64740957317184
 20
3.269253188579531
 30
0.0
 11
14.67288388101266
 21
4.243778880738705
 31
0.0
  0
LINE
  5
B4EE
330
B4BA
100
AcDbEntity
  8
0
  6
CONTINUOUS
100
AcDbLine
 10
13.39509276772158
 20
5.521569994029786
 30
0.0
 11
10.81938524622531
 21
8.097277515526056
 31
0.0
  0
LINE
  5
B4EF
330
B4BA
100
AcDbEntity
  8
0
  6
CONTINUOUS
100
AcDbLine
 10
18.95798597883369
 20
0.6321959919978686
 30
0.0
 11
17.84825644852853
 21
1.741925522303024
 31
0.0
  0
LINE
  5
B4F0
330
B4BA
100
AcDbEntity
  8
0
  6
CONTINUOUS
100
AcDbLine
 10
19.15756672960882
 20
1.106134450302922
 30
0.0
 11
17.44267562040888
 21
2.821025559502861
 31
0.0
  0
LINE
  5
B4F1
330
B4BA
100
AcDbEntity
  8
0
  6
CONTINUOUS
100
AcDbLine
 10
15.83146234993604
 20
3.758719620895513
 30
0.0
 11
14.85691305207612
 21
4.733268918755439
 31
0.0
  0
LINE
  5
B4F2
330
B4BA
100
AcDbEntity
  8
0
  6
CONTINUOUS
100
AcDbLine
 10
16.01551512670025
 20
4.248186053211494
 30
0.0
 11
15.04094222313957
 21
5.222758956772172
 31
0.0
  0
LINE
  5
B4F3
330
B4BA
100
AcDbEntity
  8
0
  6
CONTINUOUS
100
AcDbLine
 10
12.90511304310612
 20
6.685068927725435
 30
0.0
 11
10.8270819708403
 21
8.763099999991255
 31
0.0
  0
LINE
  5
B4F4
330
B4BA
100
AcDbEntity
  8
0
  6
CONTINUOUS
100
AcDbLine
 10
12.41513331849066
 20
7.848567861421083
 30
0.0
 11
11.50060117992049
 21
8.763099999991255
 31
0.0
  0
LINE
  5
B4F5
330
B4BA
100
AcDbEntity
  8
0
  6
CONTINUOUS
100
AcDbLine
 10
19.35714748038395
 20
1.580072908607975
 30
0.0
 11
17.03709479228923
 21
3.900125596702697
 31
0.0
  0
LINE
  5
B4F6
330
B4BA
100
AcDbEntity
  8
0
  6
CONTINUOUS
100
AcDbLine
 10
19.55672823115909
 20
2.054011366913028
 30
0.0
 11
16.63151396416958
 21
4.979225633902534
 31
0.0
  0
LINE
  5
B4F7
330
B4BA
100
AcDbEntity
  8
0
  6
CONTINUOUS
100
AcDbLine
 10
16.19956790346445
 20
4.737652485527476
 30
0.0
 11
15.22497139420302
 21
5.712248994788904
 31
0.0
  0
LINE
  5
B4F8
330
B4BA
100
AcDbEntity
  8
0
  6
CONTINUOUS
100
AcDbLine
 10
16.38362068022866
 20
5.227118917843457
 30
0.0
 11
15.40900056526648
 21
6.201739032805637
 31
0.0
  0
LINE
  5
B4F9
330
B4BA
100
AcDbEntity
  8
0
  6
CONTINUOUS
100
AcDbLine
 10
19.75630898193422
 20
2.527949825218081
 30
0.0
 11
18.70774536448286
 21
3.576513442669441
 31
0.0
  0
LINE
  5
B4FA
330
B4BA
100
AcDbEntity
  8
0
  6
CONTINUOUS
100
AcDbLine
 10
19.95588973270936
 20
3.001888283523134
 30
0.0
 11
18.90726987211446
 21
4.050508144118028
 31
0.0
  0
LINE
  5
B4FB
330
B4BA
100
AcDbEntity
  8
0
  6
CONTINUOUS
100
AcDbLine
 10
20.15547048348449
 20
3.475826741828186
 30
0.0
 11
19.10679437974606
 21
4.524502845566614
 31
0.0
  0
LINE
  5
B4FC
330
B4BA
100
AcDbEntity
  8
0
  6
CONTINUOUS
100
AcDbLine
 10
20.35505123425962
 20
3.94976520013324
 30
0.0
 11
19.30631888737766
 21
4.998497547015201
 31
0.0
  0
LINE
  5
B4FD
330
B4BA
100
AcDbEntity
  8
0
  6
CONTINUOUS
100
AcDbLine
 10
20.55463198503475
 20
4.423703658438292
 30
0.0
 11
19.50584339500926
 21
5.472492248463787
 31
0.0
  0
LINE
  5
B4FE
330
B4BA
100
AcDbEntity
  8
0
  6
CONTINUOUS
100
AcDbLine
 10
18.37481191085755
 20
3.909446896294752
 30
0.0
 11
15.59302973632993
 21
6.691229070822371
 31
0.0
  0
LINE
  5
B4FF
330
B4BA
100
AcDbEntity
  8
0
  6
CONTINUOUS
100
AcDbLine
 10
17.96904084440766
 20
4.988737171824825
 30
0.0
 11
15.77705890739338
 21
7.180719108839104
 31
0.0
  0
LINE
  5
B500
330
B4BA
100
AcDbEntity
  8
0
  6
CONTINUOUS
100
AcDbLine
 10
17.56326977795777
 20
6.068027447354899
 30
0.0
 11
15.96108807845684
 21
7.670209146855838
 31
0.0
  0
LINE
  5
B501
330
B4BA
100
AcDbEntity
  8
0
  6
CONTINUOUS
100
AcDbLine
 10
17.15749871150789
 20
7.147317722884972
 30
0.0
 11
16.14511724952029
 21
8.15969918487257
 31
0.0
  0
LINE
  5
B502
330
B4BA
100
AcDbEntity
  8
0
  6
CONTINUOUS
100
AcDbLine
 10
16.751727645058
 20
8.226607998415046
 30
0.0
 11
16.32914642058374
 21
8.649189222889303
 31
0.0
  0
LINE
  5
B503
330
B4BA
100
AcDbEntity
  8
0
  6
CONTINUOUS
100
AcDbLine
 10
20.75421273580989
 20
4.897642116743345
 30
0.0
 11
19.70536790264086
 21
5.946486949912374
 31
0.0
  0
LINE
  5
B504
330
B4BA
100
AcDbEntity
  8
0
  6
CONTINUOUS
100
AcDbLine
 10
20.95379348658502
 20
5.371580575048398
 30
0.0
 11
19.90489241027246
 21
6.42048165136096
 31
0.0
  0
LINE
  5
B505
330
B4BA
100
AcDbEntity
  8
0
  6
CONTINUOUS
100
AcDbLine
 10
21.15337423736015
 20
5.845519033353452
 30
0.0
 11
20.10441691790406
 21
6.894476352809547
 31
0.0
  0
LINE
  5
B506
330
B4BA
100
AcDbEntity
  8
0
  6
CONTINUOUS
100
AcDbLine
 10
21.35295498813529
 20
6.319457491658505
 30
0.0
 11
20.30394142553566
 21
7.368471054258134
 31
0.0
  0
LINE
  5
B507
330
B4BA
100
AcDbEntity
  8
0
  6
CONTINUOUS
100
AcDbLine
 10
21.55253573891042
 20
6.793395949963558
 30
0.0
 11
20.50346593316726
 21
7.842465755706721
 31
0.0
  0
LINE
  5
B508
330
B4BA
100
AcDbEntity
  8
0
  6
CONTINUOUS
100
AcDbLine
 10
21.75211648968556
 20
7.267334408268612
 30
0.0
 11
20.70299044079886
 21
8.316460457155308
 31
0.0
  0
LINE
  5
B509
330
B4BA
100
AcDbEntity
  8
0
  6
CONTINUOUS
100
AcDbLine
 10
21.95169724046069
 20
7.741272866573663
 30
0.0
 11
20.9298701070431
 21
8.763099999991256
 31
0.0
  0
LINE
  5
B50A
330
B4BA
100
AcDbEntity
  8
0
  6
CONTINUOUS
100
AcDbLine
 10
22.15127799123582
 20
8.215211324878716
 30
0.0
 11
21.60338931612328
 21
8.763099999991256
 31
0.0
  0
LINE
  5
B50B
330
B4BA
100
AcDbEntity
  8
0
  6
CONTINUOUS
100
AcDbLine
 10
22.35085874201096
 20
8.689149783183769
 30
0.0
 11
22.27690852520347
 21
8.763099999991255
 31
0.0
  0
ENDBLK
  5
B5FD
330
B4BA
100
AcDbEntity
  8
0
100
AcDbBlockEnd
  0
BLOCK
  5
B5FE
330
B50C
100
AcDbEntity
  8
0
100
AcDbBlockBegin
  2
*X74
 70
     1
 10
0.0
 20
0.0
 30
0.0
  3
*X74
  1

  0
LINE
  5
B50D
330
B50C
100
AcDbEntity
  8
0
  6
CONTINUOUS
100
AcDbLine
 10
23.19462913593892
 20
8.169917934846424
 30
0.0
 11
23.70775465517246
 21
8.683043454079957
 31
0.0
  0
LINE
  5
B50E
330
B50C
100
AcDbEntity
  8
0
  6
CONTINUOUS
100
AcDbLine
 10
22.64923161835078
 20
6.951001208178088
 30
0.0
 11
23.9159364069932
 21
8.217705996820516
 31
0.0
  0
LINE
  5
B50F
330
B50C
100
AcDbEntity
  8
0
  6
CONTINUOUS
100
AcDbLine
 10
22.10383410076263
 20
5.732084481509751
 30
0.0
 11
24.12411815881395
 21
7.752368539561078
 31
0.0
  0
LINE
  5
B510
330
B50C
100
AcDbEntity
  8
0
  6
CONTINUOUS
100
AcDbLine
 10
21.55843658317447
 20
4.513167754841414
 30
0.0
 11
24.3322999106347
 21
7.287031082301639
 31
0.0
  0
LINE
  5
B511
330
B50C
100
AcDbEntity
  8
0
  6
CONTINUOUS
100
AcDbLine
 10
21.01303906558632
 20
3.294251028173077
 30
0.0
 11
24.54048166245544
 21
6.821693625042199
 31
0.0
  0
LINE
  5
B512
330
B50C
100
AcDbEntity
  8
0
  6
CONTINUOUS
100
AcDbLine
 10
20.46764154799817
 20
2.075334301504738
 30
0.0
 11
23.28571549467848
 21
4.89340824818505
 31
0.0
  0
LINE
  5
B513
330
B50C
100
AcDbEntity
  8
0
  6
CONTINUOUS
100
AcDbLine
 10
19.92224403041002
 20
0.8564175748364002
 30
0.0
 11
22.74075865492779
 21
3.674932199354171
 31
0.0
  0
LINE
  5
B514
330
B50C
100
AcDbEntity
  8
0
  6
CONTINUOUS
100
AcDbLine
 10
23.67305085490148
 20
5.280743608408048
 30
0.0
 11
24.74866341427619
 21
6.356356167782759
 31
0.0
  0
LINE
  5
B515
330
B50C
100
AcDbEntity
  8
0
  6
CONTINUOUS
100
AcDbLine
 10
23.88118970842314
 20
4.815363252849522
 30
0.0
 11
24.95684516609694
 21
5.89101871052332
 31
0.0
  0
LINE
  5
B516
330
B50C
100
AcDbEntity
  8
0
  6
CONTINUOUS
100
AcDbLine
 10
19.73925852647308
 20
-0.0000871381807288
 30
0.0
 11
23.4103456646501
 21
3.670999999996297
 31
0.0
  0
LINE
  5
B517
330
B50C
100
AcDbEntity
  8
0
  6
CONTINUOUS
100
AcDbLine
 10
24.0893285619448
 20
4.349982897290997
 30
0.0
 11
25.16502691791769
 21
5.42568125326388
 31
0.0
  0
LINE
  5
B518
330
B50C
100
AcDbEntity
  8
0
  6
CONTINUOUS
100
AcDbLine
 10
20.41282099582748
 20
-0.0000438779065108
 30
0.0
 11
21.64944178675636
 21
1.236576913022366
 31
0.0
  0
LINE
  5
B519
330
B50C
100
AcDbEntity
  8
0
  6
CONTINUOUS
100
AcDbLine
 10
22.78126487373161
 20
2.36839999999762
 30
0.0
 11
24.08386487373029
 21
3.670999999996297
 31
0.0
  0
LINE
  5
B51A
330
B50C
100
AcDbEntity
  8
0
  6
CONTINUOUS
100
AcDbLine
 10
24.29746741546646
 20
3.884602541732471
 30
0.0
 11
25.37320866973843
 21
4.960343796004441
 31
0.0
  0
LINE
  5
B51B
330
B50C
100
AcDbEntity
  8
0
  6
CONTINUOUS
100
AcDbLine
 10
21.08638346518189
 20
-0.0000006176322938
 30
0.0
 11
21.10379033335899
 21
0.0174062505448083
 31
0.0
  0
LINE
  5
B51C
330
B50C
100
AcDbEntity
  8
0
  6
CONTINUOUS
100
AcDbLine
 10
23.4547840828118
 20
2.36839999999762
 30
0.0
 11
25.58139042155918
 21
4.495006338745002
 31
0.0
  0
LINE
  5
B51D
330
B50C
100
AcDbEntity
  8
0
  6
CONTINUOUS
100
AcDbLine
 10
29.30199999996933
 20
8.215615917155148
 30
0.0
 11
29.84948408280543
 21
8.763099999991255
 31
0.0
  0
LINE
  5
B51E
330
B50C
100
AcDbEntity
  8
0
  6
CONTINUOUS
100
AcDbLine
 10
24.12830329189199
 20
2.36839999999762
 30
0.0
 11
25.78957217337993
 21
4.029668881485562
 31
0.0
  0
LINE
  5
B51F
330
B50C
100
AcDbEntity
  8
0
  6
CONTINUOUS
100
AcDbLine
 10
29.30199999996933
 20
7.54209670807496
 30
0.0
 11
30.52300329188562
 21
8.763099999991255
 31
0.0
  0
LINE
  5
B520
330
B50C
100
AcDbEntity
  8
0
  6
CONTINUOUS
100
AcDbLine
 10
24.80182250097217
 20
2.36839999999762
 30
0.0
 11
25.99775392520067
 21
3.564331424226122
 31
0.0
  0
LINE
  5
B521
330
B50C
100
AcDbEntity
  8
0
  6
CONTINUOUS
100
AcDbLine
 10
29.30199999996933
 20
6.868577498994774
 30
0.0
 11
30.74199999996926
 21
8.308577498994712
 31
0.0
  0
LINE
  5
B522
330
B50C
100
AcDbEntity
  8
0
  6
CONTINUOUS
100
AcDbLine
 10
25.13028238392013
 20
2.023340673865392
 30
0.0
 11
26.20593567702142
 21
3.098993966966683
 31
0.0
  0
LINE
  5
B523
330
B50C
100
AcDbEntity
  8
0
  6
CONTINUOUS
100
AcDbLine
 10
25.33838066033617
 20
1.557919741201244
 30
0.0
 11
26.41411742884217
 21
2.633656509707244
 31
0.0
  0
LINE
  5
B524
330
B50C
100
AcDbEntity
  8
0
  6
CONTINUOUS
100
AcDbLine
 10
25.54647893675221
 20
1.092498808537098
 30
0.0
 11
26.62229918066291
 21
2.168319052447804
 31
0.0
  0
LINE
  5
B525
330
B50C
100
AcDbEntity
  8
0
  6
CONTINUOUS
100
AcDbLine
 10
25.75457721316825
 20
0.62707787587295
 30
0.0
 11
26.83048093248366
 21
1.702981595188365
 31
0.0
  0
LINE
  5
B526
330
B50C
100
AcDbEntity
  8
0
  6
CONTINUOUS
100
AcDbLine
 10
29.30199999996933
 20
6.195058289914587
 30
0.0
 11
30.74199999996926
 21
7.635058289914522
 31
0.0
  0
LINE
  5
B527
330
B50C
100
AcDbEntity
  8
0
  6
CONTINUOUS
100
AcDbLine
 10
29.30199999996933
 20
5.521539080834401
 30
0.0
 11
30.74199999996926
 21
6.961539080834331
 31
0.0
  0
LINE
  5
B528
330
B50C
100
AcDbEntity
  8
0
  6
CONTINUOUS
100
AcDbLine
 10
29.30199999996933
 20
4.848019871754214
 30
0.0
 11
30.74199999996925
 21
6.288019871754143
 31
0.0
  0
LINE
  5
B529
330
B50C
100
AcDbEntity
  8
0
  6
CONTINUOUS
100
AcDbLine
 10
29.30199999996933
 20
4.174500662674028
 30
0.0
 11
30.74199999996925
 21
5.614500662673953
 31
0.0
  0
LINE
  5
B52A
330
B50C
100
AcDbEntity
  8
0
  6
CONTINUOUS
100
AcDbLine
 10
25.96267548958429
 20
0.1616569432088024
 30
0.0
 11
27.18411854636669
 21
1.383099999991207
 31
0.0
  0
LINE
  5
B52B
330
B50C
100
AcDbEntity
  8
0
  6
CONTINUOUS
100
AcDbLine
 10
29.30199999996933
 20
3.500981453593841
 30
0.0
 11
30.74199999996925
 21
4.940981453593762
 31
0.0
  0
LINE
  5
B52C
330
B50C
100
AcDbEntity
  8
0
  6
CONTINUOUS
100
AcDbLine
 10
26.50763775544691
 20
0.0330999999912356
 30
0.0
 11
27.85763775544689
 21
1.383099999991223
 31
0.0
  0
LINE
  5
B52D
330
B50C
100
AcDbEntity
  8
0
  6
CONTINUOUS
100
AcDbLine
 10
29.30199999996933
 20
2.827462244513656
 30
0.0
 11
30.74199999996925
 21
4.267462244513574
 31
0.0
  0
LINE
  5
B52E
330
B50C
100
AcDbEntity
  8
0
  6
CONTINUOUS
100
AcDbLine
 10
27.18115696452709
 20
0.0330999999912356
 30
0.0
 11
28.55073879889363
 21
1.402681834357775
 31
0.0
  0
LINE
  5
B52F
330
B50C
100
AcDbEntity
  8
0
  6
CONTINUOUS
100
AcDbLine
 10
29.28241816560272
 20
2.134361201066866
 30
0.0
 11
30.74199999996924
 21
3.593943035433383
 31
0.0
  0
LINE
  5
B530
330
B50C
100
AcDbEntity
  8
0
  6
CONTINUOUS
100
AcDbLine
 10
27.85467617360728
 20
0.0330999999912356
 30
0.0
 11
30.74199999996924
 21
2.920423826353195
 31
0.0
  0
LINE
  5
B531
330
B50C
100
AcDbEntity
  8
0
  6
CONTINUOUS
100
AcDbLine
 10
28.53897559587887
 20
0.0438802131826428
 30
0.0
 11
30.73121978677781
 21
2.236124404081585
 31
0.0
  0
LINE
  5
B532
330
B50C
100
AcDbEntity
  8
0
  6
CONTINUOUS
100
AcDbLine
 10
29.45140055588722
 20
0.2827859641107988
 30
0.0
 11
30.49231403584965
 21
1.323699444073236
 31
0.0
  0
LINE
  5
B533
330
B50C
100
AcDbEntity
  8
0
  6
CONTINUOUS
100
AcDbLine
 10
19.59027867740337
 20
-0.0000967065718083
 30
0.0
 11
19.55485265190471
 21
0.035329318926844
 31
0.0
  0
LINE
  5
B534
330
B50C
100
AcDbEntity
  8
0
  6
CONTINUOUS
100
AcDbLine
 10
20.26375463176586
 20
-0.0000534518541091
 30
0.0
 11
19.76305575737534
 21
0.5006454225364014
 31
0.0
  0
LINE
  5
B535
330
B50C
100
AcDbEntity
  8
0
  6
CONTINUOUS
100
AcDbLine
 10
20.93723058612834
 20
-0.0000101971364099
 30
0.0
 11
19.97125886284597
 21
0.965961526145958
 31
0.0
  0
LINE
  5
B536
330
B50C
100
AcDbEntity
  8
0
  6
CONTINUOUS
100
AcDbLine
 10
21.25514828313686
 20
0.355591314935257
 30
0.0
 11
20.1794619683166
 21
1.431277629755512
 31
0.0
  0
LINE
  5
B537
330
B50C
100
AcDbEntity
  8
0
  6
CONTINUOUS
100
AcDbLine
 10
21.46338838394921
 20
0.8208704232030986
 30
0.0
 11
20.38766507378723
 21
1.896593733365069
 31
0.0
  0
LINE
  5
B538
330
B50C
100
AcDbEntity
  8
0
  6
CONTINUOUS
100
AcDbLine
 10
21.67162848476155
 20
1.28614953147094
 30
0.0
 11
20.59586817925786
 21
2.361909836974626
 31
0.0
  0
LINE
  5
B539
330
B50C
100
AcDbEntity
  8
0
  6
CONTINUOUS
100
AcDbLine
 10
21.8798685855739
 20
1.751428639738782
 30
0.0
 11
20.80407128472849
 21
2.827225940584183
 31
0.0
  0
LINE
  5
B53A
330
B50C
100
AcDbEntity
  8
0
  6
CONTINUOUS
100
AcDbLine
 10
22.08810868638624
 20
2.216707748006623
 30
0.0
 11
21.01227439019912
 21
3.292542044193739
 31
0.0
  0
LINE
  5
B53B
330
B50C
100
AcDbEntity
  8
0
  6
CONTINUOUS
100
AcDbLine
 10
22.60993564347543
 20
2.36839999999762
 30
0.0
 11
21.22047749566975
 21
3.757858147803296
 31
0.0
  0
LINE
  5
B53C
330
B50C
100
AcDbEntity
  8
0
  6
CONTINUOUS
100
AcDbLine
 10
23.28345485255561
 20
2.36839999999762
 30
0.0
 11
21.42868060114038
 21
4.223174251412853
 31
0.0
  0
LINE
  5
B53D
330
B50C
100
AcDbEntity
  8
0
  6
CONTINUOUS
100
AcDbLine
 10
26.29227406164219
 20
0.0330999999912356
 30
0.0
 11
25.80009199592872
 21
0.5252820657046957
 31
0.0
  0
LINE
  5
B53E
330
B50C
100
AcDbEntity
  8
0
  6
CONTINUOUS
100
AcDbLine
 10
23.9569740616358
 20
2.36839999999762
 30
0.0
 11
21.63688370661101
 21
4.688490355022409
 31
0.0
  0
LINE
  5
B53F
330
B50C
100
AcDbEntity
  8
0
  6
CONTINUOUS
100
AcDbLine
 10
26.96579327072237
 20
0.0330999999912356
 30
0.0
 11
25.2554132311971
 21
1.743480039516508
 31
0.0
  0
LINE
  5
B540
330
B50C
100
AcDbEntity
  8
0
  6
CONTINUOUS
100
AcDbLine
 10
24.63049327071599
 20
2.36839999999762
 30
0.0
 11
23.32789327071731
 21
3.670999999996297
 31
0.0
  0
LINE
  5
B541
330
B50C
100
AcDbEntity
  8
0
  6
CONTINUOUS
100
AcDbLine
 10
22.92098674744635
 20
4.077906523267254
 30
0.0
 11
21.84508681208164
 21
5.153806458631966
 31
0.0
  0
LINE
  5
B542
330
B50C
100
AcDbEntity
  8
0
  6
CONTINUOUS
100
AcDbLine
 10
27.63931247980256
 20
0.0330999999912356
 30
0.0
 11
24.0014124797975
 21
3.670999999996297
 31
0.0
  0
LINE
  5
B543
330
B50C
100
AcDbEntity
  8
0
  6
CONTINUOUS
100
AcDbLine
 10
23.129125600968
 20
4.5432868788258
 30
0.0
 11
22.05328991755227
 21
5.619122562241522
 31
0.0
  0
LINE
  5
B544
330
B50C
100
AcDbEntity
  8
0
  6
CONTINUOUS
100
AcDbLine
 10
28.31283168888275
 20
0.0330999999912356
 30
0.0
 11
24.16488385994816
 21
4.181047828925828
 31
0.0
  0
LINE
  5
B545
330
B50C
100
AcDbEntity
  8
0
  6
CONTINUOUS
100
AcDbLine
 10
23.33726445448964
 20
5.008667234384345
 30
0.0
 11
22.2614930230229
 21
6.084438665851079
 31
0.0
  0
LINE
  5
B546
330
B50C
100
AcDbEntity
  8
0
  6
CONTINUOUS
100
AcDbLine
 10
28.92085740005492
 20
0.0985934978992438
 30
0.0
 11
27.63635089796295
 21
1.383099999991217
 31
0.0
  0
LINE
  5
B547
330
B50C
100
AcDbEntity
  8
0
  6
CONTINUOUS
100
AcDbLine
 10
26.43704649509776
 20
2.582404402856405
 30
0.0
 11
23.61992702019732
 21
5.399523877756844
 31
0.0
  0
LINE
  5
B548
330
B50C
100
AcDbEntity
  8
0
  6
CONTINUOUS
100
AcDbLine
 10
23.54540330801128
 20
5.47404758994289
 30
0.0
 11
22.46969612849353
 21
6.549754769460635
 31
0.0
  0
LINE
  5
B549
330
B50C
100
AcDbEntity
  8
0
  6
CONTINUOUS
100
AcDbLine
 10
29.42225615078443
 20
0.2707139562499279
 30
0.0
 11
28.30987010704312
 21
1.383099999991234
 31
0.0
  0
LINE
  5
B54A
330
B50C
100
AcDbEntity
  8
0
  6
CONTINUOUS
100
AcDbLine
 10
25.89179548232307
 20
3.801174624711282
 30
0.0
 11
22.67789923396416
 21
7.015070873070191
 31
0.0
  0
LINE
  5
B54B
330
B50C
100
AcDbEntity
  8
0
  6
CONTINUOUS
100
AcDbLine
 10
29.83624534690007
 20
0.5302439692144705
 30
0.0
 11
28.85811781497101
 21
1.508371501143527
 31
0.0
  0
LINE
  5
B54C
330
B50C
100
AcDbEntity
  8
0
  6
CONTINUOUS
100
AcDbLine
 10
25.34654446954838
 20
5.01994484656616
 30
0.0
 11
22.88610233943479
 21
7.480386976679748
 31
0.0
  0
LINE
  5
B54D
330
B50C
100
AcDbEntity
  8
0
  6
CONTINUOUS
100
AcDbLine
 10
30.17865975401872
 20
0.8613487711760022
 30
0.0
 11
29.18888744090175
 21
1.851121084292977
 31
0.0
  0
LINE
  5
B54E
330
B50C
100
AcDbEntity
  8
0
  6
CONTINUOUS
100
AcDbLine
 10
24.80129345677369
 20
6.238715068421037
 30
0.0
 11
23.09430544490542
 21
7.945703080289305
 31
0.0
  0
LINE
  5
B54F
330
B50C
100
AcDbEntity
  8
0
  6
CONTINUOUS
100
AcDbLine
 10
30.45496647202376
 20
1.258561262251155
 30
0.0
 11
29.30199999996933
 21
2.411527734305588
 31
0.0
  0
LINE
  5
B550
330
B50C
100
AcDbEntity
  8
0
  6
CONTINUOUS
100
AcDbLine
 10
24.256042443999
 20
7.457485290275915
 30
0.0
 11
23.30250855037605
 21
8.411019183898862
 31
0.0
  0
LINE
  5
B551
330
B50C
100
AcDbEntity
  8
0
  6
CONTINUOUS
100
AcDbLine
 10
30.64868582078271
 20
1.738361122572387
 30
0.0
 11
29.30199999996933
 21
3.085046943385775
 31
0.0
  0
LINE
  5
B552
330
B50C
100
AcDbEntity
  8
0
  6
CONTINUOUS
100
AcDbLine
 10
23.71079143122431
 20
8.676255512130794
 30
0.0
 11
23.51071165584668
 21
8.876335287508416
 31
0.0
  0
LINE
  5
B553
330
B50C
100
AcDbEntity
  8
0
  6
CONTINUOUS
100
AcDbLine
 10
30.73802122914428
 20
2.322544923291007
 30
0.0
 11
29.30199999996933
 21
3.758566152465961
 31
0.0
  0
LINE
  5
B554
330
B50C
100
AcDbEntity
  8
0
  6
CONTINUOUS
100
AcDbLine
 10
30.74199999996924
 20
2.992085361546236
 30
0.0
 11
29.30199999996933
 21
4.432085361546148
 31
0.0
  0
LINE
  5
B555
330
B50C
100
AcDbEntity
  8
0
  6
CONTINUOUS
100
AcDbLine
 10
30.74199999996924
 20
3.665604570626419
 30
0.0
 11
29.30199999996933
 21
5.105604570626333
 31
0.0
  0
LINE
  5
B556
330
B50C
100
AcDbEntity
  8
0
  6
CONTINUOUS
100
AcDbLine
 10
30.74199999996925
 20
4.339123779706602
 30
0.0
 11
29.30199999996933
 21
5.77912377970652
 31
0.0
  0
LINE
  5
B557
330
B50C
100
AcDbEntity
  8
0
  6
CONTINUOUS
100
AcDbLine
 10
30.74199999996925
 20
5.012642988786785
 30
0.0
 11
29.30199999996933
 21
6.452642988786707
 31
0.0
  0
LINE
  5
B558
330
B50C
100
AcDbEntity
  8
0
  6
CONTINUOUS
100
AcDbLine
 10
30.74199999996925
 20
5.68616219786697
 30
0.0
 11
29.30199999996933
 21
7.126162197866894
 31
0.0
  0
LINE
  5
B559
330
B50C
100
AcDbEntity
  8
0
  6
CONTINUOUS
100
AcDbLine
 10
30.74199999996925
 20
6.359681406947153
 30
0.0
 11
29.30199999996933
 21
7.799681406947081
 31
0.0
  0
LINE
  5
B55A
330
B50C
100
AcDbEntity
  8
0
  6
CONTINUOUS
100
AcDbLine
 10
30.74199999996926
 20
7.033200616027337
 30
0.0
 11
29.30199999996933
 21
8.473200616027269
 31
0.0
  0
LINE
  5
B55B
330
B50C
100
AcDbEntity
  8
0
  6
CONTINUOUS
100
AcDbLine
 10
30.74199999996926
 20
7.706719825107518
 30
0.0
 11
29.68561982508552
 21
8.763099999991255
 31
0.0
  0
LINE
  5
B55C
330
B50C
100
AcDbEntity
  8
0
  6
CONTINUOUS
100
AcDbLine
 10
30.74199999996926
 20
8.380239034187703
 30
0.0
 11
30.35913903416571
 21
8.763099999991255
 31
0.0
  0
ENDBLK
  5
B5FF
330
B50C
100
AcDbEntity
  8
0
100
AcDbBlockEnd
  0
BLOCK
  5
B600
330
B55D
100
AcDbEntity
  8
0
100
AcDbBlockBegin
  2
*X75
 70
     1
 10
0.0
 20
0.0
 30
0.0
  3
*X75
  1

  0
LINE
  5
B55E
330
B55D
100
AcDbEntity
  8
0
  6
CONTINUOUS
100
AcDbLine
 10
31.64199999996833
 20
8.535058289913598
 30
0.0
 11
31.87004171004599
 21
8.763099999991255
 31
0.0
  0
LINE
  5
B55F
330
B55D
100
AcDbEntity
  8
0
  6
CONTINUOUS
100
AcDbLine
 10
31.64199999996833
 20
7.861539080833412
 30
0.0
 11
32.54356091912618
 21
8.763099999991255
 31
0.0
  0
LINE
  5
B560
330
B55D
100
AcDbEntity
  8
0
  6
CONTINUOUS
100
AcDbLine
 10
31.64199999996833
 20
7.188019871753226
 30
0.0
 11
33.08199999996839
 21
8.628019871753281
 31
0.0
  0
LINE
  5
B561
330
B55D
100
AcDbEntity
  8
0
  6
CONTINUOUS
100
AcDbLine
 10
31.64199999996833
 20
6.51450066267304
 30
0.0
 11
33.08199999996839
 21
7.954500662673095
 31
0.0
  0
LINE
  5
B562
330
B55D
100
AcDbEntity
  8
0
  6
CONTINUOUS
100
AcDbLine
 10
31.64199999996833
 20
5.840981453592853
 30
0.0
 11
33.08199999996839
 21
7.280981453592908
 31
0.0
  0
LINE
  5
B563
330
B55D
100
AcDbEntity
  8
0
  6
CONTINUOUS
100
AcDbLine
 10
31.64199999996833
 20
5.167462244512667
 30
0.0
 11
33.08199999996839
 21
6.607462244512721
 31
0.0
  0
LINE
  5
B564
330
B55D
100
AcDbEntity
  8
0
  6
CONTINUOUS
100
AcDbLine
 10
31.64199999996833
 20
4.493943035432481
 30
0.0
 11
33.08199999996839
 21
5.933943035432535
 31
0.0
  0
LINE
  5
B565
330
B55D
100
AcDbEntity
  8
0
  6
CONTINUOUS
100
AcDbLine
 10
31.64199999996833
 20
3.820423826352293
 30
0.0
 11
33.08199999996839
 21
5.260423826352348
 31
0.0
  0
LINE
  5
B566
330
B55D
100
AcDbEntity
  8
0
  6
CONTINUOUS
100
AcDbLine
 10
31.64199999996833
 20
3.146904617272106
 30
0.0
 11
33.08199999996839
 21
4.586904617272161
 31
0.0
  0
LINE
  5
B567
330
B55D
100
AcDbEntity
  8
0
  6
CONTINUOUS
100
AcDbLine
 10
36.23199999996837
 20
8.410423826352325
 30
0.0
 11
36.5846761736073
 21
8.763099999991255
 31
0.0
  0
LINE
  5
B568
330
B55D
100
AcDbEntity
  8
0
  6
CONTINUOUS
100
AcDbLine
 10
36.23199999996837
 20
7.73690461727214
 30
0.0
 11
37.25819538268748
 21
8.763099999991255
 31
0.0
  0
LINE
  5
B569
330
B55D
100
AcDbEntity
  8
0
  6
CONTINUOUS
100
AcDbLine
 10
31.64257403601376
 20
2.473959444237348
 30
0.0
 11
33.08199999996839
 21
3.913385408191974
 31
0.0
  0
LINE
  5
B56A
330
B55D
100
AcDbEntity
  8
0
  6
CONTINUOUS
100
AcDbLine
 10
36.23199999996837
 20
7.063385408191953
 30
0.0
 11
37.67199999996831
 21
8.503385408191894
 31
0.0
  0
LINE
  5
B56B
330
B55D
100
AcDbEntity
  8
0
  6
CONTINUOUS
100
AcDbLine
 10
31.72013636841932
 20
1.87800256756272
 30
0.0
 11
33.08199999996839
 21
3.239866199111788
 31
0.0
  0
LINE
  5
B56C
330
B55D
100
AcDbEntity
  8
0
  6
CONTINUOUS
100
AcDbLine
 10
36.23199999996837
 20
6.389866199111767
 30
0.0
 11
37.67199999996831
 21
7.829866199111708
 31
0.0
  0
LINE
  5
B56D
330
B55D
100
AcDbEntity
  8
0
  6
CONTINUOUS
100
AcDbLine
 10
31.89042734314753
 20
1.374774333210744
 30
0.0
 11
33.08199999996839
 21
2.566346990031601
 31
0.0
  0
LINE
  5
B56E
330
B55D
100
AcDbEntity
  8
0
  6
CONTINUOUS
100
AcDbLine
 10
36.23199999996837
 20
5.71634699003158
 30
0.0
 11
37.67199999996831
 21
7.156346990031521
 31
0.0
  0
LINE
  5
B56F
330
B55D
100
AcDbEntity
  8
0
  6
CONTINUOUS
100
AcDbLine
 10
32.14210568064475
 20
0.952933461627778
 30
0.0
 11
33.18745552475986
 21
1.998283305742888
 31
0.0
  0
LINE
  5
B570
330
B55D
100
AcDbEntity
  8
0
  6
CONTINUOUS
100
AcDbLine
 10
36.23199999996837
 20
5.042827780951393
 30
0.0
 11
37.67199999996831
 21
6.482827780951334
 31
0.0
  0
LINE
  5
B571
330
B55D
100
AcDbEntity
  8
0
  6
CONTINUOUS
100
AcDbLine
 10
32.45820639400955
 20
0.5955149659123915
 30
0.0
 11
33.47242681921943
 21
1.60973539112227
 31
0.0
  0
LINE
  5
B572
330
B55D
100
AcDbEntity
  8
0
  6
CONTINUOUS
100
AcDbLine
 10
36.23199999996837
 20
4.369308571871207
 30
0.0
 11
37.67199999996831
 21
5.809308571871147
 31
0.0
  0
LINE
  5
B573
330
B55D
100
AcDbEntity
  8
0
  6
CONTINUOUS
100
AcDbLine
 10
32.83432456621412
 20
0.2981139290367771
 30
0.0
 11
33.89722476612215
 21
1.361014128944803
 31
0.0
  0
LINE
  5
B574
330
B55D
100
AcDbEntity
  8
0
  6
CONTINUOUS
100
AcDbLine
 10
36.23199999996837
 20
3.69578936279102
 30
0.0
 11
37.67199999996831
 21
5.135789362790962
 31
0.0
  0
LINE
  5
B575
330
B55D
100
AcDbEntity
  8
0
  6
CONTINUOUS
100
AcDbLine
 10
33.2711633111245
 20
0.0614334648669672
 30
0.0
 11
34.43247338014423
 21
1.222743533886696
 31
0.0
  0
LINE
  5
B576
330
B55D
100
AcDbEntity
  8
0
  6
CONTINUOUS
100
AcDbLine
 10
36.23199999996837
 20
3.022270153710834
 30
0.0
 11
37.67199999996831
 21
4.462270153710775
 31
0.0
  0
LINE
  5
B577
330
B55D
100
AcDbEntity
  8
0
  6
CONTINUOUS
100
AcDbLine
 10
33.76515245874577
 20
-0.1180965965919523
 30
0.0
 11
35.1587445516215
 21
1.27549549628378
 31
0.0
  0
LINE
  5
B578
330
B55D
100
AcDbEntity
  8
0
  6
CONTINUOUS
100
AcDbLine
 10
36.21639478609585
 20
2.333145730758136
 30
0.0
 11
37.67199999996831
 21
3.788750944630588
 31
0.0
  0
LINE
  5
B579
330
B55D
100
AcDbEntity
  8
0
  6
CONTINUOUS
100
AcDbLine
 10
34.34060583368432
 20
-0.2161624307335863
 30
0.0
 11
37.67199999996831
 21
3.115231735550401
 31
0.0
  0
LINE
  5
B57A
330
B55D
100
AcDbEntity
  8
0
  6
CONTINUOUS
100
AcDbLine
 10
35.01698193613905
 20
-0.2133055373590427
 30
0.0
 11
37.66876712070525
 21
2.438479647207154
 31
0.0
  0
LINE
  5
B57B
330
B55D
100
AcDbEntity
  8
0
  6
CONTINUOUS
100
AcDbLine
 10
35.90743367693304
 20
0.0036269943547609
 30
0.0
 11
37.51723902192366
 21
1.613432339345381
 31
0.0
  0
LINE
  5
B57C
330
B55D
100
AcDbEntity
  8
0
  6
CONTINUOUS
100
AcDbLine
 10
32.55309425579761
 20
0.5074718966376706
 30
0.0
 11
32.27784730925847
 21
0.7827188431768102
 31
0.0
  0
LINE
  5
B57D
330
B55D
100
AcDbEntity
  8
0
  6
CONTINUOUS
100
AcDbLine
 10
33.87496468909684
 20
-0.1408793275813673
 30
0.0
 11
31.67993083278052
 21
2.054154528734943
 31
0.0
  0
LINE
  5
B57E
330
B55D
100
AcDbEntity
  8
0
  6
CONTINUOUS
100
AcDbLine
 10
34.64362813207632
 20
-0.2360235614806649
 30
0.0
 11
31.64199999996833
 21
2.765604570627322
 31
0.0
  0
LINE
  5
B57F
330
B55D
100
AcDbEntity
  8
0
  6
CONTINUOUS
100
AcDbLine
 10
35.25801106796118
 20
-0.1768872882853429
 30
0.0
 11
31.64199999996833
 21
3.439123779707508
 31
0.0
  0
LINE
  5
B580
330
B55D
100
AcDbEntity
  8
0
  6
CONTINUOUS
100
AcDbLine
 10
35.79065650332146
 20
-0.0360135145654361
 30
0.0
 11
34.54143210838231
 21
1.213210880373721
 31
0.0
  0
LINE
  5
B581
330
B55D
100
AcDbEntity
  8
0
  6
CONTINUOUS
100
AcDbLine
 10
33.08199999996839
 20
2.67264298878764
 30
0.0
 11
31.64199999996833
 21
4.112642988787695
 31
0.0
  0
LINE
  5
B582
330
B55D
100
AcDbEntity
  8
0
  6
CONTINUOUS
100
AcDbLine
 10
36.25975597779143
 20
0.1684062200447833
 30
0.0
 11
35.15395110240023
 21
1.274211095435983
 31
0.0
  0
LINE
  5
B583
330
B55D
100
AcDbEntity
  8
0
  6
CONTINUOUS
100
AcDbLine
 10
33.08199999996839
 20
3.346162197867826
 30
0.0
 11
31.64199999996833
 21
4.786162197867881
 31
0.0
  0
LINE
  5
B584
330
B55D
100
AcDbEntity
  8
0
  6
CONTINUOUS
100
AcDbLine
 10
36.67226329638774
 20
0.4294181105286579
 30
0.0
 11
35.63766478748767
 21
1.464016619428737
 31
0.0
  0
LINE
  5
B585
330
B55D
100
AcDbEntity
  8
0
  6
CONTINUOUS
100
AcDbLine
 10
33.08199999996839
 20
4.019681406948012
 30
0.0
 11
31.64199999996833
 21
5.459681406948068
 31
0.0
  0
LINE
  5
B586
330
B55D
100
AcDbEntity
  8
0
  6
CONTINUOUS
100
AcDbLine
 10
37.01677749710036
 20
0.7584231188962329
 30
0.0
 11
35.99563422741351
 21
1.779566388583076
 31
0.0
  0
LINE
  5
B587
330
B55D
100
AcDbEntity
  8
0
  6
CONTINUOUS
100
AcDbLine
 10
33.08199999996839
 20
4.693200616028199
 30
0.0
 11
31.64199999996833
 21
6.133200616028255
 31
0.0
  0
LINE
  5
B588
330
B55D
100
AcDbEntity
  8
0
  6
CONTINUOUS
100
AcDbLine
 10
37.29859977568887
 20
1.1501200493879
 30
0.0
 11
36.20680593341555
 21
2.241913891661226
 31
0.0
  0
LINE
  5
B589
330
B55D
100
AcDbEntity
  8
0
  6
CONTINUOUS
100
AcDbLine
 10
33.08199999996839
 20
5.366719825108386
 30
0.0
 11
31.64199999996833
 21
6.80671982510844
 31
0.0
  0
LINE
  5
B58A
330
B55D
100
AcDbEntity
  8
0
  6
CONTINUOUS
100
AcDbLine
 10
37.5148623517228
 20
1.607376682434161
 30
0.0
 11
36.23199999996837
 21
2.890239034188594
 31
0.0
  0
LINE
  5
B58B
330
B55D
100
AcDbEntity
  8
0
  6
CONTINUOUS
100
AcDbLine
 10
33.08199999996839
 20
6.040239034188573
 30
0.0
 11
31.64199999996833
 21
7.480239034188627
 31
0.0
  0
LINE
  5
B58C
330
B55D
100
AcDbEntity
  8
0
  6
CONTINUOUS
100
AcDbLine
 10
37.64705163358367
 20
2.148706609653477
 30
0.0
 11
36.23199999996837
 21
3.56375824326878
 31
0.0
  0
LINE
  5
B58D
330
B55D
100
AcDbEntity
  8
0
  6
CONTINUOUS
100
AcDbLine
 10
33.08199999996839
 20
6.713758243268758
 30
0.0
 11
31.64199999996833
 21
8.153758243268815
 31
0.0
  0
LINE
  5
B58E
330
B55D
100
AcDbEntity
  8
0
  6
CONTINUOUS
100
AcDbLine
 10
37.67199999996831
 20
2.797277452349026
 30
0.0
 11
36.23199999996837
 21
4.237277452348967
 31
0.0
  0
LINE
  5
B58F
330
B55D
100
AcDbEntity
  8
0
  6
CONTINUOUS
100
AcDbLine
 10
37.67199999996831
 20
3.470796661429213
 30
0.0
 11
36.23199999996837
 21
4.910796661429154
 31
0.0
  0
LINE
  5
B590
330
B55D
100
AcDbEntity
  8
0
  6
CONTINUOUS
100
AcDbLine
 10
37.67199999996831
 20
4.144315870509399
 30
0.0
 11
36.23199999996837
 21
5.58431587050934
 31
0.0
  0
LINE
  5
B591
330
B55D
100
AcDbEntity
  8
0
  6
CONTINUOUS
100
AcDbLine
 10
33.08199999996839
 20
7.387277452348945
 30
0.0
 11
31.70617745232608
 21
8.763099999991255
 31
0.0
  0
LINE
  5
B592
330
B55D
100
AcDbEntity
  8
0
  6
CONTINUOUS
100
AcDbLine
 10
33.08199999996839
 20
8.060796661429132
 30
0.0
 11
32.37969666140626
 21
8.763099999991255
 31
0.0
  0
LINE
  5
B593
330
B55D
100
AcDbEntity
  8
0
  6
CONTINUOUS
100
AcDbLine
 10
33.08199999996839
 20
8.734315870509318
 30
0.0
 11
33.05321587048645
 21
8.763099999991255
 31
0.0
  0
LINE
  5
B594
330
B55D
100
AcDbEntity
  8
0
  6
CONTINUOUS
100
AcDbLine
 10
37.67199999996831
 20
4.817835079589585
 30
0.0
 11
36.23199999996837
 21
6.257835079589526
 31
0.0
  0
LINE
  5
B595
330
B55D
100
AcDbEntity
  8
0
  6
CONTINUOUS
100
AcDbLine
 10
37.67199999996831
 20
5.491354288669771
 30
0.0
 11
36.23199999996837
 21
6.931354288669713
 31
0.0
  0
LINE
  5
B596
330
B55D
100
AcDbEntity
  8
0
  6
CONTINUOUS
100
AcDbLine
 10
37.67199999996831
 20
6.164873497749958
 30
0.0
 11
36.23199999996837
 21
7.6048734977499
 31
0.0
  0
LINE
  5
B597
330
B55D
100
AcDbEntity
  8
0
  6
CONTINUOUS
100
AcDbLine
 10
37.67199999996831
 20
6.838392706830144
 30
0.0
 11
36.23199999996837
 21
8.278392706830086
 31
0.0
  0
LINE
  5
B598
330
B55D
100
AcDbEntity
  8
0
  6
CONTINUOUS
100
AcDbLine
 10
37.67199999996831
 20
7.511911915910332
 30
0.0
 11
36.42081191588738
 21
8.763099999991255
 31
0.0
  0
LINE
  5
B599
330
B55D
100
AcDbEntity
  8
0
  6
CONTINUOUS
100
AcDbLine
 10
37.67199999996831
 20
8.185431124990519
 30
0.0
 11
37.09433112496757
 21
8.763099999991255
 31
0.0
  0
ENDBLK
  5
B601
330
B55D
100
AcDbEntity
  8
0
100
AcDbBlockEnd
  0
BLOCK
  5
B602
330
B59A
100
AcDbEntity
  8
0
100
AcDbBlockBegin
  2
*X76
 70
     1
 10
0.0
 20
0.0
 30
0.0
  3
*X76
  1

  0
LINE
  5
B59B
330
B59A
100
AcDbEntity
  8
0
  6
CONTINUOUS
100
AcDbLine
 10
38.60499999996136
 20
8.762866199104765
 30
0.0
 11
38.71672554182345
 21
8.874591740966855
 31
0.0
  0
LINE
  5
B59C
330
B59A
100
AcDbEntity
  8
0
  6
CONTINUOUS
100
AcDbLine
 10
38.60499999996136
 20
8.089346990024577
 30
0.0
 11
39.03418785440363
 21
8.518534844466847
 31
0.0
  0
LINE
  5
B59D
330
B59A
100
AcDbEntity
  8
0
  6
CONTINUOUS
100
AcDbLine
 10
38.60499999996136
 20
7.41582778094439
 30
0.0
 11
39.35165016698382
 21
8.16247794796684
 31
0.0
  0
LINE
  5
B59E
330
B59A
100
AcDbEntity
  8
0
  6
CONTINUOUS
100
AcDbLine
 10
38.60499999996136
 20
6.742308571864204
 30
0.0
 11
39.66911247956399
 21
7.806421051466834
 31
0.0
  0
LINE
  5
B59F
330
B59A
100
AcDbEntity
  8
0
  6
CONTINUOUS
100
AcDbLine
 10
38.60499999996136
 20
6.068789362784018
 30
0.0
 11
39.98657479214418
 21
7.450364154966827
 31
0.0
  0
LINE
  5
B5A0
330
B59A
100
AcDbEntity
  8
0
  6
CONTINUOUS
100
AcDbLine
 10
38.60499999996136
 20
5.395270153703832
 30
0.0
 11
40.30403710472435
 21
7.09430725846682
 31
0.0
  0
LINE
  5
B5A1
330
B59A
100
AcDbEntity
  8
0
  6
CONTINUOUS
100
AcDbLine
 10
38.60499999996136
 20
4.721750944623645
 30
0.0
 11
40.62149941730453
 21
6.738250361966813
 31
0.0
  0
LINE
  5
B5A2
330
B59A
100
AcDbEntity
  8
0
  6
CONTINUOUS
100
AcDbLine
 10
38.60499999996136
 20
4.048231735543458
 30
0.0
 11
40.93896172988471
 21
6.382193465466806
 31
0.0
  0
LINE
  5
B5A3
330
B59A
100
AcDbEntity
  8
0
  6
CONTINUOUS
100
AcDbLine
 10
38.60499999996136
 20
3.374712526463272
 30
0.0
 11
40.02599999995994
 21
4.795712526461843
 31
0.0
  0
LINE
  5
B5A4
330
B59A
100
AcDbEntity
  8
0
  6
CONTINUOUS
100
AcDbLine
 10
38.60499999996136
 20
2.701193317383085
 30
0.0
 11
40.02599999995994
 21
4.122193317381657
 31
0.0
  0
LINE
  5
B5A5
330
B59A
100
AcDbEntity
  8
0
  6
CONTINUOUS
100
AcDbLine
 10
40.28339754687704
 20
5.053110073378947
 30
0.0
 11
41.25642404246489
 21
6.026136568966799
 31
0.0
  0
LINE
  5
B5A6
330
B59A
100
AcDbEntity
  8
0
  6
CONTINUOUS
100
AcDbLine
 10
40.60085985945722
 20
4.697053176878939
 30
0.0
 11
41.57388635504507
 21
5.670079672466793
 31
0.0
  0
LINE
  5
B5A7
330
B59A
100
AcDbEntity
  8
0
  6
CONTINUOUS
100
AcDbLine
 10
43.57899999995641
 20
8.348712526458318
 30
0.0
 11
43.99338747348935
 21
8.763099999991255
 31
0.0
  0
LINE
  5
B5A8
330
B59A
100
AcDbEntity
  8
0
  6
CONTINUOUS
100
AcDbLine
 10
43.57899999995641
 20
7.675193317378131
 30
0.0
 11
44.66690668256953
 21
8.763099999991255
 31
0.0
  0
LINE
  5
B5A9
330
B59A
100
AcDbEntity
  8
0
  6
CONTINUOUS
100
AcDbLine
 10
38.60499999996136
 20
2.027674108302898
 30
0.0
 11
40.02599999995994
 21
3.44867410830147
 31
0.0
  0
LINE
  5
B5AA
330
B59A
100
AcDbEntity
  8
0
  6
CONTINUOUS
100
AcDbLine
 10
38.60499999996136
 20
1.354154899222712
 30
0.0
 11
40.02599999995994
 21
2.775154899221284
 31
0.0
  0
LINE
  5
B5AB
330
B59A
100
AcDbEntity
  8
0
  6
CONTINUOUS
100
AcDbLine
 10
38.60499999996136
 20
0.6806356901425255
 30
0.0
 11
40.02599999995994
 21
2.101635690141098
 31
0.0
  0
LINE
  5
B5AC
330
B59A
100
AcDbEntity
  8
0
  6
CONTINUOUS
100
AcDbLine
 10
38.60499999996136
 20
0.0071164810623383
 30
0.0
 11
40.02599999995994
 21
1.428116481060911
 31
0.0
  0
LINE
  5
B5AD
330
B59A
100
AcDbEntity
  8
0
  6
CONTINUOUS
100
AcDbLine
 10
40.9183221720374
 20
4.340996280378933
 30
0.0
 11
41.89134866762525
 21
5.314022775966786
 31
0.0
  0
LINE
  5
B5AE
330
B59A
100
AcDbEntity
  8
0
  6
CONTINUOUS
100
AcDbLine
 10
41.23578448461758
 20
3.984939383878926
 30
0.0
 11
42.20881098020543
 21
4.957965879466778
 31
0.0
  0
LINE
  5
B5AF
330
B59A
100
AcDbEntity
  8
0
  6
CONTINUOUS
100
AcDbLine
 10
41.55324679719776
 20
3.628882487378919
 30
0.0
 11
42.52627329278561
 21
4.601908982966772
 31
0.0
  0
LINE
  5
B5B0
330
B59A
100
AcDbEntity
  8
0
  6
CONTINUOUS
100
AcDbLine
 10
41.87070910977793
 20
3.272825590878912
 30
0.0
 11
42.84373560536579
 21
4.245852086466765
 31
0.0
  0
LINE
  5
B5B1
330
B59A
100
AcDbEntity
  8
0
  6
CONTINUOUS
100
AcDbLine
 10
43.57899999995641
 20
7.001674108297943
 30
0.0
 11
44.99999999995498
 21
8.422674108296516
 31
0.0
  0
LINE
  5
B5B2
330
B59A
100
AcDbEntity
  8
0
  6
CONTINUOUS
100
AcDbLine
 10
43.57899999995641
 20
6.328154899217758
 30
0.0
 11
44.99999999995498
 21
7.749154899216329
 31
0.0
  0
LINE
  5
B5B3
330
B59A
100
AcDbEntity
  8
0
  6
CONTINUOUS
100
AcDbLine
 10
43.57899999995641
 20
5.654635690137571
 30
0.0
 11
44.99999999995498
 21
7.075635690136142
 31
0.0
  0
LINE
  5
B5B4
330
B59A
100
AcDbEntity
  8
0
  6
CONTINUOUS
100
AcDbLine
 10
43.57899999995641
 20
4.981116481057384
 30
0.0
 11
44.99999999995498
 21
6.402116481055955
 31
0.0
  0
LINE
  5
B5B5
330
B59A
100
AcDbEntity
  8
0
  6
CONTINUOUS
100
AcDbLine
 10
39.27140272797921
 20
-0.0000000000000009
 30
0.0
 11
40.02599999995994
 21
0.7545972719807246
 31
0.0
  0
LINE
  5
B5B6
330
B59A
100
AcDbEntity
  8
0
  6
CONTINUOUS
100
AcDbLine
 10
39.9449219370594
 20
-0.0000000000000009
 30
0.0
 11
40.02599999995994
 21
0.0810780629005379
 31
0.0
  0
LINE
  5
B5B7
330
B59A
100
AcDbEntity
  8
0
  6
CONTINUOUS
100
AcDbLine
 10
42.18817142235812
 20
2.916768694378905
 30
0.0
 11
43.16119791794597
 21
3.889795189966758
 31
0.0
  0
LINE
  5
B5B8
330
B59A
100
AcDbEntity
  8
0
  6
CONTINUOUS
100
AcDbLine
 10
42.50563373493829
 20
2.560711797878898
 30
0.0
 11
43.47866023052615
 21
3.533738293466751
 31
0.0
  0
LINE
  5
B5B9
330
B59A
100
AcDbEntity
  8
0
  6
CONTINUOUS
100
AcDbLine
 10
43.57899999995641
 20
4.307597271977198
 30
0.0
 11
44.99999999995498
 21
5.728597271975769
 31
0.0
  0
LINE
  5
B5BA
330
B59A
100
AcDbEntity
  8
0
  6
CONTINUOUS
100
AcDbLine
 10
43.57899999995641
 20
3.634078062897011
 30
0.0
 11
44.99999999995498
 21
5.055078062895582
 31
0.0
  0
LINE
  5
B5BB
330
B59A
100
AcDbEntity
  8
0
  6
CONTINUOUS
100
AcDbLine
 10
42.82309604751848
 20
2.204654901378891
 30
0.0
 11
44.99999999995498
 21
4.381558853815395
 31
0.0
  0
LINE
  5
B5BC
330
B59A
100
AcDbEntity
  8
0
  6
CONTINUOUS
100
AcDbLine
 10
43.14055836009865
 20
1.848598004878885
 30
0.0
 11
44.99999999995498
 21
3.70803964473521
 31
0.0
  0
LINE
  5
B5BD
330
B59A
100
AcDbEntity
  8
0
  6
CONTINUOUS
100
AcDbLine
 10
43.45802067267883
 20
1.492541108378878
 30
0.0
 11
44.99999999995498
 21
3.034520435655023
 31
0.0
  0
LINE
  5
B5BE
330
B59A
100
AcDbEntity
  8
0
  6
CONTINUOUS
100
AcDbLine
 10
43.77548298525902
 20
1.136484211878871
 30
0.0
 11
44.99999999995498
 21
2.361001226574837
 31
0.0
  0
LINE
  5
B5BF
330
B59A
100
AcDbEntity
  8
0
  6
CONTINUOUS
100
AcDbLine
 10
44.09294529783919
 20
0.7804273153788639
 30
0.0
 11
44.99999999995498
 21
1.687482017494649
 31
0.0
  0
LINE
  5
B5C0
330
B59A
100
AcDbEntity
  8
0
  6
CONTINUOUS
100
AcDbLine
 10
44.41040761041938
 20
0.4243704188788566
 30
0.0
 11
44.99999999995498
 21
1.013962808414463
 31
0.0
  0
LINE
  5
B5C1
330
B59A
100
AcDbEntity
  8
0
  6
CONTINUOUS
100
AcDbLine
 10
44.72786992299955
 20
0.0683135223788494
 30
0.0
 11
44.99999999995498
 21
0.340443599334276
 31
0.0
  0
LINE
  5
B5C2
330
B59A
100
AcDbEntity
  8
0
  6
CONTINUOUS
100
AcDbLine
 10
39.12223903415696
 20
-0.0000000000000009
 30
0.0
 11
38.60499999996136
 21
0.5172390341955961
 31
0.0
  0
LINE
  5
B5C3
330
B59A
100
AcDbEntity
  8
0
  6
CONTINUOUS
100
AcDbLine
 10
39.79575824323715
 20
-0.0000000000000009
 30
0.0
 11
38.60499999996136
 21
1.190758243275783
 31
0.0
  0
LINE
  5
B5C4
330
B59A
100
AcDbEntity
  8
0
  6
CONTINUOUS
100
AcDbLine
 10
40.02599999995994
 20
0.443277452357397
 30
0.0
 11
38.60499999996136
 21
1.864277452355969
 31
0.0
  0
LINE
  5
B5C5
330
B59A
100
AcDbEntity
  8
0
  6
CONTINUOUS
100
AcDbLine
 10
40.02599999995994
 20
1.116796661437583
 30
0.0
 11
38.60499999996136
 21
2.537796661436155
 31
0.0
  0
LINE
  5
B5C6
330
B59A
100
AcDbEntity
  8
0
  6
CONTINUOUS
100
AcDbLine
 10
40.02599999995994
 20
1.79031587051777
 30
0.0
 11
38.60499999996136
 21
3.211315870516341
 31
0.0
  0
LINE
  5
B5C7
330
B59A
100
AcDbEntity
  8
0
  6
CONTINUOUS
100
AcDbLine
 10
40.02599999995994
 20
2.463835079597956
 30
0.0
 11
38.60499999996136
 21
3.884835079596527
 31
0.0
  0
LINE
  5
B5C8
330
B59A
100
AcDbEntity
  8
0
  6
CONTINUOUS
100
AcDbLine
 10
40.02599999995994
 20
3.137354288678143
 30
0.0
 11
38.60499999996136
 21
4.558354288676714
 31
0.0
  0
LINE
  5
B5C9
330
B59A
100
AcDbEntity
  8
0
  6
CONTINUOUS
100
AcDbLine
 10
40.02599999995994
 20
3.810873497758329
 30
0.0
 11
38.60499999996136
 21
5.2318734977569
 31
0.0
  0
LINE
  5
B5CA
330
B59A
100
AcDbEntity
  8
0
  6
CONTINUOUS
100
AcDbLine
 10
40.02599999995994
 20
4.484392706838515
 30
0.0
 11
38.60499999996136
 21
5.905392706837086
 31
0.0
  0
LINE
  5
B5CB
330
B59A
100
AcDbEntity
  8
0
  6
CONTINUOUS
100
AcDbLine
 10
44.99999999995498
 20
0.183911915923658
 30
0.0
 11
41.53858364506288
 21
3.64532827081576
 31
0.0
  0
LINE
  5
B5CC
330
B59A
100
AcDbEntity
  8
0
  6
CONTINUOUS
100
AcDbLine
 10
40.02599999995994
 20
5.157911915918703
 30
0.0
 11
38.60499999996136
 21
6.578911915917274
 31
0.0
  0
LINE
  5
B5CD
330
B59A
100
AcDbEntity
  8
0
  6
CONTINUOUS
100
AcDbLine
 10
44.99999999995498
 20
0.8574311250038447
 30
0.0
 11
38.60499999996136
 21
7.25243112499746
 31
0.0
  0
LINE
  5
B5CE
330
B59A
100
AcDbEntity
  8
0
  6
CONTINUOUS
100
AcDbLine
 10
44.99999999995498
 20
1.530950334084031
 30
0.0
 11
38.60499999996136
 21
7.925950334077647
 31
0.0
  0
LINE
  5
B5CF
330
B59A
100
AcDbEntity
  8
0
  6
CONTINUOUS
100
AcDbLine
 10
44.99999999995498
 20
2.204469543164218
 30
0.0
 11
43.57899999995641
 21
3.625469543162789
 31
0.0
  0
LINE
  5
B5D0
330
B59A
100
AcDbEntity
  8
0
  6
CONTINUOUS
100
AcDbLine
 10
41.89876730984767
 20
5.305702233271528
 30
0.0
 11
38.60499999996136
 21
8.599469543157834
 31
0.0
  0
LINE
  5
B5D1
330
B59A
100
AcDbEntity
  8
0
  6
CONTINUOUS
100
AcDbLine
 10
44.99999999995498
 20
2.877988752244405
 30
0.0
 11
43.57899999995641
 21
4.298988752242975
 31
0.0
  0
LINE
  5
B5D2
330
B59A
100
AcDbEntity
  8
0
  6
CONTINUOUS
100
AcDbLine
 10
44.99999999995498
 20
3.551507961324591
 30
0.0
 11
43.57899999995641
 21
4.972507961323163
 31
0.0
  0
LINE
  5
B5D3
330
B59A
100
AcDbEntity
  8
0
  6
CONTINUOUS
100
AcDbLine
 10
44.99999999995498
 20
4.225027170404777
 30
0.0
 11
43.57899999995641
 21
5.646027170403348
 31
0.0
  0
LINE
  5
B5D4
330
B59A
100
AcDbEntity
  8
0
  6
CONTINUOUS
100
AcDbLine
 10
44.99999999995498
 20
4.898546379484964
 30
0.0
 11
43.57899999995641
 21
6.319546379483535
 31
0.0
  0
LINE
  5
B5D5
330
B59A
100
AcDbEntity
  8
0
  6
CONTINUOUS
100
AcDbLine
 10
44.99999999995498
 20
5.572065588565151
 30
0.0
 11
43.57899999995641
 21
6.993065588563722
 31
0.0
  0
LINE
  5
B5D6
330
B59A
100
AcDbEntity
  8
0
  6
CONTINUOUS
100
AcDbLine
 10
44.99999999995498
 20
6.245584797645336
 30
0.0
 11
43.57899999995641
 21
7.666584797643908
 31
0.0
  0
LINE
  5
B5D7
330
B59A
100
AcDbEntity
  8
0
  6
CONTINUOUS
100
AcDbLine
 10
44.99999999995498
 20
6.919104006725522
 30
0.0
 11
43.57899999995641
 21
8.340104006724093
 31
0.0
  0
LINE
  5
B5D8
330
B59A
100
AcDbEntity
  8
0
  6
CONTINUOUS
100
AcDbLine
 10
44.99999999995498
 20
7.592623215805709
 30
0.0
 11
43.82952321576943
 21
8.763099999991255
 31
0.0
  0
LINE
  5
B5D9
330
B59A
100
AcDbEntity
  8
0
  6
CONTINUOUS
100
AcDbLine
 10
44.99999999995498
 20
8.266142424885896
 30
0.0
 11
44.50304242484962
 21
8.763099999991255
 31
0.0
  0
ENDBLK
  5
B603
330
B59A
100
AcDbEntity
  8
0
100
AcDbBlockEnd
  0
BLOCK
  5
B604
330
B5DA
100
AcDbEntity
  8
0
100
AcDbBlockBegin
  2
*X77
 70
     1
 10
0.0
 20
0.0
 30
0.0
  3
*X77
  1

  0
LINE
  5
B5DB
330
B5DA
100
AcDbEntity
  8
0
  6
CONTINUOUS
100
AcDbLine
 10
0.0
 20
8.548461116714023
 30
0.0
 11
0.2146388832772324
 21
8.763099999991255
 31
0.0
  0
LINE
  5
B5DC
330
B5DA
100
AcDbEntity
  8
0
  6
CONTINUOUS
100
AcDbLine
 10
-0.0000000000000002
 20
7.874941907633837
 30
0.0
 11
0.8881580923574184
 21
8.763099999991255
 31
0.0
  0
LINE
  5
B5DD
330
B5DA
100
AcDbEntity
  8
0
  6
CONTINUOUS
100
AcDbLine
 10
0.0
 20
7.20142269855365
 30
0.0
 11
1.420999999998572
 21
8.622422698552223
 31
0.0
  0
LINE
  5
B5DE
330
B5DA
100
AcDbEntity
  8
0
  6
CONTINUOUS
100
AcDbLine
 10
-0.0000000000000001
 20
6.527903489473465
 30
0.0
 11
1.420999999998571
 21
7.948903489472036
 31
0.0
  0
LINE
  5
B5DF
330
B5DA
100
AcDbEntity
  8
0
  6
CONTINUOUS
100
AcDbLine
 10
-0.0000000000000002
 20
5.854384280393278
 30
0.0
 11
1.420999999998571
 21
7.275384280391849
 31
0.0
  0
LINE
  5
B5E0
330
B5DA
100
AcDbEntity
  8
0
  6
CONTINUOUS
100
AcDbLine
 10
-0.0000000000000002
 20
5.180865071313091
 30
0.0
 11
1.420999999998571
 21
6.601865071311663
 31
0.0
  0
LINE
  5
B5E1
330
B5DA
100
AcDbEntity
  8
0
  6
CONTINUOUS
100
AcDbLine
 10
0.0
 20
4.507345862232905
 30
0.0
 11
1.420999999998571
 21
5.928345862231477
 31
0.0
  0
LINE
  5
B5E2
330
B5DA
100
AcDbEntity
  8
0
  6
CONTINUOUS
100
AcDbLine
 10
-0.0000000000000003
 20
3.833826653152718
 30
0.0
 11
1.420999999998571
 21
5.25482665315129
 31
0.0
  0
LINE
  5
B5E3
330
B5DA
100
AcDbEntity
  8
0
  6
CONTINUOUS
100
AcDbLine
 10
-0.0000000000000002
 20
3.160307444072532
 30
0.0
 11
1.420999999998571
 21
4.581307444071103
 31
0.0
  0
LINE
  5
B5E4
330
B5DA
100
AcDbEntity
  8
0
  6
CONTINUOUS
100
AcDbLine
 10
-0.0000000000000001
 20
2.486788234992345
 30
0.0
 11
1.420999999998571
 21
3.907788234990917
 31
0.0
  0
LINE
  5
B5E5
330
B5DA
100
AcDbEntity
  8
0
  6
CONTINUOUS
100
AcDbLine
 10
-0.0000000000000006
 20
1.813269025912159
 30
0.0
 11
1.420999999998571
 21
3.234269025910731
 31
0.0
  0
LINE
  5
B5E6
330
B5DA
100
AcDbEntity
  8
0
  6
CONTINUOUS
100
AcDbLine
 10
0.0
 20
1.139749816831973
 30
0.0
 11
1.420999999998571
 21
2.560749816830544
 31
0.0
  0
LINE
  5
B5E7
330
B5DA
100
AcDbEntity
  8
0
  6
CONTINUOUS
100
AcDbLine
 10
0.0000000000000002
 20
0.466230607751787
 30
0.0
 11
1.420999999998571
 21
1.887230607750358
 31
0.0
  0
LINE
  5
B5E8
330
B5DA
100
AcDbEntity
  8
0
  6
CONTINUOUS
100
AcDbLine
 10
0.2072886013284003
 20
-0.0000000000000009
 30
0.0
 11
1.420999999998571
 21
1.213711398670171
 31
0.0
  0
LINE
  5
B5E9
330
B5DA
100
AcDbEntity
  8
0
  6
CONTINUOUS
100
AcDbLine
 10
0.8808078104085864
 20
-0.0000000000000009
 30
0.0
 11
1.420999999998571
 21
0.5401921895899839
 31
0.0
  0
LINE
  5
B5EA
330
B5DA
100
AcDbEntity
  8
0
  6
CONTINUOUS
100
AcDbLine
 10
0.0581249075061505
 20
-0.0000000000000009
 30
0.0
 11
-0.0000000000000002
 21
0.0581249075061496
 31
0.0
  0
LINE
  5
B5EB
330
B5DA
100
AcDbEntity
  8
0
  6
CONTINUOUS
100
AcDbLine
 10
0.7316441165863372
 20
-0.0000000000000009
 30
0.0
 11
-0.0000000000000002
 21
0.7316441165863363
 31
0.0
  0
LINE
  5
B5EC
330
B5DA
100
AcDbEntity
  8
0
  6
CONTINUOUS
100
AcDbLine
 10
1.405163325666523
 20
-0.0000000000000009
 30
0.0
 11
-0.0000000000000002
 21
1.405163325666523
 31
0.0
  0
LINE
  5
B5ED
330
B5DA
100
AcDbEntity
  8
0
  6
CONTINUOUS
100
AcDbLine
 10
1.420999999998572
 20
0.6576825347481381
 30
0.0
 11
-0.0000000000000001
 21
2.07868253474671
 31
0.0
  0
LINE
  5
B5EE
330
B5DA
100
AcDbEntity
  8
0
  6
CONTINUOUS
100
AcDbLine
 10
1.420999999998571
 20
1.331201743828324
 30
0.0
 11
-0.0000000000000001
 21
2.752201743826896
 31
0.0
  0
LINE
  5
B5EF
330
B5DA
100
AcDbEntity
  8
0
  6
CONTINUOUS
100
AcDbLine
 10
1.420999999998571
 20
2.004720952908511
 30
0.0
 11
-0.0000000000000002
 21
3.425720952907082
 31
0.0
  0
LINE
  5
B5F0
330
B5DA
100
AcDbEntity
  8
0
  6
CONTINUOUS
100
AcDbLine
 10
1.420999999998571
 20
2.678240161988697
 30
0.0
 11
-0.0000000000000001
 21
4.099240161987269
 31
0.0
  0
LINE
  5
B5F1
330
B5DA
100
AcDbEntity
  8
0
  6
CONTINUOUS
100
AcDbLine
 10
1.420999999998572
 20
3.351759371068884
 30
0.0
 11
0.0
 21
4.772759371067455
 31
0.0
  0
LINE
  5
B5F2
330
B5DA
100
AcDbEntity
  8
0
  6
CONTINUOUS
100
AcDbLine
 10
1.420999999998571
 20
4.02527858014907
 30
0.0
 11
-0.0000000000000003
 21
5.446278580147642
 31
0.0
  0
LINE
  5
B5F3
330
B5DA
100
AcDbEntity
  8
0
  6
CONTINUOUS
100
AcDbLine
 10
1.420999999998571
 20
4.698797789229257
 30
0.0
 11
0.0
 21
6.119797789227828
 31
0.0
  0
LINE
  5
B5F4
330
B5DA
100
AcDbEntity
  8
0
  6
CONTINUOUS
100
AcDbLine
 10
1.420999999998571
 20
5.372316998309444
 30
0.0
 11
-0.0000000000000001
 21
6.793316998308015
 31
0.0
  0
LINE
  5
B5F5
330
B5DA
100
AcDbEntity
  8
0
  6
CONTINUOUS
100
AcDbLine
 10
1.420999999998572
 20
6.045836207389629
 30
0.0
 11
-0.0000000000000004
 21
7.466836207388202
 31
0.0
  0
LINE
  5
B5F6
330
B5DA
100
AcDbEntity
  8
0
  6
CONTINUOUS
100
AcDbLine
 10
1.420999999998571
 20
6.719355416469816
 30
0.0
 11
0.0
 21
8.140355416468388
 31
0.0
  0
LINE
  5
B5F7
330
B5DA
100
AcDbEntity
  8
0
  6
CONTINUOUS
100
AcDbLine
 10
1.420999999998571
 20
7.392874625550003
 30
0.0
 11
0.0507746255573185
 21
8.763099999991255
 31
0.0
  0
LINE
  5
B5F8
330
B5DA
100
AcDbEntity
  8
0
  6
CONTINUOUS
100
AcDbLine
 10
1.420999999998571
 20
8.06639383463019
 30
0.0
 11
0.7242938346375052
 21
8.763099999991255
 31
0.0
  0
LINE
  5
B5F9
330
B5DA
100
AcDbEntity
  8
0
  6
CONTINUOUS
100
AcDbLine
 10
1.420999999998571
 20
8.739913043710375
 30
0.0
 11
1.397813043717691
 21
8.763099999991255
 31
0.0
  0
ENDBLK
  5
B605
330
B5DA
100
AcDbEntity
  8
0
100
AcDbBlockEnd
  0
ENDSEC
  0
SECTION
  2
ENTITIES
  0
LINE
  5
B06E
330
18
100
AcDbEntity
  8
01
100
AcDbLine
 10
5053.885978705111
 20
-150.9025712015892
 30
0.0
 11
5101.885978705111
 21
-150.9025712015892
 31
0.0
  0
LINE
  5
B06F
330
18
100
AcDbEntity
  8
01
100
AcDbLine
 10
5052.885978705111
 20
-142.4025712015892
 30
0.0
 11
5052.885978705111
 21
-149.9025712015892
 31
0.0
  0
ARC
  5
B070
330
18
100
AcDbEntity
  8
01
100
AcDbCircle
 10
5053.885978705111
 20
-149.9025712015892
 30
0.0
 40
1.0
100
AcDbArc
 50
180.0
 51
270.0
  0
LINE
  5
B071
330
18
100
AcDbEntity
  8
01
100
AcDbLine
 10
5102.885978705111
 20
-142.4025712015892
 30
0.0
 11
5102.885978705111
 21
-149.9025712015892
 31
0.0
  0
ARC
  5
B072
330
18
100
AcDbEntity
  8
01
100
AcDbCircle
 10
5101.885978705111
 20
-149.9025712015892
 30
0.0
 40
1.0
100
AcDbArc
 50
270.0
 51
0.0
  0
LINE
  5
B074
330
18
100
AcDbEntity
  8
01
100
AcDbLine
 10
4927.885978705111
 20
-277.4012528884865
 30
0.0
 11
4927.885978705111
 21
-327.4012528884865
 31
0.0
  0
LINE
  5
B075
330
18
100
AcDbEntity
  8
01
100
AcDbLine
 10
4936.385978705111
 20
-326.4012528884865
 30
0.0
 11
4936.385978705111
 21
-278.4012528884865
 31
0.0
  0
LINE
  5
B076
330
18
100
AcDbEntity
  8
01
100
AcDbLine
 10
4927.885978705111
 20
-327.4012528884865
 30
0.0
 11
4935.385978705111
 21
-327.4012528884865
 31
0.0
  0
ARC
  5
B077
330
18
100
AcDbEntity
  8
01
100
AcDbCircle
 10
4935.385978705111
 20
-326.4012528884865
 30
0.0
 40
1.0
100
AcDbArc
 50
270.0
 51
0.0
  0
LINE
  5
B078
330
18
100
AcDbEntity
  8
01
100
AcDbLine
 10
4927.885978705111
 20
-277.4012528884865
 30
0.0
 11
4935.385978705111
 21
-277.4012528884865
 31
0.0
  0
ARC
  5
B079
330
18
100
AcDbEntity
  8
01
100
AcDbCircle
 10
4935.385978705111
 20
-278.4012528884865
 30
0.0
 40
1.0
100
AcDbArc
 50
0.0
 51
90.0
  0
LINE
  5
B07A
330
18
100
AcDbEntity
  8
01
100
AcDbLine
 10
4925.75769332268
 20
-302.4012528884865
 30
0.0
 11
4948.385978705111
 21
-302.4012528884865
 31
0.0
  0
LINE
  5
B07B
330
18
100
AcDbEntity
  8
01
100
AcDbLine
 10
5052.885978705111
 20
-142.4025712015892
 30
0.0
 11
5102.885978705111
 21
-142.4025712015892
 31
0.0
  0
LINE
  5
B07C
330
18
100
AcDbEntity
  8
01
  6
BYBLOCK
100
AcDbLine
 10
5026.886746547428
 20
-142.4025712015892
 30
0.0
 11
5180.641126702459
 21
-142.4025712015892
 31
0.0
  0
LINE
  5
B07D
330
18
100
AcDbEntity
  8
01
100
AcDbLine
 10
5077.885978705111
 20
-137.4025712015892
 30
0.0
 11
5077.885978705111
 21
-163.9025712015892
 31
0.0
  0
LINE
  5
B07E
330
18
100
AcDbEntity
  8
01
100
AcDbLine
 10
4927.885978705111
 20
-182.4012528884865
 30
0.0
 11
4927.885978705111
 21
-372.4012528884865
 31
0.0
  0
LINE
  5
B07F
330
18
100
AcDbEntity
  8
1CENTER
100
AcDbLine
 10
4942.385978705111
 20
-317.4012528884865
 30
0.0
 11
4942.385978705111
 21
-309.4012528884865
 31
0.0
  0
LINE
  5
B080
330
18
100
AcDbEntity
  8
01
100
AcDbLine
 10
5047.885978705111
 20
-302.4012528884865
 30
0.0
 11
5107.885978705111
 21
-302.4012528884865
 31
0.0
  0
LINE
  5
B081
330
18
100
AcDbEntity
  8
01
100
AcDbLine
 10
5077.885978705111
 20
-272.4012528884865
 30
0.0
 11
5077.885978705111
 21
-332.4012528884865
 31
0.0
  0
TEXT
  5
B082
330
18
100
AcDbEntity
  8
1TEXT
100
AcDbText
 10
4927.885978705111
 20
-142.4025712015892
 30
0.0
 40
10.0
  1
FPC
 41
1.0171875
100
AcDbText
  0
ARC
  5
B083
330
18
100
AcDbEntity
  8
01
100
AcDbCircle
 10
5077.885978705111
 20
-302.4012528884865
 30
0.0
 40
25.0
100
AcDbArc
 50
24.73203424073867
 51
335.2679657592632
  0
ARC
  5
B088
330
18
100
AcDbEntity
  8
01
100
AcDbCircle
 10
5064.385975552153
 20
-307.6717495504096
 30
0.0
 40
0.499996847043155
100
AcDbArc
 50
180.0000279155623
 51
229.6277083759751
  0
ARC
  5
B08A
330
18
100
AcDbEntity
  8
01
100
AcDbCircle
 10
5064.385975552153
 20
-297.1307562265619
 30
0.0
 40
0.4999968470432471
100
AcDbArc
 50
130.3722916240165
 51
179.9999720844377
  0
LINE
  5
B08C
330
18
100
AcDbEntity
  8
01
100
AcDbLine
 10
5068.885978705111
 20
-299.1512528884858
 30
0.0
 11
5064.385978705111
 21
-299.1512528884858
 31
0.0
  0
LINE
  5
B08D
330
18
100
AcDbEntity
  8
01
100
AcDbLine
 10
5190.88597870511
 20
-299.1512528884858
 30
0.0
 11
5068.885978705111
 21
-299.1512528884858
 31
0.0
  0
LINE
  5
B08E
330
18
100
AcDbEntity
  8
01
100
AcDbLine
 10
5193.828570933415
 20
-299.1512528884858
 30
0.0
 11
5190.885733415103
 21
-299.1512528884858
 31
0.0
  0
LINE
  5
B08F
330
18
100
AcDbEntity
  8
01
100
AcDbLine
 10
5198.280474380142
 20
-299.1512528884858
 30
0.0
 11
5197.30678213694
 21
-299.1512528884858
 31
0.0
  0
LINE
  5
B090
330
18
100
AcDbEntity
  8
01
100
AcDbLine
 10
5202.385978716617
 20
-299.1512528884858
 30
0.0
 11
5199.313137521914
 21
-299.1512528884858
 31
0.0
  0
LINE
  5
B091
330
18
100
AcDbEntity
  8
01
100
AcDbLine
 10
5068.885978705111
 20
-305.6512528884858
 30
0.0
 11
5064.385978705111
 21
-305.6512528884858
 31
0.0
  0
LINE
  5
B092
330
18
100
AcDbEntity
  8
01
100
AcDbLine
 10
5190.88597870511
 20
-305.6512528884858
 30
0.0
 11
5068.885978705111
 21
-305.6512528884858
 31
0.0
  0
LINE
  5
B093
330
18
100
AcDbEntity
  8
01
100
AcDbLine
 10
5202.339964276481
 20
-305.6512528884858
 30
0.0
 11
5190.885733415103
 21
-305.6512528884858
 31
0.0
  0
LINE
  5
B094
330
18
100
AcDbEntity
  8
01
100
AcDbLine
 10
5063.885978705111
 20
-297.1307559829542
 30
0.0
 11
5063.885978705111
 21
-298.6512528884858
 31
0.0
  0
ARC
  5
B095
330
18
100
AcDbEntity
  8
01
100
AcDbCircle
 10
5064.385978705111
 20
-298.6512528884858
 30
0.0
 40
0.5000000000000018
100
AcDbArc
 50
179.9999999997655
 51
270.0
  0
LINE
  5
B096
330
18
100
AcDbEntity
  8
01
100
AcDbLine
 10
5202.885978705114
 20
-298.6513381265517
 30
0.0
 11
5202.885984427156
 21
-297.2179032791108
 31
0.0
  0
ARC
  5
B097
330
18
100
AcDbEntity
  8
01
100
AcDbCircle
 10
5202.386176327059
 20
-298.6514505368476
 30
0.0
 40
0.4998023907040486
100
AcDbArc
 50
269.9773465577979
 51
0.01288636387041
  0
LINE
  5
B098
330
18
100
AcDbEntity
  8
01
100
AcDbLine
 10
5063.885978705111
 20
-306.1512528884858
 30
0.0
 11
5063.885978705111
 21
-307.6717497940173
 31
0.0
  0
ARC
  5
B099
330
18
100
AcDbEntity
  8
01
100
AcDbCircle
 10
5064.385978705111
 20
-306.1512528884858
 30
0.0
 40
0.4999999999999982
100
AcDbArc
 50
90.0
 51
179.9999999997655
  0
LINE
  5
B09A
330
18
100
AcDbEntity
  8
01
100
AcDbLine
 10
5202.885966444991
 20
-307.5846559036225
 30
0.0
 11
5202.885978705114
 21
-306.1513381265517
 31
0.0
  0
ARC
  5
B09B
330
18
100
AcDbEntity
  8
01
100
AcDbCircle
 10
5202.386091141844
 20
-306.1511404781946
 30
0.0
 40
0.499887602351781
100
AcDbArc
 50
359.9773460737528
 51
90.01288587879372
  0
LINE
  5
B09C
330
18
100
AcDbEntity
  8
01
100
AcDbLine
 10
5199.88597870511
 20
-305.4012528884858
 30
0.0
 11
5199.88597870511
 21
-305.6512528884858
 31
0.0
  0
LINE
  5
B09D
330
18
100
AcDbEntity
  8
01
100
AcDbLine
 10
5199.88597870511
 20
-299.1512528884858
 30
0.0
 11
5199.88597870511
 21
-299.4012528884858
 31
0.0
  0
ARC
  5
B09E
330
18
100
AcDbEntity
  8
01
100
AcDbCircle
 10
5194.386050673847
 20
-300.1510697740308
 30
0.0
 40
0.99981688813549
100
AcDbArc
 50
48.58641166745084
 51
90.00412425997854
  0
ARC
  5
B09F
330
18
100
AcDbEntity
  8
01
100
AcDbCircle
 10
5194.386050673849
 20
-304.6514360029463
 30
0.0
 40
0.9998168881294759
100
AcDbArc
 50
269.9958757398651
 51
311.4135883326452
  0
ARC
  5
B0A0
330
18
100
AcDbEntity
  8
01
100
AcDbCircle
 10
5073.853695275316
 20
-300.0974445360943
 30
0.0
 40
0.9461938205030744
100
AcDbArc
 50
90.12279112846542
 51
132.6267301871948
  0
ARC
  5
B0A1
330
18
100
AcDbEntity
  8
01
100
AcDbCircle
 10
5189.918262134906
 20
-300.0974445360938
 30
0.0
 40
0.9461938205023958
100
AcDbArc
 50
47.37326981291426
 51
89.87720887164464
  0
ARC
  5
B0A2
330
18
100
AcDbEntity
  8
01
100
AcDbCircle
 10
5189.918262134907
 20
-304.7050612408824
 30
0.0
 40
0.9461938204975933
100
AcDbArc
 50
270.122791128356
 51
312.6267301873492
  0
LINE
  5
B0A4
330
18
100
AcDbEntity
  8
01
100
AcDbLine
 10
5202.385939015058
 20
-305.6512521309741
 30
0.0
 11
5202.387212110057
 21
-305.6512545433242
 31
0.0
  0
LINE
  5
B0A6
330
18
100
AcDbEntity
  8
01
100
AcDbLine
 10
5190.885733441725
 20
-299.1512528914308
 30
0.0
 11
5191.5889938627
 21
-299.1512528884858
 31
0.0
  0
LINE
  5
B0A7
330
18
100
AcDbEntity
  8
01
100
AcDbLine
 10
5197.433683788751
 20
-299.1512528884858
 30
0.0
 11
5193.781673282483
 21
-299.1512528884858
 31
0.0
  0
LINE
  5
B0A8
330
18
100
AcDbEntity
  8
01
100
AcDbLine
 10
5199.313137521914
 20
-299.1512528884858
 30
0.0
 11
5198.280474380142
 21
-299.1512528884858
 31
0.0
  0
LINE
  5
B0AE
330
18
100
AcDbEntity
  8
01
100
AcDbLine
 10
5082.304110825766
 20
-313.308131941494
 30
0.0
 11
5190.88597870511
 21
-310.6512528116649
 31
0.0
  0
LINE
  5
B0B0
330
18
100
AcDbEntity
  8
01
100
AcDbLine
 10
5082.304110825766
 20
-291.4943738354776
 30
0.0
 11
5190.88597870511
 21
-294.1512529653063
 31
0.0
  0
ARC
  5
B0B1
330
18
100
AcDbEntity
  8
01
100
AcDbCircle
 10
5188.885978705111
 20
-299.7762528884858
 30
0.0
 40
0.625
100
AcDbArc
 50
36.86989764598994
 51
90.0
  0
ARC
  5
B0B2
330
18
100
AcDbEntity
  8
01
100
AcDbCircle
 10
5188.885978705111
 20
-305.0262528884858
 30
0.0
 40
0.625
100
AcDbArc
 50
270.0
 51
323.1301023540225
  0
LINE
  5
B0B3
330
18
100
AcDbEntity
  8
01
100
AcDbLine
 10
5068.88597870511
 20
-299.4012528884858
 30
0.0
 11
5197.885978705111
 21
-299.4012528884858
 31
0.0
  0
LINE
  5
B0B4
330
18
100
AcDbEntity
  8
01
100
AcDbLine
 10
5068.88597870511
 20
-305.4012528884858
 30
0.0
 11
5197.885978705111
 21
-305.4012528884858
 31
0.0
  0
LINE
  5
B0B5
330
18
100
AcDbEntity
  8
01
100
AcDbLine
 10
5064.88597870511
 20
-299.4012528884858
 30
0.0
 11
5065.609370527955
 21
-299.4012528884858
 31
0.0
  0
LINE
  5
B0B6
330
18
100
AcDbEntity
  8
01
100
AcDbLine
 10
5064.88597870511
 20
-305.4012528884858
 30
0.0
 11
5065.609370527955
 21
-305.4012528884858
 31
0.0
  0
LINE
  5
B0B7
330
18
100
AcDbEntity
  8
01
100
AcDbLine
 10
5201.162586882267
 20
-305.4012528884858
 30
0.0
 11
5201.885978705111
 21
-305.4012528884858
 31
0.0
  0
LINE
  5
B0B8
330
18
100
AcDbEntity
  8
01
100
AcDbLine
 10
5201.162586882267
 20
-299.4012528884858
 30
0.0
 11
5201.885978705111
 21
-299.4012528884858
 31
0.0
  0
LINE
  5
B0B9
330
18
100
AcDbEntity
  8
01
100
AcDbLine
 10
5197.885978705111
 20
-299.4012528884858
 30
0.0
 11
5201.162586882267
 21
-299.4012528884858
 31
0.0
  0
LINE
  5
B0BA
330
18
100
AcDbEntity
  8
01
100
AcDbLine
 10
5197.885978705111
 20
-305.4012528884858
 30
0.0
 11
5201.162586882267
 21
-305.4012528884858
 31
0.0
  0
LINE
  5
B0BB
330
18
100
AcDbEntity
  8
01
100
AcDbLine
 10
5065.609370527955
 20
-305.4012528884858
 30
0.0
 11
5068.88597870511
 21
-305.4012528884858
 31
0.0
  0
LINE
  5
B0BC
330
18
100
AcDbEntity
  8
01
100
AcDbLine
 10
5065.609370527955
 20
-299.4012528884858
 30
0.0
 11
5068.88597870511
 21
-299.4012528884858
 31
0.0
  0
ARC
  5
B0BD
330
18
100
AcDbEntity
  8
01
100
AcDbCircle
 10
5187.035800854775
 20
-302.4012528884865
 30
0.0
 40
15.15017432869339
100
AcDbArc
 50
348.5789469140642
 51
11.4210530858623
  0
ARC
  5
B0BE
330
18
100
AcDbEntity
  8
01
100
AcDbCircle
 10
5066.555213964418
 20
-299.7762528884858
 30
0.0
 40
0.625
100
AcDbArc
 50
36.86989764598994
 51
90.0
  0
ARC
  5
B0BF
330
18
100
AcDbEntity
  8
01
100
AcDbCircle
 10
5066.555213964419
 20
-299.7762528884858
 30
0.0
 40
0.625
100
AcDbArc
 50
90.0
 51
143.1301023540101
  0
ARC
  5
B0C0
330
18
100
AcDbEntity
  8
01
100
AcDbCircle
 10
5066.555213964418
 20
-305.0262528884858
 30
0.0
 40
0.625
100
AcDbArc
 50
270.0
 51
323.1301023540225
  0
ARC
  5
B0C1
330
18
100
AcDbEntity
  8
01
100
AcDbCircle
 10
5066.555213964419
 20
-305.0262528884858
 30
0.0
 40
0.625
100
AcDbArc
 50
216.8698976459774
 51
270.0
  0
ARC
  5
B0C2
330
18
100
AcDbEntity
  8
01
100
AcDbCircle
 10
5079.736156555447
 20
-302.4012528884865
 30
0.0
 40
15.15017432869359
100
AcDbArc
 50
168.5789469140642
 51
191.4210530858625
  0
ARC
  5
B0C3
330
18
100
AcDbEntity
  8
01
100
AcDbCircle
 10
5188.885978705111
 20
-305.0262528884858
 30
0.0
 40
0.625
100
AcDbArc
 50
216.8698976459774
 51
270.0
  0
ARC
  5
B0C4
330
18
100
AcDbEntity
  8
01
100
AcDbCircle
 10
5188.885978705111
 20
-299.7762528884858
 30
0.0
 40
0.625
100
AcDbArc
 50
90.0
 51
143.1301023540101
  0
LINE
  5
B0C5
330
18
100
AcDbEntity
  8
01
100
AcDbLine
 10
5063.885978705111
 20
-151.4025712015892
 30
0.0
 11
5063.88597870511
 21
-202.2645315391345
 31
0.0
  0
LINE
  5
B0C7
330
18
100
AcDbEntity
  8
01
100
AcDbLine
 10
5190.885978705109
 20
-207.40257118122
 30
0.0
 11
5069.048709899168
 21
-207.4025711858729
 31
0.0
  0
LINE
  5
B0C9
330
18
100
AcDbEntity
  8
01
100
AcDbLine
 10
5202.885978705104
 20
-188.4025711783792
 30
0.0
 11
5202.88597870509
 21
-202.402571178361
 31
0.0
  0
LINE
  5
B0CB
330
18
100
AcDbEntity
  8
01
100
AcDbLine
 10
5094.88597870511
 20
-183.4025711858654
 30
0.0
 11
5190.885978705109
 21
-183.4025711812216
 31
0.0
  0
LINE
  5
B0CD
330
18
100
AcDbEntity
  8
01
100
AcDbLine
 10
5091.88597870511
 20
-180.4025711849905
 30
0.0
 11
5091.885978705111
 21
-151.4025712015892
 31
0.0
  0
LINE
  5
B0CE
330
18
100
AcDbEntity
  8
01
100
AcDbLine
 10
5091.885978705111
 20
-151.4025712015892
 30
0.0
 11
5063.885978705111
 21
-151.4025712015892
 31
0.0
  0
LINE
  5
B0CF
330
18
100
AcDbEntity
  8
01
100
AcDbLine
 10
5063.88597870511
 20
-202.2645315391345
 30
0.0
 11
5063.88597870511
 21
-202.4025711849835
 31
0.0
  0
LINE
  5
B0D0
330
18
100
AcDbEntity
  8
01
100
AcDbLine
 10
5068.88597870511
 20
-207.402571185867
 30
0.0
 11
5069.048709878516
 21
-207.4025711858729
 31
0.0
  0
LINE
  5
B0D1
330
18
100
AcDbEntity
  8
01
100
AcDbLine
 10
5094.88597870511
 20
-183.4025711858654
 30
0.0
 11
5094.728704862081
 21
-183.4019698190601
 31
0.0
  0
LINE
  5
B0D2
330
18
100
AcDbEntity
  8
01
100
AcDbLine
 10
5091.886348854036
 20
-180.5359468993344
 30
0.0
 11
5091.88597870511
 21
-180.4025711849905
 31
0.0
  0
LINE
  5
B0D3
330
18
100
AcDbEntity
  8
01
100
AcDbLine
 10
5202.885935312283
 20
-199.6026755484817
 30
0.0
 11
5202.885932917127
 21
-199.5509062080995
 31
0.0
  0
ARC
  5
B0D4
330
18
100
AcDbEntity
  8
01
100
AcDbCircle
 10
4992.385983971771
 20
-307.6919620176633
 30
0.0
 40
0.4999946423413494
100
AcDbArc
 50
314.2351898434201
 51
359.9999641839316
  0
ARC
  5
B0D5
330
18
100
AcDbEntity
  8
01
100
AcDbCircle
 10
4976.860544487309
 20
-291.804678763505
 30
0.0
 40
22.71371642450241
100
AcDbArc
 50
312.8934635559141
 51
314.340180023482
  0
LINE
  5
B0D6
330
18
100
AcDbEntity
  8
01
100
AcDbLine
 10
4936.885979007514
 20
-313.401249597745
 30
0.0
 11
4936.885978402708
 21
-291.401256179228
 31
0.0
  0
ARC
  5
B0D7
330
18
100
AcDbEntity
  8
01
100
AcDbCircle
 10
4992.385983971532
 20
-297.1105429724868
 30
0.0
 40
0.499994642579623
100
AcDbArc
 50
0.0000358140360504
 51
45.76481014505872
  0
ARC
  5
B0D8
330
18
100
AcDbEntity
  8
01
100
AcDbCircle
 10
4976.860547526842
 20
-312.9978247049459
 30
0.0
 40
22.71371320159496
100
AcDbArc
 50
45.65982275221172
 51
47.10653935758322
  0
LINE
  5
B0D9
330
18
100
AcDbEntity
  8
01
100
AcDbLine
 10
4936.88597841741
 20
-299.1512522983822
 30
0.0
 11
4987.885978417411
 21
-299.1512522983822
 31
0.0
  0
LINE
  5
B0DA
330
18
100
AcDbEntity
  8
01
100
AcDbLine
 10
4992.385978614112
 20
-299.1512524950841
 30
0.0
 11
4987.885978417411
 21
-299.1512522983822
 31
0.0
  0
LINE
  5
B0DB
330
18
100
AcDbEntity
  8
01
100
AcDbLine
 10
4936.88597841741
 20
-305.6512522983822
 30
0.0
 11
4987.885978417411
 21
-305.6512522983822
 31
0.0
  0
LINE
  5
B0DC
330
18
100
AcDbEntity
  8
01
100
AcDbLine
 10
4992.385978614112
 20
-305.6512524950841
 30
0.0
 11
4987.885978417411
 21
-305.6512522983822
 31
0.0
  0
LINE
  5
B0DD
330
18
100
AcDbEntity
  8
01
100
AcDbLine
 10
4992.885978614112
 20
-298.6512524950841
 30
0.0
 11
4992.885978614112
 21
-297.1105426599544
 31
0.0
  0
ARC
  5
B0DE
330
18
100
AcDbEntity
  8
01
100
AcDbCircle
 10
4992.385978614112
 20
-298.6512524950841
 30
0.0
 40
0.5000000000000018
100
AcDbArc
 50
270.0
 51
0.0000000002084408
  0
LINE
  5
B0DF
330
18
100
AcDbEntity
  8
01
100
AcDbLine
 10
4992.885978614112
 20
-307.691962330213
 30
0.0
 11
4992.885978614112
 21
-306.1512524950841
 31
0.0
  0
ARC
  5
B0E0
330
18
100
AcDbEntity
  8
01
100
AcDbCircle
 10
4992.385978614112
 20
-306.1512524950841
 30
0.0
 40
0.4999999999999991
100
AcDbArc
 50
0.0000000002084408
 51
90.0
  0
ARC
  5
B0E1
330
18
100
AcDbEntity
  8
01
100
AcDbCircle
 10
4938.985978995593
 20
-313.1012497136099
 30
0.0
 40
0.3000000119209295
100
AcDbArc
 50
269.9999965134798
 51
281.2458111912918
  0
ARC
  5
B0E2
330
18
100
AcDbEntity
  8
01
100
AcDbCircle
 10
4979.885974710961
 20
-304.6512408451791
 30
0.0
 40
1.000011671768477
100
AcDbArc
 50
228.5906322885743
 51
270.0002248836152
  0
ARC
  5
B0E3
330
18
100
AcDbEntity
  8
01
100
AcDbCircle
 10
4979.885974780597
 20
-300.151264259369
 30
0.0
 40
1.000011742437378
100
AcDbArc
 50
89.999779106224
 51
131.4093694606129
  0
ARC
  5
B0E4
330
18
100
AcDbEntity
  8
01
100
AcDbCircle
 10
4945.785586272458
 20
-313.1032694943234
 30
0.0
 40
0.2977770898960195
100
AcDbArc
 50
259.4030721683973
 51
270.0142178615816
  0
LINE
  5
B0E6
330
18
100
AcDbEntity
  8
01
100
AcDbLine
 10
4976.885978274282
 20
-313.4012520317657
 30
0.0
 11
4945.785724204656
 21
-313.4012501392991
 31
0.0
  0
LINE
  5
B0E7
330
18
100
AcDbEntity
  8
01
100
AcDbLine
 10
4936.885979007514
 20
-313.401249597745
 30
0.0
 11
4938.985978977338
 21
-313.4012497255309
 31
0.0
  0
LINE
  5
B0EA
330
18
100
AcDbEntity
  8
01
100
AcDbLine
 10
4976.885978274282
 20
-291.4012537452073
 30
0.0
 11
4936.885979007514
 21
-291.401256179228
 31
0.0
  0
LINE
  5
B0EB
330
18
100
AcDbEntity
  8
01
100
AcDbLine
 10
4937.053006624997
 20
-305.4012523396224
 30
0.0
 11
4987.85107229728
 21
-305.4012523202447
 31
0.0
  0
LINE
  5
B0EC
330
18
100
AcDbEntity
  8
01
100
AcDbLine
 10
4937.053006624997
 20
-299.4012523396242
 30
0.0
 11
4987.85107229728
 21
-299.4012523202465
 31
0.0
  0
ARC
  5
B0ED
330
18
100
AcDbEntity
  8
01
100
AcDbCircle
 10
4977.035978610973
 20
-302.401252495085
 30
0.0
 40
15.15000000307936
100
AcDbArc
 50
348.5788137273442
 51
11.42118627261053
  0
LINE
  5
B0EE
330
18
100
AcDbEntity
  8
01
100
AcDbLine
 10
4990.180284216292
 20
-299.4012524950841
 30
0.0
 11
4987.85107229728
 21
-299.4012524950841
 31
0.0
  0
LINE
  5
B0EF
330
18
100
AcDbEntity
  8
01
100
AcDbLine
 10
4990.180284216292
 20
-305.4012524950841
 30
0.0
 11
4987.85107229728
 21
-305.4012524950841
 31
0.0
  0
LINE
  5
B0F0
330
18
100
AcDbEntity
  8
01
100
AcDbLine
 10
4991.885978614112
 20
-305.4012524950841
 30
0.0
 11
4990.180284216292
 21
-305.4012524950841
 31
0.0
  0
LINE
  5
B0F1
330
18
100
AcDbEntity
  8
01
100
AcDbLine
 10
4991.885978614112
 20
-299.4012524950841
 30
0.0
 11
4990.180284216292
 21
-299.4012524950841
 31
0.0
  0
ARC
  5
B0F2
330
18
100
AcDbEntity
  8
01
100
AcDbCircle
 10
4990.585979051227
 20
-305.0262529321973
 30
0.0
 40
0.625
100
AcDbArc
 50
216.8698976459691
 51
270.0
  0
ARC
  5
B0F3
330
18
100
AcDbEntity
  8
01
100
AcDbCircle
 10
4990.585979051226
 20
-305.0262529321973
 30
0.0
 40
0.625
100
AcDbArc
 50
270.0
 51
323.1301023540309
  0
ARC
  5
B0F4
330
18
100
AcDbEntity
  8
01
100
AcDbCircle
 10
4990.585979051227
 20
-299.7762529321973
 30
0.0
 40
0.625
100
AcDbArc
 50
90.0
 51
143.1301023540309
  0
ARC
  5
B0F5
330
18
100
AcDbEntity
  8
01
100
AcDbCircle
 10
4990.585979051226
 20
-299.7762529321973
 30
0.0
 40
0.625
100
AcDbArc
 50
36.86989764596908
 51
90.0
  0
LINE
  5
B0F6
330
18
100
AcDbEntity
  8
01
100
AcDbLine
 10
5067.385977065934
 20
-299.1512538064256
 30
0.0
 11
5067.38597708779
 21
-299.4012528884858
 31
0.0
  0
LINE
  5
B0F7
330
18
100
AcDbEntity
  8
01
100
AcDbLine
 10
5067.385977612326
 20
-305.4012528884858
 30
0.0
 11
5067.385977634181
 21
-305.6512538064256
 31
0.0
  0
ARC
  5
B0F8
330
18
100
AcDbEntity
  8
01
100
AcDbCircle
 10
5069.91400619422
 20
-305.1619188450005
 30
0.0
 40
0.4893534371006271
100
AcDbArc
 50
270.5008576514705
 51
330.7197265456135
  0
SPLINE
  5
B0F9
330
18
100
AcDbEntity
  8
01
100
AcDbSpline
210
0.0
220
0.0
230
1.0
 70
     8
 71
     3
 72
    13
 73
     9
 74
     0
 42
0.0000000001
 43
0.0000000001
 40
0.2525153931318126
 40
0.2525153931318126
 40
0.2525153931318126
 40
0.2525153931318126
 40
0.3172815518247096
 40
0.4046369117676543
 40
0.4788172480502062
 40
0.5404290085743749
 40
0.5760121171405078
 40
0.5938036714235743
 40
0.5938036714235743
 40
0.5938036714235743
 40
0.5938036714235743
 10
5068.81613171169
 20
-305.4012528884858
 30
0.0
 10
5068.821745583058
 20
-305.4221159192708
 30
0.0
 10
5068.836997518743
 20
-305.4705591841442
 30
0.0
 10
5068.868181081154
 20
-305.5396129128634
 30
0.0
 10
5068.911632552978
 20
-305.6007899464829
 30
0.0
 10
5068.95689988601
 20
-305.6372109066882
 30
0.0
 10
5068.994332671199
 20
-305.6497979301565
 30
0.0
 10
5069.01212422561
 20
-305.6512536642634
 30
0.0
 10
5069.018054743704
 20
-305.651253663745
 30
0.0
  0
SPLINE
  5
B0FA
330
18
100
AcDbEntity
  8
01
100
AcDbSpline
210
0.0
220
0.0
230
1.0
 70
     8
 71
     3
 72
    13
 73
     9
 74
     0
 42
0.0000000001
 43
0.0000000001
 40
0.2525170341165006
 40
0.2525170341165006
 40
0.2525170341165006
 40
0.2525170341165006
 40
0.3172815518247577
 40
0.4046369117676744
 40
0.4788172480502723
 40
0.5404290085744259
 40
0.5760121171405569
 40
0.5938036714236223
 40
0.5938036714236223
 40
0.5938036714236223
 40
0.5938036714236223
 10
5068.816131613872
 20
-299.4012528884858
 30
0.0
 10
5068.82174538393
 20
-299.3803903973961
 30
0.0
 10
5068.83699720821
 20
-299.3319476742726
 30
0.0
 10
5068.868180532426
 20
-299.2628944408312
 30
0.0
 10
5068.911631993554
 20
-299.201717399614
 30
0.0
 10
5068.956899320217
 20
-299.1652964314943
 30
0.0
 10
5068.994332103206
 20
-299.152709401481
 30
0.0
 10
5069.012123657361
 20
-299.1512536642634
 30
0.0
 10
5069.018054175456
 20
-299.151253663745
 30
0.0
  0
ARC
  5
B0FB
330
18
100
AcDbEntity
  8
01
100
AcDbCircle
 10
5069.91400571153
 20
-299.6405883258366
 30
0.0
 40
0.4893534371006191
100
AcDbArc
 50
29.2804605597497
 51
89.49915236643957
  0
LINE
  5
B0FC
330
18
100
AcDbEntity
  8
01
100
AcDbLine
 10
4937.053006624997
 20
-305.4012523396224
 30
0.0
 11
4937.053006624997
 21
-299.4012523396242
 31
0.0
  0
LINE
  5
B348
330
18
100
AcDbEntity
  8
01
100
AcDbLine
 10
5077.885978705111
 20
-277.4012528884865
 30
0.0
 11
5041.58597870511
 21
-277.4012528884865
 31
0.0
1001
ACAD
1000
DSTYLE
1002
{
1070
     3
1000
φ<>
1070
    40
1040
1.3
1070
    45
1040
0.5
1002
}
  0
LINE
  5
B349
330
18
100
AcDbEntity
  8
01
100
AcDbLine
 10
5077.885978705111
 20
-327.4012528884856
 30
0.0
 11
5041.58597870511
 21
-327.4012528884856
 31
0.0
1001
ACAD
1000
DSTYLE
1002
{
1070
     3
1000
φ<>
1070
    40
1040
1.3
1070
    45
1040
0.5
1002
}
  0
LINE
  5
B34A
330
18
100
AcDbEntity
  8
01
100
AcDbLine
 10
5042.885978705111
 20
-280.0012528884865
 30
0.0
 11
5042.885978705111
 21
-324.8012528884856
 31
0.0
1001
ACAD
1000
DSTYLE
1002
{
1070
     3
1000
φ<>
1070
    40
1040
1.3
1070
    45
1040
0.5
1002
}
  0
LINE
  5
B34E
330
18
100
AcDbEntity
  8
01
100
AcDbLine
 10
5064.061574942293
 20
-308.0523835647554
 30
0.0
 11
5065.472036368074
 21
-309.1699983108491
 31
0.0
  0
LINE
  5
B34F
330
18
100
AcDbEntity
  8
01
100
AcDbLine
 10
5065.472036368074
 20
-309.1699983108491
 30
0.0
 11
5066.938138968172
 21
-310.165084980771
 31
0.0
  0
LINE
  5
B350
330
18
100
AcDbEntity
  8
01
100
AcDbLine
 10
5066.938138968172
 20
-310.165084980771
 30
0.0
 11
5068.453313833895
 21
-311.0331803787202
 31
0.0
  0
LINE
  5
B351
330
18
100
AcDbEntity
  8
01
100
AcDbLine
 10
5068.453313833895
 20
-311.0331803787202
 30
0.0
 11
5070.010763174715
 21
-311.7704011428804
 31
0.0
  0
LINE
  5
B352
330
18
100
AcDbEntity
  8
01
100
AcDbLine
 10
5070.010763174715
 20
-311.7704011428804
 30
0.0
 11
5071.603513724031
 21
-312.3734437454194
 31
0.0
  0
LINE
  5
B353
330
18
100
AcDbEntity
  8
01
100
AcDbLine
 10
5071.603513724031
 20
-312.3734437454194
 30
0.0
 11
5073.224416739168
 21
-312.8395997512788
 31
0.0
  0
LINE
  5
B354
330
18
100
AcDbEntity
  8
01
100
AcDbLine
 10
5073.224416739168
 20
-312.8395997512788
 30
0.0
 11
5074.866216665926
 21
-313.1667863357515
 31
0.0
  0
LINE
  5
B355
330
18
100
AcDbEntity
  8
01
100
AcDbLine
 10
5074.866216665926
 20
-313.1667863357515
 30
0.0
 11
5076.521551138582
 21
-313.3535233962983
 31
0.0
  0
LINE
  5
B356
330
18
100
AcDbEntity
  8
01
100
AcDbLine
 10
5076.521551138582
 20
-313.3535233962983
 30
0.0
 11
5078.288038260164
 21
-313.3971101272554
 31
0.0
  0
LINE
  5
B357
330
18
100
AcDbEntity
  8
01
100
AcDbLine
 10
5064.061574942293
 20
-296.7501222122163
 30
0.0
 11
5065.472036368074
 21
-295.6325074661225
 31
0.0
  0
LINE
  5
B358
330
18
100
AcDbEntity
  8
01
100
AcDbLine
 10
5065.472036368074
 20
-295.6325074661225
 30
0.0
 11
5066.938138968172
 21
-294.6374207962007
 31
0.0
  0
LINE
  5
B359
330
18
100
AcDbEntity
  8
01
100
AcDbLine
 10
5066.938138968172
 20
-294.6374207962007
 30
0.0
 11
5068.453313833895
 21
-293.7693253982515
 31
0.0
  0
LINE
  5
B35A
330
18
100
AcDbEntity
  8
01
100
AcDbLine
 10
5068.453313833895
 20
-293.7693253982515
 30
0.0
 11
5070.010763174715
 21
-293.0321046340913
 31
0.0
  0
LINE
  5
B35B
330
18
100
AcDbEntity
  8
01
100
AcDbLine
 10
5070.010763174715
 20
-293.0321046340913
 30
0.0
 11
5071.603513724031
 21
-292.4290620315522
 31
0.0
  0
LINE
  5
B35C
330
18
100
AcDbEntity
  8
01
100
AcDbLine
 10
5071.603513724031
 20
-292.4290620315522
 30
0.0
 11
5073.224416739168
 21
-291.9629060256929
 31
0.0
  0
LINE
  5
B35D
330
18
100
AcDbEntity
  8
01
100
AcDbLine
 10
5073.224416739168
 20
-291.9629060256929
 30
0.0
 11
5074.866216665926
 21
-291.6357194412202
 31
0.0
  0
LINE
  5
B35E
330
18
100
AcDbEntity
  8
01
100
AcDbLine
 10
5074.866216665926
 20
-291.6357194412202
 30
0.0
 11
5076.521551138582
 21
-291.4489823806733
 31
0.0
  0
LINE
  5
B35F
330
18
100
AcDbEntity
  8
01
100
AcDbLine
 10
5076.521551138582
 20
-291.4489823806733
 30
0.0
 11
5078.288038260164
 21
-291.4053956497163
 31
0.0
  0
LINE
  5
B360
330
18
100
AcDbEntity
  8
01
100
AcDbLine
 10
5074.522367483797
 20
-313.1100846755952
 30
0.0
 11
5074.476926809969
 21
-313.1120988357515
 31
0.0
  0
LINE
  5
B361
330
18
100
AcDbEntity
  8
01
100
AcDbLine
 10
5074.476926809969
 20
-313.1120988357515
 30
0.0
 11
5074.448286062899
 21
-313.1099015701265
 31
0.0
  0
LINE
  5
B362
330
18
100
AcDbEntity
  8
01
100
AcDbLine
 10
5074.448286062899
 20
-313.1099015701265
 30
0.0
 11
5074.442602163973
 21
-313.1090699661225
 31
0.0
  0
LINE
  5
B363
330
18
100
AcDbEntity
  8
01
100
AcDbLine
 10
5202.339963919344
 20
-305.6512528884858
 30
0.0
 11
5202.3595562045
 21
-305.6512528884858
 31
0.0
  0
LINE
  5
B364
330
18
100
AcDbEntity
  8
01
100
AcDbLine
 10
5202.3595562045
 20
-305.6512528884858
 30
0.0
 11
5202.370756155672
 21
-305.6512528884858
 31
0.0
  0
LINE
  5
B365
330
18
100
AcDbEntity
  8
01
100
AcDbLine
 10
5202.370756155672
 20
-305.6512528884858
 30
0.0
 11
5202.379072195711
 21
-305.6512528884858
 31
0.0
  0
LINE
  5
B366
330
18
100
AcDbEntity
  8
01
100
AcDbLine
 10
5202.379072195711
 20
-305.6512528884858
 30
0.0
 11
5202.383558279696
 21
-305.6512528884858
 31
0.0
  0
LINE
  5
B367
330
18
100
AcDbEntity
  8
01
100
AcDbLine
 10
5202.383558279696
 20
-305.6512528884858
 30
0.0
 11
5202.38528252286
 21
-305.6512528884858
 31
0.0
  0
LINE
  5
B368
330
18
100
AcDbEntity
  8
01
100
AcDbLine
 10
5202.38528252286
 20
-305.6512528884858
 30
0.0
 11
5202.386884695711
 21
-305.6512528884858
 31
0.0
  0
LINE
  5
B369
330
18
100
AcDbEntity
  8
01
100
AcDbLine
 10
5202.598356253328
 20
-296.7648469436616
 30
0.0
 11
5202.66766167325
 21
-296.8044206130952
 31
0.0
  0
LINE
  5
B36A
330
18
100
AcDbEntity
  8
01
100
AcDbLine
 10
5202.66766167325
 20
-296.8044206130952
 30
0.0
 11
5202.729917532625
 21
-296.8546067703218
 31
0.0
  0
LINE
  5
B36B
330
18
100
AcDbEntity
  8
01
100
AcDbLine
 10
5202.729917532625
 20
-296.8546067703218
 30
0.0
 11
5202.783353811922
 21
-296.9140473831147
 31
0.0
  0
LINE
  5
B36C
330
18
100
AcDbEntity
  8
01
100
AcDbLine
 10
5202.783353811922
 20
-296.9140473831147
 30
0.0
 11
5202.826642996492
 21
-296.9812776077241
 31
0.0
  0
LINE
  5
B36D
330
18
100
AcDbEntity
  8
01
100
AcDbLine
 10
5202.826642996492
 20
-296.9812776077241
 30
0.0
 11
5202.858655935946
 21
-297.0544663894624
 31
0.0
  0
LINE
  5
B36E
330
18
100
AcDbEntity
  8
01
100
AcDbLine
 10
5202.858655935946
 20
-297.0544663894624
 30
0.0
 11
5202.878568655672
 21
-297.1317826736421
 31
0.0
  0
LINE
  5
B36F
330
18
100
AcDbEntity
  8
01
100
AcDbLine
 10
5202.878568655672
 20
-297.1317826736421
 30
0.0
 11
5202.885480887117
 21
-297.1949311721772
 31
0.0
  0
LINE
  5
B370
330
18
100
AcDbEntity
  8
01
100
AcDbLine
 10
5202.885480887117
 20
-297.1949311721772
 30
0.0
 11
5202.885908133211
 21
-297.2103120315522
 31
0.0
  0
LINE
  5
B371
330
18
100
AcDbEntity
  8
01
100
AcDbLine
 10
5202.885908133211
 20
-297.2103120315522
 30
0.0
 11
5202.885908133211
 21
-297.2131425369233
 31
0.0
  0
LINE
  5
B372
330
18
100
AcDbEntity
  8
01
100
AcDbLine
 10
5202.885908133211
 20
-297.2131425369233
 30
0.0
 11
5202.885953909578
 21
-297.215377949521
 31
0.0
  0
LINE
  5
B373
330
18
100
AcDbEntity
  8
01
100
AcDbLine
 10
5202.885953909578
 20
-297.215377949521
 30
0.0
 11
5202.885984427156
 21
-297.2169496047944
 31
0.0
  0
LINE
  5
B374
330
18
100
AcDbEntity
  8
01
100
AcDbLine
 10
5202.885984427156
 20
-297.2169496047944
 30
0.0
 11
5202.885984427156
 21
-297.2179032791108
 31
0.0
  0
LINE
  5
B375
330
18
100
AcDbEntity
  8
01
100
AcDbLine
 10
5202.598340994539
 20
-308.03765883331
 30
0.0
 11
5202.669080740633
 21
-307.9971238601655
 31
0.0
  0
LINE
  5
B376
330
18
100
AcDbEntity
  8
01
100
AcDbLine
 10
5202.669080740633
 20
-307.9971238601655
 30
0.0
 11
5202.732374197664
 21
-307.9455567825288
 31
0.0
  0
LINE
  5
B377
330
18
100
AcDbEntity
  8
01
100
AcDbLine
 10
5202.732374197664
 20
-307.9455567825288
 30
0.0
 11
5202.786420828524
 21
-307.8843995559663
 31
0.0
  0
LINE
  5
B378
330
18
100
AcDbEntity
  8
01
100
AcDbLine
 10
5202.786420828524
 20
-307.8843995559663
 30
0.0
 11
5202.829816824617
 21
-307.8152162063569
 31
0.0
  0
LINE
  5
B379
330
18
100
AcDbEntity
  8
01
100
AcDbLine
 10
5202.829816824617
 20
-307.8152162063569
 30
0.0
 11
5202.861280447664
 21
-307.7402268875093
 31
0.0
  0
LINE
  5
B37A
330
18
100
AcDbEntity
  8
01
100
AcDbLine
 10
5202.861280447664
 20
-307.7402268875093
 30
0.0
 11
5202.879819876375
 21
-307.6631928909272
 31
0.0
  0
LINE
  5
B37B
330
18
100
AcDbEntity
  8
01
100
AcDbLine
 10
5202.879819876375
 20
-307.6631928909272
 30
0.0
 11
5202.885358816805
 21
-307.6108018386811
 31
0.0
  0
LINE
  5
B37C
330
18
100
AcDbEntity
  8
01
100
AcDbLine
 10
5202.885358816805
 20
-307.6108018386811
 30
0.0
 11
5202.885633475008
 21
-307.60260023956
 31
0.0
  0
LINE
  5
B37D
330
18
100
AcDbEntity
  8
01
100
AcDbLine
 10
5202.885633475008
 20
-307.60260023956
 30
0.0
 11
5202.885969168367
 21
-307.5925981033296
 31
0.0
  0
LINE
  5
B37E
330
18
100
AcDbEntity
  8
01
100
AcDbLine
 10
5202.885969168367
 20
-307.5925981033296
 30
0.0
 11
5202.885953909578
 21
-307.5892640579194
 31
0.0
  0
LINE
  5
B37F
330
18
100
AcDbEntity
  8
01
100
AcDbLine
 10
5202.885953909578
 20
-307.5892640579194
 30
0.0
 11
5202.885984427156
 21
-307.5846559036225
 31
0.0
  0
LINE
  5
B380
330
18
100
AcDbEntity
  8
01
100
AcDbLine
 10
5190.886014944735
 20
-310.6512528884858
 30
0.0
 11
5192.583204275789
 21
-310.5946198928804
 31
0.0
  0
LINE
  5
B381
330
18
100
AcDbEntity
  8
01
100
AcDbLine
 10
5192.583204275789
 20
-310.5946198928804
 30
0.0
 11
5194.276044851961
 21
-310.4627610671968
 31
0.0
  0
LINE
  5
B382
330
18
100
AcDbEntity
  8
01
100
AcDbLine
 10
5194.276044851961
 20
-310.4627610671968
 30
0.0
 11
5195.956220633211
 21
-310.2182542312593
 31
0.0
  0
LINE
  5
B383
330
18
100
AcDbEntity
  8
01
100
AcDbLine
 10
5195.956220633211
 20
-310.2182542312593
 30
0.0
 11
5197.614164358797
 21
-309.852211140439
 31
0.0
  0
LINE
  5
B384
330
18
100
AcDbEntity
  8
01
100
AcDbLine
 10
5197.614164358797
 20
-309.852211140439
 30
0.0
 11
5199.243268973055
 21
-309.3736115920991
 31
0.0
  0
LINE
  5
B385
330
18
100
AcDbEntity
  8
01
100
AcDbLine
 10
5199.243268973055
 20
-309.3736115920991
 30
0.0
 11
5200.840085989656
 21
-308.7962266433686
 31
0.0
  0
LINE
  5
B386
330
18
100
AcDbEntity
  8
01
100
AcDbLine
 10
5200.840085989656
 20
-308.7962266433686
 30
0.0
 11
5202.598356253328
 21
-308.0376893508882
 31
0.0
  0
LINE
  5
B387
330
18
100
AcDbEntity
  8
01
100
AcDbLine
 10
5190.886014944735
 20
-294.1512528884858
 30
0.0
 11
5192.583204275789
 21
-294.2078858840913
 31
0.0
  0
LINE
  5
B388
330
18
100
AcDbEntity
  8
01
100
AcDbLine
 10
5192.583204275789
 20
-294.2078858840913
 30
0.0
 11
5194.276044851961
 21
-294.3397447097749
 31
0.0
  0
LINE
  5
B389
330
18
100
AcDbEntity
  8
01
100
AcDbLine
 10
5194.276044851961
 20
-294.3397447097749
 30
0.0
 11
5195.956220633211
 21
-294.5842515457124
 31
0.0
  0
LINE
  5
B38A
330
18
100
AcDbEntity
  8
01
100
AcDbLine
 10
5195.956220633211
 20
-294.5842515457124
 30
0.0
 11
5197.614164358797
 21
-294.9502946365327
 31
0.0
  0
LINE
  5
B38B
330
18
100
AcDbEntity
  8
01
100
AcDbLine
 10
5197.614164358797
 20
-294.9502946365327
 30
0.0
 11
5199.243268973055
 21
-295.4288941848725
 31
0.0
  0
LINE
  5
B38C
330
18
100
AcDbEntity
  8
01
100
AcDbLine
 10
5199.243268973055
 20
-295.4288941848725
 30
0.0
 11
5200.840085989656
 21
-296.006279133603
 31
0.0
  0
LINE
  5
B38D
330
18
100
AcDbEntity
  8
01
100
AcDbLine
 10
5200.840085989656
 20
-296.006279133603
 30
0.0
 11
5202.598356253328
 21
-296.7648164260835
 31
0.0
  0
LINE
  5
B38E
330
18
100
AcDbEntity
  8
01
100
AcDbLine
 10
5078.288038260164
 20
-313.3971101272554
 30
0.0
 11
5078.316282278719
 21
-313.396530293271
 31
0.0
  0
LINE
  5
B38F
330
18
100
AcDbEntity
  8
01
100
AcDbLine
 10
5078.316282278719
 20
-313.396530293271
 30
0.0
 11
5078.430715567293
 21
-313.3942109573335
 31
0.0
  0
LINE
  5
B390
330
18
100
AcDbEntity
  8
01
100
AcDbLine
 10
5078.430715567293
 20
-313.3942109573335
 30
0.0
 11
5078.651510245028
 21
-313.3897325027436
 31
0.0
  0
LINE
  5
B391
330
18
100
AcDbEntity
  8
01
100
AcDbLine
 10
5078.651510245028
 20
-313.3897325027436
 30
0.0
 11
5078.972959524813
 21
-313.3831788528413
 31
0.0
  0
LINE
  5
B392
330
18
100
AcDbEntity
  8
01
100
AcDbLine
 10
5078.972959524813
 20
-313.3831788528413
 30
0.0
 11
5079.382497793856
 21
-313.3747178543061
 31
0.0
  0
LINE
  5
B393
330
18
100
AcDbEntity
  8
01
100
AcDbLine
 10
5079.382497793856
 20
-313.3747178543061
 30
0.0
 11
5079.867628103914
 21
-313.3644792068452
 31
0.0
  0
LINE
  5
B394
330
18
100
AcDbEntity
  8
01
100
AcDbLine
 10
5079.867628103914
 20
-313.3644792068452
 30
0.0
 11
5080.415182120028
 21
-313.3525773513765
 31
0.0
  0
LINE
  5
B395
330
18
100
AcDbEntity
  8
01
100
AcDbLine
 10
5080.415182120028
 20
-313.3525773513765
 30
0.0
 11
5081.006086355867
 21
-313.3392259109468
 31
0.0
  0
LINE
  5
B396
330
18
100
AcDbEntity
  8
01
100
AcDbLine
 10
5081.006086355867
 20
-313.3392259109468
 30
0.0
 11
5081.61874962491
 21
-313.3248063552827
 31
0.0
  0
LINE
  5
B397
330
18
100
AcDbEntity
  8
01
100
AcDbLine
 10
5081.61874962491
 20
-313.3248063552827
 30
0.0
 11
5082.304563528719
 21
-313.3081208694429
 31
0.0
  0
LINE
  5
B398
330
18
100
AcDbEntity
  8
01
100
AcDbLine
 10
5078.288038260164
 20
-291.4053956497163
 30
0.0
 11
5078.316282278719
 21
-291.4059754837007
 31
0.0
  0
LINE
  5
B399
330
18
100
AcDbEntity
  8
01
100
AcDbLine
 10
5078.316282278719
 20
-291.4059754837007
 30
0.0
 11
5078.430715567293
 21
-291.4082948196382
 31
0.0
  0
LINE
  5
B39A
330
18
100
AcDbEntity
  8
01
100
AcDbLine
 10
5078.430715567293
 20
-291.4082948196382
 30
0.0
 11
5078.651510245028
 21
-291.412773274228
 31
0.0
  0
LINE
  5
B39B
330
18
100
AcDbEntity
  8
01
100
AcDbLine
 10
5078.651510245028
 20
-291.412773274228
 30
0.0
 11
5078.972959524813
 21
-291.4193269241304
 31
0.0
  0
LINE
  5
B39C
330
18
100
AcDbEntity
  8
01
100
AcDbLine
 10
5078.972959524813
 20
-291.4193269241304
 30
0.0
 11
5079.382497793856
 21
-291.4277879226655
 31
0.0
  0
LINE
  5
B39D
330
18
100
AcDbEntity
  8
01
100
AcDbLine
 10
5079.382497793856
 20
-291.4277879226655
 30
0.0
 11
5079.867628103914
 21
-291.4380265701265
 31
0.0
  0
LINE
  5
B39E
330
18
100
AcDbEntity
  8
01
100
AcDbLine
 10
5079.867628103914
 20
-291.4380265701265
 30
0.0
 11
5080.415182120028
 21
-291.4499284255952
 31
0.0
  0
LINE
  5
B39F
330
18
100
AcDbEntity
  8
01
100
AcDbLine
 10
5080.415182120028
 20
-291.4499284255952
 30
0.0
 11
5081.006086355867
 21
-291.4632798660249
 31
0.0
  0
LINE
  5
B3A0
330
18
100
AcDbEntity
  8
01
100
AcDbLine
 10
5081.006086355867
 20
-291.4632798660249
 30
0.0
 11
5081.61874962491
 21
-291.477699421689
 31
0.0
  0
LINE
  5
B3A1
330
18
100
AcDbEntity
  8
01
100
AcDbLine
 10
5081.61874962491
 20
-291.477699421689
 30
0.0
 11
5082.304563528719
 21
-291.4943849075288
 31
0.0
  0
LINE
  5
B3A2
330
18
100
AcDbEntity
  8
01
100
AcDbLine
 10
5068.885976797761
 20
-207.4025671399048
 30
0.0
 11
5068.203397757234
 21
-207.3864843762329
 31
0.0
  0
LINE
  5
B3A3
330
18
100
AcDbEntity
  8
01
100
AcDbLine
 10
5068.203397757234
 20
-207.3864843762329
 30
0.0
 11
5067.485738760652
 21
-207.2862493908814
 31
0.0
  0
LINE
  5
B3A4
330
18
100
AcDbEntity
  8
01
100
AcDbLine
 10
5067.485738760652
 20
-207.2862493908814
 30
0.0
 11
5066.784742361726
 21
-207.0657751477173
 31
0.0
  0
LINE
  5
B3A5
330
18
100
AcDbEntity
  8
01
100
AcDbLine
 10
5066.784742361726
 20
-207.0657751477173
 30
0.0
 11
5066.134763724031
 21
-206.7329046643189
 31
0.0
  0
LINE
  5
B3A6
330
18
100
AcDbEntity
  8
01
100
AcDbLine
 10
5066.134763724031
 20
-206.7329046643189
 30
0.0
 11
5065.549322134675
 21
-206.3063146984986
 31
0.0
  0
LINE
  5
B3A7
330
18
100
AcDbEntity
  8
01
100
AcDbLine
 10
5065.549322134675
 20
-206.3063146984986
 30
0.0
 11
5065.034688955964
 21
-205.7999212658814
 31
0.0
  0
LINE
  5
B3A8
330
18
100
AcDbEntity
  8
01
100
AcDbLine
 10
5065.034688955964
 20
-205.7999212658814
 30
0.0
 11
5064.598669058503
 21
-205.2221167004517
 31
0.0
  0
LINE
  5
B3A9
330
18
100
AcDbEntity
  8
01
100
AcDbLine
 10
5064.598669058503
 20
-205.2221167004517
 30
0.0
 11
5064.254529959382
 21
-204.578882447522
 31
0.0
  0
LINE
  5
B3AA
330
18
100
AcDbEntity
  8
01
100
AcDbLine
 10
5064.254529959382
 20
-204.578882447522
 30
0.0
 11
5064.020681387605
 21
-203.8822729504517
 31
0.0
  0
LINE
  5
B3AB
330
18
100
AcDbEntity
  8
01
100
AcDbLine
 10
5064.020681387605
 20
-203.8822729504517
 30
0.0
 11
5063.907758719148
 21
-203.1637518322876
 31
0.0
  0
LINE
  5
B3AC
330
18
100
AcDbEntity
  8
01
100
AcDbLine
 10
5063.907758719148
 20
-203.1637518322876
 30
0.0
 11
5063.885976797761
 21
-202.4025671399048
 31
0.0
  0
LINE
  5
B3AD
330
18
100
AcDbEntity
  8
01
100
AcDbLine
 10
5202.885984427156
 20
-202.4025671399048
 30
0.0
 11
5202.86507988614
 21
-203.1506445324829
 31
0.0
  0
LINE
  5
B3AE
330
18
100
AcDbEntity
  8
01
100
AcDbLine
 10
5202.86507988614
 20
-203.1506445324829
 30
0.0
 11
5202.737821585359
 21
-203.9365026867798
 31
0.0
  0
LINE
  5
B3AF
330
18
100
AcDbEntity
  8
01
100
AcDbLine
 10
5202.737821585359
 20
-203.9365026867798
 30
0.0
 11
5202.466520315827
 21
-204.6916601574829
 31
0.0
  0
LINE
  5
B3B0
330
18
100
AcDbEntity
  8
01
100
AcDbLine
 10
5202.466520315827
 20
-204.6916601574829
 30
0.0
 11
5202.067197806062
 21
-205.3802587902954
 31
0.0
  0
LINE
  5
B3B1
330
18
100
AcDbEntity
  8
01
100
AcDbLine
 10
5202.067197806062
 20
-205.3802587902954
 30
0.0
 11
5201.562894827546
 21
-205.9883215344361
 31
0.0
  0
LINE
  5
B3B2
330
18
100
AcDbEntity
  8
01
100
AcDbLine
 10
5201.562894827546
 20
-205.9883215344361
 30
0.0
 11
5200.968412405671
 21
-206.5081427014283
 31
0.0
  0
LINE
  5
B3B3
330
18
100
AcDbEntity
  8
01
100
AcDbLine
 10
5200.968412405671
 20
-206.5081427014283
 30
0.0
 11
5200.292692190827
 21
-206.9259130871704
 31
0.0
  0
LINE
  5
B3B4
330
18
100
AcDbEntity
  8
01
100
AcDbLine
 10
5200.292692190827
 20
-206.9259130871704
 30
0.0
 11
5199.546384817781
 21
-207.2198583996704
 31
0.0
  0
LINE
  5
B3B5
330
18
100
AcDbEntity
  8
01
100
AcDbLine
 10
5199.546384817781
 20
-207.2198583996704
 30
0.0
 11
5198.762083059968
 21
-207.3701879895142
 31
0.0
  0
LINE
  5
B3B6
330
18
100
AcDbEntity
  8
01
100
AcDbLine
 10
5198.762083059968
 20
-207.3701879895142
 30
0.0
 11
5198.003339773835
 21
-207.4027197277954
 31
0.0
  0
LINE
  5
B3B7
330
18
100
AcDbEntity
  8
01
100
AcDbLine
 10
5198.003339773835
 20
-207.4027197277954
 30
0.0
 11
5197.291257864656
 21
-207.4025366223267
 31
0.0
  0
LINE
  5
B3B8
330
18
100
AcDbEntity
  8
01
100
AcDbLine
 10
5197.291257864656
 20
-207.4025366223267
 30
0.0
 11
5196.581632620515
 21
-207.4025671399048
 31
0.0
  0
LINE
  5
B3B9
330
18
100
AcDbEntity
  8
01
100
AcDbLine
 10
5196.581632620515
 20
-207.4025671399048
 30
0.0
 11
5195.871305472077
 21
-207.4025823986939
 31
0.0
  0
LINE
  5
B3BA
330
18
100
AcDbEntity
  8
01
100
AcDbLine
 10
5195.871305472077
 20
-207.4025823986939
 30
0.0
 11
5195.161024100007
 21
-207.402612916272
 31
0.0
  0
LINE
  5
B3BB
330
18
100
AcDbEntity
  8
01
100
AcDbLine
 10
5195.161024100007
 20
-207.402612916272
 30
0.0
 11
5194.45101738614
 21
-207.402612916272
 31
0.0
  0
LINE
  5
B3BC
330
18
100
AcDbEntity
  8
01
100
AcDbLine
 10
5194.45101738614
 20
-207.402612916272
 30
0.0
 11
5193.740934378327
 21
-207.4025366223267
 31
0.0
  0
LINE
  5
B3BD
330
18
100
AcDbEntity
  8
01
100
AcDbLine
 10
5193.740934378327
 20
-207.4025366223267
 30
0.0
 11
5193.030744558992
 21
-207.4024145520142
 31
0.0
  0
LINE
  5
B3BE
330
18
100
AcDbEntity
  8
01
100
AcDbLine
 10
5193.030744558992
 20
-207.4024145520142
 30
0.0
 11
5192.320508963288
 21
-207.4023229992798
 31
0.0
  0
LINE
  5
B3BF
330
18
100
AcDbEntity
  8
01
100
AcDbLine
 10
5192.320508963288
 20
-207.4023229992798
 30
0.0
 11
5191.610288626374
 21
-207.4023382580689
 31
0.0
  0
LINE
  5
B3C0
330
18
100
AcDbEntity
  8
01
100
AcDbLine
 10
5191.610288626374
 20
-207.4023382580689
 30
0.0
 11
5190.885725027742
 21
-207.4025671399048
 31
0.0
  0
LINE
  5
B3C1
330
18
100
AcDbEntity
  8
01
100
AcDbLine
 10
5190.885557181062
 20
-183.4025671399046
 30
0.0
 11
5191.595624930085
 21
-183.4027349865843
 31
0.0
  0
LINE
  5
B3C2
330
18
100
AcDbEntity
  8
01
100
AcDbLine
 10
5191.595624930085
 20
-183.4027349865843
 30
0.0
 11
5192.305723196687
 21
-183.402673951428
 31
0.0
  0
LINE
  5
B3C3
330
18
100
AcDbEntity
  8
01
100
AcDbLine
 10
5192.305723196687
 20
-183.402673951428
 30
0.0
 11
5193.015851980867
 21
-183.4025366223265
 31
0.0
  0
LINE
  5
B3C4
330
18
100
AcDbEntity
  8
01
100
AcDbLine
 10
5193.015851980867
 20
-183.4025366223265
 30
0.0
 11
5193.726026541413
 21
-183.4024603283812
 31
0.0
  0
LINE
  5
B3C5
330
18
100
AcDbEntity
  8
01
100
AcDbLine
 10
5193.726026541413
 20
-183.4024603283812
 30
0.0
 11
5194.43620110196
 21
-183.4025366223265
 31
0.0
  0
LINE
  5
B3C6
330
18
100
AcDbEntity
  8
01
100
AcDbLine
 10
5194.43620110196
 20
-183.4025366223265
 30
0.0
 11
5195.146284109773
 21
-183.4026129162718
 31
0.0
  0
LINE
  5
B3C7
330
18
100
AcDbEntity
  8
01
100
AcDbLine
 10
5195.146284109773
 20
-183.4026129162718
 30
0.0
 11
5195.856306082429
 21
-183.4024908459593
 31
0.0
  0
LINE
  5
B3C8
330
18
100
AcDbEntity
  8
01
100
AcDbLine
 10
5195.856306082429
 20
-183.4024908459593
 30
0.0
 11
5196.566755301179
 21
-183.402658692639
 31
0.0
  0
LINE
  5
B3C9
330
18
100
AcDbEntity
  8
01
100
AcDbLine
 10
5196.566755301179
 20
-183.402658692639
 30
0.0
 11
5197.276304251374
 21
-183.4025213635374
 31
0.0
  0
LINE
  5
B3CA
330
18
100
AcDbEntity
  8
01
100
AcDbLine
 10
5197.276304251374
 20
-183.4025213635374
 30
0.0
 11
5197.988721853913
 21
-183.4025823986937
 31
0.0
  0
LINE
  5
B3CB
330
18
100
AcDbEntity
  8
01
100
AcDbLine
 10
5197.988721853913
 20
-183.4025823986937
 30
0.0
 11
5198.745420462312
 21
-183.4332067883421
 31
0.0
  0
LINE
  5
B3CC
330
18
100
AcDbEntity
  8
01
100
AcDbLine
 10
5198.745420462312
 20
-183.4332067883421
 30
0.0
 11
5199.529905325593
 21
-183.5805914318968
 31
0.0
  0
LINE
  5
B3CD
330
18
100
AcDbEntity
  8
01
100
AcDbLine
 10
5199.529905325593
 20
-183.5805914318968
 30
0.0
 11
5200.277433401765
 21
-183.8715612805296
 31
0.0
  0
LINE
  5
B3CE
330
18
100
AcDbEntity
  8
01
100
AcDbLine
 10
5200.277433401765
 20
-183.8715612805296
 30
0.0
 11
5200.95475578946
 21
-184.2868902600218
 31
0.0
  0
LINE
  5
B3CF
330
18
100
AcDbEntity
  8
01
100
AcDbLine
 10
5200.95475578946
 20
-184.2868902600218
 30
0.0
 11
5201.550916678132
 21
-184.8044683850218
 31
0.0
  0
LINE
  5
B3D0
330
18
100
AcDbEntity
  8
01
100
AcDbLine
 10
5201.550916678132
 20
-184.8044683850218
 30
0.0
 11
5202.057386404695
 21
-185.4109289563108
 31
0.0
  0
LINE
  5
B3D1
330
18
100
AcDbEntity
  8
01
100
AcDbLine
 10
5202.057386404695
 20
-185.4109289563108
 30
0.0
 11
5202.459409720124
 21
-186.0981390393187
 31
0.0
  0
LINE
  5
B3D2
330
18
100
AcDbEntity
  8
01
100
AcDbLine
 10
5202.459409720124
 20
-186.0981390393187
 30
0.0
 11
5202.733167654695
 21
-186.8517248547483
 31
0.0
  0
LINE
  5
B3D3
330
18
100
AcDbEntity
  8
01
100
AcDbLine
 10
5202.733167654695
 20
-186.8517248547483
 30
0.0
 11
5202.863691336335
 21
-187.6377508557249
 31
0.0
  0
LINE
  5
B3D4
330
18
100
AcDbEntity
  8
01
100
AcDbLine
 10
5202.863691336335
 20
-187.6377508557249
 30
0.0
 11
5202.885984427156
 21
-188.4025671399048
 31
0.0
  0
LINE
  5
B3D5
330
18
100
AcDbEntity
  8
01
100
AcDbLine
 10
5091.886350638093
 20
-180.5359442150999
 30
0.0
 11
5091.92879295987
 21
-181.1036169445921
 31
0.0
  0
LINE
  5
B3D6
330
18
100
AcDbEntity
  8
01
100
AcDbLine
 10
5091.92879295987
 20
-181.1036169445921
 30
0.0
 11
5092.072973257722
 21
-181.6258795178343
 31
0.0
  0
LINE
  5
B3D7
330
18
100
AcDbEntity
  8
01
100
AcDbLine
 10
5092.072973257722
 20
-181.6258795178343
 30
0.0
 11
5092.324216849031
 21
-182.1106970227171
 31
0.0
  0
LINE
  5
B3D8
330
18
100
AcDbEntity
  8
01
100
AcDbLine
 10
5092.324216849031
 20
-182.1106970227171
 30
0.0
 11
5092.668943411531
 21
-182.5428411877562
 31
0.0
  0
LINE
  5
B3D9
330
18
100
AcDbEntity
  8
01
100
AcDbLine
 10
5092.668943411531
 20
-182.5428411877562
 30
0.0
 11
5093.0886287753
 21
-182.9036962902952
 31
0.0
  0
LINE
  5
B3DA
330
18
100
AcDbEntity
  8
01
100
AcDbLine
 10
5093.0886287753
 20
-182.9036962902952
 30
0.0
 11
5093.56446648282
 21
-183.1745245373655
 31
0.0
  0
LINE
  5
B3DB
330
18
100
AcDbEntity
  8
01
100
AcDbLine
 10
5093.56446648282
 20
-183.1745245373655
 30
0.0
 11
5094.079916006745
 21
-183.3401281750608
 31
0.0
  0
LINE
  5
B3DC
330
18
100
AcDbEntity
  8
01
100
AcDbLine
 10
5094.079916006745
 20
-183.3401281750608
 30
0.0
 11
5094.728704458894
 21
-183.4019720471312
 31
0.0
  0
LINE
  5
B3DD
330
18
100
AcDbEntity
  8
01
100
AcDbLine
 10
4945.730827640326
 20
-313.3959905136081
 30
0.0
 11
4945.680534671576
 21
-313.3876849639865
 31
0.0
  0
LINE
  5
B3DE
330
18
100
AcDbEntity
  8
01
100
AcDbLine
 10
4945.680534671576
 20
-313.3876849639865
 30
0.0
 11
4945.513511966498
 21
-313.3604823577854
 31
0.0
  0
LINE
  5
B3DF
330
18
100
AcDbEntity
  8
01
100
AcDbLine
 10
4945.513511966498
 20
-313.3604823577854
 30
0.0
 11
4945.242531131537
 21
-313.3193465698215
 31
0.0
  0
LINE
  5
B3E0
330
18
100
AcDbEntity
  8
01
100
AcDbLine
 10
4945.242531131537
 20
-313.3193465698215
 30
0.0
 11
4944.874840091498
 21
-313.2695209014865
 31
0.0
  0
LINE
  5
B3E1
330
18
100
AcDbEntity
  8
01
100
AcDbLine
 10
4944.874840091498
 20
-313.2695209014865
 30
0.0
 11
4944.422249149115
 21
-313.2173835266086
 31
0.0
  0
LINE
  5
B3E2
330
18
100
AcDbEntity
  8
01
100
AcDbLine
 10
4944.422249149115
 20
-313.2173835266086
 30
0.0
 11
4943.898857425483
 21
-313.1703034866306
 31
0.0
  0
LINE
  5
B3E3
330
18
100
AcDbEntity
  8
01
100
AcDbLine
 10
4943.898857425483
 20
-313.1703034866306
 30
0.0
 11
4943.322059940131
 21
-313.1344233978244
 31
0.0
  0
LINE
  5
B3E4
330
18
100
AcDbEntity
  8
01
100
AcDbLine
 10
4943.322059940131
 20
-313.1344233978244
 30
0.0
 11
4942.711769412787
 21
-313.1148377883884
 31
0.0
  0
LINE
  5
B3E5
330
18
100
AcDbEntity
  8
01
100
AcDbLine
 10
4942.711769412787
 20
-313.1148377883884
 30
0.0
 11
4942.089363406928
 21
-313.1146518218967
 31
0.0
  0
LINE
  5
B3E6
330
18
100
AcDbEntity
  8
01
100
AcDbLine
 10
4942.089363406928
 20
-313.1146518218967
 30
0.0
 11
4941.477806400092
 21
-313.1335441101047
 31
0.0
  0
LINE
  5
B3E7
330
18
100
AcDbEntity
  8
01
100
AcDbLine
 10
4941.477806400092
 20
-313.1335441101047
 30
0.0
 11
4940.899193118842
 21
-313.1691409576389
 31
0.0
  0
LINE
  5
B3E8
330
18
100
AcDbEntity
  8
01
100
AcDbLine
 10
4940.899193118842
 20
-313.1691409576389
 30
0.0
 11
4940.372825931342
 21
-313.2159930694553
 31
0.0
  0
LINE
  5
B3E9
330
18
100
AcDbEntity
  8
01
100
AcDbLine
 10
4940.372825931342
 20
-313.2159930694553
 30
0.0
 11
4939.916664432319
 21
-313.2678510177585
 31
0.0
  0
LINE
  5
B3EA
330
18
100
AcDbEntity
  8
01
100
AcDbLine
 10
4939.916664432319
 20
-313.2678510177585
 30
0.0
 11
4939.544502567084
 21
-313.3178407180759
 31
0.0
  0
LINE
  5
B3EB
330
18
100
AcDbEntity
  8
01
100
AcDbLine
 10
4939.544502567084
 20
-313.3178407180759
 30
0.0
 11
4939.268226932319
 21
-313.359167240903
 31
0.0
  0
LINE
  5
B3EC
330
18
100
AcDbEntity
  8
01
100
AcDbLine
 10
4939.268226932319
 20
-313.359167240903
 30
0.0
 11
4939.097755740912
 21
-313.3865796554538
 31
0.0
  0
LINE
  5
B3ED
330
18
100
AcDbEntity
  8
01
100
AcDbLine
 10
4939.097755740912
 20
-313.3865796554538
 30
0.0
 11
4939.037514041694
 21
-313.396788739011
 31
0.0
  0
LINE
  5
B3EE
330
18
100
AcDbEntity
  8
01
100
AcDbLine
 10
4976.885948489936
 20
-313.4012519348117
 30
0.0
 11
4977.7099383581
 21
-313.4006396759006
 31
0.0
  0
LINE
  5
B3EF
330
18
100
AcDbEntity
  8
01
100
AcDbLine
 10
4977.7099383581
 20
-313.4006396759006
 30
0.0
 11
4978.528343509467
 21
-313.3972264755222
 31
0.0
  0
LINE
  5
B3F0
330
18
100
AcDbEntity
  8
01
100
AcDbLine
 10
4978.528343509467
 20
-313.3972264755222
 30
0.0
 11
4979.317131351264
 21
-313.3900243270847
 31
0.0
  0
LINE
  5
B3F1
330
18
100
AcDbEntity
  8
01
100
AcDbLine
 10
4979.317131351264
 20
-313.3900243270847
 30
0.0
 11
4980.056526492865
 21
-313.3786231506321
 31
0.0
  0
LINE
  5
B3F2
330
18
100
AcDbEntity
  8
01
100
AcDbLine
 10
4980.056526492865
 20
-313.3786231506321
 30
0.0
 11
4980.763527225287
 21
-313.361008786008
 31
0.0
  0
LINE
  5
B3F3
330
18
100
AcDbEntity
  8
01
100
AcDbLine
 10
4980.763527225287
 20
-313.361008786008
 30
0.0
 11
4981.537269901069
 21
-313.3264771926853
 31
0.0
  0
LINE
  5
B3F4
330
18
100
AcDbEntity
  8
01
100
AcDbLine
 10
4981.537269901069
 20
-313.3264771926853
 30
0.0
 11
4982.309562991889
 21
-313.2630731094333
 31
0.0
  0
LINE
  5
B3F5
330
18
100
AcDbEntity
  8
01
100
AcDbLine
 10
4982.309562991889
 20
-313.2630731094333
 30
0.0
 11
4982.983360599311
 21
-313.177454136655
 31
0.0
  0
LINE
  5
B3F6
330
18
100
AcDbEntity
  8
01
100
AcDbLine
 10
4982.983360599311
 20
-313.177454136655
 30
0.0
 11
4983.611061404975
 21
-313.0703469741794
 31
0.0
  0
LINE
  5
B3F7
330
18
100
AcDbEntity
  8
01
100
AcDbLine
 10
4983.611061404975
 20
-313.0703469741794
 30
0.0
 11
4984.21530945185
 21
-312.9415618408176
 31
0.0
  0
LINE
  5
B3F8
330
18
100
AcDbEntity
  8
01
100
AcDbLine
 10
4984.21530945185
 20
-312.9415618408176
 30
0.0
 11
4984.805107425483
 21
-312.7910396087619
 31
0.0
  0
LINE
  5
B3F9
330
18
100
AcDbEntity
  8
01
100
AcDbLine
 10
4984.805107425483
 20
-312.7910396087619
 30
0.0
 11
4985.384666751655
 21
-312.6188193786594
 31
0.0
  0
LINE
  5
B3FA
330
18
100
AcDbEntity
  8
01
100
AcDbLine
 10
4985.384666751655
 20
-312.6188193786594
 30
0.0
 11
4985.956016849311
 21
-312.4249831665012
 31
0.0
  0
LINE
  5
B3FB
330
18
100
AcDbEntity
  8
01
100
AcDbLine
 10
4985.956016849311
 20
-312.4249831665012
 30
0.0
 11
4986.520271610053
 21
-312.2096387374851
 31
0.0
  0
LINE
  5
B3FC
330
18
100
AcDbEntity
  8
01
100
AcDbLine
 10
4986.520271610053
 20
-312.2096387374851
 30
0.0
 11
4987.078026126655
 21
-311.9729062545749
 31
0.0
  0
LINE
  5
B3FD
330
18
100
AcDbEntity
  8
01
100
AcDbLine
 10
4987.078026126655
 20
-311.9729062545749
 30
0.0
 11
4987.629494022162
 21
-311.7149335372898
 31
0.0
  0
LINE
  5
B3FE
330
18
100
AcDbEntity
  8
01
100
AcDbLine
 10
4987.629494022162
 20
-311.7149335372898
 30
0.0
 11
4988.174766849311
 21
-311.4358731735202
 31
0.0
  0
LINE
  5
B3FF
330
18
100
AcDbEntity
  8
01
100
AcDbLine
 10
4988.174766849311
 20
-311.4358731735202
 30
0.0
 11
4988.713875125678
 21
-311.1358720291111
 31
0.0
  0
LINE
  5
B400
330
18
100
AcDbEntity
  8
01
100
AcDbLine
 10
4988.713875125678
 20
-311.1358720291111
 30
0.0
 11
4989.246681522162
 21
-310.815074108884
 31
0.0
  0
LINE
  5
B401
330
18
100
AcDbEntity
  8
01
100
AcDbLine
 10
4989.246681522162
 20
-310.815074108884
 30
0.0
 11
4989.77307922724
 21
-310.4736224639865
 31
0.0
  0
LINE
  5
B402
330
18
100
AcDbEntity
  8
01
100
AcDbLine
 10
4989.77307922724
 20
-310.4736224639865
 30
0.0
 11
4990.2929461706
 21
-310.1116572845432
 31
0.0
  0
LINE
  5
B403
330
18
100
AcDbEntity
  8
01
100
AcDbLine
 10
4990.2929461706
 20
-310.1116572845432
 30
0.0
 11
4990.80612976435
 21
-309.7292891967746
 31
0.0
  0
LINE
  5
B404
330
18
100
AcDbEntity
  8
01
100
AcDbLine
 10
4990.80612976435
 20
-309.7292891967746
 30
0.0
 11
4991.312507938178
 21
-309.3265944946262
 31
0.0
  0
LINE
  5
B405
330
18
100
AcDbEntity
  8
01
100
AcDbLine
 10
4991.312507938178
 20
-309.3265944946262
 30
0.0
 11
4991.81263000849
 21
-308.902982853696
 31
0.0
  0
LINE
  5
B406
330
18
100
AcDbEntity
  8
01
100
AcDbLine
 10
4991.81263000849
 20
-308.902982853696
 30
0.0
 11
4992.32044250849
 21
-308.4453202712986
 31
0.0
  0
LINE
  5
B407
330
18
100
AcDbEntity
  8
01
100
AcDbLine
 10
4976.885948489936
 20
-291.4012538421604
 30
0.0
 11
4977.7099383581
 21
-291.4018665779087
 31
0.0
  0
LINE
  5
B408
330
18
100
AcDbEntity
  8
01
100
AcDbLine
 10
4977.7099383581
 20
-291.4018665779087
 30
0.0
 11
4978.528343509467
 21
-291.4052793014499
 31
0.0
  0
LINE
  5
B409
330
18
100
AcDbEntity
  8
01
100
AcDbLine
 10
4978.528343509467
 20
-291.4052793014499
 30
0.0
 11
4979.317131351264
 21
-291.4124814498874
 31
0.0
  0
LINE
  5
B40A
330
18
100
AcDbEntity
  8
01
100
AcDbLine
 10
4979.317131351264
 20
-291.4124814498874
 30
0.0
 11
4980.056526492865
 21
-291.4238826263401
 31
0.0
  0
LINE
  5
B40B
330
18
100
AcDbEntity
  8
01
100
AcDbLine
 10
4980.056526492865
 20
-291.4238826263401
 30
0.0
 11
4980.763527225287
 21
-291.4414974678012
 31
0.0
  0
LINE
  5
B40C
330
18
100
AcDbEntity
  8
01
100
AcDbLine
 10
4980.763527225287
 20
-291.4414974678012
 30
0.0
 11
4981.537269901069
 21
-291.4760285842868
 31
0.0
  0
LINE
  5
B40D
330
18
100
AcDbEntity
  8
01
100
AcDbLine
 10
4981.537269901069
 20
-291.4760285842868
 30
0.0
 11
4982.309562991889
 21
-291.5394331443759
 31
0.0
  0
LINE
  5
B40E
330
18
100
AcDbEntity
  8
01
100
AcDbLine
 10
4982.309562991889
 20
-291.5394331443759
 30
0.0
 11
4982.983360599311
 21
-291.62505116348
 31
0.0
  0
LINE
  5
B40F
330
18
100
AcDbEntity
  8
01
100
AcDbLine
 10
4982.983360599311
 20
-291.62505116348
 30
0.0
 11
4983.611061404975
 21
-291.7321588027927
 31
0.0
  0
LINE
  5
B410
330
18
100
AcDbEntity
  8
01
100
AcDbLine
 10
4983.611061404975
 20
-291.7321588027927
 30
0.0
 11
4984.21530945185
 21
-291.8609434593174
 31
0.0
  0
LINE
  5
B411
330
18
100
AcDbEntity
  8
01
100
AcDbLine
 10
4984.21530945185
 20
-291.8609434593174
 30
0.0
 11
4984.805107425483
 21
-292.011465691373
 31
0.0
  0
LINE
  5
B412
330
18
100
AcDbEntity
  8
01
100
AcDbLine
 10
4984.805107425483
 20
-292.011465691373
 30
0.0
 11
4985.384666751655
 21
-292.1836859214756
 31
0.0
  0
LINE
  5
B413
330
18
100
AcDbEntity
  8
01
100
AcDbLine
 10
4985.384666751655
 20
-292.1836859214756
 30
0.0
 11
4985.956016849311
 21
-292.3775221336338
 31
0.0
  0
LINE
  5
B414
330
18
100
AcDbEntity
  8
01
100
AcDbLine
 10
4985.956016849311
 20
-292.3775221336338
 30
0.0
 11
4986.520271610053
 21
-292.592867039487
 31
0.0
  0
LINE
  5
B415
330
18
100
AcDbEntity
  8
01
100
AcDbLine
 10
4986.520271610053
 20
-292.592867039487
 30
0.0
 11
4987.078026126655
 21
-292.82959904556
 31
0.0
  0
LINE
  5
B416
330
18
100
AcDbEntity
  8
01
100
AcDbLine
 10
4987.078026126655
 20
-292.82959904556
 30
0.0
 11
4987.629494022162
 21
-293.0875717628452
 31
0.0
  0
LINE
  5
B417
330
18
100
AcDbEntity
  8
01
100
AcDbLine
 10
4987.629494022162
 20
-293.0875717628452
 30
0.0
 11
4988.174766849311
 21
-293.3666326034519
 31
0.0
  0
LINE
  5
B418
330
18
100
AcDbEntity
  8
01
100
AcDbLine
 10
4988.174766849311
 20
-293.3666326034519
 30
0.0
 11
4988.713875125678
 21
-293.6666337478611
 31
0.0
  0
LINE
  5
B419
330
18
100
AcDbEntity
  8
01
100
AcDbLine
 10
4988.713875125678
 20
-293.6666337478611
 30
0.0
 11
4989.246681522162
 21
-293.9874316680881
 31
0.0
  0
LINE
  5
B41A
330
18
100
AcDbEntity
  8
01
100
AcDbLine
 10
4989.246681522162
 20
-293.9874316680881
 30
0.0
 11
4989.77307922724
 21
-294.3288828361484
 31
0.0
  0
LINE
  5
B41B
330
18
100
AcDbEntity
  8
01
100
AcDbLine
 10
4989.77307922724
 20
-294.3288828361484
 30
0.0
 11
4990.2929461706
 21
-294.6908484924289
 31
0.0
  0
LINE
  5
B41C
330
18
100
AcDbEntity
  8
01
100
AcDbLine
 10
4990.2929461706
 20
-294.6908484924289
 30
0.0
 11
4990.80612976435
 21
-295.0732158649417
 31
0.0
  0
LINE
  5
B41D
330
18
100
AcDbEntity
  8
01
100
AcDbLine
 10
4990.80612976435
 20
-295.0732158649417
 30
0.0
 11
4991.312507938178
 21
-295.4759105670902
 31
0.0
  0
LINE
  5
B41E
330
18
100
AcDbEntity
  8
01
100
AcDbLine
 10
4991.312507938178
 20
-295.4759105670902
 30
0.0
 11
4991.81263000849
 21
-295.8995219696018
 31
0.0
  0
LINE
  5
B41F
330
18
100
AcDbEntity
  8
01
100
AcDbLine
 10
4991.81263000849
 20
-295.8995219696018
 30
0.0
 11
4992.32044250849
 21
-296.3571843135807
 31
0.0
  0
LINE
  5
B420
330
18
100
AcDbEntity
  8
01
  6
BYBLOCK
100
AcDbLine
 10
5042.189310811111
 20
-280.0012528884865
 30
0.0
 11
5042.885978705111
 21
-277.4012528884865
 31
0.0
  0
LINE
  5
B421
330
18
100
AcDbEntity
  8
01
  6
BYBLOCK
100
AcDbLine
 10
5042.885978705111
 20
-277.4012528884865
 30
0.0
 11
5043.58264659911
 21
-280.0012528884865
 31
0.0
  0
LINE
  5
B422
330
18
100
AcDbEntity
  8
01
  6
BYBLOCK
100
AcDbLine
 10
5042.885978705111
 20
-277.4012528884865
 30
0.0
 11
5042.885978705111
 21
-280.0012528884865
 31
0.0
  0
LINE
  5
B423
330
18
100
AcDbEntity
  8
01
  6
BYBLOCK
100
AcDbLine
 10
5043.58264659911
 20
-324.8012528884856
 30
0.0
 11
5042.885978705111
 21
-327.4012528884856
 31
0.0
  0
LINE
  5
B424
330
18
100
AcDbEntity
  8
01
  6
BYBLOCK
100
AcDbLine
 10
5042.885978705111
 20
-327.4012528884856
 30
0.0
 11
5042.189310811111
 21
-324.8012528884856
 31
0.0
  0
LINE
  5
B425
330
18
100
AcDbEntity
  8
01
  6
BYBLOCK
100
AcDbLine
 10
5042.885978705111
 20
-327.4012528884856
 30
0.0
 11
5042.885978705111
 21
-324.8012528884856
 31
0.0
  0
TEXT
  5
B426
330
18
100
AcDbEntity
  8
01
  6
CONTINUOUS
100
AcDbText
 10
5041.97597870511
 20
-310.6007557950861
 30
0.0
 40
4.55
  1
φ50
 50
90.0
100
AcDbText
1001
ACAD
1000
DSTYLE
1002
{
1070
     3
1000
φ<>
1070
    40
1040
1.3
1070
    45
1040
0.5
1002
}
  0
LINE
  5
B427
330
18
100
AcDbEntity
  8
1DIM
100
AcDbLine
 10
5180.641126702458
 20
-142.4025712015892
 30
0.0
 11
5219.185978705099
 21
-142.4025712015892
 31
0.0
1001
ACAD
1000
DSTYLE
1002
{
1070
    40
1040
1.3
1002
}
  0
LINE
  5
B428
330
18
100
AcDbEntity
  8
1DIM
100
AcDbLine
 10
5197.988721853913
 20
-183.4025823986937
 30
0.0
 11
5219.185978705099
 21
-183.4025823986937
 31
0.0
1001
ACAD
1000
DSTYLE
1002
{
1070
    40
1040
1.3
1002
}
  0
LINE
  5
B429
330
18
100
AcDbEntity
  8
1DIM
100
AcDbLine
 10
5217.885978705099
 20
-145.0025712015892
 30
0.0
 11
5217.885978705099
 21
-180.8025823986937
 31
0.0
1001
ACAD
1000
DSTYLE
1002
{
1070
    40
1040
1.3
1002
}
  0
LINE
  5
B42D
330
18
100
AcDbEntity
  8
1DIM
100
AcDbLine
 10
5180.641126702458
 20
-142.4025712015892
 30
0.0
 11
5229.185978705099
 21
-142.4025712015892
 31
0.0
1001
ACAD
1000
DSTYLE
1002
{
1070
    40
1040
1.3
1002
}
  0
LINE
  5
B42E
330
18
100
AcDbEntity
  8
1DIM
100
AcDbLine
 10
5198.003339773835
 20
-207.4027197277954
 30
0.0
 11
5229.185978705099
 21
-207.4027197277954
 31
0.0
1001
ACAD
1000
DSTYLE
1002
{
1070
    40
1040
1.3
1002
}
  0
LINE
  5
B42F
330
18
100
AcDbEntity
  8
1DIM
100
AcDbLine
 10
5227.885978705099
 20
-145.0025712015892
 30
0.0
 11
5227.885978705099
 21
-204.8027197277954
 31
0.0
1001
ACAD
1000
DSTYLE
1002
{
1070
    40
1040
1.3
1002
}
  0
LINE
  5
B433
330
18
100
AcDbEntity
  8
1DIM
100
AcDbLine
 10
5077.885978705111
 20
-163.9025712015892
 30
0.0
 11
5077.885978705111
 21
-223.7025711855358
 31
0.0
1001
ACAD
1000
DSTYLE
1002
{
1070
    40
1040
1.3
1002
}
  0
LINE
  5
B434
330
18
100
AcDbEntity
  8
1DIM
100
AcDbLine
 10
5202.885978705098
 20
-202.4025671399048
 30
0.0
 11
5202.885978705098
 21
-223.7025711855358
 31
0.0
1001
ACAD
1000
DSTYLE
1002
{
1070
    40
1040
1.3
1002
}
  0
LINE
  5
B435
330
18
100
AcDbEntity
  8
1DIM
100
AcDbLine
 10
5080.485978705111
 20
-222.4025711855357
 30
0.0
 11
5200.285978705097
 21
-222.4025711855357
 31
0.0
1001
ACAD
1000
DSTYLE
1002
{
1070
    40
1040
1.3
1002
}
  0
LINE
  5
B439
330
18
100
AcDbEntity
  8
1DIM
100
AcDbLine
 10
5063.88597870511
 20
-202.4025711849835
 30
0.0
 11
5063.88597870511
 21
-233.7025711855358
 31
0.0
1001
ACAD
1000
DSTYLE
1002
{
1070
    40
1040
1.3
1002
}
  0
LINE
  5
B43A
330
18
100
AcDbEntity
  8
1DIM
100
AcDbLine
 10
5202.885978705098
 20
-202.4025671399048
 30
0.0
 11
5202.885978705098
 21
-233.7025711855358
 31
0.0
1001
ACAD
1000
DSTYLE
1002
{
1070
    40
1040
1.3
1002
}
  0
LINE
  5
B43B
330
18
100
AcDbEntity
  8
1DIM
100
AcDbLine
 10
5066.48597870511
 20
-232.4025711855357
 30
0.0
 11
5200.285978705097
 21
-232.4025711855357
 31
0.0
1001
ACAD
1000
DSTYLE
1002
{
1070
    40
1040
1.3
1002
}
  0
LINE
  5
B43F
330
18
100
AcDbEntity
  8
1DIM
100
AcDbLine
 10
5192.583204275789
 20
-310.6229363906831
 30
0.0
 11
5229.185978705097
 21
-310.6229363906831
 31
0.0
1001
ACAD
1000
DSTYLE
1002
{
1070
    40
1040
1.3
1070
   271
1070
     1
1002
}
  0
LINE
  5
B440
330
18
100
AcDbEntity
  8
1DIM
100
AcDbLine
 10
5192.583204275789
 20
-294.2078858840913
 30
0.0
 11
5229.185978705097
 21
-294.2078858840913
 31
0.0
1001
ACAD
1000
DSTYLE
1002
{
1070
    40
1040
1.3
1070
   271
1070
     1
1002
}
  0
LINE
  5
B441
330
18
100
AcDbEntity
  8
1DIM
100
AcDbLine
 10
5227.885978705097
 20
-308.0229363906831
 30
0.0
 11
5227.885978705097
 21
-296.8078858840913
 31
0.0
1001
ACAD
1000
DSTYLE
1002
{
1070
    40
1040
1.3
1070
   271
1070
     1
1002
}
  0
LINE
  5
B445
330
18
100
AcDbEntity
  8
0
  6
BYBLOCK
100
AcDbLine
 10
5217.189310811099
 20
-145.0025712015892
 30
0.0
 11
5217.885978705099
 21
-142.4025712015892
 31
0.0
  0
LINE
  5
B446
330
18
100
AcDbEntity
  8
0
  6
BYBLOCK
100
AcDbLine
 10
5217.885978705099
 20
-142.4025712015892
 30
0.0
 11
5218.582646599099
 21
-145.0025712015892
 31
0.0
  0
LINE
  5
B447
330
18
100
AcDbEntity
  8
0
  6
BYBLOCK
100
AcDbLine
 10
5217.885978705099
 20
-142.4025712015892
 30
0.0
 11
5217.885978705099
 21
-145.0025712015892
 31
0.0
  0
LINE
  5
B448
330
18
100
AcDbEntity
  8
0
  6
BYBLOCK
100
AcDbLine
 10
5218.582646599099
 20
-180.8025823986937
 30
0.0
 11
5217.885978705099
 21
-183.4025823986937
 31
0.0
  0
LINE
  5
B449
330
18
100
AcDbEntity
  8
0
  6
BYBLOCK
100
AcDbLine
 10
5217.885978705099
 20
-183.4025823986937
 30
0.0
 11
5217.189310811099
 21
-180.8025823986937
 31
0.0
  0
LINE
  5
B44A
330
18
100
AcDbEntity
  8
0
  6
BYBLOCK
100
AcDbLine
 10
5217.885978705099
 20
-183.4025823986937
 30
0.0
 11
5217.885978705099
 21
-180.8025823986937
 31
0.0
  0
TEXT
  5
B44B
330
18
100
AcDbEntity
  8
1DIM
  6
CONTINUOUS
100
AcDbText
 10
5216.975978705099
 20
-165.9359101334749
 30
0.0
 40
4.55
  1
41
 50
90.0
100
AcDbText
1001
ACAD
1000
DSTYLE
1002
{
1070
    40
1040
1.3
1002
}
  0
LINE
  5
B44C
330
18
100
AcDbEntity
  8
0
  6
BYBLOCK
100
AcDbLine
 10
5227.189310811099
 20
-145.0025712015892
 30
0.0
 11
5227.885978705099
 21
-142.4025712015892
 31
0.0
  0
LINE
  5
B44D
330
18
100
AcDbEntity
  8
0
  6
BYBLOCK
100
AcDbLine
 10
5227.885978705099
 20
-142.4025712015892
 30
0.0
 11
5228.582646599099
 21
-145.0025712015892
 31
0.0
  0
LINE
  5
B44E
330
18
100
AcDbEntity
  8
0
  6
BYBLOCK
100
AcDbLine
 10
5227.885978705099
 20
-142.4025712015892
 30
0.0
 11
5227.885978705099
 21
-145.0025712015892
 31
0.0
  0
LINE
  5
B44F
330
18
100
AcDbEntity
  8
0
  6
BYBLOCK
100
AcDbLine
 10
5228.582646599099
 20
-204.8027197277954
 30
0.0
 11
5227.885978705099
 21
-207.4027197277954
 31
0.0
  0
LINE
  5
B450
330
18
100
AcDbEntity
  8
0
  6
BYBLOCK
100
AcDbLine
 10
5227.885978705099
 20
-207.4027197277954
 30
0.0
 11
5227.189310811099
 21
-204.8027197277954
 31
0.0
  0
LINE
  5
B451
330
18
100
AcDbEntity
  8
0
  6
BYBLOCK
100
AcDbLine
 10
5227.885978705099
 20
-207.4027197277954
 30
0.0
 11
5227.885978705099
 21
-204.8027197277954
 31
0.0
  0
TEXT
  5
B452
330
18
100
AcDbEntity
  8
1DIM
  6
CONTINUOUS
100
AcDbText
 10
5226.975978705098
 20
-178.7101107424705
 30
0.0
 40
4.55
  1
65
 50
90.0
100
AcDbText
1001
ACAD
1000
DSTYLE
1002
{
1070
    40
1040
1.3
1002
}
  0
LINE
  5
B453
330
18
100
AcDbEntity
  8
0
  6
BYBLOCK
100
AcDbLine
 10
5080.485978705111
 20
-223.0992390795357
 30
0.0
 11
5077.885978705111
 21
-222.4025711855357
 31
0.0
  0
LINE
  5
B454
330
18
100
AcDbEntity
  8
0
  6
BYBLOCK
100
AcDbLine
 10
5077.885978705111
 20
-222.4025711855357
 30
0.0
 11
5080.485978705111
 21
-221.7059032915357
 31
0.0
  0
LINE
  5
B455
330
18
100
AcDbEntity
  8
0
  6
BYBLOCK
100
AcDbLine
 10
5077.885978705111
 20
-222.4025711855357
 30
0.0
 11
5080.485978705111
 21
-222.4025711855357
 31
0.0
  0
LINE
  5
B456
330
18
100
AcDbEntity
  8
0
  6
BYBLOCK
100
AcDbLine
 10
5200.285978705097
 20
-221.7059032915357
 30
0.0
 11
5202.885978705098
 21
-222.4025711855357
 31
0.0
  0
LINE
  5
B457
330
18
100
AcDbEntity
  8
0
  6
BYBLOCK
100
AcDbLine
 10
5202.885978705098
 20
-222.4025711855357
 30
0.0
 11
5200.285978705097
 21
-223.0992390795357
 31
0.0
  0
LINE
  5
B458
330
18
100
AcDbEntity
  8
0
  6
BYBLOCK
100
AcDbLine
 10
5202.885978705098
 20
-222.4025711855357
 30
0.0
 11
5200.285978705097
 21
-222.4025711855357
 31
0.0
  0
TEXT
  5
B459
330
18
100
AcDbEntity
  8
1DIM
  6
CONTINUOUS
100
AcDbText
 10
5135.077645371771
 20
-221.4925711855358
 30
0.0
 40
4.55
  1
125
100
AcDbText
1001
ACAD
1000
DSTYLE
1002
{
1070
    40
1040
1.3
1002
}
  0
LINE
  5
B45A
330
18
100
AcDbEntity
  8
0
  6
BYBLOCK
100
AcDbLine
 10
5066.48597870511
 20
-233.0992390795357
 30
0.0
 11
5063.88597870511
 21
-232.4025711855357
 31
0.0
  0
LINE
  5
B45B
330
18
100
AcDbEntity
  8
0
  6
BYBLOCK
100
AcDbLine
 10
5063.88597870511
 20
-232.4025711855357
 30
0.0
 11
5066.48597870511
 21
-231.7059032915357
 31
0.0
  0
LINE
  5
B45C
330
18
100
AcDbEntity
  8
0
  6
BYBLOCK
100
AcDbLine
 10
5063.88597870511
 20
-232.4025711855357
 30
0.0
 11
5066.48597870511
 21
-232.4025711855357
 31
0.0
  0
LINE
  5
B45D
330
18
100
AcDbEntity
  8
0
  6
BYBLOCK
100
AcDbLine
 10
5200.285978705097
 20
-231.7059032915357
 30
0.0
 11
5202.885978705098
 21
-232.4025711855357
 31
0.0
  0
LINE
  5
B45E
330
18
100
AcDbEntity
  8
0
  6
BYBLOCK
100
AcDbLine
 10
5202.885978705098
 20
-232.4025711855357
 30
0.0
 11
5200.285978705097
 21
-233.0992390795357
 31
0.0
  0
LINE
  5
B45F
330
18
100
AcDbEntity
  8
0
  6
BYBLOCK
100
AcDbLine
 10
5202.885978705098
 20
-232.4025711855357
 30
0.0
 11
5200.285978705097
 21
-232.4025711855357
 31
0.0
  0
TEXT
  5
B460
330
18
100
AcDbEntity
  8
1DIM
  6
CONTINUOUS
100
AcDbText
 10
5134.076594031025
 20
-231.4925711855358
 30
0.0
 40
4.55
  1
139
100
AcDbText
1001
ACAD
1000
DSTYLE
1002
{
1070
    40
1040
1.3
1002
}
  0
LINE
  5
B461
330
18
100
AcDbEntity
  8
0
  6
BYBLOCK
100
AcDbLine
 10
5228.582646599097
 20
-308.0229363906831
 30
0.0
 11
5227.885978705097
 21
-310.6229363906831
 31
0.0
  0
LINE
  5
B462
330
18
100
AcDbEntity
  8
0
  6
BYBLOCK
100
AcDbLine
 10
5227.885978705097
 20
-310.6229363906831
 30
0.0
 11
5227.189310811097
 21
-308.0229363906831
 31
0.0
  0
LINE
  5
B463
330
18
100
AcDbEntity
  8
0
  6
BYBLOCK
100
AcDbLine
 10
5227.885978705097
 20
-310.6229363906831
 30
0.0
 11
5227.885978705097
 21
-308.0229363906831
 31
0.0
  0
LINE
  5
B464
330
18
100
AcDbEntity
  8
0
  6
BYBLOCK
100
AcDbLine
 10
5227.189310811097
 20
-296.8078858840913
 30
0.0
 11
5227.885978705097
 21
-294.2078858840913
 31
0.0
  0
LINE
  5
B465
330
18
100
AcDbEntity
  8
0
  6
BYBLOCK
100
AcDbLine
 10
5227.885978705097
 20
-294.2078858840913
 30
0.0
 11
5228.582646599097
 21
-296.8078858840913
 31
0.0
  0
LINE
  5
B466
330
18
100
AcDbEntity
  8
0
  6
BYBLOCK
100
AcDbLine
 10
5227.885978705097
 20
-294.2078858840913
 30
0.0
 11
5227.885978705097
 21
-296.8078858840913
 31
0.0
  0
TEXT
  5
B467
330
18
100
AcDbEntity
  8
1DIM
  6
CONTINUOUS
100
AcDbText
 10
5226.975978705096
 20
-308.4978764151647
 30
0.0
 40
4.55
  1
16.5
 50
90.0
100
AcDbText
1001
ACAD
1000
DSTYLE
1002
{
1070
    40
1040
1.3
1070
   271
1070
     1
1002
}
  0
VIEWPORT
  5
57
330
15
100
AcDbEntity
 67
     1
  8
0
100
AcDbViewport
 68
     1
 10
0.0
 20
0.0
 30
0.0
 40
555.8298653610772
 41
297.0
 68
     1
 69
     1
1001
ACAD
1000
MVIEW
1002
{
1070
    16
1010
0.0
1020
0.0
1030
0.0
1010
0.0
1020
0.0
1030
1.0
1040
0.0
1040
297.0
1040
5.728000000000009
1040
25.339
1040
50.0
1040
0.0
1040
0.0
1070
    16
1070
   100
1070
     0
1070
     1
1070
     0
1070
     0
1070
     0
1070
     0
1040
0.0
1040
0.0
1040
0.0
1040
10.0
1040
10.0
1040
10.0
1040
10.0
1070
     0
1002
{
1002
}
1002
}
  0
ENDSEC
  0
SECTION
  2
OBJECTS
  0
DICTIONARY
  5
C
330
0
100
AcDbDictionary
  3
ACAD_COLOR
350
18D
  3
ACAD_GROUP
350
D
  3
ACAD_LAYOUT
350
18E
  3
ACAD_MATERIAL
350
18C
  3
ACAD_MLEADERSTYLE
350
9583
  3
ACAD_MLINESTYLE
350
1B
  3
ACAD_PLOTSETTINGS
350
18F
  3
ACAD_SCALELIST
350
9561
  3
ACAD_VISUALSTYLE
350
9550
  3
ACDBHEADERROUNDTRIPXREC
350
B468
  3
ACDBVARIABLEDICTIONARY
350
37
  3
CONTENTDICTIONARY
350
D8
  3
DRAWINGVARIABLESDICT
350
20
  3
DWGPROPS
350
B46B
1001
ACAD
1000
TREAT_AS_HARD
1070
     0
  0
DICTIONARY
  5
96D9
330
2
100
AcDbDictionary
  3
ACAD_LAYERSTATES
360
96DA
1001
ACAD
1000
TREAT_AS_HARD
1070
     1
  0
DICTIONARY
  5
9593
330
E
100
AcDbDictionary
  3
ADSK_XREC_LAYER_RECONCILED
360
9594
1001
ACAD
1000
TREAT_AS_HARD
1070
     1
  0
DICTIONARY
  5
9595
330
29
100
AcDbDictionary
  3
ADSK_XREC_LAYER_RECONCILED
360
9596
1001
ACAD
1000
TREAT_AS_HARD
1070
     1
  0
DICTIONARY
  5
9597
330
31
100
AcDbDictionary
  3
ADSK_XREC_LAYER_RECONCILED
360
9598
1001
ACAD
1000
TREAT_AS_HARD
1070
     1
  0
DICTIONARY
  5
959D
330
243
100
AcDbDictionary
  3
ADSK_XREC_LAYER_RECONCILED
360
959E
1001
ACAD
1000
TREAT_AS_HARD
1070
     1
  0
DICTIONARY
  5
95A3
330
24E
100
AcDbDictionary
  3
ADSK_XREC_LAYER_RECONCILED
360
95A4
1001
ACAD
1000
TREAT_AS_HARD
1070
     1
  0
DICTIONARY
  5
88F
330
18
100
AcDbDictionary
  3
ACAD_SORTENTS
360
890
1001
ACAD
1000
TREAT_AS_HARD
1070
     1
  0
DICTIONARY
  5
18D
102
{ACAD_REACTORS
330
C
102
}
330
C
100
AcDbDictionary
1001
ACAD
1000
TREAT_AS_HARD
1070
     0
  0
DICTIONARY
  5
D
102
{ACAD_REACTORS
330
C
102
}
330
C
100
AcDbDictionary
1001
ACAD
1000
TREAT_AS_HARD
1070
     0
  0
DICTIONARY
  5
18E
102
{ACAD_REACTORS
330
C
102
}
330
C
100
AcDbDictionary
1001
ACAD
1000
TREAT_AS_HARD
1070
     0
  0
DICTIONARY
  5
18C
102
{ACAD_REACTORS
330
C
102
}
330
C
100
AcDbDictionary
  3
BYBLOCK
350
9540
  3
BYLAYER
350
9538
  3
GLOBAL
350
9548
1001
ACAD
1000
TREAT_AS_HARD
1070
     0
  0
DICTIONARY
  5
9583
102
{ACAD_REACTORS
330
C
102
}
330
C
100
AcDbDictionary
  3
STANDARD
350
9584
1001
ACAD
1000
TREAT_AS_HARD
1070
     0
  0
DICTIONARY
  5
1B
102
{ACAD_REACTORS
330
C
102
}
330
C
100
AcDbDictionary
  3
STANDARD
350
1C
1001
ACAD
1000
TREAT_AS_HARD
1070
     0
  0
DICTIONARY
  5
18F
102
{ACAD_REACTORS
330
C
102
}
330
C
100
AcDbDictionary
1001
ACAD
1000
TREAT_AS_HARD
1070
     0
  0
DICTIONARY
  5
9561
102
{ACAD_REACTORS
330
C
102
}
330
C
100
AcDbDictionary
  3
A0
350
9562
  3
A1
350
9563
  3
A2
350
9564
  3
A3
350
9565
  3
A4
350
9566
  3
A5
350
9567
  3
A6
350
9568
  3
A7
350
9569
  3
A8
350
956A
  3
A9
350
956B
  3
B0
350
956C
  3
B1
350
956D
  3
B2
350
956E
  3
B3
350
956F
  3
B4
350
9570
  3
B5
350
9571
  3
B6
350
9572
  3
B7
350
9573
  3
B8
350
9574
  3
B9
350
9575
  3
C0
350
9576
  3
C1
350
9577
  3
C2
350
9578
  3
C3
350
9579
  3
C4
350
957A
  3
C5
350
957B
  3
C6
350
957C
  3
C7
350
957D
  3
C8
350
957E
  3
C9
350
957F
  3
D0
350
9580
  3
D1
350
9581
  3
D2
350
9582
1001
ACAD
1000
TREAT_AS_HARD
1070
     0
  0
DICTIONARY
  5
9550
102
{ACAD_REACTORS
330
C
102
}
330
C
100
AcDbDictionary
  3
2DWIREFRAME
350
9556
  3
3D_HIDDEN
350
9558
  3
3DWIREFRAME
350
9557
  3
BASIC
350
9555
  3
BRIGHTEN
350
955C
  3
COLORCHANGE
350
9560
  3
CONCEPTUAL
350
9559
  3
DIM
350
955B
  3
EDGECOLOROFF
350
A211
  3
FACEPATTERN
350
955F
  3
FLAT
350
9551
  3
FLATWITHEDGES
350
9552
  3
GOURAUD
350
9553
  3
GOURAUDWITHEDGES
350
9554
  3
HIDDEN
350
A260
  3
JITTEROFF
350
A20F
  3
LINEPATTERN
350
955E
  3
MODELING
350
A266
  3
OVERHANGOFF
350
A210
  3
REALISTIC
350
955A
  3
SHADED
350
A265
  3
SHADED_WITH_EDGES
350
A264
  3
SHADES_OF_GRAY
350
A261
  3
SKETCHY
350
A262
  3
THICKEN
350
955D
  3
WIREFRAME
350
A25F
  3
X-RAY
350
A263
1001
ACAD
1000
TREAT_AS_HARD
1070
     0
  0
DICTIONARY
  5
B468
102
{ACAD_REACTORS
330
C
102
}
330
C
100
AcDbDictionary
  3
COLORDICT
350
B469
  3
MATERIALDICT
350
B46A
1001
ACAD
1000
TREAT_AS_HARD
1070
     0
  0
DICTIONARY
  5
37
102
{ACAD_REACTORS
330
C
102
}
330
C
100
AcDbDictionary
  3
CANNOSCALE
350
AAE0
  3
CMLEADERSTYLE
350
9627
  3
CTABLESTYLE
350
29E
  3
DIMADEC
350
38
  3
DIMASSOC
350
1CE
  3
HIDETEXT
350
704E
  3
INDEXCTL
350
962A
  3
INTERSECTIONCOLOR
350
7052
  3
INTERSECTIONDISPLAY
350
7051
  3
MSLTSCALE
350
AB30
  3
OBSCOLOR
350
704F
  3
OBSLTYPE
350
7050
  3
PROJECTNAME
350
1CF
  3
SORTENTS
350
9629
  3
XCLIPFRAME
350
A25E
1001
ACAD
1000
TREAT_AS_HARD
1070
     0
  0
DICTIONARY
  5
D8
102
{ACAD_REACTORS
330
C
102
}
330
C
100
AcDbDictionary
1001
ACAD
1000
TREAT_AS_HARD
1070
     0
  0
DICTIONARY
  5
20
102
{ACAD_REACTORS
330
C
102
}
330
C
100
AcDbDictionary
1001
DRAWINGVARIABLESXDATA
1000
POLARANG
1000
0.261799387799149410000000
1000
POLARMODE
1000
1
1000
POLARSTYLE
1000
1
1001
ACAD
1000
TREAT_AS_HARD
1070
     0
  0
XRECORD
  5
B46B
102
{ACAD_REACTORS
330
C
102
}
330
C
100
AcDbXrecord
  1
DWGPROPS COOKIE
  2

  3

  4

  6

  7

  8
3684
  9

300
=
301
=
302
=
303
=
304
=
305
=
306
=
307
=
308
=
309
=
 40
0.0
 41
2451318.246352917
 42
2458159.222984074
  1

 90
        0
  0
DICTIONARY
  5
96DA
102
{ACAD_REACTORS
330
96D9
102
}
330
96D9
100
AcDbDictionary
1001
ACAD
1000
TREAT_AS_HARD
1070
     0
  0
ACAD_PROXY_OBJECT
  5
9594
102
{ACAD_REACTORS
330
9593
102
}
330
9593
100
AcDbZombieObject
 90
      499
 91
      514
 93
       34
310
40C8804040
  0
ACAD_PROXY_OBJECT
  5
9596
102
{ACAD_REACTORS
330
9595
102
}
330
9595
100
AcDbZombieObject
 90
      499
 91
      514
 93
       34
310
40C8804040
  0
ACAD_PROXY_OBJECT
  5
9598
102
{ACAD_REACTORS
330
9597
102
}
330
9597
100
AcDbZombieObject
 90
      499
 91
      514
 93
       34
310
40C8804040
  0
ACAD_PROXY_OBJECT
  5
959E
102
{ACAD_REACTORS
330
959D
102
}
330
959D
100
AcDbZombieObject
 90
      499
 91
      514
 93
       34
310
40C8804040
  0
ACAD_PROXY_OBJECT
  5
95A4
102
{ACAD_REACTORS
330
95A3
102
}
330
95A3
100
AcDbZombieObject
 90
      499
 91
      514
 93
       34
310
40C8804040
  0
SORTENTSTABLE
  5
890
102
{ACAD_REACTORS
330
88F
102
}
330
88F
100
AcDbSortentsTable
330
18
331
B074
  5
B081
331
B075
  5
B082
331
B076
  5
B083
331
B077
  5
B084
331
B078
  5
B085
331
B079
  5
B086
331
B07A
  5
B087
331
B07B
  5
B088
331
B07C
  5
B08A
331
B07D
  5
B08C
331
B07E
  5
B08D
331
B07F
  5
B08E
331
B080
  5
B08F
331
B081
  5
B090
331
B082
  5
B091
331
B083
  5
B092
331
0
  5
B093
331
0
  5
B094
331
0
  5
B095
331
0
  5
B096
331
B088
  5
B0D7
331
B08A
  5
B0E1
331
B08C
  5
B0EE
331
B08D
  5
B0EF
331
B08E
  5
B0F0
331
B08F
  5
B0F1
331
B090
  5
B0F2
331
B091
  5
B0F3
331
B092
  5
B0F4
331
B093
  5
B0F5
331
B094
  5
B0F6
331
B095
  5
B0F7
331
B096
  5
B0F8
331
B097
  5
B0F9
331
B098
  5
B0FA
331
B099
  5
B0FB
331
B09A
  5
B0FC
331
B09B
  5
B0FD
331
B09C
  5
B348
331
B09D
  5
B349
331
B09E
  5
B34A
331
B09F
  5
B34B
331
B0A0
  5
B34C
331
B0A1
  5
B34D
331
B0A2
  5
B34E
331
B0A4
  5
B352
331
B0A6
  5
B359
331
B0A7
  5
B35A
331
B0A8
  5
B35B
331
B0AE
  5
B38B
331
B0B0
  5
B396
331
B0B1
  5
B397
331
B0B2
  5
B398
331
B0B3
  5
B399
331
B0B4
  5
B39A
331
B0B5
  5
B39B
331
B0B6
  5
B39C
331
B0B7
  5
B39D
331
B0B8
  5
B39E
331
B0B9
  5
B39F
331
B0BA
  5
B3A0
331
B0BB
  5
B3A1
331
B0BC
  5
B3A2
331
B0BD
  5
B3A3
331
B0BE
  5
B3A4
331
B0BF
  5
B3A5
331
B0C0
  5
B3A6
331
B0C1
  5
B3A7
331
B0C2
  5
B3A8
331
B0C3
  5
B3A9
331
B0C4
  5
B3AA
331
B0C5
  5
B3AB
331
B0C7
  5
B3B7
331
B0C9
  5
B3CC
331
B0CB
  5
B3E1
331
B0CD
  5
B3EA
331
B0CE
  5
B3EB
331
B0CF
  5
B3EC
331
B0D0
  5
B3ED
331
B0D1
  5
B3EE
331
B0D2
  5
B3EF
331
B0D3
  5
B3F0
331
B0D4
  5
B3F1
331
B0D5
  5
B3F2
331
B0D6
  5
B3F3
331
B0D7
  5
B3F4
331
B0D8
  5
B3F5
331
B0D9
  5
B3F6
331
B0DA
  5
B3F7
331
B0DB
  5
B3F8
331
B0DC
  5
B3F9
331
B0DD
  5
B3FA
331
B0DE
  5
B3FB
331
B0DF
  5
B3FC
331
B0E0
  5
B3FD
331
B0E1
  5
B3FE
331
B0E2
  5
B3FF
331
B0E3
  5
B400
331
B0E4
  5
B401
331
B0E6
  5
B413
331
B0E7
  5
B414
331
B0EA
  5
B44B
331
B0EB
  5
B44C
331
B0EC
  5
B44D
331
B0ED
  5
B44E
331
B0EE
  5
B44F
331
B0EF
  5
B450
331
B0F0
  5
B451
331
B0F1
  5
B452
331
B0F2
  5
B453
331
B0F3
  5
B454
331
B0F4
  5
B455
331
B0F5
  5
B456
331
B0F6
  5
B457
331
B0F7
  5
B458
331
B0F8
  5
B459
331
B0F9
  5
B45A
331
B0FA
  5
B45B
331
B0FB
  5
B45C
331
B0FC
  5
B45D
331
0
  5
B426
331
B348
  5
B074
331
B349
  5
B075
331
B34A
  5
B076
331
0
  5
B077
331
0
  5
B078
331
0
  5
B079
331
B34E
  5
B0D8
331
B34F
  5
B0D9
331
B350
  5
B0DA
331
B351
  5
B0DB
331
B352
  5
B0DC
331
B353
  5
B0DD
331
B354
  5
B0DE
331
B355
  5
B0DF
331
B356
  5
B0E0
331
B357
  5
B0E2
331
B358
  5
B0E3
331
B359
  5
B0E4
331
B35A
  5
B0E6
331
B35B
  5
B0E7
331
B35C
  5
B0EA
331
B35D
  5
B0EB
331
B35E
  5
B0EC
331
B35F
  5
B0ED
331
B360
  5
B34F
331
B361
  5
B350
331
B362
  5
B351
331
B363
  5
B353
331
B364
  5
B354
331
B365
  5
B355
331
B366
  5
B356
331
B367
  5
B357
331
B368
  5
B358
331
B369
  5
B35C
331
B36A
  5
B35D
331
B36B
  5
B35E
331
B36C
  5
B35F
331
B36D
  5
B360
331
B36E
  5
B361
331
B36F
  5
B362
331
B370
  5
B363
331
B371
  5
B364
331
B372
  5
B365
331
B373
  5
B366
331
B374
  5
B367
331
B375
  5
B368
331
B376
  5
B369
331
B377
  5
B36A
331
B378
  5
B36B
331
B379
  5
B36C
331
B37A
  5
B36D
331
B37B
  5
B36E
331
B37C
  5
B36F
331
B37D
  5
B370
331
B37E
  5
B371
331
B37F
  5
B372
331
B380
  5
B373
331
B381
  5
B374
331
B382
  5
B375
331
B383
  5
B376
331
B384
  5
B377
331
B385
  5
B378
331
B386
  5
B379
331
B387
  5
B37A
331
B388
  5
B37B
331
B389
  5
B37C
331
B38A
  5
B37D
331
B38B
  5
B37E
331
B38C
  5
B37F
331
B38D
  5
B380
331
B38E
  5
B381
331
B38F
  5
B382
331
B390
  5
B383
331
B391
  5
B384
331
B392
  5
B385
331
B393
  5
B386
331
B394
  5
B387
331
B395
  5
B388
331
B396
  5
B389
331
B397
  5
B38A
331
B398
  5
B38C
331
B399
  5
B38D
331
B39A
  5
B38E
331
B39B
  5
B38F
331
B39C
  5
B390
331
B39D
  5
B391
331
B39E
  5
B392
331
B39F
  5
B393
331
B3A0
  5
B394
331
B3A1
  5
B395
331
B3A2
  5
B3AC
331
B3A3
  5
B3AD
331
B3A4
  5
B3AE
331
B3A5
  5
B3AF
331
B3A6
  5
B3B0
331
B3A7
  5
B3B1
331
B3A8
  5
B3B2
331
B3A9
  5
B3B3
331
B3AA
  5
B3B4
331
B3AB
  5
B3B5
331
B3AC
  5
B3B6
331
B3AD
  5
B3B8
331
B3AE
  5
B3B9
331
B3AF
  5
B3BA
331
B3B0
  5
B3BB
331
B3B1
  5
B3BC
331
B3B2
  5
B3BD
331
B3B3
  5
B3BE
331
B3B4
  5
B3BF
331
B3B5
  5
B3C0
331
B3B6
  5
B3C1
331
B3B7
  5
B3C2
331
B3B8
  5
B3C3
331
B3B9
  5
B3C4
331
B3BA
  5
B3C5
331
B3BB
  5
B3C6
331
B3BC
  5
B3C7
331
B3BD
  5
B3C8
331
B3BE
  5
B3C9
331
B3BF
  5
B3CA
331
B3C0
  5
B3CB
331
B3C1
  5
B3CD
331
B3C2
  5
B3CE
331
B3C3
  5
B3CF
331
B3C4
  5
B3D0
331
B3C5
  5
B3D1
331
B3C6
  5
B3D2
331
B3C7
  5
B3D3
331
B3C8
  5
B3D4
331
B3C9
  5
B3D5
331
B3CA
  5
B3D6
331
B3CB
  5
B3D7
331
B3CC
  5
B3D8
331
B3CD
  5
B3D9
331
B3CE
  5
B3DA
331
B3CF
  5
B3DB
331
B3D0
  5
B3DC
331
B3D1
  5
B3DD
331
B3D2
  5
B3DE
331
B3D3
  5
B3DF
331
B3D4
  5
B3E0
331
B3D5
  5
B3E2
331
B3D6
  5
B3E3
331
B3D7
  5
B3E4
331
B3D8
  5
B3E5
331
B3D9
  5
B3E6
331
B3DA
  5
B3E7
331
B3DB
  5
B3E8
331
B3DC
  5
B3E9
331
B3DD
  5
B402
331
B3DE
  5
B403
331
B3DF
  5
B404
331
B3E0
  5
B405
331
B3E1
  5
B406
331
B3E2
  5
B407
331
B3E3
  5
B408
331
B3E4
  5
B409
331
B3E5
  5
B40A
331
B3E6
  5
B40B
331
B3E7
  5
B40C
331
B3E8
  5
B40D
331
B3E9
  5
B40E
331
B3EA
  5
B40F
331
B3EB
  5
B410
331
B3EC
  5
B411
331
B3ED
  5
B412
331
B3EE
  5
B415
331
B3EF
  5
B416
331
B3F0
  5
B417
331
B3F1
  5
B418
331
B3F2
  5
B419
331
B3F3
  5
B41A
331
B3F4
  5
B41B
331
B3F5
  5
B41C
331
B3F6
  5
B41D
331
B3F7
  5
B41E
331
B3F8
  5
B41F
331
B3F9
  5
B420
331
B3FA
  5
B421
331
B3FB
  5
B422
331
B3FC
  5
B423
331
B3FD
  5
B424
331
B3FE
  5
B425
331
B3FF
  5
B427
331
B400
  5
B428
331
B401
  5
B429
331
B402
  5
B42A
331
B403
  5
B42B
331
B404
  5
B42C
331
B405
  5
B42D
331
B406
  5
B42E
331
B407
  5
B42F
331
B408
  5
B430
331
B409
  5
B431
331
B40A
  5
B432
331
B40B
  5
B433
331
B40C
  5
B434
331
B40D
  5
B435
331
B40E
  5
B436
331
B40F
  5
B437
331
B410
  5
B438
331
B411
  5
B439
331
B412
  5
B43A
331
B413
  5
B43B
331
B414
  5
B43C
331
B415
  5
B43D
331
B416
  5
B43E
331
B417
  5
B43F
331
B418
  5
B440
331
B419
  5
B441
331
B41A
  5
B445
331
B41B
  5
B446
331
B41C
  5
B447
331
B41D
  5
B448
331
B41E
  5
B449
331
B41F
  5
B44A
331
B420
  5
B07A
331
B421
  5
B07B
331
B422
  5
B07C
331
B423
  5
B07D
331
B424
  5
B07E
331
B425
  5
B07F
331
B426
  5
B080
331
B427
  5
B097
331
B428
  5
B098
331
B429
  5
B099
331
0
  5
B09A
331
0
  5
B09B
331
0
  5
B09C
331
B42D
  5
B0B2
331
B42E
  5
B0B3
331
B42F
  5
B0B7
331
0
  5
B0A0
331
0
  5
B0A1
331
0
  5
B0A2
331
B433
  5
B0BF
331
B434
  5
B0C0
331
B435
  5
B0C1
331
0
  5
B0A8
331
0
  5
B0AE
331
0
  5
B0B0
331
B439
  5
B0CD
331
B43A
  5
B0CE
331
B43B
  5
B0CF
331
0
  5
B0B4
331
0
  5
B0B5
331
0
  5
B0B6
331
B43F
  5
B45E
331
B440
  5
B45F
331
B441
  5
B460
331
B445
  5
B09D
331
B446
  5
B09E
331
B447
  5
B09F
331
B448
  5
B0A4
331
B449
  5
B0A6
331
B44A
  5
B0A7
331
B44B
  5
B0B1
331
B44C
  5
B0B8
331
B44D
  5
B0B9
331
B44E
  5
B0BA
331
B44F
  5
B0BB
331
B450
  5
B0BC
331
B451
  5
B0BD
331
B452
  5
B0BE
331
B453
  5
B0C2
331
B454
  5
B0C3
331
B455
  5
B0C4
331
B456
  5
B0C5
331
B457
  5
B0C7
331
B458
  5
B0C9
331
B459
  5
B0CB
331
B45A
  5
B0D0
331
B45B
  5
B0D1
331
B45C
  5
B0D2
331
B45D
  5
B0D3
331
B45E
  5
B0D4
331
B45F
  5
B0D5
331
B460
  5
B0D6
  0
MATERIAL
  5
9540
102
{ACAD_REACTORS
330
18C
102
}
102
{ACAD_XDICTIONARY
360
B606
102
}
330
18C
100
AcDbMaterial
  1
BYBLOCK
 72
     0
 73
     2
 43
0.0208333333333333
 43
0.0
 43
0.0
 43
0.0
 43
0.0
 43
0.0208333333333333
 43
0.0
 43
0.0
 43
0.0
 43
0.0
 43
1.0
 43
0.0
 43
0.0
 43
0.0
 43
0.0
 43
1.0
 77
     0
 78
     2
 47
0.0208333333333333
 47
0.0
 47
0.0
 47
0.0
 47
0.0
 47
0.0208333333333333
 47
0.0
 47
0.0
 47
0.0
 47
0.0
 47
1.0
 47
0.0
 47
0.0
 47
0.0
 47
0.0
 47
1.0
171
     0
172
     2
 49
0.0208333333333333
 49
0.0
 49
0.0
 49
0.0
 49
0.0
 49
0.0208333333333333
 49
0.0
 49
0.0
 49
0.0
 49
0.0
 49
1.0
 49
0.0
 49
0.0
 49
0.0
 49
0.0
 49
1.0
175
     0
176
     2
142
0.0208333333333333
142
0.0
142
0.0
142
0.0
142
0.0
142
0.0208333333333333
142
0.0
142
0.0
142
0.0
142
0.0
142
1.0
142
0.0
142
0.0
142
0.0
142
0.0
142
1.0
179
     0
270
     2
144
0.0208333333333333
144
0.0
144
0.0
144
0.0
144
0.0
144
0.0208333333333333
144
0.0
144
0.0
144
0.0
144
0.0
144
1.0
144
0.0
144
0.0
144
0.0
144
0.0
144
1.0
274
     2
147
0.0208333333333333
147
0.0
147
0.0
147
0.0
147
0.0
147
0.0208333333333333
147
0.0
147
0.0
147
0.0
147
0.0
147
1.0
147
0.0
147
0.0
147
0.0
147
0.0
147
1.0
  0
MATERIAL
  5
9538
102
{ACAD_REACTORS
330
18C
102
}
102
{ACAD_XDICTIONARY
360
B608
102
}
330
18C
100
AcDbMaterial
  1
BYLAYER
 72
     0
 73
     2
 43
0.0208333333333333
 43
0.0
 43
0.0
 43
0.0
 43
0.0
 43
0.0208333333333333
 43
0.0
 43
0.0
 43
0.0
 43
0.0
 43
1.0
 43
0.0
 43
0.0
 43
0.0
 43
0.0
 43
1.0
 77
     0
 78
     2
 47
0.0208333333333333
 47
0.0
 47
0.0
 47
0.0
 47
0.0
 47
0.0208333333333333
 47
0.0
 47
0.0
 47
0.0
 47
0.0
 47
1.0
 47
0.0
 47
0.0
 47
0.0
 47
0.0
 47
1.0
171
     0
172
     2
 49
0.0208333333333333
 49
0.0
 49
0.0
 49
0.0
 49
0.0
 49
0.0208333333333333
 49
0.0
 49
0.0
 49
0.0
 49
0.0
 49
1.0
 49
0.0
 49
0.0
 49
0.0
 49
0.0
 49
1.0
175
     0
176
     2
142
0.0208333333333333
142
0.0
142
0.0
142
0.0
142
0.0
142
0.0208333333333333
142
0.0
142
0.0
142
0.0
142
0.0
142
1.0
142
0.0
142
0.0
142
0.0
142
0.0
142
1.0
179
     0
270
     2
144
0.0208333333333333
144
0.0
144
0.0
144
0.0
144
0.0
144
0.0208333333333333
144
0.0
144
0.0
144
0.0
144
0.0
144
1.0
144
0.0
144
0.0
144
0.0
144
0.0
144
1.0
274
     2
147
0.0208333333333333
147
0.0
147
0.0
147
0.0
147
0.0
147
0.0208333333333333
147
0.0
147
0.0
147
0.0
147
0.0
147
1.0
147
0.0
147
0.0
147
0.0
147
0.0
147
1.0
  0
MATERIAL
  5
9548
102
{ACAD_REACTORS
330
18C
102
}
102
{ACAD_XDICTIONARY
360
B60A
102
}
330
18C
100
AcDbMaterial
  1
GLOBAL
 72
     0
 73
     2
 43
0.0208333333333333
 43
0.0
 43
0.0
 43
0.0
 43
0.0
 43
0.0208333333333333
 43
0.0
 43
0.0
 43
0.0
 43
0.0
 43
1.0
 43
0.0
 43
0.0
 43
0.0
 43
0.0
 43
1.0
 77
     0
 78
     2
 47
0.0208333333333333
 47
0.0
 47
0.0
 47
0.0
 47
0.0
 47
0.0208333333333333
 47
0.0
 47
0.0
 47
0.0
 47
0.0
 47
1.0
 47
0.0
 47
0.0
 47
0.0
 47
0.0
 47
1.0
171
     0
172
     2
 49
0.0208333333333333
 49
0.0
 49
0.0
 49
0.0
 49
0.0
 49
0.0208333333333333
 49
0.0
 49
0.0
 49
0.0
 49
0.0
 49
1.0
 49
0.0
 49
0.0
 49
0.0
 49
0.0
 49
1.0
175
     0
176
     2
142
0.0208333333333333
142
0.0
142
0.0
142
0.0
142
0.0
142
0.0208333333333333
142
0.0
142
0.0
142
0.0
142
0.0
142
1.0
142
0.0
142
0.0
142
0.0
142
0.0
142
1.0
179
     0
270
     2
144
0.0208333333333333
144
0.0
144
0.0
144
0.0
144
0.0
144
0.0208333333333333
144
0.0
144
0.0
144
0.0
144
0.0
144
1.0
144
0.0
144
0.0
144
0.0
144
0.0
144
1.0
274
     2
147
0.0208333333333333
147
0.0
147
0.0
147
0.0
147
0.0
147
0.0208333333333333
147
0.0
147
0.0
147
0.0
147
0.0
147
1.0
147
0.0
147
0.0
147
0.0
147
0.0
147
1.0
  0
ACAD_PROXY_OBJECT
  5
9584
102
{ACAD_REACTORS
330
9583
102
}
330
9583
100
AcDbZombieObject
 90
      499
 91
      511
 93
      610
310
40901902A4063FBFFFFFE000000000000002040AD7A3703D0AD73F4214DD185B99185C990000000000000104090141901A00000000000004100000000000000041025764000000000000300FC0
340
12
340
0
340
F
340
0
 94
        0
1001
ACAD_MLEADERVER
1070
     2
  0
MLINESTYLE
  5
1C
102
{ACAD_REACTORS
330
1B
102
}
330
1B
100
AcDbMlineStyle
  2
STANDARD
 70
     0
  3

 62
   256
 51
90.0
 52
90.0
 71
     2
 49
0.5
 62
   256
  6
BYLAYER
 49
-0.5
 62
   256
  6
BYLAYER
  0
ACAD_PROXY_OBJECT
  5
9562
102
{ACAD_REACTORS
330
9561
102
}
330
9561
100
AcDbZombieObject
 90
      499
 91
      510
 93
       41
310
903313A31580
  0
ACAD_PROXY_OBJECT
  5
9563
102
{ACAD_REACTORS
330
9561
102
}
330
9561
100
AcDbZombieObject
 90
      499
 91
      510
 93
      105
310
903313A324000000000000004000
  0
ACAD_PROXY_OBJECT
  5
9564
102
{ACAD_REACTORS
330
9561
102
}
330
9561
100
AcDbZombieObject
 90
      499
 91
      510
 93
      105
310
903313A344000000000000104000
  0
ACAD_PROXY_OBJECT
  5
9565
102
{ACAD_REACTORS
330
9561
102
}
330
9561
100
AcDbZombieObject
 90
      499
 91
      510
 93
      105
310
903313A354000000000000144000
  0
ACAD_PROXY_OBJECT
  5
9566
102
{ACAD_REACTORS
330
9561
102
}
330
9561
100
AcDbZombieObject
 90
      499
 91
      510
 93
      105
310
903313A384000000000000204000
  0
ACAD_PROXY_OBJECT
  5
9567
102
{ACAD_REACTORS
330
9561
102
}
330
9561
100
AcDbZombieObject
 90
      499
 91
      510
 93
      113
310
904313A31304000000000000244000
  0
ACAD_PROXY_OBJECT
  5
9568
102
{ACAD_REACTORS
330
9561
102
}
330
9561
100
AcDbZombieObject
 90
      499
 91
      510
 93
      113
310
904313A31364000000000000304000
  0
ACAD_PROXY_OBJECT
  5
9569
102
{ACAD_REACTORS
330
9561
102
}
330
9561
100
AcDbZombieObject
 90
      499
 91
      510
 93
      113
310
904313A32304000000000000344000
  0
ACAD_PROXY_OBJECT
  5
956A
102
{ACAD_REACTORS
330
9561
102
}
330
9561
100
AcDbZombieObject
 90
      499
 91
      510
 93
      113
310
904313A333040000000000003E4000
  0
ACAD_PROXY_OBJECT
  5
956B
102
{ACAD_REACTORS
330
9561
102
}
330
9561
100
AcDbZombieObject
 90
      499
 91
      510
 93
      113
310
904313A34304000000000000444000
  0
ACAD_PROXY_OBJECT
  5
956C
102
{ACAD_REACTORS
330
9561
102
}
330
9561
100
AcDbZombieObject
 90
      499
 91
      510
 93
      113
310
904313A35304000000000000494000
  0
ACAD_PROXY_OBJECT
  5
956D
102
{ACAD_REACTORS
330
9561
102
}
330
9561
100
AcDbZombieObject
 90
      499
 91
      510
 93
      121
310
905313A3130304000000000000594000
  0
ACAD_PROXY_OBJECT
  5
956E
102
{ACAD_REACTORS
330
9561
102
}
330
9561
100
AcDbZombieObject
 90
      499
 91
      510
 93
      105
310
903323A310000000000000010100
  0
ACAD_PROXY_OBJECT
  5
956F
102
{ACAD_REACTORS
330
9561
102
}
330
9561
100
AcDbZombieObject
 90
      499
 91
      510
 93
      105
310
903343A310000000000000410100
  0
ACAD_PROXY_OBJECT
  5
9570
102
{ACAD_REACTORS
330
9561
102
}
330
9561
100
AcDbZombieObject
 90
      499
 91
      510
 93
      105
310
903383A310000000000000810100
  0
ACAD_PROXY_OBJECT
  5
9571
102
{ACAD_REACTORS
330
9561
102
}
330
9561
100
AcDbZombieObject
 90
      499
 91
      510
 93
      113
310
90431303A310000000000000910100
  0
ACAD_PROXY_OBJECT
  5
9572
102
{ACAD_REACTORS
330
9561
102
}
330
9561
100
AcDbZombieObject
 90
      499
 91
      510
 93
      121
310
9053130303A310000000000001650100
  0
ACAD_PROXY_OBJECT
  5
9573
102
{ACAD_REACTORS
330
9561
102
}
330
9561
100
AcDbZombieObject
 90
      499
 91
      510
 93
      257
310
90E312F31323822203D2031272D3022000000000000200FC000000000000284000
  0
ACAD_PROXY_OBJECT
  5
9574
102
{ACAD_REACTORS
330
9561
102
}
330
9561
100
AcDbZombieObject
 90
      499
 91
      510
 93
      249
310
90D312F363422203D2031272D3022000000000000240FC000000000000284000
  0
ACAD_PROXY_OBJECT
  5
9575
102
{ACAD_REACTORS
330
9561
102
}
330
9561
100
AcDbZombieObject
 90
      499
 91
      510
 93
      249
310
90D312F333222203D2031272D3022000000000000280FC000000000000284000
  0
ACAD_PROXY_OBJECT
  5
9576
102
{ACAD_REACTORS
330
9561
102
}
330
9561
100
AcDbZombieObject
 90
      499
 91
      510
 93
      249
310
90D312F313622203D2031272D30220000000000002C0FC000000000000284000
  0
ACAD_PROXY_OBJECT
  5
9577
102
{ACAD_REACTORS
330
9561
102
}
330
9561
100
AcDbZombieObject
 90
      499
 91
      510
 93
      249
310
90D332F333222203D2031272D30220000000000002E0FC000000000000284000
  0
ACAD_PROXY_OBJECT
  5
9578
102
{ACAD_REACTORS
330
9561
102
}
330
9561
100
AcDbZombieObject
 90
      499
 91
      510
 93
      241
310
90C312F3822203D2031272D3022000000000000300FC000000000000284000
  0
ACAD_PROXY_OBJECT
  5
9579
102
{ACAD_REACTORS
330
9561
102
}
330
9561
100
AcDbZombieObject
 90
      499
 91
      510
 93
      249
310
90D332F313622203D2031272D3022000000000000320FC000000000000284000
  0
ACAD_PROXY_OBJECT
  5
957A
102
{ACAD_REACTORS
330
9561
102
}
330
9561
100
AcDbZombieObject
 90
      499
 91
      510
 93
      241
310
90C312F3422203D2031272D3022000000000000340FC000000000000284000
  0
ACAD_PROXY_OBJECT
  5
957B
102
{ACAD_REACTORS
330
9561
102
}
330
9561
100
AcDbZombieObject
 90
      499
 91
      510
 93
      241
310
90C332F3822203D2031272D3022000000000000360FC000000000000284000
  0
ACAD_PROXY_OBJECT
  5
957C
102
{ACAD_REACTORS
330
9561
102
}
330
9561
100
AcDbZombieObject
 90
      499
 91
      510
 93
      241
310
90C312F3222203D2031272D3022000000000000380FC000000000000284000
  0
ACAD_PROXY_OBJECT
  5
957D
102
{ACAD_REACTORS
330
9561
102
}
330
9561
100
AcDbZombieObject
 90
      499
 91
      510
 93
      241
310
90C332F3422203D2031272D30220000000000003A0FC000000000000284000
  0
ACAD_PROXY_OBJECT
  5
957E
102
{ACAD_REACTORS
330
9561
102
}
330
9561
100
AcDbZombieObject
 90
      499
 91
      510
 93
      161
310
90A3122203D2031272D30224000000000000284000
  0
ACAD_PROXY_OBJECT
  5
957F
102
{ACAD_REACTORS
330
9561
102
}
330
9561
100
AcDbZombieObject
 90
      499
 91
      510
 93
      257
310
90E312D312F3222203D2031272D30220000000000003E0FC000000000000284000
  0
ACAD_PROXY_OBJECT
  5
9580
102
{ACAD_REACTORS
330
9561
102
}
330
9561
100
AcDbZombieObject
 90
      499
 91
      510
 93
      225
310
90A3322203D2031272D302200000000000002100000000000000284000
  0
ACAD_PROXY_OBJECT
  5
9581
102
{ACAD_REACTORS
330
9561
102
}
330
9561
100
AcDbZombieObject
 90
      499
 91
      510
 93
      225
310
90A3622203D2031272D302200000000000006100000000000000284000
  0
ACAD_PROXY_OBJECT
  5
9582
102
{ACAD_REACTORS
330
9561
102
}
330
9561
100
AcDbZombieObject
 90
      499
 91
      510
 93
      249
310
90D31272D3022203D2031272D30220000000000000A100000000000000284000
  0
ACAD_PROXY_OBJECT
  5
9556
102
{ACAD_REACTORS
330
9550
102
}
330
9550
100
AcDbZombieObject
 90
      499
 91
      509
 93
      436
310
42CC9915DA5C99599C985B595049028333333333333E3BF0000000000000FB0107901411070040501600405405064090741402480A0340
1001
ACAD
1000
AcDbSavedByObjectVersion
1070
     0
  0
ACAD_PROXY_OBJECT
  5
9558
102
{ACAD_REACTORS
330
9550
102
}
330
9550
100
AcDbZombieObject
 90
      499
 91
      509
 93
      500
310
424CD108121A5919195B90640502408333333333333E3BF0000000000000FB01079024090700405020000000000001110200405405064090740C02480A0340
1001
ACAD
1000
AcDbSavedByObjectVersion
1070
     0
  0
ACAD_PROXY_OBJECT
  5
9557
102
{ACAD_REACTORS
330
9550
102
}
330
9550
100
AcDbZombieObject
 90
      499
 91
      509
 93
      436
310
42CCD915DA5C99599C985B595059028333333333333E3BF0000000000000FB0107901411070040501600405405064090741402480A0340
1001
ACAD
1000
AcDbSavedByObjectVersion
1070
     0
  0
ACAD_PROXY_OBJECT
  5
9555
102
{ACAD_REACTORS
330
9550
102
}
330
9550
100
AcDbZombieObject
 90
      499
 91
      509
 93
      388
310
4150985CDA58D07406404333333333333E3BF0000000000000FB0107A41107004050150841D405064090741402480A0350
1001
ACAD
1000
AcDbSavedByObjectVersion
1070
     0
  0
ACAD_PROXY_OBJECT
  5
955C
102
{ACAD_REACTORS
330
9550
102
}
330
9550
100
AcDbZombieObject
 90
      499
 91
      509
 93
      428
310
42109C9A59DA1D195B90C409028333333333333E3BF0000000000000FB010790141107004050150841D405064090741402480A029950
1001
ACAD
1000
AcDbSavedByObjectVersion
1070
     0
  0
ACAD_PROXY_OBJECT
  5
9560
102
{ACAD_REACTORS
330
9550
102
}
330
9550
100
AcDbZombieObject
 90
      499
 91
      509
 93
      452
310
42D0DBDB1BDC90DA185B99D95104090240C333333333333E3BF0000000000000FB0108901411070040501508421405064090741402480A0350
1001
ACAD
1000
AcDbSavedByObjectVersion
1070
     0
  0
ACAD_PROXY_OBJECT
  5
9559
102
{ACAD_REACTORS
330
9550
102
}
330
9550
100
AcDbZombieObject
 90
      499
 91
      509
 93
      500
310
4290DBDB98D95C1D1D585B10940D028333333333333E3BF0000000000000FB0107902409070040501000000000000111010841D405064090740C02480A0340
1001
ACAD
1000
AcDbSavedByObjectVersion
1070
     0
  0
ACAD_PROXY_OBJECT
  5
955B
102
{ACAD_REACTORS
330
9550
102
}
330
9550
100
AcDbZombieObject
 90
      499
 91
      509
 93
      412
310
40D11A5B50B409028333333333333E3BF0000000000000FB010790141107004050150841D405064090741402480A02677FFFFFD0
1001
ACAD
1000
AcDbSavedByObjectVersion
1070
     0
  0
ACAD_PROXY_OBJECT
  5
A211
102
{ACAD_REACTORS
330
9550
102
}
330
9550
100
AcDbZombieObject
 90
      499
 91
      509
 93
      452
310
43115919D950DBDB1BDC93D999916409028333333333333E3BF0000000000000FB010790141107004050150841D405064090741402480A0350
1001
ACAD
1000
AcDbSavedByObjectVersion
1070
     0
  0
ACAD_PROXY_OBJECT
  5
955F
102
{ACAD_REACTORS
330
9550
102
}
330
9550
100
AcDbZombieObject
 90
      499
 91
      509
 93
      444
310
42D19858D95C185D1D195C9B90F409028333333333333E3BF0000000000000FB010790141107004050150841D405064090741402480A0350
1001
ACAD
1000
AcDbSavedByObjectVersion
1070
     0
  0
ACAD_PROXY_OBJECT
  5
9551
102
{ACAD_REACTORS
330
9550
102
}
330
9550
100
AcDbZombieObject
 90
      499
 91
      509
 93
      388
310
41119B185D240901404333333333333E3BF0000000000000F9010740A41107004050150841D405064090741402480A1B50
1001
ACAD
1000
AcDbSavedByObjectVersion
1070
     0
  0
ACAD_PROXY_OBJECT
  5
9552
102
{ACAD_REACTORS
330
9550
102
}
330
9550
100
AcDbZombieObject
 90
      499
 91
      509
 93
      476
310
43519B185D15DA5D1A115919D95CD0140901404333333333333E3BF0000000000000F9010740901411070040501600405405064090741402480A1B50
1001
ACAD
1000
AcDbSavedByObjectVersion
1070
     0
  0
ACAD_PROXY_OBJECT
  5
9553
102
{ACAD_REACTORS
330
9550
102
}
330
9550
100
AcDbZombieObject
 90
      499
 91
      509
 93
      412
310
41D1DBDD5C985D5910240902404333333333333E3BF0000000000000F9010740A411070040501641D405064090741402480A1B50
1001
ACAD
1000
AcDbSavedByObjectVersion
1070
     0
  0
ACAD_PROXY_OBJECT
  5
9554
102
{ACAD_REACTORS
330
9550
102
}
330
9550
100
AcDbZombieObject
 90
      499
 91
      509
 93
      500
310
4411DBDD5C985D5915DA5D1A115919D95CD0340902404333333333333E3BF0000000000000F9010740901411070040501600405405064090741402480A1B50
1001
ACAD
1000
AcDbSavedByObjectVersion
1070
     0
  0
ACAD_PROXY_OBJECT
  5
A260
102
{ACAD_REACTORS
330
9550
102
}
330
9550
100
AcDbZombieObject
 90
      499
 91
      509
 93
      476
310
41921A5919195B90640502408333333333333E33F0000000000000F901079024090700405020000000000001110200405405064090740C02480A0340
1001
ACAD
1000
AcDbSavedByObjectVersion
1070
     0
  0
ACAD_PROXY_OBJECT
  5
A20F
102
{ACAD_REACTORS
330
9550
102
}
330
9550
100
AcDbZombieObject
 90
      499
 91
      509
 93
      428
310
42529A5D1D195C93D999914409028333333333333E3BF0000000000000FB010790141107004050150A41D405064090741402480A0350
1001
ACAD
1000
AcDbSavedByObjectVersion
1070
     0
  0
ACAD_PROXY_OBJECT
  5
955E
102
{ACAD_REACTORS
330
9550
102
}
330
9550
100
AcDbZombieObject
 90
      499
 91
      509
 93
      444
310
42D31A5B995C185D1D195C9B90E409028333333333333E3BF0000000000000FB010790141107004050750841D405064090741402483A0350
1001
ACAD
1000
AcDbSavedByObjectVersion
1070
     0
  0
ACAD_PROXY_OBJECT
  5
A266
102
{ACAD_REACTORS
330
9550
102
}
330
9550
100
AcDbZombieObject
 90
      499
 91
      509
 93
      484
310
42135BD9195B1A5B99D0A409038333333333333E33F0000000000000F901074090290700405010000000000201990108421405064090741402480A1B40
1001
ACAD
1000
AcDbSavedByObjectVersion
1070
     0
  0
ACAD_PROXY_OBJECT
  5
A210
102
{ACAD_REACTORS
330
9550
102
}
330
9550
100
AcDbZombieObject
 90
      499
 91
      509
 93
      444
310
42D3DD995C9A185B99D3D999915409028333333333333E3BF0000000000000FB010790141107004050150941D405064090741402480A0350
1001
ACAD
1000
AcDbSavedByObjectVersion
1070
     0
  0
ACAD_PROXY_OBJECT
  5
955A
102
{ACAD_REACTORS
330
9550
102
}
330
9550
100
AcDbZombieObject
 90
      499
 91
      509
 93
      420
310
425499585B1A5CDD1A58D08409028333333333333E3BF0000000000000FB01079019070040501508421405064090741402480A1B40
1001
ACAD
1000
AcDbSavedByObjectVersion
1070
     0
  0
ACAD_PROXY_OBJECT
  5
A265
102
{ACAD_REACTORS
330
9550
102
}
330
9550
100
AcDbZombieObject
 90
      499
 91
      509
 93
      420
310
4194DA1859195911B40902404333333333333E33F0000000000000F9010740A41107004050150800405405064090840C02480A0B40
1001
ACAD
1000
AcDbSavedByObjectVersion
1070
     0
  0
ACAD_PROXY_OBJECT
  5
A264
102
{ACAD_REACTORS
330
9550
102
}
330
9550
100
AcDbZombieObject
 90
      499
 91
      509
 93
      516
310
4454DA18591959081DDA5D1A08195919D95CD1A40902404333333333333E33F0000000000000F901074090142907004050250800405405064090740C02480A0B40
1001
ACAD
1000
AcDbSavedByObjectVersion
1070
     0
  0
ACAD_PROXY_OBJECT
  5
A261
102
{ACAD_REACTORS
330
9550
102
}
330
9550
100
AcDbZombieObject
 90
      499
 91
      509
 93
      532
310
4394DA1859195CC81BD98811DC985E5174090240C333333333333E33F0000000000000F901079024090741D01000000000000111010841D405064090740C02480A0340
1001
ACAD
1000
AcDbSavedByObjectVersion
1070
     0
  0
ACAD_PROXY_OBJECT
  5
A262
102
{ACAD_REACTORS
330
9550
102
}
330
9550
100
AcDbZombieObject
 90
      499
 91
      509
 93
      476
310
41D4DAD95D18DA1E51840502408333333333333E33F0000000000000F901079024090741D01000000000000111010B41D405064090741802480A0340
1001
ACAD
1000
AcDbSavedByObjectVersion
1070
     0
  0
ACAD_PROXY_OBJECT
  5
955D
102
{ACAD_REACTORS
330
9550
102
}
330
9550
100
AcDbZombieObject
 90
      499
 91
      509
 93
      412
310
41D51A1A58DAD95B90D409028333333333333E3BF0000000000000FB010790141107004050150C41D405064090741402480A0350
1001
ACAD
1000
AcDbSavedByObjectVersion
1070
     0
  0
ACAD_PROXY_OBJECT
  5
A25F
102
{ACAD_REACTORS
330
9550
102
}
330
9550
100
AcDbZombieObject
 90
      499
 91
      509
 93
      420
310
4255DA5C99599C985B595059028333333333333E33F0000000000000F90107901411070040501600405405064090740C02480A0340
1001
ACAD
1000
AcDbSavedByObjectVersion
1070
     0
  0
ACAD_PROXY_OBJECT
  5
A263
102
{ACAD_REACTORS
330
9550
102
}
330
9550
100
AcDbZombieObject
 90
      499
 91
      509
 93
      404
310
41560B54985E51940902404000000000000E03F0000000000000F9010740501907004050150841D405064090740C02480A1B40
1001
ACAD
1000
AcDbSavedByObjectVersion
1070
     0
  0
XRECORD
  5
B469
102
{ACAD_REACTORS
330
B468
102
}
330
B468
100
AcDbXrecord
340
18D
  0
XRECORD
  5
B46A
102
{ACAD_REACTORS
330
B468
102
}
330
B468
100
AcDbXrecord
340
18C
  0
DICTIONARYVAR
  5
AAE0
102
{ACAD_REACTORS
330
37
102
}
330
37
100
DictionaryVariables
280
     0
  1
1:1
  0
DICTIONARYVAR
  5
9627
102
{ACAD_REACTORS
330
37
102
}
330
37
100
DictionaryVariables
280
     0
  1
Standard
  0
DICTIONARYVAR
  5
29E
102
{ACAD_REACTORS
330
37
102
}
330
37
100
DictionaryVariables
280
     0
  1
Standard
  0
DICTIONARYVAR
  5
38
102
{ACAD_REACTORS
330
37
102
}
330
37
100
DictionaryVariables
280
     0
  1
-1
  0
DICTIONARYVAR
  5
1CE
102
{ACAD_REACTORS
330
37
102
}
330
37
100
DictionaryVariables
280
     0
  1
2
  0
DICTIONARYVAR
  5
704E
102
{ACAD_REACTORS
330
37
102
}
330
37
100
DictionaryVariables
280
     0
  1
1
  0
DICTIONARYVAR
  5
962A
102
{ACAD_REACTORS
330
37
102
}
330
37
100
DictionaryVariables
280
     0
  1
0
  0
DICTIONARYVAR
  5
7052
102
{ACAD_REACTORS
330
37
102
}
330
37
100
DictionaryVariables
280
     0
  1
8
  0
DICTIONARYVAR
  5
7051
102
{ACAD_REACTORS
330
37
102
}
330
37
100
DictionaryVariables
280
     0
  1
1
  0
DICTIONARYVAR
  5
AB30
102
{ACAD_REACTORS
330
37
102
}
330
37
100
DictionaryVariables
280
     0
  1
0
  0
DICTIONARYVAR
  5
704F
102
{ACAD_REACTORS
330
37
102
}
330
37
100
DictionaryVariables
280
     0
  1
8
  0
DICTIONARYVAR
  5
7050
102
{ACAD_REACTORS
330
37
102
}
330
37
100
DictionaryVariables
280
     0
  1
2
  0
DICTIONARYVAR
  5
1CF
102
{ACAD_REACTORS
330
37
102
}
330
37
100
DictionaryVariables
280
     0
  1

  0
DICTIONARYVAR
  5
9629
102
{ACAD_REACTORS
330
37
102
}
330
37
100
DictionaryVariables
280
     0
  1
127
  0
DICTIONARYVAR
  5
A25E
102
{ACAD_REACTORS
330
37
102
}
330
37
100
DictionaryVariables
280
     0
  1
2
  0
DICTIONARY
  5
B606
330
9540
100
AcDbDictionary
  3
ACAD_XREC_ROUNDTRIP
360
B607
1001
ACAD
1000
TREAT_AS_HARD
1070
     1
  0
DICTIONARY
  5
B608
330
9538
100
AcDbDictionary
  3
ACAD_XREC_ROUNDTRIP
360
B609
1001
ACAD
1000
TREAT_AS_HARD
1070
     1
  0
DICTIONARY
  5
B60A
330
9548
100
AcDbDictionary
  3
ACAD_XREC_ROUNDTRIP
360
B60B
1001
ACAD
1000
TREAT_AS_HARD
1070
     1
  0
XRECORD
  5
B607
102
{ACAD_REACTORS
330
B606
102
}
330
B606
100
AcDbXrecord
102
MATERIAL
148
0.0
149
0.0
149
0.0
 93
        0
 94
      127
282
     0
 72
     0
 77
     0
171
     0
175
     0
179
     0
273
     0
  0
XRECORD
  5
B609
102
{ACAD_REACTORS
330
B608
102
}
330
B608
100
AcDbXrecord
102
MATERIAL
148
0.0
149
0.0
149
0.0
 93
        0
 94
      127
282
     0
 72
     0
 77
     0
171
     0
175
     0
179
     0
273
     0
  0
XRECORD
  5
B60B
102
{ACAD_REACTORS
330
B60A
102
}
330
B60A
100
AcDbXrecord
102
MATERIAL
148
0.0
149
0.0
149
0.0
 93
        0
 94
      127
282
     0
 72
     0
 77
     0
171
     0
175
     0
179
     0
273
     0
  0
ENDSEC
  0
EOF
