  0
SECTION
  2
HEADER
  9
$ACADVER
  1
AC1012
  9
$DWGCODEPAGE
  3
ansi_932
  9
$INSBASE
 10
0.0
 20
0.0
 30
0.0
  9
$EXTMIN
 10
4937.060867654107
 20
-365.0099797533293
 30
0.0
  9
$EXTMAX
 10
5255.489153036538
 20
-125.5811677716628
 30
0.0000000001691137
  9
$LIMMIN
 10
0.0
 20
0.0
  9
$LIMMAX
 10
420.0
 20
297.0
  9
$ORTHOMODE
 70
     0
  9
$REGENMODE
 70
     1
  9
$FILLMODE
 70
     1
  9
$QTEXTMODE
 70
     0
  9
$MIRRTEXT
 70
     0
  9
$DRAGMODE
 70
     2
  9
$LTSCALE
 40
0.5
  9
$OSMODE
 70
 14463
  9
$ATTMODE
 70
     1
  9
$TEXTSIZE
 40
4.0
  9
$TRACEWID
 40
1.0
  9
$TEXTSTYLE
  7
STANDARD
  9
$CLAYER
  8
1TEXT
  9
$CELTYPE
  6
BYLAYER
  9
$CECOLOR
 62
   256
  9
$CELTSCALE
 40
1.0
  9
$DELOBJ
 70
     1
  9
$DISPSILH
 70
     0
  9
$DIMSCALE
 40
1.0
  9
$DIMASZ
 40
2.0
  9
$DIMEXO
 40
0.0
  9
$DIMDLI
 40
7.0
  9
$DIMRND
 40
0.0
  9
$DIMDLE
 40
0.0
  9
$DIMEXE
 40
1.0
  9
$DIMTP
 40
0.0
  9
$DIMTM
 40
0.0
  9
$DIMTXT
 40
3.5
  9
$DIMCEN
 40
0.0
  9
$DIMTSZ
 40
0.0
  9
$DIMTOL
 70
     0
  9
$DIMLIM
 70
     0
  9
$DIMTIH
 70
     0
  9
$DIMTOH
 70
     0
  9
$DIMSE1
 70
     0
  9
$DIMSE2
 70
     0
  9
$DIMTAD
 70
     1
  9
$DIMZIN
 70
     8
  9
$DIMBLK
  1

  9
$DIMASO
 70
     1
  9
$DIMSHO
 70
     1
  9
$DIMPOST
  1
 
  9
$DIMAPOST
  1

  9
$DIMALT
 70
     0
  9
$DIMALTD
 70
     2
  9
$DIMALTF
 40
25.4
  9
$DIMLFAC
 40
1.0
  9
$DIMTOFL
 70
     1
  9
$DIMTVP
 40
0.0
  9
$DIMTIX
 70
     0
  9
$DIMSOXD
 70
     0
  9
$DIMSAH
 70
     1
  9
$DIMBLK1
  1
OPEN30
  9
$DIMBLK2
  1
OPEN30
  9
$DIMSTYLE
  2
NEWX10
  9
$DIMCLRD
 70
   256
  9
$DIMCLRE
 70
   256
  9
$DIMCLRT
 70
   201
  9
$DIMTFAC
 40
0.7
  9
$DIMGAP
 40
0.7
  9
$DIMJUST
 70
     0
  9
$DIMSD1
 70
     0
  9
$DIMSD2
 70
     0
  9
$DIMTOLJ
 70
     1
  9
$DIMTZIN
 70
     8
  9
$DIMALTZ
 70
     0
  9
$DIMALTTZ
 70
     0
  9
$DIMFIT
 70
     2
  9
$DIMUPT
 70
     0
  9
$DIMUNIT
 70
     2
  9
$DIMDEC
 70
     2
  9
$DIMTDEC
 70
     4
  9
$DIMALTU
 70
     2
  9
$DIMALTTD
 70
     2
  9
$DIMTXSTY
  7
STANDARD
  9
$DIMAUNIT
 70
     0
  9
$LUNITS
 70
     2
  9
$LUPREC
 70
     4
  9
$SKETCHINC
 40
1.0
  9
$FILLETRAD
 40
0.0
  9
$AUNITS
 70
     0
  9
$AUPREC
 70
     2
  9
$MENU
  1
acad
  9
$ELEVATION
 40
0.0
  9
$PELEVATION
 40
0.0
  9
$THICKNESS
 40
0.0
  9
$LIMCHECK
 70
     0
  9
$CHAMFERA
 40
10.0
  9
$CHAMFERB
 40
10.0
  9
$CHAMFERC
 40
20.0
  9
$CHAMFERD
 40
0.0
  9
$SKPOLY
 70
     0
  9
$TDCREATE
 40
2451318.621352917
  9
$TDUPDATE
 40
2458159.599999931
  9
$TDINDWG
 40
1.4779538542
  9
$TDUSRTIMER
 40
1.4779538542
  9
$USRTIMER
 70
     1
  9
$ANGBASE
 50
0.0
  9
$ANGDIR
 70
     0
  9
$PDMODE
 70
     0
  9
$PDSIZE
 40
0.0
  9
$PLINEWID
 40
0.0
  9
$COORDS
 70
     2
  9
$SPLFRAME
 70
     0
  9
$SPLINETYPE
 70
     6
  9
$SPLINESEGS
 70
     8
  9
$ATTDIA
 70
     0
  9
$ATTREQ
 70
     1
  9
$HANDLING
 70
     1
  9
$HANDSEED
  5
B5DE
  9
$SURFTAB1
 70
     6
  9
$SURFTAB2
 70
     6
  9
$SURFTYPE
 70
     6
  9
$SURFU
 70
     6
  9
$SURFV
 70
     6
  9
$UCSNAME
  2

  9
$UCSORG
 10
0.0
 20
0.0
 30
0.0
  9
$UCSXDIR
 10
1.0
 20
0.0
 30
0.0
  9
$UCSYDIR
 10
0.0
 20
1.0
 30
0.0
  9
$PUCSNAME
  2

  9
$PUCSORG
 10
0.0
 20
0.0
 30
0.0
  9
$PUCSXDIR
 10
1.0
 20
0.0
 30
0.0
  9
$PUCSYDIR
 10
0.0
 20
1.0
 30
0.0
  9
$USERI1
 70
     0
  9
$USERI2
 70
     0
  9
$USERI3
 70
     0
  9
$USERI4
 70
     0
  9
$USERI5
 70
     0
  9
$USERR1
 40
0.0
  9
$USERR2
 40
0.0
  9
$USERR3
 40
0.0
  9
$USERR4
 40
0.0
  9
$USERR5
 40
0.0
  9
$WORLDVIEW
 70
     1
  9
$SHADEDGE
 70
     3
  9
$SHADEDIF
 70
    70
  9
$TILEMODE
 70
     1
  9
$MAXACTVP
 70
    48
  9
$PINSBASE
 10
0.0
 20
0.0
 30
0.0
  9
$PLIMCHECK
 70
     0
  9
$PEXTMIN
 10
1.000000000000000E+20
 20
1.000000000000000E+20
 30
1.000000000000000E+20
  9
$PEXTMAX
 10
-1.000000000000000E+20
 20
-1.000000000000000E+20
 30
-1.000000000000000E+20
  9
$PLIMMIN
 10
0.0
 20
0.0
  9
$PLIMMAX
 10
420.0
 20
297.0
  9
$UNITMODE
 70
     0
  9
$VISRETAIN
 70
     1
  9
$PLINEGEN
 70
     0
  9
$PSLTSCALE
 70
     1
  9
$TREEDEPTH
 70
  3020
  9
$PICKSTYLE
 70
     1
  9
$CMLSTYLE
  2
STANDARD
  9
$CMLJUST
 70
     0
  9
$CMLSCALE
 40
20.0
  9
$SAVEIMAGES
 70
     1
  0
ENDSEC
  0
SECTION
  2
CLASSES
  0
CLASS
  1
DICTIONARYVAR
  2
AcDbDictionaryVar
  3
ObjectDBX Classes
 90
        0
280
     0
281
     0
  0
CLASS
  1
IDBUFFER
  2
AcDbIdBuffer
  3
ObjectDBX Classes
 90
    32768
280
     0
281
     0
  0
CLASS
  1
LWPOLYLINE
  2
AcDbPolyline
  3
ObjectDBX Classes
 90
    32768
280
     0
281
     1
  0
CLASS
  1
ACDBDICTIONARYWDFLT
  2
AcDbDictionaryWithDefault
  3
ObjectDBX Classes
 90
    32768
280
     0
281
     0
  0
CLASS
  1
ACDBPLACEHOLDER
  2
AcDbPlaceHolder
  3
ObjectDBX Classes
 90
        0
280
     0
281
     0
  0
CLASS
  1
LAYOUT
  2
AcDbLayout
  3
ObjectDBX Classes
 90
        0
280
     0
281
     0
  0
CLASS
  1
TABLESTYLE
  2
AcDbTableStyle
  3
ObjectDBX Classes
 90
     4095
280
     0
281
     0
  0
CLASS
  1
SORTENTSTABLE
  2
AcDbSortentsTable
  3
ObjectDBX Classes
 90
    32768
280
     0
281
     0
  0
CLASS
  1
MATERIAL
  2
AcDbMaterial
  3
ObjectDBX Classes
 90
     1153
280
     0
281
     0
  0
CLASS
  1
VISUALSTYLE
  2
AcDbVisualStyle
  3
ObjectDBX Classes
 90
     4095
280
     0
281
     0
  0
CLASS
  1
SCALE
  2
AcDbScale
  3
ObjectDBX Classes
 90
     1153
280
     0
281
     0
  0
CLASS
  1
MLEADERSTYLE
  2
AcDbMLeaderStyle
  3
ACDB_MLEADERSTYLE_CLASS
 90
     4095
280
     0
281
     0
  0
CLASS
  1
CELLSTYLEMAP
  2
AcDbCellStyleMap
  3
ObjectDBX Classes
 90
     1152
280
     0
281
     0
  0
CLASS
  1
SUN
  2
AcDbSun
  3
SCENEOE
 90
     1153
280
     0
281
     0
  0
CLASS
  1
XRECORD
  2
AcDbXrecord
  3
ObjectDBX Classes
 90
    32768
280
     0
281
     0
  0
CLASS
  1
HATCH
  2
AcDbHatch
  3
ObjectDBX Classes
 90
    32768
280
     0
281
     1
  0
ENDSEC
  0
SECTION
  2
TABLES
  0
TABLE
  2
VPORT
  5
8
330
0
100
AcDbSymbolTable
 70
     1
  0
VPORT
  5
952D
330
8
100
AcDbSymbolTableRecord
100
AcDbViewportTableRecord
  2
*ACTIVE
 70
     0
 10
0.0
 20
0.0
 11
1.0
 21
1.0
 12
5096.275010345322
 22
-245.295573762496
 13
0.0
 23
0.0
 14
10.0
 24
10.0
 15
10.0
 25
10.0
 16
0.0
 26
0.0
 36
1.0
 17
0.0
 27
0.0
 37
0.0
 40
257.0709349697893
 41
1.871481028151775
 42
50.0
 43
0.0
 44
0.0
 50
0.0
 51
0.0
 71
    16
 72
   100
 73
     1
 74
     1
 75
     0
 76
     0
 77
     0
 78
     0
  0
ENDTAB
  0
TABLE
  2
LTYPE
  5
5
330
0
100
AcDbSymbolTable
 70
     2
  0
LTYPE
  5
12
330
5
100
AcDbSymbolTableRecord
100
AcDbLinetypeTableRecord
  2
BYBLOCK
 70
     0
  3

 72
    65
 73
     0
 40
0.0
  0
LTYPE
  5
13
330
5
100
AcDbSymbolTableRecord
100
AcDbLinetypeTableRecord
  2
BYLAYER
 70
     0
  3

 72
    65
 73
     0
 40
0.0
  0
LTYPE
  5
14
330
5
100
AcDbSymbolTableRecord
100
AcDbLinetypeTableRecord
  2
CONTINUOUS
 70
     0
  3
Solid line
 72
    65
 73
     0
 40
0.0
  0
LTYPE
  5
9837
330
5
100
AcDbSymbolTableRecord
100
AcDbLinetypeTableRecord
  2
CENTER2
 70
     0
  3
Center (.5x) ___ _ ___ _ ___ _ ___ _ ___ _ ___
 72
    65
 73
     4
 40
28.575
 49
19.05
 74
     0
 49
-3.175
 74
     0
 49
3.175
 74
     0
 49
-3.175
 74
     0
  0
ENDTAB
  0
TABLE
  2
LAYER
  5
2
102
{ACAD_XDICTIONARY
360
96D9
102
}
330
0
100
AcDbSymbolTable
 70
     5
  0
LAYER
  5
E
102
{ACAD_XDICTIONARY
360
9593
102
}
330
2
100
AcDbSymbolTableRecord
100
AcDbLayerTableRecord
  2
0
 70
     0
 62
     7
  6
CONTINUOUS
  0
LAYER
  5
29
102
{ACAD_XDICTIONARY
360
9595
102
}
330
2
100
AcDbSymbolTableRecord
100
AcDbLayerTableRecord
  2
1CENTER
 70
     0
 62
     7
  6
CENTER2
  0
LAYER
  5
31
102
{ACAD_XDICTIONARY
360
9597
102
}
330
2
100
AcDbSymbolTableRecord
100
AcDbLayerTableRecord
  2
1TEXT
 70
     0
 62
     7
  6
CONTINUOUS
  0
LAYER
  5
243
102
{ACAD_XDICTIONARY
360
959D
102
}
330
2
100
AcDbSymbolTableRecord
100
AcDbLayerTableRecord
  2
01
 70
     0
 62
     1
  6
CONTINUOUS
  0
LAYER
  5
24E
102
{ACAD_XDICTIONARY
360
95A3
102
}
330
2
100
AcDbSymbolTableRecord
100
AcDbLayerTableRecord
  2
1DIM
 70
     0
 62
     7
  6
CONTINUOUS
  0
ENDTAB
  0
TABLE
  2
STYLE
  5
3
330
0
100
AcDbSymbolTable
 70
     1
  0
STYLE
  5
F
330
3
100
AcDbSymbolTableRecord
100
AcDbTextStyleTableRecord
  2
STANDARD
 70
     0
 40
0.0
 41
1.0
 50
0.0
 71
     0
 42
4.0
  3
txt.shx
  4
extfont.shx
  0
ENDTAB
  0
TABLE
  2
VIEW
  5
6
330
0
100
AcDbSymbolTable
 70
     0
  0
ENDTAB
  0
TABLE
  2
UCS
  5
7
330
0
100
AcDbSymbolTable
 70
     0
  0
ENDTAB
  0
TABLE
  2
APPID
  5
9
330
0
100
AcDbSymbolTable
 70
    12
  0
APPID
  5
10
330
9
100
AcDbSymbolTableRecord
100
AcDbRegAppTableRecord
  2
ACAD
 70
     0
  0
APPID
  5
21
330
9
100
AcDbSymbolTableRecord
100
AcDbRegAppTableRecord
  2
DRAWINGVARIABLESXDATA
 70
     0
  0
APPID
  5
64
330
9
100
AcDbSymbolTableRecord
100
AcDbRegAppTableRecord
  2
CONTENTTABDATA
 70
     0
  0
APPID
  5
65
330
9
100
AcDbSymbolTableRecord
100
AcDbRegAppTableRecord
  2
CONTENTCURRENTTAB
 70
     0
  0
APPID
  5
66
330
9
100
AcDbSymbolTableRecord
100
AcDbRegAppTableRecord
  2
CONTENTBLOCKDESCRIPTION
 70
     0
  0
APPID
  5
67
330
9
100
AcDbSymbolTableRecord
100
AcDbRegAppTableRecord
  2
CONTENTBLOCKICON
 70
     0
  0
APPID
  5
68
330
9
100
AcDbSymbolTableRecord
100
AcDbRegAppTableRecord
  2
CONTENTLONGBLOCKNAME
 70
     0
  0
APPID
  5
2AE
330
9
100
AcDbSymbolTableRecord
100
AcDbRegAppTableRecord
  2
ACAD_PSEXT
 70
     0
  0
APPID
  5
9585
330
9
100
AcDbSymbolTableRecord
100
AcDbRegAppTableRecord
  2
ACAD_MLEADERVER
 70
     0
  0
APPID
  5
A2E3
330
9
100
AcDbSymbolTableRecord
100
AcDbRegAppTableRecord
  2
ACADANNOTATIVE
 70
     0
  0
APPID
  5
A2E4
330
9
100
AcDbSymbolTableRecord
100
AcDbRegAppTableRecord
  2
ACDBBLOCKREPETAG
 70
     0
  0
APPID
  5
AE0C
330
9
100
AcDbSymbolTableRecord
100
AcDbRegAppTableRecord
  2
ACAECLAYERSTANDARD
 70
     0
  0
ENDTAB
  0
TABLE
  2
DIMSTYLE
  5
A
330
0
100
AcDbSymbolTable
 70
     1
  0
DIMSTYLE
105
48
330
A
100
AcDbSymbolTableRecord
100
AcDbDimStyleTableRecord
  2
NEWX10
 70
     0
  3
 
  4

  5

  6
OPEN30
  7
OPEN30
 40
1.0
 41
2.0
 42
0.0
 43
7.0
 44
1.0
 45
0.0
 46
0.0
 47
0.0
 48
0.0
140
3.5
141
0.0
142
0.0
143
25.4
144
1.0
145
0.0
146
0.7
147
0.7
 71
     0
 72
     0
 73
     0
 74
     0
 75
     0
 76
     0
 77
     1
 78
     8
170
     0
171
     2
172
     1
173
     1
174
     0
175
     0
176
   256
177
   256
178
   201
179
     2
270
     2
271
     2
272
     4
273
     2
274
     2
340
F
275
     0
280
     0
281
     0
282
     0
283
     1
284
     8
285
     0
286
     0
287
     2
288
     0
  0
ENDTAB
  0
TABLE
  2
BLOCK_RECORD
  5
1
330
0
100
AcDbSymbolTable
 70
     8
  0
BLOCK_RECORD
  5
18
102
{ACAD_XDICTIONARY
360
88F
102
}
330
1
100
AcDbSymbolTableRecord
100
AcDbBlockTableRecord
  2
*MODEL_SPACE
  0
BLOCK_RECORD
  5
15
330
1
100
AcDbSymbolTableRecord
100
AcDbBlockTableRecord
  2
*PAPER_SPACE
  0
BLOCK_RECORD
  5
42
330
1
100
AcDbSymbolTableRecord
100
AcDbBlockTableRecord
  2
_OPEN30
  0
BLOCK_RECORD
  5
A333
330
1
100
AcDbSymbolTableRecord
100
AcDbBlockTableRecord
  2
A3WAKUKAWAJUN2017_HYOUDAI_
  0
BLOCK_RECORD
  5
B43E
330
1
100
AcDbSymbolTableRecord
100
AcDbBlockTableRecord
  2
*X72
  0
BLOCK_RECORD
  5
B48C
330
1
100
AcDbSymbolTableRecord
100
AcDbBlockTableRecord
  2
*X73
  0
BLOCK_RECORD
  5
B4DE
330
1
100
AcDbSymbolTableRecord
100
AcDbBlockTableRecord
  2
*X74
  0
BLOCK_RECORD
  5
B52F
330
1
100
AcDbSymbolTableRecord
100
AcDbBlockTableRecord
  2
*X75
  0
BLOCK_RECORD
  5
B56C
330
1
100
AcDbSymbolTableRecord
100
AcDbBlockTableRecord
  2
*X76
  0
BLOCK_RECORD
  5
B5AC
330
1
100
AcDbSymbolTableRecord
100
AcDbBlockTableRecord
  2
*X77
  0
ENDTAB
  0
ENDSEC
  0
SECTION
  2
BLOCKS
  0
BLOCK
  5
19
330
18
100
AcDbEntity
  8
0
100
AcDbBlockBegin
  2
*MODEL_SPACE
 70
     0
 10
0.0
 20
0.0
 30
0.0
  3
*MODEL_SPACE
  1

  0
ENDBLK
  5
1A
330
18
100
AcDbEntity
  8
0
100
AcDbBlockEnd
  0
BLOCK
  5
16
330
15
100
AcDbEntity
 67
     1
  8
0
100
AcDbBlockBegin
  2
*PAPER_SPACE
 70
     0
 10
0.0
 20
0.0
 30
0.0
  3
*PAPER_SPACE
  1

  0
ENDBLK
  5
17
330
15
100
AcDbEntity
 67
     1
  8
0
100
AcDbBlockEnd
  0
BLOCK
  5
43
330
42
100
AcDbEntity
  8
0
100
AcDbBlockBegin
  2
_OPEN30
 70
     0
 10
0.0
 20
0.0
 30
0.0
  3
_OPEN30
  1

  0
LINE
  5
44
330
42
100
AcDbEntity
  8
0
  6
BYBLOCK
 62
     0
100
AcDbLine
 10
-1.0
 20
0.26794919
 30
0.0
 11
0.0
 21
0.0
 31
0.0
  0
LINE
  5
45
330
42
100
AcDbEntity
  8
0
  6
BYBLOCK
 62
     0
100
AcDbLine
 10
0.0
 20
0.0
 30
0.0
 11
-1.0
 21
-0.26794919
 31
0.0
  0
LINE
  5
46
330
42
100
AcDbEntity
  8
0
  6
BYBLOCK
 62
     0
100
AcDbLine
 10
0.0
 20
0.0
 30
0.0
 11
-1.0
 21
0.0
 31
0.0
  0
ENDBLK
  5
47
330
42
100
AcDbEntity
  8
0
100
AcDbBlockEnd
  0
BLOCK
  5
AA56
330
A333
100
AcDbEntity
  8
0
100
AcDbBlockBegin
  2
A3WAKUKAWAJUN2017_HYOUDAI_
 70
     0
 10
0.0
 20
0.0
 30
0.0
  3
A3WAKUKAWAJUN2017_HYOUDAI_
  1

  0
LINE
  5
A335
330
A333
100
AcDbEntity
  8
0
100
AcDbLine
 10
13.26299999998673
 20
-0.0001000000000317
 30
0.0
 11
9.236999999990758
 21
8.999899999990987
 31
0.0
1001
ACAD
1000
ASC_BOUNDS
1002
{
1070
    19
1005
A376
1002
}
  0
LINE
  5
A336
330
A333
100
AcDbEntity
  8
0
100
AcDbLine
 10
5.657999999994331
 20
0.9999999999989768
 30
0.0
 11
9.236999999990758
 21
8.999999999991019
 31
0.0
1001
ACAD
1000
ASC_BOUNDS
1002
{
1070
    19
1005
A376
1002
}
  0
LINE
  5
A337
330
A333
100
AcDbEntity
  8
0
100
AcDbLine
 10
18.59199999998134
 20
-0.2368999999997641
 30
0.0
 11
16.46099999998353
 21
5.432899999994561
 31
0.0
1001
ACAD
1000
ASC_BOUNDS
1002
{
1070
    19
1005
A377
1002
}
  0
LINE
  5
A338
330
A333
100
AcDbEntity
  8
0
100
AcDbLine
 10
18.59199999998134
 20
-0.2368999999997641
 30
0.0
 11
22.38199999997767
 21
8.763099999991255
 31
0.0
1001
ACAD
1000
ASC_BOUNDS
1002
{
1070
    19
1005
A377
1002
}
  0
LINE
  5
A339
330
A333
100
AcDbEntity
  8
0
100
AcDbLine
 10
14.32899999998563
 20
-0.2368999999997641
 30
0.0
 11
16.46099999998353
 21
5.432899999994561
 31
0.0
1001
ACAD
1000
ASC_BOUNDS
1002
{
1070
    19
1005
A377
1002
}
  0
LINE
  5
A33A
330
A333
100
AcDbEntity
  8
0
100
AcDbLine
 10
14.32899999998563
 20
-0.2368999999997641
 30
0.0
 11
10.53899999998941
 21
8.763099999991255
 31
0.0
1001
ACAD
1000
ASC_BOUNDS
1002
{
1070
    19
1005
A377
1002
}
  0
LINE
  5
A33B
330
A333
100
AcDbEntity
  8
0
100
AcDbLine
 10
19.53899999998043
 20
-0.0001000000000317
 30
0.0
 11
23.56599999997638
 21
8.999899999990987
 31
0.0
1001
ACAD
1000
ASC_BOUNDS
1002
{
1070
    19
1005
A378
1002
}
  0
LINE
  5
A33C
330
A333
100
AcDbEntity
  8
0
100
AcDbLine
 10
26.97358892824991
 20
1.383099999991202
 30
0.0
 11
23.56599999997638
 21
8.999899999990987
 31
0.0
1001
ACAD
1000
ASC_BOUNDS
1002
{
1070
    19
1005
A378
1002
}
  0
LINE
  5
A33D
330
A333
100
AcDbEntity
  8
0
100
AcDbLine
 10
5.657999999994331
 20
0.9999999999989768
 30
0.0
 11
3.181999999996833
 21
4.668599999995308
 31
0.0
1001
ACAD
1000
ASC_BOUNDS
1002
{
1070
    19
1005
A376
1002
}
  0
LINE
  5
A33E
330
A333
100
AcDbEntity
  8
0
100
AcDbLine
 10
4.617999999995391
 20
-0.0001000000000317
 30
0.0
 11
1.420999999998571
 21
4.736799999995242
 31
0.0
1001
ACAD
1000
ASC_BOUNDS
1002
{
1070
    19
1005
A376
1002
}
  0
LINE
  5
A33F
330
A333
100
AcDbEntity
  8
0
100
AcDbLine
 10
1.420999999998571
 20
8.763099999991255
 30
0.0
 11
1.420999999998571
 21
0.0
 31
0.0
1001
ACAD
1000
ASC_BOUNDS
1002
{
1070
    19
1005
A37B
1002
}
  0
LINE
  5
A340
330
A333
100
AcDbEntity
  8
0
100
AcDbLine
 10
0.0
 20
8.763099999991255
 30
0.0
 11
0.0
 21
0.0
 31
0.0
1001
ACAD
1000
ASC_BOUNDS
1002
{
1070
    19
1005
A37B
1002
}
  0
LINE
  5
A341
330
A333
100
AcDbEntity
  8
0
100
AcDbLine
 10
6.766999999993232
 20
-0.0001000000000317
 30
0.0
 11
7.826999999992154
 21
2.368399999997621
 31
0.0
1001
ACAD
1000
ASC_BOUNDS
1002
{
1070
    19
1005
A376
1002
}
  0
LINE
  5
A342
330
A333
100
AcDbEntity
  8
0
100
AcDbLine
 10
0.0
 20
0.0
 30
0.0
 11
1.420999999998571
 21
0.0
 31
0.0
1001
ACAD
1000
ASC_BOUNDS
1002
{
1070
    19
1005
A37B
1002
}
  0
LINE
  5
A343
330
A333
100
AcDbEntity
  8
0
100
AcDbLine
 10
4.617999999995391
 20
0.0
 30
0.0
 11
6.766999999993232
 21
0.0
 31
0.0
1001
ACAD
1000
ASC_BOUNDS
1002
{
1070
    19
1005
A376
1002
}
  0
LINE
  5
A344
330
A333
100
AcDbEntity
  8
0
100
AcDbLine
 10
11.70599999998831
 20
-0.0001000000000317
 30
0.0
 11
10.64699999998936
 21
2.368399999997621
 31
0.0
1001
ACAD
1000
ASC_BOUNDS
1002
{
1070
    19
1005
A376
1002
}
  0
LINE
  5
A345
330
A333
100
AcDbEntity
  8
0
100
AcDbLine
 10
7.826999999992154
 20
2.368399999997621
 30
0.0
 11
10.64699999998936
 21
2.368399999997621
 31
0.0
1001
ACAD
1000
ASC_BOUNDS
1002
{
1070
    19
1005
A376
1002
}
  0
LINE
  5
A346
330
A333
100
AcDbEntity
  8
0
100
AcDbLine
 10
11.70599999998831
 20
0.0
 30
0.0
 11
13.26299999998673
 21
0.0
 31
0.0
1001
ACAD
1000
ASC_BOUNDS
1002
{
1070
    19
1005
A376
1002
}
  0
LINE
  5
A347
330
A333
100
AcDbEntity
  8
0
100
AcDbLine
 10
22.15599999997789
 20
2.368399999997621
 30
0.0
 11
24.97599999997499
 21
2.368399999997621
 31
0.0
1001
ACAD
1000
ASC_BOUNDS
1002
{
1070
    19
1005
A378
1002
}
  0
LINE
  5
A348
330
A333
100
AcDbEntity
  8
0
100
AcDbLine
 10
19.53899999998043
 20
0.0
 30
0.0
 11
21.09599999997886
 21
0.0
 31
0.0
1001
ACAD
1000
ASC_BOUNDS
1002
{
1070
    19
1005
A378
1002
}
  0
LINE
  5
A349
330
A333
100
AcDbEntity
  8
0
100
AcDbLine
 10
21.09599999997886
 20
-0.0001000000000317
 30
0.0
 11
22.15599999997789
 21
2.368399999997621
 31
0.0
1001
ACAD
1000
ASC_BOUNDS
1002
{
1070
    19
1005
A378
1002
}
  0
LINE
  5
A34A
330
A333
100
AcDbEntity
  8
0
100
AcDbLine
 10
26.02015566812236
 20
0.0330999999912365
 30
0.0
 11
24.97599999997499
 21
2.368399999997621
 31
0.0
1001
ACAD
1000
ASC_BOUNDS
1002
{
1070
    19
1005
A378
1002
}
  0
LINE
  5
A34B
330
A333
100
AcDbEntity
  8
0
100
AcDbLine
 10
14.32399999998563
 20
3.315799999996671
 30
0.0
 11
16.46099999998353
 21
8.999899999990987
 31
0.0
1001
ACAD
1000
ASC_BOUNDS
1002
{
1070
    19
1005
A377
1002
}
  0
LINE
  5
A34C
330
A333
100
AcDbEntity
  8
0
100
AcDbLine
 10
6.432999999993513
 20
8.763099999991255
 30
0.0
 11
3.181999999996833
 21
4.668599999995308
 31
0.0
1001
ACAD
1000
ASC_BOUNDS
1002
{
1070
    19
1005
A376
1002
}
  0
LINE
  5
A34D
330
A333
100
AcDbEntity
  8
0
100
AcDbLine
 10
4.617999999995391
 20
8.763099999991255
 30
0.0
 11
1.420999999998571
 21
4.736799999995242
 31
0.0
1001
ACAD
1000
ASC_BOUNDS
1002
{
1070
    19
1005
A376
1002
}
  0
LINE
  5
A34E
330
A333
100
AcDbEntity
  8
0
100
AcDbLine
 10
0.0
 20
8.763099999991255
 30
0.0
 11
1.420999999998571
 21
8.763099999991255
 31
0.0
1001
ACAD
1000
ASC_BOUNDS
1002
{
1070
    19
1005
A37B
1002
}
  0
LINE
  5
A34F
330
A333
100
AcDbEntity
  8
0
100
AcDbLine
 10
4.617999999995391
 20
8.763099999991255
 30
0.0
 11
6.432999999993513
 21
8.763099999991255
 31
0.0
1001
ACAD
1000
ASC_BOUNDS
1002
{
1070
    19
1005
A376
1002
}
  0
LINE
  5
A350
330
A333
100
AcDbEntity
  8
0
100
AcDbLine
 10
14.32399999998563
 20
3.315799999996671
 30
0.0
 11
12.02999999998792
 21
8.763099999991255
 31
0.0
1001
ACAD
1000
ASC_BOUNDS
1002
{
1070
    19
1005
A377
1002
}
  0
LINE
  5
A351
330
A333
100
AcDbEntity
  8
0
100
AcDbLine
 10
10.06399999998996
 20
3.670999999996297
 30
0.0
 11
9.236999999990758
 21
5.5200999999945
 31
0.0
1001
ACAD
1000
ASC_BOUNDS
1002
{
1070
    19
1005
A376
1002
}
  0
LINE
  5
A352
330
A333
100
AcDbEntity
  8
0
100
AcDbLine
 10
8.409999999991555
 20
3.670999999996297
 30
0.0
 11
9.236999999990758
 21
5.5200999999945
 31
0.0
1001
ACAD
1000
ASC_BOUNDS
1002
{
1070
    19
1005
A376
1002
}
  0
LINE
  5
A353
330
A333
100
AcDbEntity
  8
0
100
AcDbLine
 10
8.409999999991555
 20
3.670999999996297
 30
0.0
 11
10.06399999998996
 21
3.670999999996297
 31
0.0
1001
ACAD
1000
ASC_BOUNDS
1002
{
1070
    19
1005
A376
1002
}
  0
LINE
  5
A354
330
A333
100
AcDbEntity
  8
0
100
AcDbLine
 10
10.53899999998941
 20
8.763099999991255
 30
0.0
 11
12.02999999998792
 21
8.763099999991255
 31
0.0
1001
ACAD
1000
ASC_BOUNDS
1002
{
1070
    19
1005
A377
1002
}
  0
LINE
  5
A355
330
A333
100
AcDbEntity
  8
0
100
AcDbLine
 10
22.7389999999773
 20
3.670999999996297
 30
0.0
 11
23.56599999997638
 21
5.5200999999945
 31
0.0
1001
ACAD
1000
ASC_BOUNDS
1002
{
1070
    19
1005
A378
1002
}
  0
LINE
  5
A356
330
A333
100
AcDbEntity
  8
0
100
AcDbLine
 10
22.7389999999773
 20
3.670999999996297
 30
0.0
 11
24.39299999997559
 21
3.670999999996297
 31
0.0
1001
ACAD
1000
ASC_BOUNDS
1002
{
1070
    19
1005
A378
1002
}
  0
LINE
  5
A357
330
A333
100
AcDbEntity
  8
0
100
AcDbLine
 10
18.59799999998143
 20
3.315799999996671
 30
0.0
 11
20.89099999997916
 21
8.763099999991255
 31
0.0
1001
ACAD
1000
ASC_BOUNDS
1002
{
1070
    19
1005
A377
1002
}
  0
LINE
  5
A358
330
A333
100
AcDbEntity
  8
0
100
AcDbLine
 10
18.59799999998143
 20
3.315799999996671
 30
0.0
 11
16.46099999998353
 21
8.999899999990987
 31
0.0
1001
ACAD
1000
ASC_BOUNDS
1002
{
1070
    19
1005
A377
1002
}
  0
LINE
  5
A359
330
A333
100
AcDbEntity
  8
0
100
AcDbLine
 10
20.89099999997916
 20
8.763099999991255
 30
0.0
 11
22.38199999997767
 21
8.763099999991255
 31
0.0
1001
ACAD
1000
ASC_BOUNDS
1002
{
1070
    19
1005
A377
1002
}
  0
LINE
  5
A35A
330
A333
100
AcDbEntity
  8
0
100
AcDbLine
 10
24.39299999997559
 20
3.670999999996297
 30
0.0
 11
23.56599999997638
 21
5.5200999999945
 31
0.0
1001
ACAD
1000
ASC_BOUNDS
1002
{
1070
    19
1005
A378
1002
}
  0
LINE
  5
A35B
330
A333
100
AcDbEntity
  8
0
100
AcDbLine
 10
44.99999999995498
 20
-0.2368999999997641
 30
0.0
 11
40.02599999995994
 21
5.341799999994635
 31
0.0
1001
ACAD
1000
ASC_BOUNDS
1002
{
1070
    19
1005
A37A
1002
}
  0
LINE
  5
A35C
330
A333
100
AcDbEntity
  8
0
100
AcDbLine
 10
40.02599999995994
 20
5.341799999994635
 30
0.0
 11
40.02599999995994
 21
0.0
 31
0.0
1001
ACAD
1000
ASC_BOUNDS
1002
{
1070
    19
1005
A37A
1002
}
  0
LINE
  5
A35D
330
A333
100
AcDbEntity
  8
0
100
AcDbLine
 10
38.60499999996136
 20
8.999999999991019
 30
0.0
 11
38.60499999996136
 21
0.0
 31
0.0
1001
ACAD
1000
ASC_BOUNDS
1002
{
1070
    19
1005
A37A
1002
}
  0
LINE
  5
A35E
330
A333
100
AcDbEntity
  8
0
100
AcDbLine
 10
44.99999999995498
 20
8.763099999991255
 30
0.0
 11
44.99999999995498
 21
-0.2368999999997641
 31
0.0
1001
ACAD
1000
ASC_BOUNDS
1002
{
1070
    19
1005
A37A
1002
}
  0
LINE
  5
A35F
330
A333
100
AcDbEntity
  8
0
100
AcDbLine
 10
38.60499999996136
 20
0.0
 30
0.0
 11
40.02599999995994
 21
0.0
 31
0.0
1001
ACAD
1000
ASC_BOUNDS
1002
{
1070
    19
1005
A37A
1002
}
  0
LINE
  5
A360
330
A333
100
AcDbEntity
  8
0
100
AcDbLine
 10
43.57899999995641
 20
3.421199999996588
 30
0.0
 11
38.60499999996136
 21
8.999899999990987
 31
0.0
1001
ACAD
1000
ASC_BOUNDS
1002
{
1070
    19
1005
A37A
1002
}
  0
LINE
  5
A361
330
A333
100
AcDbEntity
  8
0
100
AcDbLine
 10
43.57899999995641
 20
8.763099999991255
 30
0.0
 11
43.57899999995641
 21
3.421199999996588
 31
0.0
1001
ACAD
1000
ASC_BOUNDS
1002
{
1070
    19
1005
A37A
1002
}
  0
LINE
  5
A362
330
A333
100
AcDbEntity
  8
0
100
AcDbLine
 10
43.57899999995641
 20
8.763099999991255
 30
0.0
 11
44.99999999995498
 21
8.763099999991255
 31
0.0
1001
ACAD
1000
ASC_BOUNDS
1002
{
1070
    19
1005
A37A
1002
}
  0
LINE
  5
A363
330
A333
100
AcDbEntity
  8
0
100
AcDbLine
 10
37.67199999996831
 20
8.763099999991255
 30
0.0
 11
36.23199999996837
 21
8.763099999991255
 31
0.0
  0
LINE
  5
A364
330
A333
100
AcDbEntity
  8
0
100
AcDbLine
 10
31.64199999996833
 20
8.763099999991255
 30
0.0
 11
31.64199999996833
 21
2.481619422925121
 31
0.0
  0
LINE
  5
A365
330
A333
100
AcDbEntity
  8
0
100
AcDbLine
 10
37.67199999996831
 20
8.763099999991255
 30
0.0
 11
37.67199999996831
 21
2.481619422925121
 31
0.0
  0
LINE
  5
A366
330
A333
100
AcDbEntity
  8
0
100
AcDbLine
 10
36.23199999996837
 20
8.763099999991255
 30
0.0
 11
36.23199999996837
 21
2.481619422925064
 31
0.0
  0
LINE
  5
A367
330
A333
100
AcDbEntity
  8
0
100
AcDbLine
 10
33.08199999996839
 20
8.763099999991255
 30
0.0
 11
33.08199999996839
 21
2.481619422925121
 31
0.0
  0
ARC
  5
A368
330
A333
100
AcDbEntity
  8
0
100
AcDbCircle
 10
34.65699999996832
 20
3.183099999991214
 30
0.0
 40
3.420000000000007
100
AcDbArc
 50
240.0000000000255
 51
299.9999999999766
  0
ARC
  5
A369
330
A333
100
AcDbEntity
  8
0
100
AcDbCircle
 10
34.65699999996832
 20
3.183099999991214
 30
0.0
 40
1.97999999999999
100
AcDbArc
 50
240.000000000026
 51
299.9999999999703
  0
LINE
  5
A36A
330
A333
100
AcDbEntity
  8
0
100
AcDbLine
 10
33.08199999996828
 20
8.763099999991255
 30
0.0
 11
31.64199999996833
 21
8.763099999991255
 31
0.0
  0
ARC
  5
A36B
330
A333
100
AcDbEntity
  8
0
100
AcDbCircle
 10
35.06199999996829
 20
2.481619422925064
 30
0.0
 40
1.17
100
AcDbArc
 50
299.9999999999699
 51
0.0
  0
ARC
  5
A36C
330
A333
100
AcDbEntity
  8
0
100
AcDbCircle
 10
34.25199999996835
 20
2.481619422925121
 30
0.0
 40
1.17
100
AcDbArc
 50
180.0
 51
240.0000000000238
  0
ARC
  5
A36D
330
A333
100
AcDbEntity
  8
0
100
AcDbCircle
 10
35.06199999996841
 20
2.481619422925121
 30
0.0
 40
2.61
100
AcDbArc
 50
299.9999999999756
 51
0.0
  0
ARC
  5
A36E
330
A333
100
AcDbEntity
  8
0
100
AcDbCircle
 10
34.25199999996835
 20
2.481619422925121
 30
0.0
 40
2.61
100
AcDbArc
 50
180.0
 51
240.0000000000244
  0
LINE
  5
A36F
330
A333
100
AcDbEntity
  8
0
100
AcDbLine
 10
29.30199999996933
 20
8.763099999991255
 30
0.0
 11
30.74199999996927
 21
8.763099999991255
 31
0.0
1001
ACAD
1000
ASC_BOUNDS
1002
{
1070
    19
1005
A378
1002
}
  0
LINE
  5
A370
330
A333
100
AcDbEntity
  8
0
100
AcDbLine
 10
30.74199999996927
 20
8.763099999991255
 30
0.0
 11
30.74199999996927
 21
2.373099999991211
 31
0.0
1001
ACAD
1000
ASC_BOUNDS
1002
{
1070
    19
1005
A378
1002
}
  0
LINE
  5
A371
330
A333
100
AcDbEntity
  8
0
100
AcDbLine
 10
26.02015566812236
 20
0.0330999999912365
 30
0.0
 11
28.40199999996923
 21
0.0330999999912365
 31
0.0
1001
ACAD
1000
ASC_BOUNDS
1002
{
1070
    19
1005
A378
1002
}
  0
LINE
  5
A372
330
A333
100
AcDbEntity
  8
0
100
AcDbLine
 10
29.30199999996933
 20
8.763099999991255
 30
0.0
 11
29.30199999996933
 21
2.283099999991236
 31
0.0
1001
ACAD
1000
ASC_BOUNDS
1002
{
1070
    19
1005
A378
1002
}
  0
LINE
  5
A373
330
A333
100
AcDbEntity
  8
0
100
AcDbLine
 10
26.97358892824991
 20
1.383099999991202
 30
0.0
 11
28.40199999996923
 21
1.383099999991202
 31
0.0
1001
ACAD
1000
ASC_BOUNDS
1002
{
1070
    19
1005
A378
1002
}
  0
ARC
  5
A374
330
A333
100
AcDbEntity
  8
0
100
AcDbCircle
 10
28.40199999996923
 20
2.283099999991236
 30
0.0
 40
0.9
100
AcDbArc
 50
270.0
 51
0.0
1001
ACAD
1000
ASC_BOUNDS
1002
{
1070
    19
1005
A378
1002
}
  0
ARC
  5
A375
330
A333
100
AcDbEntity
  8
0
100
AcDbCircle
 10
28.40199999996923
 20
2.373099999991211
 30
0.0
 40
2.34
100
AcDbArc
 50
270.0
 51
0.0
1001
ACAD
1000
ASC_BOUNDS
1002
{
1070
    19
1005
A378
1002
}
  0
INSERT
  5
A376
330
A333
100
AcDbEntity
  8
0
100
AcDbBlockReference
  2
*X72
 10
0.0
 20
0.0
 30
0.0
1001
ACAD
1000
HATCH
1002
{
1070
    19
1000
ANSI37
1040
0.15
1040
0.0
1000
ASC_BOUNDS
1070
     2
1070
     2
1070
    12
1005
A335
1005
A336
1005
A33D
1005
A34C
1005
A34F
1005
A34D
1005
A33E
1005
A343
1005
A341
1005
A345
1005
A344
1005
A346
1070
     2
1070
     3
1005
A351
1005
A353
1005
A352
1000
ASC_SEEDPOINT
1011
3.614004224891801
1021
2.996669441146025
1031
0.0
1000
R14_HATCH_DATA
1000
A376
1011
1.0
1021
0.0
1031
0.0
1011
0.0
1021
1.0
1031
0.0
1011
0.0
1021
0.0
1031
1.0
1040
0.0
1010
0.0
1020
0.0
1030
1.0
1000
ANSI37
1070
     0
1070
     1
1071
        2
1071
        7
1070
     0
1070
     1
1071
       17
1040
13.26299999998673
1040
-0.0001000000000317
1040
9.236999999990758
1040
8.999899999990987
1040
9.236999999990758
1040
8.999999999991019
1040
5.657999999994331
1040
0.9999999999989768
1040
3.181999999996833
1040
4.668599999995308
1040
6.432999999993513
1040
8.763099999991255
1040
4.617999999995391
1040
8.763099999991255
1040
1.420999999998571
1040
4.736799999995242
1040
4.617999999995391
1040
-0.0001000000000317
1040
4.617999999995391
1040
0.0
1040
6.766999999993232
1040
0.0
1040
6.766999999993232
1040
-0.0001000000000317
1040
7.826999999992154
1040
2.368399999997621
1040
10.64699999998936
1040
2.368399999997621
1040
11.70599999998831
1040
-0.0001000000000317
1040
11.70599999998831
1040
0.0
1040
13.26299999998673
1040
0.0
1071
       12
1005
A335
1005
A336
1005
A33D
1005
A34C
1005
A34F
1005
A34D
1005
A33E
1005
A343
1005
A341
1005
A345
1005
A344
1005
A346
1071
       22
1070
     0
1070
     1
1071
        3
1040
9.236999999990758
1040
5.5200999999945
1040
10.06399999998996
1040
3.670999999996297
1040
8.409999999991555
1040
3.670999999996297
1071
        3
1005
A351
1005
A353
1005
A352
1070
     0
1070
     1
1040
0.0
1040
0.15
1070
     0
1070
     2
1040
0.7853981633974483
1040
49.29960901727088
1040
-10.17736998311392
1040
-0.3367596045400932
1040
0.3367596045400932
1070
     0
1040
2.356194490192345
1040
49.29960901727088
1040
-10.17736998311392
1040
-0.3367596045400932
1040
-0.3367596045400932
1070
     0
1040
0.0110235143455945
1071
        2
1040
3.614004224891801
1040
2.996669441146025
1040
0.0
1040
3.614004224891801
1040
2.996669441146025
1040
0.0
1002
}
  0
INSERT
  5
A377
330
A333
100
AcDbEntity
  8
0
100
AcDbBlockReference
  2
*X73
 10
0.0
 20
0.0
 30
0.0
1001
ACAD
1000
HATCH
1002
{
1070
    19
1000
ANSI37
1040
0.15
1040
0.0
1000
ASC_BOUNDS
1070
     1
1070
     2
1070
    10
1005
A337
1005
A338
1005
A359
1005
A357
1005
A358
1005
A34B
1005
A350
1005
A354
1005
A33A
1005
A339
1000
ASC_SEEDPOINT
1011
14.73245321214324
1021
2.798246178283421
1031
0.0
1000
R14_HATCH_DATA
1000
A377
1011
1.0
1021
0.0
1031
0.0
1011
0.0
1021
1.0
1031
0.0
1011
0.0
1021
0.0
1031
1.0
1040
0.0
1010
0.0
1020
0.0
1030
1.0
1000
ANSI37
1070
     0
1070
     1
1071
        1
1071
        7
1070
     0
1070
     1
1071
       10
1040
16.46099999998353
1040
5.432899999994561
1040
18.59199999998134
1040
-0.2368999999997641
1040
22.38199999997767
1040
8.763099999991255
1040
20.89099999997916
1040
8.763099999991255
1040
18.59799999998143
1040
3.315799999996671
1040
16.46099999998353
1040
8.999899999990987
1040
14.32399999998563
1040
3.315799999996671
1040
12.02999999998792
1040
8.763099999991255
1040
10.53899999998941
1040
8.763099999991255
1040
14.32899999998563
1040
-0.2368999999997641
1071
       10
1005
A337
1005
A338
1005
A359
1005
A357
1005
A358
1005
A34B
1005
A350
1005
A354
1005
A33A
1005
A339
1070
     0
1070
     1
1040
0.0
1040
0.15
1070
     0
1070
     2
1040
0.7853981633974483
1040
49.29960901727088
1040
-10.17736998311392
1040
-0.3367596045400932
1040
0.3367596045400932
1070
     0
1040
2.356194490192345
1040
49.29960901727088
1040
-10.17736998311392
1040
-0.3367596045400932
1040
-0.3367596045400932
1070
     0
1040
0.0110235143455945
1071
        1
1040
14.73245321214324
1040
2.798246178283421
1040
0.0
1002
}
  0
INSERT
  5
A378
330
A333
100
AcDbEntity
  8
0
100
AcDbBlockReference
  2
*X74
 10
0.0
 20
0.0
 30
0.0
1001
ACAD
1000
HATCH
1002
{
1070
    19
1000
ANSI37
1040
0.15
1040
0.0
1000
ASC_BOUNDS
1070
     2
1070
     2
1070
    13
1005
A33B
1005
A348
1005
A349
1005
A347
1005
A34A
1005
A371
1005
A375
1005
A370
1005
A36F
1005
A372
1005
A374
1005
A373
1005
A33C
1070
     2
1070
     3
1005
A355
1005
A35A
1005
A356
1000
ASC_SEEDPOINT
1011
21.97929957367762
1021
3.294304244259308
1031
0.0
1000
R14_HATCH_DATA
1000
A378
1011
1.0
1021
0.0
1031
0.0
1011
0.0
1021
1.0
1031
0.0
1011
0.0
1021
0.0
1031
1.0
1040
0.0
1010
0.0
1020
0.0
1030
1.0
1000
ANSI37
1070
     0
1070
     1
1071
        2
1071
        7
1070
     1
1070
     1
1071
       15
1040
23.56599999997638
1040
8.999899999990987
1040
0.0
1040
19.53899999998043
1040
-0.0001000000000317
1040
0.0
1040
19.53899999998043
1040
0.0
1040
0.0
1040
21.09599999997886
1040
0.0
1040
0.0
1040
21.09599999997886
1040
-0.0001000000000317
1040
0.0
1040
22.15599999997789
1040
2.368399999997621
1040
0.0
1040
24.97599999997499
1040
2.368399999997621
1040
0.0
1040
26.02015566812236
1040
0.0330999999912365
1040
0.0
1040
28.40199999996923
1040
0.0330999999912365
1040
0.414213562373095
1040
30.74199999996923
1040
2.373099999991211
1040
0.0
1040
30.74199999996927
1040
8.763099999991255
1040
0.0
1040
29.30199999996933
1040
8.763099999991255
1040
0.0
1040
29.30199999996933
1040
2.283099999991236
1040
-0.414213562373095
1040
28.40199999996923
1040
1.383099999991237
1040
0.0
1040
26.97358892824991
1040
1.383099999991202
1040
0.0
1071
       13
1005
A33B
1005
A348
1005
A349
1005
A347
1005
A34A
1005
A371
1005
A375
1005
A370
1005
A36F
1005
A372
1005
A374
1005
A373
1005
A33C
1071
       22
1070
     0
1070
     1
1071
        3
1040
22.7389999999773
1040
3.670999999996297
1040
23.56599999997638
1040
5.5200999999945
1040
24.39299999997559
1040
3.670999999996297
1071
        3
1005
A355
1005
A35A
1005
A356
1070
     0
1070
     1
1040
0.0
1040
0.15
1070
     0
1070
     2
1040
0.7853981633974483
1040
49.29960901727088
1040
-10.17736998311392
1040
-0.3367596045400932
1040
0.3367596045400932
1070
     0
1040
2.356194490192345
1040
49.29960901727088
1040
-10.17736998311392
1040
-0.3367596045400932
1040
-0.3367596045400932
1070
     0
1040
0.0110235143455945
1071
        2
1040
21.97929957367762
1040
3.294304244259308
1040
0.0
1040
21.97929957367762
1040
3.294304244259308
1040
0.0
1002
}
  0
INSERT
  5
A379
330
A333
100
AcDbEntity
  8
0
100
AcDbBlockReference
  2
*X75
 10
0.0
 20
0.0
 30
0.0
1001
ACAD
1000
HATCH
1002
{
1070
    19
1000
ANSI37
1040
0.15
1040
0.0
1000
R14_HATCH_DATA
1000
A379
1011
1.0
1021
0.0
1031
0.0
1011
0.0
1021
1.0
1031
0.0
1011
0.0
1021
0.0
1031
1.0
1040
0.0
1010
0.0
1020
0.0
1030
1.0
1000
ANSI37
1070
     0
1070
     1
1071
        1
1071
        7
1070
     1
1070
     1
1071
       12
1040
31.64199999996833
1040
2.481619422925121
1040
0.2679491924310942
1040
32.94699999997067
1040
0.2212931190493919
1040
0.2679491924301353
1040
36.36699999995983
1040
0.2212931190459813
1040
0.2679491924321411
1040
37.67199999996831
1040
2.481619422928361
1040
0.0
1040
37.67199999996831
1040
8.763099999991255
1040
0.0
1040
36.23199999996837
1040
8.763099999991255
1040
0.0
1040
36.23199999996837
1040
2.481619422925064
1040
-0.2679491924310291
1040
35.64699999996708
1040
1.468369700498386
1040
-0.267949192430519
1040
33.66699999997093
1040
1.468369700497703
1040
-0.267949192431809
1040
33.08199999996839
1040
2.481619422926997
1040
0.0
1040
33.08199999996839
1040
8.763099999991255
1040
0.0
1040
31.64199999996833
1040
8.763099999991255
1040
0.0
1071
        0
1070
     0
1070
     1
1040
0.0
1040
0.15
1070
     0
1070
     2
1040
0.7853981633974483
1040
49.29960901727088
1040
-10.17736998311392
1040
-0.3367596045400932
1040
0.3367596045400932
1070
     0
1040
2.356194490192345
1040
49.29960901727088
1040
-10.17736998311392
1040
-0.3367596045400932
1040
-0.3367596045400932
1070
     0
1040
0.0110235143455945
1071
        1
1040
32.30357378967278
1040
3.988785755459219
1040
0.0
1002
}
  0
INSERT
  5
A37A
330
A333
100
AcDbEntity
  8
0
100
AcDbBlockReference
  2
*X76
 10
0.0
 20
0.0
 30
0.0
1001
ACAD
1000
HATCH
1002
{
1070
    19
1000
ANSI37
1040
0.15
1040
0.0
1000
ASC_BOUNDS
1070
     1
1070
     2
1070
     8
1005
A35B
1005
A35E
1005
A362
1005
A361
1005
A360
1005
A35D
1005
A35F
1005
A35C
1000
ASC_SEEDPOINT
1011
39.74896370716704
1021
4.484843821435049
1031
0.0
1000
R14_HATCH_DATA
1000
A37A
1011
1.0
1021
0.0
1031
0.0
1011
0.0
1021
1.0
1031
0.0
1011
0.0
1021
0.0
1031
1.0
1040
0.0
1010
0.0
1020
0.0
1030
1.0
1000
ANSI37
1070
     0
1070
     1
1071
        1
1071
        7
1070
     0
1070
     1
1071
        9
1040
40.02599999995994
1040
5.341799999994635
1040
44.99999999995498
1040
-0.2368999999997641
1040
44.99999999995498
1040
8.763099999991255
1040
43.57899999995641
1040
8.763099999991255
1040
43.57899999995641
1040
3.421199999996588
1040
38.60499999996136
1040
8.999899999990987
1040
38.60499999996136
1040
8.999999999991019
1040
38.60499999996136
1040
0.0
1040
40.02599999995994
1040
0.0
1071
        8
1005
A35B
1005
A35E
1005
A362
1005
A361
1005
A360
1005
A35D
1005
A35F
1005
A35C
1070
     0
1070
     1
1040
0.0
1040
0.15
1070
     0
1070
     2
1040
0.7853981633974483
1040
49.29960901727088
1040
-10.17736998311392
1040
-0.3367596045400932
1040
0.3367596045400932
1070
     0
1040
2.356194490192345
1040
49.29960901727088
1040
-10.17736998311392
1040
-0.3367596045400932
1040
-0.3367596045400932
1070
     0
1040
0.0110235143455945
1071
        1
1040
39.74896370716704
1040
4.484843821435049
1040
0.0
1002
}
  0
INSERT
  5
A37B
330
A333
100
AcDbEntity
  8
0
100
AcDbBlockReference
  2
*X77
 10
0.0
 20
0.0
 30
0.0
1001
ACAD
1000
HATCH
1002
{
1070
    19
1000
ANSI37
1040
0.15
1040
0.0
1000
ASC_BOUNDS
1070
     1
1070
     2
1070
     4
1005
A33F
1005
A34E
1005
A340
1005
A342
1000
ASC_SEEDPOINT
1011
1.079051535452663
1021
4.148538732891836
1031
0.0
1000
R14_HATCH_DATA
1000
A37B
1011
1.0
1021
0.0
1031
0.0
1011
0.0
1021
1.0
1031
0.0
1011
0.0
1021
0.0
1031
1.0
1040
0.0
1010
0.0
1020
0.0
1030
1.0
1000
ANSI37
1070
     0
1070
     1
1071
        1
1071
        7
1070
     0
1070
     1
1071
        4
1040
1.420999999998571
1040
0.0
1040
1.420999999998571
1040
8.763099999991255
1040
0.0
1040
8.763099999991255
1040
0.0
1040
0.0
1071
        4
1005
A33F
1005
A34E
1005
A340
1005
A342
1070
     0
1070
     1
1040
0.0
1040
0.15
1070
     0
1070
     2
1040
0.7853981633974483
1040
49.29960901727088
1040
-10.17736998311392
1040
-0.3367596045400932
1040
0.3367596045400932
1070
     0
1040
2.356194490192345
1040
49.29960901727088
1040
-10.17736998311392
1040
-0.3367596045400932
1040
-0.3367596045400932
1070
     0
1040
0.0053004257112761
1071
        1
1040
1.079051535452663
1040
4.148538732891836
1040
0.0
1002
}
  0
ENDBLK
  5
AA57
330
A333
100
AcDbEntity
  8
0
100
AcDbBlockEnd
  0
BLOCK
  5
B5CC
330
B43E
100
AcDbEntity
  8
0
100
AcDbBlockBegin
  2
*X72
 70
     1
 10
0.0
 20
0.0
 30
0.0
  3
*X72
  1

  0
LINE
  5
B43F
330
B43E
100
AcDbEntity
  8
0
  6
CONTINUOUS
100
AcDbLine
 10
3.418023043697893
 20
7.251849696850613
 30
0.0
 11
4.929273346838536
 21
8.763099999991255
 31
0.0
  0
LINE
  5
B440
330
B43E
100
AcDbEntity
  8
0
  6
CONTINUOUS
100
AcDbLine
 10
1.483656411257782
 20
4.643963855330318
 30
0.0
 11
5.60279255591872
 21
8.763099999991255
 31
0.0
  0
LINE
  5
B441
330
B43E
100
AcDbEntity
  8
0
  6
CONTINUOUS
100
AcDbLine
 10
1.755053947328235
 20
4.241842182320584
 30
0.0
 11
6.276311764998907
 21
8.763099999991255
 31
0.0
  0
LINE
  5
B442
330
B43E
100
AcDbEntity
  8
0
  6
CONTINUOUS
100
AcDbLine
 10
2.026451483398688
 20
3.839720509310849
 30
0.0
 11
4.441040904851878
 21
6.254309930764039
 31
0.0
  0
LINE
  5
B443
330
B43E
100
AcDbEntity
  8
0
  6
CONTINUOUS
100
AcDbLine
 10
2.297849019469139
 20
3.437598836301114
 30
0.0
 11
3.321765168359338
 21
4.461514985191313
 31
0.0
  0
LINE
  5
B444
330
B43E
100
AcDbEntity
  8
0
  6
CONTINUOUS
100
AcDbLine
 10
2.569246555539591
 20
3.03547716329138
 30
0.0
 11
3.593163397972743
 21
4.059394005724531
 31
0.0
  0
LINE
  5
B445
330
B43E
100
AcDbEntity
  8
0
  6
CONTINUOUS
100
AcDbLine
 10
2.840644091610043
 20
2.633355490281646
 30
0.0
 11
3.864561627586149
 21
3.657273026257751
 31
0.0
  0
LINE
  5
B446
330
B43E
100
AcDbEntity
  8
0
  6
CONTINUOUS
100
AcDbLine
 10
3.112041627680496
 20
2.231233817271911
 30
0.0
 11
4.135959857199554
 21
3.25515204679097
 31
0.0
  0
LINE
  5
B447
330
B43E
100
AcDbEntity
  8
0
  6
CONTINUOUS
100
AcDbLine
 10
3.383439163750948
 20
1.829112144262177
 30
0.0
 11
4.40735808681296
 21
2.853031067324189
 31
0.0
  0
LINE
  5
B448
330
B43E
100
AcDbEntity
  8
0
  6
CONTINUOUS
100
AcDbLine
 10
3.654836699821399
 20
1.426990471252442
 30
0.0
 11
4.678756316426365
 21
2.450910087857407
 31
0.0
  0
LINE
  5
B449
330
B43E
100
AcDbEntity
  8
0
  6
CONTINUOUS
100
AcDbLine
 10
3.926234235891853
 20
1.024868798242709
 30
0.0
 11
4.95015454603977
 21
2.048789108390626
 31
0.0
  0
LINE
  5
B44A
330
B43E
100
AcDbEntity
  8
0
  6
CONTINUOUS
100
AcDbLine
 10
4.197631771962304
 20
0.6227471252329737
 30
0.0
 11
5.221552775653176
 21
1.646668128923846
 31
0.0
  0
LINE
  5
B44B
330
B43E
100
AcDbEntity
  8
0
  6
CONTINUOUS
100
AcDbLine
 10
8.715877546767851
 20
7.835069736359266
 30
0.0
 11
9.435953450375058
 21
8.555145639966472
 31
0.0
  0
LINE
  5
B44C
330
B43E
100
AcDbEntity
  8
0
  6
CONTINUOUS
100
AcDbLine
 10
8.170620868422267
 20
6.616293848933497
 30
0.0
 11
9.644120833743461
 21
8.08979381425469
 31
0.0
  0
LINE
  5
B44D
330
B43E
100
AcDbEntity
  8
0
  6
CONTINUOUS
100
AcDbLine
 10
7.625364190076684
 20
5.397517961507727
 30
0.0
 11
9.852288217111864
 21
7.624441988542907
 31
0.0
  0
LINE
  5
B44E
330
B43E
100
AcDbEntity
  8
0
  6
CONTINUOUS
100
AcDbLine
 10
7.080107511731101
 20
4.178742074081957
 30
0.0
 11
10.06045560048027
 21
7.159090162831124
 31
0.0
  0
LINE
  5
B44F
330
B43E
100
AcDbEntity
  8
0
  6
CONTINUOUS
100
AcDbLine
 10
6.534850833385518
 20
2.959966186656187
 30
0.0
 11
10.26862298384867
 21
6.693738337119342
 31
0.0
  0
LINE
  5
B450
330
B43E
100
AcDbEntity
  8
0
  6
CONTINUOUS
100
AcDbLine
 10
4.469029308032756
 20
0.2206254522232385
 30
0.0
 11
5.492951005266582
 21
1.244547149457064
 31
0.0
  0
LINE
  5
B451
330
B43E
100
AcDbEntity
  8
0
  6
CONTINUOUS
100
AcDbLine
 10
5.989594155039935
 20
1.741190299230417
 30
0.0
 11
8.806950407233131
 21
4.558546551423613
 31
0.0
  0
LINE
  5
B452
330
B43E
100
AcDbEntity
  8
0
  6
CONTINUOUS
100
AcDbLine
 10
9.401251593263643
 20
5.152847737454126
 30
0.0
 11
10.47679036721708
 21
6.228386511407559
 31
0.0
  0
LINE
  5
B453
330
B43E
100
AcDbEntity
  8
0
  6
CONTINUOUS
100
AcDbLine
 10
4.921837203428691
 20
-0.0000858614610131
 30
0.0
 11
8.592923064886001
 21
3.670999999996297
 31
0.0
  0
LINE
  5
B454
330
B43E
100
AcDbEntity
  8
0
  6
CONTINUOUS
100
AcDbLine
 10
9.609390446785305
 20
4.6874673818956
 30
0.0
 11
10.68495775058548
 21
5.763034685695775
 31
0.0
  0
LINE
  5
B455
330
B43E
100
AcDbEntity
  8
0
  6
CONTINUOUS
100
AcDbLine
 10
5.595387755019432
 20
-0.0000545189504582
 30
0.0
 11
7.716137258923768
 21
2.120694984953879
 31
0.0
  0
LINE
  5
B456
330
B43E
100
AcDbEntity
  8
0
  6
CONTINUOUS
100
AcDbLine
 10
6.268938306610172
 20
-0.000023176439905
 30
0.0
 11
7.170485805526503
 21
0.9015243224764267
 31
0.0
  0
LINE
  5
B457
330
B43E
100
AcDbEntity
  8
0
  6
CONTINUOUS
100
AcDbLine
 10
7.963842273967511
 20
2.368399999997621
 30
0.0
 11
9.266442273966188
 21
3.670999999996297
 31
0.0
  0
LINE
  5
B458
330
B43E
100
AcDbEntity
  8
0
  6
CONTINUOUS
100
AcDbLine
 10
8.637361483047696
 20
2.368399999997621
 30
0.0
 11
9.939961483046375
 21
3.670999999996297
 31
0.0
  0
LINE
  5
B459
330
B43E
100
AcDbEntity
  8
0
  6
CONTINUOUS
100
AcDbLine
 10
9.817529300306965
 20
4.222087026337075
 30
0.0
 11
10.89312513395388
 21
5.297682859983993
 31
0.0
  0
LINE
  5
B45A
330
B43E
100
AcDbEntity
  8
0
  6
CONTINUOUS
100
AcDbLine
 10
10.02566815382863
 20
3.756706670778549
 30
0.0
 11
11.10129251732229
 21
4.832331034272211
 31
0.0
  0
LINE
  5
B45B
330
B43E
100
AcDbEntity
  8
0
  6
CONTINUOUS
100
AcDbLine
 10
9.310880692127883
 20
2.368399999997621
 30
0.0
 11
11.30945990069069
 21
4.366979208560428
 31
0.0
  0
LINE
  5
B45C
330
B43E
100
AcDbEntity
  8
0
  6
CONTINUOUS
100
AcDbLine
 10
9.98439990120807
 20
2.36839999999762
 30
0.0
 11
11.5176272840591
 21
3.901627382848645
 31
0.0
  0
LINE
  5
B45D
330
B43E
100
AcDbEntity
  8
0
  6
CONTINUOUS
100
AcDbLine
 10
10.65037369446246
 20
2.36085458417182
 30
0.0
 11
11.7257946674275
 21
3.436275557136862
 31
0.0
  0
LINE
  5
B45E
330
B43E
100
AcDbEntity
  8
0
  6
CONTINUOUS
100
AcDbLine
 10
10.85847197087848
 20
1.895433651507656
 30
0.0
 11
11.9339620507959
 21
2.97092373142508
 31
0.0
  0
LINE
  5
B45F
330
B43E
100
AcDbEntity
  8
0
  6
CONTINUOUS
100
AcDbLine
 10
11.0665702472945
 20
1.430012718843491
 30
0.0
 11
12.14212943416431
 21
2.505571905713296
 31
0.0
  0
LINE
  5
B460
330
B43E
100
AcDbEntity
  8
0
  6
CONTINUOUS
100
AcDbLine
 10
11.27466852371052
 20
0.9645917861793256
 30
0.0
 11
12.35029681753271
 21
2.040220080001513
 31
0.0
  0
LINE
  5
B461
330
B43E
100
AcDbEntity
  8
0
  6
CONTINUOUS
100
AcDbLine
 10
11.48276680012654
 20
0.4991708535151611
 30
0.0
 11
12.55846420090111
 21
1.57486825428973
 31
0.0
  0
LINE
  5
B462
330
B43E
100
AcDbEntity
  8
0
  6
CONTINUOUS
100
AcDbLine
 10
11.69086507654257
 20
0.0337499208509957
 30
0.0
 11
12.76663158426952
 21
1.109516428577947
 31
0.0
  0
LINE
  5
B463
330
B43E
100
AcDbEntity
  8
0
  6
CONTINUOUS
100
AcDbLine
 10
12.33057447873954
 20
-0.0000598860322123
 30
0.0
 11
12.97479896763792
 21
0.6441646028661663
 31
0.0
  0
LINE
  5
B464
330
B43E
100
AcDbEntity
  8
0
  6
CONTINUOUS
100
AcDbLine
 10
13.00413694809395
 20
-0.0000166257579952
 30
0.0
 11
13.18296635100632
 21
0.1788127771543824
 31
0.0
  0
LINE
  5
B465
330
B43E
100
AcDbEntity
  8
0
  6
CONTINUOUS
100
AcDbLine
 10
4.772852165289667
 20
-0.000092794222212
 30
0.0
 11
4.296495091028902
 21
0.4762642800385528
 31
0.0
  0
LINE
  5
B466
330
B43E
100
AcDbEntity
  8
0
  6
CONTINUOUS
100
AcDbLine
 10
5.446340034776103
 20
-0.0000614546284616
 30
0.0
 11
2.898195908335625
 21
2.548082671812017
 31
0.0
  0
LINE
  5
B467
330
B43E
100
AcDbEntity
  8
0
  6
CONTINUOUS
100
AcDbLine
 10
6.119827904262539
 20
-0.0000301150347113
 30
0.0
 11
1.499896725642348
 21
4.61990106358548
 31
0.0
  0
LINE
  5
B468
330
B43E
100
AcDbEntity
  8
0
  6
CONTINUOUS
100
AcDbLine
 10
6.775136745476159
 20
0.0181802528318542
 30
0.0
 11
5.699826040202669
 21
1.093490958105344
 31
0.0
  0
LINE
  5
B469
330
B43E
100
AcDbEntity
  8
0
  6
CONTINUOUS
100
AcDbLine
 10
6.983376846288489
 20
0.4834593610997118
 30
0.0
 11
5.908008617934405
 21
1.558827589453796
 31
0.0
  0
LINE
  5
B46A
330
B43E
100
AcDbEntity
  8
0
  6
CONTINUOUS
100
AcDbLine
 10
5.377063484962296
 20
1.416253513345719
 30
0.0
 11
1.702276957014131
 21
5.091040041293883
 31
0.0
  0
LINE
  5
B46B
330
B43E
100
AcDbEntity
  8
0
  6
CONTINUOUS
100
AcDbLine
 10
3.978745891735324
 20
3.488090315652877
 30
0.0
 11
2.000373521109399
 21
5.466462686278803
 31
0.0
  0
LINE
  5
B46C
330
B43E
100
AcDbEntity
  8
0
  6
CONTINUOUS
100
AcDbLine
 10
7.191616947100819
 20
0.948738469367568
 30
0.0
 11
6.11619119566614
 21
2.024164220802247
 31
0.0
  0
LINE
  5
B46D
330
B43E
100
AcDbEntity
  8
0
  6
CONTINUOUS
100
AcDbLine
 10
7.399857047913149
 20
1.414017577635424
 30
0.0
 11
6.324373773397875
 21
2.489500852150698
 31
0.0
  0
LINE
  5
B46E
330
B43E
100
AcDbEntity
  8
0
  6
CONTINUOUS
100
AcDbLine
 10
7.608097148725479
 20
1.879296685903281
 30
0.0
 11
6.53255635112961
 21
2.95483748349915
 31
0.0
  0
LINE
  5
B46F
330
B43E
100
AcDbEntity
  8
0
  6
CONTINUOUS
100
AcDbLine
 10
7.816337249537808
 20
2.344575794171138
 30
0.0
 11
6.740738928861345
 21
3.420174114847601
 31
0.0
  0
LINE
  5
B470
330
B43E
100
AcDbEntity
  8
0
  6
CONTINUOUS
100
AcDbLine
 10
3.310241080789734
 20
4.830114335678653
 30
0.0
 11
2.298470085204666
 21
5.84188533126372
 31
0.0
  0
LINE
  5
B471
330
B43E
100
AcDbEntity
  8
0
  6
CONTINUOUS
100
AcDbLine
 10
3.60832983563551
 20
5.205544789913063
 30
0.0
 11
2.596566649299935
 21
6.217307976248638
 31
0.0
  0
LINE
  5
B472
330
B43E
100
AcDbEntity
  8
0
  6
CONTINUOUS
100
AcDbLine
 10
3.906418590481286
 20
5.580975244147473
 30
0.0
 11
2.894663213395203
 21
6.592730621233557
 31
0.0
  0
LINE
  5
B473
330
B43E
100
AcDbEntity
  8
0
  6
CONTINUOUS
100
AcDbLine
 10
4.204507345327062
 20
5.956405698381884
 30
0.0
 11
3.192759777490472
 21
6.968153266218474
 31
0.0
  0
LINE
  5
B474
330
B43E
100
AcDbEntity
  8
0
  6
CONTINUOUS
100
AcDbLine
 10
8.466032252791512
 20
2.368399999997621
 30
0.0
 11
6.948921506593081
 21
3.885510746196053
 31
0.0
  0
LINE
  5
B475
330
B43E
100
AcDbEntity
  8
0
  6
CONTINUOUS
100
AcDbLine
 10
9.139551461871699
 20
2.36839999999762
 30
0.0
 11
7.157104084324816
 21
4.350847377544504
 31
0.0
  0
LINE
  5
B476
330
B43E
100
AcDbEntity
  8
0
  6
CONTINUOUS
100
AcDbLine
 10
4.502596100172839
 20
6.331836152616295
 30
0.0
 11
3.49085634158574
 21
7.343575911203393
 31
0.0
  0
LINE
  5
B477
330
B43E
100
AcDbEntity
  8
0
  6
CONTINUOUS
100
AcDbLine
 10
4.800684855018615
 20
6.707266606850705
 30
0.0
 11
3.788952905681008
 21
7.718998556188312
 31
0.0
  0
LINE
  5
B478
330
B43E
100
AcDbEntity
  8
0
  6
CONTINUOUS
100
AcDbLine
 10
12.18154012887317
 20
-0.0000694579236642
 30
0.0
 11
11.32140332908496
 21
0.8600673418645499
 31
0.0
  0
LINE
  5
B479
330
B43E
100
AcDbEntity
  8
0
  6
CONTINUOUS
100
AcDbLine
 10
12.85501608323566
 20
-0.0000262032059659
 30
0.0
 11
10.77672456435345
 21
2.078265315676246
 31
0.0
  0
LINE
  5
B47A
330
B43E
100
AcDbEntity
  8
0
  6
CONTINUOUS
100
AcDbLine
 10
9.813070670951886
 20
2.36839999999762
 30
0.0
 11
8.51047067095321
 21
3.670999999996297
 31
0.0
  0
LINE
  5
B47B
330
B43E
100
AcDbEntity
  8
0
  6
CONTINUOUS
100
AcDbLine
 10
10.48658988003207
 20
2.36839999999762
 30
0.0
 11
9.183989880033396
 21
3.670999999996297
 31
0.0
  0
LINE
  5
B47C
330
B43E
100
AcDbEntity
  8
0
  6
CONTINUOUS
100
AcDbLine
 10
8.441048632286794
 20
3.740422038662712
 30
0.0
 11
7.365286662056551
 21
4.816184008892956
 31
0.0
  0
LINE
  5
B47D
330
B43E
100
AcDbEntity
  8
0
  6
CONTINUOUS
100
AcDbLine
 10
8.649187485808454
 20
4.205802394221237
 30
0.0
 11
7.573469239788285
 21
5.281520640241407
 31
0.0
  0
LINE
  5
B47E
330
B43E
100
AcDbEntity
  8
0
  6
CONTINUOUS
100
AcDbLine
 10
5.098773609864391
 20
7.082697061085115
 30
0.0
 11
4.087049469776277
 21
8.09442120117323
 31
0.0
  0
LINE
  5
B47F
330
B43E
100
AcDbEntity
  8
0
  6
CONTINUOUS
100
AcDbLine
 10
5.396862364710167
 20
7.458127515319526
 30
0.0
 11
4.385146033871544
 21
8.469843846158149
 31
0.0
  0
LINE
  5
B480
330
B43E
100
AcDbEntity
  8
0
  6
CONTINUOUS
100
AcDbLine
 10
13.04801363231285
 20
0.4804954567970334
 30
0.0
 11
9.85750908911358
 21
3.670999999996297
 31
0.0
  0
LINE
  5
B481
330
B43E
100
AcDbEntity
  8
0
  6
CONTINUOUS
100
AcDbLine
 10
8.857326339330116
 20
4.671182749779763
 30
0.0
 11
7.781651817520021
 21
5.746857271589858
 31
0.0
  0
LINE
  5
B482
330
B43E
100
AcDbEntity
  8
0
  6
CONTINUOUS
100
AcDbLine
 10
5.694951119555943
 20
7.833557969553937
 30
0.0
 11
4.765409089118624
 21
8.763099999991255
 31
0.0
  0
LINE
  5
B483
330
B43E
100
AcDbEntity
  8
0
  6
CONTINUOUS
100
AcDbLine
 10
12.50286117236978
 20
1.699167125820288
 30
0.0
 11
9.68611877250287
 21
4.515909525687196
 31
0.0
  0
LINE
  5
B484
330
B43E
100
AcDbEntity
  8
0
  6
CONTINUOUS
100
AcDbLine
 10
9.065465192851777
 20
5.136563105338288
 30
0.0
 11
7.989834395251757
 21
6.21219390293831
 31
0.0
  0
LINE
  5
B485
330
B43E
100
AcDbEntity
  8
0
  6
CONTINUOUS
100
AcDbLine
 10
5.993039874401719
 20
8.208988423788346
 30
0.0
 11
5.43892829819881
 21
8.763099999991255
 31
0.0
  0
LINE
  5
B486
330
B43E
100
AcDbEntity
  8
0
  6
CONTINUOUS
100
AcDbLine
 10
11.95770871242671
 20
2.917838794843543
 30
0.0
 11
8.19801697298349
 21
6.677530534286761
 31
0.0
  0
LINE
  5
B487
330
B43E
100
AcDbEntity
  8
0
  6
CONTINUOUS
100
AcDbLine
 10
6.291128629247495
 20
8.584418878022756
 30
0.0
 11
6.112447507278997
 21
8.763099999991255
 31
0.0
  0
LINE
  5
B488
330
B43E
100
AcDbEntity
  8
0
  6
CONTINUOUS
100
AcDbLine
 10
11.41255625248364
 20
4.136510463866797
 30
0.0
 11
8.406199550715227
 21
7.142867165635211
 31
0.0
  0
LINE
  5
B489
330
B43E
100
AcDbEntity
  8
0
  6
CONTINUOUS
100
AcDbLine
 10
10.86740379254057
 20
5.355182132890051
 30
0.0
 11
8.614382128446962
 21
7.608203796983664
 31
0.0
  0
LINE
  5
B48A
330
B43E
100
AcDbEntity
  8
0
  6
CONTINUOUS
100
AcDbLine
 10
10.3222513325975
 20
6.573853801913305
 30
0.0
 11
8.822564706178696
 21
8.073540428332114
 31
0.0
  0
LINE
  5
B48B
330
B43E
100
AcDbEntity
  8
0
  6
CONTINUOUS
100
AcDbLine
 10
9.777098872654436
 20
7.792525470936562
 30
0.0
 11
9.030747283910433
 21
8.538877059680566
 31
0.0
  0
ENDBLK
  5
B5CD
330
B43E
100
AcDbEntity
  8
0
100
AcDbBlockEnd
  0
BLOCK
  5
B5CE
330
B48C
100
AcDbEntity
  8
0
100
AcDbBlockBegin
  2
*X73
 70
     1
 10
0.0
 20
0.0
 30
0.0
  3
*X73
  1

  0
LINE
  5
B48D
330
B48C
100
AcDbEntity
  8
0
  6
CONTINUOUS
100
AcDbLine
 10
10.67292308101235
 20
8.445076852443387
 30
0.0
 11
10.99094622856022
 21
8.763099999991255
 31
0.0
  0
LINE
  5
B48E
330
B48C
100
AcDbEntity
  8
0
  6
CONTINUOUS
100
AcDbLine
 10
10.87250383178748
 20
7.971138394138331
 30
0.0
 11
11.6644654376404
 21
8.763099999991255
 31
0.0
  0
LINE
  5
B48F
330
B48C
100
AcDbEntity
  8
0
  6
CONTINUOUS
100
AcDbLine
 10
11.07208458256261
 20
7.497199935833273
 30
0.0
 11
12.12126590876355
 21
8.546381262034211
 31
0.0
  0
LINE
  5
B490
330
B48C
100
AcDbEntity
  8
0
  6
CONTINUOUS
100
AcDbLine
 10
11.27166533333774
 20
7.023261477528216
 30
0.0
 11
12.32085164573666
 21
8.072447789927136
 31
0.0
  0
LINE
  5
B491
330
B48C
100
AcDbEntity
  8
0
  6
CONTINUOUS
100
AcDbLine
 10
11.47124608411287
 20
6.549323019223158
 30
0.0
 11
12.52043738270977
 21
7.59851431782006
 31
0.0
  0
LINE
  5
B492
330
B48C
100
AcDbEntity
  8
0
  6
CONTINUOUS
100
AcDbLine
 10
11.670826834888
 20
6.075384560918101
 30
0.0
 11
12.72002311968288
 21
7.124580845712984
 31
0.0
  0
LINE
  5
B493
330
B48C
100
AcDbEntity
  8
0
  6
CONTINUOUS
100
AcDbLine
 10
11.87040758566313
 20
5.601446102613043
 30
0.0
 11
12.91960885665599
 21
6.650647373605907
 31
0.0
  0
LINE
  5
B494
330
B48C
100
AcDbEntity
  8
0
  6
CONTINUOUS
100
AcDbLine
 10
12.06998833643825
 20
5.127507644307986
 30
0.0
 11
13.1191945936291
 21
6.176713901498832
 31
0.0
  0
LINE
  5
B495
330
B48C
100
AcDbEntity
  8
0
  6
CONTINUOUS
100
AcDbLine
 10
12.26956908721338
 20
4.65356918600293
 30
0.0
 11
13.31878033060221
 21
5.702780429391757
 31
0.0
  0
LINE
  5
B496
330
B48C
100
AcDbEntity
  8
0
  6
CONTINUOUS
100
AcDbLine
 10
12.46914983798851
 20
4.179630727697873
 30
0.0
 11
13.51836606757532
 21
5.228846957284683
 31
0.0
  0
LINE
  5
B497
330
B48C
100
AcDbEntity
  8
0
  6
CONTINUOUS
100
AcDbLine
 10
12.66873058876364
 20
3.705692269392816
 30
0.0
 11
13.71795180454843
 21
4.754913485177607
 31
0.0
  0
LINE
  5
B498
330
B48C
100
AcDbEntity
  8
0
  6
CONTINUOUS
100
AcDbLine
 10
12.86831133953877
 20
3.231753811087759
 30
0.0
 11
13.91753754152154
 21
4.280980013070531
 31
0.0
  0
LINE
  5
B499
330
B48C
100
AcDbEntity
  8
0
  6
CONTINUOUS
100
AcDbLine
 10
13.0678920903139
 20
2.757815352782702
 30
0.0
 11
14.11712327849465
 21
3.807046540963456
 31
0.0
  0
LINE
  5
B49A
330
B48C
100
AcDbEntity
  8
0
  6
CONTINUOUS
100
AcDbLine
 10
13.26747284108903
 20
2.283876894477644
 30
0.0
 11
14.31670901546777
 21
3.333113068856379
 31
0.0
  0
LINE
  5
B49B
330
B48C
100
AcDbEntity
  8
0
  6
CONTINUOUS
100
AcDbLine
 10
16.36767838827179
 20
8.751678487061342
 30
0.0
 11
16.50332410898388
 21
8.887324207773432
 31
0.0
  0
LINE
  5
B49C
330
B48C
100
AcDbEntity
  8
0
  6
CONTINUOUS
100
AcDbLine
 10
15.96190732182191
 20
7.67238821153127
 30
0.0
 11
16.68735328004734
 21
8.397834169756699
 31
0.0
  0
LINE
  5
B49D
330
B48C
100
AcDbEntity
  8
0
  6
CONTINUOUS
100
AcDbLine
 10
15.55613625537202
 20
6.593097936001196
 30
0.0
 11
16.87138245111079
 21
7.908344131739965
 31
0.0
  0
LINE
  5
B49E
330
B48C
100
AcDbEntity
  8
0
  6
CONTINUOUS
100
AcDbLine
 10
15.15036518892213
 20
5.513807660471122
 30
0.0
 11
17.05541162217424
 21
7.418854093723231
 31
0.0
  0
LINE
  5
B49F
330
B48C
100
AcDbEntity
  8
0
  6
CONTINUOUS
100
AcDbLine
 10
14.74459412247225
 20
4.434517384941048
 30
0.0
 11
17.2394407932377
 21
6.929364055706499
 31
0.0
  0
LINE
  5
B4A0
330
B48C
100
AcDbEntity
  8
0
  6
CONTINUOUS
100
AcDbLine
 10
14.33882305602236
 20
3.355227109410975
 30
0.0
 11
17.42346996430115
 21
6.439874017689766
 31
0.0
  0
LINE
  5
B4A1
330
B48C
100
AcDbEntity
  8
0
  6
CONTINUOUS
100
AcDbLine
 10
13.46705359186416
 20
1.809938436172586
 30
0.0
 11
16.0819338255367
 21
4.424818669845129
 31
0.0
  0
LINE
  5
B4A2
330
B48C
100
AcDbEntity
  8
0
  6
CONTINUOUS
100
AcDbLine
 10
16.63283254238972
 20
4.975717386698149
 30
0.0
 11
17.60749913536461
 21
5.950383979673033
 31
0.0
  0
LINE
  5
B4A3
330
B48C
100
AcDbEntity
  8
0
  6
CONTINUOUS
100
AcDbLine
 10
13.66663434263929
 20
1.335999977867529
 30
0.0
 11
15.67604797733754
 21
3.345413612565779
 31
0.0
  0
LINE
  5
B4A4
330
B48C
100
AcDbEntity
  8
0
  6
CONTINUOUS
100
AcDbLine
 10
13.86621509341442
 20
0.8620615195624723
 30
0.0
 11
15.27016212913838
 21
2.26600855528643
 31
0.0
  0
LINE
  5
B4A5
330
B48C
100
AcDbEntity
  8
0
  6
CONTINUOUS
100
AcDbLine
 10
16.81682257348267
 20
4.486188208710908
 30
0.0
 11
17.79152830642806
 21
5.460893941656299
 31
0.0
  0
LINE
  5
B4A6
330
B48C
100
AcDbEntity
  8
0
  6
CONTINUOUS
100
AcDbLine
 10
17.00081260457561
 20
3.996659030723667
 30
0.0
 11
17.97555747749151
 21
4.971403903639565
 31
0.0
  0
LINE
  5
B4A7
330
B48C
100
AcDbEntity
  8
0
  6
CONTINUOUS
100
AcDbLine
 10
20.74362343514722
 20
8.412989070375462
 30
0.0
 11
21.09373436476302
 21
8.763099999991256
 31
0.0
  0
LINE
  5
B4A8
330
B48C
100
AcDbEntity
  8
0
  6
CONTINUOUS
100
AcDbLine
 10
20.25401257174777
 20
7.249858997895826
 30
0.0
 11
21.7672535738432
 21
8.763099999991255
 31
0.0
  0
LINE
  5
B4A9
330
B48C
100
AcDbEntity
  8
0
  6
CONTINUOUS
100
AcDbLine
 10
14.06579584418955
 20
0.3881230612574149
 30
0.0
 11
14.86427628093921
 21
1.186603498007082
 31
0.0
  0
LINE
  5
B4AA
330
B48C
100
AcDbEntity
  8
0
  6
CONTINUOUS
100
AcDbLine
 10
14.26537659496467
 20
-0.0858153970476412
 30
0.0
 11
14.45839043274005
 21
0.1071984407277329
 31
0.0
  0
LINE
  5
B4AB
330
B48C
100
AcDbEntity
  8
0
  6
CONTINUOUS
100
AcDbLine
 10
17.18480263566856
 20
3.507129852736426
 30
0.0
 11
18.15958664855496
 21
4.481913865622833
 31
0.0
  0
LINE
  5
B4AC
330
B48C
100
AcDbEntity
  8
0
  6
CONTINUOUS
100
AcDbLine
 10
17.3687926667615
 20
3.017600674749186
 30
0.0
 11
18.34361581961842
 21
3.9924238276061
 31
0.0
  0
LINE
  5
B4AD
330
B48C
100
AcDbEntity
  8
0
  6
CONTINUOUS
100
AcDbLine
 10
19.76440170834832
 20
6.086728925416191
 30
0.0
 11
22.33924590259489
 21
8.661573119662755
 31
0.0
  0
LINE
  5
B4AE
330
B48C
100
AcDbEntity
  8
0
  6
CONTINUOUS
100
AcDbLine
 10
19.27479084494887
 20
4.923598852936555
 30
0.0
 11
21.84929622842713
 21
7.498104236414807
 31
0.0
  0
LINE
  5
B4AF
330
B48C
100
AcDbEntity
  8
0
  6
CONTINUOUS
100
AcDbLine
 10
17.55278269785445
 20
2.528071496761945
 30
0.0
 11
18.52764499068187
 21
3.502933789589366
 31
0.0
  0
LINE
  5
B4B0
330
B48C
100
AcDbEntity
  8
0
  6
CONTINUOUS
100
AcDbLine
 10
18.78517998154942
 20
3.760468780456919
 30
0.0
 11
21.35934655425936
 21
6.33463535316686
 31
0.0
  0
LINE
  5
B4B1
330
B48C
100
AcDbEntity
  8
0
  6
CONTINUOUS
100
AcDbLine
 10
17.73677272894739
 20
2.038542318774704
 30
0.0
 11
20.8693968800916
 21
5.171166469918914
 31
0.0
  0
LINE
  5
B4B2
330
B48C
100
AcDbEntity
  8
0
  6
CONTINUOUS
100
AcDbLine
 10
17.92076276004034
 20
1.549013140787464
 30
0.0
 11
20.37944720592384
 21
4.007697586670968
 31
0.0
  0
LINE
  5
B4B3
330
B48C
100
AcDbEntity
  8
0
  6
CONTINUOUS
100
AcDbLine
 10
18.10475279113329
 20
1.059483962800223
 30
0.0
 11
19.88949753175608
 21
2.84422870342302
 31
0.0
  0
LINE
  5
B4B4
330
B48C
100
AcDbEntity
  8
0
  6
CONTINUOUS
100
AcDbLine
 10
18.28874282222623
 20
0.5699547848129822
 30
0.0
 11
19.39954785758832
 21
1.680759820175074
 31
0.0
  0
LINE
  5
B4B5
330
B48C
100
AcDbEntity
  8
0
  6
CONTINUOUS
100
AcDbLine
 10
18.47273285331918
 20
0.0804256068257416
 30
0.0
 11
18.90959818342056
 21
0.517290936927127
 31
0.0
  0
LINE
  5
B4B6
330
B48C
100
AcDbEntity
  8
0
  6
CONTINUOUS
100
AcDbLine
 10
14.3590401358224
 20
-0.1570118376323384
 30
0.0
 11
14.24903296539946
 21
-0.0470046672093929
 31
0.0
  0
LINE
  5
B4B7
330
B48C
100
AcDbEntity
  8
0
  6
CONTINUOUS
100
AcDbLine
 10
14.54309291258661
 20
0.332454594683643
 30
0.0
 11
13.75908329123172
 21
1.116464216038529
 31
0.0
  0
LINE
  5
B4B8
330
B48C
100
AcDbEntity
  8
0
  6
CONTINUOUS
100
AcDbLine
 10
14.72714568935081
 20
0.8219210269996244
 30
0.0
 11
13.26913361706399
 21
2.27993309928645
 31
0.0
  0
LINE
  5
B4B9
330
B48C
100
AcDbEntity
  8
0
  6
CONTINUOUS
100
AcDbLine
 10
14.91119846611502
 20
1.311387459315606
 30
0.0
 11
12.77918394289625
 21
3.443401982534371
 31
0.0
  0
LINE
  5
B4BA
330
B48C
100
AcDbEntity
  8
0
  6
CONTINUOUS
100
AcDbLine
 10
15.09525124287922
 20
1.800853891631587
 30
0.0
 11
12.28923426872852
 21
4.606870865782293
 31
0.0
  0
LINE
  5
B4BB
330
B48C
100
AcDbEntity
  8
0
  6
CONTINUOUS
100
AcDbLine
 10
15.27930401964343
 20
2.290320323947569
 30
0.0
 11
11.79928459456078
 21
5.770339749030213
 31
0.0
  0
LINE
  5
B4BC
330
B48C
100
AcDbEntity
  8
0
  6
CONTINUOUS
100
AcDbLine
 10
15.46335679640763
 20
2.77978675626355
 30
0.0
 11
14.48885470994921
 21
3.754288842721972
 31
0.0
  0
LINE
  5
B4BD
330
B48C
100
AcDbEntity
  8
0
  6
CONTINUOUS
100
AcDbLine
 10
13.88507249233704
 20
4.358071060334137
 30
0.0
 11
11.30933492039305
 21
6.933808632278135
 31
0.0
  0
LINE
  5
B4BE
330
B48C
100
AcDbEntity
  8
0
  6
CONTINUOUS
100
AcDbLine
 10
18.75840522805855
 20
0.1582575336928151
 30
0.0
 11
18.25383727664818
 21
0.6628254851031863
 31
0.0
  0
LINE
  5
B4BF
330
B48C
100
AcDbEntity
  8
0
  6
CONTINUOUS
100
AcDbLine
 10
15.64740957317184
 20
3.269253188579531
 30
0.0
 11
14.67288388101266
 21
4.243778880738705
 31
0.0
  0
LINE
  5
B4C0
330
B48C
100
AcDbEntity
  8
0
  6
CONTINUOUS
100
AcDbLine
 10
13.39509276772158
 20
5.521569994029786
 30
0.0
 11
10.81938524622531
 21
8.097277515526056
 31
0.0
  0
LINE
  5
B4C1
330
B48C
100
AcDbEntity
  8
0
  6
CONTINUOUS
100
AcDbLine
 10
18.95798597883369
 20
0.6321959919978686
 30
0.0
 11
17.84825644852853
 21
1.741925522303024
 31
0.0
  0
LINE
  5
B4C2
330
B48C
100
AcDbEntity
  8
0
  6
CONTINUOUS
100
AcDbLine
 10
19.15756672960882
 20
1.106134450302922
 30
0.0
 11
17.44267562040888
 21
2.821025559502861
 31
0.0
  0
LINE
  5
B4C3
330
B48C
100
AcDbEntity
  8
0
  6
CONTINUOUS
100
AcDbLine
 10
15.83146234993604
 20
3.758719620895513
 30
0.0
 11
14.85691305207612
 21
4.733268918755439
 31
0.0
  0
LINE
  5
B4C4
330
B48C
100
AcDbEntity
  8
0
  6
CONTINUOUS
100
AcDbLine
 10
16.01551512670025
 20
4.248186053211494
 30
0.0
 11
15.04094222313957
 21
5.222758956772172
 31
0.0
  0
LINE
  5
B4C5
330
B48C
100
AcDbEntity
  8
0
  6
CONTINUOUS
100
AcDbLine
 10
12.90511304310612
 20
6.685068927725435
 30
0.0
 11
10.8270819708403
 21
8.763099999991255
 31
0.0
  0
LINE
  5
B4C6
330
B48C
100
AcDbEntity
  8
0
  6
CONTINUOUS
100
AcDbLine
 10
12.41513331849066
 20
7.848567861421083
 30
0.0
 11
11.50060117992049
 21
8.763099999991255
 31
0.0
  0
LINE
  5
B4C7
330
B48C
100
AcDbEntity
  8
0
  6
CONTINUOUS
100
AcDbLine
 10
19.35714748038395
 20
1.580072908607975
 30
0.0
 11
17.03709479228923
 21
3.900125596702697
 31
0.0
  0
LINE
  5
B4C8
330
B48C
100
AcDbEntity
  8
0
  6
CONTINUOUS
100
AcDbLine
 10
19.55672823115909
 20
2.054011366913028
 30
0.0
 11
16.63151396416958
 21
4.979225633902534
 31
0.0
  0
LINE
  5
B4C9
330
B48C
100
AcDbEntity
  8
0
  6
CONTINUOUS
100
AcDbLine
 10
16.19956790346445
 20
4.737652485527476
 30
0.0
 11
15.22497139420302
 21
5.712248994788904
 31
0.0
  0
LINE
  5
B4CA
330
B48C
100
AcDbEntity
  8
0
  6
CONTINUOUS
100
AcDbLine
 10
16.38362068022866
 20
5.227118917843457
 30
0.0
 11
15.40900056526648
 21
6.201739032805637
 31
0.0
  0
LINE
  5
B4CB
330
B48C
100
AcDbEntity
  8
0
  6
CONTINUOUS
100
AcDbLine
 10
19.75630898193422
 20
2.527949825218081
 30
0.0
 11
18.70774536448286
 21
3.576513442669441
 31
0.0
  0
LINE
  5
B4CC
330
B48C
100
AcDbEntity
  8
0
  6
CONTINUOUS
100
AcDbLine
 10
19.95588973270936
 20
3.001888283523134
 30
0.0
 11
18.90726987211446
 21
4.050508144118028
 31
0.0
  0
LINE
  5
B4CD
330
B48C
100
AcDbEntity
  8
0
  6
CONTINUOUS
100
AcDbLine
 10
20.15547048348449
 20
3.475826741828186
 30
0.0
 11
19.10679437974606
 21
4.524502845566614
 31
0.0
  0
LINE
  5
B4CE
330
B48C
100
AcDbEntity
  8
0
  6
CONTINUOUS
100
AcDbLine
 10
20.35505123425962
 20
3.94976520013324
 30
0.0
 11
19.30631888737766
 21
4.998497547015201
 31
0.0
  0
LINE
  5
B4CF
330
B48C
100
AcDbEntity
  8
0
  6
CONTINUOUS
100
AcDbLine
 10
20.55463198503475
 20
4.423703658438292
 30
0.0
 11
19.50584339500926
 21
5.472492248463787
 31
0.0
  0
LINE
  5
B4D0
330
B48C
100
AcDbEntity
  8
0
  6
CONTINUOUS
100
AcDbLine
 10
18.37481191085755
 20
3.909446896294752
 30
0.0
 11
15.59302973632993
 21
6.691229070822371
 31
0.0
  0
LINE
  5
B4D1
330
B48C
100
AcDbEntity
  8
0
  6
CONTINUOUS
100
AcDbLine
 10
17.96904084440766
 20
4.988737171824825
 30
0.0
 11
15.77705890739338
 21
7.180719108839104
 31
0.0
  0
LINE
  5
B4D2
330
B48C
100
AcDbEntity
  8
0
  6
CONTINUOUS
100
AcDbLine
 10
17.56326977795777
 20
6.068027447354899
 30
0.0
 11
15.96108807845684
 21
7.670209146855838
 31
0.0
  0
LINE
  5
B4D3
330
B48C
100
AcDbEntity
  8
0
  6
CONTINUOUS
100
AcDbLine
 10
17.15749871150789
 20
7.147317722884972
 30
0.0
 11
16.14511724952029
 21
8.15969918487257
 31
0.0
  0
LINE
  5
B4D4
330
B48C
100
AcDbEntity
  8
0
  6
CONTINUOUS
100
AcDbLine
 10
16.751727645058
 20
8.226607998415046
 30
0.0
 11
16.32914642058374
 21
8.649189222889303
 31
0.0
  0
LINE
  5
B4D5
330
B48C
100
AcDbEntity
  8
0
  6
CONTINUOUS
100
AcDbLine
 10
20.75421273580989
 20
4.897642116743345
 30
0.0
 11
19.70536790264086
 21
5.946486949912374
 31
0.0
  0
LINE
  5
B4D6
330
B48C
100
AcDbEntity
  8
0
  6
CONTINUOUS
100
AcDbLine
 10
20.95379348658502
 20
5.371580575048398
 30
0.0
 11
19.90489241027246
 21
6.42048165136096
 31
0.0
  0
LINE
  5
B4D7
330
B48C
100
AcDbEntity
  8
0
  6
CONTINUOUS
100
AcDbLine
 10
21.15337423736015
 20
5.845519033353452
 30
0.0
 11
20.10441691790406
 21
6.894476352809547
 31
0.0
  0
LINE
  5
B4D8
330
B48C
100
AcDbEntity
  8
0
  6
CONTINUOUS
100
AcDbLine
 10
21.35295498813529
 20
6.319457491658505
 30
0.0
 11
20.30394142553566
 21
7.368471054258134
 31
0.0
  0
LINE
  5
B4D9
330
B48C
100
AcDbEntity
  8
0
  6
CONTINUOUS
100
AcDbLine
 10
21.55253573891042
 20
6.793395949963558
 30
0.0
 11
20.50346593316726
 21
7.842465755706721
 31
0.0
  0
LINE
  5
B4DA
330
B48C
100
AcDbEntity
  8
0
  6
CONTINUOUS
100
AcDbLine
 10
21.75211648968556
 20
7.267334408268612
 30
0.0
 11
20.70299044079886
 21
8.316460457155308
 31
0.0
  0
LINE
  5
B4DB
330
B48C
100
AcDbEntity
  8
0
  6
CONTINUOUS
100
AcDbLine
 10
21.95169724046069
 20
7.741272866573663
 30
0.0
 11
20.9298701070431
 21
8.763099999991256
 31
0.0
  0
LINE
  5
B4DC
330
B48C
100
AcDbEntity
  8
0
  6
CONTINUOUS
100
AcDbLine
 10
22.15127799123582
 20
8.215211324878716
 30
0.0
 11
21.60338931612328
 21
8.763099999991256
 31
0.0
  0
LINE
  5
B4DD
330
B48C
100
AcDbEntity
  8
0
  6
CONTINUOUS
100
AcDbLine
 10
22.35085874201096
 20
8.689149783183769
 30
0.0
 11
22.27690852520347
 21
8.763099999991255
 31
0.0
  0
ENDBLK
  5
B5CF
330
B48C
100
AcDbEntity
  8
0
100
AcDbBlockEnd
  0
BLOCK
  5
B5D0
330
B4DE
100
AcDbEntity
  8
0
100
AcDbBlockBegin
  2
*X74
 70
     1
 10
0.0
 20
0.0
 30
0.0
  3
*X74
  1

  0
LINE
  5
B4DF
330
B4DE
100
AcDbEntity
  8
0
  6
CONTINUOUS
100
AcDbLine
 10
23.19462913593892
 20
8.169917934846424
 30
0.0
 11
23.70775465517246
 21
8.683043454079957
 31
0.0
  0
LINE
  5
B4E0
330
B4DE
100
AcDbEntity
  8
0
  6
CONTINUOUS
100
AcDbLine
 10
22.64923161835078
 20
6.951001208178088
 30
0.0
 11
23.9159364069932
 21
8.217705996820516
 31
0.0
  0
LINE
  5
B4E1
330
B4DE
100
AcDbEntity
  8
0
  6
CONTINUOUS
100
AcDbLine
 10
22.10383410076263
 20
5.732084481509751
 30
0.0
 11
24.12411815881395
 21
7.752368539561078
 31
0.0
  0
LINE
  5
B4E2
330
B4DE
100
AcDbEntity
  8
0
  6
CONTINUOUS
100
AcDbLine
 10
21.55843658317447
 20
4.513167754841414
 30
0.0
 11
24.3322999106347
 21
7.287031082301639
 31
0.0
  0
LINE
  5
B4E3
330
B4DE
100
AcDbEntity
  8
0
  6
CONTINUOUS
100
AcDbLine
 10
21.01303906558632
 20
3.294251028173077
 30
0.0
 11
24.54048166245544
 21
6.821693625042199
 31
0.0
  0
LINE
  5
B4E4
330
B4DE
100
AcDbEntity
  8
0
  6
CONTINUOUS
100
AcDbLine
 10
20.46764154799817
 20
2.075334301504738
 30
0.0
 11
23.28571549467848
 21
4.89340824818505
 31
0.0
  0
LINE
  5
B4E5
330
B4DE
100
AcDbEntity
  8
0
  6
CONTINUOUS
100
AcDbLine
 10
19.92224403041002
 20
0.8564175748364002
 30
0.0
 11
22.74075865492779
 21
3.674932199354171
 31
0.0
  0
LINE
  5
B4E6
330
B4DE
100
AcDbEntity
  8
0
  6
CONTINUOUS
100
AcDbLine
 10
23.67305085490148
 20
5.280743608408048
 30
0.0
 11
24.74866341427619
 21
6.356356167782759
 31
0.0
  0
LINE
  5
B4E7
330
B4DE
100
AcDbEntity
  8
0
  6
CONTINUOUS
100
AcDbLine
 10
23.88118970842314
 20
4.815363252849522
 30
0.0
 11
24.95684516609694
 21
5.89101871052332
 31
0.0
  0
LINE
  5
B4E8
330
B4DE
100
AcDbEntity
  8
0
  6
CONTINUOUS
100
AcDbLine
 10
19.73925852647308
 20
-0.0000871381807288
 30
0.0
 11
23.4103456646501
 21
3.670999999996297
 31
0.0
  0
LINE
  5
B4E9
330
B4DE
100
AcDbEntity
  8
0
  6
CONTINUOUS
100
AcDbLine
 10
24.0893285619448
 20
4.349982897290997
 30
0.0
 11
25.16502691791769
 21
5.42568125326388
 31
0.0
  0
LINE
  5
B4EA
330
B4DE
100
AcDbEntity
  8
0
  6
CONTINUOUS
100
AcDbLine
 10
20.41282099582748
 20
-0.0000438779065108
 30
0.0
 11
21.64944178675636
 21
1.236576913022366
 31
0.0
  0
LINE
  5
B4EB
330
B4DE
100
AcDbEntity
  8
0
  6
CONTINUOUS
100
AcDbLine
 10
22.78126487373161
 20
2.36839999999762
 30
0.0
 11
24.08386487373029
 21
3.670999999996297
 31
0.0
  0
LINE
  5
B4EC
330
B4DE
100
AcDbEntity
  8
0
  6
CONTINUOUS
100
AcDbLine
 10
24.29746741546646
 20
3.884602541732471
 30
0.0
 11
25.37320866973843
 21
4.960343796004441
 31
0.0
  0
LINE
  5
B4ED
330
B4DE
100
AcDbEntity
  8
0
  6
CONTINUOUS
100
AcDbLine
 10
21.08638346518189
 20
-0.0000006176322938
 30
0.0
 11
21.10379033335899
 21
0.0174062505448083
 31
0.0
  0
LINE
  5
B4EE
330
B4DE
100
AcDbEntity
  8
0
  6
CONTINUOUS
100
AcDbLine
 10
23.4547840828118
 20
2.36839999999762
 30
0.0
 11
25.58139042155918
 21
4.495006338745002
 31
0.0
  0
LINE
  5
B4EF
330
B4DE
100
AcDbEntity
  8
0
  6
CONTINUOUS
100
AcDbLine
 10
29.30199999996933
 20
8.215615917155148
 30
0.0
 11
29.84948408280543
 21
8.763099999991255
 31
0.0
  0
LINE
  5
B4F0
330
B4DE
100
AcDbEntity
  8
0
  6
CONTINUOUS
100
AcDbLine
 10
24.12830329189199
 20
2.36839999999762
 30
0.0
 11
25.78957217337993
 21
4.029668881485562
 31
0.0
  0
LINE
  5
B4F1
330
B4DE
100
AcDbEntity
  8
0
  6
CONTINUOUS
100
AcDbLine
 10
29.30199999996933
 20
7.54209670807496
 30
0.0
 11
30.52300329188562
 21
8.763099999991255
 31
0.0
  0
LINE
  5
B4F2
330
B4DE
100
AcDbEntity
  8
0
  6
CONTINUOUS
100
AcDbLine
 10
24.80182250097217
 20
2.36839999999762
 30
0.0
 11
25.99775392520067
 21
3.564331424226122
 31
0.0
  0
LINE
  5
B4F3
330
B4DE
100
AcDbEntity
  8
0
  6
CONTINUOUS
100
AcDbLine
 10
29.30199999996933
 20
6.868577498994774
 30
0.0
 11
30.74199999996926
 21
8.308577498994712
 31
0.0
  0
LINE
  5
B4F4
330
B4DE
100
AcDbEntity
  8
0
  6
CONTINUOUS
100
AcDbLine
 10
25.13028238392013
 20
2.023340673865392
 30
0.0
 11
26.20593567702142
 21
3.098993966966683
 31
0.0
  0
LINE
  5
B4F5
330
B4DE
100
AcDbEntity
  8
0
  6
CONTINUOUS
100
AcDbLine
 10
25.33838066033617
 20
1.557919741201244
 30
0.0
 11
26.41411742884217
 21
2.633656509707244
 31
0.0
  0
LINE
  5
B4F6
330
B4DE
100
AcDbEntity
  8
0
  6
CONTINUOUS
100
AcDbLine
 10
25.54647893675221
 20
1.092498808537098
 30
0.0
 11
26.62229918066291
 21
2.168319052447804
 31
0.0
  0
LINE
  5
B4F7
330
B4DE
100
AcDbEntity
  8
0
  6
CONTINUOUS
100
AcDbLine
 10
25.75457721316825
 20
0.62707787587295
 30
0.0
 11
26.83048093248366
 21
1.702981595188365
 31
0.0
  0
LINE
  5
B4F8
330
B4DE
100
AcDbEntity
  8
0
  6
CONTINUOUS
100
AcDbLine
 10
29.30199999996933
 20
6.195058289914587
 30
0.0
 11
30.74199999996926
 21
7.635058289914522
 31
0.0
  0
LINE
  5
B4F9
330
B4DE
100
AcDbEntity
  8
0
  6
CONTINUOUS
100
AcDbLine
 10
29.30199999996933
 20
5.521539080834401
 30
0.0
 11
30.74199999996926
 21
6.961539080834331
 31
0.0
  0
LINE
  5
B4FA
330
B4DE
100
AcDbEntity
  8
0
  6
CONTINUOUS
100
AcDbLine
 10
29.30199999996933
 20
4.848019871754214
 30
0.0
 11
30.74199999996925
 21
6.288019871754143
 31
0.0
  0
LINE
  5
B4FB
330
B4DE
100
AcDbEntity
  8
0
  6
CONTINUOUS
100
AcDbLine
 10
29.30199999996933
 20
4.174500662674028
 30
0.0
 11
30.74199999996925
 21
5.614500662673953
 31
0.0
  0
LINE
  5
B4FC
330
B4DE
100
AcDbEntity
  8
0
  6
CONTINUOUS
100
AcDbLine
 10
25.96267548958429
 20
0.1616569432088024
 30
0.0
 11
27.18411854636669
 21
1.383099999991207
 31
0.0
  0
LINE
  5
B4FD
330
B4DE
100
AcDbEntity
  8
0
  6
CONTINUOUS
100
AcDbLine
 10
29.30199999996933
 20
3.500981453593841
 30
0.0
 11
30.74199999996925
 21
4.940981453593762
 31
0.0
  0
LINE
  5
B4FE
330
B4DE
100
AcDbEntity
  8
0
  6
CONTINUOUS
100
AcDbLine
 10
26.50763775544691
 20
0.0330999999912356
 30
0.0
 11
27.85763775544689
 21
1.383099999991223
 31
0.0
  0
LINE
  5
B4FF
330
B4DE
100
AcDbEntity
  8
0
  6
CONTINUOUS
100
AcDbLine
 10
29.30199999996933
 20
2.827462244513656
 30
0.0
 11
30.74199999996925
 21
4.267462244513574
 31
0.0
  0
LINE
  5
B500
330
B4DE
100
AcDbEntity
  8
0
  6
CONTINUOUS
100
AcDbLine
 10
27.18115696452709
 20
0.0330999999912356
 30
0.0
 11
28.55073879889363
 21
1.402681834357775
 31
0.0
  0
LINE
  5
B501
330
B4DE
100
AcDbEntity
  8
0
  6
CONTINUOUS
100
AcDbLine
 10
29.28241816560272
 20
2.134361201066866
 30
0.0
 11
30.74199999996924
 21
3.593943035433383
 31
0.0
  0
LINE
  5
B502
330
B4DE
100
AcDbEntity
  8
0
  6
CONTINUOUS
100
AcDbLine
 10
27.85467617360728
 20
0.0330999999912356
 30
0.0
 11
30.74199999996924
 21
2.920423826353195
 31
0.0
  0
LINE
  5
B503
330
B4DE
100
AcDbEntity
  8
0
  6
CONTINUOUS
100
AcDbLine
 10
28.53897559587887
 20
0.0438802131826428
 30
0.0
 11
30.73121978677781
 21
2.236124404081585
 31
0.0
  0
LINE
  5
B504
330
B4DE
100
AcDbEntity
  8
0
  6
CONTINUOUS
100
AcDbLine
 10
29.45140055588722
 20
0.2827859641107988
 30
0.0
 11
30.49231403584965
 21
1.323699444073236
 31
0.0
  0
LINE
  5
B505
330
B4DE
100
AcDbEntity
  8
0
  6
CONTINUOUS
100
AcDbLine
 10
19.59027867740337
 20
-0.0000967065718083
 30
0.0
 11
19.55485265190471
 21
0.035329318926844
 31
0.0
  0
LINE
  5
B506
330
B4DE
100
AcDbEntity
  8
0
  6
CONTINUOUS
100
AcDbLine
 10
20.26375463176586
 20
-0.0000534518541091
 30
0.0
 11
19.76305575737534
 21
0.5006454225364014
 31
0.0
  0
LINE
  5
B507
330
B4DE
100
AcDbEntity
  8
0
  6
CONTINUOUS
100
AcDbLine
 10
20.93723058612834
 20
-0.0000101971364099
 30
0.0
 11
19.97125886284597
 21
0.965961526145958
 31
0.0
  0
LINE
  5
B508
330
B4DE
100
AcDbEntity
  8
0
  6
CONTINUOUS
100
AcDbLine
 10
21.25514828313686
 20
0.355591314935257
 30
0.0
 11
20.1794619683166
 21
1.431277629755512
 31
0.0
  0
LINE
  5
B509
330
B4DE
100
AcDbEntity
  8
0
  6
CONTINUOUS
100
AcDbLine
 10
21.46338838394921
 20
0.8208704232030986
 30
0.0
 11
20.38766507378723
 21
1.896593733365069
 31
0.0
  0
LINE
  5
B50A
330
B4DE
100
AcDbEntity
  8
0
  6
CONTINUOUS
100
AcDbLine
 10
21.67162848476155
 20
1.28614953147094
 30
0.0
 11
20.59586817925786
 21
2.361909836974626
 31
0.0
  0
LINE
  5
B50B
330
B4DE
100
AcDbEntity
  8
0
  6
CONTINUOUS
100
AcDbLine
 10
21.8798685855739
 20
1.751428639738782
 30
0.0
 11
20.80407128472849
 21
2.827225940584183
 31
0.0
  0
LINE
  5
B50C
330
B4DE
100
AcDbEntity
  8
0
  6
CONTINUOUS
100
AcDbLine
 10
22.08810868638624
 20
2.216707748006623
 30
0.0
 11
21.01227439019912
 21
3.292542044193739
 31
0.0
  0
LINE
  5
B50D
330
B4DE
100
AcDbEntity
  8
0
  6
CONTINUOUS
100
AcDbLine
 10
22.60993564347543
 20
2.36839999999762
 30
0.0
 11
21.22047749566975
 21
3.757858147803296
 31
0.0
  0
LINE
  5
B50E
330
B4DE
100
AcDbEntity
  8
0
  6
CONTINUOUS
100
AcDbLine
 10
23.28345485255561
 20
2.36839999999762
 30
0.0
 11
21.42868060114038
 21
4.223174251412853
 31
0.0
  0
LINE
  5
B50F
330
B4DE
100
AcDbEntity
  8
0
  6
CONTINUOUS
100
AcDbLine
 10
26.29227406164219
 20
0.0330999999912356
 30
0.0
 11
25.80009199592872
 21
0.5252820657046957
 31
0.0
  0
LINE
  5
B510
330
B4DE
100
AcDbEntity
  8
0
  6
CONTINUOUS
100
AcDbLine
 10
23.9569740616358
 20
2.36839999999762
 30
0.0
 11
21.63688370661101
 21
4.688490355022409
 31
0.0
  0
LINE
  5
B511
330
B4DE
100
AcDbEntity
  8
0
  6
CONTINUOUS
100
AcDbLine
 10
26.96579327072237
 20
0.0330999999912356
 30
0.0
 11
25.2554132311971
 21
1.743480039516508
 31
0.0
  0
LINE
  5
B512
330
B4DE
100
AcDbEntity
  8
0
  6
CONTINUOUS
100
AcDbLine
 10
24.63049327071599
 20
2.36839999999762
 30
0.0
 11
23.32789327071731
 21
3.670999999996297
 31
0.0
  0
LINE
  5
B513
330
B4DE
100
AcDbEntity
  8
0
  6
CONTINUOUS
100
AcDbLine
 10
22.92098674744635
 20
4.077906523267254
 30
0.0
 11
21.84508681208164
 21
5.153806458631966
 31
0.0
  0
LINE
  5
B514
330
B4DE
100
AcDbEntity
  8
0
  6
CONTINUOUS
100
AcDbLine
 10
27.63931247980256
 20
0.0330999999912356
 30
0.0
 11
24.0014124797975
 21
3.670999999996297
 31
0.0
  0
LINE
  5
B515
330
B4DE
100
AcDbEntity
  8
0
  6
CONTINUOUS
100
AcDbLine
 10
23.129125600968
 20
4.5432868788258
 30
0.0
 11
22.05328991755227
 21
5.619122562241522
 31
0.0
  0
LINE
  5
B516
330
B4DE
100
AcDbEntity
  8
0
  6
CONTINUOUS
100
AcDbLine
 10
28.31283168888275
 20
0.0330999999912356
 30
0.0
 11
24.16488385994816
 21
4.181047828925828
 31
0.0
  0
LINE
  5
B517
330
B4DE
100
AcDbEntity
  8
0
  6
CONTINUOUS
100
AcDbLine
 10
23.33726445448964
 20
5.008667234384345
 30
0.0
 11
22.2614930230229
 21
6.084438665851079
 31
0.0
  0
LINE
  5
B518
330
B4DE
100
AcDbEntity
  8
0
  6
CONTINUOUS
100
AcDbLine
 10
28.92085740005492
 20
0.0985934978992438
 30
0.0
 11
27.63635089796295
 21
1.383099999991217
 31
0.0
  0
LINE
  5
B519
330
B4DE
100
AcDbEntity
  8
0
  6
CONTINUOUS
100
AcDbLine
 10
26.43704649509776
 20
2.582404402856405
 30
0.0
 11
23.61992702019732
 21
5.399523877756844
 31
0.0
  0
LINE
  5
B51A
330
B4DE
100
AcDbEntity
  8
0
  6
CONTINUOUS
100
AcDbLine
 10
23.54540330801128
 20
5.47404758994289
 30
0.0
 11
22.46969612849353
 21
6.549754769460635
 31
0.0
  0
LINE
  5
B51B
330
B4DE
100
AcDbEntity
  8
0
  6
CONTINUOUS
100
AcDbLine
 10
29.42225615078443
 20
0.2707139562499279
 30
0.0
 11
28.30987010704312
 21
1.383099999991234
 31
0.0
  0
LINE
  5
B51C
330
B4DE
100
AcDbEntity
  8
0
  6
CONTINUOUS
100
AcDbLine
 10
25.89179548232307
 20
3.801174624711282
 30
0.0
 11
22.67789923396416
 21
7.015070873070191
 31
0.0
  0
LINE
  5
B51D
330
B4DE
100
AcDbEntity
  8
0
  6
CONTINUOUS
100
AcDbLine
 10
29.83624534690007
 20
0.5302439692144705
 30
0.0
 11
28.85811781497101
 21
1.508371501143527
 31
0.0
  0
LINE
  5
B51E
330
B4DE
100
AcDbEntity
  8
0
  6
CONTINUOUS
100
AcDbLine
 10
25.34654446954838
 20
5.01994484656616
 30
0.0
 11
22.88610233943479
 21
7.480386976679748
 31
0.0
  0
LINE
  5
B51F
330
B4DE
100
AcDbEntity
  8
0
  6
CONTINUOUS
100
AcDbLine
 10
30.17865975401872
 20
0.8613487711760022
 30
0.0
 11
29.18888744090175
 21
1.851121084292977
 31
0.0
  0
LINE
  5
B520
330
B4DE
100
AcDbEntity
  8
0
  6
CONTINUOUS
100
AcDbLine
 10
24.80129345677369
 20
6.238715068421037
 30
0.0
 11
23.09430544490542
 21
7.945703080289305
 31
0.0
  0
LINE
  5
B521
330
B4DE
100
AcDbEntity
  8
0
  6
CONTINUOUS
100
AcDbLine
 10
30.45496647202376
 20
1.258561262251155
 30
0.0
 11
29.30199999996933
 21
2.411527734305588
 31
0.0
  0
LINE
  5
B522
330
B4DE
100
AcDbEntity
  8
0
  6
CONTINUOUS
100
AcDbLine
 10
24.256042443999
 20
7.457485290275915
 30
0.0
 11
23.30250855037605
 21
8.411019183898862
 31
0.0
  0
LINE
  5
B523
330
B4DE
100
AcDbEntity
  8
0
  6
CONTINUOUS
100
AcDbLine
 10
30.64868582078271
 20
1.738361122572387
 30
0.0
 11
29.30199999996933
 21
3.085046943385775
 31
0.0
  0
LINE
  5
B524
330
B4DE
100
AcDbEntity
  8
0
  6
CONTINUOUS
100
AcDbLine
 10
23.71079143122431
 20
8.676255512130794
 30
0.0
 11
23.51071165584668
 21
8.876335287508416
 31
0.0
  0
LINE
  5
B525
330
B4DE
100
AcDbEntity
  8
0
  6
CONTINUOUS
100
AcDbLine
 10
30.73802122914428
 20
2.322544923291007
 30
0.0
 11
29.30199999996933
 21
3.758566152465961
 31
0.0
  0
LINE
  5
B526
330
B4DE
100
AcDbEntity
  8
0
  6
CONTINUOUS
100
AcDbLine
 10
30.74199999996924
 20
2.992085361546236
 30
0.0
 11
29.30199999996933
 21
4.432085361546148
 31
0.0
  0
LINE
  5
B527
330
B4DE
100
AcDbEntity
  8
0
  6
CONTINUOUS
100
AcDbLine
 10
30.74199999996924
 20
3.665604570626419
 30
0.0
 11
29.30199999996933
 21
5.105604570626333
 31
0.0
  0
LINE
  5
B528
330
B4DE
100
AcDbEntity
  8
0
  6
CONTINUOUS
100
AcDbLine
 10
30.74199999996925
 20
4.339123779706602
 30
0.0
 11
29.30199999996933
 21
5.77912377970652
 31
0.0
  0
LINE
  5
B529
330
B4DE
100
AcDbEntity
  8
0
  6
CONTINUOUS
100
AcDbLine
 10
30.74199999996925
 20
5.012642988786785
 30
0.0
 11
29.30199999996933
 21
6.452642988786707
 31
0.0
  0
LINE
  5
B52A
330
B4DE
100
AcDbEntity
  8
0
  6
CONTINUOUS
100
AcDbLine
 10
30.74199999996925
 20
5.68616219786697
 30
0.0
 11
29.30199999996933
 21
7.126162197866894
 31
0.0
  0
LINE
  5
B52B
330
B4DE
100
AcDbEntity
  8
0
  6
CONTINUOUS
100
AcDbLine
 10
30.74199999996925
 20
6.359681406947153
 30
0.0
 11
29.30199999996933
 21
7.799681406947081
 31
0.0
  0
LINE
  5
B52C
330
B4DE
100
AcDbEntity
  8
0
  6
CONTINUOUS
100
AcDbLine
 10
30.74199999996926
 20
7.033200616027337
 30
0.0
 11
29.30199999996933
 21
8.473200616027269
 31
0.0
  0
LINE
  5
B52D
330
B4DE
100
AcDbEntity
  8
0
  6
CONTINUOUS
100
AcDbLine
 10
30.74199999996926
 20
7.706719825107518
 30
0.0
 11
29.68561982508552
 21
8.763099999991255
 31
0.0
  0
LINE
  5
B52E
330
B4DE
100
AcDbEntity
  8
0
  6
CONTINUOUS
100
AcDbLine
 10
30.74199999996926
 20
8.380239034187703
 30
0.0
 11
30.35913903416571
 21
8.763099999991255
 31
0.0
  0
ENDBLK
  5
B5D1
330
B4DE
100
AcDbEntity
  8
0
100
AcDbBlockEnd
  0
BLOCK
  5
B5D2
330
B52F
100
AcDbEntity
  8
0
100
AcDbBlockBegin
  2
*X75
 70
     1
 10
0.0
 20
0.0
 30
0.0
  3
*X75
  1

  0
LINE
  5
B530
330
B52F
100
AcDbEntity
  8
0
  6
CONTINUOUS
100
AcDbLine
 10
31.64199999996833
 20
8.535058289913598
 30
0.0
 11
31.87004171004599
 21
8.763099999991255
 31
0.0
  0
LINE
  5
B531
330
B52F
100
AcDbEntity
  8
0
  6
CONTINUOUS
100
AcDbLine
 10
31.64199999996833
 20
7.861539080833412
 30
0.0
 11
32.54356091912618
 21
8.763099999991255
 31
0.0
  0
LINE
  5
B532
330
B52F
100
AcDbEntity
  8
0
  6
CONTINUOUS
100
AcDbLine
 10
31.64199999996833
 20
7.188019871753226
 30
0.0
 11
33.08199999996839
 21
8.628019871753281
 31
0.0
  0
LINE
  5
B533
330
B52F
100
AcDbEntity
  8
0
  6
CONTINUOUS
100
AcDbLine
 10
31.64199999996833
 20
6.51450066267304
 30
0.0
 11
33.08199999996839
 21
7.954500662673095
 31
0.0
  0
LINE
  5
B534
330
B52F
100
AcDbEntity
  8
0
  6
CONTINUOUS
100
AcDbLine
 10
31.64199999996833
 20
5.840981453592853
 30
0.0
 11
33.08199999996839
 21
7.280981453592908
 31
0.0
  0
LINE
  5
B535
330
B52F
100
AcDbEntity
  8
0
  6
CONTINUOUS
100
AcDbLine
 10
31.64199999996833
 20
5.167462244512667
 30
0.0
 11
33.08199999996839
 21
6.607462244512721
 31
0.0
  0
LINE
  5
B536
330
B52F
100
AcDbEntity
  8
0
  6
CONTINUOUS
100
AcDbLine
 10
31.64199999996833
 20
4.493943035432481
 30
0.0
 11
33.08199999996839
 21
5.933943035432535
 31
0.0
  0
LINE
  5
B537
330
B52F
100
AcDbEntity
  8
0
  6
CONTINUOUS
100
AcDbLine
 10
31.64199999996833
 20
3.820423826352293
 30
0.0
 11
33.08199999996839
 21
5.260423826352348
 31
0.0
  0
LINE
  5
B538
330
B52F
100
AcDbEntity
  8
0
  6
CONTINUOUS
100
AcDbLine
 10
31.64199999996833
 20
3.146904617272106
 30
0.0
 11
33.08199999996839
 21
4.586904617272161
 31
0.0
  0
LINE
  5
B539
330
B52F
100
AcDbEntity
  8
0
  6
CONTINUOUS
100
AcDbLine
 10
36.23199999996837
 20
8.410423826352325
 30
0.0
 11
36.5846761736073
 21
8.763099999991255
 31
0.0
  0
LINE
  5
B53A
330
B52F
100
AcDbEntity
  8
0
  6
CONTINUOUS
100
AcDbLine
 10
36.23199999996837
 20
7.73690461727214
 30
0.0
 11
37.25819538268748
 21
8.763099999991255
 31
0.0
  0
LINE
  5
B53B
330
B52F
100
AcDbEntity
  8
0
  6
CONTINUOUS
100
AcDbLine
 10
31.64257403601376
 20
2.473959444237348
 30
0.0
 11
33.08199999996839
 21
3.913385408191974
 31
0.0
  0
LINE
  5
B53C
330
B52F
100
AcDbEntity
  8
0
  6
CONTINUOUS
100
AcDbLine
 10
36.23199999996837
 20
7.063385408191953
 30
0.0
 11
37.67199999996831
 21
8.503385408191894
 31
0.0
  0
LINE
  5
B53D
330
B52F
100
AcDbEntity
  8
0
  6
CONTINUOUS
100
AcDbLine
 10
31.72013636841932
 20
1.87800256756272
 30
0.0
 11
33.08199999996839
 21
3.239866199111788
 31
0.0
  0
LINE
  5
B53E
330
B52F
100
AcDbEntity
  8
0
  6
CONTINUOUS
100
AcDbLine
 10
36.23199999996837
 20
6.389866199111767
 30
0.0
 11
37.67199999996831
 21
7.829866199111708
 31
0.0
  0
LINE
  5
B53F
330
B52F
100
AcDbEntity
  8
0
  6
CONTINUOUS
100
AcDbLine
 10
31.89042734314753
 20
1.374774333210744
 30
0.0
 11
33.08199999996839
 21
2.566346990031601
 31
0.0
  0
LINE
  5
B540
330
B52F
100
AcDbEntity
  8
0
  6
CONTINUOUS
100
AcDbLine
 10
36.23199999996837
 20
5.71634699003158
 30
0.0
 11
37.67199999996831
 21
7.156346990031521
 31
0.0
  0
LINE
  5
B541
330
B52F
100
AcDbEntity
  8
0
  6
CONTINUOUS
100
AcDbLine
 10
32.14210568064475
 20
0.952933461627778
 30
0.0
 11
33.18745552475986
 21
1.998283305742888
 31
0.0
  0
LINE
  5
B542
330
B52F
100
AcDbEntity
  8
0
  6
CONTINUOUS
100
AcDbLine
 10
36.23199999996837
 20
5.042827780951393
 30
0.0
 11
37.67199999996831
 21
6.482827780951334
 31
0.0
  0
LINE
  5
B543
330
B52F
100
AcDbEntity
  8
0
  6
CONTINUOUS
100
AcDbLine
 10
32.45820639400955
 20
0.5955149659123915
 30
0.0
 11
33.47242681921943
 21
1.60973539112227
 31
0.0
  0
LINE
  5
B544
330
B52F
100
AcDbEntity
  8
0
  6
CONTINUOUS
100
AcDbLine
 10
36.23199999996837
 20
4.369308571871207
 30
0.0
 11
37.67199999996831
 21
5.809308571871147
 31
0.0
  0
LINE
  5
B545
330
B52F
100
AcDbEntity
  8
0
  6
CONTINUOUS
100
AcDbLine
 10
32.83432456621412
 20
0.2981139290367771
 30
0.0
 11
33.89722476612215
 21
1.361014128944803
 31
0.0
  0
LINE
  5
B546
330
B52F
100
AcDbEntity
  8
0
  6
CONTINUOUS
100
AcDbLine
 10
36.23199999996837
 20
3.69578936279102
 30
0.0
 11
37.67199999996831
 21
5.135789362790962
 31
0.0
  0
LINE
  5
B547
330
B52F
100
AcDbEntity
  8
0
  6
CONTINUOUS
100
AcDbLine
 10
33.2711633111245
 20
0.0614334648669672
 30
0.0
 11
34.43247338014423
 21
1.222743533886696
 31
0.0
  0
LINE
  5
B548
330
B52F
100
AcDbEntity
  8
0
  6
CONTINUOUS
100
AcDbLine
 10
36.23199999996837
 20
3.022270153710834
 30
0.0
 11
37.67199999996831
 21
4.462270153710775
 31
0.0
  0
LINE
  5
B549
330
B52F
100
AcDbEntity
  8
0
  6
CONTINUOUS
100
AcDbLine
 10
33.76515245874577
 20
-0.1180965965919523
 30
0.0
 11
35.1587445516215
 21
1.27549549628378
 31
0.0
  0
LINE
  5
B54A
330
B52F
100
AcDbEntity
  8
0
  6
CONTINUOUS
100
AcDbLine
 10
36.21639478609585
 20
2.333145730758136
 30
0.0
 11
37.67199999996831
 21
3.788750944630588
 31
0.0
  0
LINE
  5
B54B
330
B52F
100
AcDbEntity
  8
0
  6
CONTINUOUS
100
AcDbLine
 10
34.34060583368432
 20
-0.2161624307335863
 30
0.0
 11
37.67199999996831
 21
3.115231735550401
 31
0.0
  0
LINE
  5
B54C
330
B52F
100
AcDbEntity
  8
0
  6
CONTINUOUS
100
AcDbLine
 10
35.01698193613905
 20
-0.2133055373590427
 30
0.0
 11
37.66876712070525
 21
2.438479647207154
 31
0.0
  0
LINE
  5
B54D
330
B52F
100
AcDbEntity
  8
0
  6
CONTINUOUS
100
AcDbLine
 10
35.90743367693304
 20
0.0036269943547609
 30
0.0
 11
37.51723902192366
 21
1.613432339345381
 31
0.0
  0
LINE
  5
B54E
330
B52F
100
AcDbEntity
  8
0
  6
CONTINUOUS
100
AcDbLine
 10
32.55309425579761
 20
0.5074718966376706
 30
0.0
 11
32.27784730925847
 21
0.7827188431768102
 31
0.0
  0
LINE
  5
B54F
330
B52F
100
AcDbEntity
  8
0
  6
CONTINUOUS
100
AcDbLine
 10
33.87496468909684
 20
-0.1408793275813673
 30
0.0
 11
31.67993083278052
 21
2.054154528734943
 31
0.0
  0
LINE
  5
B550
330
B52F
100
AcDbEntity
  8
0
  6
CONTINUOUS
100
AcDbLine
 10
34.64362813207632
 20
-0.2360235614806649
 30
0.0
 11
31.64199999996833
 21
2.765604570627322
 31
0.0
  0
LINE
  5
B551
330
B52F
100
AcDbEntity
  8
0
  6
CONTINUOUS
100
AcDbLine
 10
35.25801106796118
 20
-0.1768872882853429
 30
0.0
 11
31.64199999996833
 21
3.439123779707508
 31
0.0
  0
LINE
  5
B552
330
B52F
100
AcDbEntity
  8
0
  6
CONTINUOUS
100
AcDbLine
 10
35.79065650332146
 20
-0.0360135145654361
 30
0.0
 11
34.54143210838231
 21
1.213210880373721
 31
0.0
  0
LINE
  5
B553
330
B52F
100
AcDbEntity
  8
0
  6
CONTINUOUS
100
AcDbLine
 10
33.08199999996839
 20
2.67264298878764
 30
0.0
 11
31.64199999996833
 21
4.112642988787695
 31
0.0
  0
LINE
  5
B554
330
B52F
100
AcDbEntity
  8
0
  6
CONTINUOUS
100
AcDbLine
 10
36.25975597779143
 20
0.1684062200447833
 30
0.0
 11
35.15395110240023
 21
1.274211095435983
 31
0.0
  0
LINE
  5
B555
330
B52F
100
AcDbEntity
  8
0
  6
CONTINUOUS
100
AcDbLine
 10
33.08199999996839
 20
3.346162197867826
 30
0.0
 11
31.64199999996833
 21
4.786162197867881
 31
0.0
  0
LINE
  5
B556
330
B52F
100
AcDbEntity
  8
0
  6
CONTINUOUS
100
AcDbLine
 10
36.67226329638774
 20
0.4294181105286579
 30
0.0
 11
35.63766478748767
 21
1.464016619428737
 31
0.0
  0
LINE
  5
B557
330
B52F
100
AcDbEntity
  8
0
  6
CONTINUOUS
100
AcDbLine
 10
33.08199999996839
 20
4.019681406948012
 30
0.0
 11
31.64199999996833
 21
5.459681406948068
 31
0.0
  0
LINE
  5
B558
330
B52F
100
AcDbEntity
  8
0
  6
CONTINUOUS
100
AcDbLine
 10
37.01677749710036
 20
0.7584231188962329
 30
0.0
 11
35.99563422741351
 21
1.779566388583076
 31
0.0
  0
LINE
  5
B559
330
B52F
100
AcDbEntity
  8
0
  6
CONTINUOUS
100
AcDbLine
 10
33.08199999996839
 20
4.693200616028199
 30
0.0
 11
31.64199999996833
 21
6.133200616028255
 31
0.0
  0
LINE
  5
B55A
330
B52F
100
AcDbEntity
  8
0
  6
CONTINUOUS
100
AcDbLine
 10
37.29859977568887
 20
1.1501200493879
 30
0.0
 11
36.20680593341555
 21
2.241913891661226
 31
0.0
  0
LINE
  5
B55B
330
B52F
100
AcDbEntity
  8
0
  6
CONTINUOUS
100
AcDbLine
 10
33.08199999996839
 20
5.366719825108386
 30
0.0
 11
31.64199999996833
 21
6.80671982510844
 31
0.0
  0
LINE
  5
B55C
330
B52F
100
AcDbEntity
  8
0
  6
CONTINUOUS
100
AcDbLine
 10
37.5148623517228
 20
1.607376682434161
 30
0.0
 11
36.23199999996837
 21
2.890239034188594
 31
0.0
  0
LINE
  5
B55D
330
B52F
100
AcDbEntity
  8
0
  6
CONTINUOUS
100
AcDbLine
 10
33.08199999996839
 20
6.040239034188573
 30
0.0
 11
31.64199999996833
 21
7.480239034188627
 31
0.0
  0
LINE
  5
B55E
330
B52F
100
AcDbEntity
  8
0
  6
CONTINUOUS
100
AcDbLine
 10
37.64705163358367
 20
2.148706609653477
 30
0.0
 11
36.23199999996837
 21
3.56375824326878
 31
0.0
  0
LINE
  5
B55F
330
B52F
100
AcDbEntity
  8
0
  6
CONTINUOUS
100
AcDbLine
 10
33.08199999996839
 20
6.713758243268758
 30
0.0
 11
31.64199999996833
 21
8.153758243268815
 31
0.0
  0
LINE
  5
B560
330
B52F
100
AcDbEntity
  8
0
  6
CONTINUOUS
100
AcDbLine
 10
37.67199999996831
 20
2.797277452349026
 30
0.0
 11
36.23199999996837
 21
4.237277452348967
 31
0.0
  0
LINE
  5
B561
330
B52F
100
AcDbEntity
  8
0
  6
CONTINUOUS
100
AcDbLine
 10
37.67199999996831
 20
3.470796661429213
 30
0.0
 11
36.23199999996837
 21
4.910796661429154
 31
0.0
  0
LINE
  5
B562
330
B52F
100
AcDbEntity
  8
0
  6
CONTINUOUS
100
AcDbLine
 10
37.67199999996831
 20
4.144315870509399
 30
0.0
 11
36.23199999996837
 21
5.58431587050934
 31
0.0
  0
LINE
  5
B563
330
B52F
100
AcDbEntity
  8
0
  6
CONTINUOUS
100
AcDbLine
 10
33.08199999996839
 20
7.387277452348945
 30
0.0
 11
31.70617745232608
 21
8.763099999991255
 31
0.0
  0
LINE
  5
B564
330
B52F
100
AcDbEntity
  8
0
  6
CONTINUOUS
100
AcDbLine
 10
33.08199999996839
 20
8.060796661429132
 30
0.0
 11
32.37969666140626
 21
8.763099999991255
 31
0.0
  0
LINE
  5
B565
330
B52F
100
AcDbEntity
  8
0
  6
CONTINUOUS
100
AcDbLine
 10
33.08199999996839
 20
8.734315870509318
 30
0.0
 11
33.05321587048645
 21
8.763099999991255
 31
0.0
  0
LINE
  5
B566
330
B52F
100
AcDbEntity
  8
0
  6
CONTINUOUS
100
AcDbLine
 10
37.67199999996831
 20
4.817835079589585
 30
0.0
 11
36.23199999996837
 21
6.257835079589526
 31
0.0
  0
LINE
  5
B567
330
B52F
100
AcDbEntity
  8
0
  6
CONTINUOUS
100
AcDbLine
 10
37.67199999996831
 20
5.491354288669771
 30
0.0
 11
36.23199999996837
 21
6.931354288669713
 31
0.0
  0
LINE
  5
B568
330
B52F
100
AcDbEntity
  8
0
  6
CONTINUOUS
100
AcDbLine
 10
37.67199999996831
 20
6.164873497749958
 30
0.0
 11
36.23199999996837
 21
7.6048734977499
 31
0.0
  0
LINE
  5
B569
330
B52F
100
AcDbEntity
  8
0
  6
CONTINUOUS
100
AcDbLine
 10
37.67199999996831
 20
6.838392706830144
 30
0.0
 11
36.23199999996837
 21
8.278392706830086
 31
0.0
  0
LINE
  5
B56A
330
B52F
100
AcDbEntity
  8
0
  6
CONTINUOUS
100
AcDbLine
 10
37.67199999996831
 20
7.511911915910332
 30
0.0
 11
36.42081191588738
 21
8.763099999991255
 31
0.0
  0
LINE
  5
B56B
330
B52F
100
AcDbEntity
  8
0
  6
CONTINUOUS
100
AcDbLine
 10
37.67199999996831
 20
8.185431124990519
 30
0.0
 11
37.09433112496757
 21
8.763099999991255
 31
0.0
  0
ENDBLK
  5
B5D3
330
B52F
100
AcDbEntity
  8
0
100
AcDbBlockEnd
  0
BLOCK
  5
B5D4
330
B56C
100
AcDbEntity
  8
0
100
AcDbBlockBegin
  2
*X76
 70
     1
 10
0.0
 20
0.0
 30
0.0
  3
*X76
  1

  0
LINE
  5
B56D
330
B56C
100
AcDbEntity
  8
0
  6
CONTINUOUS
100
AcDbLine
 10
38.60499999996136
 20
8.762866199104765
 30
0.0
 11
38.71672554182345
 21
8.874591740966855
 31
0.0
  0
LINE
  5
B56E
330
B56C
100
AcDbEntity
  8
0
  6
CONTINUOUS
100
AcDbLine
 10
38.60499999996136
 20
8.089346990024577
 30
0.0
 11
39.03418785440363
 21
8.518534844466847
 31
0.0
  0
LINE
  5
B56F
330
B56C
100
AcDbEntity
  8
0
  6
CONTINUOUS
100
AcDbLine
 10
38.60499999996136
 20
7.41582778094439
 30
0.0
 11
39.35165016698382
 21
8.16247794796684
 31
0.0
  0
LINE
  5
B570
330
B56C
100
AcDbEntity
  8
0
  6
CONTINUOUS
100
AcDbLine
 10
38.60499999996136
 20
6.742308571864204
 30
0.0
 11
39.66911247956399
 21
7.806421051466834
 31
0.0
  0
LINE
  5
B571
330
B56C
100
AcDbEntity
  8
0
  6
CONTINUOUS
100
AcDbLine
 10
38.60499999996136
 20
6.068789362784018
 30
0.0
 11
39.98657479214418
 21
7.450364154966827
 31
0.0
  0
LINE
  5
B572
330
B56C
100
AcDbEntity
  8
0
  6
CONTINUOUS
100
AcDbLine
 10
38.60499999996136
 20
5.395270153703832
 30
0.0
 11
40.30403710472435
 21
7.09430725846682
 31
0.0
  0
LINE
  5
B573
330
B56C
100
AcDbEntity
  8
0
  6
CONTINUOUS
100
AcDbLine
 10
38.60499999996136
 20
4.721750944623645
 30
0.0
 11
40.62149941730453
 21
6.738250361966813
 31
0.0
  0
LINE
  5
B574
330
B56C
100
AcDbEntity
  8
0
  6
CONTINUOUS
100
AcDbLine
 10
38.60499999996136
 20
4.048231735543458
 30
0.0
 11
40.93896172988471
 21
6.382193465466806
 31
0.0
  0
LINE
  5
B575
330
B56C
100
AcDbEntity
  8
0
  6
CONTINUOUS
100
AcDbLine
 10
38.60499999996136
 20
3.374712526463272
 30
0.0
 11
40.02599999995994
 21
4.795712526461843
 31
0.0
  0
LINE
  5
B576
330
B56C
100
AcDbEntity
  8
0
  6
CONTINUOUS
100
AcDbLine
 10
38.60499999996136
 20
2.701193317383085
 30
0.0
 11
40.02599999995994
 21
4.122193317381657
 31
0.0
  0
LINE
  5
B577
330
B56C
100
AcDbEntity
  8
0
  6
CONTINUOUS
100
AcDbLine
 10
40.28339754687704
 20
5.053110073378947
 30
0.0
 11
41.25642404246489
 21
6.026136568966799
 31
0.0
  0
LINE
  5
B578
330
B56C
100
AcDbEntity
  8
0
  6
CONTINUOUS
100
AcDbLine
 10
40.60085985945722
 20
4.697053176878939
 30
0.0
 11
41.57388635504507
 21
5.670079672466793
 31
0.0
  0
LINE
  5
B579
330
B56C
100
AcDbEntity
  8
0
  6
CONTINUOUS
100
AcDbLine
 10
43.57899999995641
 20
8.348712526458318
 30
0.0
 11
43.99338747348935
 21
8.763099999991255
 31
0.0
  0
LINE
  5
B57A
330
B56C
100
AcDbEntity
  8
0
  6
CONTINUOUS
100
AcDbLine
 10
43.57899999995641
 20
7.675193317378131
 30
0.0
 11
44.66690668256953
 21
8.763099999991255
 31
0.0
  0
LINE
  5
B57B
330
B56C
100
AcDbEntity
  8
0
  6
CONTINUOUS
100
AcDbLine
 10
38.60499999996136
 20
2.027674108302898
 30
0.0
 11
40.02599999995994
 21
3.44867410830147
 31
0.0
  0
LINE
  5
B57C
330
B56C
100
AcDbEntity
  8
0
  6
CONTINUOUS
100
AcDbLine
 10
38.60499999996136
 20
1.354154899222712
 30
0.0
 11
40.02599999995994
 21
2.775154899221284
 31
0.0
  0
LINE
  5
B57D
330
B56C
100
AcDbEntity
  8
0
  6
CONTINUOUS
100
AcDbLine
 10
38.60499999996136
 20
0.6806356901425255
 30
0.0
 11
40.02599999995994
 21
2.101635690141098
 31
0.0
  0
LINE
  5
B57E
330
B56C
100
AcDbEntity
  8
0
  6
CONTINUOUS
100
AcDbLine
 10
38.60499999996136
 20
0.0071164810623383
 30
0.0
 11
40.02599999995994
 21
1.428116481060911
 31
0.0
  0
LINE
  5
B57F
330
B56C
100
AcDbEntity
  8
0
  6
CONTINUOUS
100
AcDbLine
 10
40.9183221720374
 20
4.340996280378933
 30
0.0
 11
41.89134866762525
 21
5.314022775966786
 31
0.0
  0
LINE
  5
B580
330
B56C
100
AcDbEntity
  8
0
  6
CONTINUOUS
100
AcDbLine
 10
41.23578448461758
 20
3.984939383878926
 30
0.0
 11
42.20881098020543
 21
4.957965879466778
 31
0.0
  0
LINE
  5
B581
330
B56C
100
AcDbEntity
  8
0
  6
CONTINUOUS
100
AcDbLine
 10
41.55324679719776
 20
3.628882487378919
 30
0.0
 11
42.52627329278561
 21
4.601908982966772
 31
0.0
  0
LINE
  5
B582
330
B56C
100
AcDbEntity
  8
0
  6
CONTINUOUS
100
AcDbLine
 10
41.87070910977793
 20
3.272825590878912
 30
0.0
 11
42.84373560536579
 21
4.245852086466765
 31
0.0
  0
LINE
  5
B583
330
B56C
100
AcDbEntity
  8
0
  6
CONTINUOUS
100
AcDbLine
 10
43.57899999995641
 20
7.001674108297943
 30
0.0
 11
44.99999999995498
 21
8.422674108296516
 31
0.0
  0
LINE
  5
B584
330
B56C
100
AcDbEntity
  8
0
  6
CONTINUOUS
100
AcDbLine
 10
43.57899999995641
 20
6.328154899217758
 30
0.0
 11
44.99999999995498
 21
7.749154899216329
 31
0.0
  0
LINE
  5
B585
330
B56C
100
AcDbEntity
  8
0
  6
CONTINUOUS
100
AcDbLine
 10
43.57899999995641
 20
5.654635690137571
 30
0.0
 11
44.99999999995498
 21
7.075635690136142
 31
0.0
  0
LINE
  5
B586
330
B56C
100
AcDbEntity
  8
0
  6
CONTINUOUS
100
AcDbLine
 10
43.57899999995641
 20
4.981116481057384
 30
0.0
 11
44.99999999995498
 21
6.402116481055955
 31
0.0
  0
LINE
  5
B587
330
B56C
100
AcDbEntity
  8
0
  6
CONTINUOUS
100
AcDbLine
 10
39.27140272797921
 20
-0.0000000000000009
 30
0.0
 11
40.02599999995994
 21
0.7545972719807246
 31
0.0
  0
LINE
  5
B588
330
B56C
100
AcDbEntity
  8
0
  6
CONTINUOUS
100
AcDbLine
 10
39.9449219370594
 20
-0.0000000000000009
 30
0.0
 11
40.02599999995994
 21
0.0810780629005379
 31
0.0
  0
LINE
  5
B589
330
B56C
100
AcDbEntity
  8
0
  6
CONTINUOUS
100
AcDbLine
 10
42.18817142235812
 20
2.916768694378905
 30
0.0
 11
43.16119791794597
 21
3.889795189966758
 31
0.0
  0
LINE
  5
B58A
330
B56C
100
AcDbEntity
  8
0
  6
CONTINUOUS
100
AcDbLine
 10
42.50563373493829
 20
2.560711797878898
 30
0.0
 11
43.47866023052615
 21
3.533738293466751
 31
0.0
  0
LINE
  5
B58B
330
B56C
100
AcDbEntity
  8
0
  6
CONTINUOUS
100
AcDbLine
 10
43.57899999995641
 20
4.307597271977198
 30
0.0
 11
44.99999999995498
 21
5.728597271975769
 31
0.0
  0
LINE
  5
B58C
330
B56C
100
AcDbEntity
  8
0
  6
CONTINUOUS
100
AcDbLine
 10
43.57899999995641
 20
3.634078062897011
 30
0.0
 11
44.99999999995498
 21
5.055078062895582
 31
0.0
  0
LINE
  5
B58D
330
B56C
100
AcDbEntity
  8
0
  6
CONTINUOUS
100
AcDbLine
 10
42.82309604751848
 20
2.204654901378891
 30
0.0
 11
44.99999999995498
 21
4.381558853815395
 31
0.0
  0
LINE
  5
B58E
330
B56C
100
AcDbEntity
  8
0
  6
CONTINUOUS
100
AcDbLine
 10
43.14055836009865
 20
1.848598004878885
 30
0.0
 11
44.99999999995498
 21
3.70803964473521
 31
0.0
  0
LINE
  5
B58F
330
B56C
100
AcDbEntity
  8
0
  6
CONTINUOUS
100
AcDbLine
 10
43.45802067267883
 20
1.492541108378878
 30
0.0
 11
44.99999999995498
 21
3.034520435655023
 31
0.0
  0
LINE
  5
B590
330
B56C
100
AcDbEntity
  8
0
  6
CONTINUOUS
100
AcDbLine
 10
43.77548298525902
 20
1.136484211878871
 30
0.0
 11
44.99999999995498
 21
2.361001226574837
 31
0.0
  0
LINE
  5
B591
330
B56C
100
AcDbEntity
  8
0
  6
CONTINUOUS
100
AcDbLine
 10
44.09294529783919
 20
0.7804273153788639
 30
0.0
 11
44.99999999995498
 21
1.687482017494649
 31
0.0
  0
LINE
  5
B592
330
B56C
100
AcDbEntity
  8
0
  6
CONTINUOUS
100
AcDbLine
 10
44.41040761041938
 20
0.4243704188788566
 30
0.0
 11
44.99999999995498
 21
1.013962808414463
 31
0.0
  0
LINE
  5
B593
330
B56C
100
AcDbEntity
  8
0
  6
CONTINUOUS
100
AcDbLine
 10
44.72786992299955
 20
0.0683135223788494
 30
0.0
 11
44.99999999995498
 21
0.340443599334276
 31
0.0
  0
LINE
  5
B594
330
B56C
100
AcDbEntity
  8
0
  6
CONTINUOUS
100
AcDbLine
 10
39.12223903415696
 20
-0.0000000000000009
 30
0.0
 11
38.60499999996136
 21
0.5172390341955961
 31
0.0
  0
LINE
  5
B595
330
B56C
100
AcDbEntity
  8
0
  6
CONTINUOUS
100
AcDbLine
 10
39.79575824323715
 20
-0.0000000000000009
 30
0.0
 11
38.60499999996136
 21
1.190758243275783
 31
0.0
  0
LINE
  5
B596
330
B56C
100
AcDbEntity
  8
0
  6
CONTINUOUS
100
AcDbLine
 10
40.02599999995994
 20
0.443277452357397
 30
0.0
 11
38.60499999996136
 21
1.864277452355969
 31
0.0
  0
LINE
  5
B597
330
B56C
100
AcDbEntity
  8
0
  6
CONTINUOUS
100
AcDbLine
 10
40.02599999995994
 20
1.116796661437583
 30
0.0
 11
38.60499999996136
 21
2.537796661436155
 31
0.0
  0
LINE
  5
B598
330
B56C
100
AcDbEntity
  8
0
  6
CONTINUOUS
100
AcDbLine
 10
40.02599999995994
 20
1.79031587051777
 30
0.0
 11
38.60499999996136
 21
3.211315870516341
 31
0.0
  0
LINE
  5
B599
330
B56C
100
AcDbEntity
  8
0
  6
CONTINUOUS
100
AcDbLine
 10
40.02599999995994
 20
2.463835079597956
 30
0.0
 11
38.60499999996136
 21
3.884835079596527
 31
0.0
  0
LINE
  5
B59A
330
B56C
100
AcDbEntity
  8
0
  6
CONTINUOUS
100
AcDbLine
 10
40.02599999995994
 20
3.137354288678143
 30
0.0
 11
38.60499999996136
 21
4.558354288676714
 31
0.0
  0
LINE
  5
B59B
330
B56C
100
AcDbEntity
  8
0
  6
CONTINUOUS
100
AcDbLine
 10
40.02599999995994
 20
3.810873497758329
 30
0.0
 11
38.60499999996136
 21
5.2318734977569
 31
0.0
  0
LINE
  5
B59C
330
B56C
100
AcDbEntity
  8
0
  6
CONTINUOUS
100
AcDbLine
 10
40.02599999995994
 20
4.484392706838515
 30
0.0
 11
38.60499999996136
 21
5.905392706837086
 31
0.0
  0
LINE
  5
B59D
330
B56C
100
AcDbEntity
  8
0
  6
CONTINUOUS
100
AcDbLine
 10
44.99999999995498
 20
0.183911915923658
 30
0.0
 11
41.53858364506288
 21
3.64532827081576
 31
0.0
  0
LINE
  5
B59E
330
B56C
100
AcDbEntity
  8
0
  6
CONTINUOUS
100
AcDbLine
 10
40.02599999995994
 20
5.157911915918703
 30
0.0
 11
38.60499999996136
 21
6.578911915917274
 31
0.0
  0
LINE
  5
B59F
330
B56C
100
AcDbEntity
  8
0
  6
CONTINUOUS
100
AcDbLine
 10
44.99999999995498
 20
0.8574311250038447
 30
0.0
 11
38.60499999996136
 21
7.25243112499746
 31
0.0
  0
LINE
  5
B5A0
330
B56C
100
AcDbEntity
  8
0
  6
CONTINUOUS
100
AcDbLine
 10
44.99999999995498
 20
1.530950334084031
 30
0.0
 11
38.60499999996136
 21
7.925950334077647
 31
0.0
  0
LINE
  5
B5A1
330
B56C
100
AcDbEntity
  8
0
  6
CONTINUOUS
100
AcDbLine
 10
44.99999999995498
 20
2.204469543164218
 30
0.0
 11
43.57899999995641
 21
3.625469543162789
 31
0.0
  0
LINE
  5
B5A2
330
B56C
100
AcDbEntity
  8
0
  6
CONTINUOUS
100
AcDbLine
 10
41.89876730984767
 20
5.305702233271528
 30
0.0
 11
38.60499999996136
 21
8.599469543157834
 31
0.0
  0
LINE
  5
B5A3
330
B56C
100
AcDbEntity
  8
0
  6
CONTINUOUS
100
AcDbLine
 10
44.99999999995498
 20
2.877988752244405
 30
0.0
 11
43.57899999995641
 21
4.298988752242975
 31
0.0
  0
LINE
  5
B5A4
330
B56C
100
AcDbEntity
  8
0
  6
CONTINUOUS
100
AcDbLine
 10
44.99999999995498
 20
3.551507961324591
 30
0.0
 11
43.57899999995641
 21
4.972507961323163
 31
0.0
  0
LINE
  5
B5A5
330
B56C
100
AcDbEntity
  8
0
  6
CONTINUOUS
100
AcDbLine
 10
44.99999999995498
 20
4.225027170404777
 30
0.0
 11
43.57899999995641
 21
5.646027170403348
 31
0.0
  0
LINE
  5
B5A6
330
B56C
100
AcDbEntity
  8
0
  6
CONTINUOUS
100
AcDbLine
 10
44.99999999995498
 20
4.898546379484964
 30
0.0
 11
43.57899999995641
 21
6.319546379483535
 31
0.0
  0
LINE
  5
B5A7
330
B56C
100
AcDbEntity
  8
0
  6
CONTINUOUS
100
AcDbLine
 10
44.99999999995498
 20
5.572065588565151
 30
0.0
 11
43.57899999995641
 21
6.993065588563722
 31
0.0
  0
LINE
  5
B5A8
330
B56C
100
AcDbEntity
  8
0
  6
CONTINUOUS
100
AcDbLine
 10
44.99999999995498
 20
6.245584797645336
 30
0.0
 11
43.57899999995641
 21
7.666584797643908
 31
0.0
  0
LINE
  5
B5A9
330
B56C
100
AcDbEntity
  8
0
  6
CONTINUOUS
100
AcDbLine
 10
44.99999999995498
 20
6.919104006725522
 30
0.0
 11
43.57899999995641
 21
8.340104006724093
 31
0.0
  0
LINE
  5
B5AA
330
B56C
100
AcDbEntity
  8
0
  6
CONTINUOUS
100
AcDbLine
 10
44.99999999995498
 20
7.592623215805709
 30
0.0
 11
43.82952321576943
 21
8.763099999991255
 31
0.0
  0
LINE
  5
B5AB
330
B56C
100
AcDbEntity
  8
0
  6
CONTINUOUS
100
AcDbLine
 10
44.99999999995498
 20
8.266142424885896
 30
0.0
 11
44.50304242484962
 21
8.763099999991255
 31
0.0
  0
ENDBLK
  5
B5D5
330
B56C
100
AcDbEntity
  8
0
100
AcDbBlockEnd
  0
BLOCK
  5
B5D6
330
B5AC
100
AcDbEntity
  8
0
100
AcDbBlockBegin
  2
*X77
 70
     1
 10
0.0
 20
0.0
 30
0.0
  3
*X77
  1

  0
LINE
  5
B5AD
330
B5AC
100
AcDbEntity
  8
0
  6
CONTINUOUS
100
AcDbLine
 10
0.0
 20
8.548461116714023
 30
0.0
 11
0.2146388832772324
 21
8.763099999991255
 31
0.0
  0
LINE
  5
B5AE
330
B5AC
100
AcDbEntity
  8
0
  6
CONTINUOUS
100
AcDbLine
 10
-0.0000000000000002
 20
7.874941907633837
 30
0.0
 11
0.8881580923574184
 21
8.763099999991255
 31
0.0
  0
LINE
  5
B5AF
330
B5AC
100
AcDbEntity
  8
0
  6
CONTINUOUS
100
AcDbLine
 10
0.0
 20
7.20142269855365
 30
0.0
 11
1.420999999998572
 21
8.622422698552223
 31
0.0
  0
LINE
  5
B5B0
330
B5AC
100
AcDbEntity
  8
0
  6
CONTINUOUS
100
AcDbLine
 10
-0.0000000000000001
 20
6.527903489473465
 30
0.0
 11
1.420999999998571
 21
7.948903489472036
 31
0.0
  0
LINE
  5
B5B1
330
B5AC
100
AcDbEntity
  8
0
  6
CONTINUOUS
100
AcDbLine
 10
-0.0000000000000002
 20
5.854384280393278
 30
0.0
 11
1.420999999998571
 21
7.275384280391849
 31
0.0
  0
LINE
  5
B5B2
330
B5AC
100
AcDbEntity
  8
0
  6
CONTINUOUS
100
AcDbLine
 10
-0.0000000000000002
 20
5.180865071313091
 30
0.0
 11
1.420999999998571
 21
6.601865071311663
 31
0.0
  0
LINE
  5
B5B3
330
B5AC
100
AcDbEntity
  8
0
  6
CONTINUOUS
100
AcDbLine
 10
0.0
 20
4.507345862232905
 30
0.0
 11
1.420999999998571
 21
5.928345862231477
 31
0.0
  0
LINE
  5
B5B4
330
B5AC
100
AcDbEntity
  8
0
  6
CONTINUOUS
100
AcDbLine
 10
-0.0000000000000003
 20
3.833826653152718
 30
0.0
 11
1.420999999998571
 21
5.25482665315129
 31
0.0
  0
LINE
  5
B5B5
330
B5AC
100
AcDbEntity
  8
0
  6
CONTINUOUS
100
AcDbLine
 10
-0.0000000000000002
 20
3.160307444072532
 30
0.0
 11
1.420999999998571
 21
4.581307444071103
 31
0.0
  0
LINE
  5
B5B6
330
B5AC
100
AcDbEntity
  8
0
  6
CONTINUOUS
100
AcDbLine
 10
-0.0000000000000001
 20
2.486788234992345
 30
0.0
 11
1.420999999998571
 21
3.907788234990917
 31
0.0
  0
LINE
  5
B5B7
330
B5AC
100
AcDbEntity
  8
0
  6
CONTINUOUS
100
AcDbLine
 10
-0.0000000000000006
 20
1.813269025912159
 30
0.0
 11
1.420999999998571
 21
3.234269025910731
 31
0.0
  0
LINE
  5
B5B8
330
B5AC
100
AcDbEntity
  8
0
  6
CONTINUOUS
100
AcDbLine
 10
0.0
 20
1.139749816831973
 30
0.0
 11
1.420999999998571
 21
2.560749816830544
 31
0.0
  0
LINE
  5
B5B9
330
B5AC
100
AcDbEntity
  8
0
  6
CONTINUOUS
100
AcDbLine
 10
0.0000000000000002
 20
0.466230607751787
 30
0.0
 11
1.420999999998571
 21
1.887230607750358
 31
0.0
  0
LINE
  5
B5BA
330
B5AC
100
AcDbEntity
  8
0
  6
CONTINUOUS
100
AcDbLine
 10
0.2072886013284003
 20
-0.0000000000000009
 30
0.0
 11
1.420999999998571
 21
1.213711398670171
 31
0.0
  0
LINE
  5
B5BB
330
B5AC
100
AcDbEntity
  8
0
  6
CONTINUOUS
100
AcDbLine
 10
0.8808078104085864
 20
-0.0000000000000009
 30
0.0
 11
1.420999999998571
 21
0.5401921895899839
 31
0.0
  0
LINE
  5
B5BC
330
B5AC
100
AcDbEntity
  8
0
  6
CONTINUOUS
100
AcDbLine
 10
0.0581249075061505
 20
-0.0000000000000009
 30
0.0
 11
-0.0000000000000002
 21
0.0581249075061496
 31
0.0
  0
LINE
  5
B5BD
330
B5AC
100
AcDbEntity
  8
0
  6
CONTINUOUS
100
AcDbLine
 10
0.7316441165863372
 20
-0.0000000000000009
 30
0.0
 11
-0.0000000000000002
 21
0.7316441165863363
 31
0.0
  0
LINE
  5
B5BE
330
B5AC
100
AcDbEntity
  8
0
  6
CONTINUOUS
100
AcDbLine
 10
1.405163325666523
 20
-0.0000000000000009
 30
0.0
 11
-0.0000000000000002
 21
1.405163325666523
 31
0.0
  0
LINE
  5
B5BF
330
B5AC
100
AcDbEntity
  8
0
  6
CONTINUOUS
100
AcDbLine
 10
1.420999999998572
 20
0.6576825347481381
 30
0.0
 11
-0.0000000000000001
 21
2.07868253474671
 31
0.0
  0
LINE
  5
B5C0
330
B5AC
100
AcDbEntity
  8
0
  6
CONTINUOUS
100
AcDbLine
 10
1.420999999998571
 20
1.331201743828324
 30
0.0
 11
-0.0000000000000001
 21
2.752201743826896
 31
0.0
  0
LINE
  5
B5C1
330
B5AC
100
AcDbEntity
  8
0
  6
CONTINUOUS
100
AcDbLine
 10
1.420999999998571
 20
2.004720952908511
 30
0.0
 11
-0.0000000000000002
 21
3.425720952907082
 31
0.0
  0
LINE
  5
B5C2
330
B5AC
100
AcDbEntity
  8
0
  6
CONTINUOUS
100
AcDbLine
 10
1.420999999998571
 20
2.678240161988697
 30
0.0
 11
-0.0000000000000001
 21
4.099240161987269
 31
0.0
  0
LINE
  5
B5C3
330
B5AC
100
AcDbEntity
  8
0
  6
CONTINUOUS
100
AcDbLine
 10
1.420999999998572
 20
3.351759371068884
 30
0.0
 11
0.0
 21
4.772759371067455
 31
0.0
  0
LINE
  5
B5C4
330
B5AC
100
AcDbEntity
  8
0
  6
CONTINUOUS
100
AcDbLine
 10
1.420999999998571
 20
4.02527858014907
 30
0.0
 11
-0.0000000000000003
 21
5.446278580147642
 31
0.0
  0
LINE
  5
B5C5
330
B5AC
100
AcDbEntity
  8
0
  6
CONTINUOUS
100
AcDbLine
 10
1.420999999998571
 20
4.698797789229257
 30
0.0
 11
0.0
 21
6.119797789227828
 31
0.0
  0
LINE
  5
B5C6
330
B5AC
100
AcDbEntity
  8
0
  6
CONTINUOUS
100
AcDbLine
 10
1.420999999998571
 20
5.372316998309444
 30
0.0
 11
-0.0000000000000001
 21
6.793316998308015
 31
0.0
  0
LINE
  5
B5C7
330
B5AC
100
AcDbEntity
  8
0
  6
CONTINUOUS
100
AcDbLine
 10
1.420999999998572
 20
6.045836207389629
 30
0.0
 11
-0.0000000000000004
 21
7.466836207388202
 31
0.0
  0
LINE
  5
B5C8
330
B5AC
100
AcDbEntity
  8
0
  6
CONTINUOUS
100
AcDbLine
 10
1.420999999998571
 20
6.719355416469816
 30
0.0
 11
0.0
 21
8.140355416468388
 31
0.0
  0
LINE
  5
B5C9
330
B5AC
100
AcDbEntity
  8
0
  6
CONTINUOUS
100
AcDbLine
 10
1.420999999998571
 20
7.392874625550003
 30
0.0
 11
0.0507746255573185
 21
8.763099999991255
 31
0.0
  0
LINE
  5
B5CA
330
B5AC
100
AcDbEntity
  8
0
  6
CONTINUOUS
100
AcDbLine
 10
1.420999999998571
 20
8.06639383463019
 30
0.0
 11
0.7242938346375052
 21
8.763099999991255
 31
0.0
  0
LINE
  5
B5CB
330
B5AC
100
AcDbEntity
  8
0
  6
CONTINUOUS
100
AcDbLine
 10
1.420999999998571
 20
8.739913043710375
 30
0.0
 11
1.397813043717691
 21
8.763099999991255
 31
0.0
  0
ENDBLK
  5
B5D7
330
B5AC
100
AcDbEntity
  8
0
100
AcDbBlockEnd
  0
ENDSEC
  0
SECTION
  2
ENTITIES
  0
LINE
  5
B052
330
18
100
AcDbEntity
  8
01
100
AcDbLine
 10
4937.060867654107
 20
-295.0099797533293
 30
0.0000000000563712
 11
4959.689153036537
 21
-295.0099797533293
 31
0.0000000000563712
  0
LINE
  5
B053
330
18
100
AcDbEntity
  8
01
  6
BYBLOCK
100
AcDbLine
 10
5038.189920878855
 20
-135.011298066432
 30
0.0000000001127424
 11
5191.944301033885
 21
-135.011298066432
 31
0.0000000001127424
  0
LINE
  5
B054
330
18
100
AcDbEntity
  8
01
100
AcDbLine
 10
5089.189153036537
 20
-130.011298066432
 30
0.0000000001127424
 11
5089.189153036537
 21
-156.511298066432
 31
0.0000000001127424
  0
LINE
  5
B055
330
18
100
AcDbEntity
  8
01
100
AcDbLine
 10
4939.189153036537
 20
-175.0099797533293
 30
0.0000000000563712
 11
4939.189153036537
 21
-365.0099797533293
 31
0.0000000000563712
  0
LINE
  5
B056
330
18
100
AcDbEntity
  8
1CENTER
100
AcDbLine
 10
4953.689153036537
 20
-310.0099797533293
 30
0.0000000000563712
 11
4953.689153036537
 21
-302.0099797533293
 31
0.0000000000563712
  0
LINE
  5
B057
330
18
100
AcDbEntity
  8
01
100
AcDbLine
 10
5059.189153036537
 20
-295.0099797533293
 30
0.0000000000563712
 11
5119.189153036537
 21
-295.0099797533293
 31
0.0000000000563712
  0
LINE
  5
B058
330
18
100
AcDbEntity
  8
01
100
AcDbLine
 10
5089.189153036537
 20
-265.0099797533293
 30
0.0000000000563712
 11
5089.189153036537
 21
-325.0099797533293
 31
0.0000000000563712
  0
LINE
  5
B05A
330
18
100
AcDbEntity
  8
01
100
AcDbLine
 10
5115.189153036537
 20
-268.5099797533311
 30
0.0000000000563712
 11
5063.189153036541
 21
-268.5099797533311
 31
0.0000000000563712
  0
LINE
  5
B05B
330
18
100
AcDbEntity
  8
01
100
AcDbLine
 10
5063.189153036541
 20
-321.5099797533311
 30
0.0000000000563712
 11
5115.189153036537
 21
-321.5099797533311
 31
0.0000000000563712
  0
LINE
  5
B05C
330
18
100
AcDbEntity
  8
01
100
AcDbLine
 10
5062.689153036541
 20
-269.0099797533311
 30
0.0000000000563712
 11
5062.689153036541
 21
-321.0099797533311
 31
0.0000000000563712
  0
ARC
  5
B05D
330
18
100
AcDbEntity
  8
01
100
AcDbCircle
 10
5063.189153036541
 20
-321.0099797533311
 30
0.0000000000563712
 40
0.5
100
AcDbArc
 50
180.0
 51
270.0
  0
ARC
  5
B05E
330
18
100
AcDbEntity
  8
01
100
AcDbCircle
 10
5063.189153036541
 20
-269.0099797533311
 30
0.0000000000563712
 40
0.5
100
AcDbArc
 50
90.0
 51
180.0
  0
LINE
  5
B05F
330
18
100
AcDbEntity
  8
01
100
AcDbLine
 10
5115.689153036537
 20
-269.0099797533311
 30
0.0000000000563712
 11
5115.689153036537
 21
-283.0099790839985
 31
0.0000000000563712
  0
ARC
  5
B060
330
18
100
AcDbEntity
  8
01
100
AcDbCircle
 10
5115.189153036537
 20
-321.0099797533311
 30
0.0000000000563712
 40
0.5
100
AcDbArc
 50
270.0
 51
0.0
  0
ARC
  5
B061
330
18
100
AcDbEntity
  8
01
100
AcDbCircle
 10
5115.189153036537
 20
-269.0099797533311
 30
0.0000000000563712
 40
0.5
100
AcDbArc
 50
0.0
 51
90.0
  0
LINE
  5
B062
330
18
100
AcDbEntity
  8
01
100
AcDbLine
 10
5062.689153036541
 20
-135.011298066432
 30
0.0000000001127424
 11
5115.689153036537
 21
-135.011298066432
 31
0.0000000001127424
  0
LINE
  5
B063
330
18
100
AcDbEntity
  8
01
100
AcDbLine
 10
5063.189153036541
 20
-143.511298066432
 30
0.0000000001127424
 11
5115.189153036537
 21
-143.511298066432
 31
0.0000000001127424
  0
LINE
  5
B064
330
18
100
AcDbEntity
  8
01
100
AcDbLine
 10
5115.689153036537
 20
-135.011298066432
 30
0.0000000001127424
 11
5115.689153036537
 21
-143.011298066432
 31
0.0000000001127424
  0
LINE
  5
B065
330
18
100
AcDbEntity
  8
01
100
AcDbLine
 10
5062.689153036541
 20
-135.011298066432
 30
0.0000000001127424
 11
5062.689153036541
 21
-143.011298066432
 31
0.0000000001127424
  0
ARC
  5
B066
330
18
100
AcDbEntity
  8
01
100
AcDbCircle
 10
5063.189153036541
 20
-143.011298066432
 30
0.0000000001127424
 40
0.5
100
AcDbArc
 50
180.0
 51
270.0
  0
ARC
  5
B067
330
18
100
AcDbEntity
  8
01
100
AcDbCircle
 10
5115.189153036537
 20
-143.011298066432
 30
0.0000000001127424
 40
0.5
100
AcDbArc
 50
270.0
 51
0.0
  0
LINE
  5
B068
330
18
100
AcDbEntity
  8
01
100
AcDbLine
 10
4939.189153036537
 20
-321.5099797533284
 30
0.0000000000563712
 11
4939.189153036537
 21
-268.5099797533311
 31
0.0000000000563712
  0
LINE
  5
B069
330
18
100
AcDbEntity
  8
01
100
AcDbLine
 10
4947.689153036537
 20
-321.0099797533284
 30
0.0000000000563712
 11
4947.689153036537
 21
-269.0099797533311
 31
0.0000000000563712
  0
LINE
  5
B06A
330
18
100
AcDbEntity
  8
01
100
AcDbLine
 10
4939.189153036537
 20
-268.5099797533311
 30
0.0000000000563712
 11
4947.189153036537
 21
-268.5099797533311
 31
0.0000000000563712
  0
LINE
  5
B06B
330
18
100
AcDbEntity
  8
01
100
AcDbLine
 10
4939.189153036537
 20
-321.5099797533284
 30
0.0000000000563712
 11
4947.189153036537
 21
-321.5099797533284
 31
0.0000000000563712
  0
ARC
  5
B06C
330
18
100
AcDbEntity
  8
01
100
AcDbCircle
 10
4947.189153036537
 20
-321.0099797533284
 30
0.0000000000563712
 40
0.5
100
AcDbArc
 50
270.0
 51
0.0
  0
ARC
  5
B06D
330
18
100
AcDbEntity
  8
01
100
AcDbCircle
 10
4947.189153036537
 20
-269.0099797533311
 30
0.0000000000563712
 40
0.5
100
AcDbArc
 50
0.0
 51
90.0
  0
LINE
  5
B073
330
18
100
AcDbEntity
  8
01
100
AcDbLine
 10
5063.189153036537
 20
-184.11129806725
 30
0.0000000001127424
 11
5203.689153036537
 21
-184.11129806725
 31
0.0000000001127424
  0
LINE
  5
B074
330
18
100
AcDbEntity
  8
01
100
AcDbLine
 10
5063.689153036537
 20
-184.11129806725
 30
0.0000000001127424
 11
5063.689153036537
 21
-184.61129806725
 31
0.0000000001127424
  0
LINE
  5
B075
330
18
100
AcDbEntity
  8
01
100
AcDbLine
 10
5203.189153036537
 20
-184.1112980672486
 30
0.0000000001127424
 11
5203.189153036537
 21
-184.6112980672486
 31
0.0000000001127424
  0
LINE
  5
B076
330
18
100
AcDbEntity
  8
01
100
AcDbLine
 10
5204.189153036537
 20
-185.1112980672495
 30
0.0000000001127424
 11
5204.189153036537
 21
-189.11129806725
 31
0.0000000001127424
  0
ARC
  5
B077
330
18
100
AcDbEntity
  8
01
100
AcDbCircle
 10
5203.689153036537
 20
-185.1112980672495
 30
0.0000000001127424
 40
0.5
100
AcDbArc
 50
0.0
 51
90.0
  0
ARC
  5
B078
330
18
100
AcDbEntity
  8
01
100
AcDbCircle
 10
5203.189153036537
 20
-189.11129806725
 30
0.0000000001127424
 40
1.0
100
AcDbArc
 50
270.0
 51
0.0
  0
LINE
  5
B079
330
18
100
AcDbEntity
  8
01
100
AcDbLine
 10
5062.689153036537
 20
-185.11129806725
 30
0.0000000001127424
 11
5062.689153036537
 21
-189.1137997210511
 31
0.0000000001127424
  0
LINE
  5
B07A
330
18
100
AcDbEntity
  8
01
100
AcDbLine
 10
5203.689153036537
 20
-184.6112980672495
 30
0.0000000001127424
 11
5063.189153036537
 21
-184.6112980672495
 31
0.0000000001127424
  0
ARC
  5
B07B
330
18
100
AcDbEntity
  8
01
100
AcDbCircle
 10
5063.189153036537
 20
-185.11129806725
 30
0.0000000001127424
 40
0.5
100
AcDbArc
 50
90.0
 51
180.0
  0
ARC
  5
B07C
330
18
100
AcDbEntity
  8
01
100
AcDbCircle
 10
5088.330999367234
 20
-193.11129806725
 30
0.0000000001127424
 40
3.0
100
AcDbArc
 50
56.44269023805719
 51
90.0
  0
ARC
  5
B07D
330
18
100
AcDbEntity
  8
01
100
AcDbCircle
 10
5077.558248878488
 20
-195.1112980672505
 30
0.0000000001127424
 40
5.0
100
AcDbArc
 50
90.0
 51
115.8419327632048
  0
ARC
  5
B07E
330
18
100
AcDbEntity
  8
01
100
AcDbCircle
 10
5096.549487100054
 20
-196.11129806725
 30
0.0000000001127424
 40
6.0
100
AcDbArc
 50
90.0
 51
113.5564643091154
  0
ARC
  5
B07F
330
18
100
AcDbEntity
  8
01
100
AcDbCircle
 10
5063.577340645381
 20
-191.6112980672336
 30
0.0000000001127424
 40
1.5
100
AcDbArc
 50
41.81031489494707
 51
87.43659366465201
  0
ARC
  5
B080
330
18
100
AcDbEntity
  8
01
100
AcDbCircle
 10
5063.689153036537
 20
-189.1137997210511
 30
0.0000000001127424
 40
1.0
100
AcDbArc
 50
180.0
 51
267.4365936646694
  0
ARC
  5
B081
330
18
100
AcDbEntity
  8
01
100
AcDbCircle
 10
5069.40683282907
 20
-191.6112980672336
 30
0.0000000001127424
 40
1.5
100
AcDbArc
 50
41.81031489494707
 51
90.0
  0
ARC
  5
B082
330
18
100
AcDbEntity
  8
01
100
AcDbCircle
 10
5069.281087288753
 20
-191.611298067235
 30
0.0000000001127424
 40
1.5
100
AcDbArc
 50
90.0
 51
138.1896851050793
  0
ARC
  5
B083
330
18
100
AcDbEntity
  8
01
100
AcDbCircle
 10
5109.840257279028
 20
-191.611298067235
 30
0.0000000001127424
 40
1.5
100
AcDbArc
 50
90.0
 51
138.1896851050793
  0
ARC
  5
B084
330
18
100
AcDbEntity
  8
01
100
AcDbCircle
 10
5132.665458594236
 20
-191.6112980672341
 30
0.0000000001127424
 40
1.5
100
AcDbArc
 50
90.0
 51
138.1896851050793
  0
ARC
  5
B085
330
18
100
AcDbEntity
  8
01
100
AcDbCircle
 10
5148.549881029086
 20
-191.6112980672341
 30
0.0000000001127424
 40
1.5
100
AcDbArc
 50
90.0
 51
138.1896851050793
  0
ARC
  5
B086
330
18
100
AcDbEntity
  8
01
100
AcDbCircle
 10
5170.72446601678
 20
-191.611298067235
 30
0.0000000001127424
 40
1.5
100
AcDbArc
 50
90.0
 51
138.1896851050793
  0
ARC
  5
B087
330
18
100
AcDbEntity
  8
01
100
AcDbCircle
 10
5192.032036522705
 20
-193.1112980672491
 30
0.0000000001127424
 40
3.0
100
AcDbArc
 50
56.44269023805719
 51
90.0
  0
ARC
  5
B088
330
18
100
AcDbEntity
  8
01
100
AcDbCircle
 10
5172.028276893674
 20
-193.1112980672505
 30
0.0000000001127424
 40
3.0
100
AcDbArc
 50
56.44269023805719
 51
90.0
  0
ARC
  5
B089
330
18
100
AcDbEntity
  8
01
100
AcDbCircle
 10
5143.598446626493
 20
-193.1112980672491
 30
0.0000000001127424
 40
3.0
100
AcDbArc
 50
56.44269023805719
 51
90.0
  0
ARC
  5
B08A
330
18
100
AcDbEntity
  8
01
100
AcDbCircle
 10
5101.063910895084
 20
-193.1112980672495
 30
0.0000000001127424
 40
3.0
100
AcDbArc
 50
56.44269023805719
 51
90.0
  0
ARC
  5
B08B
330
18
100
AcDbEntity
  8
01
100
AcDbCircle
 10
5165.519233833308
 20
-197.1112980672468
 30
0.0000000001127424
 40
7.0
100
AcDbArc
 50
68.21321070169957
 51
90.0
  0
ARC
  5
B08C
330
18
100
AcDbEntity
  8
01
100
AcDbCircle
 10
5181.5406320139
 20
-197.1112980672477
 30
0.0000000001127424
 40
7.0
100
AcDbArc
 50
68.21321070169957
 51
90.0
  0
ARC
  5
B08D
330
18
100
AcDbEntity
  8
01
100
AcDbCircle
 10
5126.603058893107
 20
-195.11129806725
 30
0.0000000001127424
 40
5.0
100
AcDbArc
 50
64.15806723679525
 51
90.0
  0
ARC
  5
B08E
330
18
100
AcDbEntity
  8
01
100
AcDbCircle
 10
5114.438794543559
 20
-193.11129806725
 30
0.0000000001127424
 40
3.0
100
AcDbArc
 50
56.44269023805719
 51
90.0
  0
ARC
  5
B08F
330
18
100
AcDbEntity
  8
01
100
AcDbCircle
 10
5133.543965604933
 20
-193.1112980672491
 30
0.0000000001127424
 40
3.0
100
AcDbArc
 50
56.44269023805719
 51
90.0
  0
ARC
  5
B090
330
18
100
AcDbEntity
  8
01
100
AcDbCircle
 10
5152.329862062425
 20
-193.11129806725
 30
0.0000000001127424
 40
3.0
100
AcDbArc
 50
56.44269023805719
 51
90.0
  0
ARC
  5
B091
330
18
100
AcDbEntity
  8
01
100
AcDbCircle
 10
5123.15320022565
 20
-197.1112980672468
 30
0.0000000001127424
 40
7.0
100
AcDbArc
 50
90.0
 51
111.7867892983004
  0
ARC
  5
B092
330
18
100
AcDbEntity
  8
01
100
AcDbCircle
 10
5198.219143486386
 20
-197.1112980672477
 30
0.0000000001127424
 40
7.0
100
AcDbArc
 50
90.0
 51
111.7867892983004
  0
ARC
  5
B093
330
18
100
AcDbEntity
  8
01
100
AcDbCircle
 10
5163.037274915376
 20
-197.1112980672477
 30
0.0000000001127424
 40
7.0
100
AcDbArc
 50
90.0
 51
111.7867892983004
  0
ARC
  5
B094
330
18
100
AcDbEntity
  8
01
100
AcDbCircle
 10
5138.376838436092
 20
-192.1112980672509
 30
0.0000000001127424
 40
2.0
100
AcDbArc
 50
90.0
 51
131.4096221092871
  0
ARC
  5
B095
330
18
100
AcDbEntity
  8
01
100
AcDbCircle
 10
5177.774381184978
 20
-192.1112980672509
 30
0.0000000001127424
 40
2.0
100
AcDbArc
 50
90.0
 51
131.4096221092871
  0
ARC
  5
B096
330
18
100
AcDbEntity
  8
01
100
AcDbCircle
 10
5191.932119631947
 20
-192.11129806725
 30
0.0000000001127424
 40
2.0
100
AcDbArc
 50
90.0
 51
131.4096221092871
  0
LINE
  5
B097
330
18
100
AcDbEntity
  8
01
100
AcDbLine
 10
5195.621067275026
 20
-190.6112980672505
 30
0.0000000001127424
 11
5193.690348917885
 21
-190.6112980672505
 31
0.0000000001127424
  0
LINE
  5
B098
330
18
100
AcDbEntity
  8
01
100
AcDbLine
 10
5190.609243976413
 20
-190.6112980672505
 30
0.0000000001127424
 11
5184.138708225262
 21
-190.6112980672514
 31
0.0000000001127424
  0
LINE
  5
B099
330
18
100
AcDbEntity
  8
01
100
AcDbLine
 10
5176.451505529445
 20
-190.6112980672505
 30
0.0000000001127424
 11
5173.686589288851
 21
-190.6112980672505
 31
0.0000000001127424
  0
LINE
  5
B09A
330
18
100
AcDbEntity
  8
01
100
AcDbLine
 10
5169.606432028017
 20
-190.6112980672509
 30
0.0000000001127424
 11
5168.117310044672
 21
-190.6112980672509
 31
0.0000000001127424
  0
LINE
  5
B09B
330
18
100
AcDbEntity
  8
01
100
AcDbLine
 10
5160.439198704015
 20
-190.6112980672509
 30
0.0000000001127424
 11
5153.988174457603
 21
-190.6112980672509
 31
0.0000000001127424
  0
LINE
  5
B09C
330
18
100
AcDbEntity
  8
01
100
AcDbLine
 10
5147.431847040321
 20
-190.6112980672509
 30
0.0000000001127424
 11
5145.256759021673
 21
-190.6112980672509
 31
0.0000000001127424
  0
LINE
  5
B09D
330
18
100
AcDbEntity
  8
01
100
AcDbLine
 10
5137.053962780559
 20
-190.6112980672509
 30
0.0000000001127424
 11
5135.202278000113
 21
-190.6112980672509
 31
0.0000000001127424
  0
LINE
  5
B09E
330
18
100
AcDbEntity
  8
01
100
AcDbLine
 10
5131.547424605471
 20
-190.6112980672514
 30
0.0000000001127424
 11
5128.78250836488
 21
-190.6112980672514
 31
0.0000000001127424
  0
LINE
  5
B09F
330
18
100
AcDbEntity
  8
01
100
AcDbLine
 10
5120.555124014285
 20
-190.6112980672514
 30
0.0000000001127424
 11
5116.09710693874
 21
-190.6112980672514
 31
0.0000000001127424
  0
LINE
  5
B0A0
330
18
100
AcDbEntity
  8
01
100
AcDbLine
 10
5108.722223290263
 20
-190.6112980672518
 30
0.0000000001127424
 11
5102.722223290264
 21
-190.6112980672514
 31
0.0000000001127424
  0
LINE
  5
B0A1
330
18
100
AcDbEntity
  8
01
100
AcDbLine
 10
5094.151571338394
 20
-190.6112980672514
 30
0.0000000001127424
 11
5089.989311762413
 21
-190.6112980672514
 31
0.0000000001127424
  0
LINE
  5
B0A2
330
18
100
AcDbEntity
  8
01
100
AcDbLine
 10
5075.378799406716
 20
-190.6112980672514
 30
0.0000000001127424
 11
5070.524866817836
 21
-190.6112980672514
 31
0.0000000001127424
  0
LINE
  5
B0A3
330
18
100
AcDbEntity
  8
01
100
AcDbLine
 10
5068.163053299988
 20
-190.6112980672514
 30
0.0000000001127424
 11
5064.695374634146
 21
-190.6112980672509
 31
0.0000000001127424
  0
LINE
  5
B0A4
330
18
100
AcDbEntity
  8
01
100
AcDbLine
 10
5069.281087288753
 20
-190.11129806725
 30
0.0000000001127424
 11
5069.40683282907
 21
-190.11129806725
 31
0.0000000001127424
  0
LINE
  5
B0A5
330
18
100
AcDbEntity
  8
01
100
AcDbLine
 10
5077.558248878488
 20
-190.11129806725
 30
0.0000000001127424
 11
5088.330999367234
 21
-190.11129806725
 31
0.0000000001127424
  0
LINE
  5
B0A6
330
18
100
AcDbEntity
  8
01
100
AcDbLine
 10
5096.549487100054
 20
-190.11129806725
 30
0.0000000001127424
 11
5101.063910895084
 21
-190.11129806725
 31
0.0000000001127424
  0
LINE
  5
B0A7
330
18
100
AcDbEntity
  8
01
100
AcDbLine
 10
5109.840257279028
 20
-190.11129806725
 30
0.0000000001127424
 11
5114.438794543559
 21
-190.11129806725
 31
0.0000000001127424
  0
LINE
  5
B0A8
330
18
100
AcDbEntity
  8
01
100
AcDbLine
 10
5123.15320022565
 20
-190.11129806725
 30
0.0000000001127424
 11
5126.603058893107
 21
-190.1112980672495
 31
0.0000000001127424
  0
LINE
  5
B0A9
330
18
100
AcDbEntity
  8
01
100
AcDbLine
 10
5132.665458594236
 20
-190.11129806725
 30
0.0000000001127424
 11
5133.543965604933
 21
-190.11129806725
 31
0.0000000001127424
  0
LINE
  5
B0AA
330
18
100
AcDbEntity
  8
01
100
AcDbLine
 10
5138.376838436092
 20
-190.11129806725
 30
0.0000000001127424
 11
5143.598446626493
 21
-190.11129806725
 31
0.0000000001127424
  0
LINE
  5
B0AB
330
18
100
AcDbEntity
  8
01
100
AcDbLine
 10
5148.549881029086
 20
-190.11129806725
 30
0.0000000001127424
 11
5152.329862062425
 21
-190.11129806725
 31
0.0000000001127424
  0
LINE
  5
B0AC
330
18
100
AcDbEntity
  8
01
100
AcDbLine
 10
5163.037274915376
 20
-190.11129806725
 30
0.0000000001127424
 11
5165.519233833308
 21
-190.11129806725
 31
0.0000000001127424
  0
LINE
  5
B0AD
330
18
100
AcDbEntity
  8
01
100
AcDbLine
 10
5170.72446601678
 20
-190.11129806725
 30
0.0000000001127424
 11
5172.028276893674
 21
-190.11129806725
 31
0.0000000001127424
  0
LINE
  5
B0AE
330
18
100
AcDbEntity
  8
01
100
AcDbLine
 10
5177.774381184978
 20
-190.11129806725
 30
0.0000000001127424
 11
5181.5406320139
 21
-190.11129806725
 31
0.0000000001127424
  0
LINE
  5
B0AF
330
18
100
AcDbEntity
  8
01
100
AcDbLine
 10
5191.932119631947
 20
-190.11129806725
 30
0.0000000001127424
 11
5192.032036522705
 21
-190.11129806725
 31
0.0000000001127424
  0
LINE
  5
B0B0
330
18
100
AcDbEntity
  8
01
100
AcDbLine
 10
5198.219143486386
 20
-190.11129806725
 30
0.0000000001127424
 11
5203.189153036537
 21
-190.11129806725
 31
0.0000000001127424
  0
LINE
  5
B0B1
330
18
100
AcDbEntity
  8
01
100
AcDbLine
 10
4993.789153037356
 20
-307.0099797533293
 30
0.0000000000563712
 11
4989.289153037356
 21
-307.0099797533293
 31
0.0000000000563712
  0
ARC
  5
B0B2
330
18
100
AcDbEntity
  8
01
100
AcDbCircle
 10
4989.289153037356
 20
-306.5099797533293
 30
0.0000000000563712
 40
0.5
100
AcDbArc
 50
180.0
 51
270.0
  0
ARC
  5
B0B3
330
18
100
AcDbEntity
  8
01
100
AcDbCircle
 10
4993.289153037356
 20
-306.0099797533293
 30
0.0000000000563712
 40
1.0
100
AcDbArc
 50
270.0
 51
0.0
  0
LINE
  5
B0B4
330
18
100
AcDbEntity
  8
01
100
AcDbLine
 10
4994.789153037356
 20
-306.0099797533293
 30
0.0000000000563712
 11
4994.789153037356
 21
-284.0099797533293
 31
0.0000000000563712
  0
ARC
  5
B0B5
330
18
100
AcDbEntity
  8
01
100
AcDbCircle
 10
4993.789153037356
 20
-306.0099797533293
 30
0.0000000000563712
 40
1.0
100
AcDbArc
 50
270.0
 51
0.0
  0
ARC
  5
B0B6
330
18
100
AcDbEntity
  8
01
100
AcDbCircle
 10
4993.789153037356
 20
-284.0099797533293
 30
0.0000000000563712
 40
1.0
100
AcDbArc
 50
0.0
 51
90.0
  0
LINE
  5
B0B7
330
18
100
AcDbEntity
  8
01
100
AcDbLine
 10
4994.289153037356
 20
-306.0099797533293
 30
0.0000000000563712
 11
4994.289153037356
 21
-284.0099797533293
 31
0.0000000000563712
  0
ARC
  5
B0B8
330
18
100
AcDbEntity
  8
01
100
AcDbCircle
 10
4993.289153037356
 20
-284.0099797533293
 30
0.0000000000563712
 40
1.0
100
AcDbArc
 50
0.0
 51
90.0
  0
LINE
  5
B0B9
330
18
100
AcDbEntity
  8
01
100
AcDbLine
 10
4993.789153037356
 20
-283.0099797533293
 30
0.0000000000563712
 11
4989.289153037356
 21
-283.0099797533293
 31
0.0000000000563712
  0
LINE
  5
B0BA
330
18
100
AcDbEntity
  8
01
100
AcDbLine
 10
4988.789153037356
 20
-306.5099797533293
 30
0.0000000000563712
 11
4988.789153037356
 21
-283.5099797533293
 31
0.0000000000563712
  0
ARC
  5
B0BB
330
18
100
AcDbEntity
  8
01
100
AcDbCircle
 10
4989.289153037356
 20
-283.5099797533293
 30
0.0000000000563712
 40
0.5
100
AcDbArc
 50
90.0
 51
180.0
  0
LINE
  5
B0BC
330
18
100
AcDbEntity
  8
01
100
AcDbLine
 10
4988.789153037356
 20
-306.0099797533288
 30
0.0000000000563712
 11
4988.289153037356
 21
-306.0099797533288
 31
0.0000000000563712
  0
LINE
  5
B0BD
330
18
100
AcDbEntity
  8
01
100
AcDbLine
 10
4988.289153037356
 20
-306.0099797533288
 30
0.0000000000563712
 11
4988.289153037356
 21
-284.0099797533297
 31
0.0000000000563712
  0
LINE
  5
B0BE
330
18
100
AcDbEntity
  8
01
100
AcDbLine
 10
4988.789153037356
 20
-284.0099797533297
 30
0.0000000000563712
 11
4988.289153037356
 21
-284.0099797533297
 31
0.0000000000563712
  0
LINE
  5
B0BF
330
18
100
AcDbEntity
  8
01
100
AcDbLine
 10
5062.689153036537
 20
-174.5112980672501
 30
0.0000000001127424
 11
5062.689153036537
 21
-183.61129806725
 31
0.0000000001127424
  0
LINE
  5
B0C0
330
18
100
AcDbEntity
  8
01
100
AcDbLine
 10
5204.189153036537
 20
-174.5112980672487
 30
0.0000000001127424
 11
5204.189153036537
 21
-183.6112980672486
 31
0.0000000001127424
  0
ARC
  5
B0C1
330
18
100
AcDbEntity
  8
01
100
AcDbCircle
 10
5203.689153036537
 20
-183.6112980672486
 30
0.0000000001127424
 40
0.5
100
AcDbArc
 50
270.0
 51
0.0
  0
ARC
  5
B0C2
330
18
100
AcDbEntity
  8
01
100
AcDbCircle
 10
5203.189153036537
 20
-174.5112980672487
 30
0.0000000001127424
 40
1.0
100
AcDbArc
 50
0.0
 51
90.0
  0
ARC
  5
B0C3
330
18
100
AcDbEntity
  8
01
100
AcDbCircle
 10
5063.189153036537
 20
-183.61129806725
 30
0.0000000001127424
 40
0.5
100
AcDbArc
 50
180.0
 51
270.0
  0
ARC
  5
B0C4
330
18
100
AcDbEntity
  8
01
100
AcDbCircle
 10
5063.689153036537
 20
-174.5112980672501
 30
0.0000000001127424
 40
1.0
100
AcDbArc
 50
90.0
 51
180.0
  0
LINE
  5
B0C5
330
18
100
AcDbEntity
  8
01
100
AcDbLine
 10
4948.189153036537
 20
-284.5099797533293
 30
0.0000000000563712
 11
4948.189153036537
 21
-305.5099797533293
 31
0.0000000000563712
  0
LINE
  5
B0C6
330
18
100
AcDbEntity
  8
01
100
AcDbLine
 10
4948.189153036537
 20
-284.5099797533293
 30
0.0000000000563712
 11
4976.752661364251
 21
-284.5099797533293
 31
0.0000000000563712
  0
LINE
  5
B0C7
330
18
100
AcDbEntity
  8
01
100
AcDbLine
 10
4948.189153036537
 20
-305.5099797533293
 30
0.0000000000563712
 11
4976.75266136425
 21
-305.5099797533293
 31
0.0000000000563712
  0
LINE
  5
B0C8
330
18
100
AcDbEntity
  8
01
100
AcDbLine
 10
4978.689153037354
 20
-307.0099797533288
 30
0.0000000000563712
 11
4987.789153037354
 21
-307.0099797533284
 31
0.0000000000563712
  0
LINE
  5
B0C9
330
18
100
AcDbEntity
  8
01
100
AcDbLine
 10
4978.689153037355
 20
-283.0099797533288
 30
0.0000000000563712
 11
4987.789153037354
 21
-283.0099797533288
 31
0.0000000000563712
  0
ARC
  5
B0CA
330
18
100
AcDbEntity
  8
01
100
AcDbCircle
 10
4978.689153037355
 20
-284.0099797533288
 30
0.0000000000563712
 40
1.0
100
AcDbArc
 50
90.0
 51
165.522487814042
  0
ARC
  5
B0CB
330
18
100
AcDbEntity
  8
01
100
AcDbCircle
 10
4976.752661364251
 20
-283.5099797533288
 30
0.0000000000563712
 40
1.0
100
AcDbArc
 50
270.0
 51
345.5224878140419
  0
ARC
  5
B0CC
330
18
100
AcDbEntity
  8
01
100
AcDbCircle
 10
4987.789153037354
 20
-283.5099797533288
 30
0.0000000000563712
 40
0.5
100
AcDbArc
 50
0.0
 51
90.0
  0
LINE
  5
B0CD
330
18
100
AcDbEntity
  8
01
100
AcDbLine
 10
4988.289153037354
 20
-306.5099797533284
 30
0.0000000000563712
 11
4988.289153037354
 21
-283.5099797533288
 31
0.0000000000563712
  0
ARC
  5
B0CE
330
18
100
AcDbEntity
  8
01
100
AcDbCircle
 10
4987.789153037354
 20
-306.5099797533284
 30
0.0000000000563712
 40
0.5
100
AcDbArc
 50
270.0
 51
0.0
  0
LINE
  5
B0CF
330
18
100
AcDbEntity
  8
01
100
AcDbLine
 10
4977.689153037355
 20
-284.0099797533293
 30
0.0000000000563712
 11
4977.689153037354
 21
-284.0099797533288
 31
0.0000000000563712
  0
LINE
  5
B0D0
330
18
100
AcDbEntity
  8
01
100
AcDbLine
 10
4977.689153037354
 20
-306.0099797533288
 30
0.0000000000563712
 11
4977.689153037355
 21
-284.0099797533288
 31
0.0000000000563712
  0
ARC
  5
B0D1
330
18
100
AcDbEntity
  8
01
100
AcDbCircle
 10
4978.689153037354
 20
-306.0099797533288
 30
0.0000000000563712
 40
1.0
100
AcDbArc
 50
194.477512185958
 51
270.0
  0
ARC
  5
B0D2
330
18
100
AcDbEntity
  8
01
100
AcDbCircle
 10
4976.75266136425
 20
-306.5099797533293
 30
0.0000000000563712
 40
1.0
100
AcDbArc
 50
14.47751218595804
 51
90.0
  0
LINE
  5
B0D3
330
18
100
AcDbEntity
  8
01
100
AcDbLine
 10
5078.689153036537
 20
-144.0112980672496
 30
0.0000000001127424
 11
5078.689153036537
 21
-172.5112980672501
 31
0.0000000001127424
  0
ARC
  5
B0D4
330
18
100
AcDbEntity
  8
01
100
AcDbCircle
 10
5100.689153036537
 20
-172.5112980672501
 30
0.0000000001127424
 40
1.0
100
AcDbArc
 50
180.0
 51
270.0
  0
ARC
  5
B0D5
330
18
100
AcDbEntity
  8
01
100
AcDbCircle
 10
5077.689153036537
 20
-172.5112980672501
 30
0.0000000001127424
 40
1.0
100
AcDbArc
 50
270.0
 51
0.0
  0
LINE
  5
B0D6
330
18
100
AcDbEntity
  8
01
100
AcDbLine
 10
5078.689153036537
 20
-144.011298066432
 30
0.0000000001127424
 11
5099.689153036537
 21
-144.011298066432
 31
0.0000000001127424
  0
LINE
  5
B0D7
330
18
100
AcDbEntity
  8
01
100
AcDbLine
 10
5099.689153036537
 20
-144.011298066432
 30
0.0000000001127424
 11
5099.689153036537
 21
-172.5112980672501
 31
0.0000000001127424
  0
LINE
  5
B0D8
330
18
100
AcDbEntity
  8
01
100
AcDbLine
 10
5063.689153036537
 20
-173.5112980672501
 30
0.0000000001127424
 11
5203.189153036537
 21
-173.5112980672487
 31
0.0000000001127424
  0
ARC
  5
B0D9
330
18
100
AcDbEntity
  8
01
100
AcDbCircle
 10
5203.189217987943
 20
-306.0100528560332
 30
0.0000000000563712
 40
0.9999307729205674
100
AcDbArc
 50
269.9962783050419
 51
0.0042800452849847
  0
LINE
  5
B0DA
330
18
100
AcDbEntity
  8
01
100
AcDbLine
 10
5204.189155805929
 20
-302.5034291962119
 30
0.0000000000563712
 11
5203.127846810358
 21
-302.438172465303
 31
0.0000000000563712
  0
LINE
  5
B0DB
330
18
100
AcDbEntity
  8
01
100
AcDbLine
 10
5204.189151097577
 20
-289.6844405914352
 30
0.0000000000563712
 11
5203.123252654347
 21
-289.6276701362025
 31
0.0000000000563712
  0
LINE
  5
B0DC
330
18
100
AcDbEntity
  8
01
100
AcDbLine
 10
5203.12915240837
 20
-289.7460850078409
 30
0.0000000000563712
 11
5204.189151097577
 21
-289.6844405914352
 31
0.0000000000563712
  0
ARC
  5
B0DD
330
18
100
AcDbEntity
  8
01
100
AcDbCircle
 10
5183.288449416549
 20
-306.2666068430902
 30
0.0000000000563712
 40
2.779184908525755
100
AcDbArc
 50
344.4857210751966
 51
5.152760922586943
  0
LINE
  5
B0DE
330
18
100
AcDbEntity
  8
01
100
AcDbLine
 10
5189.934615999248
 20
-299.2994831047607
 30
0.0000000000563712
 11
5189.765640363592
 21
-299.2887478287724
 31
0.0000000000563712
  0
LINE
  5
B0DF
330
18
100
AcDbEntity
  8
01
100
AcDbLine
 10
5189.908740305585
 20
-299.3930810674755
 30
0.0000000000563712
 11
5189.934615999248
 21
-299.2994831047607
 31
0.0000000000563712
  0
LINE
  5
B0E0
330
18
100
AcDbEntity
  8
01
100
AcDbLine
 10
5189.765640363592
 20
-299.2887478287724
 30
0.0000000000563712
 11
5189.908740305585
 21
-299.3930810674755
 31
0.0000000000563712
  0
LINE
  5
B0E1
330
18
100
AcDbEntity
  8
01
100
AcDbLine
 10
5190.662018710254
 20
-291.8563344963035
 30
0.0000000000563712
 11
5190.817715114065
 21
-291.8988460671584
 31
0.0000000000563712
  0
LINE
  5
B0E2
330
18
100
AcDbEntity
  8
01
100
AcDbLine
 10
5190.777074478458
 20
-291.7750437100025
 30
0.0000000000563712
 11
5190.662018710254
 21
-291.8563344963035
 31
0.0000000000563712
  0
LINE
  5
B0E3
330
18
100
AcDbEntity
  8
01
100
AcDbLine
 10
5190.817715114065
 20
-291.8988460671584
 30
0.0000000000563712
 11
5190.777074478458
 21
-291.7750437100025
 31
0.0000000000563712
  0
LINE
  5
B0E4
330
18
100
AcDbEntity
  8
01
100
AcDbLine
 10
5186.081968653643
 20
-304.8258680584871
 30
0.0000000000563712
 11
5186.04093451993
 21
-304.8931840166732
 31
0.0000000000563712
  0
LINE
  5
B0E5
330
18
100
AcDbEntity
  8
01
100
AcDbLine
 10
5186.218483600355
 20
-304.9031650360515
 30
0.0000000000563712
 11
5186.081968653643
 21
-304.8258680584871
 31
0.0000000000563712
  0
LINE
  5
B0E6
330
18
100
AcDbEntity
  8
01
100
AcDbLine
 10
5186.04093451993
 20
-304.8931840166732
 30
0.0000000000563712
 11
5186.218483600355
 21
-304.9031650360515
 31
0.0000000000563712
  0
LINE
  5
B0E7
330
18
100
AcDbEntity
  8
01
100
AcDbLine
 10
5188.761394012609
 20
-283.0099764461291
 30
0.0000000000563712
 11
5188.680269472536
 21
-284.0268414451442
 31
0.0000000000563712
  0
LINE
  5
B0E8
330
18
100
AcDbEntity
  8
01
100
AcDbLine
 10
5188.841966128362
 20
-284.0326414135478
 30
0.0000000000563712
 11
5188.761394012609
 21
-283.0099764461291
 31
0.0000000000563712
  0
LINE
  5
B0E9
330
18
100
AcDbEntity
  8
01
100
AcDbLine
 10
5188.921021914866
 20
-288.9605525707938
 30
0.0000000000563712
 11
5188.767098873623
 21
-288.9660456187934
 31
0.0000000000563712
  0
LINE
  5
B0EA
330
18
100
AcDbEntity
  8
01
100
AcDbLine
 10
5188.786320121753
 20
-289.0415128958692
 30
0.0000000000563712
 11
5188.921021914866
 21
-288.9605525707938
 31
0.0000000000563712
  0
LINE
  5
B0EB
330
18
100
AcDbEntity
  8
01
100
AcDbLine
 10
5188.767098873623
 20
-288.9660456187934
 30
0.0000000000563712
 11
5188.786320121753
 21
-289.0415128958692
 31
0.0000000000563712
  0
LINE
  5
B0EC
330
18
100
AcDbEntity
  8
01
100
AcDbLine
 10
5173.862194973652
 20
-283.0099766446828
 30
0.0000000000563712
 11
5173.786396958258
 21
-284.0413652734236
 31
0.0000000000563712
  0
LINE
  5
B0ED
330
18
100
AcDbEntity
  8
01
100
AcDbLine
 10
5173.943738271257
 20
-284.0031617546887
 30
0.0000000000563712
 11
5173.862194973652
 21
-283.0099766446828
 31
0.0000000000563712
  0
LINE
  5
B0EE
330
18
100
AcDbEntity
  8
01
100
AcDbLine
 10
5174.920554342587
 20
-289.7161425017538
 30
0.0000000000563712
 11
5174.764256172139
 21
-289.7413524523153
 31
0.0000000000563712
  0
LINE
  5
B0EF
330
18
100
AcDbEntity
  8
01
100
AcDbLine
 10
5174.910783624097
 20
-289.8326438953462
 30
0.0000000000563712
 11
5174.920554342587
 21
-289.7161425017538
 31
0.0000000000563712
  0
LINE
  5
B0F0
330
18
100
AcDbEntity
  8
01
100
AcDbLine
 10
5174.764256172139
 20
-289.7413524523153
 30
0.0000000000563712
 11
5174.910783624097
 21
-289.8326438953462
 31
0.0000000000563712
  0
LINE
  5
B0F1
330
18
100
AcDbEntity
  8
01
100
AcDbLine
 10
5171.839670343374
 20
-294.2423645040916
 30
0.0000000000563712
 11
5171.998780709665
 21
-294.2092901556788
 31
0.0000000000563712
  0
LINE
  5
B0F2
330
18
100
AcDbEntity
  8
01
100
AcDbLine
 10
5171.860963116629
 20
-294.1149759895533
 30
0.0000000000563712
 11
5171.839670343374
 21
-294.2423645040916
 31
0.0000000000563712
  0
LINE
  5
B0F3
330
18
100
AcDbEntity
  8
01
100
AcDbLine
 10
5171.998780709665
 20
-294.2092901556788
 30
0.0000000000563712
 11
5171.860963116629
 21
-294.1149759895533
 31
0.0000000000563712
  0
LINE
  5
B0F4
330
18
100
AcDbEntity
  8
01
100
AcDbLine
 10
5160.55575507053
 20
-283.0099781587709
 30
0.0000000000563712
 11
5160.479561629658
 21
-284.0478585636837
 31
0.0000000000563712
  0
LINE
  5
B0F5
330
18
100
AcDbEntity
  8
01
100
AcDbLine
 10
5160.639751963001
 20
-284.0403966756174
 30
0.0000000000563712
 11
5160.55575507053
 21
-283.0099781587709
 31
0.0000000000563712
  0
LINE
  5
B0F6
330
18
100
AcDbEntity
  8
01
100
AcDbLine
 10
5161.382565507844
 20
-290.6367510466442
 30
0.0000000000563712
 11
5161.231713848079
 21
-290.6509281129055
 31
0.0000000000563712
  0
LINE
  5
B0F7
330
18
100
AcDbEntity
  8
01
100
AcDbLine
 10
5161.314634173953
 20
-290.7498664430144
 30
0.0000000000563712
 11
5161.382565507844
 21
-290.6367510466442
 31
0.0000000000563712
  0
LINE
  5
B0F8
330
18
100
AcDbEntity
  8
01
100
AcDbLine
 10
5161.231713848079
 20
-290.6509281129055
 30
0.0000000000563712
 11
5161.314634173953
 21
-290.7498664430144
 31
0.0000000000563712
  0
LINE
  5
B0F9
330
18
100
AcDbEntity
  8
01
100
AcDbLine
 10
5154.740992706709
 20
-295.3783739973968
 30
0.0000000000563712
 11
5154.661477448784
 21
-295.4553279355149
 31
0.0000000000563712
  0
LINE
  5
B0FA
330
18
100
AcDbEntity
  8
01
100
AcDbLine
 10
5154.811601579115
 20
-295.4763626845009
 30
0.0000000000563712
 11
5154.740992706709
 21
-295.3783739973968
 31
0.0000000000563712
  0
LINE
  5
B0FB
330
18
100
AcDbEntity
  8
01
100
AcDbLine
 10
5154.661477448784
 20
-295.4553279355149
 30
0.0000000000563712
 11
5154.811601579115
 21
-295.4763626845014
 31
0.0000000000563712
  0
LINE
  5
B0FC
330
18
100
AcDbEntity
  8
01
100
AcDbLine
 10
5142.183736165241
 20
-300.3131428047021
 30
0.0000000000563712
 11
5142.28914417661
 21
-300.4390585985387
 31
0.0000000000563712
  0
LINE
  5
B0FD
330
18
100
AcDbEntity
  8
01
100
AcDbLine
 10
5142.341086884035
 20
-300.2278589663941
 30
0.0000000000563712
 11
5142.183736165241
 21
-300.3131428047021
 31
0.0000000000563712
  0
LINE
  5
B0FE
330
18
100
AcDbEntity
  8
01
100
AcDbLine
 10
5142.28914417661
 20
-300.4390585985387
 30
0.0000000000563712
 11
5142.341086884035
 21
-300.2278589663941
 31
0.0000000000563712
  0
LINE
  5
B0FF
330
18
100
AcDbEntity
  8
01
100
AcDbLine
 10
5146.424602396426
 20
-283.0099770370942
 30
0.0000000000563712
 11
5146.3625067565
 21
-283.98864492465
 31
0.0000000000563712
  0
LINE
  5
B100
330
18
100
AcDbEntity
  8
01
100
AcDbLine
 10
5146.503568897519
 20
-284.0324592325095
 30
0.0000000000563712
 11
5146.424602396426
 21
-283.0099770370942
 31
0.0000000000563712
  0
LINE
  5
B101
330
18
100
AcDbEntity
  8
01
100
AcDbLine
 10
5145.871469672564
 20
-285.7943882009653
 30
0.0000000000563712
 11
5145.924043149484
 21
-285.9123333540387
 31
0.0000000000563712
  0
LINE
  5
B102
330
18
100
AcDbEntity
  8
01
100
AcDbLine
 10
5146.014026318818
 20
-285.8286441765966
 30
0.0000000000563712
 11
5145.871469672564
 21
-285.7943882009653
 31
0.0000000000563712
  0
LINE
  5
B103
330
18
100
AcDbEntity
  8
01
100
AcDbLine
 10
5145.924043149484
 20
-285.9123333540387
 30
0.0000000000563712
 11
5146.014026318818
 21
-285.8286441765966
 31
0.0000000000563712
  0
LINE
  5
B104
330
18
100
AcDbEntity
  8
01
100
AcDbLine
 10
5137.936357853705
 20
-292.3967282409257
 30
0.0000000000563712
 11
5137.881382775102
 21
-292.59717981644
 31
0.0000000000563712
  0
LINE
  5
B105
330
18
100
AcDbEntity
  8
01
100
AcDbLine
 10
5138.036833854378
 20
-292.4881598430756
 30
0.0000000000563712
 11
5137.936357853705
 21
-292.3967282409257
 31
0.0000000000563712
  0
LINE
  5
B106
330
18
100
AcDbEntity
  8
01
100
AcDbLine
 10
5137.881382775102
 20
-292.59717981644
 30
0.0000000000563712
 11
5138.036833854378
 21
-292.4881598430756
 31
0.0000000000563712
  0
LINE
  5
B107
330
18
100
AcDbEntity
  8
01
100
AcDbLine
 10
5133.643326557785
 20
-307.0099775967168
 30
0.0000000000563712
 11
5133.738353462681
 21
-306.039020335871
 31
0.0000000000563712
  0
LINE
  5
B108
330
18
100
AcDbEntity
  8
01
100
AcDbLine
 10
5133.585373877543
 20
-306.0422477260139
 30
0.0000000000563712
 11
5133.643326557785
 21
-307.0099775967168
 31
0.0000000000563712
  0
LINE
  5
B109
330
18
100
AcDbEntity
  8
01
100
AcDbLine
 10
5133.739724050869
 20
-303.7862359494401
 30
0.0000000000563712
 11
5133.875435723248
 21
-303.8054486732439
 31
0.0000000000563712
  0
LINE
  5
B10A
330
18
100
AcDbEntity
  8
01
100
AcDbLine
 10
5133.869417700682
 20
-303.6267013764085
 30
0.0000000000563712
 11
5133.739724050869
 21
-303.7862359494405
 31
0.0000000000563712
  0
LINE
  5
B10B
330
18
100
AcDbEntity
  8
01
100
AcDbLine
 10
5133.875435723248
 20
-303.8054486732439
 30
0.0000000000563712
 11
5133.869417700682
 21
-303.6267013764085
 31
0.0000000000563712
  0
LINE
  5
B10C
330
18
100
AcDbEntity
  8
01
100
AcDbLine
 10
5132.048462728815
 20
-302.2375756563137
 30
0.0000000000563712
 11
5132.090196753756
 21
-302.3786371758237
 31
0.0000000000563712
  0
LINE
  5
B10D
330
18
100
AcDbEntity
  8
01
100
AcDbLine
 10
5132.239578117224
 20
-302.2144921317371
 30
0.0000000000563712
 11
5132.048462728815
 21
-302.2375756563137
 31
0.0000000000563712
  0
LINE
  5
B10E
330
18
100
AcDbEntity
  8
01
100
AcDbLine
 10
5132.090196753756
 20
-302.3786371758237
 30
0.0000000000563712
 11
5132.239578117224
 21
-302.2144921317371
 31
0.0000000000563712
  0
LINE
  5
B10F
330
18
100
AcDbEntity
  8
01
100
AcDbLine
 10
5127.392015053541
 20
-283.0099773736291
 30
0.0000000000563712
 11
5127.371879615452
 21
-284.0872652538968
 31
0.0000000000563712
  0
LINE
  5
B110
330
18
100
AcDbEntity
  8
01
100
AcDbLine
 10
5127.45138657706
 20
-284.0212564995226
 30
0.0000000000563712
 11
5127.392015057947
 21
-283.0099773736086
 31
0.0000000000563712
  0
LINE
  5
B111
330
18
100
AcDbEntity
  8
01
100
AcDbLine
 10
5133.393811765884
 20
-291.547381468606
 30
0.0000000000563712
 11
5133.300400050231
 21
-291.5935578770494
 31
0.0000000000563712
  0
LINE
  5
B112
330
18
100
AcDbEntity
  8
01
100
AcDbLine
 10
5133.379904213191
 20
-291.7222749115789
 30
0.0000000000563712
 11
5133.393811765884
 21
-291.547381468606
 31
0.0000000000563712
  0
LINE
  5
B113
330
18
100
AcDbEntity
  8
01
100
AcDbLine
 10
5133.300400050231
 20
-291.5935578770494
 30
0.0000000000563712
 11
5133.379904213191
 21
-291.7222749115789
 31
0.0000000000563712
  0
LINE
  5
B114
330
18
100
AcDbEntity
  8
01
100
AcDbLine
 10
5130.599958344234
 20
-295.2670952402299
 30
0.0000000000563712
 11
5130.437866233387
 21
-295.2012650311266
 31
0.0000000000563712
  0
LINE
  5
B115
330
18
100
AcDbEntity
  8
01
100
AcDbLine
 10
5130.45273016638
 20
-295.3586151885
 30
0.0000000000563712
 11
5130.599958344234
 21
-295.2670952402299
 31
0.0000000000563712
  0
LINE
  5
B116
330
18
100
AcDbEntity
  8
01
100
AcDbLine
 10
5130.437866233387
 20
-295.2012650311266
 30
0.0000000000563712
 11
5130.45273016638
 21
-295.3586151885
 31
0.0000000000563712
  0
LINE
  5
B117
330
18
100
AcDbEntity
  8
01
100
AcDbLine
 10
5124.224774011268
 20
-284.0875604395468
 30
0.0000000000563712
 11
5124.206522375138
 21
-283.009983456583
 31
0.0000000000563712
  0
LINE
  5
B118
330
18
100
AcDbEntity
  8
01
100
AcDbLine
 10
5119.573901687028
 20
-296.7557720063727
 30
0.0000000000563712
 11
5119.738161618727
 21
-296.8157561041597
 31
0.0000000000563712
  0
LINE
  5
B119
330
18
100
AcDbEntity
  8
01
100
AcDbLine
 10
5119.704217695566
 20
-296.6689586524748
 30
0.0000000000563712
 11
5119.573901687028
 21
-296.7557720063727
 31
0.0000000000563712
  0
LINE
  5
B11A
330
18
100
AcDbEntity
  8
01
100
AcDbLine
 10
5119.738161618728
 20
-296.8157561041597
 30
0.0000000000563712
 11
5119.704217695566
 21
-296.6689586524748
 31
0.0000000000563712
  0
LINE
  5
B11B
330
18
100
AcDbEntity
  8
01
100
AcDbLine
 10
5118.747312865045
 20
-302.3809634949715
 30
0.0000000000563712
 11
5118.878369756567
 21
-302.492892509846
 31
0.0000000000563712
  0
LINE
  5
B11C
330
18
100
AcDbEntity
  8
01
100
AcDbLine
 10
5118.917989534777
 20
-302.356187995549
 30
0.0000000000563712
 11
5118.747312865045
 21
-302.3809634949715
 31
0.0000000000563712
  0
LINE
  5
B11D
330
18
100
AcDbEntity
  8
01
100
AcDbLine
 10
5118.878369756567
 20
-302.492892509846
 30
0.0000000000563712
 11
5118.917989534777
 21
-302.356187995549
 31
0.0000000000563712
  0
LINE
  5
B11E
330
18
100
AcDbEntity
  8
01
100
AcDbLine
 10
5115.197507651836
 20
-307.009975351038
 30
0.0000000000563712
 11
5115.25220147793
 21
-306.0551659127494
 31
0.0000000000563712
  0
LINE
  5
B11F
330
18
100
AcDbEntity
  8
01
100
AcDbLine
 10
5115.15172144043
 20
-305.9370320208144
 30
0.0000000000563712
 11
5115.197507651836
 21
-307.009975351038
 31
0.0000000000563712
  0
LINE
  5
B120
330
18
100
AcDbEntity
  8
01
100
AcDbLine
 10
5117.739366879847
 20
-293.7222269552334
 30
0.0000000000563712
 11
5117.671755448653
 21
-293.8638064594201
 31
0.0000000000563712
  0
LINE
  5
B121
330
18
100
AcDbEntity
  8
01
100
AcDbLine
 10
5117.817924403054
 20
-293.7737089917567
 30
0.0000000000563712
 11
5117.739366879847
 21
-293.7222269552334
 31
0.0000000000563712
  0
LINE
  5
B122
330
18
100
AcDbEntity
  8
01
100
AcDbLine
 10
5117.671755448653
 20
-293.8638064594201
 30
0.0000000000563712
 11
5117.817924403053
 21
-293.7737089917567
 31
0.0000000000563712
  0
LINE
  5
B123
330
18
100
AcDbEntity
  8
01
100
AcDbLine
 10
5107.959261830762
 20
-305.9732612775332
 30
0.0000000000563712
 11
5108.045223592714
 21
-307.0099761190858
 31
0.0000000000563712
  0
LINE
  5
B124
330
18
100
AcDbEntity
  8
01
100
AcDbLine
 10
5108.045223592714
 20
-307.0099761190858
 30
0.0000000000563712
 11
5108.084515698725
 21
-305.9451503146655
 31
0.0000000000563712
  0
ARC
  5
B125
330
18
100
AcDbEntity
  8
01
100
AcDbCircle
 10
5110.902608892457
 20
-283.7848974123602
 30
0.0000000000563712
 40
2.056420592170518
100
AcDbArc
 50
157.8625129307172
 51
187.1750618553429
  0
LINE
  5
B126
330
18
100
AcDbEntity
  8
01
100
AcDbLine
 10
5109.076646747945
 20
-284.040129035612
 30
0.0000000000563712
 11
5108.997782939179
 21
-283.0099756488106
 31
0.0000000000563712
  0
LINE
  5
B127
330
18
100
AcDbEntity
  8
01
100
AcDbLine
 10
5108.770187201979
 20
-290.5160431684734
 30
0.0000000000563712
 11
5108.916994032365
 21
-290.6364352139007
 31
0.0000000000563712
  0
LINE
  5
B128
330
18
100
AcDbEntity
  8
01
100
AcDbLine
 10
5108.963163178634
 20
-290.5132181690022
 30
0.0000000000563712
 11
5108.770187201979
 21
-290.5160431684734
 31
0.0000000000563712
  0
LINE
  5
B129
330
18
100
AcDbEntity
  8
01
100
AcDbLine
 10
5108.916994032365
 20
-290.6364352139007
 30
0.0000000000563712
 11
5108.963163178634
 21
-290.5132181690022
 31
0.0000000000563712
  0
LINE
  5
B12A
330
18
100
AcDbEntity
  8
01
100
AcDbLine
 10
5104.67044200178
 20
-301.2502453993519
 30
0.0000000000563712
 11
5104.528499929503
 21
-301.2107281603033
 31
0.0000000000563712
  0
LINE
  5
B12B
330
18
100
AcDbEntity
  8
01
100
AcDbLine
 10
5104.563512867722
 20
-301.3798605827195
 30
0.0000000000563712
 11
5104.67044200178
 21
-301.2502453993519
 31
0.0000000000563712
  0
LINE
  5
B12C
330
18
100
AcDbEntity
  8
01
100
AcDbLine
 10
5104.528499929503
 20
-301.2107281603033
 30
0.0000000000563712
 11
5104.563512867722
 21
-301.3798605827195
 31
0.0000000000563712
  0
LINE
  5
B12D
330
18
100
AcDbEntity
  8
01
100
AcDbLine
 10
5107.246065836935
 20
-292.1869988859647
 30
0.0000000000563712
 11
5107.250164788307
 21
-292.2889597377629
 31
0.0000000000563712
  0
LINE
  5
B12E
330
18
100
AcDbEntity
  8
01
100
AcDbLine
 10
5107.382616592198
 20
-292.3251138239128
 30
0.0000000000563712
 11
5107.246065836935
 21
-292.1869988859647
 31
0.0000000000563712
  0
LINE
  5
B12F
330
18
100
AcDbEntity
  8
01
100
AcDbLine
 10
5107.250164788307
 20
-292.2889597377629
 30
0.0000000000563712
 11
5107.382616592198
 21
-292.3251138239128
 31
0.0000000000563712
  0
LINE
  5
B130
330
18
100
AcDbEntity
  8
01
100
AcDbLine
 10
5096.266578663606
 20
-307.0099749169398
 30
0.0000000000563712
 11
5096.344266317253
 21
-306.0406100007161
 31
0.0000000000563712
  0
LINE
  5
B131
330
18
100
AcDbEntity
  8
01
100
AcDbLine
 10
5096.198594425021
 20
-306.0043032161087
 30
0.0000000000563712
 11
5096.266578663606
 21
-307.0099749169398
 31
0.0000000000563712
  0
LINE
  5
B132
330
18
100
AcDbEntity
  8
01
100
AcDbLine
 10
5097.339510524644
 20
-302.9193148185199
 30
0.0000000000563712
 11
5097.221423518047
 21
-303.0151258255418
 31
0.0000000000563712
  0
LINE
  5
B133
330
18
100
AcDbEntity
  8
01
100
AcDbLine
 10
5097.376070998048
 20
-303.0814515602164
 30
0.0000000000563712
 11
5097.339510524644
 21
-302.9193148185199
 31
0.0000000000563712
  0
LINE
  5
B134
330
18
100
AcDbEntity
  8
01
100
AcDbLine
 10
5097.221423518047
 20
-303.0151258255418
 30
0.0000000000563712
 11
5097.376070998048
 21
-303.0814515602164
 31
0.0000000000563712
  0
LINE
  5
B135
330
18
100
AcDbEntity
  8
01
100
AcDbLine
 10
5100.547903322637
 20
-289.1213023339354
 30
0.0000000000563712
 11
5100.395147409607
 21
-289.1187088055239
 31
0.0000000000563712
  0
LINE
  5
B136
330
18
100
AcDbEntity
  8
01
100
AcDbLine
 10
5100.442680315868
 20
-289.2309651192048
 30
0.0000000000563712
 11
5100.547903322637
 21
-289.1213023339354
 31
0.0000000000563712
  0
LINE
  5
B137
330
18
100
AcDbEntity
  8
01
100
AcDbLine
 10
5100.395147409607
 20
-289.1187088055239
 30
0.0000000000563712
 11
5100.442680315868
 21
-289.2309651192053
 31
0.0000000000563712
  0
LINE
  5
B138
330
18
100
AcDbEntity
  8
01
100
AcDbLine
 10
5100.912361570319
 20
-283.009976056498
 30
0.0000000000563712
 11
5100.850025554048
 21
-284.0262990066161
 31
0.0000000000563712
  0
LINE
  5
B139
330
18
100
AcDbEntity
  8
01
100
AcDbLine
 10
5100.992796427328
 20
-284.0451682780212
 30
0.0000000000563712
 11
5100.912361570319
 21
-283.009976056498
 31
0.0000000000563712
  0
LINE
  5
B13A
330
18
100
AcDbEntity
  8
01
100
AcDbLine
 10
5084.313833754876
 20
-305.9538196950297
 30
0.0000000000563712
 11
5084.365198258594
 21
-307.0099761612317
 31
0.0000000000563712
  0
LINE
  5
B13B
330
18
100
AcDbEntity
  8
01
100
AcDbLine
 10
5091.687625792918
 20
-296.2346552324319
 30
0.0000000000563712
 11
5091.525166502783
 21
-296.1711498232711
 31
0.0000000000563712
  0
LINE
  5
B13C
330
18
100
AcDbEntity
  8
01
100
AcDbLine
 10
5091.567284475947
 20
-296.3339048300185
 30
0.0000000000563712
 11
5091.687625792918
 21
-296.2346552324319
 31
0.0000000000563712
  0
LINE
  5
B13D
330
18
100
AcDbEntity
  8
01
100
AcDbLine
 10
5091.525166502783
 20
-296.1711498232711
 30
0.0000000000563712
 11
5091.567284475947
 21
-296.3339048300185
 31
0.0000000000563712
  0
LINE
  5
B13E
330
18
100
AcDbEntity
  8
01
100
AcDbLine
 10
5089.634967290385
 20
-283.009977059642
 30
0.0000000000563712
 11
5089.586849365217
 21
-284.0761192530853
 31
0.0000000000563712
  0
LINE
  5
B13F
330
18
100
AcDbEntity
  8
01
100
AcDbLine
 10
5089.714209668552
 20
-284.0267754030532
 30
0.0000000000563712
 11
5089.634967290385
 21
-283.009977059642
 31
0.0000000000563712
  0
LINE
  5
B140
330
18
100
AcDbEntity
  8
01
100
AcDbLine
 10
5092.978394728536
 20
-292.5802939303661
 30
0.0000000000563712
 11
5092.854489497215
 21
-292.6276304627885
 31
0.0000000000563712
  0
LINE
  5
B141
330
18
100
AcDbEntity
  8
01
100
AcDbLine
 10
5093.016648705947
 20
-292.6875218671097
 30
0.0000000000563712
 11
5092.978394728536
 21
-292.5802939303661
 31
0.0000000000563712
  0
LINE
  5
B142
330
18
100
AcDbEntity
  8
01
100
AcDbLine
 10
5092.854489497215
 20
-292.6276304627885
 30
0.0000000000563712
 11
5093.016648705947
 21
-292.6875218671097
 31
0.0000000000563712
  0
LINE
  5
B143
330
18
100
AcDbEntity
  8
01
100
AcDbLine
 10
5086.960316023391
 20
-297.2340081544493
 30
0.0000000000563712
 11
5086.935473806987
 21
-297.0702284675093
 31
0.0000000000563712
  0
LINE
  5
B144
330
18
100
AcDbEntity
  8
01
100
AcDbLine
 10
5086.861507405453
 20
-297.1902160502954
 30
0.0000000000563712
 11
5086.960316023391
 21
-297.2340081544493
 31
0.0000000000563712
  0
LINE
  5
B145
330
18
100
AcDbEntity
  8
01
100
AcDbLine
 10
5086.935473806987
 20
-297.0702284675093
 30
0.0000000000563712
 11
5086.861507405453
 21
-297.1902160502954
 31
0.0000000000563712
  0
LINE
  5
B146
330
18
100
AcDbEntity
  8
01
100
AcDbLine
 10
5074.769864255202
 20
-305.9783072196118
 30
0.0000000000563712
 11
5074.839658079552
 21
-307.0099741818498
 31
0.0000000000563712
  0
LINE
  5
B147
330
18
100
AcDbEntity
  8
01
100
AcDbLine
 10
5074.839658079552
 20
-307.0099741818498
 30
0.0000000000563712
 11
5074.905295125699
 21
-305.9722333297217
 31
0.0000000000563712
  0
ARC
  5
B148
330
18
100
AcDbEntity
  8
01
100
AcDbCircle
 10
5063.689105658876
 20
-306.0100291998737
 30
0.0000000000563712
 40
0.9999464855930035
100
AcDbArc
 50
179.9971906484463
 51
270.0022657551132
  0
LINE
  5
B149
330
18
100
AcDbEntity
  8
01
100
AcDbLine
 10
5079.597433967763
 20
-293.672784156135
 30
0.0000000000563712
 11
5079.413321802327
 21
-293.6761699524599
 31
0.0000000000563712
  0
LINE
  5
B14A
330
18
100
AcDbEntity
  8
01
100
AcDbLine
 10
5079.540886735744
 20
-293.8095700852949
 30
0.0000000000563712
 11
5079.597433967763
 21
-293.672784156135
 31
0.0000000000563712
  0
LINE
  5
B14B
330
18
100
AcDbEntity
  8
01
100
AcDbLine
 10
5079.413321802327
 20
-293.6761699524599
 30
0.0000000000563712
 11
5079.540886735744
 21
-293.8095700852949
 31
0.0000000000563712
  0
LINE
  5
B14C
330
18
100
AcDbEntity
  8
01
100
AcDbLine
 10
5078.773607342959
 20
-283.0099765249601
 30
0.0000000000563712
 11
5078.68430238243
 21
-284.0752876763353
 31
0.0000000000563712
  0
LINE
  5
B14D
330
18
100
AcDbEntity
  8
01
100
AcDbLine
 10
5078.848256108238
 20
-284.0535541828384
 30
0.0000000000563712
 11
5078.773607342959
 21
-283.0099765249601
 31
0.0000000000563712
  0
LINE
  5
B14E
330
18
100
AcDbEntity
  8
01
100
AcDbLine
 10
5073.975116497394
 20
-297.0322859862111
 30
0.0000000000563712
 11
5073.859475328984
 21
-297.1860253252738
 31
0.0000000000563712
  0
LINE
  5
B14F
330
18
100
AcDbEntity
  8
01
100
AcDbLine
 10
5074.004747860811
 20
-297.1775460154084
 30
0.0000000000563712
 11
5073.975116497394
 21
-297.0322859862111
 31
0.0000000000563712
  0
LINE
  5
B150
330
18
100
AcDbEntity
  8
01
100
AcDbLine
 10
5073.859475328985
 20
-297.1860253252738
 30
0.0000000000563712
 11
5074.004747860811
 21
-297.1775460154084
 31
0.0000000000563712
  0
ARC
  5
B151
330
18
100
AcDbEntity
  8
01
100
AcDbCircle
 10
5063.689114014536
 20
-284.0099371155396
 30
0.0000000000563712
 40
0.9999573629721057
100
AcDbArc
 50
89.99776410874593
 51
180.0022736147255
  0
LINE
  5
B152
330
18
100
AcDbEntity
  8
01
100
AcDbLine
 10
5063.727605827979
 20
-296.7078461341088
 30
0.0000000000563712
 11
5063.709729730177
 21
-296.5558305908966
 31
0.0000000000563712
  0
LINE
  5
B153
330
18
100
AcDbEntity
  8
01
100
AcDbLine
 10
5062.68915345036
 20
-296.6379168499315
 30
0.0000000000563712
 11
5063.727605827979
 21
-296.7078461341088
 31
0.0000000000563712
  0
LINE
  5
B154
330
18
100
AcDbEntity
  8
01
100
AcDbLine
 10
5063.709729730177
 20
-296.5558305908966
 30
0.0000000000563712
 11
5062.68915345036
 21
-296.6379168499315
 31
0.0000000000563712
  0
LINE
  5
B155
330
18
100
AcDbEntity
  8
01
100
AcDbLine
 10
5071.655371274182
 20
-284.0757058565295
 30
0.0000000000563712
 11
5071.799535074138
 21
-284.0735279447434
 31
0.0000000000563712
  0
LINE
  5
B156
330
18
100
AcDbEntity
  8
01
100
AcDbLine
 10
5071.706995279262
 20
-283.0099770375017
 30
0.0000000000563712
 11
5071.655371274182
 21
-284.0757058565295
 31
0.0000000000563712
  0
LINE
  5
B157
330
18
100
AcDbEntity
  8
01
100
AcDbLine
 10
5071.799535074138
 20
-284.0735279447434
 30
0.0000000000563712
 11
5071.706995279262
 21
-283.0099770375017
 31
0.0000000000563712
  0
LINE
  5
B158
330
18
100
AcDbEntity
  8
01
100
AcDbLine
 10
5071.712452844567
 20
-295.1239543180308
 30
0.0000000000563712
 11
5071.555258926894
 21
-295.1257978172129
 31
0.0000000000563712
  0
LINE
  5
B159
330
18
100
AcDbEntity
  8
01
100
AcDbLine
 10
5071.579006447294
 20
-295.2769351732917
 30
0.0000000000563712
 11
5071.712452844567
 21
-295.1239543180308
 31
0.0000000000563712
  0
LINE
  5
B15A
330
18
100
AcDbEntity
  8
01
100
AcDbLine
 10
5071.555258926894
 20
-295.1257978172129
 30
0.0000000000563712
 11
5071.579006447294
 21
-295.2769351732917
 31
0.0000000000563712
  0
LINE
  5
B15B
330
18
100
AcDbEntity
  8
01
100
AcDbLine
 10
5173.400195422792
 20
-301.8983250702034
 30
0.0000000000563712
 11
5173.505824138321
 21
-301.8247705761113
 31
0.0000000000563712
  0
LINE
  5
B15C
330
18
100
AcDbEntity
  8
01
100
AcDbLine
 10
5173.370477860522
 20
-301.8507973375139
 30
0.0000000000563712
 11
5173.400195422792
 21
-301.8983250702034
 31
0.0000000000563712
  0
LINE
  5
B15D
330
18
100
AcDbEntity
  8
01
100
AcDbLine
 10
5173.505824138321
 20
-301.8247705761113
 30
0.0000000000563712
 11
5173.370477860522
 21
-301.8507973375139
 31
0.0000000000563712
  0
LINE
  5
B15E
330
18
100
AcDbEntity
  8
01
100
AcDbLine
 10
5172.877186213296
 20
-307.0099739950491
 30
0.0000000000563712
 11
5172.94239386634
 21
-306.0843667558819
 31
0.0000000000563712
  0
LINE
  5
B15F
330
18
100
AcDbEntity
  8
01
100
AcDbLine
 10
5172.831814295632
 20
-306.0140334984879
 30
0.0000000000563712
 11
5172.877186213296
 21
-307.0099739950491
 31
0.0000000000563712
  0
LINE
  5
B160
330
18
100
AcDbEntity
  8
01
100
AcDbLine
 10
5174.615504827672
 20
-303.7208437224193
 30
0.0000000000563712
 11
5174.726021943838
 21
-303.8252674990953
 31
0.0000000000563712
  0
LINE
  5
B161
330
18
100
AcDbEntity
  8
01
100
AcDbLine
 10
5174.721619539387
 20
-303.6541855808827
 30
0.0000000000563712
 11
5174.615504827672
 21
-303.7208437224193
 31
0.0000000000563712
  0
LINE
  5
B162
330
18
100
AcDbEntity
  8
01
100
AcDbLine
 10
5174.726021943838
 20
-303.8252674990953
 30
0.0000000000563712
 11
5174.721619539387
 21
-303.6541855808827
 31
0.0000000000563712
  0
LINE
  5
B163
330
18
100
AcDbEntity
  8
01
100
AcDbLine
 10
5154.512106430158
 20
-297.3883910844041
 30
0.0000000000563712
 11
5154.361960196087
 21
-297.3618489282438
 31
0.0000000000563712
  0
LINE
  5
B164
330
18
100
AcDbEntity
  8
01
100
AcDbLine
 10
5154.424766900212
 20
-297.4573012727523
 30
0.0000000000563712
 11
5154.512106430158
 21
-297.3883910844041
 31
0.0000000000563712
  0
LINE
  5
B165
330
18
100
AcDbEntity
  8
01
100
AcDbLine
 10
5154.361960196087
 20
-297.3618489282438
 30
0.0000000000563712
 11
5154.424766900212
 21
-297.4573012727523
 31
0.0000000000563712
  0
LINE
  5
B166
330
18
100
AcDbEntity
  8
01
100
AcDbLine
 10
5146.885770381043
 20
-301.5794707097983
 30
0.0000000000563712
 11
5146.8235601662
 21
-301.7501336637814
 31
0.0000000000563712
  0
LINE
  5
B167
330
18
100
AcDbEntity
  8
01
100
AcDbLine
 10
5146.937966015681
 20
-301.7061213591963
 30
0.0000000000563712
 11
5146.885770381043
 21
-301.5794707097983
 31
0.0000000000563712
  0
LINE
  5
B168
330
18
100
AcDbEntity
  8
01
100
AcDbLine
 10
5146.8235601662
 20
-301.7501336637814
 30
0.0000000000563712
 11
5146.937966015681
 21
-301.7061213591963
 31
0.0000000000563712
  0
LINE
  5
B169
330
18
100
AcDbEntity
  8
01
100
AcDbLine
 10
5146.633151707691
 20
-307.0099762671128
 30
0.0000000000563712
 11
5146.69709154751
 21
-306.0357398373584
 31
0.0000000000563712
  0
LINE
  5
B16A
330
18
100
AcDbEntity
  8
01
100
AcDbLine
 10
5146.551653028853
 20
-305.968969281318
 30
0.0000000000563712
 11
5146.633151707691
 21
-307.0099762671128
 31
0.0000000000563712
  0
LINE
  5
B16B
330
18
100
AcDbEntity
  8
01
100
AcDbLine
 10
5158.373248915864
 20
-307.0099768247727
 30
0.0000000000563712
 11
5158.423131959575
 21
-306.0374722645023
 31
0.0000000000563712
  0
LINE
  5
B16C
330
18
100
AcDbEntity
  8
01
100
AcDbLine
 10
5158.316418046027
 20
-306.0356086027422
 30
0.0000000000563712
 11
5158.373248915864
 21
-307.0099768247727
 31
0.0000000000563712
  0
LINE
  5
B16D
330
18
100
AcDbEntity
  8
01
100
AcDbLine
 10
5158.522069724057
 20
-303.8354821407441
 30
0.0000000000563712
 11
5158.401571236524
 21
-303.9102068193146
 31
0.0000000000563712
  0
LINE
  5
B16E
330
18
100
AcDbEntity
  8
01
100
AcDbLine
 10
5158.510890195821
 20
-303.9167883902304
 30
0.0000000000563712
 11
5158.522069724057
 21
-303.8354821407441
 31
0.0000000000563712
  0
LINE
  5
B16F
330
18
100
AcDbEntity
  8
01
100
AcDbLine
 10
5158.401571236524
 20
-303.9102068193146
 30
0.0000000000563712
 11
5158.510890195821
 21
-303.9167883902304
 31
0.0000000000563712
  0
LINE
  5
B170
330
18
100
AcDbEntity
  8
01
100
AcDbLine
 10
5185.966371453702
 20
-307.0099791042807
 30
0.0000000000563712
 11
5185.87272151399
 21
-305.9765069677618
 31
0.0000000000563712
  0
LINE
  5
B171
330
18
100
AcDbEntity
  8
01
100
AcDbLine
 10
5084.435045680628
 20
-305.9848972000663
 30
0.0000000000563712
 11
5084.365198258594
 21
-307.0099761612317
 31
0.0000000000563712
  0
ARC
  5
B172
330
18
100
AcDbEntity
  8
01
100
AcDbCircle
 10
5203.189155947774
 20
-284.0099713343496
 30
0.0000000000563712
 40
0.9999956268946761
100
AcDbArc
 50
359.9999592326382
 51
90.00016680446274
  0
LINE
  5
B173
330
18
100
AcDbEntity
  8
01
100
AcDbLine
 10
5204.189155805929
 20
-302.5034291962119
 30
0.0000000000563712
 11
5204.116492579282
 21
-302.518415551613
 31
0.0000000000563712
  0
LINE
  5
B174
330
18
100
AcDbEntity
  8
01
100
AcDbLine
 10
5204.116492579282
 20
-302.518415551613
 30
0.0000000000563712
 11
5203.110570581399
 21
-302.5455128002053
 31
0.0000000000563712
  0
LINE
  5
B175
330
18
100
AcDbEntity
  8
01
100
AcDbLine
 10
5124.140428304456
 20
-283.9975525132553
 30
0.0000000000563712
 11
5124.206522372895
 21
-283.0099834566089
 31
0.0000000000563712
  0
SPLINE
  5
B176
330
18
100
AcDbEntity
  8
01
100
AcDbSpline
210
0.0
220
0.0
230
1.0
 70
     8
 71
     3
 72
    14
 73
    10
 74
     0
 42
0.0000000001
 43
0.0000000001
 40
0.0
 40
0.0
 40
0.0
 40
0.0
 40
0.779650485769373
 40
1.655363287357499
 40
4.768775871186184
 40
5.992209851694065
 40
7.152440834625213
 40
7.645028652407446
 40
8.844306797952225
 40
8.844306797952225
 40
8.844306797952225
 40
8.844306797952225
 10
5074.769864255202
 20
-305.9783072196118
 30
0.0000000000563712
 10
5074.756462191368
 20
-305.7187501332436
 30
0.0000000000563712
 10
5074.718720117533
 20
-305.1682236831238
 30
0.0000000000563712
 10
5074.54884117732
 20
-303.5872999393181
 30
0.0000000000563712
 10
5074.268292761364
 20
-301.8719397413155
 30
0.0000000000563712
 10
5074.046026874562
 20
-300.0529462011217
 30
0.0000000000563712
 10
5073.962114056556
 20
-299.0976991470919
 30
0.0000000000563712
 10
5073.906693143608
 20
-298.1485722955348
 30
0.0000000000563712
 10
5073.882464925367
 20
-297.5851336152931
 30
0.0000000000563712
 10
5073.859475328985
 20
-297.1860253252738
 30
0.0000000000563712
  0
SPLINE
  5
B177
330
18
100
AcDbEntity
  8
01
100
AcDbSpline
210
0.0
220
0.0
230
1.0
 70
     8
 71
     3
 72
    15
 73
    11
 74
     0
 42
0.0000000001
 43
0.0000000001
 40
0.0
 40
0.0
 40
0.0
 40
0.0
 40
0.5550767188772748
 40
1.145234763111471
 40
3.580414055812516
 40
4.691488781772472
 40
5.994872556500033
 40
6.692130631630971
 40
6.997990848102067
 40
7.989710021834633
 40
7.989710021834633
 40
7.989710021834633
 40
7.989710021834633
 10
5071.579006447294
 20
-295.2769351732917
 30
0.0000000000563712
 10
5071.396144543422
 20
-295.3054039173784
 30
0.0000000000563712
 10
5071.020205600868
 20
-295.3714743503054
 30
0.0000000000563712
 10
5069.851104771413
 20
-295.613014448092
 30
0.0000000000563712
 10
5068.518478102796
 20
-295.9692235299234
 30
0.0000000000563712
 10
5066.936343501813
 20
-296.3031654492373
 30
0.0000000000563712
 10
5065.909861421815
 20
-296.4556565962088
 30
0.0000000000563712
 10
5065.146788426928
 20
-296.5486833033364
 30
0.0000000000563712
 10
5064.485975696019
 20
-296.6232307104495
 30
0.0000000000563712
 10
5064.056127031719
 20
-296.6709593880017
 30
0.0000000000563712
 10
5063.727605827978
 20
-296.7078461341088
 30
0.0000000000563712
  0
LINE
  5
B178
330
18
100
AcDbEntity
  8
01
100
AcDbLine
 10
5073.859475328985
 20
-297.1860253252738
 30
0.0000000000563712
 11
5071.579006447294
 21
-295.2769351732917
 31
0.0000000000563712
  0
LINE
  5
B179
330
18
100
AcDbEntity
  8
01
100
AcDbLine
 10
5071.712452844567
 20
-295.1239543180308
 30
0.0000000000563712
 11
5073.975116497394
 21
-297.0322859862111
 31
0.0000000000563712
  0
SPLINE
  5
B17A
330
18
100
AcDbEntity
  8
01
100
AcDbSpline
210
0.0
220
0.0
230
1.0
 70
     8
 71
     3
 72
    14
 73
    10
 74
     0
 42
0.0000000001
 43
0.0000000001
 40
0.0
 40
0.0
 40
0.0
 40
0.0
 40
1.637934997516301
 40
2.892931696700935
 40
3.931905351740531
 40
5.807744538092077
 40
6.913216042049495
 40
8.156332685567284
 40
11.05506801694331
 40
11.05506801694331
 40
11.05506801694331
 40
11.05506801694331
 10
5071.799535074138
 20
-284.0735279447434
 30
0.0000000000563712
 10
5071.811235048479
 20
-284.6193621954898
 30
0.0000000000563712
 10
5071.832347794374
 20
-285.5835318898465
 30
0.0000000000563712
 10
5071.8228877648
 20
-286.8942652327786
 30
0.0000000000563712
 10
5071.775576470409
 20
-288.2835086774011
 30
0.0000000000563712
 10
5071.67739646155
 20
-289.6204259797445
 30
0.0000000000563712
 10
5071.647994664429
 20
-291.0285772510114
 30
0.0000000000563712
 10
5071.656817260187
 20
-292.7777117213117
 30
0.0000000000563712
 10
5071.70822835164
 20
-294.1576807389705
 30
0.0000000000563712
 10
5071.712452844567
 20
-295.1239543180308
 30
0.0000000000563712
  0
SPLINE
  5
B17B
330
18
100
AcDbEntity
  8
01
100
AcDbSpline
210
0.0
220
0.0
230
1.0
 70
     8
 71
     3
 72
    16
 73
    12
 74
     0
 42
0.0000000001
 43
0.0000000001
 40
0.0
 40
0.0
 40
0.0
 40
0.0
 40
0.8418470048067129
 40
2.537586091428201
 40
3.208898870433379
 40
3.909929558742623
 40
4.572281930967693
 40
6.155401364432753
 40
6.879086633746623
 40
8.691139908328752
 40
9.652043881244843
 40
9.652043881244843
 40
9.652043881244843
 40
9.652043881244843
 10
5079.413321802327
 20
-293.6761699524599
 30
0.0000000000563712
 10
5079.406952580297
 20
-293.3956285893263
 30
0.0000000000563712
 10
5079.404456334818
 20
-292.5496527224008
 30
0.0000000000563712
 10
5079.434450891496
 20
-291.4803671777653
 30
0.0000000000563712
 10
5079.440978290364
 20
-290.4576318288881
 30
0.0000000000563712
 10
5079.426474928737
 20
-289.7794850895178
 30
0.0000000000563712
 10
5079.36803339176
 20
-288.7987843213613
 30
0.0000000000563712
 10
5079.251793710177
 20
-287.8154294996515
 30
0.0000000000563712
 10
5079.049528643698
 20
-286.4575019605089
 30
0.0000000000563712
 10
5078.85464876613
 20
-285.308226135728
 30
0.0000000000563712
 10
5078.724505747856
 20
-284.3930650043766
 30
0.0000000000563712
 10
5078.68430238243
 20
-284.0752876763353
 30
0.0000000000563712
  0
SPLINE
  5
B17C
330
18
100
AcDbEntity
  8
01
100
AcDbSpline
210
0.0
220
0.0
230
1.0
 70
     8
 71
     3
 72
    14
 73
    10
 74
     0
 42
0.0000000001
 43
0.0000000001
 40
0.0
 40
0.0
 40
0.0
 40
0.0
 40
0.7294365365443745
 40
1.378939046510693
 40
1.98859193157995
 40
2.673377614948228
 40
4.371307776702048
 40
5.425919224702676
 40
6.48641509734796
 40
6.48641509734796
 40
6.48641509734796
 40
6.48641509734796
 10
5073.975116497394
 20
-297.0322859862111
 30
0.0000000000563712
 10
5074.213114465309
 20
-296.9823667157478
 30
0.0000000000563712
 10
5074.66089077779
 20
-296.8779301560975
 30
0.0000000000563712
 10
5075.291797553798
 20
-296.6711001802518
 30
0.0000000000563712
 10
5075.881712107188
 20
-296.4012531983525
 30
0.0000000000563712
 10
5076.747916383139
 20
-295.904278788454
 30
0.0000000000563712
 10
5077.669262163259
 20
-295.2193544550031
 30
0.0000000000563712
 10
5078.640403926844
 20
-294.3999840073897
 30
0.0000000000563712
 10
5079.158809290848
 20
-293.9212902785752
 30
0.0000000000563712
 10
5079.413321802327
 20
-293.6761699524599
 30
0.0000000000563712
  0
SPLINE
  5
B17D
330
18
100
AcDbEntity
  8
01
100
AcDbSpline
210
0.0
220
0.0
230
1.0
 70
     8
 71
     3
 72
    14
 73
    10
 74
     0
 42
0.0000000001
 43
0.0000000001
 40
0.0
 40
0.0
 40
0.0
 40
0.0
 40
1.054261937524123
 40
2.156742120589889
 40
3.883419625352705
 40
4.542576880783443
 40
5.197396407418773
 40
5.847051053913858
 40
6.580272858801072
 40
6.580272858801072
 40
6.580272858801072
 40
6.580272858801072
 10
5079.540886735744
 20
-293.8095700852949
 30
0.0000000000563712
 10
5079.287617400232
 20
-294.0530282733038
 30
0.0000000000563712
 10
5078.758342643685
 20
-294.5402950743104
 30
0.0000000000563712
 10
5077.767806539852
 20
-295.3732823608028
 30
0.0000000000563712
 10
5076.827003014772
 20
-296.0606300903004
 30
0.0000000000563712
 10
5075.94173511396
 20
-296.5568029314285
 30
0.0000000000563712
 10
5075.342886563348
 20
-296.8228479803882
 30
0.0000000000563712
 10
5074.694027134637
 20
-297.0273772445574
 30
0.0000000000563712
 10
5074.244350671859
 20
-297.1290495730458
 30
0.0000000000563712
 10
5074.004747860811
 20
-297.1775460154084
 30
0.0000000000563712
  0
SPLINE
  5
B17E
330
18
100
AcDbEntity
  8
01
100
AcDbSpline
210
0.0
220
0.0
230
1.0
 70
     8
 71
     3
 72
    19
 73
    15
 74
     0
 42
0.0000000001
 43
0.0000000001
 40
0.0
 40
0.0
 40
0.0
 40
0.0
 40
0.0460579563724837
 40
0.1257075822129157
 40
0.5185534223746521
 40
0.7957649019532389
 40
1.310594904667995
 40
2.220264879833838
 40
3.738313856238513
 40
4.246403271057585
 40
4.855044810754819
 40
5.462725199101349
 40
7.08002740809068
 40
8.088731955251031
 40
8.088731955251031
 40
8.088731955251031
 40
8.088731955251031
 10
5086.861507405453
 20
-297.1902160502954
 30
0.0000000000563712
 10
5086.848265309625
 20
-297.1824490423827
 30
0.0000000000563712
 10
5086.812400685096
 20
-297.1607730295967
 30
0.0000000000563712
 10
5086.664801685241
 20
-297.0708292213379
 30
0.0000000000563712
 10
5086.4520693185
 20
-296.9396744444333
 30
0.0000000000563712
 10
5086.114731537271
 20
-296.7342757243686
 30
0.0000000000563712
 10
5085.628853831521
 20
-296.4414988366638
 30
0.0000000000563712
 10
5084.781125991382
 20
-295.9481303692304
 30
0.0000000000563712
 10
5083.912715243233
 20
-295.495418108393
 30
0.0000000000563712
 10
5083.109171696417
 20
-295.140327183566
 30
0.0000000000563712
 10
5082.575043656294
 20
-294.9277662887952
 30
0.0000000000563712
 10
5081.688053041664
 20
-294.6029987375258
 30
0.0000000000563712
 10
5080.667738341739
 20
-294.255032731079
 30
0.0000000000563712
 10
5079.851169566409
 20
-293.9390909592743
 30
0.0000000000563712
 10
5079.540886735744
 20
-293.8095700852949
 30
0.0000000000563712
  0
SPLINE
  5
B17F
330
18
100
AcDbEntity
  8
01
100
AcDbSpline
210
0.0
220
0.0
230
1.0
 70
     8
 71
     3
 72
    15
 73
    11
 74
     0
 42
0.0000000001
 43
0.0000000001
 40
0.0
 40
0.0
 40
0.0
 40
0.0
 40
1.716581186172565
 40
2.35519393210983
 40
3.445562318127151
 40
3.731620912412636
 40
4.303517504479609
 40
5.334085559873182
 40
6.99707058807557
 40
9.158529638531622
 40
9.158529638531622
 40
9.158529638531622
 40
9.158529638531622
 10
5084.313833754876
 20
-305.9538196950297
 30
0.0000000000563712
 10
5084.456306302929
 20
-305.3996740948782
 30
0.0000000000563712
 10
5084.641173591133
 20
-304.6364708368977
 30
0.0000000000563712
 10
5084.869936973211
 20
-303.5108667349208
 30
0.0000000000563712
 10
5084.98943122263
 20
-302.8498947465686
 30
0.0000000000563712
 10
5085.112243393141
 20
-302.2121434229106
 30
0.0000000000563712
 10
5085.23825006177
 20
-301.5953937388693
 30
0.0000000000563712
 10
5085.50763643646
 20
-300.5399512201278
 30
0.0000000000563712
 10
5086.046252760099
 20
-299.0119452861126
 30
0.0000000000563712
 10
5086.567651228255
 20
-297.8479602867977
 30
0.0000000000563712
 10
5086.861507405453
 20
-297.1902160502954
 30
0.0000000000563712
  0
SPLINE
  5
B180
330
18
100
AcDbEntity
  8
01
100
AcDbSpline
210
0.0
220
0.0
230
1.0
 70
     8
 71
     3
 72
    13
 73
     9
 74
     0
 42
0.0000000001
 43
0.0000000001
 40
0.0
 40
0.0
 40
0.0
 40
0.0
 40
1.205555168161143
 40
1.631012643668918
 40
2.767771149822535
 40
3.966518386801016
 40
7.077397434386241
 40
8.845488486546799
 40
8.845488486546799
 40
8.845488486546799
 40
8.845488486546799
 10
5074.004747860811
 20
-297.1775460154084
 30
0.0000000000563712
 10
5074.029190580332
 20
-297.5786610368367
 30
0.0000000000563712
 10
5074.05263653487
 20
-298.121855421662
 30
0.0000000000563712
 10
5074.10754487647
 20
-299.0428245244287
 30
0.0000000000563712
 10
5074.185881709051
 20
-299.9599745835789
 30
0.0000000000563712
 10
5074.402307072671
 20
-301.7626609015914
 30
0.0000000000563712
 10
5074.726288176604
 20
-303.7632398897271
 30
0.0000000000563712
 10
5074.879767386633
 20
-305.3833209227786
 30
0.0000000000563712
 10
5074.905295125699
 20
-305.9722333297217
 30
0.0000000000563712
  0
LINE
  5
B181
330
18
100
AcDbEntity
  8
01
100
AcDbLine
 10
5074.839658079552
 20
-307.0099741818498
 30
0.0000000000563712
 11
5063.689153036621
 21
-307.0099756846838
 31
0.0000000000563712
  0
LINE
  5
B182
330
18
100
AcDbEntity
  8
01
100
AcDbLine
 10
5084.365198258594
 20
-307.0099761612317
 30
0.0000000000563712
 11
5074.839658079552
 21
-307.0099741818498
 31
0.0000000000563712
  0
LINE
  5
B183
330
18
100
AcDbEntity
  8
01
100
AcDbLine
 10
5096.266578663606
 20
-307.0099749169398
 30
0.0000000000563712
 11
5084.365198258594
 21
-307.0099761612317
 31
0.0000000000563712
  0
LINE
  5
B184
330
18
100
AcDbEntity
  8
01
100
AcDbLine
 10
5108.045223592714
 20
-307.0099761190858
 30
0.0000000000563712
 11
5096.266578663606
 21
-307.0099749169398
 31
0.0000000000563712
  0
LINE
  5
B185
330
18
100
AcDbEntity
  8
01
100
AcDbLine
 10
5115.197507651836
 20
-307.009975351038
 30
0.0000000000563712
 11
5108.045223592714
 21
-307.0099761190858
 31
0.0000000000563712
  0
LINE
  5
B186
330
18
100
AcDbEntity
  8
01
100
AcDbLine
 10
5133.640679142211
 20
-307.0099775963944
 30
0.0000000000563712
 11
5115.197507651836
 21
-307.009975351038
 31
0.0000000000563712
  0
LINE
  5
B187
330
18
100
AcDbEntity
  8
01
100
AcDbLine
 10
5146.633151707691
 20
-307.0099762671128
 30
0.0000000000563712
 11
5133.647521379351
 21
-307.0099775962871
 31
0.0000000000563712
  0
LINE
  5
B188
330
18
100
AcDbEntity
  8
01
100
AcDbLine
 10
5158.373248915864
 20
-307.0099768247727
 30
0.0000000000563712
 11
5146.633151707691
 21
-307.0099762671128
 31
0.0000000000563712
  0
LINE
  5
B189
330
18
100
AcDbEntity
  8
01
100
AcDbLine
 10
5172.877186213296
 20
-307.0099739950491
 30
0.0000000000563712
 11
5158.373248915864
 21
-307.0099768247727
 31
0.0000000000563712
  0
LINE
  5
B18A
330
18
100
AcDbEntity
  8
01
100
AcDbLine
 10
5185.966371453702
 20
-307.0099791042807
 30
0.0000000000563712
 11
5172.877186213296
 21
-307.0099739950491
 31
0.0000000000563712
  0
LINE
  5
B18B
330
18
100
AcDbEntity
  8
01
100
AcDbLine
 10
5203.189153036609
 20
-307.0099836268445
 30
0.0000000000563712
 11
5185.966371453702
 21
-307.0099791042807
 31
0.0000000000563712
  0
SPLINE
  5
B18C
330
18
100
AcDbEntity
  8
01
100
AcDbSpline
210
0.0
220
0.0
230
1.0
 70
     8
 71
     3
 72
    16
 73
    12
 74
     0
 42
0.0000000001
 43
0.0000000001
 40
0.0
 40
0.0
 40
0.0
 40
0.0
 40
1.365471265361582
 40
2.280914342989904
 40
3.88381866953122
 40
4.861775022079792
 40
5.375570287243173
 40
5.660654636740781
 40
6.743133897370718
 40
7.427666939618317
 40
9.139598867395096
 40
9.139598867395096
 40
9.139598867395096
 40
9.139598867395096
 10
5086.960316023391
 20
-297.2340081544493
 30
0.0000000000563712
 10
5086.777619360748
 20
-297.6508368978951
 30
0.0000000000563712
 10
5086.469821186422
 20
-298.3462303735408
 30
0.0000000000563712
 10
5085.97959309976
 20
-299.5443981832904
 30
0.0000000000563712
 10
5085.598014840734
 20
-300.6469376680355
 30
0.0000000000563712
 10
5085.347424182995
 20
-301.648332360431
 30
0.0000000000563712
 10
5085.22973038829
 20
-302.2287752420469
 30
0.0000000000563712
 10
5085.112091638675
 20
-302.8447980951859
 30
0.0000000000563712
 10
5084.991115282492
 20
-303.518027563929
 30
0.0000000000563712
 10
5084.763545599917
 20
-304.655258335686
 30
0.0000000000563712
 10
5084.576216887802
 20
-305.4320156415178
 30
0.0000000000563712
 10
5084.435045680628
 20
-305.9848972000663
 30
0.0000000000563712
  0
ARC
  5
B18D
330
18
100
AcDbEntity
  8
01
100
AcDbCircle
 10
5081.521382747123
 20
-257.1562024193289
 30
0.0000000000563712
 40
40.44517904183029
100
AcDbArc
 50
277.7283597505007
 51
284.3818570459352
  0
ARC
  5
B18E
330
18
100
AcDbEntity
  8
01
100
AcDbCircle
 10
5039.285852240499
 20
-346.3113698101919
 30
0.0000000000563712
 40
72.32631030568434
100
AcDbArc
 50
36.77139137701182
 51
43.70930282747927
  0
ARC
  5
B18F
330
18
100
AcDbEntity
  8
01
100
AcDbCircle
 10
5116.196918145467
 20
-311.1776953837774
 30
0.0000000000563712
 40
20.65664392267693
100
AcDbArc
 50
156.7243784772399
 51
165.4960417725935
  0
ARC
  5
B190
330
18
100
AcDbEntity
  8
01
100
AcDbCircle
 10
5137.493849660554
 20
-455.8929429540002
 30
0.0000000000563712
 40
158.1559415778421
100
AcDbArc
 50
102.0306979846713
 51
104.7078700137868
  0
ARC
  5
B191
330
18
100
AcDbEntity
  8
01
100
AcDbCircle
 10
5042.278725197753
 20
-343.7415842236036
 30
0.0000000000563712
 40
68.54303582564134
100
AcDbArc
 50
36.55337413635724
 51
43.8757155651609
  0
LINE
  5
B192
330
18
100
AcDbEntity
  8
01
100
AcDbLine
 10
5093.016648705947
 20
-292.6875218671097
 30
0.0000000000563712
 11
5091.687625792918
 21
-296.2346552324319
 31
0.0000000000563712
  0
SPLINE
  5
B193
330
18
100
AcDbEntity
  8
01
100
AcDbSpline
210
0.0
220
0.0
230
1.0
 70
     8
 71
     3
 72
    15
 73
    11
 74
     0
 42
0.0000000001
 43
0.0000000001
 40
0.0
 40
0.0
 40
0.0
 40
0.0
 40
0.631024079674377
 40
1.234850869742004
 40
1.956112762403867
 40
3.913951662973126
 40
5.04881450887537
 40
6.283972018859954
 40
6.89983546346252
 40
8.21076558211407
 40
8.21076558211407
 40
8.21076558211407
 40
8.21076558211407
 10
5100.442680315868
 20
-289.2309651192053
 30
0.0000000000563712
 10
5100.249333951739
 20
-289.3137483158979
 30
0.0000000000563712
 10
5099.874008874167
 20
-289.4830851447813
 30
0.0000000000563712
 10
5099.292002352782
 20
-289.7772695000903
 30
0.0000000000563712
 10
5098.332170077757
 20
-290.3031007388007
 30
0.0000000000563712
 10
5097.237956691025
 20
-290.9508337484548
 30
0.0000000000563712
 10
5095.953652059605
 20
-291.6100151068198
 30
0.0000000000563712
 10
5095.031114070242
 20
-291.9859849151993
 30
0.0000000000563712
 10
5094.038817994613
 20
-292.3409862997099
 30
0.0000000000563712
 10
5093.428506981128
 20
-292.5415809885898
 30
0.0000000000563712
 10
5093.016648705947
 20
-292.6875218671097
 30
0.0000000000563712
  0
SPLINE
  5
B194
330
18
100
AcDbEntity
  8
01
100
AcDbSpline
210
0.0
220
0.0
230
1.0
 70
     8
 71
     3
 72
    15
 73
    11
 74
     0
 42
0.0000000001
 43
0.0000000001
 40
0.0
 40
0.0
 40
0.0
 40
0.0
 40
1.141205100147407
 40
2.019118927604985
 40
2.802331876785396
 40
3.481752510830461
 40
4.271044851645739
 40
5.162559661179841
 40
6.322227795008791
 40
7.804283825182651
 40
7.804283825182651
 40
7.804283825182651
 40
7.804283825182651
 10
5107.250164788307
 20
-292.2889597377629
 30
0.0000000000563712
 10
5106.870176243192
 20
-292.306191802585
 30
0.0000000000563712
 10
5106.197320132518
 20
-292.3315409107425
 30
0.0000000000563712
 10
5105.262967144756
 20
-292.2851092716795
 30
0.0000000000563712
 10
5104.493684471483
 20
-292.1431272024082
 30
0.0000000000563712
 10
5103.782811943114
 20
-291.8940828509729
 30
0.0000000000563712
 10
5103.092724448856
 20
-291.5113971856034
 30
0.0000000000563712
 10
5102.327660195821
 20
-290.9516881543235
 30
0.0000000000563712
 10
5101.437698746351
 20
-290.1794163332169
 30
0.0000000000563712
 10
5100.798236591692
 20
-289.5739675718295
 30
0.0000000000563712
 10
5100.442680315868
 20
-289.2309651192053
 30
0.0000000000563712
  0
ARC
  5
B195
330
18
100
AcDbEntity
  8
01
100
AcDbCircle
 10
5503.256967892484
 20
-417.9703776411728
 30
0.0000000000563712
 40
415.4722697256717
100
AcDbArc
 50
162.3920262023517
 51
163.6783871399843
  0
SPLINE
  5
B196
330
18
100
AcDbEntity
  8
01
100
AcDbSpline
210
0.0
220
0.0
230
1.0
 70
     8
 71
     3
 72
    14
 73
    10
 74
     0
 42
0.0000000001
 43
0.0000000001
 40
0.0
 40
0.0
 40
0.0
 40
0.0
 40
1.381560535677859
 40
1.946784111856328
 40
3.179188342880057
 40
4.313299743143072
 40
6.87719223112324
 40
7.578539982167464
 40
8.203726542961427
 40
8.203726542961427
 40
8.203726542961427
 40
8.203726542961427
 10
5092.978394728536
 20
-292.5802939303661
 30
0.0000000000563712
 10
5093.411716012826
 20
-292.4244663819835
 30
0.0000000000563712
 10
5094.027708520147
 20
-292.2197324036391
 30
0.0000000000563712
 10
5095.02401182931
 20
-291.8590065213901
 30
0.0000000000563712
 10
5095.92864115532
 20
-291.4867177235932
 30
0.0000000000563712
 10
5097.388290959723
 20
-290.7294656813186
 30
0.0000000000563712
 10
5098.642398846422
 20
-289.9675891778778
 30
0.0000000000563712
 10
5099.799966971813
 20
-289.3813127185302
 30
0.0000000000563712
 10
5100.203414247793
 20
-289.2005170167066
 30
0.0000000000563712
 10
5100.395147409607
 20
-289.1187088055239
 30
0.0000000000563712
  0
LINE
  5
B197
330
18
100
AcDbEntity
  8
01
100
AcDbLine
 10
5089.714209668552
 20
-284.0267754030532
 30
0.0000000000563712
 11
5092.978394728536
 21
-292.5802939303661
 31
0.0000000000563712
  0
ARC
  5
B198
330
18
100
AcDbEntity
  8
01
100
AcDbCircle
 10
5135.016382990593
 20
-289.6447205881499
 30
0.0000000000563712
 40
34.62523128514275
100
AcDbArc
 50
170.6616802731762
 51
179.1295534106825
  0
LINE
  5
B199
330
18
100
AcDbEntity
  8
01
100
AcDbLine
 10
5107.246065836935
 20
-292.1869988859647
 30
0.0000000000563712
 11
5108.770187201979
 21
-290.5160431684734
 31
0.0000000000563712
  0
SPLINE
  5
B19A
330
18
100
AcDbEntity
  8
01
100
AcDbSpline
210
0.0
220
0.0
230
1.0
 70
     8
 71
     3
 72
    16
 73
    12
 74
     0
 42
0.0000000001
 43
0.0000000001
 40
0.0
 40
0.0
 40
0.0
 40
0.0
 40
1.559178964066728
 40
2.68513711579211
 40
3.55689580236585
 40
4.27705642947757
 40
4.956085934354153
 40
5.730405879979831
 40
6.551070441915768
 40
7.080422849376472
 40
7.703795261489734
 40
7.703795261489734
 40
7.703795261489734
 40
7.703795261489734
 10
5100.547903322637
 20
-289.1213023339354
 30
0.0000000000563712
 10
5100.921320993203
 20
-289.4828276854577
 30
0.0000000000563712
 10
5101.569700022266
 20
-290.099864277657
 30
0.0000000000563712
 10
5102.463553782076
 20
-290.879740211761
 30
0.0000000000563712
 10
5103.194164156631
 20
-291.4170854721295
 30
0.0000000000563712
 10
5103.85538299393
 20
-291.790036789101
 30
0.0000000000563712
 10
5104.540774196003
 20
-292.0332918601729
 30
0.0000000000563712
 10
5105.288538525695
 20
-292.1691262408061
 30
0.0000000000563712
 10
5105.996490138376
 20
-292.2077862885325
 30
0.0000000000563712
 10
5106.654250102521
 20
-292.2047409854484
 30
0.0000000000563712
 10
5107.038419363595
 20
-292.1942161553264
 30
0.0000000000563712
 10
5107.246065836935
 20
-292.1869988859647
 30
0.0000000000563712
  0
ARC
  5
B19B
330
18
100
AcDbEntity
  8
01
100
AcDbCircle
 10
5133.89582763691
 20
-289.4864873642558
 30
0.0000000000563712
 40
33.34992378067567
100
AcDbArc
 50
170.6097330892676
 51
179.3725928947335
  0
LINE
  5
B19C
330
18
100
AcDbEntity
  8
01
100
AcDbLine
 10
5108.770187201979
 20
-290.5160431684734
 30
0.0000000000563712
 11
5108.862291803035
 21
-284.041747225512
 31
0.0000000000563712
  0
ARC
  5
B19D
330
18
100
AcDbEntity
  8
01
100
AcDbCircle
 10
5117.368854108558
 20
-311.7120360647999
 30
0.0000000000563712
 40
21.7760961927216
100
AcDbArc
 50
156.6508671224264
 51
164.9036658745498
  0
LINE
  5
B19E
330
18
100
AcDbEntity
  8
01
100
AcDbLine
 10
5104.563512867722
 20
-301.3798605827195
 30
0.0000000000563712
 11
5097.376070998048
 21
-303.0814515602164
 31
0.0000000000563712
  0
SPLINE
  5
B19F
330
18
100
AcDbEntity
  8
01
100
AcDbSpline
210
0.0
220
0.0
230
1.0
 70
     8
 71
     3
 72
    15
 73
    11
 74
     0
 42
0.0000000001
 43
0.0000000001
 40
0.0
 40
0.0
 40
0.0
 40
0.0
 40
0.6568149601524611
 40
1.24274772856186
 40
1.829296002538704
 40
2.413089457767278
 40
3.135328453962083
 40
3.94079989626431
 40
4.885325380607106
 40
5.836799887438617
 40
5.836799887438617
 40
5.836799887438617
 40
5.836799887438617
 10
5107.959261830762
 20
-305.9732612775332
 30
0.0000000000563712
 10
5107.911055809991
 20
-305.7596460130961
 30
0.0000000000563712
 10
5107.805665574817
 20
-305.3588125204545
 30
0.0000000000563712
 10
5107.59579635658
 20
-304.7851665606325
 30
0.0000000000563712
 10
5107.325520110015
 20
-304.264464051268
 30
0.0000000000563712
 10
5106.968619187904
 20
-303.7431594771391
 30
0.0000000000563712
 10
5106.518285888025
 20
-303.2015273052442
 30
0.0000000000563712
 10
5105.947247796892
 20
-302.6068186278779
 30
0.0000000000563712
 10
5105.289489563849
 20
-301.9914542082428
 30
0.0000000000563712
 10
5104.809218483038
 20
-301.58041085609
 30
0.0000000000563712
 10
5104.563512867722
 20
-301.3798605827195
 30
0.0000000000563712
  0
LINE
  5
B1A0
330
18
100
AcDbEntity
  8
01
100
AcDbLine
 10
5108.916994032365
 20
-290.6364352139007
 30
0.0000000000563712
 11
5107.382616592198
 21
-292.3251138239128
 31
0.0000000000563712
  0
SPLINE
  5
B1A1
330
18
100
AcDbEntity
  8
01
100
AcDbSpline
210
0.0
220
0.0
230
1.0
 70
     8
 71
     3
 72
    18
 73
    14
 74
     0
 42
0.0000000001
 43
0.0000000001
 40
0.0
 40
0.0
 40
0.0
 40
0.0
 40
0.0164217587570654
 40
0.2697658031882625
 40
0.6127177234431095
 40
1.930141599927295
 40
2.526762927755797
 40
3.231373194146612
 40
3.856895444452534
 40
5.233365497273607
 40
7.436741252874292
 40
8.136601260121246
 40
9.356082827703565
 40
9.356082827703565
 40
9.356082827703565
 40
9.356082827703565
 10
5117.671755448653
 20
-293.8638064594201
 30
0.0000000000563712
 10
5117.666615239472
 20
-293.8619083963212
 30
0.0000000000563712
 10
5117.585363336881
 20
-293.8233908918518
 30
0.0000000000563712
 10
5117.401011537855
 20
-293.7354681473106
 30
0.0000000000563712
 10
5116.827562870207
 20
-293.4560494063184
 30
0.0000000000563712
 10
5116.156755403208
 20
-293.1152627763626
 30
0.0000000000563712
 10
5115.369523884785
 20
-292.7381653756969
 30
0.0000000000563712
 10
5114.782506941528
 20
-292.4771593270328
 30
0.0000000000563712
 10
5113.941441982224
 20
-292.1500874934176
 30
0.0000000000563712
 10
5112.606269765551
 20
-291.7204016613795
 30
0.0000000000563712
 10
5111.223956449287
 20
-291.3663473600458
 30
0.0000000000563712
 10
5109.903544843955
 20
-290.9854127139164
 30
0.0000000000563712
 10
5109.296766036015
 20
-290.7814202217431
 30
0.0000000000563712
 10
5108.916994032365
 20
-290.6364352139007
 30
0.0000000000563712
  0
LINE
  5
B1A2
330
18
100
AcDbEntity
  8
01
100
AcDbLine
 10
5119.573901687028
 20
-296.7557720063727
 30
0.0000000000563712
 11
5117.671755448653
 21
-293.8638064594201
 31
0.0000000000563712
  0
ARC
  5
B1A3
330
18
100
AcDbEntity
  8
01
100
AcDbCircle
 10
5130.073592691873
 20
-301.1719668063614
 30
0.0000000000563712
 40
11.39062279722522
100
AcDbArc
 50
157.1882631106238
 51
186.0928304933574
  0
ARC
  5
B1A4
330
18
100
AcDbEntity
  8
01
100
AcDbCircle
 10
5094.584553184406
 20
-281.5454648431113
 30
0.0000000000563712
 40
31.90543777251814
100
AcDbArc
 50
310.1378597177703
 51
319.2288684945985
  0
SPLINE
  5
B1A5
330
18
100
AcDbEntity
  8
01
100
AcDbSpline
210
0.0
220
0.0
230
1.0
 70
     8
 71
     3
 72
    15
 73
    11
 74
     0
 42
0.0000000001
 43
0.0000000001
 40
0.0
 40
0.0
 40
0.0
 40
0.0
 40
0.9659861285051204
 40
1.934794903913459
 40
2.751538648314921
 40
3.492481744117606
 40
4.085760098423949
 40
4.679015854807766
 40
5.268507633179991
 40
5.93199968709532
 40
5.93199968709532
 40
5.93199968709532
 40
5.93199968709532
 10
5104.67044200178
 20
-301.2502453993519
 30
0.0000000000563712
 10
5104.919718764088
 20
-301.4541011621735
 30
0.0000000000563712
 10
5105.408274130057
 20
-301.8753119151301
 30
0.0000000000563712
 10
5106.075042299899
 20
-302.5055719026776
 30
0.0000000000563712
 10
5106.65246442121
 20
-303.1192332002969
 30
0.0000000000563712
 10
5107.103134945005
 20
-303.6777058492647
 30
0.0000000000563712
 10
5107.458288230551
 20
-304.2141974704626
 30
0.0000000000563712
 10
5107.724469399556
 20
-304.7443018693087
 30
0.0000000000563712
 10
5107.932866141568
 20
-305.3243588905647
 30
0.0000000000563712
 10
5108.036796848039
 20
-305.7291734070358
 30
0.0000000000563712
 10
5108.084515698725
 20
-305.9451503146655
 30
0.0000000000563712
  0
LINE
  5
B1A6
330
18
100
AcDbEntity
  8
01
100
AcDbLine
 10
5107.382616592198
 20
-292.3251138239128
 30
0.0000000000563712
 11
5104.67044200178
 21
-301.2502453993519
 31
0.0000000000563712
  0
LINE
  5
B1A7
330
18
100
AcDbEntity
  8
01
100
AcDbLine
 10
5117.817924403054
 20
-293.7737089917567
 30
0.0000000000563712
 11
5119.704217695566
 21
-296.6689586524748
 31
0.0000000000563712
  0
LINE
  5
B1A8
330
18
100
AcDbEntity
  8
01
100
AcDbLine
 10
5124.224774011268
 20
-284.0875604395468
 30
0.0000000000563712
 11
5117.817924403054
 21
-293.7737089917567
 31
0.0000000000563712
  0
SPLINE
  5
B1A9
330
18
100
AcDbEntity
  8
01
100
AcDbSpline
210
0.0
220
0.0
230
1.0
 70
     8
 71
     3
 72
    16
 73
    12
 74
     0
 42
0.0000000001
 43
0.0000000001
 40
0.0
 40
0.0
 40
0.0
 40
0.0
 40
1.08257047806175
 40
1.921446031099041
 40
2.726422640604259
 40
3.501930164565164
 40
4.820697561163368
 40
6.979484085456105
 40
7.819500801954357
 40
8.588650620232363
 40
9.62231428354888
 40
9.62231428354888
 40
9.62231428354888
 40
9.62231428354888
 10
5133.300400050231
 20
-291.5935578770494
 30
0.0000000000563712
 10
5133.139356637729
 20
-291.2706233858606
 30
0.0000000000563712
 10
5132.852873337355
 20
-290.6977487726903
 30
0.0000000000563712
 10
5132.412354446629
 20
-289.9024451453755
 30
0.0000000000563712
 10
5131.982821802636
 20
-289.2195807311772
 30
0.0000000000563712
 10
5131.410994270973
 20
-288.4392910048799
 30
0.0000000000563712
 10
5130.464392495902
 20
-287.3819831100362
 30
0.0000000000563712
 10
5129.430414035146
 20
-286.3804593320364
 30
0.0000000000563712
 10
5128.56356275014
 20
-285.4712829732097
 30
0.0000000000563712
 10
5127.978733989028
 20
-284.812344268223
 30
0.0000000000563712
 10
5127.591497089304
 20
-284.3527531884587
 30
0.0000000000563712
 10
5127.371879615452
 20
-284.0872652538968
 30
0.0000000000563712
  0
ARC
  5
B1AA
330
18
100
AcDbEntity
  8
01
100
AcDbCircle
 10
5136.477922246033
 20
-297.0542533489851
 30
0.0000000000563712
 40
6.317898570096569
100
AcDbArc
 50
120.1946822498293
 51
162.944861049964
  0
SPLINE
  5
B1AB
330
18
100
AcDbEntity
  8
01
100
AcDbSpline
210
0.0
220
0.0
230
1.0
 70
     8
 71
     3
 72
    19
 73
    15
 74
     0
 42
0.0000000001
 43
0.0000000001
 40
0.0
 40
0.0
 40
0.0
 40
0.0
 40
0.3122171715186774
 40
1.100901816524178
 40
1.735568033565688
 40
2.822621341115194
 40
4.728185465614624
 40
5.749676554837356
 40
6.293564968951868
 40
6.565621098622158
 40
7.723286374685844
 40
8.473455072159203
 40
9.428121285273487
 40
10.8562610167253
 40
10.8562610167253
 40
10.8562610167253
 40
10.8562610167253
 10
5119.704217695566
 20
-296.6689586524748
 30
0.0000000000563712
 10
5119.805263889573
 20
-296.644067258996
 30
0.0000000000563712
 10
5120.162293968337
 20
-296.5591495995685
 30
0.0000000000563712
 10
5120.724941792412
 20
-296.4247039873111
 30
0.0000000000563712
 10
5121.539462298228
 20
-296.2326355726435
 30
0.0000000000563712
 10
5122.719796292811
 20
-295.9707775992218
 30
0.0000000000563712
 10
5124.037640239547
 20
-295.7340864170113
 30
0.0000000000563712
 10
5125.188265373219
 20
-295.6083997574145
 30
0.0000000000563712
 10
5125.799150733725
 20
-295.5642950787955
 30
0.0000000000563712
 10
5126.455662407378
 20
-295.5219595991533
 30
0.0000000000563712
 10
5127.181170013529
 20
-295.4812544251389
 30
0.0000000000563712
 10
5128.132853969811
 20
-295.4121125730966
 30
0.0000000000563712
 10
5129.173376091238
 20
-295.3228490317405
 30
0.0000000000563712
 10
5129.963854867707
 20
-295.2452239642811
 30
0.0000000000563712
 10
5130.437866233387
 20
-295.2012650311266
 30
0.0000000000563712
  0
SPLINE
  5
B1AC
330
18
100
AcDbEntity
  8
01
100
AcDbSpline
210
0.0
220
0.0
230
1.0
 70
     8
 71
     3
 72
    16
 73
    12
 74
     0
 42
0.0000000001
 43
0.0000000001
 40
0.0
 40
0.0
 40
0.0
 40
0.0
 40
1.417089962835326
 40
2.34726709212549
 40
3.116883093618509
 40
4.269953328887024
 40
4.541254850286099
 40
5.08407028790684
 40
6.104048972976865
 40
7.867363129569481
 40
10.83336022222013
 40
10.83336022222013
 40
10.83336022222013
 40
10.83336022222013
 10
5130.45273016638
 20
-295.3586151885
 30
0.0000000000563712
 10
5129.982614041019
 20
-295.4045924133924
 30
0.0000000000563712
 10
5129.204207030572
 20
-295.4839678441689
 30
0.0000000000563712
 10
5128.169171665222
 20
-295.5744310606891
 30
0.0000000000563712
 10
5127.220769109712
 20
-295.6444176377662
 30
0.0000000000563712
 10
5126.490665591597
 20
-295.6869978429357
 30
0.0000000000563712
 10
5125.836346688955
 20
-295.7299979857938
 30
0.0000000000563712
 10
5125.226603616808
 20
-295.7746084232566
 30
0.0000000000563712
 10
5124.124143711895
 20
-295.8962833084878
 30
0.0000000000563712
 10
5122.236228836313
 20
-296.2318929298748
 30
0.0000000000563712
 10
5120.70303225912
 20
-296.6003622501588
 30
0.0000000000563712
 10
5119.738161618727
 20
-296.8157561041597
 30
0.0000000000563712
  0
SPLINE
  5
B1AD
330
18
100
AcDbEntity
  8
01
100
AcDbSpline
210
0.0
220
0.0
230
1.0
 70
     8
 71
     3
 72
    16
 73
    12
 74
     0
 42
0.0000000001
 43
0.0000000001
 40
0.0
 40
0.0
 40
0.0
 40
0.0
 40
1.198444638627392
 40
1.737083536635863
 40
2.860343276549654
 40
3.401193305954767
 40
4.346464935848573
 40
4.957065063118699
 40
5.642384639993491
 40
6.363672346938065
 40
7.168783493309048
 40
7.168783493309048
 40
7.168783493309048
 40
7.168783493309048
 10
5132.048462728815
 20
-302.2375756563137
 30
0.0000000000563712
 10
5131.995447596187
 20
-301.8416660548309
 30
0.0000000000563712
 10
5131.929293065516
 20
-301.2661665003997
 30
0.0000000000563712
 10
5131.860391795237
 20
-300.3152250833467
 30
0.0000000000563712
 10
5131.825308904326
 20
-299.5815572678242
 30
0.0000000000563712
 10
5131.755967057983
 20
-298.7148174799512
 30
0.0000000000563712
 10
5131.657150865524
 20
-298.0212982063621
 30
0.0000000000563712
 10
5131.448401141935
 20
-297.3024355561873
 30
0.0000000000563712
 10
5131.191127441019
 20
-296.6804444314197
 30
0.0000000000563712
 10
5130.85489850438
 20
-296.0238199828776
 30
0.0000000000563712
 10
5130.59451194766
 20
-295.5864575411437
 30
0.0000000000563712
 10
5130.45273016638
 20
-295.3586151885
 30
0.0000000000563712
  0
SPLINE
  5
B1AE
330
18
100
AcDbEntity
  8
01
100
AcDbSpline
210
0.0
220
0.0
230
1.0
 70
     8
 71
     3
 72
    20
 73
    16
 74
     0
 42
0.0000000001
 43
0.0000000001
 40
0.0
 40
0.0
 40
0.0
 40
0.0
 40
0.2976821408248144
 40
0.700888948699373
 40
1.515472589269975
 40
2.62206094595878
 40
3.540486658013098
 40
4.210719740476047
 40
6.054659330235449
 40
7.479345007834544
 40
8.654226433153923
 40
9.909394072574463
 40
11.32732323251191
 40
12.2299561536232
 40
13.3259564267214
 40
13.3259564267214
 40
13.3259564267214
 40
13.3259564267214
 10
5118.917989534777
 20
-302.356187995549
 30
0.0000000000563712
 10
5119.013224555772
 20
-302.3841380794796
 30
0.0000000000563712
 10
5119.239345666166
 20
-302.4428792605562
 30
0.0000000000563712
 10
5119.731659389743
 20
-302.556516639704
 30
0.0000000000563712
 10
5120.493494407741
 20
-302.698556268915
 30
0.0000000000563712
 10
5121.429389070173
 20
-302.8404459430125
 30
0.0000000000563712
 10
5122.318963584999
 20
-302.9661801034762
 30
0.0000000000563712
 10
5123.452854074965
 20
-303.1192727867332
 30
0.0000000000563712
 10
5124.757430046687
 20
-303.2704746388662
 30
0.0000000000563712
 10
5126.238447320347
 20
-303.3384357504914
 30
0.0000000000563712
 10
5127.523285859037
 20
-303.2705727505312
 30
0.0000000000563712
 10
5128.791827506477
 20
-303.0720256150756
 30
0.0000000000563712
 10
5129.954730657161
 20
-302.8095075771661
 30
0.0000000000563712
 10
5131.055867732209
 20
-302.5182439765425
 30
0.0000000000563712
 10
5131.697229333778
 20
-302.3381697190874
 30
0.0000000000563712
 10
5132.048462728815
 20
-302.2375756563137
 30
0.0000000000563712
  0
ARC
  5
B1AF
330
18
100
AcDbEntity
  8
01
100
AcDbCircle
 10
5130.455768621641
 20
-301.2332485389633
 30
0.0000000000563712
 40
11.59229654902123
100
AcDbArc
 50
157.5999378474799
 51
185.5589280775309
  0
ARC
  5
B1B0
330
18
100
AcDbEntity
  8
01
100
AcDbCircle
 10
5095.097051498309
 20
-281.9117608815176
 30
0.0000000000563712
 40
31.45050201830052
100
AcDbArc
 50
309.8554583515087
 51
319.1260148336268
  0
SPLINE
  5
B1B1
330
18
100
AcDbEntity
  8
01
100
AcDbSpline
210
0.0
220
0.0
230
1.0
 70
     8
 71
     3
 72
    18
 73
    14
 74
     0
 42
0.0000000001
 43
0.0000000001
 40
0.0
 40
0.0
 40
0.0
 40
0.0
 40
0.9806854698915166
 40
1.887225170913027
 40
3.399928867210261
 40
4.673874166542547
 40
5.82201567551695
 40
7.261107997430376
 40
9.15082494374163
 40
9.820033994158319
 40
10.73730695931894
 40
11.83187639466121
 40
13.42125365698182
 40
13.42125365698182
 40
13.42125365698182
 40
13.42125365698182
 10
5132.090196753756
 20
-302.3786371758237
 30
0.0000000000563712
 10
5131.77735898822
 20
-302.4734943295779
 30
0.0000000000563712
 10
5131.173904720737
 20
-302.6511908541892
 30
0.0000000000563712
 10
5130.08176028368
 20
-302.9541540671797
 30
0.0000000000563712
 10
5128.882759890193
 20
-303.2355798336165
 30
0.0000000000563712
 10
5127.586061413265
 20
-303.4410976015328
 30
0.0000000000563712
 10
5126.299275656945
 20
-303.5137457954996
 30
0.0000000000563712
 10
5124.807001066893
 20
-303.4475127380309
 30
0.0000000000563712
 10
5123.48277866864
 20
-303.2935239269667
 30
0.0000000000563712
 10
5122.335022800382
 20
-303.1350035195518
 30
0.0000000000563712
 10
5121.450523220305
 20
-303.0065091776213
 30
0.0000000000563712
 10
5120.264773820577
 20
-302.8204342630605
 30
0.0000000000563712
 10
5119.387230092561
 20
-302.6415910901177
 30
0.0000000000563712
 10
5118.878369756567
 20
-302.492892509846
 30
0.0000000000563712
  0
LINE
  5
B1B2
330
18
100
AcDbEntity
  8
01
100
AcDbLine
 10
5133.739724050869
 20
-303.7862359494401
 30
0.0000000000563712
 11
5132.090196753756
 21
-302.3786371758237
 31
0.0000000000563712
  0
LINE
  5
B1B3
330
18
100
AcDbEntity
  8
01
100
AcDbLine
 10
5133.585373877543
 20
-306.0422477260139
 30
0.0000000000563712
 11
5133.739724050869
 21
-303.7862359494401
 31
0.0000000000563712
  0
SPLINE
  5
B1B4
330
18
100
AcDbEntity
  8
01
100
AcDbSpline
210
0.0
220
0.0
230
1.0
 70
     8
 71
     3
 72
    20
 73
    16
 74
     0
 42
0.0000000001
 43
0.0000000001
 40
0.0
 40
0.0
 40
0.0
 40
0.0
 40
1.348833891227923
 40
3.489543562591383
 40
4.316167177623197
 40
5.515991972108842
 40
6.143870245336895
 40
6.850754933272247
 40
7.505269864581733
 40
8.786311565175868
 40
9.078630094061424
 40
9.247155138149656
 40
9.335215297691322
 40
9.357238584548115
 40
9.37193846557975
 40
9.37193846557975
 40
9.37193846557975
 40
9.37193846557975
 10
5108.963163178634
 20
-290.5132181690022
 30
0.0000000000563712
 10
5109.384643301001
 20
-290.6699582505574
 30
0.0000000000563712
 10
5110.493818218186
 20
-291.0224786340435
 30
0.0000000000563712
 10
5111.890198321627
 20
-291.3709720315195
 30
0.0000000000563712
 10
5113.225888662588
 20
-291.7522127135743
 30
0.0000000000563712
 10
5114.067792465045
 20
-292.0256447843479
 30
0.0000000000563712
 10
5114.85493496209
 20
-292.3332886915699
 30
0.0000000000563712
 10
5115.461163049649
 20
-292.6022544378087
 30
0.0000000000563712
 10
5116.254812010082
 20
-292.9844235493173
 30
0.0000000000563712
 10
5116.916662984344
 20
-293.3213174481874
 30
0.0000000000563712
 10
5117.437980827857
 20
-293.5769818483139
 30
0.0000000000563712
 10
5117.602711490061
 20
-293.6566105284081
 30
0.0000000000563712
 10
5117.686462477486
 20
-293.6967450134201
 30
0.0000000000563712
 10
5117.724093504587
 20
-293.7144624567385
 30
0.0000000000563712
 10
5117.735177605126
 20
-293.7196575337979
 30
0.0000000000563712
 10
5117.739366879847
 20
-293.7222269552334
 30
0.0000000000563712
  0
LINE
  5
B1B5
330
18
100
AcDbEntity
  8
01
100
AcDbLine
 10
5109.076646747945
 20
-284.040129035612
 30
0.0000000000563712
 11
5108.963163178634
 21
-290.5132181690022
 31
0.0000000000563712
  0
LINE
  5
B1B6
330
18
100
AcDbEntity
  8
01
100
AcDbLine
 10
5117.739366879847
 20
-293.7222269552334
 30
0.0000000000563712
 11
5124.140405656408
 21
-284.0311540867714
 31
0.0000000000563712
  0
LINE
  5
B1B7
330
18
100
AcDbEntity
  8
01
100
AcDbLine
 10
5132.239578117224
 20
-302.2144921317371
 30
0.0000000000563712
 11
5133.869417700682
 21
-303.6267013764085
 31
0.0000000000563712
  0
SPLINE
  5
B1B8
330
18
100
AcDbEntity
  8
01
100
AcDbSpline
210
0.0
220
0.0
230
1.0
 70
     8
 71
     3
 72
    17
 73
    13
 74
     0
 42
0.0000000001
 43
0.0000000001
 40
0.0
 40
0.0
 40
0.0
 40
0.0
 40
0.9031997341764316
 40
1.631782571545864
 40
2.279728412947297
 40
2.898659270802139
 40
3.991704479763759
 40
4.44397480211505
 40
5.533449119943238
 40
6.079220433854715
 40
6.604546427822842
 40
7.244816087841948
 40
7.244816087841948
 40
7.244816087841948
 40
7.244816087841948
 10
5130.599958344234
 20
-295.2670952402299
 30
0.0000000000563712
 10
5130.759919978316
 20
-295.5221332878795
 30
0.0000000000563712
 10
5131.038022839826
 20
-295.9899298003605
 30
0.0000000000563712
 10
5131.378335916889
 20
-296.6700370990919
 30
0.0000000000563712
 10
5131.626933769366
 20
-297.2875750193115
 30
0.0000000000563712
 10
5131.845166053882
 20
-298.0449295560251
 30
0.0000000000563712
 10
5131.944706962287
 20
-298.7612125736972
 30
0.0000000000563712
 10
5132.018822183789
 20
-299.6360097711039
 30
0.0000000000563712
 10
5132.055884966849
 20
-300.3311487533769
 30
0.0000000000563712
 10
5132.111231136027
 20
-301.0491340586808
 30
0.0000000000563712
 10
5132.166266128916
 20
-301.617018097921
 30
0.0000000000563712
 10
5132.21323312478
 20
-302.0026952529223
 30
0.0000000000563712
 10
5132.239578117224
 20
-302.2144921317371
 30
0.0000000000563712
  0
ARC
  5
B1B9
330
18
100
AcDbEntity
  8
01
100
AcDbCircle
 10
5136.508586481912
 20
-297.0383391121467
 30
0.0000000000563712
 40
6.168402655725904
100
AcDbArc
 50
120.4782401219559
 51
163.3127182092772
  0
ARC
  5
B1BA
330
18
100
AcDbEntity
  8
01
100
AcDbCircle
 10
5130.308739104978
 20
-319.5414900941981
 30
0.0000000000563712
 40
27.98822589052011
100
AcDbArc
 50
74.30208975563008
 51
83.70021332789939
  0
SPLINE
  5
B1BB
330
18
100
AcDbEntity
  8
01
100
AcDbSpline
210
0.0
220
0.0
230
1.0
 70
     8
 71
     3
 72
    15
 73
    11
 74
     0
 42
0.0000000001
 43
0.0000000001
 40
0.0
 40
0.0
 40
0.0
 40
0.0
 40
1.211136985611487
 40
2.095330110229412
 40
2.899846473568921
 40
4.183009506601439
 40
4.770411788029775
 40
5.745662074089526
 40
7.081596152101139
 40
8.844851690112428
 40
8.844851690112428
 40
8.844851690112428
 40
8.844851690112428
 10
5142.183736165241
 20
-300.3131428047021
 30
0.0000000000563712
 10
5141.988837565139
 20
-299.9595916364891
 30
0.0000000000563712
 10
5141.651227520162
 20
-299.3481559713977
 30
0.0000000000563712
 10
5141.198318379932
 20
-298.4941529244433
 30
0.0000000000563712
 10
5140.751315130482
 20
-297.6100773031079
 30
0.0000000000563712
 10
5140.366380915937
 20
-296.8056681367906
 30
0.0000000000563712
 10
5139.944997469546
 20
-295.9558489037971
 30
0.0000000000563712
 10
5139.497605930532
 20
-295.0991452682268
 30
0.0000000000563712
 10
5138.796844334591
 20
-293.9349595844309
 30
0.0000000000563712
 10
5138.216224671958
 20
-293.0801976536508
 30
0.0000000000563712
 10
5137.881382775102
 20
-292.59717981644
 30
0.0000000000563712
  0
SPLINE
  5
B1BC
330
18
100
AcDbEntity
  8
01
100
AcDbSpline
210
0.0
220
0.0
230
1.0
 70
     8
 71
     3
 72
    15
 73
    11
 74
     0
 42
0.0000000001
 43
0.0000000001
 40
0.0
 40
0.0
 40
0.0
 40
0.0
 40
1.066828613780857
 40
2.367236024549167
 40
3.825107071599143
 40
5.065476733633743
 40
5.86655800061004
 40
6.728740946230806
 40
7.76341463843926
 40
9.135513444173228
 40
9.135513444173228
 40
9.135513444173228
 40
9.135513444173228
 10
5133.869417700682
 20
-303.6267013764085
 30
0.0000000000563712
 10
5134.224996535539
 20
-303.6161388424315
 30
0.0000000000563712
 10
5135.011073933981
 20
-303.5365018000952
 30
0.0000000000563712
 10
5136.264014333015
 20
-303.2956206456655
 30
0.0000000000563712
 10
5137.556532093498
 20
-302.9685059339898
 30
0.0000000000563712
 10
5138.666825053491
 20
-302.607259612107
 30
0.0000000000563712
 10
5139.552383638136
 20
-302.212763888799
 30
0.0000000000563712
 10
5140.32425839294
 20
-301.7484788181031
 30
0.0000000000563712
 10
5141.206626778549
 20
-301.1083902429931
 30
0.0000000000563712
 10
5141.829953927634
 20
-300.6029311115157
 30
0.0000000000563712
 10
5142.183736165241
 20
-300.3131428047021
 30
0.0000000000563712
  0
SPLINE
  5
B1BD
330
18
100
AcDbEntity
  8
01
100
AcDbSpline
210
0.0
220
0.0
230
1.0
 70
     8
 71
     3
 72
    15
 73
    11
 74
     0
 42
0.0000000001
 43
0.0000000001
 40
0.0
 40
0.0
 40
0.0
 40
0.0
 40
1.108136412826906
 40
3.259286760115027
 40
4.041455717064399
 40
4.956263224016054
 40
5.808186615888613
 40
6.790520349623749
 40
7.842046227559993
 40
10.45842959952887
 40
10.45842959952887
 40
10.45842959952887
 40
10.45842959952887
 10
5137.936357853705
 20
-292.3967282409257
 30
0.0000000000563712
 10
5138.185072270698
 20
-292.1236750514594
 30
0.0000000000563712
 10
5138.911484442161
 20
-291.3155651903966
 30
0.0000000000563712
 10
5139.774402804744
 20
-290.2808407818919
 30
0.0000000000563712
 10
5140.624175801952
 20
-289.3198161329773
 30
0.0000000000563712
 10
5141.213675362006
 20
-288.7076564684752
 30
0.0000000000563712
 10
5141.89031138613
 20
-288.0884546447454
 30
0.0000000000563712
 10
5142.659126533902
 20
-287.5086636444729
 30
0.0000000000563712
 10
5143.971181492726
 20
-286.6808152141201
 30
0.0000000000563712
 10
5145.074984512805
 20
-286.1485124264744
 30
0.0000000000563712
 10
5145.871469672564
 20
-285.7943882009653
 30
0.0000000000563712
  0
ARC
  5
B1BE
330
18
100
AcDbEntity
  8
01
100
AcDbCircle
 10
5130.514278619414
 20
-319.520019092441
 30
0.0000000000563712
 40
28.1204581537354
100
AcDbArc
 50
74.69609591504819
 51
84.12261363496593
  0
SPLINE
  5
B1BF
330
18
100
AcDbEntity
  8
01
100
AcDbSpline
210
0.0
220
0.0
230
1.0
 70
     8
 71
     3
 72
    15
 73
    11
 74
     0
 42
0.0000000001
 43
0.0000000001
 40
0.0
 40
0.0
 40
0.0
 40
0.0
 40
0.9704088001343228
 40
1.759094347827955
 40
2.545875191263312
 40
4.832920004603644
 40
6.152817090091498
 40
6.869301740890021
 40
7.729232343803551
 40
9.648140505234002
 40
9.648140505234002
 40
9.648140505234002
 40
9.648140505234002
 10
5127.45138657706
 20
-284.0212564995226
 30
0.0000000000563712
 10
5127.658331553749
 20
-284.2698705552283
 30
0.0000000000563712
 10
5128.036641070032
 20
-284.7178947142005
 30
0.0000000000563712
 10
5128.600792242416
 20
-285.3520073046769
 30
0.0000000000563712
 10
5129.488771806241
 20
-286.2844873489506
 30
0.0000000000563712
 10
5130.545153841252
 20
-287.2997963549627
 30
0.0000000000563712
 10
5131.502809662748
 20
-288.3787723624999
 30
0.0000000000563712
 10
5132.073632762814
 20
-289.1583437752541
 30
0.0000000000563712
 10
5132.694231243871
 20
-290.1452865685886
 30
0.0000000000563712
 10
5133.111308026751
 20
-290.9738236864586
 30
0.0000000000563712
 10
5133.393811765884
 20
-291.547381468606
 30
0.0000000000563712
  0
LINE
  5
B1C0
330
18
100
AcDbEntity
  8
01
100
AcDbLine
 10
5145.871469672564
 20
-285.7943882009653
 30
0.0000000000563712
 11
5146.3625067565
 21
-283.98864492465
 31
0.0000000000563712
  0
SPLINE
  5
B1C1
330
18
100
AcDbEntity
  8
01
100
AcDbSpline
210
0.0
220
0.0
230
1.0
 70
     8
 71
     3
 72
    19
 73
    15
 74
     0
 42
0.0000000001
 43
0.0000000001
 40
0.0
 40
0.0
 40
0.0
 40
0.0
 40
1.334703560521507
 40
2.971902633294737
 40
3.641357794707628
 40
5.543818934769861
 40
7.351626090811576
 40
8.109106928937424
 40
8.972431231690877
 40
9.738651909330095
 40
10.89279949943013
 40
12.15316639329938
 40
13.5431546207344
 40
15.32698273016586
 40
15.32698273016586
 40
15.32698273016586
 40
15.32698273016586
 10
5158.522069724057
 20
-303.8354821407441
 30
0.0000000000563712
 10
5158.962760192597
 20
-303.8963506629101
 30
0.0000000000563712
 10
5159.949185135963
 20
-303.99515518949
 30
0.0000000000563712
 10
5161.162935535923
 20
-304.0309905530315
 30
0.0000000000563712
 10
5162.565840834754
 20
-304.042102672105
 30
0.0000000000563712
 10
5164.025868114569
 20
-304.0342943692198
 30
0.0000000000563712
 10
5165.514903009759
 20
-304.0629141704998
 30
0.0000000000563712
 10
5166.657772691153
 20
-304.0678538768155
 30
0.0000000000563712
 10
5167.453380667065
 20
-304.0451559760344
 30
0.0000000000563712
 10
5168.378295280357
 20
-303.9648016411492
 30
0.0000000000563712
 10
5169.421836875685
 20
-303.7641436361695
 30
0.0000000000563712
 10
5170.624797863892
 20
-303.3530888340005
 30
0.0000000000563712
 10
5171.95515697601
 20
-302.7047943078736
 30
0.0000000000563712
 10
5172.864953815595
 20
-302.1637779565393
 30
0.0000000000563712
 10
5173.370477860522
 20
-301.8507973375139
 30
0.0000000000563712
  0
ARC
  5
B1C2
330
18
100
AcDbEntity
  8
01
100
AcDbCircle
 10
5093.932899342411
 20
-339.538065840702
 30
0.0000000000563712
 40
73.79996892575038
100
AcDbArc
 50
28.93224818939222
 51
34.82934406019759
  0
LINE
  5
B1C3
330
18
100
AcDbEntity
  8
01
100
AcDbLine
 10
5154.811601579115
 20
-295.4763626845009
 30
0.0000000000563712
 11
5154.512106430158
 21
-297.3883910844041
 31
0.0000000000563712
  0
SPLINE
  5
B1C4
330
18
100
AcDbEntity
  8
01
100
AcDbSpline
210
0.0
220
0.0
230
1.0
 70
     8
 71
     3
 72
    16
 73
    12
 74
     0
 42
0.0000000001
 43
0.0000000001
 40
0.0
 40
0.0
 40
0.0
 40
0.0
 40
0.6664846462214107
 40
1.293680861357652
 40
1.902885415942083
 40
3.488548328909028
 40
4.530070588591226
 40
5.433717838640505
 40
6.882358064797643
 40
7.360997975664743
 40
8.041984495890482
 40
8.041984495890482
 40
8.041984495890482
 40
8.041984495890482
 10
5161.314634173953
 20
-290.7498664430144
 30
0.0000000000563712
 10
5161.144150551354
 20
-290.8922908284748
 30
0.0000000000563712
 10
5160.808953959146
 20
-291.1637732276785
 30
0.0000000000563712
 10
5160.298135196475
 20
-291.5400374720078
 30
0.0000000000563712
 10
5159.523363674449
 20
-292.0735776743417
 30
0.0000000000563712
 10
5158.618673911345
 20
-292.6616100065647
 30
0.0000000000563712
 10
5157.659428233686
 20
-293.3438787441449
 30
0.0000000000563712
 10
5156.750507365147
 20
-294.0173772656775
 30
0.0000000000563712
 10
5156.002204025145
 20
-294.5923750481737
 30
0.0000000000563712
 10
5155.307891240405
 20
-295.1156196725591
 30
0.0000000000563712
 10
5154.996864630333
 20
-295.3451900312506
 30
0.0000000000563712
 10
5154.811601579115
 20
-295.4763626845009
 30
0.0000000000563712
  0
SPLINE
  5
B1C5
330
18
100
AcDbEntity
  8
01
100
AcDbSpline
210
0.0
220
0.0
230
1.0
 70
     8
 71
     3
 72
    16
 73
    12
 74
     0
 42
0.0000000001
 43
0.0000000001
 40
0.0
 40
0.0
 40
0.0
 40
0.0
 40
0.8584642083792764
 40
2.231776625286787
 40
2.80353952788754
 40
3.523349645524182
 40
4.473173903318036
 40
5.385095387082098
 40
7.870956177943665
 40
9.558871956822598
 40
11.22203093729102
 40
11.22203093729102
 40
11.22203093729102
 40
11.22203093729102
 10
5171.839670343374
 20
-294.2423645040916
 30
0.0000000000563712
 10
5171.557424018167
 20
-294.1951704757711
 30
0.0000000000563712
 10
5170.821165037736
 20
-294.0879910552861
 30
0.0000000000563712
 10
5169.892176322566
 20
-293.98526386641
 30
0.0000000000563712
 10
5169.011177750407
 20
-293.8721370720367
 30
0.0000000000563712
 10
5168.272090471172
 20
-293.761362397794
 30
0.0000000000563712
 10
5167.428735353745
 20
-293.5883887693079
 30
0.0000000000563712
 10
5166.037133863296
 20
-293.1772894816012
 30
0.0000000000563712
 10
5164.478635306106
 20
-292.5008967030438
 30
0.0000000000563712
 10
5162.756649244516
 20
-291.595760492164
 30
0.0000000000563712
 10
5161.78860292267
 20
-291.0372023671069
 30
0.0000000000563712
 10
5161.314634173953
 20
-290.7498664430144
 30
0.0000000000563712
  0
LINE
  5
B1C6
330
18
100
AcDbEntity
  8
01
100
AcDbLine
 10
5173.370477860522
 20
-301.8507973375139
 30
0.0000000000563712
 11
5171.839670343374
 21
-294.2423645040916
 31
0.0000000000563712
  0
SPLINE
  5
B1C7
330
18
100
AcDbEntity
  8
01
100
AcDbSpline
210
0.0
220
0.0
230
1.0
 70
     8
 71
     3
 72
    15
 73
    11
 74
     0
 42
0.0000000001
 43
0.0000000001
 40
0.0
 40
0.0
 40
0.0
 40
0.0
 40
0.794049664230561
 40
2.210082347040324
 40
2.714948261765672
 40
3.508284416744415
 40
4.608576026698273
 40
6.731747820568686
 40
7.418258108455808
 40
8.03271415765208
 40
8.03271415765208
 40
8.03271415765208
 40
8.03271415765208
 10
5154.740992706709
 20
-295.3783739973968
 30
0.0000000000563712
 10
5154.955143317651
 20
-295.2228167741486
 30
0.0000000000563712
 10
5155.544904734727
 20
-294.7812763095311
 30
0.0000000000563712
 10
5156.259855075892
 20
-294.2264280230337
 30
0.0000000000563712
 10
5156.98004517166
 20
-293.6787727566601
 30
0.0000000000563712
 10
5157.622058756508
 20
-293.2023185607135
 30
0.0000000000563712
 10
5158.713353106257
 20
-292.4262113879566
 30
0.0000000000563712
 10
5159.813784524848
 20
-291.7266087084225
 30
0.0000000000563712
 10
5160.735960858878
 20
-291.0533130185171
 30
0.0000000000563712
 10
5161.074306855894
 20
-290.7820108088416
 30
0.0000000000563712
 10
5161.231713848079
 20
-290.6509281129055
 30
0.0000000000563712
  0
SPLINE
  5
B1C8
330
18
100
AcDbEntity
  8
01
100
AcDbSpline
210
0.0
220
0.0
230
1.0
 70
     8
 71
     3
 72
    18
 73
    14
 74
     0
 42
0.0000000001
 43
0.0000000001
 40
0.0
 40
0.0
 40
0.0
 40
0.0
 40
0.9518010762303586
 40
3.054422170480245
 40
4.352177272045505
 40
5.730162884751946
 40
6.378705849139727
 40
7.504591442513872
 40
7.997709013605998
 40
9.1453100429847
 40
10.60781964767576
 40
11.25492863259537
 40
12.94250724417128
 40
12.94250724417128
 40
12.94250724417128
 40
12.94250724417128
 10
5146.014026318818
 20
-285.8286441765966
 30
0.0000000000563712
 10
5146.230857844608
 20
-286.0602557334536
 30
0.0000000000563712
 10
5146.934019132913
 20
-286.7966086223331
 30
0.0000000000563712
 10
5147.949761226951
 20
-287.8324557667783
 30
0.0000000000563712
 10
5149.041022882429
 20
-288.9928436659956
 30
0.0000000000563712
 10
5149.775593387703
 20
-289.8226863475514
 30
0.0000000000563712
 10
5150.449979115809
 20
-290.6286133503321
 30
0.0000000000563712
 10
5150.923014487953
 20
-291.2181828219785
 30
0.0000000000563712
 10
5151.51141357678
 20
-291.9282979548442
 30
0.0000000000563712
 10
5152.189683112279
 20
-292.7094864912523
 30
0.0000000000563712
 10
5152.928212025883
 20
-293.5055269199046
 30
0.0000000000563712
 10
5153.805199077085
 20
-294.4182021505879
 30
0.0000000000563712
 10
5154.351166876089
 20
-294.9728205974092
 30
0.0000000000563712
 10
5154.740992706709
 20
-295.3783739973968
 30
0.0000000000563712
  0
LINE
  5
B1C9
330
18
100
AcDbEntity
  8
01
100
AcDbLine
 10
5146.503568897519
 20
-284.0324592325095
 30
0.0000000000563712
 11
5146.014026318818
 21
-285.8286441765966
 31
0.0000000000563712
  0
ARC
  5
B1CA
330
18
100
AcDbEntity
  8
01
100
AcDbCircle
 10
5216.705841918249
 20
-280.9875256251543
 30
0.0000000000563712
 40
56.30950392949638
100
AcDbArc
 50
183.1154704710752
 51
189.8815738007598
  0
ARC
  5
B1CB
330
18
100
AcDbEntity
  8
01
100
AcDbCircle
 10
5132.720676485735
 20
-294.020251645344
 30
0.0000000000563712
 40
42.26075686912264
100
AcDbArc
 50
5.811152247225849
 51
13.65803785253664
  0
LINE
  5
B1CC
330
18
100
AcDbEntity
  8
01
100
AcDbLine
 10
5171.860963116629
 20
-294.1149759895533
 30
0.0000000000563712
 11
5174.764256172139
 21
-289.7413524523153
 31
0.0000000000563712
  0
SPLINE
  5
B1CD
330
18
100
AcDbEntity
  8
01
100
AcDbSpline
210
0.0
220
0.0
230
1.0
 70
     8
 71
     3
 72
    16
 73
    12
 74
     0
 42
0.0000000001
 43
0.0000000001
 40
0.0
 40
0.0
 40
0.0
 40
0.0
 40
1.674582575692176
 40
3.285465855385608
 40
4.609034692695894
 40
5.809042907555463
 40
6.716504470448361
 40
7.595154806284473
 40
8.310895398488466
 40
10.26952371150078
 40
11.17028264544782
 40
11.17028264544782
 40
11.17028264544782
 40
11.17028264544782
 10
5161.382565507844
 20
-290.6367510466442
 30
0.0000000000563712
 10
5161.860870950093
 20
-290.9245549467672
 30
0.0000000000563712
 10
5162.810879199847
 20
-291.469708130949
 30
0.0000000000563712
 10
5164.172177910617
 20
-292.1827253645564
 30
0.0000000000563712
 10
5165.424084966038
 20
-292.760272464522
 30
0.0000000000563712
 10
5166.493275658383
 20
-293.1685620828661
 30
0.0000000000563712
 10
5167.448496480796
 20
-293.4512408243621
 30
0.0000000000563712
 10
5168.265539666785
 20
-293.6212577775945
 30
0.0000000000563712
 10
5169.436494863683
 20
-293.8000035796994
 30
0.0000000000563712
 10
5170.622056860496
 20
-293.924589833295
 30
0.0000000000563712
 10
5171.565044252062
 20
-294.064033781617
 30
0.0000000000563712
 10
5171.860963116629
 20
-294.1149759895533
 30
0.0000000000563712
  0
ARC
  5
B1CE
330
18
100
AcDbEntity
  8
01
100
AcDbCircle
 10
5220.08841699314
 20
-280.6859010122051
 30
0.0000000000563712
 40
59.54323147950219
100
AcDbArc
 50
183.2295905605169
 51
189.6203973286611
  0
LINE
  5
B1CF
330
18
100
AcDbEntity
  8
01
100
AcDbLine
 10
5171.998780709665
 20
-294.2092901556788
 30
0.0000000000563712
 11
5173.505824138321
 21
-301.8247705761113
 31
0.0000000000563712
  0
LINE
  5
B1D0
330
18
100
AcDbEntity
  8
01
100
AcDbLine
 10
5174.910783624097
 20
-289.8326438953462
 30
0.0000000000563712
 11
5171.998780709665
 21
-294.2092901556788
 31
0.0000000000563712
  0
SPLINE
  5
B1D1
330
18
100
AcDbEntity
  8
01
100
AcDbSpline
210
0.0
220
0.0
230
1.0
 70
     8
 71
     3
 72
    19
 73
    15
 74
     0
 42
0.0000000001
 43
0.0000000001
 40
0.0
 40
0.0
 40
0.0
 40
0.0
 40
0.6047299765782439
 40
1.296645099923869
 40
2.084340141937877
 40
3.492070330814028
 40
4.028210963936072
 40
4.890213882492998
 40
8.569877961474884
 40
9.969194072659121
 40
10.85089278817711
 40
11.623276637569
 40
12.49425909797933
 40
13.94118191658709
 40
13.94118191658709
 40
13.94118191658709
 40
13.94118191658709
 10
5188.786320121753
 20
-289.0415128958692
 30
0.0000000000563712
 10
5188.591145561303
 20
-289.0919790981296
 30
0.0000000000563712
 10
5188.167816037105
 20
-289.1808988890988
 30
0.0000000000563712
 10
5187.478121570469
 20
-289.2690113886846
 30
0.0000000000563712
 10
5186.517526731576
 20
-289.3315300580442
 30
0.0000000000563712
 10
5185.606988266236
 20
-289.3525895067568
 30
0.0000000000563712
 10
5184.672876295255
 20
-289.3954724286513
 30
0.0000000000563712
 10
5182.98369294472
 20
-289.5166512557461
 30
0.0000000000563712
 10
5181.025763943011
 20
-289.826510781393
 30
0.0000000000563712
 10
5179.046968796513
 20
-290.0095287890957
 30
0.0000000000563712
 10
5178.029220274877
 20
-290.0447845774255
 30
0.0000000000563712
 10
5177.187484528263
 20
-290.0281954499936
 30
0.0000000000563712
 10
5176.159614339031
 20
-289.956313956627
 30
0.0000000000563712
 10
5175.391266847295
 20
-289.8747870405836
 30
0.0000000000563712
 10
5174.910783624097
 20
-289.8326438953462
 30
0.0000000000563712
  0
ARC
  5
B1D2
330
18
100
AcDbEntity
  8
01
100
AcDbCircle
 10
5226.094924868547
 20
-266.2127253329289
 30
0.0000000000563712
 40
43.73883320055916
100
AcDbArc
 50
211.4620752417029
 51
215.8941242666398
  0
ARC
  5
B1D3
330
18
100
AcDbEntity
  8
01
100
AcDbCircle
 10
5222.779877229119
 20
-299.5001348904187
 30
0.0000000000563712
 40
33.01491360435282
100
AcDbArc
 50
166.6130883154043
 51
179.633145511862
  0
ARC
  5
B1D4
330
18
100
AcDbEntity
  8
01
100
AcDbCircle
 10
5257.431050066572
 20
-348.2982894423225
 30
0.0000000000563712
 40
83.54964296418242
100
AcDbArc
 50
144.0844716257151
 51
148.6463845535822
  0
SPLINE
  5
B1D5
330
18
100
AcDbEntity
  8
01
100
AcDbSpline
210
0.0
220
0.0
230
1.0
 70
     8
 71
     3
 72
    19
 73
    15
 74
     0
 42
0.0000000001
 43
0.0000000001
 40
0.0
 40
0.0
 40
0.0
 40
0.0
 40
0.4516439984744719
 40
1.121860351464324
 40
2.246675948619706
 40
2.608821733597949
 40
3.857156362699253
 40
5.702875282400896
 40
6.638384121444965
 40
8.311725058925465
 40
9.315969116235062
 40
10.17356765646667
 40
10.87427514130646
 40
11.50143550045233
 40
11.50143550045233
 40
11.50143550045233
 40
11.50143550045233
 10
5174.721619539387
 20
-303.6541855808827
 30
0.0000000000563712
 10
5174.872120096155
 20
-303.6502787666781
 30
0.0000000000563712
 10
5175.245924853965
 20
-303.6399771765449
 30
0.0000000000563712
 10
5175.994918522218
 20
-303.6366034802671
 30
0.0000000000563712
 10
5176.713730511482
 20
-303.6592162209703
 30
0.0000000000563712
 10
5177.624406090823
 20
-303.7038452236833
 30
0.0000000000563712
 10
5178.774936703454
 20
-303.7630348516894
 30
0.0000000000563712
 10
5180.116624421509
 20
-303.8271605472204
 30
0.0000000000563712
 10
5181.599456843775
 20
-303.9037147665716
 30
0.0000000000563712
 10
5182.801306463999
 20
-303.9854256354678
 30
0.0000000000563712
 10
5183.971422756826
 20
-304.1297547419289
 30
0.0000000000563712
 10
5184.809237091122
 20
-304.3004991976671
 30
0.0000000000563712
 10
5185.505192929097
 20
-304.5203948448055
 30
0.0000000000563712
 10
5185.903868623016
 20
-304.7163899609844
 30
0.0000000000563712
 10
5186.081968653643
 20
-304.8258680584871
 30
0.0000000000563712
  0
LINE
  5
B1D6
330
18
100
AcDbEntity
  8
01
100
AcDbLine
 10
5173.505824138321
 20
-301.8247705761113
 30
0.0000000000563712
 11
5174.721619539387
 21
-303.6541855808827
 31
0.0000000000563712
  0
ARC
  5
B1D7
330
18
100
AcDbEntity
  8
01
100
AcDbCircle
 10
5233.141208577063
 20
-285.7155997145954
 30
0.0000000000563712
 40
44.49299956789949
100
AcDbArc
 50
177.8247821077794
 51
184.189488064962
  0
SPLINE
  5
B1D8
330
18
100
AcDbEntity
  8
01
100
AcDbSpline
210
0.0
220
0.0
230
1.0
 70
     8
 71
     3
 72
    19
 73
    15
 74
     0
 42
0.0000000001
 43
0.0000000001
 40
0.0
 40
0.0
 40
0.0
 40
0.0
 40
1.576324309532398
 40
2.352492716559981
 40
3.121312218141782
 40
4.004474289010369
 40
5.224578661494962
 40
7.924735143762756
 40
9.062597330201804
 40
9.9187162913937
 40
10.44576751553783
 40
11.82975942958934
 40
12.60754256034361
 40
13.90752924722446
 40
13.90752924722446
 40
13.90752924722446
 40
13.90752924722446
 10
5174.920554342587
 20
-289.7161425017538
 30
0.0000000000563712
 10
5175.444168693337
 20
-289.7599942323053
 30
0.0000000000563712
 10
5176.224160280621
 20
-289.8417518464515
 30
0.0000000000563712
 10
5177.262576743147
 20
-289.91007734218
 30
0.0000000000563712
 10
5178.072147502584
 20
-289.9225854830678
 30
0.0000000000563712
 10
5179.029174956602
 20
-289.8873953975252
 30
0.0000000000563712
 10
5180.624553436386
 20
-289.7457116299623
 30
0.0000000000563712
 10
5182.294272139236
 20
-289.508411490999
 30
0.0000000000563712
 10
5183.850814328898
 20
-289.3469591664378
 30
0.0000000000563712
 10
5184.689591428722
 20
-289.2928280148611
 30
0.0000000000563712
 10
5185.611207224565
 20
-289.2558181115986
 30
0.0000000000563712
 10
5186.507511840849
 20
-289.2395323399109
 30
0.0000000000563712
 10
5187.659642316816
 20
-289.1724442609001
 30
0.0000000000563712
 10
5188.346626745913
 20
-289.0722913553071
 30
0.0000000000563712
 10
5188.767098873623
 20
-288.9660456187934
 30
0.0000000000563712
  0
ARC
  5
B1D9
330
18
100
AcDbEntity
  8
01
100
AcDbCircle
 10
5134.363925682414
 20
-293.7105909968139
 30
0.0000000000563712
 40
40.75286182661115
100
AcDbArc
 50
5.624956937812235
 51
13.78046844523117
  0
SPLINE
  5
B1DA
330
18
100
AcDbEntity
  8
01
100
AcDbSpline
210
0.0
220
0.0
230
1.0
 70
     8
 71
     3
 72
    19
 73
    15
 74
     0
 42
0.0000000001
 43
0.0000000001
 40
0.0
 40
0.0
 40
0.0
 40
0.0
 40
0.5331832261065783
 40
1.070881497344572
 40
2.32054699752046
 40
3.343519115199125
 40
5.074458417347872
 40
5.70422980837129
 40
6.728816664553146
 40
7.833422422500137
 40
9.33119747687432
 40
9.88762811712837
 40
10.66438194185357
 40
12.54922783040878
 40
12.54922783040878
 40
12.54922783040878
 40
12.54922783040878
 10
5190.777074478458
 20
-291.7750437100025
 30
0.0000000000563712
 10
5190.945521453132
 20
-291.7183041745424
 30
0.0000000000563712
 10
5191.286470807403
 20
-291.6124544756516
 30
0.0000000000563712
 10
5192.034525199142
 20
-291.4146573409288
 30
0.0000000000563712
 10
5192.953590573463
 20
-291.230567858673
 30
0.0000000000563712
 10
5194.273356824349
 20
-291.0318622112103
 30
0.0000000000563712
 10
5195.392682724401
 20
-290.8925168515583
 30
0.0000000000563712
 10
5196.510378496825
 20
-290.7372606084872
 30
0.0000000000563712
 10
5197.419401933618
 20
-290.5973068693769
 30
0.0000000000563712
 10
5198.607504193175
 20
-290.3721912164705
 30
0.0000000000563712
 10
5199.632790432779
 20
-290.1316025044038
 30
0.0000000000563712
 10
5200.555733924783
 20
-289.9351599546311
 30
0.0000000000563712
 10
5201.611068181448
 20
-289.741221808218
 30
0.0000000000563712
 10
5202.495667997282
 20
-289.6556930436453
 30
0.0000000000563712
 10
5203.123252654347
 20
-289.6276701362025
 30
0.0000000000563712
  0
LINE
  5
B1DB
330
18
100
AcDbEntity
  8
01
100
AcDbLine
 10
5188.921021914866
 20
-288.9605525707938
 30
0.0000000000563712
 11
5190.777074478458
 21
-291.7750437100025
 31
0.0000000000563712
  0
ARC
  5
B1DC
330
18
100
AcDbEntity
  8
01
100
AcDbCircle
 10
5237.899365584344
 20
-285.710230057888
 30
0.0000000000563712
 40
49.08607485879583
100
AcDbArc
 50
178.0414512504713
 51
183.7967208478606
  0
ARC
  5
B1DD
330
18
100
AcDbEntity
  8
01
100
AcDbCircle
 10
5261.456369936472
 20
-351.301297269882
 30
0.0000000000563712
 40
88.39415260702694
100
AcDbArc
 50
144.0388992017834
 51
148.3384568263167
  0
SPLINE
  5
B1DE
330
18
100
AcDbEntity
  8
01
100
AcDbSpline
210
0.0
220
0.0
230
1.0
 70
     8
 71
     3
 72
    18
 73
    14
 74
     0
 42
0.0000000001
 43
0.0000000001
 40
0.0
 40
0.0
 40
0.0
 40
0.0
 40
1.344234457313713
 40
3.62860908289082
 40
4.653214938388488
 40
6.621937864219534
 40
7.310889390437673
 40
8.065114990225231
 40
8.67022288782545
 40
10.30307753364179
 40
11.41767739170779
 40
12.35382703201012
 40
13.6233329801431
 40
13.6233329801431
 40
13.6233329801431
 40
13.6233329801431
 10
5203.110570581399
 20
-302.5455128002053
 30
0.0000000000563712
 10
5202.667794426752
 20
-302.4766892832571
 30
0.0000000000563712
 10
5201.471100138479
 20
-302.3008798419918
 30
0.0000000000563712
 10
5199.931018357331
 20
-302.1145238791654
 30
0.0000000000563712
 10
5198.188972062177
 20
-301.8704628888703
 30
0.0000000000563712
 10
5196.979598985006
 20
-301.6547313060122
 30
0.0000000000563712
 10
5195.878507301581
 20
-301.3676895408393
 30
0.0000000000563712
 10
5195.227428663124
 20
-301.1616539078663
 30
0.0000000000563712
 10
5194.288248760397
 20
-300.8256634477879
 30
0.0000000000563712
 10
5193.246394274582
 20
-300.4210221755519
 30
0.0000000000563712
 10
5192.083899988016
 20
-300.0248378557852
 30
0.0000000000563712
 10
5191.025556079432
 20
-299.700955255107
 30
0.0000000000563712
 10
5190.316310265041
 20
-299.5067912533663
 30
0.0000000000563712
 10
5189.908740305585
 20
-299.3930810674755
 30
0.0000000000563712
  0
LINE
  5
B1DF
330
18
100
AcDbEntity
  8
01
100
AcDbLine
 10
5186.218483600355
 20
-304.9031650360515
 30
0.0000000000563712
 11
5186.05640304034
 21
-306.017004174198
 31
0.0000000000563712
  0
SPLINE
  5
B1E0
330
18
100
AcDbEntity
  8
01
100
AcDbSpline
210
0.0
220
0.0
230
1.0
 70
     8
 71
     3
 72
    18
 73
    14
 74
     0
 42
0.0000000001
 43
0.0000000001
 40
0.0
 40
0.0
 40
0.0
 40
0.0
 40
1.258640193013973
 40
2.195701699817956
 40
3.308701013008894
 40
4.939632007688568
 40
5.633153178839116
 40
6.301933359272644
 40
6.994502701441889
 40
8.87374705981822
 40
9.812595992591277
 40
12.20712965551011
 40
13.61048151440808
 40
13.61048151440808
 40
13.61048151440808
 40
13.61048151440808
 10
5189.934615999248
 20
-299.2994831047607
 30
0.0000000000563712
 10
5190.339545132896
 20
-299.4091100873414
 30
0.0000000000563712
 10
5191.046638164932
 20
-299.5986206616634
 30
0.0000000000563712
 10
5192.102165537844
 20
-299.9185551760132
 30
0.0000000000563712
 10
5193.264414686582
 20
-300.3128166335376
 30
0.0000000000563712
 10
5194.333168031462
 20
-300.7262926457782
 30
0.0000000000563712
 10
5195.272874283435
 20
-301.061934420702
 30
0.0000000000563712
 10
5195.926811480972
 20
-301.2661323777801
 30
0.0000000000563712
 10
5196.973040508475
 20
-301.5371854507492
 30
0.0000000000563712
 10
5198.126217618197
 20
-301.7416521693179
 30
0.0000000000563712
 10
5199.846604456749
 20
-301.9840587018851
 30
0.0000000000563712
 10
5201.414310987214
 20
-302.1739912219931
 30
0.0000000000563712
 10
5202.666193518096
 20
-302.3625972039084
 30
0.0000000000563712
 10
5203.127846810358
 20
-302.438172465303
 30
0.0000000000563712
  0
ARC
  5
B1E1
330
18
100
AcDbEntity
  8
01
100
AcDbCircle
 10
5224.143072083512
 20
-299.6284832935884
 30
0.0000000000563712
 40
34.21003812908265
100
AcDbArc
 50
166.9414599833389
 51
179.448974222384
  0
SPLINE
  5
B1E2
330
18
100
AcDbEntity
  8
01
100
AcDbSpline
210
0.0
220
0.0
230
1.0
 70
     8
 71
     3
 72
    20
 73
    16
 74
     0
 42
0.0000000001
 43
0.0000000001
 40
0.0
 40
0.0
 40
0.0
 40
0.0
 40
0.4546569006358763
 40
0.933812837309765
 40
1.802880278005373
 40
2.655228298140017
 40
3.130540974040208
 40
4.696466620833429
 40
5.793820935949317
 40
6.894287649676615
 40
7.52391833460264
 40
9.329521403800372
 40
10.33245909556627
 40
11.49100611024993
 40
12.5145536329158
 40
12.5145536329158
 40
12.5145536329158
 40
12.5145536329158
 10
5203.12915240837
 20
-289.7460850078409
 30
0.0000000000563712
 10
5202.97778938466
 20
-289.7535027814132
 30
0.0000000000563712
 10
5202.667138725823
 20
-289.7739121029389
 30
0.0000000000563712
 10
5202.068546807881
 20
-289.827303661942
 30
0.0000000000563712
 10
5201.34078740258
 20
-289.9216925459872
 30
0.0000000000563712
 10
5200.620905138774
 20
-290.0568283631841
 30
0.0000000000563712
 10
5199.678114143631
 20
-290.2603301922353
 30
0.0000000000563712
 10
5198.660229753554
 20
-290.5029542640481
 30
0.0000000000563712
 10
5197.42794372862
 20
-290.7398629677313
 30
0.0000000000563712
 10
5196.496497696426
 20
-290.8843057429293
 30
0.0000000000563712
 10
5195.329213846448
 20
-291.0469341280722
 30
0.0000000000563712
 10
5194.191783860759
 20
-291.1880074483191
 30
0.0000000000563712
 10
5192.884325920024
 20
-291.3868226209519
 30
0.0000000000563712
 10
5191.842999394916
 20
-291.5966247309756
 30
0.0000000000563712
 10
5191.1419217778
 20
-291.7925132618042
 30
0.0000000000563712
 10
5190.817715114065
 20
-291.8988460671584
 30
0.0000000000563712
  0
LINE
  5
B1E3
330
18
100
AcDbEntity
  8
01
100
AcDbLine
 10
5185.87272151399
 20
-305.9765069677618
 30
0.0000000000563712
 11
5186.04093451993
 21
-304.8931840166732
 31
0.0000000000563712
  0
ARC
  5
B1E4
330
18
100
AcDbEntity
  8
01
100
AcDbCircle
 10
5186.021645839573
 20
-314.5771727753857
 30
0.0000000000563712
 40
15.59469737648714
100
AcDbArc
 50
136.4126965770088
 51
147.0029566062682
  0
SPLINE
  5
B1E5
330
18
100
AcDbEntity
  8
01
100
AcDbSpline
210
0.0
220
0.0
230
1.0
 70
     8
 71
     3
 72
    19
 73
    15
 74
     0
 42
0.0000000001
 43
0.0000000001
 40
0.0
 40
0.0
 40
0.0
 40
0.0
 40
0.5712837883728419
 40
1.282546108027913
 40
2.128984150793698
 40
3.113461612849322
 40
4.748727702249288
 40
5.608411344448469
 40
8.773174157140224
 40
9.204757187932834
 40
10.3029727218505
 40
10.86883695954145
 40
11.06546556428734
 40
11.43582291373933
 40
11.43582291373933
 40
11.43582291373933
 40
11.43582291373933
 10
5186.04093451993
 20
-304.8931840166732
 30
0.0000000000563712
 10
5185.876171787975
 20
-304.7978228658079
 30
0.0000000000563712
 10
5185.48767511388
 20
-304.615745716865
 30
0.0000000000563712
 10
5184.805829773562
 20
-304.4142060911216
 30
0.0000000000563712
 10
5183.972188336137
 20
-304.2579598411979
 30
0.0000000000563712
 10
5182.823615084695
 20
-304.1283723188766
 30
0.0000000000563712
 10
5181.665818867665
 20
-304.0563703595993
 30
0.0000000000563712
 10
5179.781473829071
 20
-303.9659895123503
 30
0.0000000000563712
 10
5178.297655786428
 20
-303.8976764135335
 30
0.0000000000563712
 10
5176.734584442916
 20
-303.8235733220412
 30
0.0000000000563712
 10
5176.036139332001
 20
-303.8050916127562
 30
0.0000000000563712
 10
5175.415875066858
 20
-303.8084743862668
 30
0.0000000000563712
 10
5175.038320579911
 20
-303.8154057251144
 30
0.0000000000563712
 10
5174.849432671439
 20
-303.8221395786594
 30
0.0000000000563712
 10
5174.726021943838
 20
-303.8252674990953
 30
0.0000000000563712
  0
SPLINE
  5
B1E6
330
18
100
AcDbEntity
  8
01
100
AcDbSpline
210
0.0
220
0.0
230
1.0
 70
     8
 71
     3
 72
    19
 73
    15
 74
     0
 42
0.0000000001
 43
0.0000000001
 40
0.0
 40
0.0
 40
0.0
 40
0.0
 40
1.290628503894434
 40
2.310796051905317
 40
3.278501227679436
 40
4.141915606572781
 40
5.383786275332168
 40
5.915388411483216
 40
6.947211658670802
 40
7.484022896067946
 40
8.074199312074215
 40
8.57612133248029
 40
8.596154689835203
 40
8.609576543422193
 40
8.609576543422193
 40
8.609576543422193
 40
8.609576543422193
 10
5146.885770381043
 20
-301.5794707097983
 30
0.0000000000563712
 10
5147.283088640841
 20
-301.4144553435029
 30
0.0000000000563712
 10
5147.992746407021
 20
-301.1149845141866
 30
0.0000000000563712
 10
5148.989102728563
 20
-300.6656128861372
 30
0.0000000000563712
 10
5149.8424655461
 20
-300.2470407165546
 30
0.0000000000563712
 10
5150.746729266457
 20
-299.7652095796224
 30
0.0000000000563712
 10
5151.4959404568
 20
-299.304567548228
 30
0.0000000000563712
 10
5152.269764284819
 20
-298.7795148734912
 30
0.0000000000563712
 10
5152.843811265519
 20
-298.3787871413132
 30
0.0000000000563712
 10
5153.438026676607
 20
-297.972888463681
 30
0.0000000000563712
 10
5153.889130046124
 20
-297.670686390214
 30
0.0000000000563712
 10
5154.19916750011
 20
-297.4674418352787
 30
0.0000000000563712
 10
5154.348713252135
 20
-297.3700638793083
 30
0.0000000000563712
 10
5154.357656938915
 20
-297.3633774797785
 30
0.0000000000563712
 10
5154.361960196087
 20
-297.3618489282438
 30
0.0000000000563712
  0
ARC
  5
B1E7
330
18
100
AcDbEntity
  8
01
100
AcDbCircle
 10
5130.978051076702
 20
-346.7515021744315
 30
0.0000000000563712
 40
47.89120963295328
100
AcDbArc
 50
70.59984664481503
 51
76.27466794421969
  0
SPLINE
  5
B1E8
330
18
100
AcDbEntity
  8
01
100
AcDbSpline
210
0.0
220
0.0
230
1.0
 70
     8
 71
     3
 72
    14
 73
    10
 74
     0
 42
0.0000000001
 43
0.0000000001
 40
0.0
 40
0.0
 40
0.0
 40
0.0
 40
0.8831426211766141
 40
1.658894357682278
 40
3.108195093614157
 40
4.200229337788389
 40
5.986158476808049
 40
6.764318774210751
 40
8.868574691670645
 40
8.868574691670645
 40
8.868574691670645
 40
8.868574691670645
 10
5138.036833854378
 20
-292.4881598430756
 30
0.0000000000563712
 10
5138.207615306836
 20
-292.7279054934437
 30
0.0000000000563712
 10
5138.524751124822
 20
-293.1810166254485
 30
0.0000000000563712
 10
5139.099603907951
 20
-294.0429161662049
 30
0.0000000000563712
 10
5139.673894118566
 20
-294.9886577030383
 30
0.0000000000563712
 10
5140.337534527842
 20
-296.2698745328024
 30
0.0000000000563712
 10
5140.85525783636
 20
-297.3732291379441
 30
0.0000000000563712
 10
5141.550659631426
 20
-298.7654542671752
 30
0.0000000000563712
 10
5142.009124638668
 20
-299.6100120233153
 30
0.0000000000563712
 10
5142.341086884035
 20
-300.2278589663941
 30
0.0000000000563712
  0
SPLINE
  5
B1E9
330
18
100
AcDbEntity
  8
01
100
AcDbSpline
210
0.0
220
0.0
230
1.0
 70
     8
 71
     3
 72
    17
 73
    13
 74
     0
 42
0.0000000001
 43
0.0000000001
 40
0.0
 40
0.0
 40
0.0
 40
0.0
 40
0.7190570454688281
 40
1.365553232057407
 40
2.533783155202789
 40
3.574103298685799
 40
4.552672188255435
 40
5.335728985880249
 40
6.246887020816885
 40
7.156509274764137
 40
9.236030257876358
 40
10.40218782663808
 40
10.40218782663808
 40
10.40218782663808
 40
10.40218782663808
 10
5145.924043149484
 20
-285.9123333540387
 30
0.0000000000563712
 10
5145.705198500215
 20
-286.0100565004103
 30
0.0000000000563712
 10
5145.292054843596
 20
-286.2012794206788
 30
0.0000000000563712
 10
5144.532370199074
 20
-286.5703002637941
 30
0.0000000000563712
 10
5143.692972615532
 20
-287.0198322781979
 30
0.0000000000563712
 10
5142.791634964631
 20
-287.5833005086691
 30
0.0000000000563712
 10
5142.041675560101
 20
-288.1418471095475
 30
0.0000000000563712
 10
5141.379562870925
 20
-288.7389706224434
 30
0.0000000000563712
 10
5140.774038220954
 20
-289.3613234369226
 30
0.0000000000563712
 10
5139.913097633337
 20
-290.3356603729879
 30
0.0000000000563712
 10
5139.025271779861
 20
-291.3990507795305
 30
0.0000000000563712
 10
5138.299723226984
 20
-292.2018663281382
 30
0.0000000000563712
 10
5138.036833854378
 20
-292.4881598430756
 30
0.0000000000563712
  0
SPLINE
  5
B1EA
330
18
100
AcDbEntity
  8
01
100
AcDbSpline
210
0.0
220
0.0
230
1.0
 70
     8
 71
     3
 72
    17
 73
    13
 74
     0
 42
0.0000000001
 43
0.0000000001
 40
0.0
 40
0.0
 40
0.0
 40
0.0
 40
1.435102890572257
 40
1.999376418587625
 40
3.294352772029113
 40
4.674539512965744
 40
5.324161173321383
 40
6.460939503639373
 40
6.955336770344698
 40
8.165709890821022
 40
9.544816894504857
 40
12.94486288183374
 40
12.94486288183374
 40
12.94486288183374
 40
12.94486288183374
 10
5154.661477448784
 20
-295.4553279355149
 30
0.0000000000563712
 10
5154.327391050342
 20
-295.1129515848487
 30
0.0000000000563712
 10
5153.856435667965
 20
-294.6413545339236
 30
0.0000000000563712
 10
5153.089784904674
 20
-293.8551620305078
 30
0.0000000000563712
 10
5152.347876235322
 20
-293.0704366489716
 30
0.0000000000563712
 10
5151.612917917148
 20
-292.2406963277234
 30
0.0000000000563712
 10
5150.935005918642
 20
-291.4315674268195
 30
0.0000000000563712
 10
5150.458793818002
 20
-290.8388937701678
 30
0.0000000000563712
 10
5149.854716604743
 20
-290.1092978194346
 30
0.0000000000563712
 10
5149.17844506375
 20
-289.3349293607179
 30
0.0000000000563712
 10
5147.819598152837
 20
-287.8719473726636
 30
0.0000000000563712
 10
5146.693482999832
 20
-286.7445948714739
 30
0.0000000000563712
 10
5145.924043149484
 20
-285.9123333540387
 30
0.0000000000563712
  0
LINE
  5
B1EB
330
18
100
AcDbEntity
  8
01
100
AcDbLine
 10
5154.361960196087
 20
-297.3618489282438
 30
0.0000000000563712
 11
5154.661477448784
 21
-295.4553279355149
 31
0.0000000000563712
  0
LINE
  5
B1EC
330
18
100
AcDbEntity
  8
01
100
AcDbLine
 10
5133.875435723248
 20
-303.8054486732439
 30
0.0000000000563712
 11
5133.738353462681
 21
-306.039020335871
 31
0.0000000000563712
  0
ARC
  5
B1ED
330
18
100
AcDbEntity
  8
01
100
AcDbCircle
 10
5133.543254752595
 20
-290.7777219677208
 30
0.0000000000563712
 40
13.0319609925391
100
AcDbArc
 50
271.4606112815726
 51
312.1528528335282
  0
ARC
  5
B1EE
330
18
100
AcDbEntity
  8
01
100
AcDbCircle
 10
5131.415362458507
 20
-346.5433392679059
 30
0.0000000000563712
 40
47.36922867107615
100
AcDbArc
 50
71.01754357338639
 51
76.72920235392102
  0
ARC
  5
B1EF
330
18
100
AcDbEntity
  8
01
100
AcDbCircle
 10
5142.463094434086
 20
-303.5872784775382
 30
0.0000000000563712
 40
4.731676496513291
100
AcDbArc
 50
329.7780970133543
 51
22.84659139790612
  0
ARC
  5
B1F0
330
18
100
AcDbEntity
  8
01
100
AcDbCircle
 10
5081.107693597956
 20
-255.1556181886616
 30
0.0000000000563712
 40
42.31781630699369
100
AcDbArc
 50
277.9156202213621
 51
284.2511218247456
  0
SPLINE
  5
B1F1
330
18
100
AcDbEntity
  8
01
100
AcDbSpline
210
0.0
220
0.0
230
1.0
 70
     8
 71
     3
 72
    14
 73
    10
 74
     0
 42
0.0000000001
 43
0.0000000001
 40
0.0
 40
0.0
 40
0.0
 40
0.0
 40
0.9134723296871363
 40
2.632034743112154
 40
3.238829668050822
 40
3.846803175833234
 40
4.355420702629191
 40
5.985006128607271
 40
8.113047582792476
 40
8.113047582792476
 40
8.113047582792476
 40
8.113047582792476
 10
5079.597433967763
 20
-293.672784156135
 30
0.0000000000563712
 10
5079.878825718864
 20
-293.7890993166687
 30
0.0000000000563712
 10
5080.697439709086
 20
-294.1052753425087
 30
0.0000000000563712
 10
5081.720369236506
 20
-294.4510305080661
 30
0.0000000000563712
 10
5082.638116221655
 20
-294.7884767546715
 30
0.0000000000563712
 10
5083.171759956189
 20
-295.0013166789621
 30
0.0000000000563712
 10
5084.008961986525
 20
-295.3721377706592
 30
0.0000000000563712
 10
5085.268556939716
 20
-296.0348717835949
 30
0.0000000000563712
 10
5086.332828376407
 20
-296.6962076204976
 30
0.0000000000563712
 10
5086.935473806987
 20
-297.0702284675093
 30
0.0000000000563712
  0
SPLINE
  5
B1F2
330
18
100
AcDbEntity
  8
01
100
AcDbSpline
210
0.0
220
0.0
230
1.0
 70
     8
 71
     3
 72
    14
 73
    10
 74
     0
 42
0.0000000001
 43
0.0000000001
 40
0.0
 40
0.0
 40
0.0
 40
0.0
 40
0.8916403286827534
 40
2.629973266335886
 40
3.480641441638439
 40
5.079706586490472
 40
5.806599424143507
 40
6.513202346539467
 40
9.674183996847889
 40
9.674183996847889
 40
9.674183996847889
 40
9.674183996847889
 10
5078.848256108238
 20
-284.0535541828384
 30
0.0000000000563712
 10
5078.888867843478
 20
-284.347985809486
 30
0.0000000000563712
 10
5079.018632226152
 20
-285.2150170387821
 30
0.0000000000563712
 10
5079.218276517624
 20
-286.3580469797897
 30
0.0000000000563712
 10
5079.431678414885
 20
-287.7376226173864
 30
0.0000000000563712
 10
5079.55840366723
 20
-288.7894455899421
 30
0.0000000000563712
 10
5079.618838082783
 20
-289.7987767949111
 30
0.0000000000563712
 10
5079.647659336157
 20
-291.3303051557685
 30
0.0000000000563712
 10
5079.578758183574
 20
-292.6190926765374
 30
0.0000000000563712
 10
5079.597433967763
 20
-293.672784156135
 30
0.0000000000563712
  0
LINE
  5
B1F3
330
18
100
AcDbEntity
  8
01
100
AcDbLine
 10
5092.854489497215
 20
-292.6276304627885
 30
0.0000000000563712
 11
5089.586849365217
 21
-284.0761192530853
 31
0.0000000000563712
  0
LINE
  5
B1F4
330
18
100
AcDbEntity
  8
01
100
AcDbLine
 10
5091.525166502783
 20
-296.1711498232711
 30
0.0000000000563712
 11
5092.854489497215
 21
-292.6276304627885
 31
0.0000000000563712
  0
SPLINE
  5
B1F5
330
18
100
AcDbEntity
  8
01
100
AcDbSpline
210
0.0
220
0.0
230
1.0
 70
     8
 71
     3
 72
    16
 73
    12
 74
     0
 42
0.0000000001
 43
0.0000000001
 40
0.0
 40
0.0
 40
0.0
 40
0.0
 40
0.6769022650761458
 40
2.74991284664539
 40
4.135549045950112
 40
5.236376106969353
 40
5.725846231354651
 40
7.112834625040259
 40
8.154349752100238
 40
9.402393669929651
 40
11.05532488738768
 40
11.05532488738768
 40
11.05532488738768
 40
11.05532488738768
 10
5071.555258926894
 20
-295.1257978172129
 30
0.0000000000563712
 10
5071.551883648268
 20
-294.9001804101548
 30
0.0000000000563712
 10
5071.531503647268
 20
-293.9837872491815
 30
0.0000000000563712
 10
5071.48450708536
 20
-292.6059772778134
 30
0.0000000000563712
 10
5071.474117538852
 20
-291.0860410342187
 30
0.0000000000563712
 10
5071.498107095506
 20
-290.0942019134562
 30
0.0000000000563712
 10
5071.548147007903
 20
-289.1030245646438
 30
0.0000000000563712
 10
5071.616248851418
 20
-288.1326470316193
 30
0.0000000000563712
 10
5071.66069748858
 20
-286.9077843423382
 30
0.0000000000563712
 10
5071.673912320154
 20
-285.5936104474248
 30
0.0000000000563712
 10
5071.660821816507
 20
-284.626641196456
 30
0.0000000000563712
 10
5071.655371274182
 20
-284.0757058565295
 30
0.0000000000563712
  0
SPLINE
  5
B1F6
330
18
100
AcDbEntity
  8
01
100
AcDbSpline
210
0.0
220
0.0
230
1.0
 70
     8
 71
     3
 72
    13
 73
     9
 74
     0
 42
0.0000000001
 43
0.0000000001
 40
0.0
 40
0.0
 40
0.0
 40
0.0
 40
1.29624149848682
 40
1.995429547090947
 40
3.289180701128017
 40
4.295893228008937
 40
6.791681415300426
 40
7.983263946027424
 40
7.983263946027424
 40
7.983263946027424
 40
7.983263946027424
 10
5063.709729730177
 20
-296.5558305908966
 30
0.0000000000563712
 10
5064.138860709892
 20
-296.5055949768588
 30
0.0000000000563712
 10
5064.800045011491
 20
-296.432525303252
 30
0.0000000000563712
 10
5065.888198824987
 20
-296.2990110947961
 30
0.0000000000563712
 10
5066.87745171252
 20
-296.1506775321808
 30
0.0000000000563712
 10
5068.442852639923
 20
-295.8238527609195
 30
0.0000000000563712
 10
5069.955107209798
 20
-295.4189785292823
 30
0.0000000000563712
 10
5071.162602670644
 20
-295.1855736187339
 30
0.0000000000563712
 10
5071.555258926894
 20
-295.1257978172129
 30
0.0000000000563712
  0
LINE
  5
B1F7
330
18
100
AcDbEntity
  8
01
100
AcDbLine
 10
5174.615504827672
 20
-303.7208437224193
 30
0.0000000000563712
 11
5173.400195422792
 21
-301.8983250702034
 31
0.0000000000563712
  0
ARC
  5
B1F8
330
18
100
AcDbEntity
  8
01
100
AcDbCircle
 10
5186.102241662866
 20
-314.4957563033207
 30
0.0000000000563712
 40
15.74940837768341
100
AcDbArc
 50
136.8314291810303
 51
147.4155372432823
  0
LINE
  5
B1F9
330
18
100
AcDbEntity
  8
01
100
AcDbLine
 10
5158.510890195821
 20
-303.9167883902304
 30
0.0000000000563712
 11
5158.423131959575
 21
-306.0374722645023
 31
0.0000000000563712
  0
SPLINE
  5
B1FA
330
18
100
AcDbEntity
  8
01
100
AcDbSpline
210
0.0
220
0.0
230
1.0
 70
     8
 71
     3
 72
    20
 73
    16
 74
     0
 42
0.0000000001
 43
0.0000000001
 40
0.0
 40
0.0
 40
0.0
 40
0.0
 40
0.9479133189332082
 40
1.719709426105521
 40
3.15757781726643
 40
4.333970847250048
 40
5.562838704859786
 40
6.305135523318995
 40
7.261296801636552
 40
8.044077823396806
 40
9.773727259776832
 40
11.70042173643402
 40
12.37672057187189
 40
14.02388087420245
 40
15.3691975236748
 40
15.3691975236748
 40
15.3691975236748
 40
15.3691975236748
 10
5173.400195422792
 20
-301.8983250702034
 30
0.0000000000563712
 10
5173.13218383714
 20
-302.0656262966567
 30
0.0000000000563712
 10
5172.641558945914
 20
-302.3623709937536
 30
0.0000000000563712
 10
5171.724816732656
 20
-302.8794306756994
 30
0.0000000000563712
 10
5170.709350191101
 20
-303.3754766577289
 30
0.0000000000563712
 10
5169.49782749826
 20
-303.7997929410125
 30
0.0000000000563712
 10
5168.467154591808
 20
-304.0090971386943
 30
0.0000000000563712
 10
5167.495269143373
 20
-304.1024292814135
 30
0.0000000000563712
 10
5166.668310793983
 20
-304.1289722780906
 30
0.0000000000563712
 10
5165.512104020489
 20
-304.1265500141575
 30
0.0000000000563712
 10
5164.032534576603
 20
-304.1025188720558
 30
0.0000000000563712
 10
5162.588231665802
 20
-304.1146850579406
 30
0.0000000000563712
 10
5161.171616092238
 20
-304.1083081438923
 30
0.0000000000563712
 10
5159.94863559158
 20
-304.0750354959481
 30
0.0000000000563712
 10
5158.955192000476
 20
-303.9773224322424
 30
0.0000000000563712
 10
5158.510890195821
 20
-303.9167883902304
 30
0.0000000000563712
  0
ARC
  5
B1FB
330
18
100
AcDbEntity
  8
01
100
AcDbCircle
 10
5142.421927326862
 20
-303.6263852259689
 30
0.0000000000563712
 40
4.907343350218804
100
AcDbArc
 50
330.5956934838056
 51
23.03567240276615
  0
SPLINE
  5
B1FC
330
18
100
AcDbEntity
  8
01
100
AcDbSpline
210
0.0
220
0.0
230
1.0
 70
     8
 71
     3
 72
    18
 73
    14
 74
     0
 42
0.0000000001
 43
0.0000000001
 40
0.0
 40
0.0
 40
0.0
 40
0.0
 40
0.0679052439448844
 40
0.1803766920494628
 40
0.574913359535868
 40
1.05866628680323
 40
1.561700858537809
 40
2.704879298250676
 40
3.234426658422883
 40
3.870762607706519
 40
4.52383040150122
 40
6.358095178976748
 40
8.636893799030412
 40
8.636893799030412
 40
8.636893799030412
 40
8.636893799030412
 10
5154.424766900212
 20
-297.4573012727523
 30
0.0000000000563712
 10
5154.405679538344
 20
-297.46946554663
 30
0.0000000000563712
 10
5154.355359824181
 20
-297.502381317959
 30
0.0000000000563712
 10
5154.19620146044
 20
-297.6091204082967
 30
0.0000000000563712
 10
5153.921904603058
 20
-297.7930495542408
 30
0.0000000000563712
 10
5153.541469074457
 20
-298.0524315961301
 30
0.0000000000563712
 10
5152.957660070713
 20
-298.4564754132924
 30
0.0000000000563712
 10
5152.366421142166
 20
-298.8765750581632
 30
0.0000000000563712
 10
5151.730528798149
 20
-299.3102572181409
 30
0.0000000000563712
 10
5151.221093410099
 20
-299.6392288330452
 30
0.0000000000563712
 10
5150.323000698319
 20
-300.1666498129883
 30
0.0000000000563712
 10
5148.903193274312
 20
-300.8821171569138
 30
0.0000000000563712
 10
5147.640911775396
 20
-301.4183300091303
 30
0.0000000000563712
 10
5146.937966015681
 20
-301.7061213591963
 30
0.0000000000563712
  0
ARC
  5
B1FD
330
18
100
AcDbEntity
  8
01
100
AcDbCircle
 10
5089.973877281725
 20
-341.6290401302616
 30
0.0000000000563712
 40
78.13488136748205
100
AcDbArc
 50
28.86450974085509
 51
34.42498476619192
  0
LINE
  5
B1FE
330
18
100
AcDbEntity
  8
01
100
AcDbLine
 10
5158.316418046027
 20
-306.0356086027422
 30
0.0000000000563712
 11
5158.401571236524
 21
-303.9102068193146
 31
0.0000000000563712
  0
LINE
  5
B1FF
330
18
100
AcDbEntity
  8
01
100
AcDbLine
 10
5062.68915345036
 20
-296.6379168499315
 30
0.0000000000563712
 11
5062.689156652352
 21
-284.0099767959108
 31
0.0000000000563712
  0
LINE
  5
B200
330
18
100
AcDbEntity
  8
01
100
AcDbLine
 10
5062.689159174482
 20
-306.0099767958494
 30
0.0000000000563712
 11
5062.68915345036
 21
-296.6379168499315
 31
0.0000000000563712
  0
LINE
  5
B201
330
18
100
AcDbEntity
  8
01
100
AcDbLine
 10
5188.761394012609
 20
-283.0099764461291
 30
0.0000000000563712
 11
5203.189153036499
 21
-283.0099757074594
 31
0.0000000000563712
  0
LINE
  5
B202
330
18
100
AcDbEntity
  8
01
100
AcDbLine
 10
5173.862194973652
 20
-283.0099766446828
 30
0.0000000000563712
 11
5188.761394012609
 21
-283.0099764461291
 31
0.0000000000563712
  0
LINE
  5
B203
330
18
100
AcDbEntity
  8
01
100
AcDbLine
 10
5160.55575507053
 20
-283.0099781587709
 30
0.0000000000563712
 11
5173.862194973652
 21
-283.0099766446828
 31
0.0000000000563712
  0
LINE
  5
B204
330
18
100
AcDbEntity
  8
01
100
AcDbLine
 10
5146.424602396426
 20
-283.0099770370942
 30
0.0000000000563712
 11
5160.55575507053
 21
-283.0099781587709
 31
0.0000000000563712
  0
LINE
  5
B205
330
18
100
AcDbEntity
  8
01
100
AcDbLine
 10
5127.392015057947
 20
-283.0099773736086
 30
0.0000000000563712
 11
5146.424602396426
 21
-283.0099770370942
 31
0.0000000000563712
  0
LINE
  5
B206
330
18
100
AcDbEntity
  8
01
100
AcDbLine
 10
5124.206522372895
 20
-283.0099834566089
 30
0.0000000000563712
 11
5127.392015057947
 21
-283.0099773736086
 31
0.0000000000563712
  0
LINE
  5
B207
330
18
100
AcDbEntity
  8
01
100
AcDbLine
 10
5108.997782939179
 20
-283.0099756488106
 30
0.0000000000563712
 11
5124.203648831213
 21
-283.0099834551351
 31
0.0000000000563712
  0
LINE
  5
B208
330
18
100
AcDbEntity
  8
01
100
AcDbLine
 10
5100.912361570319
 20
-283.009976056498
 30
0.0000000000563712
 11
5108.997782939179
 21
-283.0099756488106
 31
0.0000000000563712
  0
LINE
  5
B209
330
18
100
AcDbEntity
  8
01
100
AcDbLine
 10
5089.634967290385
 20
-283.009977059642
 30
0.0000000000563712
 11
5100.912361570319
 21
-283.009976056498
 31
0.0000000000563712
  0
LINE
  5
B20A
330
18
100
AcDbEntity
  8
01
100
AcDbLine
 10
5078.773607342959
 20
-283.0099765249601
 30
0.0000000000563712
 11
5089.634967290385
 21
-283.009977059642
 31
0.0000000000563712
  0
LINE
  5
B20B
330
18
100
AcDbEntity
  8
01
100
AcDbLine
 10
5071.706995279262
 20
-283.0099770375017
 30
0.0000000000563712
 11
5078.773607342959
 21
-283.0099765249601
 31
0.0000000000563712
  0
LINE
  5
B20C
330
18
100
AcDbEntity
  8
01
100
AcDbLine
 10
5063.689153036537
 20
-283.0099797533288
 30
0.0000000000563712
 11
5071.706995279262
 21
-283.0099770375017
 31
0.0000000000563712
  0
LINE
  5
B20D
330
18
100
AcDbEntity
  8
01
100
AcDbLine
 10
5204.189155805929
 20
-302.5034291962119
 30
0.0000000000563712
 11
5204.189148758076
 21
-306.0099767958585
 31
0.0000000000563712
  0
LINE
  5
B20E
330
18
100
AcDbEntity
  8
01
100
AcDbLine
 10
5204.189151097577
 20
-289.6844405914352
 30
0.0000000000563712
 11
5204.189155805929
 21
-302.5034291962119
 31
0.0000000000563712
  0
LINE
  5
B20F
330
18
100
AcDbEntity
  8
01
100
AcDbLine
 10
5204.189151574667
 20
-284.0099767958726
 30
0.0000000000563712
 11
5204.189151097577
 21
-289.6844405914352
 31
0.0000000000563712
  0
TEXT
  5
B210
330
18
100
AcDbEntity
  8
1TEXT
100
AcDbText
 10
4943.542364625087
 20
-135.5811677716628
 30
0.0
 40
10.0
  1
GGT
 41
1.0171875
100
AcDbText
  0
LINE
  5
B211
330
18
100
AcDbEntity
  8
01
100
AcDbLine
 10
5115.689153036537
 20
-307.0099754108932
 30
0.0000000000563712
 11
5115.689153036537
 21
-321.0099797533311
 31
0.0000000000563712
  0
LINE
  5
B3EC
330
18
100
AcDbEntity
  8
01
100
AcDbLine
 10
5063.189153036541
 20
-268.5099797533311
 30
0.0
 11
5052.889153036537
 21
-268.5099797533311
 31
0.0
1001
ACAD
1000
DSTYLE
1002
{
1070
     3
1000
□<>
1070
    40
1040
1.3
1070
    45
1040
0.5
1002
}
  0
LINE
  5
B3ED
330
18
100
AcDbEntity
  8
01
100
AcDbLine
 10
5063.189153036541
 20
-321.5099797533311
 30
0.0
 11
5052.889153036537
 21
-321.5099797533311
 31
0.0
1001
ACAD
1000
DSTYLE
1002
{
1070
     3
1000
□<>
1070
    40
1040
1.3
1070
    45
1040
0.5
1002
}
  0
LINE
  5
B3EE
330
18
100
AcDbEntity
  8
01
100
AcDbLine
 10
5054.189153036537
 20
-271.1099797533311
 30
0.0
 11
5054.189153036537
 21
-318.9099797533311
 31
0.0
1001
ACAD
1000
DSTYLE
1002
{
1070
     3
1000
□<>
1070
    40
1040
1.3
1070
    45
1040
0.5
1002
}
  0
LINE
  5
B3F2
330
18
100
AcDbEntity
  8
01
  6
BYBLOCK
100
AcDbLine
 10
5053.492485142538
 20
-271.1099797533311
 30
0.0
 11
5054.189153036537
 21
-268.5099797533311
 31
0.0
  0
LINE
  5
B3F3
330
18
100
AcDbEntity
  8
01
  6
BYBLOCK
100
AcDbLine
 10
5054.189153036537
 20
-268.5099797533311
 30
0.0
 11
5054.885820930537
 21
-271.1099797533311
 31
0.0
  0
LINE
  5
B3F4
330
18
100
AcDbEntity
  8
01
  6
BYBLOCK
100
AcDbLine
 10
5054.189153036537
 20
-268.5099797533311
 30
0.0
 11
5054.189153036537
 21
-271.1099797533311
 31
0.0
  0
LINE
  5
B3F5
330
18
100
AcDbEntity
  8
01
  6
BYBLOCK
100
AcDbLine
 10
5054.885820930537
 20
-318.9099797533311
 30
0.0
 11
5054.189153036537
 21
-321.5099797533311
 31
0.0
  0
LINE
  5
B3F6
330
18
100
AcDbEntity
  8
01
  6
BYBLOCK
100
AcDbLine
 10
5054.189153036537
 20
-321.5099797533311
 30
0.0
 11
5053.492485142538
 21
-318.9099797533311
 31
0.0
  0
LINE
  5
B3F7
330
18
100
AcDbEntity
  8
01
  6
BYBLOCK
100
AcDbLine
 10
5054.189153036537
 20
-321.5099797533311
 30
0.0
 11
5054.189153036537
 21
-318.9099797533311
 31
0.0
  0
TEXT
  5
B3F8
330
18
100
AcDbEntity
  8
01
  6
CONTINUOUS
100
AcDbText
 10
5053.279153036537
 20
-303.038857659928
 30
0.0
 40
4.55
  1
□53
 50
90.0
100
AcDbText
1001
ACAD
1000
DSTYLE
1002
{
1070
     3
1000
□<>
1070
    40
1040
1.3
1070
    45
1040
0.5
1002
}
  0
LINE
  5
B3F9
330
18
100
AcDbEntity
  8
1DIM
100
AcDbLine
 10
5089.189153036537
 20
-156.511298066432
 30
0.0000000001691137
 11
5089.189153036537
 21
-221.311298066432
 31
0.0000000001691137
1001
ACAD
1000
DSTYLE
1002
{
1070
    45
1040
0.5
1070
    40
1040
1.3
1002
}
  0
LINE
  5
B3FA
330
18
100
AcDbEntity
  8
1DIM
100
AcDbLine
 10
5204.189153036537
 20
-189.11129806725
 30
0.0000000001691137
 11
5204.189153036537
 21
-221.311298066432
 31
0.0000000001691137
1001
ACAD
1000
DSTYLE
1002
{
1070
    45
1040
0.5
1070
    40
1040
1.3
1002
}
  0
LINE
  5
B3FB
330
18
100
AcDbEntity
  8
1DIM
100
AcDbLine
 10
5091.789153036538
 20
-220.011298066432
 30
0.0000000001691137
 11
5201.589153036537
 21
-220.011298066432
 31
0.0000000001691137
1001
ACAD
1000
DSTYLE
1002
{
1070
    45
1040
0.5
1070
    40
1040
1.3
1002
}
  0
LINE
  5
B3FF
330
18
100
AcDbEntity
  8
1DIM
100
AcDbLine
 10
5062.689153036537
 20
-189.1137997210511
 30
0.0000000001691137
 11
5062.689153036537
 21
-231.311298066432
 31
0.0000000001691137
1001
ACAD
1000
DSTYLE
1002
{
1070
    45
1040
0.5
1070
    40
1040
1.3
1002
}
  0
LINE
  5
B400
330
18
100
AcDbEntity
  8
1DIM
100
AcDbLine
 10
5204.189153036537
 20
-189.11129806725
 30
0.0000000001691137
 11
5204.189153036537
 21
-231.311298066432
 31
0.0000000001691137
1001
ACAD
1000
DSTYLE
1002
{
1070
    45
1040
0.5
1070
    40
1040
1.3
1002
}
  0
LINE
  5
B401
330
18
100
AcDbEntity
  8
1DIM
100
AcDbLine
 10
5065.289153036538
 20
-230.011298066432
 30
0.0000000001691137
 11
5201.589153036537
 21
-230.011298066432
 31
0.0000000001691137
1001
ACAD
1000
DSTYLE
1002
{
1070
    45
1040
0.5
1070
    40
1040
1.3
1002
}
  0
LINE
  5
B405
330
18
100
AcDbEntity
  8
1DIM
100
AcDbLine
 10
5203.189153036537
 20
-173.5112980672487
 30
0.0000000001127424
 11
5245.489153036538
 21
-173.5112980672487
 31
0.0000000001127424
1001
ACAD
1000
DSTYLE
1002
{
1070
    45
1040
0.5
1070
    40
1040
1.3
1002
}
  0
LINE
  5
B406
330
18
100
AcDbEntity
  8
1DIM
100
AcDbLine
 10
5191.944301033885
 20
-135.011298066432
 30
0.0000000001127424
 11
5245.489153036538
 21
-135.011298066432
 31
0.0000000001127424
1001
ACAD
1000
DSTYLE
1002
{
1070
    45
1040
0.5
1070
    40
1040
1.3
1002
}
  0
LINE
  5
B407
330
18
100
AcDbEntity
  8
1DIM
100
AcDbLine
 10
5244.189153036537
 20
-170.9112980672487
 30
0.0000000001127424
 11
5244.189153036537
 21
-137.611298066432
 31
0.0000000001127424
1001
ACAD
1000
DSTYLE
1002
{
1070
    45
1040
0.5
1070
    40
1040
1.3
1002
}
  0
LINE
  5
B40B
330
18
100
AcDbEntity
  8
1DIM
100
AcDbLine
 10
5195.621067275026
 20
-190.6112980672505
 30
0.0000000001691137
 11
5255.489153036538
 21
-190.6112980672505
 31
0.0000000001691137
1001
ACAD
1000
DSTYLE
1002
{
1070
    45
1040
0.5
1070
    40
1040
1.3
1002
}
  0
LINE
  5
B40C
330
18
100
AcDbEntity
  8
1DIM
100
AcDbLine
 10
5191.944301033885
 20
-135.011298066432
 30
0.0000000001691137
 11
5255.489153036538
 21
-135.011298066432
 31
0.0000000001691137
1001
ACAD
1000
DSTYLE
1002
{
1070
    45
1040
0.5
1070
    40
1040
1.3
1002
}
  0
LINE
  5
B40D
330
18
100
AcDbEntity
  8
1DIM
100
AcDbLine
 10
5254.189153036537
 20
-188.0112980672505
 30
0.0000000001691137
 11
5254.189153036537
 21
-137.611298066432
 31
0.0000000001691137
1001
ACAD
1000
DSTYLE
1002
{
1070
    45
1040
0.5
1070
    40
1040
1.3
1002
}
  0
LINE
  5
B411
330
18
100
AcDbEntity
  8
1DIM
100
AcDbLine
 10
5203.189153036609
 20
-307.009983626844
 30
0.0
 11
5245.489153036538
 21
-307.009983626844
 31
0.0
1001
ACAD
1000
DSTYLE
1002
{
1070
    45
1040
0.5
1070
    40
1040
1.3
1002
}
  0
LINE
  5
B412
330
18
100
AcDbEntity
  8
1DIM
100
AcDbLine
 10
5203.189153036499
 20
-283.0099757074589
 30
0.0
 11
5245.489153036538
 21
-283.0099757074589
 31
0.0
1001
ACAD
1000
DSTYLE
1002
{
1070
    45
1040
0.5
1070
    40
1040
1.3
1002
}
  0
LINE
  5
B413
330
18
100
AcDbEntity
  8
1DIM
100
AcDbLine
 10
5244.189153036537
 20
-304.409983626844
 30
0.0
 11
5244.189153036537
 21
-285.6099757074589
 31
0.0
1001
ACAD
1000
DSTYLE
1002
{
1070
    45
1040
0.5
1070
    40
1040
1.3
1002
}
  0
LINE
  5
B417
330
18
100
AcDbEntity
  8
0
  6
BYBLOCK
100
AcDbLine
 10
5091.789153036538
 20
-220.707965960432
 30
0.0000000001691137
 11
5089.189153036537
 21
-220.011298066432
 31
0.0000000001691137
  0
LINE
  5
B418
330
18
100
AcDbEntity
  8
0
  6
BYBLOCK
100
AcDbLine
 10
5089.189153036537
 20
-220.011298066432
 30
0.0000000001691137
 11
5091.789153036538
 21
-219.314630172432
 31
0.0000000001691137
  0
LINE
  5
B419
330
18
100
AcDbEntity
  8
0
  6
BYBLOCK
100
AcDbLine
 10
5089.189153036537
 20
-220.011298066432
 30
0.0000000001691137
 11
5091.789153036538
 21
-220.011298066432
 31
0.0000000001691137
  0
LINE
  5
B41A
330
18
100
AcDbEntity
  8
0
  6
BYBLOCK
100
AcDbLine
 10
5201.589153036537
 20
-219.314630172432
 30
0.0000000001691137
 11
5204.189153036537
 21
-220.011298066432
 31
0.0000000001691137
  0
LINE
  5
B41B
330
18
100
AcDbEntity
  8
0
  6
BYBLOCK
100
AcDbLine
 10
5204.189153036537
 20
-220.011298066432
 30
0.0000000001691137
 11
5201.589153036537
 21
-220.707965960432
 31
0.0000000001691137
  0
LINE
  5
B41C
330
18
100
AcDbEntity
  8
0
  6
BYBLOCK
100
AcDbLine
 10
5204.189153036537
 20
-220.011298066432
 30
0.0000000001691137
 11
5201.589153036537
 21
-220.011298066432
 31
0.0000000001691137
  0
TEXT
  5
B41D
330
18
100
AcDbEntity
  8
1DIM
  6
CONTINUOUS
100
AcDbText
 10
5142.139153036537
 20
-219.101298066432
 30
0.0000000001691137
 40
4.55
  1
115
100
AcDbText
1001
ACAD
1000
DSTYLE
1002
{
1070
    45
1040
0.5
1070
    40
1040
1.3
1002
}
  0
LINE
  5
B41E
330
18
100
AcDbEntity
  8
0
  6
BYBLOCK
100
AcDbLine
 10
5065.289153036538
 20
-230.707965960432
 30
0.0000000001691137
 11
5062.689153036537
 21
-230.011298066432
 31
0.0000000001691137
  0
LINE
  5
B41F
330
18
100
AcDbEntity
  8
0
  6
BYBLOCK
100
AcDbLine
 10
5062.689153036537
 20
-230.011298066432
 30
0.0000000001691137
 11
5065.289153036538
 21
-229.314630172432
 31
0.0000000001691137
  0
LINE
  5
B420
330
18
100
AcDbEntity
  8
0
  6
BYBLOCK
100
AcDbLine
 10
5062.689153036537
 20
-230.011298066432
 30
0.0000000001691137
 11
5065.289153036538
 21
-230.011298066432
 31
0.0000000001691137
  0
LINE
  5
B421
330
18
100
AcDbEntity
  8
0
  6
BYBLOCK
100
AcDbLine
 10
5201.589153036537
 20
-229.314630172432
 30
0.0000000001691137
 11
5204.189153036537
 21
-230.011298066432
 31
0.0000000001691137
  0
LINE
  5
B422
330
18
100
AcDbEntity
  8
0
  6
BYBLOCK
100
AcDbLine
 10
5204.189153036537
 20
-230.011298066432
 30
0.0000000001691137
 11
5201.589153036537
 21
-230.707965960432
 31
0.0000000001691137
  0
LINE
  5
B423
330
18
100
AcDbEntity
  8
0
  6
BYBLOCK
100
AcDbLine
 10
5204.189153036537
 20
-230.011298066432
 30
0.0000000001691137
 11
5201.589153036537
 21
-230.011298066432
 31
0.0000000001691137
  0
TEXT
  5
B424
330
18
100
AcDbEntity
  8
1DIM
  6
CONTINUOUS
100
AcDbText
 10
5125.855819703204
 20
-229.101298066432
 30
0.0000000001691137
 40
4.55
  1
141.5
100
AcDbText
1001
ACAD
1000
DSTYLE
1002
{
1070
    45
1040
0.5
1070
    40
1040
1.3
1002
}
  0
LINE
  5
B425
330
18
100
AcDbEntity
  8
0
  6
BYBLOCK
100
AcDbLine
 10
5244.885820930537
 20
-170.9112980672487
 30
0.0000000001127424
 11
5244.189153036537
 21
-173.5112980672487
 31
0.0000000001127424
  0
LINE
  5
B426
330
18
100
AcDbEntity
  8
0
  6
BYBLOCK
100
AcDbLine
 10
5244.189153036537
 20
-173.5112980672487
 30
0.0000000001127424
 11
5243.492485142538
 21
-170.9112980672487
 31
0.0000000001127424
  0
LINE
  5
B427
330
18
100
AcDbEntity
  8
0
  6
BYBLOCK
100
AcDbLine
 10
5244.189153036537
 20
-173.5112980672487
 30
0.0000000001127424
 11
5244.189153036537
 21
-170.9112980672487
 31
0.0000000001127424
  0
LINE
  5
B428
330
18
100
AcDbEntity
  8
0
  6
BYBLOCK
100
AcDbLine
 10
5243.492485142538
 20
-137.611298066432
 30
0.0000000001127424
 11
5244.189153036537
 21
-135.011298066432
 31
0.0000000001127424
  0
LINE
  5
B429
330
18
100
AcDbEntity
  8
0
  6
BYBLOCK
100
AcDbLine
 10
5244.189153036537
 20
-135.011298066432
 30
0.0000000001127424
 11
5244.885820930537
 21
-137.611298066432
 31
0.0000000001127424
  0
LINE
  5
B42A
330
18
100
AcDbEntity
  8
0
  6
BYBLOCK
100
AcDbLine
 10
5244.189153036537
 20
-135.011298066432
 30
0.0000000001127424
 11
5244.189153036537
 21
-137.611298066432
 31
0.0000000001127424
  0
TEXT
  5
B42B
330
18
100
AcDbEntity
  8
1DIM
  6
CONTINUOUS
100
AcDbText
 10
5243.279153036538
 20
-161.0862980668398
 30
0.0000000001127424
 40
4.55
  1
38.5
 50
90.0
100
AcDbText
1001
ACAD
1000
DSTYLE
1002
{
1070
    45
1040
0.5
1070
    40
1040
1.3
1002
}
  0
LINE
  5
B42C
330
18
100
AcDbEntity
  8
0
  6
BYBLOCK
100
AcDbLine
 10
5254.885820930537
 20
-188.0112980672505
 30
0.0000000001691137
 11
5254.189153036537
 21
-190.6112980672505
 31
0.0000000001691137
  0
LINE
  5
B42D
330
18
100
AcDbEntity
  8
0
  6
BYBLOCK
100
AcDbLine
 10
5254.189153036537
 20
-190.6112980672505
 30
0.0000000001691137
 11
5253.492485142538
 21
-188.0112980672505
 31
0.0000000001691137
  0
LINE
  5
B42E
330
18
100
AcDbEntity
  8
0
  6
BYBLOCK
100
AcDbLine
 10
5254.189153036537
 20
-190.6112980672505
 30
0.0000000001691137
 11
5254.189153036537
 21
-188.0112980672505
 31
0.0000000001691137
  0
LINE
  5
B42F
330
18
100
AcDbEntity
  8
0
  6
BYBLOCK
100
AcDbLine
 10
5253.492485142538
 20
-137.611298066432
 30
0.0000000001691137
 11
5254.189153036537
 21
-135.011298066432
 31
0.0000000001691137
  0
LINE
  5
B430
330
18
100
AcDbEntity
  8
0
  6
BYBLOCK
100
AcDbLine
 10
5254.189153036537
 20
-135.011298066432
 30
0.0000000001691137
 11
5254.885820930537
 21
-137.611298066432
 31
0.0000000001691137
  0
LINE
  5
B431
330
18
100
AcDbEntity
  8
0
  6
BYBLOCK
100
AcDbLine
 10
5254.189153036537
 20
-135.011298066432
 30
0.0000000001691137
 11
5254.189153036537
 21
-137.611298066432
 31
0.0000000001691137
  0
TEXT
  5
B432
330
18
100
AcDbEntity
  8
1DIM
  6
CONTINUOUS
100
AcDbText
 10
5253.279153036538
 20
-169.6678952890634
 30
0.0000000001691137
 40
4.55
  1
55.5
 50
90.0
100
AcDbText
1001
ACAD
1000
DSTYLE
1002
{
1070
    45
1040
0.5
1070
    40
1040
1.3
1002
}
  0
LINE
  5
B433
330
18
100
AcDbEntity
  8
0
  6
BYBLOCK
100
AcDbLine
 10
5244.885820930537
 20
-304.409983626844
 30
0.0
 11
5244.189153036537
 21
-307.009983626844
 31
0.0
  0
LINE
  5
B434
330
18
100
AcDbEntity
  8
0
  6
BYBLOCK
100
AcDbLine
 10
5244.189153036537
 20
-307.009983626844
 30
0.0
 11
5243.492485142538
 21
-304.409983626844
 31
0.0
  0
LINE
  5
B435
330
18
100
AcDbEntity
  8
0
  6
BYBLOCK
100
AcDbLine
 10
5244.189153036537
 20
-307.009983626844
 30
0.0
 11
5244.189153036537
 21
-304.409983626844
 31
0.0
  0
LINE
  5
B436
330
18
100
AcDbEntity
  8
0
  6
BYBLOCK
100
AcDbLine
 10
5243.492485142538
 20
-285.6099757074589
 30
0.0
 11
5244.189153036537
 21
-283.0099757074589
 31
0.0
  0
LINE
  5
B437
330
18
100
AcDbEntity
  8
0
  6
BYBLOCK
100
AcDbLine
 10
5244.189153036537
 20
-283.0099757074589
 30
0.0
 11
5244.885820930537
 21
-285.6099757074589
 31
0.0
  0
LINE
  5
B438
330
18
100
AcDbEntity
  8
0
  6
BYBLOCK
100
AcDbLine
 10
5244.189153036537
 20
-283.0099757074589
 30
0.0
 11
5244.189153036537
 21
-285.6099757074589
 31
0.0
  0
TEXT
  5
B439
330
18
100
AcDbEntity
  8
1DIM
  6
CONTINUOUS
100
AcDbText
 10
5243.279153036538
 20
-298.8016463338181
 30
0.0
 40
4.55
  1
24
 50
90.0
100
AcDbText
1001
ACAD
1000
DSTYLE
1002
{
1070
    45
1040
0.5
1070
    40
1040
1.3
1002
}
  0
VIEWPORT
  5
57
330
15
100
AcDbEntity
 67
     1
  8
0
100
AcDbViewport
 68
     1
 10
0.0
 20
0.0
 30
0.0
 40
555.8298653610772
 41
297.0
 68
     1
 69
     1
1001
ACAD
1000
MVIEW
1002
{
1070
    16
1010
0.0
1020
0.0
1030
0.0
1010
0.0
1020
0.0
1030
1.0
1040
0.0
1040
297.0
1040
5.728000000000009
1040
25.339
1040
50.0
1040
0.0
1040
0.0
1070
    16
1070
   100
1070
     0
1070
     1
1070
     0
1070
     0
1070
     0
1070
     0
1040
0.0
1040
0.0
1040
0.0
1040
10.0
1040
10.0
1040
10.0
1040
10.0
1070
     0
1002
{
1002
}
1002
}
  0
ENDSEC
  0
SECTION
  2
OBJECTS
  0
DICTIONARY
  5
C
330
0
100
AcDbDictionary
  3
ACAD_COLOR
350
18D
  3
ACAD_GROUP
350
D
  3
ACAD_LAYOUT
350
18E
  3
ACAD_MATERIAL
350
18C
  3
ACAD_MLEADERSTYLE
350
9583
  3
ACAD_MLINESTYLE
350
1B
  3
ACAD_PLOTSETTINGS
350
18F
  3
ACAD_SCALELIST
350
9561
  3
ACAD_VISUALSTYLE
350
9550
  3
ACDBHEADERROUNDTRIPXREC
350
B43A
  3
ACDBVARIABLEDICTIONARY
350
37
  3
CONTENTDICTIONARY
350
D8
  3
DRAWINGVARIABLESDICT
350
20
  3
DWGPROPS
350
B43D
1001
ACAD
1000
TREAT_AS_HARD
1070
     0
  0
DICTIONARY
  5
96D9
330
2
100
AcDbDictionary
  3
ACAD_LAYERSTATES
360
96DA
1001
ACAD
1000
TREAT_AS_HARD
1070
     1
  0
DICTIONARY
  5
9593
330
E
100
AcDbDictionary
  3
ADSK_XREC_LAYER_RECONCILED
360
9594
1001
ACAD
1000
TREAT_AS_HARD
1070
     1
  0
DICTIONARY
  5
9595
330
29
100
AcDbDictionary
  3
ADSK_XREC_LAYER_RECONCILED
360
9596
1001
ACAD
1000
TREAT_AS_HARD
1070
     1
  0
DICTIONARY
  5
9597
330
31
100
AcDbDictionary
  3
ADSK_XREC_LAYER_RECONCILED
360
9598
1001
ACAD
1000
TREAT_AS_HARD
1070
     1
  0
DICTIONARY
  5
959D
330
243
100
AcDbDictionary
  3
ADSK_XREC_LAYER_RECONCILED
360
959E
1001
ACAD
1000
TREAT_AS_HARD
1070
     1
  0
DICTIONARY
  5
95A3
330
24E
100
AcDbDictionary
  3
ADSK_XREC_LAYER_RECONCILED
360
95A4
1001
ACAD
1000
TREAT_AS_HARD
1070
     1
  0
DICTIONARY
  5
88F
330
18
100
AcDbDictionary
  3
ACAD_SORTENTS
360
890
1001
ACAD
1000
TREAT_AS_HARD
1070
     1
  0
DICTIONARY
  5
18D
102
{ACAD_REACTORS
330
C
102
}
330
C
100
AcDbDictionary
1001
ACAD
1000
TREAT_AS_HARD
1070
     0
  0
DICTIONARY
  5
D
102
{ACAD_REACTORS
330
C
102
}
330
C
100
AcDbDictionary
1001
ACAD
1000
TREAT_AS_HARD
1070
     0
  0
DICTIONARY
  5
18E
102
{ACAD_REACTORS
330
C
102
}
330
C
100
AcDbDictionary
1001
ACAD
1000
TREAT_AS_HARD
1070
     0
  0
DICTIONARY
  5
18C
102
{ACAD_REACTORS
330
C
102
}
330
C
100
AcDbDictionary
  3
BYBLOCK
350
9540
  3
BYLAYER
350
9538
  3
GLOBAL
350
9548
1001
ACAD
1000
TREAT_AS_HARD
1070
     0
  0
DICTIONARY
  5
9583
102
{ACAD_REACTORS
330
C
102
}
330
C
100
AcDbDictionary
  3
STANDARD
350
9584
1001
ACAD
1000
TREAT_AS_HARD
1070
     0
  0
DICTIONARY
  5
1B
102
{ACAD_REACTORS
330
C
102
}
330
C
100
AcDbDictionary
  3
STANDARD
350
1C
1001
ACAD
1000
TREAT_AS_HARD
1070
     0
  0
DICTIONARY
  5
18F
102
{ACAD_REACTORS
330
C
102
}
330
C
100
AcDbDictionary
1001
ACAD
1000
TREAT_AS_HARD
1070
     0
  0
DICTIONARY
  5
9561
102
{ACAD_REACTORS
330
C
102
}
330
C
100
AcDbDictionary
  3
A0
350
9562
  3
A1
350
9563
  3
A2
350
9564
  3
A3
350
9565
  3
A4
350
9566
  3
A5
350
9567
  3
A6
350
9568
  3
A7
350
9569
  3
A8
350
956A
  3
A9
350
956B
  3
B0
350
956C
  3
B1
350
956D
  3
B2
350
956E
  3
B3
350
956F
  3
B4
350
9570
  3
B5
350
9571
  3
B6
350
9572
  3
B7
350
9573
  3
B8
350
9574
  3
B9
350
9575
  3
C0
350
9576
  3
C1
350
9577
  3
C2
350
9578
  3
C3
350
9579
  3
C4
350
957A
  3
C5
350
957B
  3
C6
350
957C
  3
C7
350
957D
  3
C8
350
957E
  3
C9
350
957F
  3
D0
350
9580
  3
D1
350
9581
  3
D2
350
9582
1001
ACAD
1000
TREAT_AS_HARD
1070
     0
  0
DICTIONARY
  5
9550
102
{ACAD_REACTORS
330
C
102
}
330
C
100
AcDbDictionary
  3
2DWIREFRAME
350
9556
  3
3D_HIDDEN
350
9558
  3
3DWIREFRAME
350
9557
  3
BASIC
350
9555
  3
BRIGHTEN
350
955C
  3
COLORCHANGE
350
9560
  3
CONCEPTUAL
350
9559
  3
DIM
350
955B
  3
EDGECOLOROFF
350
A211
  3
FACEPATTERN
350
955F
  3
FLAT
350
9551
  3
FLATWITHEDGES
350
9552
  3
GOURAUD
350
9553
  3
GOURAUDWITHEDGES
350
9554
  3
HIDDEN
350
A260
  3
JITTEROFF
350
A20F
  3
LINEPATTERN
350
955E
  3
MODELING
350
A266
  3
OVERHANGOFF
350
A210
  3
REALISTIC
350
955A
  3
SHADED
350
A265
  3
SHADED_WITH_EDGES
350
A264
  3
SHADES_OF_GRAY
350
A261
  3
SKETCHY
350
A262
  3
THICKEN
350
955D
  3
WIREFRAME
350
A25F
  3
X-RAY
350
A263
1001
ACAD
1000
TREAT_AS_HARD
1070
     0
  0
DICTIONARY
  5
B43A
102
{ACAD_REACTORS
330
C
102
}
330
C
100
AcDbDictionary
  3
COLORDICT
350
B43B
  3
MATERIALDICT
350
B43C
1001
ACAD
1000
TREAT_AS_HARD
1070
     0
  0
DICTIONARY
  5
37
102
{ACAD_REACTORS
330
C
102
}
330
C
100
AcDbDictionary
  3
CANNOSCALE
350
AAE0
  3
CMLEADERSTYLE
350
9627
  3
CTABLESTYLE
350
29E
  3
DIMADEC
350
38
  3
DIMASSOC
350
1CE
  3
HIDETEXT
350
704E
  3
INDEXCTL
350
962A
  3
INTERSECTIONCOLOR
350
7052
  3
INTERSECTIONDISPLAY
350
7051
  3
MSLTSCALE
350
AB30
  3
OBSCOLOR
350
704F
  3
OBSLTYPE
350
7050
  3
PROJECTNAME
350
1CF
  3
SORTENTS
350
9629
  3
XCLIPFRAME
350
A25E
1001
ACAD
1000
TREAT_AS_HARD
1070
     0
  0
DICTIONARY
  5
D8
102
{ACAD_REACTORS
330
C
102
}
330
C
100
AcDbDictionary
1001
ACAD
1000
TREAT_AS_HARD
1070
     0
  0
DICTIONARY
  5
20
102
{ACAD_REACTORS
330
C
102
}
330
C
100
AcDbDictionary
1001
DRAWINGVARIABLESXDATA
1000
POLARANG
1000
0.261799387799149410000000
1000
POLARMODE
1000
1
1000
POLARSTYLE
1000
1
1001
ACAD
1000
TREAT_AS_HARD
1070
     0
  0
XRECORD
  5
B43D
102
{ACAD_REACTORS
330
C
102
}
330
C
100
AcDbXrecord
  1
DWGPROPS COOKIE
  2

  3

  4

  6

  7

  8
3684
  9

300
=
301
=
302
=
303
=
304
=
305
=
306
=
307
=
308
=
309
=
 40
0.0
 41
2451318.246352917
 42
2458159.224999931
  1

 90
        0
  0
DICTIONARY
  5
96DA
102
{ACAD_REACTORS
330
96D9
102
}
330
96D9
100
AcDbDictionary
1001
ACAD
1000
TREAT_AS_HARD
1070
     0
  0
ACAD_PROXY_OBJECT
  5
9594
102
{ACAD_REACTORS
330
9593
102
}
330
9593
100
AcDbZombieObject
 90
      499
 91
      514
 93
       34
310
40C8804040
  0
ACAD_PROXY_OBJECT
  5
9596
102
{ACAD_REACTORS
330
9595
102
}
330
9595
100
AcDbZombieObject
 90
      499
 91
      514
 93
       34
310
40C8804040
  0
ACAD_PROXY_OBJECT
  5
9598
102
{ACAD_REACTORS
330
9597
102
}
330
9597
100
AcDbZombieObject
 90
      499
 91
      514
 93
       34
310
40C8804040
  0
ACAD_PROXY_OBJECT
  5
959E
102
{ACAD_REACTORS
330
959D
102
}
330
959D
100
AcDbZombieObject
 90
      499
 91
      514
 93
       34
310
40C8804040
  0
ACAD_PROXY_OBJECT
  5
95A4
102
{ACAD_REACTORS
330
95A3
102
}
330
95A3
100
AcDbZombieObject
 90
      499
 91
      514
 93
       34
310
40C8804040
  0
SORTENTSTABLE
  5
890
102
{ACAD_REACTORS
330
88F
102
}
330
88F
100
AcDbSortentsTable
330
18
331
B05A
  5
B067
331
B05B
  5
B068
331
B05C
  5
B069
331
B05D
  5
B06A
331
B05E
  5
B06B
331
B05F
  5
B06C
331
B060
  5
B06D
331
B061
  5
B06E
331
B062
  5
B06F
331
B063
  5
B070
331
B064
  5
B071
331
B065
  5
B072
331
B066
  5
B073
331
B067
  5
B074
331
B068
  5
B075
331
B069
  5
B076
331
B06A
  5
B077
331
B06B
  5
B078
331
B06C
  5
B079
331
B06D
  5
B07A
331
0
  5
B07B
331
0
  5
B07C
331
0
  5
B07D
331
0
  5
B07E
331
0
  5
B07F
331
B073
  5
B0C1
331
B074
  5
B0C2
331
B075
  5
B0C3
331
B076
  5
B0C4
331
B077
  5
B0C5
331
B078
  5
B0C6
331
B079
  5
B0C7
331
B07A
  5
B0C8
331
B07B
  5
B0C9
331
B07C
  5
B0CA
331
B07D
  5
B0CB
331
B07E
  5
B0CC
331
B07F
  5
B0CD
331
B080
  5
B0CE
331
B081
  5
B0CF
331
B082
  5
B0D0
331
B083
  5
B0D1
331
B084
  5
B0D2
331
B085
  5
B0D3
331
B086
  5
B0D4
331
B087
  5
B0D5
331
B088
  5
B0D6
331
B089
  5
B0D7
331
B08A
  5
B0D8
331
B08B
  5
B0D9
331
B08C
  5
B0DA
331
B08D
  5
B0DB
331
B08E
  5
B0DC
331
B08F
  5
B0DD
331
B090
  5
B0DE
331
B091
  5
B0DF
331
B092
  5
B0E0
331
B093
  5
B0E1
331
B094
  5
B0E2
331
B095
  5
B0E3
331
B096
  5
B0E4
331
B097
  5
B0E5
331
B098
  5
B0E6
331
B099
  5
B0E7
331
B09A
  5
B0E8
331
B09B
  5
B0E9
331
B09C
  5
B0EA
331
B09D
  5
B0EB
331
B09E
  5
B0EC
331
B09F
  5
B0ED
331
B0A0
  5
B0EE
331
B0A1
  5
B0EF
331
B0A2
  5
B0F0
331
B0A3
  5
B0F1
331
B0A4
  5
B0F2
331
B0A5
  5
B0F3
331
B0A6
  5
B0F4
331
B0A7
  5
B0F5
331
B0A8
  5
B0F6
331
B0A9
  5
B0F7
331
B0AA
  5
B0F8
331
B0AB
  5
B0F9
331
B0AC
  5
B0FA
331
B0AD
  5
B0FB
331
B0AE
  5
B0FC
331
B0AF
  5
B0FD
331
B0B0
  5
B0FE
331
B0B1
  5
B0FF
331
B0B2
  5
B100
331
B0B3
  5
B101
331
B0B4
  5
B102
331
B0B5
  5
B103
331
B0B6
  5
B104
331
B0B7
  5
B105
331
B0B8
  5
B106
331
B0B9
  5
B107
331
B0BA
  5
B108
331
B0BB
  5
B109
331
B0BC
  5
B10A
331
B0BD
  5
B10B
331
B0BE
  5
B10C
331
B0BF
  5
B10D
331
B0C0
  5
B10E
331
B0C1
  5
B10F
331
B0C2
  5
B110
331
B0C3
  5
B111
331
B0C4
  5
B112
331
B0C5
  5
B113
331
B0C6
  5
B114
331
B0C7
  5
B115
331
B0C8
  5
B116
331
B0C9
  5
B117
331
B0CA
  5
B118
331
B0CB
  5
B119
331
B0CC
  5
B11A
331
B0CD
  5
B11B
331
B0CE
  5
B11C
331
B0CF
  5
B11D
331
B0D0
  5
B11E
331
B0D1
  5
B11F
331
B0D2
  5
B120
331
B0D3
  5
B121
331
B0D4
  5
B122
331
B0D5
  5
B123
331
B0D6
  5
B124
331
B0D7
  5
B125
331
B0D8
  5
B126
331
B0D9
  5
B127
331
B0DA
  5
B128
331
B0DB
  5
B129
331
B0DC
  5
B12A
331
B0DD
  5
B12B
331
B0DE
  5
B12C
331
B0DF
  5
B12D
331
B0E0
  5
B12E
331
B0E1
  5
B12F
331
B0E2
  5
B130
331
B0E3
  5
B131
331
B0E4
  5
B132
331
B0E5
  5
B133
331
B0E6
  5
B134
331
B0E7
  5
B135
331
B0E8
  5
B136
331
B0E9
  5
B137
331
B0EA
  5
B138
331
B0EB
  5
B139
331
B0EC
  5
B13A
331
B0ED
  5
B13B
331
B0EE
  5
B13C
331
B0EF
  5
B13D
331
B0F0
  5
B13E
331
B0F1
  5
B13F
331
B0F2
  5
B140
331
B0F3
  5
B141
331
B0F4
  5
B142
331
B0F5
  5
B143
331
B0F6
  5
B144
331
B0F7
  5
B145
331
B0F8
  5
B146
331
B0F9
  5
B147
331
B0FA
  5
B148
331
B0FB
  5
B149
331
B0FC
  5
B14A
331
B0FD
  5
B14B
331
B0FE
  5
B14C
331
B0FF
  5
B14D
331
B100
  5
B14E
331
B101
  5
B14F
331
B102
  5
B150
331
B103
  5
B151
331
B104
  5
B152
331
B105
  5
B153
331
B106
  5
B154
331
B107
  5
B155
331
B108
  5
B156
331
B109
  5
B157
331
B10A
  5
B158
331
B10B
  5
B159
331
B10C
  5
B15A
331
B10D
  5
B15B
331
B10E
  5
B15C
331
B10F
  5
B15D
331
B110
  5
B15E
331
B111
  5
B15F
331
B112
  5
B160
331
B113
  5
B161
331
B114
  5
B162
331
B115
  5
B163
331
B116
  5
B164
331
B117
  5
B165
331
B118
  5
B166
331
B119
  5
B167
331
B11A
  5
B168
331
B11B
  5
B169
331
B11C
  5
B16A
331
B11D
  5
B16B
331
B11E
  5
B16C
331
B11F
  5
B16D
331
B120
  5
B16E
331
B121
  5
B16F
331
B122
  5
B170
331
B123
  5
B171
331
B124
  5
B172
331
B125
  5
B173
331
B126
  5
B174
331
B127
  5
B175
331
B128
  5
B176
331
B129
  5
B177
331
B12A
  5
B178
331
B12B
  5
B179
331
B12C
  5
B17A
331
B12D
  5
B17B
331
B12E
  5
B17C
331
B12F
  5
B17D
331
B130
  5
B17E
331
B131
  5
B17F
331
B132
  5
B180
331
B133
  5
B181
331
B134
  5
B182
331
B135
  5
B183
331
B136
  5
B184
331
B137
  5
B185
331
B138
  5
B186
331
B139
  5
B187
331
B13A
  5
B188
331
B13B
  5
B189
331
B13C
  5
B18A
331
B13D
  5
B18B
331
B13E
  5
B18C
331
B13F
  5
B18D
331
B140
  5
B18E
331
B141
  5
B18F
331
B142
  5
B190
331
B143
  5
B191
331
B144
  5
B192
331
B145
  5
B193
331
B146
  5
B194
331
B147
  5
B195
331
B148
  5
B196
331
B149
  5
B197
331
B14A
  5
B198
331
B14B
  5
B199
331
B14C
  5
B19A
331
B14D
  5
B19B
331
B14E
  5
B19C
331
B14F
  5
B19D
331
B150
  5
B19E
331
B151
  5
B19F
331
B152
  5
B1A0
331
B153
  5
B1A1
331
B154
  5
B1A2
331
B155
  5
B1A3
331
B156
  5
B1A4
331
B157
  5
B1A5
331
B158
  5
B1A6
331
B159
  5
B1A7
331
B15A
  5
B1A8
331
B15B
  5
B1A9
331
B15C
  5
B1AA
331
B15D
  5
B1AB
331
B15E
  5
B1AC
331
B15F
  5
B1AD
331
B160
  5
B1AE
331
B161
  5
B1AF
331
B162
  5
B1B0
331
B163
  5
B1B1
331
B164
  5
B1B2
331
B165
  5
B1B3
331
B166
  5
B1B4
331
B167
  5
B1B5
331
B168
  5
B1B6
331
B169
  5
B1B7
331
B16A
  5
B1B8
331
B16B
  5
B1B9
331
B16C
  5
B1BA
331
B16D
  5
B1BB
331
B16E
  5
B1BC
331
B16F
  5
B1BD
331
B170
  5
B1BE
331
B171
  5
B1BF
331
B172
  5
B1C0
331
B173
  5
B1C1
331
B174
  5
B1C2
331
B175
  5
B1C3
331
B176
  5
B1C4
331
B177
  5
B1C5
331
B178
  5
B1C6
331
B179
  5
B1C7
331
B17A
  5
B1C8
331
B17B
  5
B1C9
331
B17C
  5
B1CA
331
B17D
  5
B1CB
331
B17E
  5
B1CC
331
B17F
  5
B1CD
331
B180
  5
B1CE
331
B181
  5
B1CF
331
B182
  5
B1D0
331
B183
  5
B1D1
331
B184
  5
B1D2
331
B185
  5
B1D3
331
B186
  5
B1D4
331
B187
  5
B1D5
331
B188
  5
B1D6
331
B189
  5
B1D7
331
B18A
  5
B1D8
331
B18B
  5
B1D9
331
B18C
  5
B1DA
331
B18D
  5
B1DB
331
B18E
  5
B1DC
331
B18F
  5
B1DD
331
B190
  5
B1DE
331
B191
  5
B1DF
331
B192
  5
B1E0
331
B193
  5
B1E1
331
B194
  5
B1E2
331
B195
  5
B1E3
331
B196
  5
B1E4
331
B197
  5
B1E5
331
B198
  5
B1E6
331
B199
  5
B1E7
331
B19A
  5
B1E8
331
B19B
  5
B1E9
331
B19C
  5
B1EA
331
B19D
  5
B1EB
331
B19E
  5
B1EC
331
B19F
  5
B1ED
331
B1A0
  5
B1EE
331
B1A1
  5
B1EF
331
B1A2
  5
B1F0
331
B1A3
  5
B1F1
331
B1A4
  5
B1F2
331
B1A5
  5
B1F3
331
B1A6
  5
B1F4
331
B1A7
  5
B1F5
331
B1A8
  5
B1F6
331
B1A9
  5
B1F7
331
B1AA
  5
B1F8
331
B1AB
  5
B1F9
331
B1AC
  5
B1FA
331
B1AD
  5
B1FB
331
B1AE
  5
B1FC
331
B1AF
  5
B1FD
331
B1B0
  5
B1FE
331
B1B1
  5
B1FF
331
B1B2
  5
B200
331
B1B3
  5
B201
331
B1B4
  5
B202
331
B1B5
  5
B203
331
B1B6
  5
B204
331
B1B7
  5
B205
331
B1B8
  5
B206
331
B1B9
  5
B207
331
B1BA
  5
B208
331
B1BB
  5
B209
331
B1BC
  5
B20A
331
B1BD
  5
B20B
331
B1BE
  5
B20C
331
B1BF
  5
B20D
331
B1C0
  5
B20E
331
B1C1
  5
B20F
331
B1C2
  5
B210
331
B1C3
  5
B211
331
B1C4
  5
B3EC
331
B1C5
  5
B3ED
331
B1C6
  5
B3EE
331
B1C7
  5
B3EF
331
B1C8
  5
B3F0
331
B1C9
  5
B3F1
331
B1CA
  5
B3F2
331
B1CB
  5
B3F3
331
B1CC
  5
B3F4
331
B1CD
  5
B3F5
331
B1CE
  5
B3F6
331
B1CF
  5
B3F7
331
B1D0
  5
B3F8
331
B1D1
  5
B3F9
331
B1D2
  5
B3FA
331
B1D3
  5
B3FB
331
B1D4
  5
B3FC
331
B1D5
  5
B3FD
331
B1D6
  5
B3FE
331
B1D7
  5
B3FF
331
B1D8
  5
B400
331
B1D9
  5
B401
331
B1DA
  5
B402
331
B1DB
  5
B403
331
B1DC
  5
B404
331
B1DD
  5
B405
331
B1DE
  5
B406
331
B1DF
  5
B407
331
B1E0
  5
B408
331
B1E1
  5
B409
331
B1E2
  5
B40A
331
B1E3
  5
B40B
331
B1E4
  5
B40C
331
B1E5
  5
B40D
331
B1E6
  5
B40E
331
B1E7
  5
B40F
331
B1E8
  5
B410
331
B1E9
  5
B411
331
B1EA
  5
B412
331
B1EB
  5
B413
331
B1EC
  5
B414
331
B1ED
  5
B415
331
B1EE
  5
B416
331
B1EF
  5
B417
331
B1F0
  5
B418
331
B1F1
  5
B419
331
B1F2
  5
B41A
331
B1F3
  5
B41B
331
B1F4
  5
B41C
331
B1F5
  5
B41D
331
B1F6
  5
B41E
331
B1F7
  5
B41F
331
B1F8
  5
B420
331
B1F9
  5
B421
331
B1FA
  5
B422
331
B1FB
  5
B423
331
B1FC
  5
B424
331
B1FD
  5
B425
331
B1FE
  5
B426
331
B1FF
  5
B427
331
B200
  5
B428
331
B201
  5
B429
331
B202
  5
B42A
331
B203
  5
B42B
331
B204
  5
B42C
331
B205
  5
B42D
331
B206
  5
B42E
331
B207
  5
B42F
331
B208
  5
B430
331
B209
  5
B431
331
B20A
  5
B432
331
B20B
  5
B433
331
B20C
  5
B434
331
B20D
  5
B435
331
B20E
  5
B436
331
B20F
  5
B437
331
B210
  5
B438
331
B211
  5
B439
331
B3EC
  5
B05A
331
B3ED
  5
B05B
331
B3EE
  5
B05C
331
0
  5
B05D
331
0
  5
B05E
331
0
  5
B05F
331
B3F2
  5
B060
331
B3F3
  5
B061
331
B3F4
  5
B062
331
B3F5
  5
B063
331
B3F6
  5
B064
331
B3F7
  5
B065
331
B3F8
  5
B066
331
B3F9
  5
B080
331
B3FA
  5
B081
331
B3FB
  5
B082
331
0
  5
B083
331
0
  5
B084
331
0
  5
B085
331
B3FF
  5
B093
331
B400
  5
B094
331
B401
  5
B098
331
0
  5
B089
331
0
  5
B08A
331
0
  5
B08B
331
B405
  5
B0A3
331
B406
  5
B0A4
331
B407
  5
B0A5
331
0
  5
B08F
331
0
  5
B090
331
0
  5
B091
331
B40B
  5
B0AD
331
B40C
  5
B0AE
331
B40D
  5
B0AF
331
0
  5
B095
331
0
  5
B096
331
0
  5
B097
331
B411
  5
B0B7
331
B412
  5
B0B8
331
B413
  5
B0B9
331
0
  5
B09B
331
0
  5
B09C
331
0
  5
B09D
331
B417
  5
B086
331
B418
  5
B087
331
B419
  5
B088
331
B41A
  5
B08C
331
B41B
  5
B08D
331
B41C
  5
B08E
331
B41D
  5
B092
331
B41E
  5
B099
331
B41F
  5
B09A
331
B420
  5
B09E
331
B421
  5
B09F
331
B422
  5
B0A0
331
B423
  5
B0A1
331
B424
  5
B0A2
331
B425
  5
B0A6
331
B426
  5
B0A7
331
B427
  5
B0A8
331
B428
  5
B0A9
331
B429
  5
B0AA
331
B42A
  5
B0AB
331
B42B
  5
B0AC
331
B42C
  5
B0B0
331
B42D
  5
B0B1
331
B42E
  5
B0B2
331
B42F
  5
B0B3
331
B430
  5
B0B4
331
B431
  5
B0B5
331
B432
  5
B0B6
331
B433
  5
B0BA
331
B434
  5
B0BB
331
B435
  5
B0BC
331
B436
  5
B0BD
331
B437
  5
B0BE
331
B438
  5
B0BF
331
B439
  5
B0C0
  0
MATERIAL
  5
9540
102
{ACAD_REACTORS
330
18C
102
}
102
{ACAD_XDICTIONARY
360
B5D8
102
}
330
18C
100
AcDbMaterial
  1
BYBLOCK
 72
     0
 73
     2
 43
0.0208333333333333
 43
0.0
 43
0.0
 43
0.0
 43
0.0
 43
0.0208333333333333
 43
0.0
 43
0.0
 43
0.0
 43
0.0
 43
1.0
 43
0.0
 43
0.0
 43
0.0
 43
0.0
 43
1.0
 77
     0
 78
     2
 47
0.0208333333333333
 47
0.0
 47
0.0
 47
0.0
 47
0.0
 47
0.0208333333333333
 47
0.0
 47
0.0
 47
0.0
 47
0.0
 47
1.0
 47
0.0
 47
0.0
 47
0.0
 47
0.0
 47
1.0
171
     0
172
     2
 49
0.0208333333333333
 49
0.0
 49
0.0
 49
0.0
 49
0.0
 49
0.0208333333333333
 49
0.0
 49
0.0
 49
0.0
 49
0.0
 49
1.0
 49
0.0
 49
0.0
 49
0.0
 49
0.0
 49
1.0
175
     0
176
     2
142
0.0208333333333333
142
0.0
142
0.0
142
0.0
142
0.0
142
0.0208333333333333
142
0.0
142
0.0
142
0.0
142
0.0
142
1.0
142
0.0
142
0.0
142
0.0
142
0.0
142
1.0
179
     0
270
     2
144
0.0208333333333333
144
0.0
144
0.0
144
0.0
144
0.0
144
0.0208333333333333
144
0.0
144
0.0
144
0.0
144
0.0
144
1.0
144
0.0
144
0.0
144
0.0
144
0.0
144
1.0
274
     2
147
0.0208333333333333
147
0.0
147
0.0
147
0.0
147
0.0
147
0.0208333333333333
147
0.0
147
0.0
147
0.0
147
0.0
147
1.0
147
0.0
147
0.0
147
0.0
147
0.0
147
1.0
  0
MATERIAL
  5
9538
102
{ACAD_REACTORS
330
18C
102
}
102
{ACAD_XDICTIONARY
360
B5DA
102
}
330
18C
100
AcDbMaterial
  1
BYLAYER
 72
     0
 73
     2
 43
0.0208333333333333
 43
0.0
 43
0.0
 43
0.0
 43
0.0
 43
0.0208333333333333
 43
0.0
 43
0.0
 43
0.0
 43
0.0
 43
1.0
 43
0.0
 43
0.0
 43
0.0
 43
0.0
 43
1.0
 77
     0
 78
     2
 47
0.0208333333333333
 47
0.0
 47
0.0
 47
0.0
 47
0.0
 47
0.0208333333333333
 47
0.0
 47
0.0
 47
0.0
 47
0.0
 47
1.0
 47
0.0
 47
0.0
 47
0.0
 47
0.0
 47
1.0
171
     0
172
     2
 49
0.0208333333333333
 49
0.0
 49
0.0
 49
0.0
 49
0.0
 49
0.0208333333333333
 49
0.0
 49
0.0
 49
0.0
 49
0.0
 49
1.0
 49
0.0
 49
0.0
 49
0.0
 49
0.0
 49
1.0
175
     0
176
     2
142
0.0208333333333333
142
0.0
142
0.0
142
0.0
142
0.0
142
0.0208333333333333
142
0.0
142
0.0
142
0.0
142
0.0
142
1.0
142
0.0
142
0.0
142
0.0
142
0.0
142
1.0
179
     0
270
     2
144
0.0208333333333333
144
0.0
144
0.0
144
0.0
144
0.0
144
0.0208333333333333
144
0.0
144
0.0
144
0.0
144
0.0
144
1.0
144
0.0
144
0.0
144
0.0
144
0.0
144
1.0
274
     2
147
0.0208333333333333
147
0.0
147
0.0
147
0.0
147
0.0
147
0.0208333333333333
147
0.0
147
0.0
147
0.0
147
0.0
147
1.0
147
0.0
147
0.0
147
0.0
147
0.0
147
1.0
  0
MATERIAL
  5
9548
102
{ACAD_REACTORS
330
18C
102
}
102
{ACAD_XDICTIONARY
360
B5DC
102
}
330
18C
100
AcDbMaterial
  1
GLOBAL
 72
     0
 73
     2
 43
0.0208333333333333
 43
0.0
 43
0.0
 43
0.0
 43
0.0
 43
0.0208333333333333
 43
0.0
 43
0.0
 43
0.0
 43
0.0
 43
1.0
 43
0.0
 43
0.0
 43
0.0
 43
0.0
 43
1.0
 77
     0
 78
     2
 47
0.0208333333333333
 47
0.0
 47
0.0
 47
0.0
 47
0.0
 47
0.0208333333333333
 47
0.0
 47
0.0
 47
0.0
 47
0.0
 47
1.0
 47
0.0
 47
0.0
 47
0.0
 47
0.0
 47
1.0
171
     0
172
     2
 49
0.0208333333333333
 49
0.0
 49
0.0
 49
0.0
 49
0.0
 49
0.0208333333333333
 49
0.0
 49
0.0
 49
0.0
 49
0.0
 49
1.0
 49
0.0
 49
0.0
 49
0.0
 49
0.0
 49
1.0
175
     0
176
     2
142
0.0208333333333333
142
0.0
142
0.0
142
0.0
142
0.0
142
0.0208333333333333
142
0.0
142
0.0
142
0.0
142
0.0
142
1.0
142
0.0
142
0.0
142
0.0
142
0.0
142
1.0
179
     0
270
     2
144
0.0208333333333333
144
0.0
144
0.0
144
0.0
144
0.0
144
0.0208333333333333
144
0.0
144
0.0
144
0.0
144
0.0
144
1.0
144
0.0
144
0.0
144
0.0
144
0.0
144
1.0
274
     2
147
0.0208333333333333
147
0.0
147
0.0
147
0.0
147
0.0
147
0.0208333333333333
147
0.0
147
0.0
147
0.0
147
0.0
147
1.0
147
0.0
147
0.0
147
0.0
147
0.0
147
1.0
  0
ACAD_PROXY_OBJECT
  5
9584
102
{ACAD_REACTORS
330
9583
102
}
330
9583
100
AcDbZombieObject
 90
      499
 91
      511
 93
      610
310
40901902A4063FBFFFFFE000000000000002040AD7A3703D0AD73F4214DD185B99185C990000000000000104090141901A00000000000004100000000000000041025764000000000000300FC0
340
12
340
0
340
F
340
0
 94
        0
1001
ACAD_MLEADERVER
1070
     2
  0
MLINESTYLE
  5
1C
102
{ACAD_REACTORS
330
1B
102
}
330
1B
100
AcDbMlineStyle
  2
STANDARD
 70
     0
  3

 62
   256
 51
90.0
 52
90.0
 71
     2
 49
0.5
 62
   256
  6
BYLAYER
 49
-0.5
 62
   256
  6
BYLAYER
  0
ACAD_PROXY_OBJECT
  5
9562
102
{ACAD_REACTORS
330
9561
102
}
330
9561
100
AcDbZombieObject
 90
      499
 91
      510
 93
       41
310
903313A31580
  0
ACAD_PROXY_OBJECT
  5
9563
102
{ACAD_REACTORS
330
9561
102
}
330
9561
100
AcDbZombieObject
 90
      499
 91
      510
 93
      105
310
903313A324000000000000004000
  0
ACAD_PROXY_OBJECT
  5
9564
102
{ACAD_REACTORS
330
9561
102
}
330
9561
100
AcDbZombieObject
 90
      499
 91
      510
 93
      105
310
903313A344000000000000104000
  0
ACAD_PROXY_OBJECT
  5
9565
102
{ACAD_REACTORS
330
9561
102
}
330
9561
100
AcDbZombieObject
 90
      499
 91
      510
 93
      105
310
903313A354000000000000144000
  0
ACAD_PROXY_OBJECT
  5
9566
102
{ACAD_REACTORS
330
9561
102
}
330
9561
100
AcDbZombieObject
 90
      499
 91
      510
 93
      105
310
903313A384000000000000204000
  0
ACAD_PROXY_OBJECT
  5
9567
102
{ACAD_REACTORS
330
9561
102
}
330
9561
100
AcDbZombieObject
 90
      499
 91
      510
 93
      113
310
904313A31304000000000000244000
  0
ACAD_PROXY_OBJECT
  5
9568
102
{ACAD_REACTORS
330
9561
102
}
330
9561
100
AcDbZombieObject
 90
      499
 91
      510
 93
      113
310
904313A31364000000000000304000
  0
ACAD_PROXY_OBJECT
  5
9569
102
{ACAD_REACTORS
330
9561
102
}
330
9561
100
AcDbZombieObject
 90
      499
 91
      510
 93
      113
310
904313A32304000000000000344000
  0
ACAD_PROXY_OBJECT
  5
956A
102
{ACAD_REACTORS
330
9561
102
}
330
9561
100
AcDbZombieObject
 90
      499
 91
      510
 93
      113
310
904313A333040000000000003E4000
  0
ACAD_PROXY_OBJECT
  5
956B
102
{ACAD_REACTORS
330
9561
102
}
330
9561
100
AcDbZombieObject
 90
      499
 91
      510
 93
      113
310
904313A34304000000000000444000
  0
ACAD_PROXY_OBJECT
  5
956C
102
{ACAD_REACTORS
330
9561
102
}
330
9561
100
AcDbZombieObject
 90
      499
 91
      510
 93
      113
310
904313A35304000000000000494000
  0
ACAD_PROXY_OBJECT
  5
956D
102
{ACAD_REACTORS
330
9561
102
}
330
9561
100
AcDbZombieObject
 90
      499
 91
      510
 93
      121
310
905313A3130304000000000000594000
  0
ACAD_PROXY_OBJECT
  5
956E
102
{ACAD_REACTORS
330
9561
102
}
330
9561
100
AcDbZombieObject
 90
      499
 91
      510
 93
      105
310
903323A310000000000000010100
  0
ACAD_PROXY_OBJECT
  5
956F
102
{ACAD_REACTORS
330
9561
102
}
330
9561
100
AcDbZombieObject
 90
      499
 91
      510
 93
      105
310
903343A310000000000000410100
  0
ACAD_PROXY_OBJECT
  5
9570
102
{ACAD_REACTORS
330
9561
102
}
330
9561
100
AcDbZombieObject
 90
      499
 91
      510
 93
      105
310
903383A310000000000000810100
  0
ACAD_PROXY_OBJECT
  5
9571
102
{ACAD_REACTORS
330
9561
102
}
330
9561
100
AcDbZombieObject
 90
      499
 91
      510
 93
      113
310
90431303A310000000000000910100
  0
ACAD_PROXY_OBJECT
  5
9572
102
{ACAD_REACTORS
330
9561
102
}
330
9561
100
AcDbZombieObject
 90
      499
 91
      510
 93
      121
310
9053130303A310000000000001650100
  0
ACAD_PROXY_OBJECT
  5
9573
102
{ACAD_REACTORS
330
9561
102
}
330
9561
100
AcDbZombieObject
 90
      499
 91
      510
 93
      257
310
90E312F31323822203D2031272D3022000000000000200FC000000000000284000
  0
ACAD_PROXY_OBJECT
  5
9574
102
{ACAD_REACTORS
330
9561
102
}
330
9561
100
AcDbZombieObject
 90
      499
 91
      510
 93
      249
310
90D312F363422203D2031272D3022000000000000240FC000000000000284000
  0
ACAD_PROXY_OBJECT
  5
9575
102
{ACAD_REACTORS
330
9561
102
}
330
9561
100
AcDbZombieObject
 90
      499
 91
      510
 93
      249
310
90D312F333222203D2031272D3022000000000000280FC000000000000284000
  0
ACAD_PROXY_OBJECT
  5
9576
102
{ACAD_REACTORS
330
9561
102
}
330
9561
100
AcDbZombieObject
 90
      499
 91
      510
 93
      249
310
90D312F313622203D2031272D30220000000000002C0FC000000000000284000
  0
ACAD_PROXY_OBJECT
  5
9577
102
{ACAD_REACTORS
330
9561
102
}
330
9561
100
AcDbZombieObject
 90
      499
 91
      510
 93
      249
310
90D332F333222203D2031272D30220000000000002E0FC000000000000284000
  0
ACAD_PROXY_OBJECT
  5
9578
102
{ACAD_REACTORS
330
9561
102
}
330
9561
100
AcDbZombieObject
 90
      499
 91
      510
 93
      241
310
90C312F3822203D2031272D3022000000000000300FC000000000000284000
  0
ACAD_PROXY_OBJECT
  5
9579
102
{ACAD_REACTORS
330
9561
102
}
330
9561
100
AcDbZombieObject
 90
      499
 91
      510
 93
      249
310
90D332F313622203D2031272D3022000000000000320FC000000000000284000
  0
ACAD_PROXY_OBJECT
  5
957A
102
{ACAD_REACTORS
330
9561
102
}
330
9561
100
AcDbZombieObject
 90
      499
 91
      510
 93
      241
310
90C312F3422203D2031272D3022000000000000340FC000000000000284000
  0
ACAD_PROXY_OBJECT
  5
957B
102
{ACAD_REACTORS
330
9561
102
}
330
9561
100
AcDbZombieObject
 90
      499
 91
      510
 93
      241
310
90C332F3822203D2031272D3022000000000000360FC000000000000284000
  0
ACAD_PROXY_OBJECT
  5
957C
102
{ACAD_REACTORS
330
9561
102
}
330
9561
100
AcDbZombieObject
 90
      499
 91
      510
 93
      241
310
90C312F3222203D2031272D3022000000000000380FC000000000000284000
  0
ACAD_PROXY_OBJECT
  5
957D
102
{ACAD_REACTORS
330
9561
102
}
330
9561
100
AcDbZombieObject
 90
      499
 91
      510
 93
      241
310
90C332F3422203D2031272D30220000000000003A0FC000000000000284000
  0
ACAD_PROXY_OBJECT
  5
957E
102
{ACAD_REACTORS
330
9561
102
}
330
9561
100
AcDbZombieObject
 90
      499
 91
      510
 93
      161
310
90A3122203D2031272D30224000000000000284000
  0
ACAD_PROXY_OBJECT
  5
957F
102
{ACAD_REACTORS
330
9561
102
}
330
9561
100
AcDbZombieObject
 90
      499
 91
      510
 93
      257
310
90E312D312F3222203D2031272D30220000000000003E0FC000000000000284000
  0
ACAD_PROXY_OBJECT
  5
9580
102
{ACAD_REACTORS
330
9561
102
}
330
9561
100
AcDbZombieObject
 90
      499
 91
      510
 93
      225
310
90A3322203D2031272D302200000000000002100000000000000284000
  0
ACAD_PROXY_OBJECT
  5
9581
102
{ACAD_REACTORS
330
9561
102
}
330
9561
100
AcDbZombieObject
 90
      499
 91
      510
 93
      225
310
90A3622203D2031272D302200000000000006100000000000000284000
  0
ACAD_PROXY_OBJECT
  5
9582
102
{ACAD_REACTORS
330
9561
102
}
330
9561
100
AcDbZombieObject
 90
      499
 91
      510
 93
      249
310
90D31272D3022203D2031272D30220000000000000A100000000000000284000
  0
ACAD_PROXY_OBJECT
  5
9556
102
{ACAD_REACTORS
330
9550
102
}
330
9550
100
AcDbZombieObject
 90
      499
 91
      509
 93
      436
310
42CC9915DA5C99599C985B595049028333333333333E3BF0000000000000FB0107901411070040501600405405064090741402480A0340
1001
ACAD
1000
AcDbSavedByObjectVersion
1070
     0
  0
ACAD_PROXY_OBJECT
  5
9558
102
{ACAD_REACTORS
330
9550
102
}
330
9550
100
AcDbZombieObject
 90
      499
 91
      509
 93
      500
310
424CD108121A5919195B90640502408333333333333E3BF0000000000000FB01079024090700405020000000000001110200405405064090740C02480A0340
1001
ACAD
1000
AcDbSavedByObjectVersion
1070
     0
  0
ACAD_PROXY_OBJECT
  5
9557
102
{ACAD_REACTORS
330
9550
102
}
330
9550
100
AcDbZombieObject
 90
      499
 91
      509
 93
      436
310
42CCD915DA5C99599C985B595059028333333333333E3BF0000000000000FB0107901411070040501600405405064090741402480A0340
1001
ACAD
1000
AcDbSavedByObjectVersion
1070
     0
  0
ACAD_PROXY_OBJECT
  5
9555
102
{ACAD_REACTORS
330
9550
102
}
330
9550
100
AcDbZombieObject
 90
      499
 91
      509
 93
      388
310
4150985CDA58D07406404333333333333E3BF0000000000000FB0107A41107004050150841D405064090741402480A0350
1001
ACAD
1000
AcDbSavedByObjectVersion
1070
     0
  0
ACAD_PROXY_OBJECT
  5
955C
102
{ACAD_REACTORS
330
9550
102
}
330
9550
100
AcDbZombieObject
 90
      499
 91
      509
 93
      428
310
42109C9A59DA1D195B90C409028333333333333E3BF0000000000000FB010790141107004050150841D405064090741402480A029950
1001
ACAD
1000
AcDbSavedByObjectVersion
1070
     0
  0
ACAD_PROXY_OBJECT
  5
9560
102
{ACAD_REACTORS
330
9550
102
}
330
9550
100
AcDbZombieObject
 90
      499
 91
      509
 93
      452
310
42D0DBDB1BDC90DA185B99D95104090240C333333333333E3BF0000000000000FB0108901411070040501508421405064090741402480A0350
1001
ACAD
1000
AcDbSavedByObjectVersion
1070
     0
  0
ACAD_PROXY_OBJECT
  5
9559
102
{ACAD_REACTORS
330
9550
102
}
330
9550
100
AcDbZombieObject
 90
      499
 91
      509
 93
      500
310
4290DBDB98D95C1D1D585B10940D028333333333333E3BF0000000000000FB0107902409070040501000000000000111010841D405064090740C02480A0340
1001
ACAD
1000
AcDbSavedByObjectVersion
1070
     0
  0
ACAD_PROXY_OBJECT
  5
955B
102
{ACAD_REACTORS
330
9550
102
}
330
9550
100
AcDbZombieObject
 90
      499
 91
      509
 93
      412
310
40D11A5B50B409028333333333333E3BF0000000000000FB010790141107004050150841D405064090741402480A02677FFFFFD0
1001
ACAD
1000
AcDbSavedByObjectVersion
1070
     0
  0
ACAD_PROXY_OBJECT
  5
A211
102
{ACAD_REACTORS
330
9550
102
}
330
9550
100
AcDbZombieObject
 90
      499
 91
      509
 93
      452
310
43115919D950DBDB1BDC93D999916409028333333333333E3BF0000000000000FB010790141107004050150841D405064090741402480A0350
1001
ACAD
1000
AcDbSavedByObjectVersion
1070
     0
  0
ACAD_PROXY_OBJECT
  5
955F
102
{ACAD_REACTORS
330
9550
102
}
330
9550
100
AcDbZombieObject
 90
      499
 91
      509
 93
      444
310
42D19858D95C185D1D195C9B90F409028333333333333E3BF0000000000000FB010790141107004050150841D405064090741402480A0350
1001
ACAD
1000
AcDbSavedByObjectVersion
1070
     0
  0
ACAD_PROXY_OBJECT
  5
9551
102
{ACAD_REACTORS
330
9550
102
}
330
9550
100
AcDbZombieObject
 90
      499
 91
      509
 93
      388
310
41119B185D240901404333333333333E3BF0000000000000F9010740A41107004050150841D405064090741402480A1B50
1001
ACAD
1000
AcDbSavedByObjectVersion
1070
     0
  0
ACAD_PROXY_OBJECT
  5
9552
102
{ACAD_REACTORS
330
9550
102
}
330
9550
100
AcDbZombieObject
 90
      499
 91
      509
 93
      476
310
43519B185D15DA5D1A115919D95CD0140901404333333333333E3BF0000000000000F9010740901411070040501600405405064090741402480A1B50
1001
ACAD
1000
AcDbSavedByObjectVersion
1070
     0
  0
ACAD_PROXY_OBJECT
  5
9553
102
{ACAD_REACTORS
330
9550
102
}
330
9550
100
AcDbZombieObject
 90
      499
 91
      509
 93
      412
310
41D1DBDD5C985D5910240902404333333333333E3BF0000000000000F9010740A411070040501641D405064090741402480A1B50
1001
ACAD
1000
AcDbSavedByObjectVersion
1070
     0
  0
ACAD_PROXY_OBJECT
  5
9554
102
{ACAD_REACTORS
330
9550
102
}
330
9550
100
AcDbZombieObject
 90
      499
 91
      509
 93
      500
310
4411DBDD5C985D5915DA5D1A115919D95CD0340902404333333333333E3BF0000000000000F9010740901411070040501600405405064090741402480A1B50
1001
ACAD
1000
AcDbSavedByObjectVersion
1070
     0
  0
ACAD_PROXY_OBJECT
  5
A260
102
{ACAD_REACTORS
330
9550
102
}
330
9550
100
AcDbZombieObject
 90
      499
 91
      509
 93
      476
310
41921A5919195B90640502408333333333333E33F0000000000000F901079024090700405020000000000001110200405405064090740C02480A0340
1001
ACAD
1000
AcDbSavedByObjectVersion
1070
     0
  0
ACAD_PROXY_OBJECT
  5
A20F
102
{ACAD_REACTORS
330
9550
102
}
330
9550
100
AcDbZombieObject
 90
      499
 91
      509
 93
      428
310
42529A5D1D195C93D999914409028333333333333E3BF0000000000000FB010790141107004050150A41D405064090741402480A0350
1001
ACAD
1000
AcDbSavedByObjectVersion
1070
     0
  0
ACAD_PROXY_OBJECT
  5
955E
102
{ACAD_REACTORS
330
9550
102
}
330
9550
100
AcDbZombieObject
 90
      499
 91
      509
 93
      444
310
42D31A5B995C185D1D195C9B90E409028333333333333E3BF0000000000000FB010790141107004050750841D405064090741402483A0350
1001
ACAD
1000
AcDbSavedByObjectVersion
1070
     0
  0
ACAD_PROXY_OBJECT
  5
A266
102
{ACAD_REACTORS
330
9550
102
}
330
9550
100
AcDbZombieObject
 90
      499
 91
      509
 93
      484
310
42135BD9195B1A5B99D0A409038333333333333E33F0000000000000F901074090290700405010000000000201990108421405064090741402480A1B40
1001
ACAD
1000
AcDbSavedByObjectVersion
1070
     0
  0
ACAD_PROXY_OBJECT
  5
A210
102
{ACAD_REACTORS
330
9550
102
}
330
9550
100
AcDbZombieObject
 90
      499
 91
      509
 93
      444
310
42D3DD995C9A185B99D3D999915409028333333333333E3BF0000000000000FB010790141107004050150941D405064090741402480A0350
1001
ACAD
1000
AcDbSavedByObjectVersion
1070
     0
  0
ACAD_PROXY_OBJECT
  5
955A
102
{ACAD_REACTORS
330
9550
102
}
330
9550
100
AcDbZombieObject
 90
      499
 91
      509
 93
      420
310
425499585B1A5CDD1A58D08409028333333333333E3BF0000000000000FB01079019070040501508421405064090741402480A1B40
1001
ACAD
1000
AcDbSavedByObjectVersion
1070
     0
  0
ACAD_PROXY_OBJECT
  5
A265
102
{ACAD_REACTORS
330
9550
102
}
330
9550
100
AcDbZombieObject
 90
      499
 91
      509
 93
      420
310
4194DA1859195911B40902404333333333333E33F0000000000000F9010740A41107004050150800405405064090840C02480A0B40
1001
ACAD
1000
AcDbSavedByObjectVersion
1070
     0
  0
ACAD_PROXY_OBJECT
  5
A264
102
{ACAD_REACTORS
330
9550
102
}
330
9550
100
AcDbZombieObject
 90
      499
 91
      509
 93
      516
310
4454DA18591959081DDA5D1A08195919D95CD1A40902404333333333333E33F0000000000000F901074090142907004050250800405405064090740C02480A0B40
1001
ACAD
1000
AcDbSavedByObjectVersion
1070
     0
  0
ACAD_PROXY_OBJECT
  5
A261
102
{ACAD_REACTORS
330
9550
102
}
330
9550
100
AcDbZombieObject
 90
      499
 91
      509
 93
      532
310
4394DA1859195CC81BD98811DC985E5174090240C333333333333E33F0000000000000F901079024090741D01000000000000111010841D405064090740C02480A0340
1001
ACAD
1000
AcDbSavedByObjectVersion
1070
     0
  0
ACAD_PROXY_OBJECT
  5
A262
102
{ACAD_REACTORS
330
9550
102
}
330
9550
100
AcDbZombieObject
 90
      499
 91
      509
 93
      476
310
41D4DAD95D18DA1E51840502408333333333333E33F0000000000000F901079024090741D01000000000000111010B41D405064090741802480A0340
1001
ACAD
1000
AcDbSavedByObjectVersion
1070
     0
  0
ACAD_PROXY_OBJECT
  5
955D
102
{ACAD_REACTORS
330
9550
102
}
330
9550
100
AcDbZombieObject
 90
      499
 91
      509
 93
      412
310
41D51A1A58DAD95B90D409028333333333333E3BF0000000000000FB010790141107004050150C41D405064090741402480A0350
1001
ACAD
1000
AcDbSavedByObjectVersion
1070
     0
  0
ACAD_PROXY_OBJECT
  5
A25F
102
{ACAD_REACTORS
330
9550
102
}
330
9550
100
AcDbZombieObject
 90
      499
 91
      509
 93
      420
310
4255DA5C99599C985B595059028333333333333E33F0000000000000F90107901411070040501600405405064090740C02480A0340
1001
ACAD
1000
AcDbSavedByObjectVersion
1070
     0
  0
ACAD_PROXY_OBJECT
  5
A263
102
{ACAD_REACTORS
330
9550
102
}
330
9550
100
AcDbZombieObject
 90
      499
 91
      509
 93
      404
310
41560B54985E51940902404000000000000E03F0000000000000F9010740501907004050150841D405064090740C02480A1B40
1001
ACAD
1000
AcDbSavedByObjectVersion
1070
     0
  0
XRECORD
  5
B43B
102
{ACAD_REACTORS
330
B43A
102
}
330
B43A
100
AcDbXrecord
340
18D
  0
XRECORD
  5
B43C
102
{ACAD_REACTORS
330
B43A
102
}
330
B43A
100
AcDbXrecord
340
18C
  0
DICTIONARYVAR
  5
AAE0
102
{ACAD_REACTORS
330
37
102
}
330
37
100
DictionaryVariables
280
     0
  1
1:1
  0
DICTIONARYVAR
  5
9627
102
{ACAD_REACTORS
330
37
102
}
330
37
100
DictionaryVariables
280
     0
  1
Standard
  0
DICTIONARYVAR
  5
29E
102
{ACAD_REACTORS
330
37
102
}
330
37
100
DictionaryVariables
280
     0
  1
Standard
  0
DICTIONARYVAR
  5
38
102
{ACAD_REACTORS
330
37
102
}
330
37
100
DictionaryVariables
280
     0
  1
-1
  0
DICTIONARYVAR
  5
1CE
102
{ACAD_REACTORS
330
37
102
}
330
37
100
DictionaryVariables
280
     0
  1
2
  0
DICTIONARYVAR
  5
704E
102
{ACAD_REACTORS
330
37
102
}
330
37
100
DictionaryVariables
280
     0
  1
1
  0
DICTIONARYVAR
  5
962A
102
{ACAD_REACTORS
330
37
102
}
330
37
100
DictionaryVariables
280
     0
  1
0
  0
DICTIONARYVAR
  5
7052
102
{ACAD_REACTORS
330
37
102
}
330
37
100
DictionaryVariables
280
     0
  1
8
  0
DICTIONARYVAR
  5
7051
102
{ACAD_REACTORS
330
37
102
}
330
37
100
DictionaryVariables
280
     0
  1
1
  0
DICTIONARYVAR
  5
AB30
102
{ACAD_REACTORS
330
37
102
}
330
37
100
DictionaryVariables
280
     0
  1
0
  0
DICTIONARYVAR
  5
704F
102
{ACAD_REACTORS
330
37
102
}
330
37
100
DictionaryVariables
280
     0
  1
8
  0
DICTIONARYVAR
  5
7050
102
{ACAD_REACTORS
330
37
102
}
330
37
100
DictionaryVariables
280
     0
  1
2
  0
DICTIONARYVAR
  5
1CF
102
{ACAD_REACTORS
330
37
102
}
330
37
100
DictionaryVariables
280
     0
  1

  0
DICTIONARYVAR
  5
9629
102
{ACAD_REACTORS
330
37
102
}
330
37
100
DictionaryVariables
280
     0
  1
127
  0
DICTIONARYVAR
  5
A25E
102
{ACAD_REACTORS
330
37
102
}
330
37
100
DictionaryVariables
280
     0
  1
2
  0
DICTIONARY
  5
B5D8
330
9540
100
AcDbDictionary
  3
ACAD_XREC_ROUNDTRIP
360
B5D9
1001
ACAD
1000
TREAT_AS_HARD
1070
     1
  0
DICTIONARY
  5
B5DA
330
9538
100
AcDbDictionary
  3
ACAD_XREC_ROUNDTRIP
360
B5DB
1001
ACAD
1000
TREAT_AS_HARD
1070
     1
  0
DICTIONARY
  5
B5DC
330
9548
100
AcDbDictionary
  3
ACAD_XREC_ROUNDTRIP
360
B5DD
1001
ACAD
1000
TREAT_AS_HARD
1070
     1
  0
XRECORD
  5
B5D9
102
{ACAD_REACTORS
330
B5D8
102
}
330
B5D8
100
AcDbXrecord
102
MATERIAL
148
0.0
149
0.0
149
0.0
 93
        0
 94
      127
282
     0
 72
     0
 77
     0
171
     0
175
     0
179
     0
273
     0
  0
XRECORD
  5
B5DB
102
{ACAD_REACTORS
330
B5DA
102
}
330
B5DA
100
AcDbXrecord
102
MATERIAL
148
0.0
149
0.0
149
0.0
 93
        0
 94
      127
282
     0
 72
     0
 77
     0
171
     0
175
     0
179
     0
273
     0
  0
XRECORD
  5
B5DD
102
{ACAD_REACTORS
330
B5DC
102
}
330
B5DC
100
AcDbXrecord
102
MATERIAL
148
0.0
149
0.0
149
0.0
 93
        0
 94
      127
282
     0
 72
     0
 77
     0
171
     0
175
     0
179
     0
273
     0
  0
ENDSEC
  0
EOF
