  0
SECTION
  2
HEADER
  9
$ACADVER
  1
AC1012
  9
$DWGCODEPAGE
  3
ansi_932
  9
$INSBASE
 10
0.0
 20
0.0
 30
0.0
  9
$EXTMIN
 10
5010.751826395031
 20
-382.7089360893933
 30
0.0000000001057481
  9
$EXTMAX
 10
5319.180111777462
 20
-142.710254402496
 30
0.0000000001127424
  9
$LIMMIN
 10
0.0
 20
0.0
  9
$LIMMAX
 10
420.0
 20
297.0
  9
$ORTHOMODE
 70
     0
  9
$REGENMODE
 70
     1
  9
$FILLMODE
 70
     1
  9
$QTEXTMODE
 70
     0
  9
$MIRRTEXT
 70
     0
  9
$DRAGMODE
 70
     2
  9
$LTSCALE
 40
0.5
  9
$OSMODE
 70
 14463
  9
$ATTMODE
 70
     1
  9
$TEXTSIZE
 40
4.0
  9
$TRACEWID
 40
1.0
  9
$TEXTSTYLE
  7
STANDARD
  9
$CLAYER
  8
1TEXT
  9
$CELTYPE
  6
BYLAYER
  9
$CECOLOR
 62
   256
  9
$CELTSCALE
 40
1.0
  9
$DELOBJ
 70
     1
  9
$DISPSILH
 70
     0
  9
$DIMSCALE
 40
1.0
  9
$DIMASZ
 40
2.0
  9
$DIMEXO
 40
0.0
  9
$DIMDLI
 40
7.0
  9
$DIMRND
 40
0.0
  9
$DIMDLE
 40
0.0
  9
$DIMEXE
 40
1.0
  9
$DIMTP
 40
0.0
  9
$DIMTM
 40
0.0
  9
$DIMTXT
 40
3.5
  9
$DIMCEN
 40
0.0
  9
$DIMTSZ
 40
0.0
  9
$DIMTOL
 70
     0
  9
$DIMLIM
 70
     0
  9
$DIMTIH
 70
     0
  9
$DIMTOH
 70
     0
  9
$DIMSE1
 70
     0
  9
$DIMSE2
 70
     0
  9
$DIMTAD
 70
     1
  9
$DIMZIN
 70
     8
  9
$DIMBLK
  1

  9
$DIMASO
 70
     1
  9
$DIMSHO
 70
     1
  9
$DIMPOST
  1
 
  9
$DIMAPOST
  1

  9
$DIMALT
 70
     0
  9
$DIMALTD
 70
     2
  9
$DIMALTF
 40
25.4
  9
$DIMLFAC
 40
1.0
  9
$DIMTOFL
 70
     1
  9
$DIMTVP
 40
0.0
  9
$DIMTIX
 70
     0
  9
$DIMSOXD
 70
     0
  9
$DIMSAH
 70
     1
  9
$DIMBLK1
  1
OPEN30
  9
$DIMBLK2
  1
OPEN30
  9
$DIMSTYLE
  2
NEWX10
  9
$DIMCLRD
 70
   256
  9
$DIMCLRE
 70
   256
  9
$DIMCLRT
 70
   201
  9
$DIMTFAC
 40
0.7
  9
$DIMGAP
 40
0.7
  9
$DIMJUST
 70
     0
  9
$DIMSD1
 70
     0
  9
$DIMSD2
 70
     0
  9
$DIMTOLJ
 70
     1
  9
$DIMTZIN
 70
     8
  9
$DIMALTZ
 70
     0
  9
$DIMALTTZ
 70
     0
  9
$DIMFIT
 70
     3
  9
$DIMUPT
 70
     0
  9
$DIMUNIT
 70
     2
  9
$DIMDEC
 70
     2
  9
$DIMTDEC
 70
     4
  9
$DIMALTU
 70
     2
  9
$DIMALTTD
 70
     2
  9
$DIMTXSTY
  7
STANDARD
  9
$DIMAUNIT
 70
     0
  9
$LUNITS
 70
     2
  9
$LUPREC
 70
     4
  9
$SKETCHINC
 40
1.0
  9
$FILLETRAD
 40
0.0
  9
$AUNITS
 70
     0
  9
$AUPREC
 70
     2
  9
$MENU
  1
acad
  9
$ELEVATION
 40
0.0
  9
$PELEVATION
 40
0.0
  9
$THICKNESS
 40
0.0
  9
$LIMCHECK
 70
     0
  9
$CHAMFERA
 40
10.0
  9
$CHAMFERB
 40
10.0
  9
$CHAMFERC
 40
20.0
  9
$CHAMFERD
 40
0.0
  9
$SKPOLY
 70
     0
  9
$TDCREATE
 40
2451318.621352917
  9
$TDUPDATE
 40
2458163.558467002
  9
$TDINDWG
 40
1.481508669
  9
$TDUSRTIMER
 40
1.481508669
  9
$USRTIMER
 70
     1
  9
$ANGBASE
 50
0.0
  9
$ANGDIR
 70
     0
  9
$PDMODE
 70
     0
  9
$PDSIZE
 40
0.0
  9
$PLINEWID
 40
0.0
  9
$COORDS
 70
     2
  9
$SPLFRAME
 70
     0
  9
$SPLINETYPE
 70
     6
  9
$SPLINESEGS
 70
     8
  9
$ATTDIA
 70
     0
  9
$ATTREQ
 70
     1
  9
$HANDLING
 70
     1
  9
$HANDSEED
  5
B533
  9
$SURFTAB1
 70
     6
  9
$SURFTAB2
 70
     6
  9
$SURFTYPE
 70
     6
  9
$SURFU
 70
     6
  9
$SURFV
 70
     6
  9
$UCSNAME
  2

  9
$UCSORG
 10
0.0
 20
0.0
 30
0.0
  9
$UCSXDIR
 10
1.0
 20
0.0
 30
0.0
  9
$UCSYDIR
 10
0.0
 20
1.0
 30
0.0
  9
$PUCSNAME
  2

  9
$PUCSORG
 10
0.0
 20
0.0
 30
0.0
  9
$PUCSXDIR
 10
1.0
 20
0.0
 30
0.0
  9
$PUCSYDIR
 10
0.0
 20
1.0
 30
0.0
  9
$USERI1
 70
     0
  9
$USERI2
 70
     0
  9
$USERI3
 70
     0
  9
$USERI4
 70
     0
  9
$USERI5
 70
     0
  9
$USERR1
 40
0.0
  9
$USERR2
 40
0.0
  9
$USERR3
 40
0.0
  9
$USERR4
 40
0.0
  9
$USERR5
 40
0.0
  9
$WORLDVIEW
 70
     1
  9
$SHADEDGE
 70
     3
  9
$SHADEDIF
 70
    70
  9
$TILEMODE
 70
     1
  9
$MAXACTVP
 70
    48
  9
$PINSBASE
 10
0.0
 20
0.0
 30
0.0
  9
$PLIMCHECK
 70
     0
  9
$PEXTMIN
 10
1.000000000000000E+20
 20
1.000000000000000E+20
 30
1.000000000000000E+20
  9
$PEXTMAX
 10
-1.000000000000000E+20
 20
-1.000000000000000E+20
 30
-1.000000000000000E+20
  9
$PLIMMIN
 10
0.0
 20
0.0
  9
$PLIMMAX
 10
420.0
 20
297.0
  9
$UNITMODE
 70
     0
  9
$VISRETAIN
 70
     1
  9
$PLINEGEN
 70
     0
  9
$PSLTSCALE
 70
     1
  9
$TREEDEPTH
 70
  3020
  9
$PICKSTYLE
 70
     1
  9
$CMLSTYLE
  2
STANDARD
  9
$CMLJUST
 70
     0
  9
$CMLSCALE
 40
20.0
  9
$SAVEIMAGES
 70
     1
  0
ENDSEC
  0
SECTION
  2
CLASSES
  0
CLASS
  1
DICTIONARYVAR
  2
AcDbDictionaryVar
  3
ObjectDBX Classes
 90
        0
280
     0
281
     0
  0
CLASS
  1
IDBUFFER
  2
AcDbIdBuffer
  3
ObjectDBX Classes
 90
    32768
280
     0
281
     0
  0
CLASS
  1
LWPOLYLINE
  2
AcDbPolyline
  3
ObjectDBX Classes
 90
    32768
280
     0
281
     1
  0
CLASS
  1
ACDBDICTIONARYWDFLT
  2
AcDbDictionaryWithDefault
  3
ObjectDBX Classes
 90
    32768
280
     0
281
     0
  0
CLASS
  1
ACDBPLACEHOLDER
  2
AcDbPlaceHolder
  3
ObjectDBX Classes
 90
        0
280
     0
281
     0
  0
CLASS
  1
LAYOUT
  2
AcDbLayout
  3
ObjectDBX Classes
 90
        0
280
     0
281
     0
  0
CLASS
  1
TABLESTYLE
  2
AcDbTableStyle
  3
ObjectDBX Classes
 90
     4095
280
     0
281
     0
  0
CLASS
  1
SORTENTSTABLE
  2
AcDbSortentsTable
  3
ObjectDBX Classes
 90
    32768
280
     0
281
     0
  0
CLASS
  1
MATERIAL
  2
AcDbMaterial
  3
ObjectDBX Classes
 90
     1153
280
     0
281
     0
  0
CLASS
  1
VISUALSTYLE
  2
AcDbVisualStyle
  3
ObjectDBX Classes
 90
     4095
280
     0
281
     0
  0
CLASS
  1
SCALE
  2
AcDbScale
  3
ObjectDBX Classes
 90
     1153
280
     0
281
     0
  0
CLASS
  1
MLEADERSTYLE
  2
AcDbMLeaderStyle
  3
ACDB_MLEADERSTYLE_CLASS
 90
     4095
280
     0
281
     0
  0
CLASS
  1
CELLSTYLEMAP
  2
AcDbCellStyleMap
  3
ObjectDBX Classes
 90
     1152
280
     0
281
     0
  0
CLASS
  1
SUN
  2
AcDbSun
  3
SCENEOE
 90
     1153
280
     0
281
     0
  0
CLASS
  1
XRECORD
  2
AcDbXrecord
  3
ObjectDBX Classes
 90
    32768
280
     0
281
     0
  0
CLASS
  1
HATCH
  2
AcDbHatch
  3
ObjectDBX Classes
 90
    32768
280
     0
281
     1
  0
ENDSEC
  0
SECTION
  2
TABLES
  0
TABLE
  2
VPORT
  5
8
330
0
100
AcDbSymbolTable
 70
     1
  0
VPORT
  5
952D
330
8
100
AcDbSymbolTableRecord
100
AcDbViewportTableRecord
  2
*ACTIVE
 70
     0
 10
0.0
 20
0.0
 11
1.0
 21
1.0
 12
5164.965969086246
 22
-262.7095952459447
 13
0.0
 23
0.0
 14
10.0
 24
10.0
 15
10.0
 25
10.0
 16
0.0
 26
0.0
 36
1.0
 17
0.0
 27
0.0
 37
0.0
 40
257.6827950743529
 41
1.871481028151775
 42
50.0
 43
0.0
 44
0.0
 50
0.0
 51
0.0
 71
    16
 72
  1000
 73
     1
 74
     1
 75
     0
 76
     0
 77
     0
 78
     0
1001
ACAD_NAV_VCDISPLAY
1070
     3
  0
ENDTAB
  0
TABLE
  2
LTYPE
  5
5
330
0
100
AcDbSymbolTable
 70
     2
  0
LTYPE
  5
12
330
5
100
AcDbSymbolTableRecord
100
AcDbLinetypeTableRecord
  2
BYBLOCK
 70
     0
  3

 72
    65
 73
     0
 40
0.0
  0
LTYPE
  5
13
330
5
100
AcDbSymbolTableRecord
100
AcDbLinetypeTableRecord
  2
BYLAYER
 70
     0
  3

 72
    65
 73
     0
 40
0.0
  0
LTYPE
  5
14
330
5
100
AcDbSymbolTableRecord
100
AcDbLinetypeTableRecord
  2
CONTINUOUS
 70
     0
  3
Solid line
 72
    65
 73
     0
 40
0.0
  0
LTYPE
  5
9837
330
5
100
AcDbSymbolTableRecord
100
AcDbLinetypeTableRecord
  2
CENTER2
 70
     0
  3
Center (.5x) ___ _ ___ _ ___ _ ___ _ ___ _ ___
 72
    65
 73
     4
 40
28.575
 49
19.05
 74
     0
 49
-3.175
 74
     0
 49
3.175
 74
     0
 49
-3.175
 74
     0
  0
ENDTAB
  0
TABLE
  2
LAYER
  5
2
102
{ACAD_XDICTIONARY
360
96D9
102
}
330
0
100
AcDbSymbolTable
 70
     5
  0
LAYER
  5
E
102
{ACAD_XDICTIONARY
360
9593
102
}
330
2
100
AcDbSymbolTableRecord
100
AcDbLayerTableRecord
  2
0
 70
     0
 62
     7
  6
CONTINUOUS
  0
LAYER
  5
29
102
{ACAD_XDICTIONARY
360
9595
102
}
330
2
100
AcDbSymbolTableRecord
100
AcDbLayerTableRecord
  2
1CENTER
 70
     0
 62
     7
  6
CENTER2
  0
LAYER
  5
31
102
{ACAD_XDICTIONARY
360
9597
102
}
330
2
100
AcDbSymbolTableRecord
100
AcDbLayerTableRecord
  2
1TEXT
 70
     0
 62
     7
  6
CONTINUOUS
  0
LAYER
  5
243
102
{ACAD_XDICTIONARY
360
959D
102
}
330
2
100
AcDbSymbolTableRecord
100
AcDbLayerTableRecord
  2
01
 70
     0
 62
     1
  6
CONTINUOUS
  0
LAYER
  5
24E
102
{ACAD_XDICTIONARY
360
95A3
102
}
330
2
100
AcDbSymbolTableRecord
100
AcDbLayerTableRecord
  2
1DIM
 70
     0
 62
     7
  6
CONTINUOUS
  0
ENDTAB
  0
TABLE
  2
STYLE
  5
3
330
0
100
AcDbSymbolTable
 70
     1
  0
STYLE
  5
F
330
3
100
AcDbSymbolTableRecord
100
AcDbTextStyleTableRecord
  2
STANDARD
 70
     0
 40
0.0
 41
1.0
 50
0.0
 71
     0
 42
4.0
  3
txt.shx
  4
extfont.shx
  0
ENDTAB
  0
TABLE
  2
VIEW
  5
6
330
0
100
AcDbSymbolTable
 70
     0
  0
ENDTAB
  0
TABLE
  2
UCS
  5
7
330
0
100
AcDbSymbolTable
 70
     5
  0
UCS
  5
B102
330
7
100
AcDbSymbolTableRecord
100
AcDbUCSTableRecord
  2
U
 70
     0
 10
0.0
 20
0.0
 30
0.0
 11
1.0
 21
0.0
 31
0.0
 12
0.0
 22
2.220446049250313E-16
 32
1.0
 79
     0
146
0.0
  0
UCS
  5
B103
330
7
100
AcDbSymbolTableRecord
100
AcDbUCSTableRecord
  2
L
 70
     0
 10
0.0
 20
0.0
 30
0.0
 11
-2.220446049250313E-16
 21
-1.0
 31
2.220446049250313E-16
 12
0.0
 22
2.220446049250313E-16
 32
1.0
 79
     0
146
0.0
  0
UCS
  5
B104
330
7
100
AcDbSymbolTableRecord
100
AcDbUCSTableRecord
  2
R
 70
     0
 10
0.0
 20
0.0
 30
0.0
 11
3.445092848397667E-16
 21
1.0
 31
-2.220446049250313E-16
 12
0.0
 22
2.220446049250313E-16
 32
1.0
 79
     0
146
0.0
  0
UCS
  5
B105
330
7
100
AcDbSymbolTableRecord
100
AcDbUCSTableRecord
  2
ISOME
 70
     0
 10
0.0
 20
0.0
 30
0.0
 11
0.7071450863198265
 21
-0.7070684729403536
 31
-3.830824619466267E-5
 12
0.4082704059428734
 22
0.4082704077401151
 32
0.8164744636514736
 79
     0
146
0.0
  0
UCS
  5
B106
330
7
100
AcDbSymbolTableRecord
100
AcDbUCSTableRecord
  2
PERSPECTIVE
 70
     0
 10
0.0
 20
0.0
 30
0.0
 11
0.8191477691768964
 21
-0.5735823260466403
 31
-0.0004974931557765462
 12
0.1584844715982971
 22
0.225502028986108
 32
0.961265575782966
 79
     0
146
0.0
  0
ENDTAB
  0
TABLE
  2
APPID
  5
9
330
0
100
AcDbSymbolTable
 70
    14
  0
APPID
  5
10
330
9
100
AcDbSymbolTableRecord
100
AcDbRegAppTableRecord
  2
ACAD
 70
     0
  0
APPID
  5
21
330
9
100
AcDbSymbolTableRecord
100
AcDbRegAppTableRecord
  2
DRAWINGVARIABLESXDATA
 70
     0
  0
APPID
  5
64
330
9
100
AcDbSymbolTableRecord
100
AcDbRegAppTableRecord
  2
CONTENTTABDATA
 70
     0
  0
APPID
  5
65
330
9
100
AcDbSymbolTableRecord
100
AcDbRegAppTableRecord
  2
CONTENTCURRENTTAB
 70
     0
  0
APPID
  5
66
330
9
100
AcDbSymbolTableRecord
100
AcDbRegAppTableRecord
  2
CONTENTBLOCKDESCRIPTION
 70
     0
  0
APPID
  5
67
330
9
100
AcDbSymbolTableRecord
100
AcDbRegAppTableRecord
  2
CONTENTBLOCKICON
 70
     0
  0
APPID
  5
68
330
9
100
AcDbSymbolTableRecord
100
AcDbRegAppTableRecord
  2
CONTENTLONGBLOCKNAME
 70
     0
  0
APPID
  5
2AE
330
9
100
AcDbSymbolTableRecord
100
AcDbRegAppTableRecord
  2
ACAD_PSEXT
 70
     0
  0
APPID
  5
9585
330
9
100
AcDbSymbolTableRecord
100
AcDbRegAppTableRecord
  2
ACAD_MLEADERVER
 70
     0
  0
APPID
  5
A2E3
330
9
100
AcDbSymbolTableRecord
100
AcDbRegAppTableRecord
  2
ACADANNOTATIVE
 70
     0
  0
APPID
  5
A2E4
330
9
100
AcDbSymbolTableRecord
100
AcDbRegAppTableRecord
  2
ACDBBLOCKREPETAG
 70
     0
  0
APPID
  5
AEB1
330
9
100
AcDbSymbolTableRecord
100
AcDbRegAppTableRecord
  2
ACAD_NAV_VCDISPLAY
 70
     0
  0
APPID
  5
AEFD
330
9
100
AcDbSymbolTableRecord
100
AcDbRegAppTableRecord
  2
ACAECLAYERSTANDARD
 70
     0
  0
APPID
  5
B130
330
9
100
AcDbSymbolTableRecord
100
AcDbRegAppTableRecord
  2
ACAD_EXEMPT_FROM_CAD_STAND
 70
     0
  0
ENDTAB
  0
TABLE
  2
DIMSTYLE
  5
A
330
0
100
AcDbSymbolTable
 70
     1
  0
DIMSTYLE
105
48
330
A
100
AcDbSymbolTableRecord
100
AcDbDimStyleTableRecord
  2
NEWX10
 70
     0
  3
 
  4

  5

  6
OPEN30
  7
OPEN30
 40
1.0
 41
2.0
 42
0.0
 43
7.0
 44
1.0
 45
0.0
 46
0.0
 47
0.0
 48
0.0
140
3.5
141
0.0
142
0.0
143
25.4
144
1.0
145
0.0
146
0.7
147
0.7
 71
     0
 72
     0
 73
     0
 74
     0
 75
     0
 76
     0
 77
     1
 78
     8
170
     0
171
     2
172
     1
173
     1
174
     0
175
     0
176
   256
177
   256
178
   201
179
     1
270
     2
271
     2
272
     4
273
     2
274
     2
340
F
275
     0
280
     0
281
     0
282
     0
283
     1
284
     8
285
     0
286
     0
287
     3
288
     0
  0
ENDTAB
  0
TABLE
  2
BLOCK_RECORD
  5
1
330
0
100
AcDbSymbolTable
 70
     8
  0
BLOCK_RECORD
  5
18
102
{ACAD_XDICTIONARY
360
88F
102
}
330
1
100
AcDbSymbolTableRecord
100
AcDbBlockTableRecord
  2
*MODEL_SPACE
  0
BLOCK_RECORD
  5
15
330
1
100
AcDbSymbolTableRecord
100
AcDbBlockTableRecord
  2
*PAPER_SPACE
  0
BLOCK_RECORD
  5
42
330
1
100
AcDbSymbolTableRecord
100
AcDbBlockTableRecord
  2
_OPEN30
  0
BLOCK_RECORD
  5
A333
330
1
100
AcDbSymbolTableRecord
100
AcDbBlockTableRecord
  2
A3WAKUKAWAJUN2017_HYOUDAI_
  0
BLOCK_RECORD
  5
B393
330
1
100
AcDbSymbolTableRecord
100
AcDbBlockTableRecord
  2
*X13
  0
BLOCK_RECORD
  5
B3E1
330
1
100
AcDbSymbolTableRecord
100
AcDbBlockTableRecord
  2
*X14
  0
BLOCK_RECORD
  5
B433
330
1
100
AcDbSymbolTableRecord
100
AcDbBlockTableRecord
  2
*X15
  0
BLOCK_RECORD
  5
B484
330
1
100
AcDbSymbolTableRecord
100
AcDbBlockTableRecord
  2
*X16
  0
BLOCK_RECORD
  5
B4C1
330
1
100
AcDbSymbolTableRecord
100
AcDbBlockTableRecord
  2
*X17
  0
BLOCK_RECORD
  5
B501
330
1
100
AcDbSymbolTableRecord
100
AcDbBlockTableRecord
  2
*X18
  0
ENDTAB
  0
ENDSEC
  0
SECTION
  2
BLOCKS
  0
BLOCK
  5
19
330
18
100
AcDbEntity
  8
0
100
AcDbBlockBegin
  2
*MODEL_SPACE
 70
     0
 10
0.0
 20
0.0
 30
0.0
  3
*MODEL_SPACE
  1

  0
ENDBLK
  5
1A
330
18
100
AcDbEntity
  8
0
100
AcDbBlockEnd
  0
BLOCK
  5
16
330
15
100
AcDbEntity
 67
     1
  8
0
100
AcDbBlockBegin
  2
*PAPER_SPACE
 70
     0
 10
0.0
 20
0.0
 30
0.0
  3
*PAPER_SPACE
  1

  0
ENDBLK
  5
17
330
15
100
AcDbEntity
 67
     1
  8
0
100
AcDbBlockEnd
  0
BLOCK
  5
43
330
42
100
AcDbEntity
  8
0
100
AcDbBlockBegin
  2
_OPEN30
 70
     0
 10
0.0
 20
0.0
 30
0.0
  3
_OPEN30
  1

  0
LINE
  5
44
330
42
100
AcDbEntity
  8
0
  6
BYBLOCK
 62
     0
100
AcDbLine
 10
-1.0
 20
0.26794919
 30
0.0
 11
0.0
 21
0.0
 31
0.0
  0
LINE
  5
45
330
42
100
AcDbEntity
  8
0
  6
BYBLOCK
 62
     0
100
AcDbLine
 10
0.0
 20
0.0
 30
0.0
 11
-1.0
 21
-0.26794919
 31
0.0
  0
LINE
  5
46
330
42
100
AcDbEntity
  8
0
  6
BYBLOCK
 62
     0
100
AcDbLine
 10
0.0
 20
0.0
 30
0.0
 11
-1.0
 21
0.0
 31
0.0
  0
ENDBLK
  5
47
330
42
100
AcDbEntity
  8
0
100
AcDbBlockEnd
  0
BLOCK
  5
AA56
330
A333
100
AcDbEntity
  8
0
100
AcDbBlockBegin
  2
A3WAKUKAWAJUN2017_HYOUDAI_
 70
     0
 10
0.0
 20
0.0
 30
0.0
  3
A3WAKUKAWAJUN2017_HYOUDAI_
  1

  0
LINE
  5
A335
330
A333
100
AcDbEntity
  8
0
100
AcDbLine
 10
13.26299999998673
 20
-0.0001000000000317
 30
0.0
 11
9.236999999990758
 21
8.999899999990987
 31
0.0
1001
ACAD
1000
ASC_BOUNDS
1002
{
1070
    19
1005
A376
1002
}
  0
LINE
  5
A336
330
A333
100
AcDbEntity
  8
0
100
AcDbLine
 10
5.657999999994331
 20
0.9999999999989768
 30
0.0
 11
9.236999999990758
 21
8.999999999991019
 31
0.0
1001
ACAD
1000
ASC_BOUNDS
1002
{
1070
    19
1005
A376
1002
}
  0
LINE
  5
A337
330
A333
100
AcDbEntity
  8
0
100
AcDbLine
 10
18.59199999998134
 20
-0.2368999999997641
 30
0.0
 11
16.46099999998353
 21
5.432899999994561
 31
0.0
1001
ACAD
1000
ASC_BOUNDS
1002
{
1070
    19
1005
A377
1002
}
  0
LINE
  5
A338
330
A333
100
AcDbEntity
  8
0
100
AcDbLine
 10
18.59199999998134
 20
-0.2368999999997641
 30
0.0
 11
22.38199999997767
 21
8.763099999991255
 31
0.0
1001
ACAD
1000
ASC_BOUNDS
1002
{
1070
    19
1005
A377
1002
}
  0
LINE
  5
A339
330
A333
100
AcDbEntity
  8
0
100
AcDbLine
 10
14.32899999998563
 20
-0.2368999999997641
 30
0.0
 11
16.46099999998353
 21
5.432899999994561
 31
0.0
1001
ACAD
1000
ASC_BOUNDS
1002
{
1070
    19
1005
A377
1002
}
  0
LINE
  5
A33A
330
A333
100
AcDbEntity
  8
0
100
AcDbLine
 10
14.32899999998563
 20
-0.2368999999997641
 30
0.0
 11
10.53899999998941
 21
8.763099999991255
 31
0.0
1001
ACAD
1000
ASC_BOUNDS
1002
{
1070
    19
1005
A377
1002
}
  0
LINE
  5
A33B
330
A333
100
AcDbEntity
  8
0
100
AcDbLine
 10
19.53899999998043
 20
-0.0001000000000317
 30
0.0
 11
23.56599999997638
 21
8.999899999990987
 31
0.0
1001
ACAD
1000
ASC_BOUNDS
1002
{
1070
    19
1005
A378
1002
}
  0
LINE
  5
A33C
330
A333
100
AcDbEntity
  8
0
100
AcDbLine
 10
26.97358892824991
 20
1.383099999991202
 30
0.0
 11
23.56599999997638
 21
8.999899999990987
 31
0.0
1001
ACAD
1000
ASC_BOUNDS
1002
{
1070
    19
1005
A378
1002
}
  0
LINE
  5
A33D
330
A333
100
AcDbEntity
  8
0
100
AcDbLine
 10
5.657999999994331
 20
0.9999999999989768
 30
0.0
 11
3.181999999996833
 21
4.668599999995308
 31
0.0
1001
ACAD
1000
ASC_BOUNDS
1002
{
1070
    19
1005
A376
1002
}
  0
LINE
  5
A33E
330
A333
100
AcDbEntity
  8
0
100
AcDbLine
 10
4.617999999995391
 20
-0.0001000000000317
 30
0.0
 11
1.420999999998571
 21
4.736799999995242
 31
0.0
1001
ACAD
1000
ASC_BOUNDS
1002
{
1070
    19
1005
A376
1002
}
  0
LINE
  5
A33F
330
A333
100
AcDbEntity
  8
0
100
AcDbLine
 10
1.420999999998571
 20
8.763099999991255
 30
0.0
 11
1.420999999998571
 21
0.0
 31
0.0
1001
ACAD
1000
ASC_BOUNDS
1002
{
1070
    19
1005
A37B
1002
}
  0
LINE
  5
A340
330
A333
100
AcDbEntity
  8
0
100
AcDbLine
 10
0.0
 20
8.763099999991255
 30
0.0
 11
0.0
 21
0.0
 31
0.0
1001
ACAD
1000
ASC_BOUNDS
1002
{
1070
    19
1005
A37B
1002
}
  0
LINE
  5
A341
330
A333
100
AcDbEntity
  8
0
100
AcDbLine
 10
6.766999999993232
 20
-0.0001000000000317
 30
0.0
 11
7.826999999992154
 21
2.368399999997621
 31
0.0
1001
ACAD
1000
ASC_BOUNDS
1002
{
1070
    19
1005
A376
1002
}
  0
LINE
  5
A342
330
A333
100
AcDbEntity
  8
0
100
AcDbLine
 10
0.0
 20
0.0
 30
0.0
 11
1.420999999998571
 21
0.0
 31
0.0
1001
ACAD
1000
ASC_BOUNDS
1002
{
1070
    19
1005
A37B
1002
}
  0
LINE
  5
A343
330
A333
100
AcDbEntity
  8
0
100
AcDbLine
 10
4.617999999995391
 20
0.0
 30
0.0
 11
6.766999999993232
 21
0.0
 31
0.0
1001
ACAD
1000
ASC_BOUNDS
1002
{
1070
    19
1005
A376
1002
}
  0
LINE
  5
A344
330
A333
100
AcDbEntity
  8
0
100
AcDbLine
 10
11.70599999998831
 20
-0.0001000000000317
 30
0.0
 11
10.64699999998936
 21
2.368399999997621
 31
0.0
1001
ACAD
1000
ASC_BOUNDS
1002
{
1070
    19
1005
A376
1002
}
  0
LINE
  5
A345
330
A333
100
AcDbEntity
  8
0
100
AcDbLine
 10
7.826999999992154
 20
2.368399999997621
 30
0.0
 11
10.64699999998936
 21
2.368399999997621
 31
0.0
1001
ACAD
1000
ASC_BOUNDS
1002
{
1070
    19
1005
A376
1002
}
  0
LINE
  5
A346
330
A333
100
AcDbEntity
  8
0
100
AcDbLine
 10
11.70599999998831
 20
0.0
 30
0.0
 11
13.26299999998673
 21
0.0
 31
0.0
1001
ACAD
1000
ASC_BOUNDS
1002
{
1070
    19
1005
A376
1002
}
  0
LINE
  5
A347
330
A333
100
AcDbEntity
  8
0
100
AcDbLine
 10
22.15599999997789
 20
2.368399999997621
 30
0.0
 11
24.97599999997499
 21
2.368399999997621
 31
0.0
1001
ACAD
1000
ASC_BOUNDS
1002
{
1070
    19
1005
A378
1002
}
  0
LINE
  5
A348
330
A333
100
AcDbEntity
  8
0
100
AcDbLine
 10
19.53899999998043
 20
0.0
 30
0.0
 11
21.09599999997886
 21
0.0
 31
0.0
1001
ACAD
1000
ASC_BOUNDS
1002
{
1070
    19
1005
A378
1002
}
  0
LINE
  5
A349
330
A333
100
AcDbEntity
  8
0
100
AcDbLine
 10
21.09599999997886
 20
-0.0001000000000317
 30
0.0
 11
22.15599999997789
 21
2.368399999997621
 31
0.0
1001
ACAD
1000
ASC_BOUNDS
1002
{
1070
    19
1005
A378
1002
}
  0
LINE
  5
A34A
330
A333
100
AcDbEntity
  8
0
100
AcDbLine
 10
26.02015566812236
 20
0.0330999999912365
 30
0.0
 11
24.97599999997499
 21
2.368399999997621
 31
0.0
1001
ACAD
1000
ASC_BOUNDS
1002
{
1070
    19
1005
A378
1002
}
  0
LINE
  5
A34B
330
A333
100
AcDbEntity
  8
0
100
AcDbLine
 10
14.32399999998563
 20
3.315799999996671
 30
0.0
 11
16.46099999998353
 21
8.999899999990987
 31
0.0
1001
ACAD
1000
ASC_BOUNDS
1002
{
1070
    19
1005
A377
1002
}
  0
LINE
  5
A34C
330
A333
100
AcDbEntity
  8
0
100
AcDbLine
 10
6.432999999993513
 20
8.763099999991255
 30
0.0
 11
3.181999999996833
 21
4.668599999995308
 31
0.0
1001
ACAD
1000
ASC_BOUNDS
1002
{
1070
    19
1005
A376
1002
}
  0
LINE
  5
A34D
330
A333
100
AcDbEntity
  8
0
100
AcDbLine
 10
4.617999999995391
 20
8.763099999991255
 30
0.0
 11
1.420999999998571
 21
4.736799999995242
 31
0.0
1001
ACAD
1000
ASC_BOUNDS
1002
{
1070
    19
1005
A376
1002
}
  0
LINE
  5
A34E
330
A333
100
AcDbEntity
  8
0
100
AcDbLine
 10
0.0
 20
8.763099999991255
 30
0.0
 11
1.420999999998571
 21
8.763099999991255
 31
0.0
1001
ACAD
1000
ASC_BOUNDS
1002
{
1070
    19
1005
A37B
1002
}
  0
LINE
  5
A34F
330
A333
100
AcDbEntity
  8
0
100
AcDbLine
 10
4.617999999995391
 20
8.763099999991255
 30
0.0
 11
6.432999999993513
 21
8.763099999991255
 31
0.0
1001
ACAD
1000
ASC_BOUNDS
1002
{
1070
    19
1005
A376
1002
}
  0
LINE
  5
A350
330
A333
100
AcDbEntity
  8
0
100
AcDbLine
 10
14.32399999998563
 20
3.315799999996671
 30
0.0
 11
12.02999999998792
 21
8.763099999991255
 31
0.0
1001
ACAD
1000
ASC_BOUNDS
1002
{
1070
    19
1005
A377
1002
}
  0
LINE
  5
A351
330
A333
100
AcDbEntity
  8
0
100
AcDbLine
 10
10.06399999998996
 20
3.670999999996297
 30
0.0
 11
9.236999999990758
 21
5.5200999999945
 31
0.0
1001
ACAD
1000
ASC_BOUNDS
1002
{
1070
    19
1005
A376
1002
}
  0
LINE
  5
A352
330
A333
100
AcDbEntity
  8
0
100
AcDbLine
 10
8.409999999991555
 20
3.670999999996297
 30
0.0
 11
9.236999999990758
 21
5.5200999999945
 31
0.0
1001
ACAD
1000
ASC_BOUNDS
1002
{
1070
    19
1005
A376
1002
}
  0
LINE
  5
A353
330
A333
100
AcDbEntity
  8
0
100
AcDbLine
 10
8.409999999991555
 20
3.670999999996297
 30
0.0
 11
10.06399999998996
 21
3.670999999996297
 31
0.0
1001
ACAD
1000
ASC_BOUNDS
1002
{
1070
    19
1005
A376
1002
}
  0
LINE
  5
A354
330
A333
100
AcDbEntity
  8
0
100
AcDbLine
 10
10.53899999998941
 20
8.763099999991255
 30
0.0
 11
12.02999999998792
 21
8.763099999991255
 31
0.0
1001
ACAD
1000
ASC_BOUNDS
1002
{
1070
    19
1005
A377
1002
}
  0
LINE
  5
A355
330
A333
100
AcDbEntity
  8
0
100
AcDbLine
 10
22.7389999999773
 20
3.670999999996297
 30
0.0
 11
23.56599999997638
 21
5.5200999999945
 31
0.0
1001
ACAD
1000
ASC_BOUNDS
1002
{
1070
    19
1005
A378
1002
}
  0
LINE
  5
A356
330
A333
100
AcDbEntity
  8
0
100
AcDbLine
 10
22.7389999999773
 20
3.670999999996297
 30
0.0
 11
24.39299999997559
 21
3.670999999996297
 31
0.0
1001
ACAD
1000
ASC_BOUNDS
1002
{
1070
    19
1005
A378
1002
}
  0
LINE
  5
A357
330
A333
100
AcDbEntity
  8
0
100
AcDbLine
 10
18.59799999998143
 20
3.315799999996671
 30
0.0
 11
20.89099999997916
 21
8.763099999991255
 31
0.0
1001
ACAD
1000
ASC_BOUNDS
1002
{
1070
    19
1005
A377
1002
}
  0
LINE
  5
A358
330
A333
100
AcDbEntity
  8
0
100
AcDbLine
 10
18.59799999998143
 20
3.315799999996671
 30
0.0
 11
16.46099999998353
 21
8.999899999990987
 31
0.0
1001
ACAD
1000
ASC_BOUNDS
1002
{
1070
    19
1005
A377
1002
}
  0
LINE
  5
A359
330
A333
100
AcDbEntity
  8
0
100
AcDbLine
 10
20.89099999997916
 20
8.763099999991255
 30
0.0
 11
22.38199999997767
 21
8.763099999991255
 31
0.0
1001
ACAD
1000
ASC_BOUNDS
1002
{
1070
    19
1005
A377
1002
}
  0
LINE
  5
A35A
330
A333
100
AcDbEntity
  8
0
100
AcDbLine
 10
24.39299999997559
 20
3.670999999996297
 30
0.0
 11
23.56599999997638
 21
5.5200999999945
 31
0.0
1001
ACAD
1000
ASC_BOUNDS
1002
{
1070
    19
1005
A378
1002
}
  0
LINE
  5
A35B
330
A333
100
AcDbEntity
  8
0
100
AcDbLine
 10
44.99999999995498
 20
-0.2368999999997641
 30
0.0
 11
40.02599999995994
 21
5.341799999994635
 31
0.0
1001
ACAD
1000
ASC_BOUNDS
1002
{
1070
    19
1005
A37A
1002
}
  0
LINE
  5
A35C
330
A333
100
AcDbEntity
  8
0
100
AcDbLine
 10
40.02599999995994
 20
5.341799999994635
 30
0.0
 11
40.02599999995994
 21
0.0
 31
0.0
1001
ACAD
1000
ASC_BOUNDS
1002
{
1070
    19
1005
A37A
1002
}
  0
LINE
  5
A35D
330
A333
100
AcDbEntity
  8
0
100
AcDbLine
 10
38.60499999996136
 20
8.999999999991019
 30
0.0
 11
38.60499999996136
 21
0.0
 31
0.0
1001
ACAD
1000
ASC_BOUNDS
1002
{
1070
    19
1005
A37A
1002
}
  0
LINE
  5
A35E
330
A333
100
AcDbEntity
  8
0
100
AcDbLine
 10
44.99999999995498
 20
8.763099999991255
 30
0.0
 11
44.99999999995498
 21
-0.2368999999997641
 31
0.0
1001
ACAD
1000
ASC_BOUNDS
1002
{
1070
    19
1005
A37A
1002
}
  0
LINE
  5
A35F
330
A333
100
AcDbEntity
  8
0
100
AcDbLine
 10
38.60499999996136
 20
0.0
 30
0.0
 11
40.02599999995994
 21
0.0
 31
0.0
1001
ACAD
1000
ASC_BOUNDS
1002
{
1070
    19
1005
A37A
1002
}
  0
LINE
  5
A360
330
A333
100
AcDbEntity
  8
0
100
AcDbLine
 10
43.57899999995641
 20
3.421199999996588
 30
0.0
 11
38.60499999996136
 21
8.999899999990987
 31
0.0
1001
ACAD
1000
ASC_BOUNDS
1002
{
1070
    19
1005
A37A
1002
}
  0
LINE
  5
A361
330
A333
100
AcDbEntity
  8
0
100
AcDbLine
 10
43.57899999995641
 20
8.763099999991255
 30
0.0
 11
43.57899999995641
 21
3.421199999996588
 31
0.0
1001
ACAD
1000
ASC_BOUNDS
1002
{
1070
    19
1005
A37A
1002
}
  0
LINE
  5
A362
330
A333
100
AcDbEntity
  8
0
100
AcDbLine
 10
43.57899999995641
 20
8.763099999991255
 30
0.0
 11
44.99999999995498
 21
8.763099999991255
 31
0.0
1001
ACAD
1000
ASC_BOUNDS
1002
{
1070
    19
1005
A37A
1002
}
  0
LINE
  5
A363
330
A333
100
AcDbEntity
  8
0
100
AcDbLine
 10
37.67199999996831
 20
8.763099999991255
 30
0.0
 11
36.23199999996837
 21
8.763099999991255
 31
0.0
  0
LINE
  5
A364
330
A333
100
AcDbEntity
  8
0
100
AcDbLine
 10
31.64199999996833
 20
8.763099999991255
 30
0.0
 11
31.64199999996833
 21
2.481619422925121
 31
0.0
  0
LINE
  5
A365
330
A333
100
AcDbEntity
  8
0
100
AcDbLine
 10
37.67199999996831
 20
8.763099999991255
 30
0.0
 11
37.67199999996831
 21
2.481619422925121
 31
0.0
  0
LINE
  5
A366
330
A333
100
AcDbEntity
  8
0
100
AcDbLine
 10
36.23199999996837
 20
8.763099999991255
 30
0.0
 11
36.23199999996837
 21
2.481619422925064
 31
0.0
  0
LINE
  5
A367
330
A333
100
AcDbEntity
  8
0
100
AcDbLine
 10
33.08199999996839
 20
8.763099999991255
 30
0.0
 11
33.08199999996839
 21
2.481619422925121
 31
0.0
  0
ARC
  5
A368
330
A333
100
AcDbEntity
  8
0
100
AcDbCircle
 10
34.65699999996832
 20
3.183099999991214
 30
0.0
 40
3.420000000000007
100
AcDbArc
 50
240.0000000000255
 51
299.9999999999766
  0
ARC
  5
A369
330
A333
100
AcDbEntity
  8
0
100
AcDbCircle
 10
34.65699999996832
 20
3.183099999991214
 30
0.0
 40
1.97999999999999
100
AcDbArc
 50
240.000000000026
 51
299.9999999999703
  0
LINE
  5
A36A
330
A333
100
AcDbEntity
  8
0
100
AcDbLine
 10
33.08199999996828
 20
8.763099999991255
 30
0.0
 11
31.64199999996833
 21
8.763099999991255
 31
0.0
  0
ARC
  5
A36B
330
A333
100
AcDbEntity
  8
0
100
AcDbCircle
 10
35.06199999996829
 20
2.481619422925064
 30
0.0
 40
1.17
100
AcDbArc
 50
299.9999999999699
 51
0.0
  0
ARC
  5
A36C
330
A333
100
AcDbEntity
  8
0
100
AcDbCircle
 10
34.25199999996835
 20
2.481619422925121
 30
0.0
 40
1.17
100
AcDbArc
 50
180.0
 51
240.0000000000238
  0
ARC
  5
A36D
330
A333
100
AcDbEntity
  8
0
100
AcDbCircle
 10
35.06199999996841
 20
2.481619422925121
 30
0.0
 40
2.61
100
AcDbArc
 50
299.9999999999756
 51
0.0
  0
ARC
  5
A36E
330
A333
100
AcDbEntity
  8
0
100
AcDbCircle
 10
34.25199999996835
 20
2.481619422925121
 30
0.0
 40
2.61
100
AcDbArc
 50
180.0
 51
240.0000000000244
  0
LINE
  5
A36F
330
A333
100
AcDbEntity
  8
0
100
AcDbLine
 10
29.30199999996933
 20
8.763099999991255
 30
0.0
 11
30.74199999996927
 21
8.763099999991255
 31
0.0
1001
ACAD
1000
ASC_BOUNDS
1002
{
1070
    19
1005
A378
1002
}
  0
LINE
  5
A370
330
A333
100
AcDbEntity
  8
0
100
AcDbLine
 10
30.74199999996927
 20
8.763099999991255
 30
0.0
 11
30.74199999996927
 21
2.373099999991211
 31
0.0
1001
ACAD
1000
ASC_BOUNDS
1002
{
1070
    19
1005
A378
1002
}
  0
LINE
  5
A371
330
A333
100
AcDbEntity
  8
0
100
AcDbLine
 10
26.02015566812236
 20
0.0330999999912365
 30
0.0
 11
28.40199999996923
 21
0.0330999999912365
 31
0.0
1001
ACAD
1000
ASC_BOUNDS
1002
{
1070
    19
1005
A378
1002
}
  0
LINE
  5
A372
330
A333
100
AcDbEntity
  8
0
100
AcDbLine
 10
29.30199999996933
 20
8.763099999991255
 30
0.0
 11
29.30199999996933
 21
2.283099999991236
 31
0.0
1001
ACAD
1000
ASC_BOUNDS
1002
{
1070
    19
1005
A378
1002
}
  0
LINE
  5
A373
330
A333
100
AcDbEntity
  8
0
100
AcDbLine
 10
26.97358892824991
 20
1.383099999991202
 30
0.0
 11
28.40199999996923
 21
1.383099999991202
 31
0.0
1001
ACAD
1000
ASC_BOUNDS
1002
{
1070
    19
1005
A378
1002
}
  0
ARC
  5
A374
330
A333
100
AcDbEntity
  8
0
100
AcDbCircle
 10
28.40199999996923
 20
2.283099999991236
 30
0.0
 40
0.9
100
AcDbArc
 50
270.0
 51
0.0
1001
ACAD
1000
ASC_BOUNDS
1002
{
1070
    19
1005
A378
1002
}
  0
ARC
  5
A375
330
A333
100
AcDbEntity
  8
0
100
AcDbCircle
 10
28.40199999996923
 20
2.373099999991211
 30
0.0
 40
2.34
100
AcDbArc
 50
270.0
 51
0.0
1001
ACAD
1000
ASC_BOUNDS
1002
{
1070
    19
1005
A378
1002
}
  0
INSERT
  5
A376
330
A333
100
AcDbEntity
  8
0
100
AcDbBlockReference
  2
*X13
 10
0.0
 20
0.0
 30
0.0
1001
ACAD
1000
HATCH
1002
{
1070
    19
1000
ANSI37
1040
0.15
1040
0.0
1000
ASC_BOUNDS
1070
     2
1070
     2
1070
    12
1005
A335
1005
A336
1005
A33D
1005
A34C
1005
A34F
1005
A34D
1005
A33E
1005
A343
1005
A341
1005
A345
1005
A344
1005
A346
1070
     2
1070
     3
1005
A351
1005
A353
1005
A352
1000
ASC_SEEDPOINT
1011
3.614004224891801
1021
2.996669441146025
1031
0.0
1000
R14_HATCH_DATA
1000
A376
1011
1.0
1021
0.0
1031
0.0
1011
0.0
1021
1.0
1031
0.0
1011
0.0
1021
0.0
1031
1.0
1040
0.0
1010
0.0
1020
0.0
1030
1.0
1000
ANSI37
1070
     0
1070
     1
1071
        2
1071
        7
1070
     0
1070
     1
1071
       17
1040
13.26299999998673
1040
-0.0001000000000317
1040
9.236999999990758
1040
8.999899999990987
1040
9.236999999990758
1040
8.999999999991019
1040
5.657999999994331
1040
0.9999999999989768
1040
3.181999999996833
1040
4.668599999995308
1040
6.432999999993513
1040
8.763099999991255
1040
4.617999999995391
1040
8.763099999991255
1040
1.420999999998571
1040
4.736799999995242
1040
4.617999999995391
1040
-0.0001000000000317
1040
4.617999999995391
1040
0.0
1040
6.766999999993232
1040
0.0
1040
6.766999999993232
1040
-0.0001000000000317
1040
7.826999999992154
1040
2.368399999997621
1040
10.64699999998936
1040
2.368399999997621
1040
11.70599999998831
1040
-0.0001000000000317
1040
11.70599999998831
1040
0.0
1040
13.26299999998673
1040
0.0
1071
       12
1005
A335
1005
A336
1005
A33D
1005
A34C
1005
A34F
1005
A34D
1005
A33E
1005
A343
1005
A341
1005
A345
1005
A344
1005
A346
1071
       22
1070
     0
1070
     1
1071
        3
1040
9.236999999990758
1040
5.5200999999945
1040
10.06399999998996
1040
3.670999999996297
1040
8.409999999991555
1040
3.670999999996297
1071
        3
1005
A351
1005
A353
1005
A352
1070
     0
1070
     1
1040
0.0
1040
0.15
1070
     0
1070
     2
1040
0.7853981633974483
1040
49.29960901727088
1040
-10.17736998311392
1040
-0.3367596045400932
1040
0.3367596045400932
1070
     0
1040
2.356194490192345
1040
49.29960901727088
1040
-10.17736998311392
1040
-0.3367596045400932
1040
-0.3367596045400932
1070
     0
1040
0.0110235143455945
1071
        2
1040
3.614004224891801
1040
2.996669441146025
1040
0.0
1040
3.614004224891801
1040
2.996669441146025
1040
0.0
1002
}
  0
INSERT
  5
A377
330
A333
100
AcDbEntity
  8
0
100
AcDbBlockReference
  2
*X14
 10
0.0
 20
0.0
 30
0.0
1001
ACAD
1000
HATCH
1002
{
1070
    19
1000
ANSI37
1040
0.15
1040
0.0
1000
ASC_BOUNDS
1070
     1
1070
     2
1070
    10
1005
A337
1005
A338
1005
A359
1005
A357
1005
A358
1005
A34B
1005
A350
1005
A354
1005
A33A
1005
A339
1000
ASC_SEEDPOINT
1011
14.73245321214324
1021
2.798246178283421
1031
0.0
1000
R14_HATCH_DATA
1000
A377
1011
1.0
1021
0.0
1031
0.0
1011
0.0
1021
1.0
1031
0.0
1011
0.0
1021
0.0
1031
1.0
1040
0.0
1010
0.0
1020
0.0
1030
1.0
1000
ANSI37
1070
     0
1070
     1
1071
        1
1071
        7
1070
     0
1070
     1
1071
       10
1040
16.46099999998353
1040
5.432899999994561
1040
18.59199999998134
1040
-0.2368999999997641
1040
22.38199999997767
1040
8.763099999991255
1040
20.89099999997916
1040
8.763099999991255
1040
18.59799999998143
1040
3.315799999996671
1040
16.46099999998353
1040
8.999899999990987
1040
14.32399999998563
1040
3.315799999996671
1040
12.02999999998792
1040
8.763099999991255
1040
10.53899999998941
1040
8.763099999991255
1040
14.32899999998563
1040
-0.2368999999997641
1071
       10
1005
A337
1005
A338
1005
A359
1005
A357
1005
A358
1005
A34B
1005
A350
1005
A354
1005
A33A
1005
A339
1070
     0
1070
     1
1040
0.0
1040
0.15
1070
     0
1070
     2
1040
0.7853981633974483
1040
49.29960901727088
1040
-10.17736998311392
1040
-0.3367596045400932
1040
0.3367596045400932
1070
     0
1040
2.356194490192345
1040
49.29960901727088
1040
-10.17736998311392
1040
-0.3367596045400932
1040
-0.3367596045400932
1070
     0
1040
0.0110235143455945
1071
        1
1040
14.73245321214324
1040
2.798246178283421
1040
0.0
1002
}
  0
INSERT
  5
A378
330
A333
100
AcDbEntity
  8
0
100
AcDbBlockReference
  2
*X15
 10
0.0
 20
0.0
 30
0.0
1001
ACAD
1000
HATCH
1002
{
1070
    19
1000
ANSI37
1040
0.15
1040
0.0
1000
ASC_BOUNDS
1070
     2
1070
     2
1070
    13
1005
A33B
1005
A348
1005
A349
1005
A347
1005
A34A
1005
A371
1005
A375
1005
A370
1005
A36F
1005
A372
1005
A374
1005
A373
1005
A33C
1070
     2
1070
     3
1005
A355
1005
A35A
1005
A356
1000
ASC_SEEDPOINT
1011
21.97929957367762
1021
3.294304244259308
1031
0.0
1000
R14_HATCH_DATA
1000
A378
1011
1.0
1021
0.0
1031
0.0
1011
0.0
1021
1.0
1031
0.0
1011
0.0
1021
0.0
1031
1.0
1040
0.0
1010
0.0
1020
0.0
1030
1.0
1000
ANSI37
1070
     0
1070
     1
1071
        2
1071
        7
1070
     1
1070
     1
1071
       15
1040
23.56599999997638
1040
8.999899999990987
1040
0.0
1040
19.53899999998043
1040
-0.0001000000000317
1040
0.0
1040
19.53899999998043
1040
0.0
1040
0.0
1040
21.09599999997886
1040
0.0
1040
0.0
1040
21.09599999997886
1040
-0.0001000000000317
1040
0.0
1040
22.15599999997789
1040
2.368399999997621
1040
0.0
1040
24.97599999997499
1040
2.368399999997621
1040
0.0
1040
26.02015566812236
1040
0.0330999999912365
1040
0.0
1040
28.40199999996923
1040
0.0330999999912365
1040
0.414213562373095
1040
30.74199999996923
1040
2.373099999991211
1040
0.0
1040
30.74199999996927
1040
8.763099999991255
1040
0.0
1040
29.30199999996933
1040
8.763099999991255
1040
0.0
1040
29.30199999996933
1040
2.283099999991236
1040
-0.414213562373095
1040
28.40199999996923
1040
1.383099999991237
1040
0.0
1040
26.97358892824991
1040
1.383099999991202
1040
0.0
1071
       13
1005
A33B
1005
A348
1005
A349
1005
A347
1005
A34A
1005
A371
1005
A375
1005
A370
1005
A36F
1005
A372
1005
A374
1005
A373
1005
A33C
1071
       22
1070
     0
1070
     1
1071
        3
1040
22.7389999999773
1040
3.670999999996297
1040
23.56599999997638
1040
5.5200999999945
1040
24.39299999997559
1040
3.670999999996297
1071
        3
1005
A355
1005
A35A
1005
A356
1070
     0
1070
     1
1040
0.0
1040
0.15
1070
     0
1070
     2
1040
0.7853981633974483
1040
49.29960901727088
1040
-10.17736998311392
1040
-0.3367596045400932
1040
0.3367596045400932
1070
     0
1040
2.356194490192345
1040
49.29960901727088
1040
-10.17736998311392
1040
-0.3367596045400932
1040
-0.3367596045400932
1070
     0
1040
0.0110235143455945
1071
        2
1040
21.97929957367762
1040
3.294304244259308
1040
0.0
1040
21.97929957367762
1040
3.294304244259308
1040
0.0
1002
}
  0
INSERT
  5
A379
330
A333
100
AcDbEntity
  8
0
100
AcDbBlockReference
  2
*X16
 10
0.0
 20
0.0
 30
0.0
1001
ACAD
1000
HATCH
1002
{
1070
    19
1000
ANSI37
1040
0.15
1040
0.0
1000
R14_HATCH_DATA
1000
A379
1011
1.0
1021
0.0
1031
0.0
1011
0.0
1021
1.0
1031
0.0
1011
0.0
1021
0.0
1031
1.0
1040
0.0
1010
0.0
1020
0.0
1030
1.0
1000
ANSI37
1070
     0
1070
     1
1071
        1
1071
        7
1070
     1
1070
     1
1071
       12
1040
31.64199999996833
1040
2.481619422925121
1040
0.2679491924310942
1040
32.94699999997067
1040
0.2212931190493919
1040
0.2679491924301353
1040
36.36699999995983
1040
0.2212931190459813
1040
0.2679491924321411
1040
37.67199999996831
1040
2.481619422928361
1040
0.0
1040
37.67199999996831
1040
8.763099999991255
1040
0.0
1040
36.23199999996837
1040
8.763099999991255
1040
0.0
1040
36.23199999996837
1040
2.481619422925064
1040
-0.2679491924310291
1040
35.64699999996708
1040
1.468369700498386
1040
-0.267949192430519
1040
33.66699999997093
1040
1.468369700497703
1040
-0.267949192431809
1040
33.08199999996839
1040
2.481619422926997
1040
0.0
1040
33.08199999996839
1040
8.763099999991255
1040
0.0
1040
31.64199999996833
1040
8.763099999991255
1040
0.0
1071
        0
1070
     0
1070
     1
1040
0.0
1040
0.15
1070
     0
1070
     2
1040
0.7853981633974483
1040
49.29960901727088
1040
-10.17736998311392
1040
-0.3367596045400932
1040
0.3367596045400932
1070
     0
1040
2.356194490192345
1040
49.29960901727088
1040
-10.17736998311392
1040
-0.3367596045400932
1040
-0.3367596045400932
1070
     0
1040
0.0110235143455945
1071
        1
1040
32.30357378967278
1040
3.988785755459219
1040
0.0
1002
}
  0
INSERT
  5
A37A
330
A333
100
AcDbEntity
  8
0
100
AcDbBlockReference
  2
*X17
 10
0.0
 20
0.0
 30
0.0
1001
ACAD
1000
HATCH
1002
{
1070
    19
1000
ANSI37
1040
0.15
1040
0.0
1000
ASC_BOUNDS
1070
     1
1070
     2
1070
     8
1005
A35B
1005
A35E
1005
A362
1005
A361
1005
A360
1005
A35D
1005
A35F
1005
A35C
1000
ASC_SEEDPOINT
1011
39.74896370716704
1021
4.484843821435049
1031
0.0
1000
R14_HATCH_DATA
1000
A37A
1011
1.0
1021
0.0
1031
0.0
1011
0.0
1021
1.0
1031
0.0
1011
0.0
1021
0.0
1031
1.0
1040
0.0
1010
0.0
1020
0.0
1030
1.0
1000
ANSI37
1070
     0
1070
     1
1071
        1
1071
        7
1070
     0
1070
     1
1071
        9
1040
40.02599999995994
1040
5.341799999994635
1040
44.99999999995498
1040
-0.2368999999997641
1040
44.99999999995498
1040
8.763099999991255
1040
43.57899999995641
1040
8.763099999991255
1040
43.57899999995641
1040
3.421199999996588
1040
38.60499999996136
1040
8.999899999990987
1040
38.60499999996136
1040
8.999999999991019
1040
38.60499999996136
1040
0.0
1040
40.02599999995994
1040
0.0
1071
        8
1005
A35B
1005
A35E
1005
A362
1005
A361
1005
A360
1005
A35D
1005
A35F
1005
A35C
1070
     0
1070
     1
1040
0.0
1040
0.15
1070
     0
1070
     2
1040
0.7853981633974483
1040
49.29960901727088
1040
-10.17736998311392
1040
-0.3367596045400932
1040
0.3367596045400932
1070
     0
1040
2.356194490192345
1040
49.29960901727088
1040
-10.17736998311392
1040
-0.3367596045400932
1040
-0.3367596045400932
1070
     0
1040
0.0110235143455945
1071
        1
1040
39.74896370716704
1040
4.484843821435049
1040
0.0
1002
}
  0
INSERT
  5
A37B
330
A333
100
AcDbEntity
  8
0
100
AcDbBlockReference
  2
*X18
 10
0.0
 20
0.0
 30
0.0
1001
ACAD
1000
HATCH
1002
{
1070
    19
1000
ANSI37
1040
0.15
1040
0.0
1000
ASC_BOUNDS
1070
     1
1070
     2
1070
     4
1005
A33F
1005
A34E
1005
A340
1005
A342
1000
ASC_SEEDPOINT
1011
1.079051535452663
1021
4.148538732891836
1031
0.0
1000
R14_HATCH_DATA
1000
A37B
1011
1.0
1021
0.0
1031
0.0
1011
0.0
1021
1.0
1031
0.0
1011
0.0
1021
0.0
1031
1.0
1040
0.0
1010
0.0
1020
0.0
1030
1.0
1000
ANSI37
1070
     0
1070
     1
1071
        1
1071
        7
1070
     0
1070
     1
1071
        4
1040
1.420999999998571
1040
0.0
1040
1.420999999998571
1040
8.763099999991255
1040
0.0
1040
8.763099999991255
1040
0.0
1040
0.0
1071
        4
1005
A33F
1005
A34E
1005
A340
1005
A342
1070
     0
1070
     1
1040
0.0
1040
0.15
1070
     0
1070
     2
1040
0.7853981633974483
1040
49.29960901727088
1040
-10.17736998311392
1040
-0.3367596045400932
1040
0.3367596045400932
1070
     0
1040
2.356194490192345
1040
49.29960901727088
1040
-10.17736998311392
1040
-0.3367596045400932
1040
-0.3367596045400932
1070
     0
1040
0.0053004257112761
1071
        1
1040
1.079051535452663
1040
4.148538732891836
1040
0.0
1002
}
  0
ENDBLK
  5
AA57
330
A333
100
AcDbEntity
  8
0
100
AcDbBlockEnd
  0
BLOCK
  5
B521
330
B393
100
AcDbEntity
  8
0
100
AcDbBlockBegin
  2
*X13
 70
     1
 10
0.0
 20
0.0
 30
0.0
  3
*X13
  1

  0
LINE
  5
B394
330
B393
100
AcDbEntity
  8
0
  6
CONTINUOUS
100
AcDbLine
 10
3.418023043697893
 20
7.251849696850613
 30
0.0
 11
4.929273346838536
 21
8.763099999991255
 31
0.0
  0
LINE
  5
B395
330
B393
100
AcDbEntity
  8
0
  6
CONTINUOUS
100
AcDbLine
 10
1.483656411257782
 20
4.643963855330318
 30
0.0
 11
5.60279255591872
 21
8.763099999991255
 31
0.0
  0
LINE
  5
B396
330
B393
100
AcDbEntity
  8
0
  6
CONTINUOUS
100
AcDbLine
 10
1.755053947328235
 20
4.241842182320584
 30
0.0
 11
6.276311764998907
 21
8.763099999991255
 31
0.0
  0
LINE
  5
B397
330
B393
100
AcDbEntity
  8
0
  6
CONTINUOUS
100
AcDbLine
 10
2.026451483398688
 20
3.839720509310849
 30
0.0
 11
4.441040904851878
 21
6.254309930764039
 31
0.0
  0
LINE
  5
B398
330
B393
100
AcDbEntity
  8
0
  6
CONTINUOUS
100
AcDbLine
 10
2.297849019469139
 20
3.437598836301114
 30
0.0
 11
3.321765168359338
 21
4.461514985191313
 31
0.0
  0
LINE
  5
B399
330
B393
100
AcDbEntity
  8
0
  6
CONTINUOUS
100
AcDbLine
 10
2.569246555539591
 20
3.03547716329138
 30
0.0
 11
3.593163397972743
 21
4.059394005724531
 31
0.0
  0
LINE
  5
B39A
330
B393
100
AcDbEntity
  8
0
  6
CONTINUOUS
100
AcDbLine
 10
2.840644091610043
 20
2.633355490281646
 30
0.0
 11
3.864561627586149
 21
3.657273026257751
 31
0.0
  0
LINE
  5
B39B
330
B393
100
AcDbEntity
  8
0
  6
CONTINUOUS
100
AcDbLine
 10
3.112041627680496
 20
2.231233817271911
 30
0.0
 11
4.135959857199554
 21
3.25515204679097
 31
0.0
  0
LINE
  5
B39C
330
B393
100
AcDbEntity
  8
0
  6
CONTINUOUS
100
AcDbLine
 10
3.383439163750948
 20
1.829112144262177
 30
0.0
 11
4.40735808681296
 21
2.853031067324189
 31
0.0
  0
LINE
  5
B39D
330
B393
100
AcDbEntity
  8
0
  6
CONTINUOUS
100
AcDbLine
 10
3.654836699821399
 20
1.426990471252442
 30
0.0
 11
4.678756316426365
 21
2.450910087857407
 31
0.0
  0
LINE
  5
B39E
330
B393
100
AcDbEntity
  8
0
  6
CONTINUOUS
100
AcDbLine
 10
3.926234235891853
 20
1.024868798242709
 30
0.0
 11
4.95015454603977
 21
2.048789108390626
 31
0.0
  0
LINE
  5
B39F
330
B393
100
AcDbEntity
  8
0
  6
CONTINUOUS
100
AcDbLine
 10
4.197631771962304
 20
0.6227471252329737
 30
0.0
 11
5.221552775653176
 21
1.646668128923846
 31
0.0
  0
LINE
  5
B3A0
330
B393
100
AcDbEntity
  8
0
  6
CONTINUOUS
100
AcDbLine
 10
8.715877546767851
 20
7.835069736359266
 30
0.0
 11
9.435953450375058
 21
8.555145639966472
 31
0.0
  0
LINE
  5
B3A1
330
B393
100
AcDbEntity
  8
0
  6
CONTINUOUS
100
AcDbLine
 10
8.170620868422267
 20
6.616293848933497
 30
0.0
 11
9.644120833743461
 21
8.08979381425469
 31
0.0
  0
LINE
  5
B3A2
330
B393
100
AcDbEntity
  8
0
  6
CONTINUOUS
100
AcDbLine
 10
7.625364190076684
 20
5.397517961507727
 30
0.0
 11
9.852288217111864
 21
7.624441988542907
 31
0.0
  0
LINE
  5
B3A3
330
B393
100
AcDbEntity
  8
0
  6
CONTINUOUS
100
AcDbLine
 10
7.080107511731101
 20
4.178742074081957
 30
0.0
 11
10.06045560048027
 21
7.159090162831124
 31
0.0
  0
LINE
  5
B3A4
330
B393
100
AcDbEntity
  8
0
  6
CONTINUOUS
100
AcDbLine
 10
6.534850833385518
 20
2.959966186656187
 30
0.0
 11
10.26862298384867
 21
6.693738337119342
 31
0.0
  0
LINE
  5
B3A5
330
B393
100
AcDbEntity
  8
0
  6
CONTINUOUS
100
AcDbLine
 10
4.469029308032756
 20
0.2206254522232385
 30
0.0
 11
5.492951005266582
 21
1.244547149457064
 31
0.0
  0
LINE
  5
B3A6
330
B393
100
AcDbEntity
  8
0
  6
CONTINUOUS
100
AcDbLine
 10
5.989594155039935
 20
1.741190299230417
 30
0.0
 11
8.806950407233131
 21
4.558546551423613
 31
0.0
  0
LINE
  5
B3A7
330
B393
100
AcDbEntity
  8
0
  6
CONTINUOUS
100
AcDbLine
 10
9.401251593263643
 20
5.152847737454126
 30
0.0
 11
10.47679036721708
 21
6.228386511407559
 31
0.0
  0
LINE
  5
B3A8
330
B393
100
AcDbEntity
  8
0
  6
CONTINUOUS
100
AcDbLine
 10
4.921837203428691
 20
-0.0000858614610131
 30
0.0
 11
8.592923064886001
 21
3.670999999996297
 31
0.0
  0
LINE
  5
B3A9
330
B393
100
AcDbEntity
  8
0
  6
CONTINUOUS
100
AcDbLine
 10
9.609390446785305
 20
4.6874673818956
 30
0.0
 11
10.68495775058548
 21
5.763034685695775
 31
0.0
  0
LINE
  5
B3AA
330
B393
100
AcDbEntity
  8
0
  6
CONTINUOUS
100
AcDbLine
 10
5.595387755019432
 20
-0.0000545189504582
 30
0.0
 11
7.716137258923768
 21
2.120694984953879
 31
0.0
  0
LINE
  5
B3AB
330
B393
100
AcDbEntity
  8
0
  6
CONTINUOUS
100
AcDbLine
 10
6.268938306610172
 20
-0.000023176439905
 30
0.0
 11
7.170485805526503
 21
0.9015243224764267
 31
0.0
  0
LINE
  5
B3AC
330
B393
100
AcDbEntity
  8
0
  6
CONTINUOUS
100
AcDbLine
 10
7.963842273967511
 20
2.368399999997621
 30
0.0
 11
9.266442273966188
 21
3.670999999996297
 31
0.0
  0
LINE
  5
B3AD
330
B393
100
AcDbEntity
  8
0
  6
CONTINUOUS
100
AcDbLine
 10
8.637361483047696
 20
2.368399999997621
 30
0.0
 11
9.939961483046375
 21
3.670999999996297
 31
0.0
  0
LINE
  5
B3AE
330
B393
100
AcDbEntity
  8
0
  6
CONTINUOUS
100
AcDbLine
 10
9.817529300306965
 20
4.222087026337075
 30
0.0
 11
10.89312513395388
 21
5.297682859983993
 31
0.0
  0
LINE
  5
B3AF
330
B393
100
AcDbEntity
  8
0
  6
CONTINUOUS
100
AcDbLine
 10
10.02566815382863
 20
3.756706670778549
 30
0.0
 11
11.10129251732229
 21
4.832331034272211
 31
0.0
  0
LINE
  5
B3B0
330
B393
100
AcDbEntity
  8
0
  6
CONTINUOUS
100
AcDbLine
 10
9.310880692127883
 20
2.368399999997621
 30
0.0
 11
11.30945990069069
 21
4.366979208560428
 31
0.0
  0
LINE
  5
B3B1
330
B393
100
AcDbEntity
  8
0
  6
CONTINUOUS
100
AcDbLine
 10
9.98439990120807
 20
2.36839999999762
 30
0.0
 11
11.5176272840591
 21
3.901627382848645
 31
0.0
  0
LINE
  5
B3B2
330
B393
100
AcDbEntity
  8
0
  6
CONTINUOUS
100
AcDbLine
 10
10.65037369446246
 20
2.36085458417182
 30
0.0
 11
11.7257946674275
 21
3.436275557136862
 31
0.0
  0
LINE
  5
B3B3
330
B393
100
AcDbEntity
  8
0
  6
CONTINUOUS
100
AcDbLine
 10
10.85847197087848
 20
1.895433651507656
 30
0.0
 11
11.9339620507959
 21
2.97092373142508
 31
0.0
  0
LINE
  5
B3B4
330
B393
100
AcDbEntity
  8
0
  6
CONTINUOUS
100
AcDbLine
 10
11.0665702472945
 20
1.430012718843491
 30
0.0
 11
12.14212943416431
 21
2.505571905713296
 31
0.0
  0
LINE
  5
B3B5
330
B393
100
AcDbEntity
  8
0
  6
CONTINUOUS
100
AcDbLine
 10
11.27466852371052
 20
0.9645917861793256
 30
0.0
 11
12.35029681753271
 21
2.040220080001513
 31
0.0
  0
LINE
  5
B3B6
330
B393
100
AcDbEntity
  8
0
  6
CONTINUOUS
100
AcDbLine
 10
11.48276680012654
 20
0.4991708535151611
 30
0.0
 11
12.55846420090111
 21
1.57486825428973
 31
0.0
  0
LINE
  5
B3B7
330
B393
100
AcDbEntity
  8
0
  6
CONTINUOUS
100
AcDbLine
 10
11.69086507654257
 20
0.0337499208509957
 30
0.0
 11
12.76663158426952
 21
1.109516428577947
 31
0.0
  0
LINE
  5
B3B8
330
B393
100
AcDbEntity
  8
0
  6
CONTINUOUS
100
AcDbLine
 10
12.33057447873954
 20
-0.0000598860322123
 30
0.0
 11
12.97479896763792
 21
0.6441646028661663
 31
0.0
  0
LINE
  5
B3B9
330
B393
100
AcDbEntity
  8
0
  6
CONTINUOUS
100
AcDbLine
 10
13.00413694809395
 20
-0.0000166257579952
 30
0.0
 11
13.18296635100632
 21
0.1788127771543824
 31
0.0
  0
LINE
  5
B3BA
330
B393
100
AcDbEntity
  8
0
  6
CONTINUOUS
100
AcDbLine
 10
4.772852165289667
 20
-0.000092794222212
 30
0.0
 11
4.296495091028902
 21
0.4762642800385528
 31
0.0
  0
LINE
  5
B3BB
330
B393
100
AcDbEntity
  8
0
  6
CONTINUOUS
100
AcDbLine
 10
5.446340034776103
 20
-0.0000614546284616
 30
0.0
 11
2.898195908335625
 21
2.548082671812017
 31
0.0
  0
LINE
  5
B3BC
330
B393
100
AcDbEntity
  8
0
  6
CONTINUOUS
100
AcDbLine
 10
6.119827904262539
 20
-0.0000301150347113
 30
0.0
 11
1.499896725642348
 21
4.61990106358548
 31
0.0
  0
LINE
  5
B3BD
330
B393
100
AcDbEntity
  8
0
  6
CONTINUOUS
100
AcDbLine
 10
6.775136745476159
 20
0.0181802528318542
 30
0.0
 11
5.699826040202669
 21
1.093490958105344
 31
0.0
  0
LINE
  5
B3BE
330
B393
100
AcDbEntity
  8
0
  6
CONTINUOUS
100
AcDbLine
 10
6.983376846288489
 20
0.4834593610997118
 30
0.0
 11
5.908008617934405
 21
1.558827589453796
 31
0.0
  0
LINE
  5
B3BF
330
B393
100
AcDbEntity
  8
0
  6
CONTINUOUS
100
AcDbLine
 10
5.377063484962296
 20
1.416253513345719
 30
0.0
 11
1.702276957014131
 21
5.091040041293883
 31
0.0
  0
LINE
  5
B3C0
330
B393
100
AcDbEntity
  8
0
  6
CONTINUOUS
100
AcDbLine
 10
3.978745891735324
 20
3.488090315652877
 30
0.0
 11
2.000373521109399
 21
5.466462686278803
 31
0.0
  0
LINE
  5
B3C1
330
B393
100
AcDbEntity
  8
0
  6
CONTINUOUS
100
AcDbLine
 10
7.191616947100819
 20
0.948738469367568
 30
0.0
 11
6.11619119566614
 21
2.024164220802247
 31
0.0
  0
LINE
  5
B3C2
330
B393
100
AcDbEntity
  8
0
  6
CONTINUOUS
100
AcDbLine
 10
7.399857047913149
 20
1.414017577635424
 30
0.0
 11
6.324373773397875
 21
2.489500852150698
 31
0.0
  0
LINE
  5
B3C3
330
B393
100
AcDbEntity
  8
0
  6
CONTINUOUS
100
AcDbLine
 10
7.608097148725479
 20
1.879296685903281
 30
0.0
 11
6.53255635112961
 21
2.95483748349915
 31
0.0
  0
LINE
  5
B3C4
330
B393
100
AcDbEntity
  8
0
  6
CONTINUOUS
100
AcDbLine
 10
7.816337249537808
 20
2.344575794171138
 30
0.0
 11
6.740738928861345
 21
3.420174114847601
 31
0.0
  0
LINE
  5
B3C5
330
B393
100
AcDbEntity
  8
0
  6
CONTINUOUS
100
AcDbLine
 10
3.310241080789734
 20
4.830114335678653
 30
0.0
 11
2.298470085204666
 21
5.84188533126372
 31
0.0
  0
LINE
  5
B3C6
330
B393
100
AcDbEntity
  8
0
  6
CONTINUOUS
100
AcDbLine
 10
3.60832983563551
 20
5.205544789913063
 30
0.0
 11
2.596566649299935
 21
6.217307976248638
 31
0.0
  0
LINE
  5
B3C7
330
B393
100
AcDbEntity
  8
0
  6
CONTINUOUS
100
AcDbLine
 10
3.906418590481286
 20
5.580975244147473
 30
0.0
 11
2.894663213395203
 21
6.592730621233557
 31
0.0
  0
LINE
  5
B3C8
330
B393
100
AcDbEntity
  8
0
  6
CONTINUOUS
100
AcDbLine
 10
4.204507345327062
 20
5.956405698381884
 30
0.0
 11
3.192759777490472
 21
6.968153266218474
 31
0.0
  0
LINE
  5
B3C9
330
B393
100
AcDbEntity
  8
0
  6
CONTINUOUS
100
AcDbLine
 10
8.466032252791512
 20
2.368399999997621
 30
0.0
 11
6.948921506593081
 21
3.885510746196053
 31
0.0
  0
LINE
  5
B3CA
330
B393
100
AcDbEntity
  8
0
  6
CONTINUOUS
100
AcDbLine
 10
9.139551461871699
 20
2.36839999999762
 30
0.0
 11
7.157104084324816
 21
4.350847377544504
 31
0.0
  0
LINE
  5
B3CB
330
B393
100
AcDbEntity
  8
0
  6
CONTINUOUS
100
AcDbLine
 10
4.502596100172839
 20
6.331836152616295
 30
0.0
 11
3.49085634158574
 21
7.343575911203393
 31
0.0
  0
LINE
  5
B3CC
330
B393
100
AcDbEntity
  8
0
  6
CONTINUOUS
100
AcDbLine
 10
4.800684855018615
 20
6.707266606850705
 30
0.0
 11
3.788952905681008
 21
7.718998556188312
 31
0.0
  0
LINE
  5
B3CD
330
B393
100
AcDbEntity
  8
0
  6
CONTINUOUS
100
AcDbLine
 10
12.18154012887317
 20
-0.0000694579236642
 30
0.0
 11
11.32140332908496
 21
0.8600673418645499
 31
0.0
  0
LINE
  5
B3CE
330
B393
100
AcDbEntity
  8
0
  6
CONTINUOUS
100
AcDbLine
 10
12.85501608323566
 20
-0.0000262032059659
 30
0.0
 11
10.77672456435345
 21
2.078265315676246
 31
0.0
  0
LINE
  5
B3CF
330
B393
100
AcDbEntity
  8
0
  6
CONTINUOUS
100
AcDbLine
 10
9.813070670951886
 20
2.36839999999762
 30
0.0
 11
8.51047067095321
 21
3.670999999996297
 31
0.0
  0
LINE
  5
B3D0
330
B393
100
AcDbEntity
  8
0
  6
CONTINUOUS
100
AcDbLine
 10
10.48658988003207
 20
2.36839999999762
 30
0.0
 11
9.183989880033396
 21
3.670999999996297
 31
0.0
  0
LINE
  5
B3D1
330
B393
100
AcDbEntity
  8
0
  6
CONTINUOUS
100
AcDbLine
 10
8.441048632286794
 20
3.740422038662712
 30
0.0
 11
7.365286662056551
 21
4.816184008892956
 31
0.0
  0
LINE
  5
B3D2
330
B393
100
AcDbEntity
  8
0
  6
CONTINUOUS
100
AcDbLine
 10
8.649187485808454
 20
4.205802394221237
 30
0.0
 11
7.573469239788285
 21
5.281520640241407
 31
0.0
  0
LINE
  5
B3D3
330
B393
100
AcDbEntity
  8
0
  6
CONTINUOUS
100
AcDbLine
 10
5.098773609864391
 20
7.082697061085115
 30
0.0
 11
4.087049469776277
 21
8.09442120117323
 31
0.0
  0
LINE
  5
B3D4
330
B393
100
AcDbEntity
  8
0
  6
CONTINUOUS
100
AcDbLine
 10
5.396862364710167
 20
7.458127515319526
 30
0.0
 11
4.385146033871544
 21
8.469843846158149
 31
0.0
  0
LINE
  5
B3D5
330
B393
100
AcDbEntity
  8
0
  6
CONTINUOUS
100
AcDbLine
 10
13.04801363231285
 20
0.4804954567970334
 30
0.0
 11
9.85750908911358
 21
3.670999999996297
 31
0.0
  0
LINE
  5
B3D6
330
B393
100
AcDbEntity
  8
0
  6
CONTINUOUS
100
AcDbLine
 10
8.857326339330116
 20
4.671182749779763
 30
0.0
 11
7.781651817520021
 21
5.746857271589858
 31
0.0
  0
LINE
  5
B3D7
330
B393
100
AcDbEntity
  8
0
  6
CONTINUOUS
100
AcDbLine
 10
5.694951119555943
 20
7.833557969553937
 30
0.0
 11
4.765409089118624
 21
8.763099999991255
 31
0.0
  0
LINE
  5
B3D8
330
B393
100
AcDbEntity
  8
0
  6
CONTINUOUS
100
AcDbLine
 10
12.50286117236978
 20
1.699167125820288
 30
0.0
 11
9.68611877250287
 21
4.515909525687196
 31
0.0
  0
LINE
  5
B3D9
330
B393
100
AcDbEntity
  8
0
  6
CONTINUOUS
100
AcDbLine
 10
9.065465192851777
 20
5.136563105338288
 30
0.0
 11
7.989834395251757
 21
6.21219390293831
 31
0.0
  0
LINE
  5
B3DA
330
B393
100
AcDbEntity
  8
0
  6
CONTINUOUS
100
AcDbLine
 10
5.993039874401719
 20
8.208988423788346
 30
0.0
 11
5.43892829819881
 21
8.763099999991255
 31
0.0
  0
LINE
  5
B3DB
330
B393
100
AcDbEntity
  8
0
  6
CONTINUOUS
100
AcDbLine
 10
11.95770871242671
 20
2.917838794843543
 30
0.0
 11
8.19801697298349
 21
6.677530534286761
 31
0.0
  0
LINE
  5
B3DC
330
B393
100
AcDbEntity
  8
0
  6
CONTINUOUS
100
AcDbLine
 10
6.291128629247495
 20
8.584418878022756
 30
0.0
 11
6.112447507278997
 21
8.763099999991255
 31
0.0
  0
LINE
  5
B3DD
330
B393
100
AcDbEntity
  8
0
  6
CONTINUOUS
100
AcDbLine
 10
11.41255625248364
 20
4.136510463866797
 30
0.0
 11
8.406199550715227
 21
7.142867165635211
 31
0.0
  0
LINE
  5
B3DE
330
B393
100
AcDbEntity
  8
0
  6
CONTINUOUS
100
AcDbLine
 10
10.86740379254057
 20
5.355182132890051
 30
0.0
 11
8.614382128446962
 21
7.608203796983664
 31
0.0
  0
LINE
  5
B3DF
330
B393
100
AcDbEntity
  8
0
  6
CONTINUOUS
100
AcDbLine
 10
10.3222513325975
 20
6.573853801913305
 30
0.0
 11
8.822564706178696
 21
8.073540428332114
 31
0.0
  0
LINE
  5
B3E0
330
B393
100
AcDbEntity
  8
0
  6
CONTINUOUS
100
AcDbLine
 10
9.777098872654436
 20
7.792525470936562
 30
0.0
 11
9.030747283910433
 21
8.538877059680566
 31
0.0
  0
ENDBLK
  5
B522
330
B393
100
AcDbEntity
  8
0
100
AcDbBlockEnd
  0
BLOCK
  5
B523
330
B3E1
100
AcDbEntity
  8
0
100
AcDbBlockBegin
  2
*X14
 70
     1
 10
0.0
 20
0.0
 30
0.0
  3
*X14
  1

  0
LINE
  5
B3E2
330
B3E1
100
AcDbEntity
  8
0
  6
CONTINUOUS
100
AcDbLine
 10
10.67292308101235
 20
8.445076852443387
 30
0.0
 11
10.99094622856022
 21
8.763099999991255
 31
0.0
  0
LINE
  5
B3E3
330
B3E1
100
AcDbEntity
  8
0
  6
CONTINUOUS
100
AcDbLine
 10
10.87250383178748
 20
7.971138394138331
 30
0.0
 11
11.6644654376404
 21
8.763099999991255
 31
0.0
  0
LINE
  5
B3E4
330
B3E1
100
AcDbEntity
  8
0
  6
CONTINUOUS
100
AcDbLine
 10
11.07208458256261
 20
7.497199935833273
 30
0.0
 11
12.12126590876355
 21
8.546381262034211
 31
0.0
  0
LINE
  5
B3E5
330
B3E1
100
AcDbEntity
  8
0
  6
CONTINUOUS
100
AcDbLine
 10
11.27166533333774
 20
7.023261477528216
 30
0.0
 11
12.32085164573666
 21
8.072447789927136
 31
0.0
  0
LINE
  5
B3E6
330
B3E1
100
AcDbEntity
  8
0
  6
CONTINUOUS
100
AcDbLine
 10
11.47124608411287
 20
6.549323019223158
 30
0.0
 11
12.52043738270977
 21
7.59851431782006
 31
0.0
  0
LINE
  5
B3E7
330
B3E1
100
AcDbEntity
  8
0
  6
CONTINUOUS
100
AcDbLine
 10
11.670826834888
 20
6.075384560918101
 30
0.0
 11
12.72002311968288
 21
7.124580845712984
 31
0.0
  0
LINE
  5
B3E8
330
B3E1
100
AcDbEntity
  8
0
  6
CONTINUOUS
100
AcDbLine
 10
11.87040758566313
 20
5.601446102613043
 30
0.0
 11
12.91960885665599
 21
6.650647373605907
 31
0.0
  0
LINE
  5
B3E9
330
B3E1
100
AcDbEntity
  8
0
  6
CONTINUOUS
100
AcDbLine
 10
12.06998833643825
 20
5.127507644307986
 30
0.0
 11
13.1191945936291
 21
6.176713901498832
 31
0.0
  0
LINE
  5
B3EA
330
B3E1
100
AcDbEntity
  8
0
  6
CONTINUOUS
100
AcDbLine
 10
12.26956908721338
 20
4.65356918600293
 30
0.0
 11
13.31878033060221
 21
5.702780429391757
 31
0.0
  0
LINE
  5
B3EB
330
B3E1
100
AcDbEntity
  8
0
  6
CONTINUOUS
100
AcDbLine
 10
12.46914983798851
 20
4.179630727697873
 30
0.0
 11
13.51836606757532
 21
5.228846957284683
 31
0.0
  0
LINE
  5
B3EC
330
B3E1
100
AcDbEntity
  8
0
  6
CONTINUOUS
100
AcDbLine
 10
12.66873058876364
 20
3.705692269392816
 30
0.0
 11
13.71795180454843
 21
4.754913485177607
 31
0.0
  0
LINE
  5
B3ED
330
B3E1
100
AcDbEntity
  8
0
  6
CONTINUOUS
100
AcDbLine
 10
12.86831133953877
 20
3.231753811087759
 30
0.0
 11
13.91753754152154
 21
4.280980013070531
 31
0.0
  0
LINE
  5
B3EE
330
B3E1
100
AcDbEntity
  8
0
  6
CONTINUOUS
100
AcDbLine
 10
13.0678920903139
 20
2.757815352782702
 30
0.0
 11
14.11712327849465
 21
3.807046540963456
 31
0.0
  0
LINE
  5
B3EF
330
B3E1
100
AcDbEntity
  8
0
  6
CONTINUOUS
100
AcDbLine
 10
13.26747284108903
 20
2.283876894477644
 30
0.0
 11
14.31670901546777
 21
3.333113068856379
 31
0.0
  0
LINE
  5
B3F0
330
B3E1
100
AcDbEntity
  8
0
  6
CONTINUOUS
100
AcDbLine
 10
16.36767838827179
 20
8.751678487061342
 30
0.0
 11
16.50332410898388
 21
8.887324207773432
 31
0.0
  0
LINE
  5
B3F1
330
B3E1
100
AcDbEntity
  8
0
  6
CONTINUOUS
100
AcDbLine
 10
15.96190732182191
 20
7.67238821153127
 30
0.0
 11
16.68735328004734
 21
8.397834169756699
 31
0.0
  0
LINE
  5
B3F2
330
B3E1
100
AcDbEntity
  8
0
  6
CONTINUOUS
100
AcDbLine
 10
15.55613625537202
 20
6.593097936001196
 30
0.0
 11
16.87138245111079
 21
7.908344131739965
 31
0.0
  0
LINE
  5
B3F3
330
B3E1
100
AcDbEntity
  8
0
  6
CONTINUOUS
100
AcDbLine
 10
15.15036518892213
 20
5.513807660471122
 30
0.0
 11
17.05541162217424
 21
7.418854093723231
 31
0.0
  0
LINE
  5
B3F4
330
B3E1
100
AcDbEntity
  8
0
  6
CONTINUOUS
100
AcDbLine
 10
14.74459412247225
 20
4.434517384941048
 30
0.0
 11
17.2394407932377
 21
6.929364055706499
 31
0.0
  0
LINE
  5
B3F5
330
B3E1
100
AcDbEntity
  8
0
  6
CONTINUOUS
100
AcDbLine
 10
14.33882305602236
 20
3.355227109410975
 30
0.0
 11
17.42346996430115
 21
6.439874017689766
 31
0.0
  0
LINE
  5
B3F6
330
B3E1
100
AcDbEntity
  8
0
  6
CONTINUOUS
100
AcDbLine
 10
13.46705359186416
 20
1.809938436172586
 30
0.0
 11
16.0819338255367
 21
4.424818669845129
 31
0.0
  0
LINE
  5
B3F7
330
B3E1
100
AcDbEntity
  8
0
  6
CONTINUOUS
100
AcDbLine
 10
16.63283254238972
 20
4.975717386698149
 30
0.0
 11
17.60749913536461
 21
5.950383979673033
 31
0.0
  0
LINE
  5
B3F8
330
B3E1
100
AcDbEntity
  8
0
  6
CONTINUOUS
100
AcDbLine
 10
13.66663434263929
 20
1.335999977867529
 30
0.0
 11
15.67604797733754
 21
3.345413612565779
 31
0.0
  0
LINE
  5
B3F9
330
B3E1
100
AcDbEntity
  8
0
  6
CONTINUOUS
100
AcDbLine
 10
13.86621509341442
 20
0.8620615195624723
 30
0.0
 11
15.27016212913838
 21
2.26600855528643
 31
0.0
  0
LINE
  5
B3FA
330
B3E1
100
AcDbEntity
  8
0
  6
CONTINUOUS
100
AcDbLine
 10
16.81682257348267
 20
4.486188208710908
 30
0.0
 11
17.79152830642806
 21
5.460893941656299
 31
0.0
  0
LINE
  5
B3FB
330
B3E1
100
AcDbEntity
  8
0
  6
CONTINUOUS
100
AcDbLine
 10
17.00081260457561
 20
3.996659030723667
 30
0.0
 11
17.97555747749151
 21
4.971403903639565
 31
0.0
  0
LINE
  5
B3FC
330
B3E1
100
AcDbEntity
  8
0
  6
CONTINUOUS
100
AcDbLine
 10
20.74362343514722
 20
8.412989070375462
 30
0.0
 11
21.09373436476302
 21
8.763099999991256
 31
0.0
  0
LINE
  5
B3FD
330
B3E1
100
AcDbEntity
  8
0
  6
CONTINUOUS
100
AcDbLine
 10
20.25401257174777
 20
7.249858997895826
 30
0.0
 11
21.7672535738432
 21
8.763099999991255
 31
0.0
  0
LINE
  5
B3FE
330
B3E1
100
AcDbEntity
  8
0
  6
CONTINUOUS
100
AcDbLine
 10
14.06579584418955
 20
0.3881230612574149
 30
0.0
 11
14.86427628093921
 21
1.186603498007082
 31
0.0
  0
LINE
  5
B3FF
330
B3E1
100
AcDbEntity
  8
0
  6
CONTINUOUS
100
AcDbLine
 10
14.26537659496467
 20
-0.0858153970476412
 30
0.0
 11
14.45839043274005
 21
0.1071984407277329
 31
0.0
  0
LINE
  5
B400
330
B3E1
100
AcDbEntity
  8
0
  6
CONTINUOUS
100
AcDbLine
 10
17.18480263566856
 20
3.507129852736426
 30
0.0
 11
18.15958664855496
 21
4.481913865622833
 31
0.0
  0
LINE
  5
B401
330
B3E1
100
AcDbEntity
  8
0
  6
CONTINUOUS
100
AcDbLine
 10
17.3687926667615
 20
3.017600674749186
 30
0.0
 11
18.34361581961842
 21
3.9924238276061
 31
0.0
  0
LINE
  5
B402
330
B3E1
100
AcDbEntity
  8
0
  6
CONTINUOUS
100
AcDbLine
 10
19.76440170834832
 20
6.086728925416191
 30
0.0
 11
22.33924590259489
 21
8.661573119662755
 31
0.0
  0
LINE
  5
B403
330
B3E1
100
AcDbEntity
  8
0
  6
CONTINUOUS
100
AcDbLine
 10
19.27479084494887
 20
4.923598852936555
 30
0.0
 11
21.84929622842713
 21
7.498104236414807
 31
0.0
  0
LINE
  5
B404
330
B3E1
100
AcDbEntity
  8
0
  6
CONTINUOUS
100
AcDbLine
 10
17.55278269785445
 20
2.528071496761945
 30
0.0
 11
18.52764499068187
 21
3.502933789589366
 31
0.0
  0
LINE
  5
B405
330
B3E1
100
AcDbEntity
  8
0
  6
CONTINUOUS
100
AcDbLine
 10
18.78517998154942
 20
3.760468780456919
 30
0.0
 11
21.35934655425936
 21
6.33463535316686
 31
0.0
  0
LINE
  5
B406
330
B3E1
100
AcDbEntity
  8
0
  6
CONTINUOUS
100
AcDbLine
 10
17.73677272894739
 20
2.038542318774704
 30
0.0
 11
20.8693968800916
 21
5.171166469918914
 31
0.0
  0
LINE
  5
B407
330
B3E1
100
AcDbEntity
  8
0
  6
CONTINUOUS
100
AcDbLine
 10
17.92076276004034
 20
1.549013140787464
 30
0.0
 11
20.37944720592384
 21
4.007697586670968
 31
0.0
  0
LINE
  5
B408
330
B3E1
100
AcDbEntity
  8
0
  6
CONTINUOUS
100
AcDbLine
 10
18.10475279113329
 20
1.059483962800223
 30
0.0
 11
19.88949753175608
 21
2.84422870342302
 31
0.0
  0
LINE
  5
B409
330
B3E1
100
AcDbEntity
  8
0
  6
CONTINUOUS
100
AcDbLine
 10
18.28874282222623
 20
0.5699547848129822
 30
0.0
 11
19.39954785758832
 21
1.680759820175074
 31
0.0
  0
LINE
  5
B40A
330
B3E1
100
AcDbEntity
  8
0
  6
CONTINUOUS
100
AcDbLine
 10
18.47273285331918
 20
0.0804256068257416
 30
0.0
 11
18.90959818342056
 21
0.517290936927127
 31
0.0
  0
LINE
  5
B40B
330
B3E1
100
AcDbEntity
  8
0
  6
CONTINUOUS
100
AcDbLine
 10
14.3590401358224
 20
-0.1570118376323384
 30
0.0
 11
14.24903296539946
 21
-0.0470046672093929
 31
0.0
  0
LINE
  5
B40C
330
B3E1
100
AcDbEntity
  8
0
  6
CONTINUOUS
100
AcDbLine
 10
14.54309291258661
 20
0.332454594683643
 30
0.0
 11
13.75908329123172
 21
1.116464216038529
 31
0.0
  0
LINE
  5
B40D
330
B3E1
100
AcDbEntity
  8
0
  6
CONTINUOUS
100
AcDbLine
 10
14.72714568935081
 20
0.8219210269996244
 30
0.0
 11
13.26913361706399
 21
2.27993309928645
 31
0.0
  0
LINE
  5
B40E
330
B3E1
100
AcDbEntity
  8
0
  6
CONTINUOUS
100
AcDbLine
 10
14.91119846611502
 20
1.311387459315606
 30
0.0
 11
12.77918394289625
 21
3.443401982534371
 31
0.0
  0
LINE
  5
B40F
330
B3E1
100
AcDbEntity
  8
0
  6
CONTINUOUS
100
AcDbLine
 10
15.09525124287922
 20
1.800853891631587
 30
0.0
 11
12.28923426872852
 21
4.606870865782293
 31
0.0
  0
LINE
  5
B410
330
B3E1
100
AcDbEntity
  8
0
  6
CONTINUOUS
100
AcDbLine
 10
15.27930401964343
 20
2.290320323947569
 30
0.0
 11
11.79928459456078
 21
5.770339749030213
 31
0.0
  0
LINE
  5
B411
330
B3E1
100
AcDbEntity
  8
0
  6
CONTINUOUS
100
AcDbLine
 10
15.46335679640763
 20
2.77978675626355
 30
0.0
 11
14.48885470994921
 21
3.754288842721972
 31
0.0
  0
LINE
  5
B412
330
B3E1
100
AcDbEntity
  8
0
  6
CONTINUOUS
100
AcDbLine
 10
13.88507249233704
 20
4.358071060334137
 30
0.0
 11
11.30933492039305
 21
6.933808632278135
 31
0.0
  0
LINE
  5
B413
330
B3E1
100
AcDbEntity
  8
0
  6
CONTINUOUS
100
AcDbLine
 10
18.75840522805855
 20
0.1582575336928151
 30
0.0
 11
18.25383727664818
 21
0.6628254851031863
 31
0.0
  0
LINE
  5
B414
330
B3E1
100
AcDbEntity
  8
0
  6
CONTINUOUS
100
AcDbLine
 10
15.64740957317184
 20
3.269253188579531
 30
0.0
 11
14.67288388101266
 21
4.243778880738705
 31
0.0
  0
LINE
  5
B415
330
B3E1
100
AcDbEntity
  8
0
  6
CONTINUOUS
100
AcDbLine
 10
13.39509276772158
 20
5.521569994029786
 30
0.0
 11
10.81938524622531
 21
8.097277515526056
 31
0.0
  0
LINE
  5
B416
330
B3E1
100
AcDbEntity
  8
0
  6
CONTINUOUS
100
AcDbLine
 10
18.95798597883369
 20
0.6321959919978686
 30
0.0
 11
17.84825644852853
 21
1.741925522303024
 31
0.0
  0
LINE
  5
B417
330
B3E1
100
AcDbEntity
  8
0
  6
CONTINUOUS
100
AcDbLine
 10
19.15756672960882
 20
1.106134450302922
 30
0.0
 11
17.44267562040888
 21
2.821025559502861
 31
0.0
  0
LINE
  5
B418
330
B3E1
100
AcDbEntity
  8
0
  6
CONTINUOUS
100
AcDbLine
 10
15.83146234993604
 20
3.758719620895513
 30
0.0
 11
14.85691305207612
 21
4.733268918755439
 31
0.0
  0
LINE
  5
B419
330
B3E1
100
AcDbEntity
  8
0
  6
CONTINUOUS
100
AcDbLine
 10
16.01551512670025
 20
4.248186053211494
 30
0.0
 11
15.04094222313957
 21
5.222758956772172
 31
0.0
  0
LINE
  5
B41A
330
B3E1
100
AcDbEntity
  8
0
  6
CONTINUOUS
100
AcDbLine
 10
12.90511304310612
 20
6.685068927725435
 30
0.0
 11
10.8270819708403
 21
8.763099999991255
 31
0.0
  0
LINE
  5
B41B
330
B3E1
100
AcDbEntity
  8
0
  6
CONTINUOUS
100
AcDbLine
 10
12.41513331849066
 20
7.848567861421083
 30
0.0
 11
11.50060117992049
 21
8.763099999991255
 31
0.0
  0
LINE
  5
B41C
330
B3E1
100
AcDbEntity
  8
0
  6
CONTINUOUS
100
AcDbLine
 10
19.35714748038395
 20
1.580072908607975
 30
0.0
 11
17.03709479228923
 21
3.900125596702697
 31
0.0
  0
LINE
  5
B41D
330
B3E1
100
AcDbEntity
  8
0
  6
CONTINUOUS
100
AcDbLine
 10
19.55672823115909
 20
2.054011366913028
 30
0.0
 11
16.63151396416958
 21
4.979225633902534
 31
0.0
  0
LINE
  5
B41E
330
B3E1
100
AcDbEntity
  8
0
  6
CONTINUOUS
100
AcDbLine
 10
16.19956790346445
 20
4.737652485527476
 30
0.0
 11
15.22497139420302
 21
5.712248994788904
 31
0.0
  0
LINE
  5
B41F
330
B3E1
100
AcDbEntity
  8
0
  6
CONTINUOUS
100
AcDbLine
 10
16.38362068022866
 20
5.227118917843457
 30
0.0
 11
15.40900056526648
 21
6.201739032805637
 31
0.0
  0
LINE
  5
B420
330
B3E1
100
AcDbEntity
  8
0
  6
CONTINUOUS
100
AcDbLine
 10
19.75630898193422
 20
2.527949825218081
 30
0.0
 11
18.70774536448286
 21
3.576513442669441
 31
0.0
  0
LINE
  5
B421
330
B3E1
100
AcDbEntity
  8
0
  6
CONTINUOUS
100
AcDbLine
 10
19.95588973270936
 20
3.001888283523134
 30
0.0
 11
18.90726987211446
 21
4.050508144118028
 31
0.0
  0
LINE
  5
B422
330
B3E1
100
AcDbEntity
  8
0
  6
CONTINUOUS
100
AcDbLine
 10
20.15547048348449
 20
3.475826741828186
 30
0.0
 11
19.10679437974606
 21
4.524502845566614
 31
0.0
  0
LINE
  5
B423
330
B3E1
100
AcDbEntity
  8
0
  6
CONTINUOUS
100
AcDbLine
 10
20.35505123425962
 20
3.94976520013324
 30
0.0
 11
19.30631888737766
 21
4.998497547015201
 31
0.0
  0
LINE
  5
B424
330
B3E1
100
AcDbEntity
  8
0
  6
CONTINUOUS
100
AcDbLine
 10
20.55463198503475
 20
4.423703658438292
 30
0.0
 11
19.50584339500926
 21
5.472492248463787
 31
0.0
  0
LINE
  5
B425
330
B3E1
100
AcDbEntity
  8
0
  6
CONTINUOUS
100
AcDbLine
 10
18.37481191085755
 20
3.909446896294752
 30
0.0
 11
15.59302973632993
 21
6.691229070822371
 31
0.0
  0
LINE
  5
B426
330
B3E1
100
AcDbEntity
  8
0
  6
CONTINUOUS
100
AcDbLine
 10
17.96904084440766
 20
4.988737171824825
 30
0.0
 11
15.77705890739338
 21
7.180719108839104
 31
0.0
  0
LINE
  5
B427
330
B3E1
100
AcDbEntity
  8
0
  6
CONTINUOUS
100
AcDbLine
 10
17.56326977795777
 20
6.068027447354899
 30
0.0
 11
15.96108807845684
 21
7.670209146855838
 31
0.0
  0
LINE
  5
B428
330
B3E1
100
AcDbEntity
  8
0
  6
CONTINUOUS
100
AcDbLine
 10
17.15749871150789
 20
7.147317722884972
 30
0.0
 11
16.14511724952029
 21
8.15969918487257
 31
0.0
  0
LINE
  5
B429
330
B3E1
100
AcDbEntity
  8
0
  6
CONTINUOUS
100
AcDbLine
 10
16.751727645058
 20
8.226607998415046
 30
0.0
 11
16.32914642058374
 21
8.649189222889303
 31
0.0
  0
LINE
  5
B42A
330
B3E1
100
AcDbEntity
  8
0
  6
CONTINUOUS
100
AcDbLine
 10
20.75421273580989
 20
4.897642116743345
 30
0.0
 11
19.70536790264086
 21
5.946486949912374
 31
0.0
  0
LINE
  5
B42B
330
B3E1
100
AcDbEntity
  8
0
  6
CONTINUOUS
100
AcDbLine
 10
20.95379348658502
 20
5.371580575048398
 30
0.0
 11
19.90489241027246
 21
6.42048165136096
 31
0.0
  0
LINE
  5
B42C
330
B3E1
100
AcDbEntity
  8
0
  6
CONTINUOUS
100
AcDbLine
 10
21.15337423736015
 20
5.845519033353452
 30
0.0
 11
20.10441691790406
 21
6.894476352809547
 31
0.0
  0
LINE
  5
B42D
330
B3E1
100
AcDbEntity
  8
0
  6
CONTINUOUS
100
AcDbLine
 10
21.35295498813529
 20
6.319457491658505
 30
0.0
 11
20.30394142553566
 21
7.368471054258134
 31
0.0
  0
LINE
  5
B42E
330
B3E1
100
AcDbEntity
  8
0
  6
CONTINUOUS
100
AcDbLine
 10
21.55253573891042
 20
6.793395949963558
 30
0.0
 11
20.50346593316726
 21
7.842465755706721
 31
0.0
  0
LINE
  5
B42F
330
B3E1
100
AcDbEntity
  8
0
  6
CONTINUOUS
100
AcDbLine
 10
21.75211648968556
 20
7.267334408268612
 30
0.0
 11
20.70299044079886
 21
8.316460457155308
 31
0.0
  0
LINE
  5
B430
330
B3E1
100
AcDbEntity
  8
0
  6
CONTINUOUS
100
AcDbLine
 10
21.95169724046069
 20
7.741272866573663
 30
0.0
 11
20.9298701070431
 21
8.763099999991256
 31
0.0
  0
LINE
  5
B431
330
B3E1
100
AcDbEntity
  8
0
  6
CONTINUOUS
100
AcDbLine
 10
22.15127799123582
 20
8.215211324878716
 30
0.0
 11
21.60338931612328
 21
8.763099999991256
 31
0.0
  0
LINE
  5
B432
330
B3E1
100
AcDbEntity
  8
0
  6
CONTINUOUS
100
AcDbLine
 10
22.35085874201096
 20
8.689149783183769
 30
0.0
 11
22.27690852520347
 21
8.763099999991255
 31
0.0
  0
ENDBLK
  5
B524
330
B3E1
100
AcDbEntity
  8
0
100
AcDbBlockEnd
  0
BLOCK
  5
B525
330
B433
100
AcDbEntity
  8
0
100
AcDbBlockBegin
  2
*X15
 70
     1
 10
0.0
 20
0.0
 30
0.0
  3
*X15
  1

  0
LINE
  5
B434
330
B433
100
AcDbEntity
  8
0
  6
CONTINUOUS
100
AcDbLine
 10
23.19462913593892
 20
8.169917934846424
 30
0.0
 11
23.70775465517246
 21
8.683043454079957
 31
0.0
  0
LINE
  5
B435
330
B433
100
AcDbEntity
  8
0
  6
CONTINUOUS
100
AcDbLine
 10
22.64923161835078
 20
6.951001208178088
 30
0.0
 11
23.9159364069932
 21
8.217705996820516
 31
0.0
  0
LINE
  5
B436
330
B433
100
AcDbEntity
  8
0
  6
CONTINUOUS
100
AcDbLine
 10
22.10383410076263
 20
5.732084481509751
 30
0.0
 11
24.12411815881395
 21
7.752368539561078
 31
0.0
  0
LINE
  5
B437
330
B433
100
AcDbEntity
  8
0
  6
CONTINUOUS
100
AcDbLine
 10
21.55843658317447
 20
4.513167754841414
 30
0.0
 11
24.3322999106347
 21
7.287031082301639
 31
0.0
  0
LINE
  5
B438
330
B433
100
AcDbEntity
  8
0
  6
CONTINUOUS
100
AcDbLine
 10
21.01303906558632
 20
3.294251028173077
 30
0.0
 11
24.54048166245544
 21
6.821693625042199
 31
0.0
  0
LINE
  5
B439
330
B433
100
AcDbEntity
  8
0
  6
CONTINUOUS
100
AcDbLine
 10
20.46764154799817
 20
2.075334301504738
 30
0.0
 11
23.28571549467848
 21
4.89340824818505
 31
0.0
  0
LINE
  5
B43A
330
B433
100
AcDbEntity
  8
0
  6
CONTINUOUS
100
AcDbLine
 10
19.92224403041002
 20
0.8564175748364002
 30
0.0
 11
22.74075865492779
 21
3.674932199354171
 31
0.0
  0
LINE
  5
B43B
330
B433
100
AcDbEntity
  8
0
  6
CONTINUOUS
100
AcDbLine
 10
23.67305085490148
 20
5.280743608408048
 30
0.0
 11
24.74866341427619
 21
6.356356167782759
 31
0.0
  0
LINE
  5
B43C
330
B433
100
AcDbEntity
  8
0
  6
CONTINUOUS
100
AcDbLine
 10
23.88118970842314
 20
4.815363252849522
 30
0.0
 11
24.95684516609694
 21
5.89101871052332
 31
0.0
  0
LINE
  5
B43D
330
B433
100
AcDbEntity
  8
0
  6
CONTINUOUS
100
AcDbLine
 10
19.73925852647308
 20
-0.0000871381807288
 30
0.0
 11
23.4103456646501
 21
3.670999999996297
 31
0.0
  0
LINE
  5
B43E
330
B433
100
AcDbEntity
  8
0
  6
CONTINUOUS
100
AcDbLine
 10
24.0893285619448
 20
4.349982897290997
 30
0.0
 11
25.16502691791769
 21
5.42568125326388
 31
0.0
  0
LINE
  5
B43F
330
B433
100
AcDbEntity
  8
0
  6
CONTINUOUS
100
AcDbLine
 10
20.41282099582748
 20
-0.0000438779065108
 30
0.0
 11
21.64944178675636
 21
1.236576913022366
 31
0.0
  0
LINE
  5
B440
330
B433
100
AcDbEntity
  8
0
  6
CONTINUOUS
100
AcDbLine
 10
22.78126487373161
 20
2.36839999999762
 30
0.0
 11
24.08386487373029
 21
3.670999999996297
 31
0.0
  0
LINE
  5
B441
330
B433
100
AcDbEntity
  8
0
  6
CONTINUOUS
100
AcDbLine
 10
24.29746741546646
 20
3.884602541732471
 30
0.0
 11
25.37320866973843
 21
4.960343796004441
 31
0.0
  0
LINE
  5
B442
330
B433
100
AcDbEntity
  8
0
  6
CONTINUOUS
100
AcDbLine
 10
21.08638346518189
 20
-0.0000006176322938
 30
0.0
 11
21.10379033335899
 21
0.0174062505448083
 31
0.0
  0
LINE
  5
B443
330
B433
100
AcDbEntity
  8
0
  6
CONTINUOUS
100
AcDbLine
 10
23.4547840828118
 20
2.36839999999762
 30
0.0
 11
25.58139042155918
 21
4.495006338745002
 31
0.0
  0
LINE
  5
B444
330
B433
100
AcDbEntity
  8
0
  6
CONTINUOUS
100
AcDbLine
 10
29.30199999996933
 20
8.215615917155148
 30
0.0
 11
29.84948408280543
 21
8.763099999991255
 31
0.0
  0
LINE
  5
B445
330
B433
100
AcDbEntity
  8
0
  6
CONTINUOUS
100
AcDbLine
 10
24.12830329189199
 20
2.36839999999762
 30
0.0
 11
25.78957217337993
 21
4.029668881485562
 31
0.0
  0
LINE
  5
B446
330
B433
100
AcDbEntity
  8
0
  6
CONTINUOUS
100
AcDbLine
 10
29.30199999996933
 20
7.54209670807496
 30
0.0
 11
30.52300329188562
 21
8.763099999991255
 31
0.0
  0
LINE
  5
B447
330
B433
100
AcDbEntity
  8
0
  6
CONTINUOUS
100
AcDbLine
 10
24.80182250097217
 20
2.36839999999762
 30
0.0
 11
25.99775392520067
 21
3.564331424226122
 31
0.0
  0
LINE
  5
B448
330
B433
100
AcDbEntity
  8
0
  6
CONTINUOUS
100
AcDbLine
 10
29.30199999996933
 20
6.868577498994774
 30
0.0
 11
30.74199999996926
 21
8.308577498994712
 31
0.0
  0
LINE
  5
B449
330
B433
100
AcDbEntity
  8
0
  6
CONTINUOUS
100
AcDbLine
 10
25.13028238392013
 20
2.023340673865392
 30
0.0
 11
26.20593567702142
 21
3.098993966966683
 31
0.0
  0
LINE
  5
B44A
330
B433
100
AcDbEntity
  8
0
  6
CONTINUOUS
100
AcDbLine
 10
25.33838066033617
 20
1.557919741201244
 30
0.0
 11
26.41411742884217
 21
2.633656509707244
 31
0.0
  0
LINE
  5
B44B
330
B433
100
AcDbEntity
  8
0
  6
CONTINUOUS
100
AcDbLine
 10
25.54647893675221
 20
1.092498808537098
 30
0.0
 11
26.62229918066291
 21
2.168319052447804
 31
0.0
  0
LINE
  5
B44C
330
B433
100
AcDbEntity
  8
0
  6
CONTINUOUS
100
AcDbLine
 10
25.75457721316825
 20
0.62707787587295
 30
0.0
 11
26.83048093248366
 21
1.702981595188365
 31
0.0
  0
LINE
  5
B44D
330
B433
100
AcDbEntity
  8
0
  6
CONTINUOUS
100
AcDbLine
 10
29.30199999996933
 20
6.195058289914587
 30
0.0
 11
30.74199999996926
 21
7.635058289914522
 31
0.0
  0
LINE
  5
B44E
330
B433
100
AcDbEntity
  8
0
  6
CONTINUOUS
100
AcDbLine
 10
29.30199999996933
 20
5.521539080834401
 30
0.0
 11
30.74199999996926
 21
6.961539080834331
 31
0.0
  0
LINE
  5
B44F
330
B433
100
AcDbEntity
  8
0
  6
CONTINUOUS
100
AcDbLine
 10
29.30199999996933
 20
4.848019871754214
 30
0.0
 11
30.74199999996925
 21
6.288019871754143
 31
0.0
  0
LINE
  5
B450
330
B433
100
AcDbEntity
  8
0
  6
CONTINUOUS
100
AcDbLine
 10
29.30199999996933
 20
4.174500662674028
 30
0.0
 11
30.74199999996925
 21
5.614500662673953
 31
0.0
  0
LINE
  5
B451
330
B433
100
AcDbEntity
  8
0
  6
CONTINUOUS
100
AcDbLine
 10
25.96267548958429
 20
0.1616569432088024
 30
0.0
 11
27.18411854636669
 21
1.383099999991207
 31
0.0
  0
LINE
  5
B452
330
B433
100
AcDbEntity
  8
0
  6
CONTINUOUS
100
AcDbLine
 10
29.30199999996933
 20
3.500981453593841
 30
0.0
 11
30.74199999996925
 21
4.940981453593762
 31
0.0
  0
LINE
  5
B453
330
B433
100
AcDbEntity
  8
0
  6
CONTINUOUS
100
AcDbLine
 10
26.50763775544691
 20
0.0330999999912356
 30
0.0
 11
27.85763775544689
 21
1.383099999991223
 31
0.0
  0
LINE
  5
B454
330
B433
100
AcDbEntity
  8
0
  6
CONTINUOUS
100
AcDbLine
 10
29.30199999996933
 20
2.827462244513656
 30
0.0
 11
30.74199999996925
 21
4.267462244513574
 31
0.0
  0
LINE
  5
B455
330
B433
100
AcDbEntity
  8
0
  6
CONTINUOUS
100
AcDbLine
 10
27.18115696452709
 20
0.0330999999912356
 30
0.0
 11
28.55073879889363
 21
1.402681834357775
 31
0.0
  0
LINE
  5
B456
330
B433
100
AcDbEntity
  8
0
  6
CONTINUOUS
100
AcDbLine
 10
29.28241816560272
 20
2.134361201066866
 30
0.0
 11
30.74199999996924
 21
3.593943035433383
 31
0.0
  0
LINE
  5
B457
330
B433
100
AcDbEntity
  8
0
  6
CONTINUOUS
100
AcDbLine
 10
27.85467617360728
 20
0.0330999999912356
 30
0.0
 11
30.74199999996924
 21
2.920423826353195
 31
0.0
  0
LINE
  5
B458
330
B433
100
AcDbEntity
  8
0
  6
CONTINUOUS
100
AcDbLine
 10
28.53897559587887
 20
0.0438802131826428
 30
0.0
 11
30.73121978677781
 21
2.236124404081585
 31
0.0
  0
LINE
  5
B459
330
B433
100
AcDbEntity
  8
0
  6
CONTINUOUS
100
AcDbLine
 10
29.45140055588722
 20
0.2827859641107988
 30
0.0
 11
30.49231403584965
 21
1.323699444073236
 31
0.0
  0
LINE
  5
B45A
330
B433
100
AcDbEntity
  8
0
  6
CONTINUOUS
100
AcDbLine
 10
19.59027867740337
 20
-0.0000967065718083
 30
0.0
 11
19.55485265190471
 21
0.035329318926844
 31
0.0
  0
LINE
  5
B45B
330
B433
100
AcDbEntity
  8
0
  6
CONTINUOUS
100
AcDbLine
 10
20.26375463176586
 20
-0.0000534518541091
 30
0.0
 11
19.76305575737534
 21
0.5006454225364014
 31
0.0
  0
LINE
  5
B45C
330
B433
100
AcDbEntity
  8
0
  6
CONTINUOUS
100
AcDbLine
 10
20.93723058612834
 20
-0.0000101971364099
 30
0.0
 11
19.97125886284597
 21
0.965961526145958
 31
0.0
  0
LINE
  5
B45D
330
B433
100
AcDbEntity
  8
0
  6
CONTINUOUS
100
AcDbLine
 10
21.25514828313686
 20
0.355591314935257
 30
0.0
 11
20.1794619683166
 21
1.431277629755512
 31
0.0
  0
LINE
  5
B45E
330
B433
100
AcDbEntity
  8
0
  6
CONTINUOUS
100
AcDbLine
 10
21.46338838394921
 20
0.8208704232030986
 30
0.0
 11
20.38766507378723
 21
1.896593733365069
 31
0.0
  0
LINE
  5
B45F
330
B433
100
AcDbEntity
  8
0
  6
CONTINUOUS
100
AcDbLine
 10
21.67162848476155
 20
1.28614953147094
 30
0.0
 11
20.59586817925786
 21
2.361909836974626
 31
0.0
  0
LINE
  5
B460
330
B433
100
AcDbEntity
  8
0
  6
CONTINUOUS
100
AcDbLine
 10
21.8798685855739
 20
1.751428639738782
 30
0.0
 11
20.80407128472849
 21
2.827225940584183
 31
0.0
  0
LINE
  5
B461
330
B433
100
AcDbEntity
  8
0
  6
CONTINUOUS
100
AcDbLine
 10
22.08810868638624
 20
2.216707748006623
 30
0.0
 11
21.01227439019912
 21
3.292542044193739
 31
0.0
  0
LINE
  5
B462
330
B433
100
AcDbEntity
  8
0
  6
CONTINUOUS
100
AcDbLine
 10
22.60993564347543
 20
2.36839999999762
 30
0.0
 11
21.22047749566975
 21
3.757858147803296
 31
0.0
  0
LINE
  5
B463
330
B433
100
AcDbEntity
  8
0
  6
CONTINUOUS
100
AcDbLine
 10
23.28345485255561
 20
2.36839999999762
 30
0.0
 11
21.42868060114038
 21
4.223174251412853
 31
0.0
  0
LINE
  5
B464
330
B433
100
AcDbEntity
  8
0
  6
CONTINUOUS
100
AcDbLine
 10
26.29227406164219
 20
0.0330999999912356
 30
0.0
 11
25.80009199592872
 21
0.5252820657046957
 31
0.0
  0
LINE
  5
B465
330
B433
100
AcDbEntity
  8
0
  6
CONTINUOUS
100
AcDbLine
 10
23.9569740616358
 20
2.36839999999762
 30
0.0
 11
21.63688370661101
 21
4.688490355022409
 31
0.0
  0
LINE
  5
B466
330
B433
100
AcDbEntity
  8
0
  6
CONTINUOUS
100
AcDbLine
 10
26.96579327072237
 20
0.0330999999912356
 30
0.0
 11
25.2554132311971
 21
1.743480039516508
 31
0.0
  0
LINE
  5
B467
330
B433
100
AcDbEntity
  8
0
  6
CONTINUOUS
100
AcDbLine
 10
24.63049327071599
 20
2.36839999999762
 30
0.0
 11
23.32789327071731
 21
3.670999999996297
 31
0.0
  0
LINE
  5
B468
330
B433
100
AcDbEntity
  8
0
  6
CONTINUOUS
100
AcDbLine
 10
22.92098674744635
 20
4.077906523267254
 30
0.0
 11
21.84508681208164
 21
5.153806458631966
 31
0.0
  0
LINE
  5
B469
330
B433
100
AcDbEntity
  8
0
  6
CONTINUOUS
100
AcDbLine
 10
27.63931247980256
 20
0.0330999999912356
 30
0.0
 11
24.0014124797975
 21
3.670999999996297
 31
0.0
  0
LINE
  5
B46A
330
B433
100
AcDbEntity
  8
0
  6
CONTINUOUS
100
AcDbLine
 10
23.129125600968
 20
4.5432868788258
 30
0.0
 11
22.05328991755227
 21
5.619122562241522
 31
0.0
  0
LINE
  5
B46B
330
B433
100
AcDbEntity
  8
0
  6
CONTINUOUS
100
AcDbLine
 10
28.31283168888275
 20
0.0330999999912356
 30
0.0
 11
24.16488385994816
 21
4.181047828925828
 31
0.0
  0
LINE
  5
B46C
330
B433
100
AcDbEntity
  8
0
  6
CONTINUOUS
100
AcDbLine
 10
23.33726445448964
 20
5.008667234384345
 30
0.0
 11
22.2614930230229
 21
6.084438665851079
 31
0.0
  0
LINE
  5
B46D
330
B433
100
AcDbEntity
  8
0
  6
CONTINUOUS
100
AcDbLine
 10
28.92085740005492
 20
0.0985934978992438
 30
0.0
 11
27.63635089796295
 21
1.383099999991217
 31
0.0
  0
LINE
  5
B46E
330
B433
100
AcDbEntity
  8
0
  6
CONTINUOUS
100
AcDbLine
 10
26.43704649509776
 20
2.582404402856405
 30
0.0
 11
23.61992702019732
 21
5.399523877756844
 31
0.0
  0
LINE
  5
B46F
330
B433
100
AcDbEntity
  8
0
  6
CONTINUOUS
100
AcDbLine
 10
23.54540330801128
 20
5.47404758994289
 30
0.0
 11
22.46969612849353
 21
6.549754769460635
 31
0.0
  0
LINE
  5
B470
330
B433
100
AcDbEntity
  8
0
  6
CONTINUOUS
100
AcDbLine
 10
29.42225615078443
 20
0.2707139562499279
 30
0.0
 11
28.30987010704312
 21
1.383099999991234
 31
0.0
  0
LINE
  5
B471
330
B433
100
AcDbEntity
  8
0
  6
CONTINUOUS
100
AcDbLine
 10
25.89179548232307
 20
3.801174624711282
 30
0.0
 11
22.67789923396416
 21
7.015070873070191
 31
0.0
  0
LINE
  5
B472
330
B433
100
AcDbEntity
  8
0
  6
CONTINUOUS
100
AcDbLine
 10
29.83624534690007
 20
0.5302439692144705
 30
0.0
 11
28.85811781497101
 21
1.508371501143527
 31
0.0
  0
LINE
  5
B473
330
B433
100
AcDbEntity
  8
0
  6
CONTINUOUS
100
AcDbLine
 10
25.34654446954838
 20
5.01994484656616
 30
0.0
 11
22.88610233943479
 21
7.480386976679748
 31
0.0
  0
LINE
  5
B474
330
B433
100
AcDbEntity
  8
0
  6
CONTINUOUS
100
AcDbLine
 10
30.17865975401872
 20
0.8613487711760022
 30
0.0
 11
29.18888744090175
 21
1.851121084292977
 31
0.0
  0
LINE
  5
B475
330
B433
100
AcDbEntity
  8
0
  6
CONTINUOUS
100
AcDbLine
 10
24.80129345677369
 20
6.238715068421037
 30
0.0
 11
23.09430544490542
 21
7.945703080289305
 31
0.0
  0
LINE
  5
B476
330
B433
100
AcDbEntity
  8
0
  6
CONTINUOUS
100
AcDbLine
 10
30.45496647202376
 20
1.258561262251155
 30
0.0
 11
29.30199999996933
 21
2.411527734305588
 31
0.0
  0
LINE
  5
B477
330
B433
100
AcDbEntity
  8
0
  6
CONTINUOUS
100
AcDbLine
 10
24.256042443999
 20
7.457485290275915
 30
0.0
 11
23.30250855037605
 21
8.411019183898862
 31
0.0
  0
LINE
  5
B478
330
B433
100
AcDbEntity
  8
0
  6
CONTINUOUS
100
AcDbLine
 10
30.64868582078271
 20
1.738361122572387
 30
0.0
 11
29.30199999996933
 21
3.085046943385775
 31
0.0
  0
LINE
  5
B479
330
B433
100
AcDbEntity
  8
0
  6
CONTINUOUS
100
AcDbLine
 10
23.71079143122431
 20
8.676255512130794
 30
0.0
 11
23.51071165584668
 21
8.876335287508416
 31
0.0
  0
LINE
  5
B47A
330
B433
100
AcDbEntity
  8
0
  6
CONTINUOUS
100
AcDbLine
 10
30.73802122914428
 20
2.322544923291007
 30
0.0
 11
29.30199999996933
 21
3.758566152465961
 31
0.0
  0
LINE
  5
B47B
330
B433
100
AcDbEntity
  8
0
  6
CONTINUOUS
100
AcDbLine
 10
30.74199999996924
 20
2.992085361546236
 30
0.0
 11
29.30199999996933
 21
4.432085361546148
 31
0.0
  0
LINE
  5
B47C
330
B433
100
AcDbEntity
  8
0
  6
CONTINUOUS
100
AcDbLine
 10
30.74199999996924
 20
3.665604570626419
 30
0.0
 11
29.30199999996933
 21
5.105604570626333
 31
0.0
  0
LINE
  5
B47D
330
B433
100
AcDbEntity
  8
0
  6
CONTINUOUS
100
AcDbLine
 10
30.74199999996925
 20
4.339123779706602
 30
0.0
 11
29.30199999996933
 21
5.77912377970652
 31
0.0
  0
LINE
  5
B47E
330
B433
100
AcDbEntity
  8
0
  6
CONTINUOUS
100
AcDbLine
 10
30.74199999996925
 20
5.012642988786785
 30
0.0
 11
29.30199999996933
 21
6.452642988786707
 31
0.0
  0
LINE
  5
B47F
330
B433
100
AcDbEntity
  8
0
  6
CONTINUOUS
100
AcDbLine
 10
30.74199999996925
 20
5.68616219786697
 30
0.0
 11
29.30199999996933
 21
7.126162197866894
 31
0.0
  0
LINE
  5
B480
330
B433
100
AcDbEntity
  8
0
  6
CONTINUOUS
100
AcDbLine
 10
30.74199999996925
 20
6.359681406947153
 30
0.0
 11
29.30199999996933
 21
7.799681406947081
 31
0.0
  0
LINE
  5
B481
330
B433
100
AcDbEntity
  8
0
  6
CONTINUOUS
100
AcDbLine
 10
30.74199999996926
 20
7.033200616027337
 30
0.0
 11
29.30199999996933
 21
8.473200616027269
 31
0.0
  0
LINE
  5
B482
330
B433
100
AcDbEntity
  8
0
  6
CONTINUOUS
100
AcDbLine
 10
30.74199999996926
 20
7.706719825107518
 30
0.0
 11
29.68561982508552
 21
8.763099999991255
 31
0.0
  0
LINE
  5
B483
330
B433
100
AcDbEntity
  8
0
  6
CONTINUOUS
100
AcDbLine
 10
30.74199999996926
 20
8.380239034187703
 30
0.0
 11
30.35913903416571
 21
8.763099999991255
 31
0.0
  0
ENDBLK
  5
B526
330
B433
100
AcDbEntity
  8
0
100
AcDbBlockEnd
  0
BLOCK
  5
B527
330
B484
100
AcDbEntity
  8
0
100
AcDbBlockBegin
  2
*X16
 70
     1
 10
0.0
 20
0.0
 30
0.0
  3
*X16
  1

  0
LINE
  5
B485
330
B484
100
AcDbEntity
  8
0
  6
CONTINUOUS
100
AcDbLine
 10
31.64199999996833
 20
8.535058289913598
 30
0.0
 11
31.87004171004599
 21
8.763099999991255
 31
0.0
  0
LINE
  5
B486
330
B484
100
AcDbEntity
  8
0
  6
CONTINUOUS
100
AcDbLine
 10
31.64199999996833
 20
7.861539080833412
 30
0.0
 11
32.54356091912618
 21
8.763099999991255
 31
0.0
  0
LINE
  5
B487
330
B484
100
AcDbEntity
  8
0
  6
CONTINUOUS
100
AcDbLine
 10
31.64199999996833
 20
7.188019871753226
 30
0.0
 11
33.08199999996839
 21
8.628019871753281
 31
0.0
  0
LINE
  5
B488
330
B484
100
AcDbEntity
  8
0
  6
CONTINUOUS
100
AcDbLine
 10
31.64199999996833
 20
6.51450066267304
 30
0.0
 11
33.08199999996839
 21
7.954500662673095
 31
0.0
  0
LINE
  5
B489
330
B484
100
AcDbEntity
  8
0
  6
CONTINUOUS
100
AcDbLine
 10
31.64199999996833
 20
5.840981453592853
 30
0.0
 11
33.08199999996839
 21
7.280981453592908
 31
0.0
  0
LINE
  5
B48A
330
B484
100
AcDbEntity
  8
0
  6
CONTINUOUS
100
AcDbLine
 10
31.64199999996833
 20
5.167462244512667
 30
0.0
 11
33.08199999996839
 21
6.607462244512721
 31
0.0
  0
LINE
  5
B48B
330
B484
100
AcDbEntity
  8
0
  6
CONTINUOUS
100
AcDbLine
 10
31.64199999996833
 20
4.493943035432481
 30
0.0
 11
33.08199999996839
 21
5.933943035432535
 31
0.0
  0
LINE
  5
B48C
330
B484
100
AcDbEntity
  8
0
  6
CONTINUOUS
100
AcDbLine
 10
31.64199999996833
 20
3.820423826352293
 30
0.0
 11
33.08199999996839
 21
5.260423826352348
 31
0.0
  0
LINE
  5
B48D
330
B484
100
AcDbEntity
  8
0
  6
CONTINUOUS
100
AcDbLine
 10
31.64199999996833
 20
3.146904617272106
 30
0.0
 11
33.08199999996839
 21
4.586904617272161
 31
0.0
  0
LINE
  5
B48E
330
B484
100
AcDbEntity
  8
0
  6
CONTINUOUS
100
AcDbLine
 10
36.23199999996837
 20
8.410423826352325
 30
0.0
 11
36.5846761736073
 21
8.763099999991255
 31
0.0
  0
LINE
  5
B48F
330
B484
100
AcDbEntity
  8
0
  6
CONTINUOUS
100
AcDbLine
 10
36.23199999996837
 20
7.73690461727214
 30
0.0
 11
37.25819538268748
 21
8.763099999991255
 31
0.0
  0
LINE
  5
B490
330
B484
100
AcDbEntity
  8
0
  6
CONTINUOUS
100
AcDbLine
 10
31.64257403601376
 20
2.473959444237348
 30
0.0
 11
33.08199999996839
 21
3.913385408191974
 31
0.0
  0
LINE
  5
B491
330
B484
100
AcDbEntity
  8
0
  6
CONTINUOUS
100
AcDbLine
 10
36.23199999996837
 20
7.063385408191953
 30
0.0
 11
37.67199999996831
 21
8.503385408191894
 31
0.0
  0
LINE
  5
B492
330
B484
100
AcDbEntity
  8
0
  6
CONTINUOUS
100
AcDbLine
 10
31.72013636841932
 20
1.87800256756272
 30
0.0
 11
33.08199999996839
 21
3.239866199111788
 31
0.0
  0
LINE
  5
B493
330
B484
100
AcDbEntity
  8
0
  6
CONTINUOUS
100
AcDbLine
 10
36.23199999996837
 20
6.389866199111767
 30
0.0
 11
37.67199999996831
 21
7.829866199111708
 31
0.0
  0
LINE
  5
B494
330
B484
100
AcDbEntity
  8
0
  6
CONTINUOUS
100
AcDbLine
 10
31.89042734314753
 20
1.374774333210744
 30
0.0
 11
33.08199999996839
 21
2.566346990031601
 31
0.0
  0
LINE
  5
B495
330
B484
100
AcDbEntity
  8
0
  6
CONTINUOUS
100
AcDbLine
 10
36.23199999996837
 20
5.71634699003158
 30
0.0
 11
37.67199999996831
 21
7.156346990031521
 31
0.0
  0
LINE
  5
B496
330
B484
100
AcDbEntity
  8
0
  6
CONTINUOUS
100
AcDbLine
 10
32.14210568064475
 20
0.952933461627778
 30
0.0
 11
33.18745552475986
 21
1.998283305742888
 31
0.0
  0
LINE
  5
B497
330
B484
100
AcDbEntity
  8
0
  6
CONTINUOUS
100
AcDbLine
 10
36.23199999996837
 20
5.042827780951393
 30
0.0
 11
37.67199999996831
 21
6.482827780951334
 31
0.0
  0
LINE
  5
B498
330
B484
100
AcDbEntity
  8
0
  6
CONTINUOUS
100
AcDbLine
 10
32.45820639400955
 20
0.5955149659123915
 30
0.0
 11
33.47242681921943
 21
1.60973539112227
 31
0.0
  0
LINE
  5
B499
330
B484
100
AcDbEntity
  8
0
  6
CONTINUOUS
100
AcDbLine
 10
36.23199999996837
 20
4.369308571871207
 30
0.0
 11
37.67199999996831
 21
5.809308571871147
 31
0.0
  0
LINE
  5
B49A
330
B484
100
AcDbEntity
  8
0
  6
CONTINUOUS
100
AcDbLine
 10
32.83432456621412
 20
0.2981139290367771
 30
0.0
 11
33.89722476612215
 21
1.361014128944803
 31
0.0
  0
LINE
  5
B49B
330
B484
100
AcDbEntity
  8
0
  6
CONTINUOUS
100
AcDbLine
 10
36.23199999996837
 20
3.69578936279102
 30
0.0
 11
37.67199999996831
 21
5.135789362790962
 31
0.0
  0
LINE
  5
B49C
330
B484
100
AcDbEntity
  8
0
  6
CONTINUOUS
100
AcDbLine
 10
33.2711633111245
 20
0.0614334648669672
 30
0.0
 11
34.43247338014423
 21
1.222743533886696
 31
0.0
  0
LINE
  5
B49D
330
B484
100
AcDbEntity
  8
0
  6
CONTINUOUS
100
AcDbLine
 10
36.23199999996837
 20
3.022270153710834
 30
0.0
 11
37.67199999996831
 21
4.462270153710775
 31
0.0
  0
LINE
  5
B49E
330
B484
100
AcDbEntity
  8
0
  6
CONTINUOUS
100
AcDbLine
 10
33.76515245874577
 20
-0.1180965965919523
 30
0.0
 11
35.1587445516215
 21
1.27549549628378
 31
0.0
  0
LINE
  5
B49F
330
B484
100
AcDbEntity
  8
0
  6
CONTINUOUS
100
AcDbLine
 10
36.21639478609585
 20
2.333145730758136
 30
0.0
 11
37.67199999996831
 21
3.788750944630588
 31
0.0
  0
LINE
  5
B4A0
330
B484
100
AcDbEntity
  8
0
  6
CONTINUOUS
100
AcDbLine
 10
34.34060583368432
 20
-0.2161624307335863
 30
0.0
 11
37.67199999996831
 21
3.115231735550401
 31
0.0
  0
LINE
  5
B4A1
330
B484
100
AcDbEntity
  8
0
  6
CONTINUOUS
100
AcDbLine
 10
35.01698193613905
 20
-0.2133055373590427
 30
0.0
 11
37.66876712070525
 21
2.438479647207154
 31
0.0
  0
LINE
  5
B4A2
330
B484
100
AcDbEntity
  8
0
  6
CONTINUOUS
100
AcDbLine
 10
35.90743367693304
 20
0.0036269943547609
 30
0.0
 11
37.51723902192366
 21
1.613432339345381
 31
0.0
  0
LINE
  5
B4A3
330
B484
100
AcDbEntity
  8
0
  6
CONTINUOUS
100
AcDbLine
 10
32.55309425579761
 20
0.5074718966376706
 30
0.0
 11
32.27784730925847
 21
0.7827188431768102
 31
0.0
  0
LINE
  5
B4A4
330
B484
100
AcDbEntity
  8
0
  6
CONTINUOUS
100
AcDbLine
 10
33.87496468909684
 20
-0.1408793275813673
 30
0.0
 11
31.67993083278052
 21
2.054154528734943
 31
0.0
  0
LINE
  5
B4A5
330
B484
100
AcDbEntity
  8
0
  6
CONTINUOUS
100
AcDbLine
 10
34.64362813207632
 20
-0.2360235614806649
 30
0.0
 11
31.64199999996833
 21
2.765604570627322
 31
0.0
  0
LINE
  5
B4A6
330
B484
100
AcDbEntity
  8
0
  6
CONTINUOUS
100
AcDbLine
 10
35.25801106796118
 20
-0.1768872882853429
 30
0.0
 11
31.64199999996833
 21
3.439123779707508
 31
0.0
  0
LINE
  5
B4A7
330
B484
100
AcDbEntity
  8
0
  6
CONTINUOUS
100
AcDbLine
 10
35.79065650332146
 20
-0.0360135145654361
 30
0.0
 11
34.54143210838231
 21
1.213210880373721
 31
0.0
  0
LINE
  5
B4A8
330
B484
100
AcDbEntity
  8
0
  6
CONTINUOUS
100
AcDbLine
 10
33.08199999996839
 20
2.67264298878764
 30
0.0
 11
31.64199999996833
 21
4.112642988787695
 31
0.0
  0
LINE
  5
B4A9
330
B484
100
AcDbEntity
  8
0
  6
CONTINUOUS
100
AcDbLine
 10
36.25975597779143
 20
0.1684062200447833
 30
0.0
 11
35.15395110240023
 21
1.274211095435983
 31
0.0
  0
LINE
  5
B4AA
330
B484
100
AcDbEntity
  8
0
  6
CONTINUOUS
100
AcDbLine
 10
33.08199999996839
 20
3.346162197867826
 30
0.0
 11
31.64199999996833
 21
4.786162197867881
 31
0.0
  0
LINE
  5
B4AB
330
B484
100
AcDbEntity
  8
0
  6
CONTINUOUS
100
AcDbLine
 10
36.67226329638774
 20
0.4294181105286579
 30
0.0
 11
35.63766478748767
 21
1.464016619428737
 31
0.0
  0
LINE
  5
B4AC
330
B484
100
AcDbEntity
  8
0
  6
CONTINUOUS
100
AcDbLine
 10
33.08199999996839
 20
4.019681406948012
 30
0.0
 11
31.64199999996833
 21
5.459681406948068
 31
0.0
  0
LINE
  5
B4AD
330
B484
100
AcDbEntity
  8
0
  6
CONTINUOUS
100
AcDbLine
 10
37.01677749710036
 20
0.7584231188962329
 30
0.0
 11
35.99563422741351
 21
1.779566388583076
 31
0.0
  0
LINE
  5
B4AE
330
B484
100
AcDbEntity
  8
0
  6
CONTINUOUS
100
AcDbLine
 10
33.08199999996839
 20
4.693200616028199
 30
0.0
 11
31.64199999996833
 21
6.133200616028255
 31
0.0
  0
LINE
  5
B4AF
330
B484
100
AcDbEntity
  8
0
  6
CONTINUOUS
100
AcDbLine
 10
37.29859977568887
 20
1.1501200493879
 30
0.0
 11
36.20680593341555
 21
2.241913891661226
 31
0.0
  0
LINE
  5
B4B0
330
B484
100
AcDbEntity
  8
0
  6
CONTINUOUS
100
AcDbLine
 10
33.08199999996839
 20
5.366719825108386
 30
0.0
 11
31.64199999996833
 21
6.80671982510844
 31
0.0
  0
LINE
  5
B4B1
330
B484
100
AcDbEntity
  8
0
  6
CONTINUOUS
100
AcDbLine
 10
37.5148623517228
 20
1.607376682434161
 30
0.0
 11
36.23199999996837
 21
2.890239034188594
 31
0.0
  0
LINE
  5
B4B2
330
B484
100
AcDbEntity
  8
0
  6
CONTINUOUS
100
AcDbLine
 10
33.08199999996839
 20
6.040239034188573
 30
0.0
 11
31.64199999996833
 21
7.480239034188627
 31
0.0
  0
LINE
  5
B4B3
330
B484
100
AcDbEntity
  8
0
  6
CONTINUOUS
100
AcDbLine
 10
37.64705163358367
 20
2.148706609653477
 30
0.0
 11
36.23199999996837
 21
3.56375824326878
 31
0.0
  0
LINE
  5
B4B4
330
B484
100
AcDbEntity
  8
0
  6
CONTINUOUS
100
AcDbLine
 10
33.08199999996839
 20
6.713758243268758
 30
0.0
 11
31.64199999996833
 21
8.153758243268815
 31
0.0
  0
LINE
  5
B4B5
330
B484
100
AcDbEntity
  8
0
  6
CONTINUOUS
100
AcDbLine
 10
37.67199999996831
 20
2.797277452349026
 30
0.0
 11
36.23199999996837
 21
4.237277452348967
 31
0.0
  0
LINE
  5
B4B6
330
B484
100
AcDbEntity
  8
0
  6
CONTINUOUS
100
AcDbLine
 10
37.67199999996831
 20
3.470796661429213
 30
0.0
 11
36.23199999996837
 21
4.910796661429154
 31
0.0
  0
LINE
  5
B4B7
330
B484
100
AcDbEntity
  8
0
  6
CONTINUOUS
100
AcDbLine
 10
37.67199999996831
 20
4.144315870509399
 30
0.0
 11
36.23199999996837
 21
5.58431587050934
 31
0.0
  0
LINE
  5
B4B8
330
B484
100
AcDbEntity
  8
0
  6
CONTINUOUS
100
AcDbLine
 10
33.08199999996839
 20
7.387277452348945
 30
0.0
 11
31.70617745232608
 21
8.763099999991255
 31
0.0
  0
LINE
  5
B4B9
330
B484
100
AcDbEntity
  8
0
  6
CONTINUOUS
100
AcDbLine
 10
33.08199999996839
 20
8.060796661429132
 30
0.0
 11
32.37969666140626
 21
8.763099999991255
 31
0.0
  0
LINE
  5
B4BA
330
B484
100
AcDbEntity
  8
0
  6
CONTINUOUS
100
AcDbLine
 10
33.08199999996839
 20
8.734315870509318
 30
0.0
 11
33.05321587048645
 21
8.763099999991255
 31
0.0
  0
LINE
  5
B4BB
330
B484
100
AcDbEntity
  8
0
  6
CONTINUOUS
100
AcDbLine
 10
37.67199999996831
 20
4.817835079589585
 30
0.0
 11
36.23199999996837
 21
6.257835079589526
 31
0.0
  0
LINE
  5
B4BC
330
B484
100
AcDbEntity
  8
0
  6
CONTINUOUS
100
AcDbLine
 10
37.67199999996831
 20
5.491354288669771
 30
0.0
 11
36.23199999996837
 21
6.931354288669713
 31
0.0
  0
LINE
  5
B4BD
330
B484
100
AcDbEntity
  8
0
  6
CONTINUOUS
100
AcDbLine
 10
37.67199999996831
 20
6.164873497749958
 30
0.0
 11
36.23199999996837
 21
7.6048734977499
 31
0.0
  0
LINE
  5
B4BE
330
B484
100
AcDbEntity
  8
0
  6
CONTINUOUS
100
AcDbLine
 10
37.67199999996831
 20
6.838392706830144
 30
0.0
 11
36.23199999996837
 21
8.278392706830086
 31
0.0
  0
LINE
  5
B4BF
330
B484
100
AcDbEntity
  8
0
  6
CONTINUOUS
100
AcDbLine
 10
37.67199999996831
 20
7.511911915910332
 30
0.0
 11
36.42081191588738
 21
8.763099999991255
 31
0.0
  0
LINE
  5
B4C0
330
B484
100
AcDbEntity
  8
0
  6
CONTINUOUS
100
AcDbLine
 10
37.67199999996831
 20
8.185431124990519
 30
0.0
 11
37.09433112496757
 21
8.763099999991255
 31
0.0
  0
ENDBLK
  5
B528
330
B484
100
AcDbEntity
  8
0
100
AcDbBlockEnd
  0
BLOCK
  5
B529
330
B4C1
100
AcDbEntity
  8
0
100
AcDbBlockBegin
  2
*X17
 70
     1
 10
0.0
 20
0.0
 30
0.0
  3
*X17
  1

  0
LINE
  5
B4C2
330
B4C1
100
AcDbEntity
  8
0
  6
CONTINUOUS
100
AcDbLine
 10
38.60499999996136
 20
8.762866199104765
 30
0.0
 11
38.71672554182345
 21
8.874591740966855
 31
0.0
  0
LINE
  5
B4C3
330
B4C1
100
AcDbEntity
  8
0
  6
CONTINUOUS
100
AcDbLine
 10
38.60499999996136
 20
8.089346990024577
 30
0.0
 11
39.03418785440363
 21
8.518534844466847
 31
0.0
  0
LINE
  5
B4C4
330
B4C1
100
AcDbEntity
  8
0
  6
CONTINUOUS
100
AcDbLine
 10
38.60499999996136
 20
7.41582778094439
 30
0.0
 11
39.35165016698382
 21
8.16247794796684
 31
0.0
  0
LINE
  5
B4C5
330
B4C1
100
AcDbEntity
  8
0
  6
CONTINUOUS
100
AcDbLine
 10
38.60499999996136
 20
6.742308571864204
 30
0.0
 11
39.66911247956399
 21
7.806421051466834
 31
0.0
  0
LINE
  5
B4C6
330
B4C1
100
AcDbEntity
  8
0
  6
CONTINUOUS
100
AcDbLine
 10
38.60499999996136
 20
6.068789362784018
 30
0.0
 11
39.98657479214418
 21
7.450364154966827
 31
0.0
  0
LINE
  5
B4C7
330
B4C1
100
AcDbEntity
  8
0
  6
CONTINUOUS
100
AcDbLine
 10
38.60499999996136
 20
5.395270153703832
 30
0.0
 11
40.30403710472435
 21
7.09430725846682
 31
0.0
  0
LINE
  5
B4C8
330
B4C1
100
AcDbEntity
  8
0
  6
CONTINUOUS
100
AcDbLine
 10
38.60499999996136
 20
4.721750944623645
 30
0.0
 11
40.62149941730453
 21
6.738250361966813
 31
0.0
  0
LINE
  5
B4C9
330
B4C1
100
AcDbEntity
  8
0
  6
CONTINUOUS
100
AcDbLine
 10
38.60499999996136
 20
4.048231735543458
 30
0.0
 11
40.93896172988471
 21
6.382193465466806
 31
0.0
  0
LINE
  5
B4CA
330
B4C1
100
AcDbEntity
  8
0
  6
CONTINUOUS
100
AcDbLine
 10
38.60499999996136
 20
3.374712526463272
 30
0.0
 11
40.02599999995994
 21
4.795712526461843
 31
0.0
  0
LINE
  5
B4CB
330
B4C1
100
AcDbEntity
  8
0
  6
CONTINUOUS
100
AcDbLine
 10
38.60499999996136
 20
2.701193317383085
 30
0.0
 11
40.02599999995994
 21
4.122193317381657
 31
0.0
  0
LINE
  5
B4CC
330
B4C1
100
AcDbEntity
  8
0
  6
CONTINUOUS
100
AcDbLine
 10
40.28339754687704
 20
5.053110073378947
 30
0.0
 11
41.25642404246489
 21
6.026136568966799
 31
0.0
  0
LINE
  5
B4CD
330
B4C1
100
AcDbEntity
  8
0
  6
CONTINUOUS
100
AcDbLine
 10
40.60085985945722
 20
4.697053176878939
 30
0.0
 11
41.57388635504507
 21
5.670079672466793
 31
0.0
  0
LINE
  5
B4CE
330
B4C1
100
AcDbEntity
  8
0
  6
CONTINUOUS
100
AcDbLine
 10
43.57899999995641
 20
8.348712526458318
 30
0.0
 11
43.99338747348935
 21
8.763099999991255
 31
0.0
  0
LINE
  5
B4CF
330
B4C1
100
AcDbEntity
  8
0
  6
CONTINUOUS
100
AcDbLine
 10
43.57899999995641
 20
7.675193317378131
 30
0.0
 11
44.66690668256953
 21
8.763099999991255
 31
0.0
  0
LINE
  5
B4D0
330
B4C1
100
AcDbEntity
  8
0
  6
CONTINUOUS
100
AcDbLine
 10
38.60499999996136
 20
2.027674108302898
 30
0.0
 11
40.02599999995994
 21
3.44867410830147
 31
0.0
  0
LINE
  5
B4D1
330
B4C1
100
AcDbEntity
  8
0
  6
CONTINUOUS
100
AcDbLine
 10
38.60499999996136
 20
1.354154899222712
 30
0.0
 11
40.02599999995994
 21
2.775154899221284
 31
0.0
  0
LINE
  5
B4D2
330
B4C1
100
AcDbEntity
  8
0
  6
CONTINUOUS
100
AcDbLine
 10
38.60499999996136
 20
0.6806356901425255
 30
0.0
 11
40.02599999995994
 21
2.101635690141098
 31
0.0
  0
LINE
  5
B4D3
330
B4C1
100
AcDbEntity
  8
0
  6
CONTINUOUS
100
AcDbLine
 10
38.60499999996136
 20
0.0071164810623383
 30
0.0
 11
40.02599999995994
 21
1.428116481060911
 31
0.0
  0
LINE
  5
B4D4
330
B4C1
100
AcDbEntity
  8
0
  6
CONTINUOUS
100
AcDbLine
 10
40.9183221720374
 20
4.340996280378933
 30
0.0
 11
41.89134866762525
 21
5.314022775966786
 31
0.0
  0
LINE
  5
B4D5
330
B4C1
100
AcDbEntity
  8
0
  6
CONTINUOUS
100
AcDbLine
 10
41.23578448461758
 20
3.984939383878926
 30
0.0
 11
42.20881098020543
 21
4.957965879466778
 31
0.0
  0
LINE
  5
B4D6
330
B4C1
100
AcDbEntity
  8
0
  6
CONTINUOUS
100
AcDbLine
 10
41.55324679719776
 20
3.628882487378919
 30
0.0
 11
42.52627329278561
 21
4.601908982966772
 31
0.0
  0
LINE
  5
B4D7
330
B4C1
100
AcDbEntity
  8
0
  6
CONTINUOUS
100
AcDbLine
 10
41.87070910977793
 20
3.272825590878912
 30
0.0
 11
42.84373560536579
 21
4.245852086466765
 31
0.0
  0
LINE
  5
B4D8
330
B4C1
100
AcDbEntity
  8
0
  6
CONTINUOUS
100
AcDbLine
 10
43.57899999995641
 20
7.001674108297943
 30
0.0
 11
44.99999999995498
 21
8.422674108296516
 31
0.0
  0
LINE
  5
B4D9
330
B4C1
100
AcDbEntity
  8
0
  6
CONTINUOUS
100
AcDbLine
 10
43.57899999995641
 20
6.328154899217758
 30
0.0
 11
44.99999999995498
 21
7.749154899216329
 31
0.0
  0
LINE
  5
B4DA
330
B4C1
100
AcDbEntity
  8
0
  6
CONTINUOUS
100
AcDbLine
 10
43.57899999995641
 20
5.654635690137571
 30
0.0
 11
44.99999999995498
 21
7.075635690136142
 31
0.0
  0
LINE
  5
B4DB
330
B4C1
100
AcDbEntity
  8
0
  6
CONTINUOUS
100
AcDbLine
 10
43.57899999995641
 20
4.981116481057384
 30
0.0
 11
44.99999999995498
 21
6.402116481055955
 31
0.0
  0
LINE
  5
B4DC
330
B4C1
100
AcDbEntity
  8
0
  6
CONTINUOUS
100
AcDbLine
 10
39.27140272797921
 20
-0.0000000000000009
 30
0.0
 11
40.02599999995994
 21
0.7545972719807246
 31
0.0
  0
LINE
  5
B4DD
330
B4C1
100
AcDbEntity
  8
0
  6
CONTINUOUS
100
AcDbLine
 10
39.9449219370594
 20
-0.0000000000000009
 30
0.0
 11
40.02599999995994
 21
0.0810780629005379
 31
0.0
  0
LINE
  5
B4DE
330
B4C1
100
AcDbEntity
  8
0
  6
CONTINUOUS
100
AcDbLine
 10
42.18817142235812
 20
2.916768694378905
 30
0.0
 11
43.16119791794597
 21
3.889795189966758
 31
0.0
  0
LINE
  5
B4DF
330
B4C1
100
AcDbEntity
  8
0
  6
CONTINUOUS
100
AcDbLine
 10
42.50563373493829
 20
2.560711797878898
 30
0.0
 11
43.47866023052615
 21
3.533738293466751
 31
0.0
  0
LINE
  5
B4E0
330
B4C1
100
AcDbEntity
  8
0
  6
CONTINUOUS
100
AcDbLine
 10
43.57899999995641
 20
4.307597271977198
 30
0.0
 11
44.99999999995498
 21
5.728597271975769
 31
0.0
  0
LINE
  5
B4E1
330
B4C1
100
AcDbEntity
  8
0
  6
CONTINUOUS
100
AcDbLine
 10
43.57899999995641
 20
3.634078062897011
 30
0.0
 11
44.99999999995498
 21
5.055078062895582
 31
0.0
  0
LINE
  5
B4E2
330
B4C1
100
AcDbEntity
  8
0
  6
CONTINUOUS
100
AcDbLine
 10
42.82309604751848
 20
2.204654901378891
 30
0.0
 11
44.99999999995498
 21
4.381558853815395
 31
0.0
  0
LINE
  5
B4E3
330
B4C1
100
AcDbEntity
  8
0
  6
CONTINUOUS
100
AcDbLine
 10
43.14055836009865
 20
1.848598004878885
 30
0.0
 11
44.99999999995498
 21
3.70803964473521
 31
0.0
  0
LINE
  5
B4E4
330
B4C1
100
AcDbEntity
  8
0
  6
CONTINUOUS
100
AcDbLine
 10
43.45802067267883
 20
1.492541108378878
 30
0.0
 11
44.99999999995498
 21
3.034520435655023
 31
0.0
  0
LINE
  5
B4E5
330
B4C1
100
AcDbEntity
  8
0
  6
CONTINUOUS
100
AcDbLine
 10
43.77548298525902
 20
1.136484211878871
 30
0.0
 11
44.99999999995498
 21
2.361001226574837
 31
0.0
  0
LINE
  5
B4E6
330
B4C1
100
AcDbEntity
  8
0
  6
CONTINUOUS
100
AcDbLine
 10
44.09294529783919
 20
0.7804273153788639
 30
0.0
 11
44.99999999995498
 21
1.687482017494649
 31
0.0
  0
LINE
  5
B4E7
330
B4C1
100
AcDbEntity
  8
0
  6
CONTINUOUS
100
AcDbLine
 10
44.41040761041938
 20
0.4243704188788566
 30
0.0
 11
44.99999999995498
 21
1.013962808414463
 31
0.0
  0
LINE
  5
B4E8
330
B4C1
100
AcDbEntity
  8
0
  6
CONTINUOUS
100
AcDbLine
 10
44.72786992299955
 20
0.0683135223788494
 30
0.0
 11
44.99999999995498
 21
0.340443599334276
 31
0.0
  0
LINE
  5
B4E9
330
B4C1
100
AcDbEntity
  8
0
  6
CONTINUOUS
100
AcDbLine
 10
39.12223903415696
 20
-0.0000000000000009
 30
0.0
 11
38.60499999996136
 21
0.5172390341955961
 31
0.0
  0
LINE
  5
B4EA
330
B4C1
100
AcDbEntity
  8
0
  6
CONTINUOUS
100
AcDbLine
 10
39.79575824323715
 20
-0.0000000000000009
 30
0.0
 11
38.60499999996136
 21
1.190758243275783
 31
0.0
  0
LINE
  5
B4EB
330
B4C1
100
AcDbEntity
  8
0
  6
CONTINUOUS
100
AcDbLine
 10
40.02599999995994
 20
0.443277452357397
 30
0.0
 11
38.60499999996136
 21
1.864277452355969
 31
0.0
  0
LINE
  5
B4EC
330
B4C1
100
AcDbEntity
  8
0
  6
CONTINUOUS
100
AcDbLine
 10
40.02599999995994
 20
1.116796661437583
 30
0.0
 11
38.60499999996136
 21
2.537796661436155
 31
0.0
  0
LINE
  5
B4ED
330
B4C1
100
AcDbEntity
  8
0
  6
CONTINUOUS
100
AcDbLine
 10
40.02599999995994
 20
1.79031587051777
 30
0.0
 11
38.60499999996136
 21
3.211315870516341
 31
0.0
  0
LINE
  5
B4EE
330
B4C1
100
AcDbEntity
  8
0
  6
CONTINUOUS
100
AcDbLine
 10
40.02599999995994
 20
2.463835079597956
 30
0.0
 11
38.60499999996136
 21
3.884835079596527
 31
0.0
  0
LINE
  5
B4EF
330
B4C1
100
AcDbEntity
  8
0
  6
CONTINUOUS
100
AcDbLine
 10
40.02599999995994
 20
3.137354288678143
 30
0.0
 11
38.60499999996136
 21
4.558354288676714
 31
0.0
  0
LINE
  5
B4F0
330
B4C1
100
AcDbEntity
  8
0
  6
CONTINUOUS
100
AcDbLine
 10
40.02599999995994
 20
3.810873497758329
 30
0.0
 11
38.60499999996136
 21
5.2318734977569
 31
0.0
  0
LINE
  5
B4F1
330
B4C1
100
AcDbEntity
  8
0
  6
CONTINUOUS
100
AcDbLine
 10
40.02599999995994
 20
4.484392706838515
 30
0.0
 11
38.60499999996136
 21
5.905392706837086
 31
0.0
  0
LINE
  5
B4F2
330
B4C1
100
AcDbEntity
  8
0
  6
CONTINUOUS
100
AcDbLine
 10
44.99999999995498
 20
0.183911915923658
 30
0.0
 11
41.53858364506288
 21
3.64532827081576
 31
0.0
  0
LINE
  5
B4F3
330
B4C1
100
AcDbEntity
  8
0
  6
CONTINUOUS
100
AcDbLine
 10
40.02599999995994
 20
5.157911915918703
 30
0.0
 11
38.60499999996136
 21
6.578911915917274
 31
0.0
  0
LINE
  5
B4F4
330
B4C1
100
AcDbEntity
  8
0
  6
CONTINUOUS
100
AcDbLine
 10
44.99999999995498
 20
0.8574311250038447
 30
0.0
 11
38.60499999996136
 21
7.25243112499746
 31
0.0
  0
LINE
  5
B4F5
330
B4C1
100
AcDbEntity
  8
0
  6
CONTINUOUS
100
AcDbLine
 10
44.99999999995498
 20
1.530950334084031
 30
0.0
 11
38.60499999996136
 21
7.925950334077647
 31
0.0
  0
LINE
  5
B4F6
330
B4C1
100
AcDbEntity
  8
0
  6
CONTINUOUS
100
AcDbLine
 10
44.99999999995498
 20
2.204469543164218
 30
0.0
 11
43.57899999995641
 21
3.625469543162789
 31
0.0
  0
LINE
  5
B4F7
330
B4C1
100
AcDbEntity
  8
0
  6
CONTINUOUS
100
AcDbLine
 10
41.89876730984767
 20
5.305702233271528
 30
0.0
 11
38.60499999996136
 21
8.599469543157834
 31
0.0
  0
LINE
  5
B4F8
330
B4C1
100
AcDbEntity
  8
0
  6
CONTINUOUS
100
AcDbLine
 10
44.99999999995498
 20
2.877988752244405
 30
0.0
 11
43.57899999995641
 21
4.298988752242975
 31
0.0
  0
LINE
  5
B4F9
330
B4C1
100
AcDbEntity
  8
0
  6
CONTINUOUS
100
AcDbLine
 10
44.99999999995498
 20
3.551507961324591
 30
0.0
 11
43.57899999995641
 21
4.972507961323163
 31
0.0
  0
LINE
  5
B4FA
330
B4C1
100
AcDbEntity
  8
0
  6
CONTINUOUS
100
AcDbLine
 10
44.99999999995498
 20
4.225027170404777
 30
0.0
 11
43.57899999995641
 21
5.646027170403348
 31
0.0
  0
LINE
  5
B4FB
330
B4C1
100
AcDbEntity
  8
0
  6
CONTINUOUS
100
AcDbLine
 10
44.99999999995498
 20
4.898546379484964
 30
0.0
 11
43.57899999995641
 21
6.319546379483535
 31
0.0
  0
LINE
  5
B4FC
330
B4C1
100
AcDbEntity
  8
0
  6
CONTINUOUS
100
AcDbLine
 10
44.99999999995498
 20
5.572065588565151
 30
0.0
 11
43.57899999995641
 21
6.993065588563722
 31
0.0
  0
LINE
  5
B4FD
330
B4C1
100
AcDbEntity
  8
0
  6
CONTINUOUS
100
AcDbLine
 10
44.99999999995498
 20
6.245584797645336
 30
0.0
 11
43.57899999995641
 21
7.666584797643908
 31
0.0
  0
LINE
  5
B4FE
330
B4C1
100
AcDbEntity
  8
0
  6
CONTINUOUS
100
AcDbLine
 10
44.99999999995498
 20
6.919104006725522
 30
0.0
 11
43.57899999995641
 21
8.340104006724093
 31
0.0
  0
LINE
  5
B4FF
330
B4C1
100
AcDbEntity
  8
0
  6
CONTINUOUS
100
AcDbLine
 10
44.99999999995498
 20
7.592623215805709
 30
0.0
 11
43.82952321576943
 21
8.763099999991255
 31
0.0
  0
LINE
  5
B500
330
B4C1
100
AcDbEntity
  8
0
  6
CONTINUOUS
100
AcDbLine
 10
44.99999999995498
 20
8.266142424885896
 30
0.0
 11
44.50304242484962
 21
8.763099999991255
 31
0.0
  0
ENDBLK
  5
B52A
330
B4C1
100
AcDbEntity
  8
0
100
AcDbBlockEnd
  0
BLOCK
  5
B52B
330
B501
100
AcDbEntity
  8
0
100
AcDbBlockBegin
  2
*X18
 70
     1
 10
0.0
 20
0.0
 30
0.0
  3
*X18
  1

  0
LINE
  5
B502
330
B501
100
AcDbEntity
  8
0
  6
CONTINUOUS
100
AcDbLine
 10
0.0
 20
8.548461116714023
 30
0.0
 11
0.2146388832772324
 21
8.763099999991255
 31
0.0
  0
LINE
  5
B503
330
B501
100
AcDbEntity
  8
0
  6
CONTINUOUS
100
AcDbLine
 10
-0.0000000000000002
 20
7.874941907633837
 30
0.0
 11
0.8881580923574184
 21
8.763099999991255
 31
0.0
  0
LINE
  5
B504
330
B501
100
AcDbEntity
  8
0
  6
CONTINUOUS
100
AcDbLine
 10
0.0
 20
7.20142269855365
 30
0.0
 11
1.420999999998572
 21
8.622422698552223
 31
0.0
  0
LINE
  5
B505
330
B501
100
AcDbEntity
  8
0
  6
CONTINUOUS
100
AcDbLine
 10
-0.0000000000000001
 20
6.527903489473465
 30
0.0
 11
1.420999999998571
 21
7.948903489472036
 31
0.0
  0
LINE
  5
B506
330
B501
100
AcDbEntity
  8
0
  6
CONTINUOUS
100
AcDbLine
 10
-0.0000000000000002
 20
5.854384280393278
 30
0.0
 11
1.420999999998571
 21
7.275384280391849
 31
0.0
  0
LINE
  5
B507
330
B501
100
AcDbEntity
  8
0
  6
CONTINUOUS
100
AcDbLine
 10
-0.0000000000000002
 20
5.180865071313091
 30
0.0
 11
1.420999999998571
 21
6.601865071311663
 31
0.0
  0
LINE
  5
B508
330
B501
100
AcDbEntity
  8
0
  6
CONTINUOUS
100
AcDbLine
 10
0.0
 20
4.507345862232905
 30
0.0
 11
1.420999999998571
 21
5.928345862231477
 31
0.0
  0
LINE
  5
B509
330
B501
100
AcDbEntity
  8
0
  6
CONTINUOUS
100
AcDbLine
 10
-0.0000000000000003
 20
3.833826653152718
 30
0.0
 11
1.420999999998571
 21
5.25482665315129
 31
0.0
  0
LINE
  5
B50A
330
B501
100
AcDbEntity
  8
0
  6
CONTINUOUS
100
AcDbLine
 10
-0.0000000000000002
 20
3.160307444072532
 30
0.0
 11
1.420999999998571
 21
4.581307444071103
 31
0.0
  0
LINE
  5
B50B
330
B501
100
AcDbEntity
  8
0
  6
CONTINUOUS
100
AcDbLine
 10
-0.0000000000000001
 20
2.486788234992345
 30
0.0
 11
1.420999999998571
 21
3.907788234990917
 31
0.0
  0
LINE
  5
B50C
330
B501
100
AcDbEntity
  8
0
  6
CONTINUOUS
100
AcDbLine
 10
-0.0000000000000006
 20
1.813269025912159
 30
0.0
 11
1.420999999998571
 21
3.234269025910731
 31
0.0
  0
LINE
  5
B50D
330
B501
100
AcDbEntity
  8
0
  6
CONTINUOUS
100
AcDbLine
 10
0.0
 20
1.139749816831973
 30
0.0
 11
1.420999999998571
 21
2.560749816830544
 31
0.0
  0
LINE
  5
B50E
330
B501
100
AcDbEntity
  8
0
  6
CONTINUOUS
100
AcDbLine
 10
0.0000000000000002
 20
0.466230607751787
 30
0.0
 11
1.420999999998571
 21
1.887230607750358
 31
0.0
  0
LINE
  5
B50F
330
B501
100
AcDbEntity
  8
0
  6
CONTINUOUS
100
AcDbLine
 10
0.2072886013284003
 20
-0.0000000000000009
 30
0.0
 11
1.420999999998571
 21
1.213711398670171
 31
0.0
  0
LINE
  5
B510
330
B501
100
AcDbEntity
  8
0
  6
CONTINUOUS
100
AcDbLine
 10
0.8808078104085864
 20
-0.0000000000000009
 30
0.0
 11
1.420999999998571
 21
0.5401921895899839
 31
0.0
  0
LINE
  5
B511
330
B501
100
AcDbEntity
  8
0
  6
CONTINUOUS
100
AcDbLine
 10
0.0581249075061505
 20
-0.0000000000000009
 30
0.0
 11
-0.0000000000000002
 21
0.0581249075061496
 31
0.0
  0
LINE
  5
B512
330
B501
100
AcDbEntity
  8
0
  6
CONTINUOUS
100
AcDbLine
 10
0.7316441165863372
 20
-0.0000000000000009
 30
0.0
 11
-0.0000000000000002
 21
0.7316441165863363
 31
0.0
  0
LINE
  5
B513
330
B501
100
AcDbEntity
  8
0
  6
CONTINUOUS
100
AcDbLine
 10
1.405163325666523
 20
-0.0000000000000009
 30
0.0
 11
-0.0000000000000002
 21
1.405163325666523
 31
0.0
  0
LINE
  5
B514
330
B501
100
AcDbEntity
  8
0
  6
CONTINUOUS
100
AcDbLine
 10
1.420999999998572
 20
0.6576825347481381
 30
0.0
 11
-0.0000000000000001
 21
2.07868253474671
 31
0.0
  0
LINE
  5
B515
330
B501
100
AcDbEntity
  8
0
  6
CONTINUOUS
100
AcDbLine
 10
1.420999999998571
 20
1.331201743828324
 30
0.0
 11
-0.0000000000000001
 21
2.752201743826896
 31
0.0
  0
LINE
  5
B516
330
B501
100
AcDbEntity
  8
0
  6
CONTINUOUS
100
AcDbLine
 10
1.420999999998571
 20
2.004720952908511
 30
0.0
 11
-0.0000000000000002
 21
3.425720952907082
 31
0.0
  0
LINE
  5
B517
330
B501
100
AcDbEntity
  8
0
  6
CONTINUOUS
100
AcDbLine
 10
1.420999999998571
 20
2.678240161988697
 30
0.0
 11
-0.0000000000000001
 21
4.099240161987269
 31
0.0
  0
LINE
  5
B518
330
B501
100
AcDbEntity
  8
0
  6
CONTINUOUS
100
AcDbLine
 10
1.420999999998572
 20
3.351759371068884
 30
0.0
 11
0.0
 21
4.772759371067455
 31
0.0
  0
LINE
  5
B519
330
B501
100
AcDbEntity
  8
0
  6
CONTINUOUS
100
AcDbLine
 10
1.420999999998571
 20
4.02527858014907
 30
0.0
 11
-0.0000000000000003
 21
5.446278580147642
 31
0.0
  0
LINE
  5
B51A
330
B501
100
AcDbEntity
  8
0
  6
CONTINUOUS
100
AcDbLine
 10
1.420999999998571
 20
4.698797789229257
 30
0.0
 11
0.0
 21
6.119797789227828
 31
0.0
  0
LINE
  5
B51B
330
B501
100
AcDbEntity
  8
0
  6
CONTINUOUS
100
AcDbLine
 10
1.420999999998571
 20
5.372316998309444
 30
0.0
 11
-0.0000000000000001
 21
6.793316998308015
 31
0.0
  0
LINE
  5
B51C
330
B501
100
AcDbEntity
  8
0
  6
CONTINUOUS
100
AcDbLine
 10
1.420999999998572
 20
6.045836207389629
 30
0.0
 11
-0.0000000000000004
 21
7.466836207388202
 31
0.0
  0
LINE
  5
B51D
330
B501
100
AcDbEntity
  8
0
  6
CONTINUOUS
100
AcDbLine
 10
1.420999999998571
 20
6.719355416469816
 30
0.0
 11
0.0
 21
8.140355416468388
 31
0.0
  0
LINE
  5
B51E
330
B501
100
AcDbEntity
  8
0
  6
CONTINUOUS
100
AcDbLine
 10
1.420999999998571
 20
7.392874625550003
 30
0.0
 11
0.0507746255573185
 21
8.763099999991255
 31
0.0
  0
LINE
  5
B51F
330
B501
100
AcDbEntity
  8
0
  6
CONTINUOUS
100
AcDbLine
 10
1.420999999998571
 20
8.06639383463019
 30
0.0
 11
0.7242938346375052
 21
8.763099999991255
 31
0.0
  0
LINE
  5
B520
330
B501
100
AcDbEntity
  8
0
  6
CONTINUOUS
100
AcDbLine
 10
1.420999999998571
 20
8.739913043710375
 30
0.0
 11
1.397813043717691
 21
8.763099999991255
 31
0.0
  0
ENDBLK
  5
B52C
330
B501
100
AcDbEntity
  8
0
100
AcDbBlockEnd
  0
ENDSEC
  0
SECTION
  2
ENTITIES
  0
LINE
  5
AF94
330
18
100
AcDbEntity
  8
01
100
AcDbLine
 10
5010.751826395031
 20
-312.7089360893933
 30
0.0000000001127424
 11
5033.380111777462
 21
-312.7089360893933
 31
0.0000000001127424
  0
LINE
  5
AF95
330
18
100
AcDbEntity
  8
01
  6
BYBLOCK
100
AcDbLine
 10
5111.880879619779
 20
-152.710254402496
 30
0.0000000001127424
 11
5265.63525977481
 21
-152.710254402496
 31
0.0000000001127424
  0
LINE
  5
AF96
330
18
100
AcDbEntity
  8
01
100
AcDbLine
 10
5162.880111777462
 20
-147.710254402496
 30
0.0000000001127424
 11
5162.880111777462
 21
-174.210254402496
 31
0.0000000001127424
  0
LINE
  5
AF98
330
18
100
AcDbEntity
  8
01
100
AcDbLine
 10
5012.880111777462
 20
-192.7089360893933
 30
0.0000000001127424
 11
5012.880111777462
 21
-382.7089360893933
 31
0.0000000001127424
  0
LINE
  5
AF99
330
18
100
AcDbEntity
  8
01
100
AcDbLine
 10
5132.880111777462
 20
-312.7089360893933
 30
0.0000000001127424
 11
5192.880111777462
 21
-312.7089360893933
 31
0.0000000001127424
  0
LINE
  5
AF9A
330
18
100
AcDbEntity
  8
01
100
AcDbLine
 10
5162.880111777462
 20
-282.7089360893933
 30
0.0000000001127424
 11
5162.880111777462
 21
-342.7089360893933
 31
0.0000000001127424
  0
TEXT
  5
AF9B
330
18
100
AcDbEntity
  8
1TEXT
100
AcDbText
 10
5012.880111777462
 20
-152.710254402496
 30
0.0000000001127424
 40
10.0
  1
GJC
 41
1.0171875
100
AcDbText
  0
LINE
  5
AF9C
330
18
100
AcDbEntity
  8
1DIM
100
AcDbLine
 10
5185.380111777462
 20
-152.710254402496
 30
0.0000000001127424
 11
5185.380111777462
 21
-153.9102544024959
 31
0.0000000001127424
  0
LINE
  5
AF9D
330
18
100
AcDbEntity
  8
1DIM
100
AcDbLine
 10
5140.380111777462
 20
-152.710254402496
 30
0.0000000001127424
 11
5140.380111777462
 21
-153.9102544024959
 31
0.0000000001127424
  0
LINE
  5
AF9E
330
18
100
AcDbEntity
  8
1DIM
100
AcDbLine
 10
5014.080111777462
 20
-335.2089360893933
 30
0.0000000001127424
 11
5012.880111777462
 21
-335.2089360893933
 31
0.0000000001127424
  0
LINE
  5
AF9F
330
18
100
AcDbEntity
  8
1DIM
100
AcDbLine
 10
5014.080111777462
 20
-290.2089360893933
 30
0.0000000001127424
 11
5012.880111777462
 21
-290.2089360893933
 31
0.0000000001127424
  0
LINE
  5
AFA4
330
18
100
AcDbEntity
  8
01
100
AcDbLine
 10
5285.888260806416
 20
-318.7087323631404
 30
0.0000000001127424
 11
5287.763170287875
 21
-318.7087323631404
 31
0.0000000001127424
  0
LINE
  5
AFA5
330
18
100
AcDbEntity
  8
01
100
AcDbLine
 10
5157.896456245758
 20
-318.7087323631413
 30
0.0000000001127424
 11
5285.888260806415
 21
-318.7087323631404
 31
0.0000000001127424
  0
LINE
  5
AFA6
330
18
100
AcDbEntity
  8
01
100
AcDbLine
 10
5146.218804352955
 20
-318.7087323631413
 30
0.0000000001127424
 11
5157.896456245758
 21
-318.7087323631413
 31
0.0000000001127424
  0
LINE
  5
AFA7
330
18
100
AcDbEntity
  8
01
100
AcDbLine
 10
5140.935805994102
 20
-318.7087323631413
 30
0.0000000001127424
 11
5146.218804352955
 21
-318.7087323631413
 31
0.0000000001127424
  0
LINE
  5
AFA8
330
18
100
AcDbEntity
  8
01
100
AcDbLine
 10
5146.218804352955
 20
-306.7087323631413
 30
0.0000000001127424
 11
5140.935805994102
 21
-306.7087323631413
 31
0.0000000001127424
  0
LINE
  5
AFA9
330
18
100
AcDbEntity
  8
01
100
AcDbLine
 10
5157.896456245758
 20
-306.7087323631413
 30
0.0000000001127424
 11
5146.218804352955
 21
-306.7087323631413
 31
0.0000000001127424
  0
LINE
  5
AFAA
330
18
100
AcDbEntity
  8
01
100
AcDbLine
 10
5285.888260806415
 20
-306.7087323631413
 30
0.0000000001127424
 11
5157.896456245758
 21
-306.7087323631413
 31
0.0000000001127424
  0
ARC
  5
AFAE
330
18
100
AcDbEntity
  8
01
100
AcDbCircle
 10
5150.935517579771
 20
-312.7087323631404
 30
0.0000000001127424
 40
12.40762095189238
100
AcDbArc
 50
159.4764384394502
 51
200.5235615605071
  0
ARC
  5
AFB0
330
18
100
AcDbEntity
  8
01
100
AcDbCircle
 10
5287.763165790348
 20
-317.7087350798665
 30
0.0000000001127424
 40
0.9999972832835611
100
AcDbArc
 50
270.000257579038
 51
334.8158966180696
  0
LINE
  5
AFB3
330
18
100
AcDbEntity
  8
01
100
AcDbLine
 10
5284.83032844182
 20
-302.7087323631404
 30
0.0000000001127424
 11
5160.929569630338
 21
-302.7087323631404
 31
0.0000000001127424
  0
LINE
  5
AFB4
330
18
100
AcDbEntity
  8
01
100
AcDbLine
 10
5160.929569630347
 20
-302.7087323641899
 30
0.0000000001127424
 11
5159.299402234926
 21
-302.7082745292028
 31
0.0000000001127424
  0
ARC
  5
AFB5
330
18
100
AcDbEntity
  8
01
100
AcDbCircle
 10
5162.88427781827
 20
-312.7064747384675
 30
0.0000000001127424
 40
24.99526098997125
100
AcDbArc
 50
23.57727304338007
 51
26.29884383901309
  0
ARC
  5
AFB6
330
18
100
AcDbEntity
  8
01
100
AcDbCircle
 10
5162.880111777462
 20
-312.7089360893933
 30
0.0000000001127424
 40
25.00008633792046
100
AcDbArc
 50
26.2996354389014
 51
156.1600925259683
  0
LINE
  5
AFB8
330
18
100
AcDbEntity
  8
01
100
AcDbLine
 10
5284.83032844182
 20
-322.7087323631413
 30
0.0000000001127424
 11
5160.929569630338
 21
-322.7087323631413
 31
0.0000000001127424
  0
LINE
  5
AFB9
330
18
100
AcDbEntity
  8
01
100
AcDbLine
 10
5160.929569630347
 20
-322.7087323620917
 30
0.0000000001127424
 11
5159.299402234926
 21
-322.7091901970789
 31
0.0000000001127424
  0
ARC
  5
AFBA
330
18
100
AcDbEntity
  8
01
100
AcDbCircle
 10
5162.88427781827
 20
-312.7109899878151
 30
0.0000000001127424
 40
24.99526098997125
100
AcDbArc
 50
333.7011561609869
 51
336.42272695662
  0
ARC
  5
AFBB
330
18
100
AcDbEntity
  8
01
100
AcDbCircle
 10
5162.880111777462
 20
-312.7085286368883
 30
0.0000000001127424
 40
25.00008633792046
100
AcDbArc
 50
203.8399074740317
 51
333.7003645610986
  0
LINE
  5
AFBF
330
18
100
AcDbEntity
  8
01
100
AcDbLine
 10
5158.896246671567
 20
-319.0087323631406
 30
0.0000000001127424
 11
5141.409855433283
 21
-319.0087323631406
 31
0.0000000001127424
  0
LINE
  5
AFC2
330
18
100
AcDbEntity
  8
01
100
AcDbLine
 10
5141.409855433283
 20
-306.4087323631402
 30
0.0000000001127424
 11
5158.896246671567
 21
-306.4087323631402
 31
0.0000000001127424
  0
LINE
  5
AFC3
330
18
100
AcDbEntity
  8
01
100
AcDbLine
 10
5285.347880691166
 20
-306.4087323631402
 30
0.0000000001127424
 11
5286.417497062087
 21
-306.4087323631402
 31
0.0000000001127424
  0
ARC
  5
AFC4
330
18
100
AcDbEntity
  8
01
100
AcDbCircle
 10
5162.880522508506
 20
-312.708644891075
 30
0.0000000001127424
 40
25.00041510991058
100
AcDbArc
 50
180.0002004679177
 51
203.7939366662253
  0
ARC
  5
AFC5
330
18
100
AcDbEntity
  8
01
100
AcDbCircle
 10
5162.880522508506
 20
-312.7088198352076
 30
0.0000000001127424
 40
25.00041510991058
100
AcDbArc
 50
156.2060633337747
 51
179.9997995320302
  0
ARC
  5
AFC6
330
18
100
AcDbEntity
  8
01
100
AcDbCircle
 10
5273.180107410668
 20
-318.7087323512196
 30
0.0000000001127424
 40
0.300000011920929
100
AcDbArc
 50
180.0
 51
269.9999999997916
  0
ARC
  5
AFC7
330
18
100
AcDbEntity
  8
01
100
AcDbCircle
 10
5273.180107410668
 20
-306.7087323750611
 30
0.0000000001127424
 40
0.300000011920929
100
AcDbArc
 50
90.00000000020843
 51
180.0
  0
LINE
  5
AFC8
330
18
100
AcDbEntity
  8
01
100
AcDbLine
 10
5158.896246671899
 20
-319.0087323631406
 30
0.0000000001127424
 11
5285.347880691167
 21
-319.0087323631406
 31
0.0000000001127424
  0
LINE
  5
AFC9
330
18
100
AcDbEntity
  8
01
100
AcDbLine
 10
5285.347880691167
 20
-306.4087323631402
 30
0.0000000001127424
 11
5158.896246671899
 21
-306.4087323631402
 31
0.0000000001127424
  0
ARC
  5
AFCA
330
18
100
AcDbEntity
  8
01
100
AcDbCircle
 10
5286.417477281271
 20
-305.9087509339579
 30
0.0000000001127424
 40
0.499981429574833
100
AcDbArc
 50
270.0022667810688
 51
16.11692658448713
  0
ARC
  5
AFCB
330
18
100
AcDbEntity
  8
01
100
AcDbCircle
 10
5286.417488982396
 20
-319.5087472719051
 30
0.0000000001127424
 40
0.5000149087651651
100
AcDbArc
 50
343.8881751875409
 51
90.00002370451669
  0
ARC
  5
AFCF
330
18
100
AcDbEntity
  8
01
100
AcDbCircle
 10
5285.128688440223
 20
-303.7087355262211
 30
0.0000000001127424
 40
1.000003163085274
100
AcDbArc
 50
22.02443476855108
 51
90.00017636809295
  0
ARC
  5
AFD0
330
18
100
AcDbEntity
  8
01
100
AcDbCircle
 10
5285.128688440223
 20
-321.7087292000606
 30
0.0000000001127424
 40
1.000003163085274
100
AcDbArc
 50
269.999823631907
 51
337.9755652314489
  0
LINE
  5
AFD1
330
18
100
AcDbEntity
  8
01
100
AcDbLine
 10
5139.92231948839
 20
-163.4102548220558
 30
0.0000000001127424
 11
5139.527881755051
 21
-163.4102546921299
 31
0.0000000001127424
  0
ARC
  5
AFD3
330
18
100
AcDbEntity
  8
01
100
AcDbCircle
 10
5139.527895574294
 20
-164.4102667059828
 30
0.0000000001127424
 40
1.000012016595535
100
AcDbArc
 50
90.01122500174868
 51
194.3169650819557
  0
LINE
  5
AFD4
330
18
100
AcDbEntity
  8
01
100
AcDbLine
 10
5144.16764406485
 20
-186.6334899804529
 30
0.0000000001127424
 11
5138.55893408412
 21
-164.6575575043312
 31
0.0000000001127424
  0
ARC
  5
AFD5
330
18
100
AcDbEntity
  8
01
100
AcDbCircle
 10
5163.5490127952
 20
-181.6852385283132
 30
0.0000000001127424
 40
20.00306592238743
100
AcDbArc
 50
194.3222117693175
 51
251.5775899291975
  0
ARC
  5
AFD6
330
18
100
AcDbEntity
  8
01
100
AcDbCircle
 10
5214.25429708418
 20
-29.39444937205781
 30
0.0000000001127424
 40
180.5132222100057
100
AcDbArc
 50
251.5839993712496
 51
293.6747565095865
  0
ARC
  5
AFD7
330
18
100
AcDbEntity
  8
01
100
AcDbCircle
 10
5284.630111751013
 20
-189.9075073813897
 30
0.0000000001127424
 40
5.249999939119154
100
AcDbArc
 50
293.6763717329158
 51
76.1483397607926
  0
ARC
  5
AFD8
330
18
100
AcDbEntity
  8
01
100
AcDbCircle
 10
5261.467291669296
 20
-283.8439637389733
 30
0.0000000001127424
 40
102.0000597176958
100
AcDbArc
 50
76.14834704164248
 51
86.3320171831267
  0
ARC
  5
AFD9
330
18
100
AcDbEntity
  8
01
100
AcDbCircle
 10
5267.896731235678
 20
-183.5498053761471
 30
0.0000000001127424
 40
1.499982888144531
100
AcDbArc
 50
86.33112581730572
 51
195.9117253549008
  0
ARC
  5
AFDA
330
18
100
AcDbEntity
  8
01
100
AcDbCircle
 10
5257.488878970576
 20
-184.9246232285354
 30
0.0000000001127424
 40
1.000737262136482
100
AcDbArc
 50
92.30971024435193
 51
110.1273068021541
  0
ARC
  5
AFDB
330
18
100
AcDbEntity
  8
01
100
AcDbCircle
 10
5206.887571007235
 20
-46.90245558725337
 30
0.0000000001127424
 40
146.0047426694159
100
AcDbArc
 50
260.2547716182256
 51
290.1338522840448
  0
ARC
  5
AFDC
330
18
100
AcDbEntity
  8
01
100
AcDbCircle
 10
5182.880033399439
 20
-156.0234047648123
 30
0.0000000001127424
 40
5.00007837807085
100
AcDbArc
 50
300.0024565656851
 51
359.9997502934074
  0
ARC
  5
AFDD
330
18
100
AcDbEntity
  8
01
100
AcDbCircle
 10
5142.88163641997
 20
-158.147158440614
 30
0.0000000001127424
 40
5.001524643796793
100
AcDbArc
 50
180.0013004060174
 51
197.3849887879701
  0
LINE
  5
AFDF
330
18
100
AcDbEntity
  8
01
100
AcDbLine
 10
5187.880111777462
 20
-153.9102544024959
 30
0.0000000001127424
 11
5187.880111777462
 21
-156.0234265561635
 31
0.0000000001127424
  0
LINE
  5
AFE0
330
18
100
AcDbEntity
  8
01
100
AcDbLine
 10
5137.880111777462
 20
-153.9102544024959
 30
0.0000000001127424
 11
5187.880111777462
 21
-153.9102544024959
 31
0.0000000001127424
  0
LINE
  5
AFE2
330
18
100
AcDbEntity
  8
01
100
AcDbLine
 10
5266.107989865063
 20
-184.7353494868362
 30
0.0000000001127424
 11
5265.979520932437
 21
-184.2877031623798
 31
0.0000000001127424
  0
ARC
  5
AFE3
330
18
100
AcDbEntity
  8
01
100
AcDbCircle
 10
5261.467164330114
 20
-283.8502364803585
 30
0.0000000001127424
 40
100.0063113994902
100
AcDbArc
 50
87.67787694410497
 51
92.30297222972706
  0
ARC
  5
AFE5
330
18
100
AcDbEntity
  8
01
100
AcDbCircle
 10
5139.601086063278
 20
-162.7102540673009
 30
0.0000000001127424
 40
0.5
100
AcDbArc
 50
197.6048339355617
 51
269.9999999997916
  0
ARC
  5
AFE6
330
18
100
AcDbEntity
  8
01
100
AcDbCircle
 10
5265.498920953187
 20
-184.4256294468391
 30
0.0000000001127424
 40
0.5000000000000004
100
AcDbArc
 50
16.01282813881381
 51
87.67782222826914
  0
ARC
  5
AFE7
330
18
100
AcDbEntity
  8
01
100
AcDbCircle
 10
5214.254296719743
 20
-29.39495102941373
 30
0.0000000001127424
 40
177.5501803129981
100
AcDbArc
 50
251.7798643581244
 51
293.6747946361368
  0
LINE
  5
AFE8
330
18
100
AcDbEntity
  8
01
100
AcDbLine
 10
5137.880111777462
 20
-153.9102544024959
 30
0.0000000001127424
 11
5137.880111777462
 21
-158.1472719570515
 31
0.0000000001127424
  0
ARC
  5
AFEA
330
18
100
AcDbEntity
  8
01
100
AcDbCircle
 10
5261.467376539157
 20
-283.8438570480944
 30
0.0000000001127424
 40
99.03735264322586
100
AcDbArc
 50
76.1483801044935
 51
86.56990722280574
  0
ARC
  5
AFEB
330
18
100
AcDbEntity
  8
01
100
AcDbCircle
 10
5284.630094364269
 20
-189.9075091729733
 30
0.0000000001127424
 40
2.287422673497473
100
AcDbArc
 50
293.6767859678595
 51
76.14792552514436
  0
LINE
  5
AFEE
330
18
100
AcDbEntity
  8
01
100
AcDbLine
 10
5058.8245699688
 20
-318.7090107704444
 30
0.0000000001127424
 11
5067.960956820329
 21
-318.7090132338899
 31
0.0000000001127424
  0
LINE
  5
AFEF
330
18
100
AcDbEntity
  8
01
100
AcDbLine
 10
5046.279847214697
 20
-318.7090102599977
 30
0.0000000001127424
 11
5058.8245699688
 21
-318.7090107704444
 31
0.0000000001127424
  0
LINE
  5
AFF0
330
18
100
AcDbEntity
  8
01
100
AcDbLine
 10
5025.580111107878
 20
-318.7090100290707
 30
0.0000000001127424
 11
5046.279847214697
 21
-318.7090102599977
 31
0.0000000001127424
  0
ARC
  5
AFF1
330
18
100
AcDbEntity
  8
01
100
AcDbCircle
 10
5025.580107400673
 20
-316.7090137063924
 30
0.0000000001127424
 40
1.999996322681483
100
AcDbArc
 50
179.9998937962176
 51
270.0001062035219
  0
LINE
  5
AFF2
330
18
100
AcDbEntity
  8
01
100
AcDbLine
 10
5023.580111077996
 20
-308.7090099991883
 30
0.0000000001127424
 11
5023.580111077996
 21
-316.7090099991883
 31
0.0000000001127424
  0
ARC
  5
AFF3
330
18
100
AcDbEntity
  8
01
100
AcDbCircle
 10
5025.580107352672
 20
-308.7090063037467
 30
0.0000000001127424
 40
1.999996274679955
100
AcDbArc
 50
89.99989242128974
 51
180.0001058667857
  0
LINE
  5
AFF4
330
18
100
AcDbEntity
  8
01
100
AcDbLine
 10
5046.279847214698
 20
-306.7090102599977
 30
0.0000000001127424
 11
5025.580111107878
 21
-306.7090100290707
 31
0.0000000001127424
  0
LINE
  5
AFF5
330
18
100
AcDbEntity
  8
01
100
AcDbLine
 10
5058.8245699688
 20
-306.7090107704435
 30
0.0000000001127424
 11
5046.279847214698
 21
-306.7090102599977
 31
0.0000000001127424
  0
LINE
  5
AFF6
330
18
100
AcDbEntity
  8
01
100
AcDbLine
 10
5067.96096492388
 20
-306.7090132339181
 30
0.0000000001127424
 11
5058.8245699688
 21
-306.7090107704435
 31
0.0000000001127424
  0
ARC
  5
AFF7
330
18
100
AcDbEntity
  8
01
100
AcDbCircle
 10
5067.960965075993
 20
-307.7090134715409
 30
0.0000000001127424
 40
1.000000237623818
100
AcDbArc
 50
25.18426918472571
 51
90.00000871543227
  0
ARC
  5
AFF8
330
18
100
AcDbEntity
  8
01
100
AcDbCircle
 10
5067.960957563678
 20
-317.7090133914026
 30
0.0000000001127424
 40
0.9999998424873013
100
AcDbArc
 50
269.999957409337
 51
334.8157451687468
  0
LINE
  5
AFFA
330
18
100
AcDbEntity
  8
01
100
AcDbLine
 10
5065.32650426751
 20
-302.7090132338899
 30
0.0000000001127424
 11
5057.041808453262
 21
-302.709010903025
 31
0.0000000001127424
  0
LINE
  5
AFFB
330
18
100
AcDbEntity
  8
01
100
AcDbLine
 10
5057.041808453262
 20
-302.7090109040746
 30
0.0000000001127424
 11
5056.515935543321
 21
-302.7085529978303
 31
0.0000000001127424
  0
LINE
  5
AFFD
330
18
100
AcDbEntity
  8
01
100
AcDbLine
 10
5019.73663447093
 20
-302.7105918288098
 30
0.0000000001127424
 11
5019.734762141597
 21
-302.7065346053741
 31
0.0000000001127424
  0
LINE
  5
AFFE
330
18
100
AcDbEntity
  8
01
100
AcDbLine
 10
5065.32650426751
 20
-322.7090132338908
 30
0.0000000001127424
 11
5057.041808453262
 21
-322.709010903026
 31
0.0000000001127424
  0
LINE
  5
AFFF
330
18
100
AcDbEntity
  8
01
100
AcDbLine
 10
5057.041808453262
 20
-322.7090109019764
 30
0.0000000001127424
 11
5056.515935543321
 21
-322.7094686657065
 31
0.0000000001127424
  0
LINE
  5
B000
330
18
100
AcDbEntity
  8
01
100
AcDbLine
 10
5019.73663447093
 20
-322.7074281619462
 30
0.0000000001127424
 11
5019.734762141597
 21
-322.7114853854882
 31
0.0000000001127424
  0
LINE
  5
B002
330
18
100
AcDbEntity
  8
01
100
AcDbLine
 10
5014.080111777462
 20
-337.7090109882865
 30
0.0000000001127424
 11
5014.080111777462
 21
-287.7090109882865
 31
0.0000000001127424
  0
LINE
  5
B004
330
18
100
AcDbEntity
  8
01
100
AcDbLine
 10
5045.379685196164
 20
-319.009010319307
 30
0.0000000001127424
 11
5025.680110456088
 21
-319.0090100497919
 31
0.0000000001127424
  0
LINE
  5
B005
330
18
100
AcDbEntity
  8
01
100
AcDbLine
 10
5057.738090974528
 20
-319.0090108141458
 30
0.0000000001127424
 11
5047.616578770421
 21
-319.0090103503881
 31
0.0000000001127424
  0
ARC
  5
B006
330
18
100
AcDbEntity
  8
01
100
AcDbCircle
 10
5025.680128215253
 20
-316.7089922732566
 30
0.0000000001127424
 40
2.300017776603707
100
AcDbArc
 50
180.0004423987814
 51
269.9995576009581
  0
LINE
  5
B007
330
18
100
AcDbEntity
  8
01
100
AcDbLine
 10
5023.380110424709
 20
-312.7090099707293
 30
0.0000000001127424
 11
5023.380110438718
 21
-316.7090100324203
 31
0.0000000001127424
  0
LINE
  5
B008
330
18
100
AcDbEntity
  8
01
100
AcDbLine
 10
5023.380110424709
 20
-312.7090099707257
 30
0.0000000001127424
 11
5023.380110438718
 21
-308.7090099370535
 31
0.0000000001127424
  0
ARC
  5
B009
330
18
100
AcDbEntity
  8
01
100
AcDbCircle
 10
5025.680128091664
 20
-308.7090277027391
 30
0.0000000001127424
 40
2.300017653015432
100
AcDbArc
 50
90.00043932031872
 51
179.9995574386869
  0
LINE
  5
B00A
330
18
100
AcDbEntity
  8
01
100
AcDbLine
 10
5025.680110456088
 20
-306.4090100497915
 30
0.0000000001127424
 11
5057.738090974528
 21
-306.4090108141463
 31
0.0000000001127424
  0
ARC
  5
B00B
330
18
100
AcDbEntity
  8
01
100
AcDbCircle
 10
5066.12419987746
 20
-306.6365867654731
 30
0.0000000001127424
 40
5.360047579349324
100
AcDbArc
 50
177.5666359403896
 51
180.7742158042292
  0
ARC
  5
B00C
330
18
100
AcDbEntity
  8
01
100
AcDbCircle
 10
5066.124201692491
 20
-318.7814388447196
 30
0.0000000001127424
 40
5.360049394128493
100
AcDbArc
 50
179.225784525606
 51
182.4333635842999
  0
LINE
  5
B00D
330
18
100
AcDbEntity
  8
01
100
AcDbLine
 10
5057.738090973521
 20
-319.0090108141458
 30
0.0000000001127424
 11
5066.615321978571
 21
-319.0090132339128
 31
0.0000000001127424
  0
LINE
  5
B00E
330
18
100
AcDbEntity
  8
01
100
AcDbLine
 10
5066.615316954416
 20
-306.4090132338779
 30
0.0000000001127424
 11
5057.738090973521
 21
-306.4090108141463
 31
0.0000000001127424
  0
ARC
  5
B00F
330
18
100
AcDbEntity
  8
01
100
AcDbCircle
 10
5066.615313244268
 20
-305.9090105226032
 30
0.0000000001127424
 40
0.5000027119655146
100
AcDbArc
 50
270.0110364969242
 51
16.11363498468783
  0
ARC
  5
B010
330
18
100
AcDbEntity
  8
01
100
AcDbCircle
 10
5066.615318352416
 20
-319.5090160569571
 30
0.0000000001127424
 40
0.5000028237426472
100
AcDbArc
 50
343.886382056295
 51
89.98897313116645
  0
LINE
  5
B011
330
18
100
AcDbEntity
  8
01
100
AcDbLine
 10
5014.080111777462
 20
-337.7090109882865
 30
0.0000000001127424
 11
5017.775363193688
 21
-337.7090109882865
 31
0.0000000001127424
  0
LINE
  5
B012
330
18
100
AcDbEntity
  8
01
100
AcDbLine
 10
5014.080111777462
 20
-287.7090109882865
 30
0.0000000001127424
 11
5017.775363193688
 21
-287.7090109882865
 31
0.0000000001127424
  0
LINE
  5
B013
330
18
100
AcDbEntity
  8
01
100
AcDbLine
 10
5047.616578770421
 20
-319.0090103503881
 30
0.0000000001127424
 11
5045.379685196162
 21
-319.0090103157363
 31
0.0000000001127424
  0
ARC
  5
B018
330
18
100
AcDbEntity
  8
01
100
AcDbCircle
 10
5017.774431751731
 20
-292.769781679669
 30
0.0000000001127424
 40
5.060668937358098
100
AcDbArc
 50
59.87080825504373
 51
89.98997147152171
  0
ARC
  5
B019
330
18
100
AcDbEntity
  8
01
100
AcDbCircle
 10
5017.774431660425
 20
-332.6482402922302
 30
0.0000000001127424
 40
5.060668942143254
100
AcDbArc
 50
270.0100295621885
 51
300.1291929087523
  0
LINE
  5
B01B
330
18
100
AcDbEntity
  8
01
100
AcDbLine
 10
5056.51620685429
 20
-302.7085536311179
 30
0.0000000001127424
 11
5056.400378160974
 21
-302.7082291204088
 31
0.0000000001127424
  0
ARC
  5
B01C
330
18
100
AcDbEntity
  8
01
100
AcDbCircle
 10
5065.32650357691
 20
-303.7090140543951
 30
0.0000000001127424
 40
1.000000821266622
100
AcDbArc
 50
22.02427982569195
 51
89.92518716924658
  0
LINE
  5
B01D
330
18
100
AcDbEntity
  8
01
100
AcDbLine
 10
5056.51620685429
 20
-322.7094680324117
 30
0.0000000001127424
 11
5056.400378160974
 21
-322.7097925124117
 31
0.0000000001127424
  0
ARC
  5
B01E
330
18
100
AcDbEntity
  8
01
100
AcDbCircle
 10
5065.32650357691
 20
-321.7090124133856
 30
0.0000000001127424
 40
1.000000821266244
100
AcDbArc
 50
270.0748128307534
 51
337.975720174308
  0
LINE
  5
B021
330
18
100
AcDbEntity
  8
1CENTER
100
AcDbLine
 10
5027.380111777462
 20
-336.0028173196642
 30
0.0000000001127424
 11
5027.380111777462
 21
-319.7089360893933
 31
0.0000000001127424
  0
LINE
  5
B1EC
330
18
100
AcDbEntity
  8
01
100
AcDbLine
 10
5162.880111777462
 20
-287.7089360893933
 30
0.0000000001127424
 11
5126.580111777462
 21
-287.7089360893933
 31
0.0000000001127424
1001
ACAD
1000
DSTYLE
1002
{
1070
     3
1000
φ<>
1070
    40
1040
1.3
1070
    45
1040
0.5
1002
}
  0
LINE
  5
B1ED
330
18
100
AcDbEntity
  8
01
100
AcDbLine
 10
5162.880111777462
 20
-337.7089360893924
 30
0.0000000001127424
 11
5126.580111777462
 21
-337.7089360893924
 31
0.0000000001127424
1001
ACAD
1000
DSTYLE
1002
{
1070
     3
1000
φ<>
1070
    40
1040
1.3
1070
    45
1040
0.5
1002
}
  0
LINE
  5
B1EE
330
18
100
AcDbEntity
  8
01
100
AcDbLine
 10
5127.880111777462
 20
-290.3089360893933
 30
0.0000000001127424
 11
5127.880111777462
 21
-335.1089360893924
 31
0.0000000001127424
1001
ACAD
1000
DSTYLE
1002
{
1070
     3
1000
φ<>
1070
    40
1040
1.3
1070
    45
1040
0.5
1002
}
  0
LINE
  5
B1F2
330
18
100
AcDbEntity
  8
01
100
AcDbLine
 10
5287.763167854071
 20
-306.7087323631413
 30
0.0000000001127424
 11
5287.708846565009
 21
-306.7087323631413
 31
0.0000000001127424
  0
LINE
  5
B1F3
330
18
100
AcDbEntity
  8
01
100
AcDbLine
 10
5287.708846565009
 20
-306.7087323631413
 30
0.0000000001127424
 11
5287.547927375555
 21
-306.7087323631413
 31
0.0000000001127424
  0
LINE
  5
B1F4
330
18
100
AcDbEntity
  8
01
100
AcDbLine
 10
5287.547927375555
 20
-306.7087323631413
 30
0.0000000001127424
 11
5287.286147590399
 21
-306.7087323631413
 31
0.0000000001127424
  0
LINE
  5
B1F5
330
18
100
AcDbEntity
  8
01
100
AcDbLine
 10
5287.286147590399
 20
-306.7087323631413
 30
0.0000000001127424
 11
5286.93244885993
 21
-306.7087323631413
 31
0.0000000001127424
  0
LINE
  5
B1F6
330
18
100
AcDbEntity
  8
01
100
AcDbLine
 10
5286.93244885993
 20
-306.7087323631413
 30
0.0000000001127424
 11
5286.49919080329
 21
-306.7087323631413
 31
0.0000000001127424
  0
LINE
  5
B1F7
330
18
100
AcDbEntity
  8
01
100
AcDbLine
 10
5286.49919080329
 20
-306.7087323631413
 30
0.0000000001127424
 11
5285.888259406805
 21
-306.7087323631413
 31
0.0000000001127424
  0
LINE
  5
B1F8
330
18
100
AcDbEntity
  8
01
100
AcDbLine
 10
5288.668105598212
 20
-307.2831952537663
 30
0.0000000001127424
 11
5288.551833625555
 21
-307.093925234235
 31
0.0000000001127424
  0
LINE
  5
B1F9
330
18
100
AcDbEntity
  8
01
100
AcDbLine
 10
5288.551833625555
 20
-307.093925234235
 30
0.0000000001127424
 11
5288.396621223212
 21
-306.934974428571
 31
0.0000000001127424
  0
LINE
  5
B1FA
330
18
100
AcDbEntity
  8
01
100
AcDbLine
 10
5288.396621223212
 20
-306.934974428571
 30
0.0000000001127424
 11
5288.210158820868
 21
-306.8142163719303
 31
0.0000000001127424
  0
LINE
  5
B1FB
330
18
100
AcDbEntity
  8
01
100
AcDbLine
 10
5288.210158820868
 20
-306.8142163719303
 30
0.0000000001127424
 11
5288.00163220954
 21
-306.7375867332585
 31
0.0000000001127424
  0
LINE
  5
B1FC
330
18
100
AcDbEntity
  8
01
100
AcDbLine
 10
5288.00163220954
 20
-306.7375867332585
 30
0.0000000001127424
 11
5287.763167854071
 21
-306.7087323631413
 31
0.0000000001127424
  0
LINE
  5
B1FD
330
18
100
AcDbEntity
  8
01
100
AcDbLine
 10
5139.31542920661
 20
-308.3587110008366
 30
0.0000000001127424
 11
5139.460998054266
 21
-308.014320131696
 31
0.0000000001127424
  0
LINE
  5
B1FE
330
18
100
AcDbEntity
  8
01
100
AcDbLine
 10
5139.460998054266
 20
-308.014320131696
 30
0.0000000001127424
 11
5139.628768440009
 21
-307.6946485008366
 31
0.0000000001127424
  0
LINE
  5
B1FF
330
18
100
AcDbEntity
  8
01
100
AcDbLine
 10
5139.628768440009
 20
-307.6946485008366
 30
0.0000000001127424
 11
5139.812057014227
 21
-307.4096448387272
 31
0.0000000001127424
  0
LINE
  5
B200
330
18
100
AcDbEntity
  8
01
100
AcDbLine
 10
5139.812057014227
 20
-307.4096448387272
 30
0.0000000001127424
 11
5140.010970588446
 21
-307.1626813377507
 31
0.0000000001127424
  0
LINE
  5
B201
330
18
100
AcDbEntity
  8
01
100
AcDbLine
 10
5140.010970588446
 20
-307.1626813377507
 30
0.0000000001127424
 11
5140.242263313055
 21
-306.9508893455632
 31
0.0000000001127424
  0
LINE
  5
B202
330
18
100
AcDbEntity
  8
01
100
AcDbLine
 10
5140.242263313055
 20
-306.9508893455632
 30
0.0000000001127424
 11
5140.53547620368
 21
-306.7855451072819
 31
0.0000000001127424
  0
LINE
  5
B203
330
18
100
AcDbEntity
  8
01
100
AcDbLine
 10
5140.53547620368
 20
-306.7855451072819
 30
0.0000000001127424
 11
5140.935805793524
 21
-306.7087323631413
 31
0.0000000001127424
  0
LINE
  5
B204
330
18
100
AcDbEntity
  8
01
100
AcDbLine
 10
5140.935805793524
 20
-318.7087323631413
 30
0.0000000001127424
 11
5140.580962653876
 21
-318.6487042869694
 31
0.0000000001127424
  0
LINE
  5
B205
330
18
100
AcDbEntity
  8
01
100
AcDbLine
 10
5140.580962653876
 20
-318.6487042869694
 30
0.0000000001127424
 11
5140.278380866766
 21
-318.4928052391178
 31
0.0000000001127424
  0
LINE
  5
B206
330
18
100
AcDbEntity
  8
01
100
AcDbLine
 10
5140.278380866766
 20
-318.4928052391178
 30
0.0000000001127424
 11
5140.04020642829
 21
-318.2859265770085
 31
0.0000000001127424
  0
LINE
  5
B207
330
18
100
AcDbEntity
  8
01
100
AcDbLine
 10
5140.04020642829
 20
-318.2859265770085
 30
0.0000000001127424
 11
5139.838363166571
 21
-318.0440442527897
 31
0.0000000001127424
  0
LINE
  5
B208
330
18
100
AcDbEntity
  8
01
100
AcDbLine
 10
5139.838363166571
 20
-318.0440442527897
 30
0.0000000001127424
 11
5139.653136726141
 21
-317.7641675438053
 31
0.0000000001127424
  0
LINE
  5
B209
330
18
100
AcDbEntity
  8
01
100
AcDbLine
 10
5139.653136726141
 20
-317.7641675438053
 30
0.0000000001127424
 11
5139.482940192938
 21
-317.4488599266178
 31
0.0000000001127424
  0
LINE
  5
B20A
330
18
100
AcDbEntity
  8
01
100
AcDbLine
 10
5139.482940192938
 20
-317.4488599266178
 30
0.0000000001127424
 11
5139.31542920661
 21
-317.058753725446
 31
0.0000000001127424
  0
LINE
  5
B20B
330
18
100
AcDbEntity
  8
01
100
AcDbLine
 10
5288.66813611579
 20
-307.2831952537663
 30
0.0000000001127424
 11
5289.139205451727
 21
-308.4257428611882
 31
0.0000000001127424
  0
LINE
  5
B20C
330
18
100
AcDbEntity
  8
01
100
AcDbLine
 10
5289.139205451727
 20
-308.4257428611882
 30
0.0000000001127424
 11
5289.497481818915
 21
-309.6086804832585
 31
0.0000000001127424
  0
LINE
  5
B20D
330
18
100
AcDbEntity
  8
01
100
AcDbLine
 10
5289.497481818915
 20
-309.6086804832585
 30
0.0000000001127424
 11
5289.739516731024
 21
-310.8205945457585
 31
0.0000000001127424
  0
LINE
  5
B20E
330
18
100
AcDbEntity
  8
01
100
AcDbLine
 10
5289.739516731024
 20
-310.8205945457585
 30
0.0000000001127424
 11
5289.863082404852
 21
-312.0503156150944
 31
0.0000000001127424
  0
LINE
  5
B20F
330
18
100
AcDbEntity
  8
01
100
AcDbLine
 10
5289.863082404852
 20
-312.0503156150944
 30
0.0000000001127424
 11
5289.86701917243
 21
-313.2862164940007
 31
0.0000000001127424
  0
LINE
  5
B210
330
18
100
AcDbEntity
  8
01
100
AcDbLine
 10
5289.86701917243
 20
-313.2862164940007
 30
0.0000000001127424
 11
5289.751265998602
 21
-314.5166852440007
 31
0.0000000001127424
  0
LINE
  5
B211
330
18
100
AcDbEntity
  8
01
100
AcDbLine
 10
5289.751265998602
 20
-314.5166852440007
 30
0.0000000001127424
 11
5289.51692151618
 21
-315.730155702985
 31
0.0000000001127424
  0
LINE
  5
B212
330
18
100
AcDbEntity
  8
01
100
AcDbLine
 10
5289.51692151618
 20
-315.730155702985
 30
0.0000000001127424
 11
5289.166152473212
 21
-316.9152295555241
 31
0.0000000001127424
  0
LINE
  5
B213
330
18
100
AcDbEntity
  8
01
100
AcDbLine
 10
5289.166152473212
 20
-316.9152295555241
 30
0.0000000001127424
 11
5288.66813611579
 21
-318.1342694725163
 31
0.0000000001127424
  0
LINE
  5
B214
330
18
100
AcDbEntity
  8
01
100
AcDbLine
 10
5285.128676887274
 20
-302.7087323631413
 30
0.0000000001127424
 11
5285.106917854071
 21
-302.7087323631413
 31
0.0000000001127424
  0
LINE
  5
B215
330
18
100
AcDbEntity
  8
01
100
AcDbLine
 10
5285.106917854071
 20
-302.7087323631413
 30
0.0000000001127424
 11
5285.043654914618
 21
-302.7087323631413
 31
0.0000000001127424
  0
LINE
  5
B216
330
18
100
AcDbEntity
  8
01
100
AcDbLine
 10
5285.043654914618
 20
-302.7087323631413
 30
0.0000000001127424
 11
5284.830337043524
 21
-302.7087323631413
 31
0.0000000001127424
  0
LINE
  5
B217
330
18
100
AcDbEntity
  8
01
100
AcDbLine
 10
5285.128676887274
 20
-322.7087323631413
 30
0.0000000001127424
 11
5285.106917854071
 21
-322.7087323631413
 31
0.0000000001127424
  0
LINE
  5
B218
330
18
100
AcDbEntity
  8
01
100
AcDbLine
 10
5285.106917854071
 20
-322.7087323631413
 30
0.0000000001127424
 11
5285.043654914618
 21
-322.7087323631413
 31
0.0000000001127424
  0
LINE
  5
B219
330
18
100
AcDbEntity
  8
01
100
AcDbLine
 10
5285.043654914618
 20
-322.7087323631413
 30
0.0000000001127424
 11
5284.830337043524
 21
-322.7087323631413
 31
0.0000000001127424
  0
LINE
  5
B21A
330
18
100
AcDbEntity
  8
01
100
AcDbLine
 10
5159.130111213446
 20
-331.7936780418522
 30
0.0000000001127424
 11
5159.176162238837
 21
-332.244300600446
 31
0.0000000001127424
  0
LINE
  5
B21B
330
18
100
AcDbEntity
  8
01
100
AcDbLine
 10
5159.176162238837
 20
-332.244300600446
 30
0.0000000001127424
 11
5159.315185065985
 21
-332.6849133934147
 31
0.0000000001127424
  0
LINE
  5
B21C
330
18
100
AcDbEntity
  8
01
100
AcDbLine
 10
5159.315185065985
 20
-332.6849133934147
 30
0.0000000001127424
 11
5159.548446174384
 21
-333.1086347068913
 31
0.0000000001127424
  0
LINE
  5
B21D
330
18
100
AcDbEntity
  8
01
100
AcDbLine
 10
5159.548446174384
 20
-333.1086347068913
 30
0.0000000001127424
 11
5159.877303596259
 21
-333.5063092674382
 31
0.0000000001127424
  0
LINE
  5
B21E
330
18
100
AcDbEntity
  8
01
100
AcDbLine
 10
5159.877303596259
 20
-333.5063092674382
 30
0.0000000001127424
 11
5160.302474494696
 21
-333.8648450340397
 31
0.0000000001127424
  0
LINE
  5
B21F
330
18
100
AcDbEntity
  8
01
100
AcDbLine
 10
5160.302474494696
 20
-333.8648450340397
 30
0.0000000001127424
 11
5160.822906013251
 21
-334.1671216453678
 31
0.0000000001127424
  0
LINE
  5
B220
330
18
100
AcDbEntity
  8
01
100
AcDbLine
 10
5160.822906013251
 20
-334.1671216453678
 30
0.0000000001127424
 11
5161.431792732001
 21
-334.3903577293522
 31
0.0000000001127424
  0
LINE
  5
B221
330
18
100
AcDbEntity
  8
01
100
AcDbLine
 10
5161.431792732001
 20
-334.3903577293522
 30
0.0000000001127424
 11
5162.110824104071
 21
-334.5083081688053
 31
0.0000000001127424
  0
LINE
  5
B222
330
18
100
AcDbEntity
  8
01
100
AcDbLine
 10
5162.110824104071
 20
-334.5083081688053
 30
0.0000000001127424
 11
5162.880111213446
 21
-334.4915692772038
 31
0.0000000001127424
  0
LINE
  5
B223
330
18
100
AcDbEntity
  8
01
100
AcDbLine
 10
5162.880111213446
 20
-334.4915692772038
 30
0.0000000001127424
 11
5163.559325690985
 21
-334.3410260643132
 31
0.0000000001127424
  0
LINE
  5
B224
330
18
100
AcDbEntity
  8
01
100
AcDbLine
 10
5163.559325690985
 20
-334.3410260643132
 30
0.0000000001127424
 11
5164.187163825751
 21
-334.0742108787663
 31
0.0000000001127424
  0
LINE
  5
B225
330
18
100
AcDbEntity
  8
01
100
AcDbLine
 10
5164.187163825751
 20
-334.0742108787663
 30
0.0000000001127424
 11
5164.740935798407
 21
-333.7122571434147
 31
0.0000000001127424
  0
LINE
  5
B226
330
18
100
AcDbEntity
  8
01
100
AcDbLine
 10
5164.740935798407
 20
-333.7122571434147
 30
0.0000000001127424
 11
5165.213393684149
 21
-333.2794415916569
 31
0.0000000001127424
  0
LINE
  5
B227
330
18
100
AcDbEntity
  8
01
100
AcDbLine
 10
5165.213393684149
 20
-333.2794415916569
 30
0.0000000001127424
 11
5165.606978889227
 21
-332.7954022850163
 31
0.0000000001127424
  0
LINE
  5
B228
330
18
100
AcDbEntity
  8
01
100
AcDbLine
 10
5165.606978889227
 20
-332.7954022850163
 30
0.0000000001127424
 11
5165.927749152899
 21
-332.2746045555241
 31
0.0000000001127424
  0
LINE
  5
B229
330
18
100
AcDbEntity
  8
01
100
AcDbLine
 10
5165.927749152899
 20
-332.2746045555241
 30
0.0000000001127424
 11
5166.182281013251
 21
-331.7282483543522
 31
0.0000000001127424
  0
LINE
  5
B22A
330
18
100
AcDbEntity
  8
01
100
AcDbLine
 10
5166.182281013251
 20
-331.7282483543522
 30
0.0000000001127424
 11
5166.375792976141
 21
-331.1636579002507
 31
0.0000000001127424
  0
LINE
  5
B22B
330
18
100
AcDbEntity
  8
01
100
AcDbLine
 10
5166.375792976141
 20
-331.1636579002507
 30
0.0000000001127424
 11
5166.513076301337
 21
-330.5871655906803
 31
0.0000000001127424
  0
LINE
  5
B22C
330
18
100
AcDbEntity
  8
01
100
AcDbLine
 10
5166.513076301337
 20
-330.5871655906803
 30
0.0000000001127424
 11
5166.597457404852
 21
-330.0051953758366
 31
0.0000000001127424
  0
LINE
  5
B22D
330
18
100
AcDbEntity
  8
01
100
AcDbLine
 10
5166.597457404852
 20
-330.0051953758366
 30
0.0000000001127424
 11
5166.630080695868
 21
-329.365638491071
 31
0.0000000001127424
  0
LINE
  5
B22E
330
18
100
AcDbEntity
  8
01
100
AcDbLine
 10
5286.417495246649
 20
-319.0087354148991
 30
0.0000000001127424
 11
5286.344924445868
 21
-319.0087354148991
 31
0.0000000001127424
  0
LINE
  5
B22F
330
18
100
AcDbEntity
  8
01
100
AcDbLine
 10
5286.344924445868
 20
-319.0087354148991
 30
0.0000000001127424
 11
5286.132735725165
 21
-319.0087354148991
 31
0.0000000001127424
  0
LINE
  5
B230
330
18
100
AcDbEntity
  8
01
100
AcDbLine
 10
5286.132735725165
 20
-319.0087354148991
 30
0.0000000001127424
 11
5285.798537727118
 21
-319.0087354148991
 31
0.0000000001127424
  0
LINE
  5
B231
330
18
100
AcDbEntity
  8
01
100
AcDbLine
 10
5285.798537727118
 20
-319.0087354148991
 30
0.0000000001127424
 11
5285.347884650946
 21
-319.0087354148991
 31
0.0000000001127424
  0
LINE
  5
B232
330
18
100
AcDbEntity
  8
01
100
AcDbLine
 10
5140.879409309149
 20
-318.7072217430241
 30
0.0000000001127424
 11
5141.024474616766
 21
-318.8386304344303
 31
0.0000000001127424
  0
LINE
  5
B233
330
18
100
AcDbEntity
  8
01
100
AcDbLine
 10
5141.024474616766
 20
-318.8386304344303
 30
0.0000000001127424
 11
5141.164641853095
 21
-318.933997866071
 31
0.0000000001127424
  0
LINE
  5
B234
330
18
100
AcDbEntity
  8
01
100
AcDbLine
 10
5141.164641853095
 20
-318.933997866071
 30
0.0000000001127424
 11
5141.409850593329
 21
-319.0087354148991
 31
0.0000000001127424
  0
LINE
  5
B235
330
18
100
AcDbEntity
  8
01
100
AcDbLine
 10
5140.879409309149
 20
-306.7102582420475
 30
0.0000000001127424
 11
5141.024474616766
 21
-306.5788342918522
 31
0.0000000001127424
  0
LINE
  5
B236
330
18
100
AcDbEntity
  8
01
100
AcDbLine
 10
5141.024474616766
 20
-306.5788342918522
 30
0.0000000001127424
 11
5141.164641853095
 21
-306.4834668602116
 31
0.0000000001127424
  0
LINE
  5
B237
330
18
100
AcDbEntity
  8
01
100
AcDbLine
 10
5141.164641853095
 20
-306.4834668602116
 30
0.0000000001127424
 11
5141.409850593329
 21
-306.4087293113835
 31
0.0000000001127424
  0
LINE
  5
B238
330
18
100
AcDbEntity
  8
01
100
AcDbLine
 10
5286.055709357977
 20
-322.0837323631413
 30
0.0000000001127424
 11
5286.344832893134
 21
-321.3346173729069
 31
0.0000000001127424
  0
LINE
  5
B239
330
18
100
AcDbEntity
  8
01
100
AcDbLine
 10
5286.344832893134
 20
-321.3346173729069
 30
0.0000000001127424
 11
5286.609786506415
 21
-320.57659124986
 31
0.0000000001127424
  0
LINE
  5
B23A
330
18
100
AcDbEntity
  8
01
100
AcDbLine
 10
5286.609786506415
 20
-320.57659124986
 30
0.0000000001127424
 11
5286.897872443915
 21
-319.6475141014225
 31
0.0000000001127424
  0
LINE
  5
B23B
330
18
100
AcDbEntity
  8
01
100
AcDbLine
 10
5286.055709357977
 20
-303.3337323631413
 30
0.0000000001127424
 11
5286.344832893134
 21
-304.0828473533757
 31
0.0000000001127424
  0
LINE
  5
B23C
330
18
100
AcDbEntity
  8
01
100
AcDbLine
 10
5286.344832893134
 20
-304.0828473533757
 30
0.0000000001127424
 11
5286.609786506415
 21
-304.8408734764225
 31
0.0000000001127424
  0
LINE
  5
B23D
330
18
100
AcDbEntity
  8
01
100
AcDbLine
 10
5286.609786506415
 20
-304.8408734764225
 30
0.0000000001127424
 11
5286.897872443915
 21
-305.76995062486
 31
0.0000000001127424
  0
LINE
  5
B23E
330
18
100
AcDbEntity
  8
01
100
AcDbLine
 10
5166.630080695868
 20
-329.365638491071
 30
0.0000000001127424
 11
5166.610091682196
 21
-328.9247815574772
 31
0.0000000001127424
  0
LINE
  5
B23F
330
18
100
AcDbEntity
  8
01
100
AcDbLine
 10
5166.610091682196
 20
-328.9247815574772
 30
0.0000000001127424
 11
5166.545272346259
 21
-328.5128858055241
 31
0.0000000001127424
  0
LINE
  5
B240
330
18
100
AcDbEntity
  8
01
100
AcDbLine
 10
5166.545272346259
 20
-328.5128858055241
 30
0.0000000001127424
 11
5166.428893562079
 21
-328.1504743065007
 31
0.0000000001127424
  0
LINE
  5
B241
330
18
100
AcDbEntity
  8
01
100
AcDbLine
 10
5166.428893562079
 20
-328.1504743065007
 30
0.0000000001127424
 11
5166.25666760993
 21
-327.8643720115788
 31
0.0000000001127424
  0
LINE
  5
B242
330
18
100
AcDbEntity
  8
01
100
AcDbLine
 10
5166.25666760993
 20
-327.8643720115788
 30
0.0000000001127424
 11
5166.021087165595
 21
-327.6684186424382
 31
0.0000000001127424
  0
LINE
  5
B243
330
18
100
AcDbEntity
  8
01
100
AcDbLine
 10
5166.021087165595
 20
-327.6684186424382
 30
0.0000000001127424
 11
5165.69206189704
 21
-327.5578992332585
 31
0.0000000001127424
  0
LINE
  5
B244
330
18
100
AcDbEntity
  8
01
100
AcDbLine
 10
5165.69206189704
 20
-327.5578992332585
 30
0.0000000001127424
 11
5165.258727546454
 21
-327.5378339256413
 31
0.0000000001127424
  0
LINE
  5
B245
330
18
100
AcDbEntity
  8
01
100
AcDbLine
 10
5165.258727546454
 20
-327.5378339256413
 30
0.0000000001127424
 11
5164.753493781805
 21
-327.6016919578678
 31
0.0000000001127424
  0
LINE
  5
B246
330
18
100
AcDbEntity
  8
01
100
AcDbLine
 10
5164.753493781805
 20
-327.6016919578678
 30
0.0000000001127424
 11
5164.20785474372
 21
-327.7309491600163
 31
0.0000000001127424
  0
LINE
  5
B247
330
18
100
AcDbEntity
  8
01
100
AcDbLine
 10
5164.20785474372
 20
-327.7309491600163
 30
0.0000000001127424
 11
5163.644057746649
 21
-327.9076001609928
 31
0.0000000001127424
  0
LINE
  5
B248
330
18
100
AcDbEntity
  8
01
100
AcDbLine
 10
5163.644057746649
 20
-327.9076001609928
 30
0.0000000001127424
 11
5163.07698010993
 21
-328.1199719871647
 31
0.0000000001127424
  0
LINE
  5
B249
330
18
100
AcDbEntity
  8
01
100
AcDbLine
 10
5163.07698010993
 20
-328.1199719871647
 30
0.0000000001127424
 11
5162.519134040595
 21
-328.3595960106022
 31
0.0000000001127424
  0
LINE
  5
B24A
330
18
100
AcDbEntity
  8
01
100
AcDbLine
 10
5162.519134040595
 20
-328.3595960106022
 30
0.0000000001127424
 11
5161.98095655036
 21
-328.6211469139225
 31
0.0000000001127424
  0
LINE
  5
B24B
330
18
100
AcDbEntity
  8
01
100
AcDbLine
 10
5161.98095655036
 20
-328.6211469139225
 30
0.0000000001127424
 11
5161.471297736884
 21
-328.9011456932194
 31
0.0000000001127424
  0
LINE
  5
B24C
330
18
100
AcDbEntity
  8
01
100
AcDbLine
 10
5161.471297736884
 20
-328.9011456932194
 30
0.0000000001127424
 11
5160.998717780829
 21
-329.196464296735
 31
0.0000000001127424
  0
LINE
  5
B24D
330
18
100
AcDbEntity
  8
01
100
AcDbLine
 10
5160.998717780829
 20
-329.196464296735
 30
0.0000000001127424
 11
5160.570586677313
 21
-329.5042188133366
 31
0.0000000001127424
  0
LINE
  5
B24E
330
18
100
AcDbEntity
  8
01
100
AcDbLine
 10
5160.570586677313
 20
-329.5042188133366
 30
0.0000000001127424
 11
5160.192412849188
 21
-329.8218152488835
 31
0.0000000001127424
  0
LINE
  5
B24F
330
18
100
AcDbEntity
  8
01
100
AcDbLine
 10
5160.192412849188
 20
-329.8218152488835
 30
0.0000000001127424
 11
5159.868545051337
 21
-330.1465070213444
 31
0.0000000001127424
  0
LINE
  5
B250
330
18
100
AcDbEntity
  8
01
100
AcDbLine
 10
5159.868545051337
 20
-330.1465070213444
 30
0.0000000001127424
 11
5159.602645393134
 21
-330.4754559959538
 31
0.0000000001127424
  0
LINE
  5
B251
330
18
100
AcDbEntity
  8
01
100
AcDbLine
 10
5159.602645393134
 20
-330.4754559959538
 30
0.0000000001127424
 11
5159.396255012274
 21
-330.8056867088444
 31
0.0000000001127424
  0
LINE
  5
B252
330
18
100
AcDbEntity
  8
01
100
AcDbLine
 10
5159.396255012274
 20
-330.8056867088444
 30
0.0000000001127424
 11
5159.249328132391
 21
-331.1344983543522
 31
0.0000000001127424
  0
LINE
  5
B253
330
18
100
AcDbEntity
  8
01
100
AcDbLine
 10
5159.249328132391
 20
-331.1344983543522
 30
0.0000000001127424
 11
5159.16096448493
 21
-331.4598004783757
 31
0.0000000001127424
  0
LINE
  5
B254
330
18
100
AcDbEntity
  8
01
100
AcDbLine
 10
5159.16096448493
 20
-331.4598004783757
 30
0.0000000001127424
 11
5159.130111213446
 21
-331.7936933006413
 31
0.0000000001127424
  0
LINE
  5
B255
330
18
100
AcDbEntity
  8
01
100
AcDbLine
 10
5266.454204642452
 20
-183.9610394671931
 30
0.0000000001127424
 11
5266.469921195187
 21
-184.0160626605525
 31
0.0000000001127424
  0
LINE
  5
B256
330
18
100
AcDbEntity
  8
01
100
AcDbLine
 10
5266.469921195187
 20
-184.0160626605525
 30
0.0000000001127424
 11
5266.516704642452
 21
-184.1802014544978
 31
0.0000000001127424
  0
LINE
  5
B257
330
18
100
AcDbEntity
  8
01
100
AcDbLine
 10
5266.516704642452
 20
-184.1802014544978
 30
0.0000000001127424
 11
5266.594005667843
 21
-184.4513653949275
 31
0.0000000001127424
  0
LINE
  5
B258
330
18
100
AcDbEntity
  8
01
100
AcDbLine
 10
5266.594005667843
 20
-184.4513653949275
 30
0.0000000001127424
 11
5266.723003470577
 21
-184.9038647845759
 31
0.0000000001127424
  0
LINE
  5
B259
330
18
100
AcDbEntity
  8
01
100
AcDbLine
 10
5182.173717581905
 20
-190.8003796771541
 30
0.0000000001127424
 11
5180.811779105343
 21
-190.4962109759822
 31
0.0000000001127424
  0
LINE
  5
B25A
330
18
100
AcDbEntity
  8
01
100
AcDbLine
 10
5180.811779105343
 20
-190.4962109759822
 30
0.0000000001127424
 11
5179.486888968624
 21
-190.0577649310603
 31
0.0000000001127424
  0
LINE
  5
B25B
330
18
100
AcDbEntity
  8
01
100
AcDbLine
 10
5179.486888968624
 20
-190.0577649310603
 30
0.0000000001127424
 11
5178.212566458858
 21
-189.4889630511775
 31
0.0000000001127424
  0
LINE
  5
B25C
330
18
100
AcDbEntity
  8
01
100
AcDbLine
 10
5178.212566458858
 20
-189.4889630511775
 30
0.0000000001127424
 11
5177.000881278194
 21
-188.7966717914119
 31
0.0000000001127424
  0
LINE
  5
B25D
330
18
100
AcDbEntity
  8
01
100
AcDbLine
 10
5177.000881278194
 20
-188.7966717914119
 30
0.0000000001127424
 11
5175.863994681515
 21
-187.987376137115
 31
0.0000000001127424
  0
LINE
  5
B25E
330
18
100
AcDbEntity
  8
01
100
AcDbLine
 10
5175.863994681515
 20
-187.987376137115
 30
0.0000000001127424
 11
5174.813625418819
 21
-187.0685834125056
 31
0.0000000001127424
  0
LINE
  5
B25F
330
18
100
AcDbEntity
  8
01
100
AcDbLine
 10
5174.813625418819
 20
-187.0685834125056
 30
0.0000000001127424
 11
5173.859966361202
 21
-186.0497388080134
 31
0.0000000001127424
  0
LINE
  5
B260
330
18
100
AcDbEntity
  8
01
100
AcDbLine
 10
5173.859966361202
 20
-186.0497388080134
 30
0.0000000001127424
 11
5173.012203299679
 21
-184.9412488177791
 31
0.0000000001127424
  0
LINE
  5
B261
330
18
100
AcDbEntity
  8
01
100
AcDbLine
 10
5173.012203299679
 20
-184.9412488177791
 30
0.0000000001127424
 11
5172.27911003796
 21
-183.7538403705134
 31
0.0000000001127424
  0
LINE
  5
B262
330
18
100
AcDbEntity
  8
01
100
AcDbLine
 10
5172.27911003796
 20
-183.7538403705134
 30
0.0000000001127424
 11
5171.667934500851
 21
-182.4992779925838
 31
0.0000000001127424
  0
LINE
  5
B263
330
18
100
AcDbEntity
  8
01
100
AcDbLine
 10
5171.667934500851
 20
-182.4992779925838
 30
0.0000000001127424
 11
5171.184642874874
 21
-181.1901044085994
 31
0.0000000001127424
  0
LINE
  5
B264
330
18
100
AcDbEntity
  8
01
100
AcDbLine
 10
5171.184642874874
 20
-181.1901044085994
 30
0.0000000001127424
 11
5170.834133231319
 21
-179.8393048480525
 31
0.0000000001127424
  0
LINE
  5
B265
330
18
100
AcDbEntity
  8
01
100
AcDbLine
 10
5170.834133231319
 20
-179.8393048480525
 30
0.0000000001127424
 11
5170.619793021358
 21
-178.4603680804744
 31
0.0000000001127424
  0
LINE
  5
B266
330
18
100
AcDbEntity
  8
01
100
AcDbLine
 10
5170.619793021358
 20
-178.4603680804744
 30
0.0000000001127424
 11
5170.543911063351
 21
-177.0669354632869
 31
0.0000000001127424
  0
LINE
  5
B267
330
18
100
AcDbEntity
  8
01
100
AcDbLine
 10
5170.543911063351
 20
-177.0669354632869
 30
0.0000000001127424
 11
5170.606945120968
 21
-175.6728314593806
 31
0.0000000001127424
  0
LINE
  5
B268
330
18
100
AcDbEntity
  8
01
100
AcDbLine
 10
5170.606945120968
 20
-175.6728314593806
 30
0.0000000001127424
 11
5170.808544242062
 21
-174.2919415668025
 31
0.0000000001127424
  0
LINE
  5
B269
330
18
100
AcDbEntity
  8
01
100
AcDbLine
 10
5170.808544242062
 20
-174.2919415668025
 30
0.0000000001127424
 11
5171.146526419796
 21
-172.9379681781306
 31
0.0000000001127424
  0
LINE
  5
B26A
330
18
100
AcDbEntity
  8
01
100
AcDbLine
 10
5171.146526419796
 20
-172.9379681781306
 30
0.0000000001127424
 11
5171.617870413937
 21
-171.6244916156306
 31
0.0000000001127424
  0
LINE
  5
B26B
330
18
100
AcDbEntity
  8
01
100
AcDbLine
 10
5171.617870413937
 20
-171.6244916156306
 30
0.0000000001127424
 11
5172.217327201046
 21
-170.3642682269588
 31
0.0000000001127424
  0
LINE
  5
B26C
330
18
100
AcDbEntity
  8
01
100
AcDbLine
 10
5172.217327201046
 20
-170.3642682269588
 30
0.0000000001127424
 11
5172.939342581905
 21
-169.1700543597713
 31
0.0000000001127424
  0
LINE
  5
B26D
330
18
100
AcDbEntity
  8
01
100
AcDbLine
 10
5172.939342581905
 20
-169.1700543597713
 30
0.0000000001127424
 11
5173.777004325069
 21
-168.0538739398494
 31
0.0000000001127424
  0
LINE
  5
B26E
330
18
100
AcDbEntity
  8
01
100
AcDbLine
 10
5173.777004325069
 20
-168.0538739398494
 30
0.0000000001127424
 11
5174.720913016476
 21
-167.0259808734431
 31
0.0000000001127424
  0
LINE
  5
B26F
330
18
100
AcDbEntity
  8
01
100
AcDbLine
 10
5174.720913016476
 20
-167.0259808734431
 30
0.0000000001127424
 11
5175.763210379757
 21
-166.0980939105525
 31
0.0000000001127424
  0
LINE
  5
B270
330
18
100
AcDbEntity
  8
01
100
AcDbLine
 10
5175.763210379757
 20
-166.0980939105525
 30
0.0000000001127424
 11
5176.892192923702
 21
-165.2777203753963
 31
0.0000000001127424
  0
LINE
  5
B271
330
18
100
AcDbEntity
  8
01
100
AcDbLine
 10
5176.892192923702
 20
-165.2777203753963
 30
0.0000000001127424
 11
5178.090862357296
 21
-164.5624188617244
 31
0.0000000001127424
  0
LINE
  5
B272
330
18
100
AcDbEntity
  8
01
100
AcDbLine
 10
5178.090862357296
 20
-164.5624188617244
 30
0.0000000001127424
 11
5179.299770438351
 21
-163.8641461566463
 31
0.0000000001127424
  0
LINE
  5
B273
330
18
100
AcDbEntity
  8
01
100
AcDbLine
 10
5179.299770438351
 20
-163.8641461566463
 30
0.0000000001127424
 11
5180.508709036983
 21
-163.1658734515681
 31
0.0000000001127424
  0
LINE
  5
B274
330
18
100
AcDbEntity
  8
01
100
AcDbLine
 10
5180.508709036983
 20
-163.1658734515681
 30
0.0000000001127424
 11
5181.717693411983
 21
-162.4677533343806
 31
0.0000000001127424
  0
LINE
  5
B275
330
18
100
AcDbEntity
  8
01
100
AcDbLine
 10
5181.717693411983
 20
-162.4677533343806
 30
0.0000000001127424
 11
5182.926876151241
 21
-161.7699078753963
 31
0.0000000001127424
  0
LINE
  5
B276
330
18
100
AcDbEntity
  8
01
100
AcDbLine
 10
5182.926876151241
 20
-161.7699078753963
 30
0.0000000001127424
 11
5184.135952078976
 21
-161.0719098285213
 31
0.0000000001127424
  0
LINE
  5
B277
330
18
100
AcDbEntity
  8
01
100
AcDbLine
 10
5184.135952078976
 20
-161.0719098285213
 30
0.0000000001127424
 11
5185.380260550655
 21
-160.3534955218806
 31
0.0000000001127424
  0
LINE
  5
B278
330
18
100
AcDbEntity
  8
01
100
AcDbLine
 10
5139.601085745968
 20
-163.2102460101619
 30
0.0000000001127424
 11
5139.618648612179
 21
-163.2102460101619
 31
0.0000000001127424
  0
LINE
  5
B279
330
18
100
AcDbEntity
  8
01
100
AcDbLine
 10
5139.618648612179
 20
-163.2102460101619
 30
0.0000000001127424
 11
5139.773387992062
 21
-163.2102460101619
 31
0.0000000001127424
  0
LINE
  5
B27A
330
18
100
AcDbEntity
  8
01
100
AcDbLine
 10
5139.12432488171
 20
-162.8615521625056
 30
0.0000000001127424
 11
5138.108593070187
 21
-159.6415814593806
 31
0.0000000001127424
  0
LINE
  5
B27B
330
18
100
AcDbEntity
  8
01
100
AcDbLine
 10
5266.040264212765
 20
-184.7008160785213
 30
0.0000000001127424
 11
5266.08851250378
 21
-184.7265576556697
 31
0.0000000001127424
  0
LINE
  5
B27C
330
18
100
AcDbEntity
  8
01
100
AcDbLine
 10
5266.08851250378
 20
-184.7265576556697
 30
0.0000000001127424
 11
5266.210613333858
 21
-184.7752637103572
 31
0.0000000001127424
  0
LINE
  5
B27D
330
18
100
AcDbEntity
  8
01
100
AcDbLine
 10
5266.210613333858
 20
-184.7752637103572
 30
0.0000000001127424
 11
5266.382396781124
 21
-184.8278760150447
 31
0.0000000001127424
  0
LINE
  5
B27E
330
18
100
AcDbEntity
  8
01
100
AcDbLine
 10
5266.382396781124
 20
-184.8278760150447
 30
0.0000000001127424
 11
5266.590496146358
 21
-184.8778027728572
 31
0.0000000001127424
  0
LINE
  5
B27F
330
18
100
AcDbEntity
  8
01
100
AcDbLine
 10
5266.590496146358
 20
-184.8778027728572
 30
0.0000000001127424
 11
5266.825725638546
 21
-184.9215192035213
 31
0.0000000001127424
  0
LINE
  5
B280
330
18
100
AcDbEntity
  8
01
100
AcDbLine
 10
5266.825725638546
 20
-184.9215192035213
 30
0.0000000001127424
 11
5267.080455863155
 21
-184.9566296771541
 31
0.0000000001127424
  0
LINE
  5
B281
330
18
100
AcDbEntity
  8
01
100
AcDbLine
 10
5267.080455863155
 20
-184.9566296771541
 30
0.0000000001127424
 11
5267.392833792843
 21
-184.9839276507869
 31
0.0000000001127424
  0
LINE
  5
B282
330
18
100
AcDbEntity
  8
01
100
AcDbLine
 10
5140.932460868038
 20
-165.6588544085994
 30
0.0000000001127424
 11
5141.359386527218
 21
-167.0297345355525
 31
0.0000000001127424
  0
LINE
  5
B283
330
18
100
AcDbEntity
  8
01
100
AcDbLine
 10
5141.359386527218
 20
-167.0297345355525
 30
0.0000000001127424
 11
5141.786647879757
 21
-168.4004925921931
 31
0.0000000001127424
  0
LINE
  5
B284
330
18
100
AcDbEntity
  8
01
100
AcDbLine
 10
5141.786647879757
 20
-168.4004925921931
 30
0.0000000001127424
 11
5142.214199149288
 21
-169.7711896136775
 31
0.0000000001127424
  0
LINE
  5
B285
330
18
100
AcDbEntity
  8
01
100
AcDbLine
 10
5142.214199149288
 20
-169.7711896136775
 30
0.0000000001127424
 11
5142.641994559444
 21
-171.1417645648494
 31
0.0000000001127424
  0
LINE
  5
B286
330
18
100
AcDbEntity
  8
01
100
AcDbLine
 10
5142.641994559444
 20
-171.1417645648494
 30
0.0000000001127424
 11
5143.069988333858
 21
-172.5123089984431
 31
0.0000000001127424
  0
LINE
  5
B287
330
18
100
AcDbEntity
  8
01
100
AcDbLine
 10
5143.069988333858
 20
-172.5123089984431
 30
0.0000000001127424
 11
5143.498195731319
 21
-173.8827923968806
 31
0.0000000001127424
  0
LINE
  5
B288
330
18
100
AcDbEntity
  8
01
100
AcDbLine
 10
5143.498195731319
 20
-173.8827923968806
 30
0.0000000001127424
 11
5143.926616751827
 21
-175.2531842425838
 31
0.0000000001127424
  0
LINE
  5
B289
330
18
100
AcDbEntity
  8
01
100
AcDbLine
 10
5143.926616751827
 20
-175.2531842425838
 30
0.0000000001127424
 11
5144.355327689327
 21
-176.6235150531306
 31
0.0000000001127424
  0
LINE
  5
B28A
330
18
100
AcDbEntity
  8
01
100
AcDbLine
 10
5144.355327689327
 20
-176.6235150531306
 30
0.0000000001127424
 11
5144.784374320187
 21
-177.993723793365
 31
0.0000000001127424
  0
LINE
  5
B28B
330
18
100
AcDbEntity
  8
01
100
AcDbLine
 10
5144.784374320187
 20
-177.993723793365
 30
0.0000000001127424
 11
5145.213756644405
 21
-179.3638104632869
 31
0.0000000001127424
  0
LINE
  5
B28C
330
18
100
AcDbEntity
  8
01
100
AcDbLine
 10
5145.213756644405
 20
-179.3638104632869
 30
0.0000000001127424
 11
5145.643550955929
 21
-180.7337750628963
 31
0.0000000001127424
  0
LINE
  5
B28D
330
18
100
AcDbEntity
  8
01
100
AcDbLine
 10
5145.643550955929
 20
-180.7337750628963
 30
0.0000000001127424
 11
5146.07386406628
 21
-182.103587074615
 31
0.0000000001127424
  0
LINE
  5
B28E
330
18
100
AcDbEntity
  8
01
100
AcDbLine
 10
5146.07386406628
 20
-182.103587074615
 30
0.0000000001127424
 11
5146.504573905147
 21
-183.4732770160213
 31
0.0000000001127424
  0
LINE
  5
B28F
330
18
100
AcDbEntity
  8
01
100
AcDbLine
 10
5146.504573905147
 20
-183.4732770160213
 30
0.0000000001127424
 11
5146.935695731319
 21
-184.842844887115
 31
0.0000000001127424
  0
LINE
  5
B290
330
18
100
AcDbEntity
  8
01
100
AcDbLine
 10
5146.935695731319
 20
-184.842844887115
 30
0.0000000001127424
 11
5147.367397391476
 21
-186.2122143939509
 31
0.0000000001127424
  0
LINE
  5
B291
330
18
100
AcDbEntity
  8
01
100
AcDbLine
 10
5147.367397391476
 20
-186.2122143939509
 30
0.0000000001127424
 11
5147.804378592647
 21
-187.57990543399
 31
0.0000000001127424
  0
LINE
  5
B292
330
18
100
AcDbEntity
  8
01
100
AcDbLine
 10
5147.804378592647
 20
-187.57990543399
 30
0.0000000001127424
 11
5148.292980277218
 21
-188.9298352435603
 31
0.0000000001127424
  0
LINE
  5
B293
330
18
100
AcDbEntity
  8
01
100
AcDbLine
 10
5148.292980277218
 20
-188.9298352435603
 30
0.0000000001127424
 11
5148.875194632687
 21
-190.2419537738338
 31
0.0000000001127424
  0
LINE
  5
B294
330
18
100
AcDbEntity
  8
01
100
AcDbLine
 10
5148.875194632687
 20
-190.2419537738338
 30
0.0000000001127424
 11
5149.570964896358
 21
-191.4972027972713
 31
0.0000000001127424
  0
LINE
  5
B295
330
18
100
AcDbEntity
  8
01
100
AcDbLine
 10
5149.570964896358
 20
-191.4972027972713
 30
0.0000000001127424
 11
5150.387630545772
 21
-192.6774243548884
 31
0.0000000001127424
  0
LINE
  5
B296
330
18
100
AcDbEntity
  8
01
100
AcDbLine
 10
5150.387630545772
 20
-192.6774243548884
 30
0.0000000001127424
 11
5151.321575247921
 21
-193.7671460345759
 31
0.0000000001127424
  0
LINE
  5
B297
330
18
100
AcDbEntity
  8
01
100
AcDbLine
 10
5151.321575247921
 20
-193.7671460345759
 30
0.0000000001127424
 11
5152.364116751827
 21
-194.7535046771541
 31
0.0000000001127424
  0
LINE
  5
B298
330
18
100
AcDbEntity
  8
01
100
AcDbLine
 10
5152.364116751827
 20
-194.7535046771541
 30
0.0000000001127424
 11
5153.50274285046
 21
-195.6272076800838
 31
0.0000000001127424
  0
LINE
  5
B299
330
18
100
AcDbEntity
  8
01
100
AcDbLine
 10
5153.50274285046
 20
-195.6272076800838
 30
0.0000000001127424
 11
5154.722713553585
 21
-196.3832654193416
 31
0.0000000001127424
  0
LINE
  5
B29A
330
18
100
AcDbEntity
  8
01
100
AcDbLine
 10
5154.722713553585
 20
-196.3832654193416
 30
0.0000000001127424
 11
5156.007381522335
 21
-197.0235242084041
 31
0.0000000001127424
  0
LINE
  5
B29B
330
18
100
AcDbEntity
  8
01
100
AcDbLine
 10
5156.007381522335
 20
-197.0235242084041
 30
0.0000000001127424
 11
5157.338390433468
 21
-197.5612744525447
 31
0.0000000001127424
  0
LINE
  5
B29C
330
18
100
AcDbEntity
  8
01
100
AcDbLine
 10
5157.338390433468
 20
-197.5612744525447
 30
0.0000000001127424
 11
5158.739910208858
 21
-198.0431622699275
 31
0.0000000001127424
  0
LINE
  5
B29D
330
18
100
AcDbEntity
  8
01
100
AcDbLine
 10
5139.718578421749
 20
-163.1531781390681
 30
0.0000000001127424
 11
5139.771007620968
 21
-163.2074994281306
 31
0.0000000001127424
  0
LINE
  5
B29E
330
18
100
AcDbEntity
  8
01
100
AcDbLine
 10
5139.771007620968
 20
-163.2074994281306
 30
0.0000000001127424
 11
5139.880168997921
 21
-163.3491620257869
 31
0.0000000001127424
  0
LINE
  5
B29F
330
18
100
AcDbEntity
  8
01
100
AcDbLine
 10
5139.880168997921
 20
-163.3491620257869
 30
0.0000000001127424
 11
5140.016460501827
 21
-163.5571698382869
 31
0.0000000001127424
  0
LINE
  5
B2A0
330
18
100
AcDbEntity
  8
01
100
AcDbLine
 10
5140.016460501827
 20
-163.5571698382869
 30
0.0000000001127424
 11
5140.167354666866
 21
-163.8184918597713
 31
0.0000000001127424
  0
LINE
  5
B2A1
330
18
100
AcDbEntity
  8
01
100
AcDbLine
 10
5140.167354666866
 20
-163.8184918597713
 30
0.0000000001127424
 11
5140.32566460339
 21
-164.1244305804744
 31
0.0000000001127424
  0
LINE
  5
B2A2
330
18
100
AcDbEntity
  8
01
100
AcDbLine
 10
5140.32566460339
 20
-164.1244305804744
 30
0.0000000001127424
 11
5140.485729300655
 21
-164.4676922992244
 31
0.0000000001127424
  0
LINE
  5
B2A3
330
18
100
AcDbEntity
  8
01
100
AcDbLine
 10
5140.485729300655
 20
-164.4676922992244
 30
0.0000000001127424
 11
5140.642864310421
 21
-164.8413495257869
 31
0.0000000001127424
  0
LINE
  5
B2A4
330
18
100
AcDbEntity
  8
01
100
AcDbLine
 10
5140.642864310421
 20
-164.8413495257869
 30
0.0000000001127424
 11
5140.792369925655
 21
-165.2383221820369
 31
0.0000000001127424
  0
LINE
  5
B2A5
330
18
100
AcDbEntity
  8
01
100
AcDbLine
 10
5140.792369925655
 20
-165.2383221820369
 30
0.0000000001127424
 11
5140.932460868038
 21
-165.6588544085994
 31
0.0000000001127424
  0
LINE
  5
B2A6
330
18
100
AcDbEntity
  8
01
100
AcDbLine
 10
5068.865916525997
 20
-307.2834834156547
 30
0.0000000001057481
 11
5069.336970603145
 21
-308.4260272083793
 31
0.0000000001057481
  0
LINE
  5
B2A7
330
18
100
AcDbEntity
  8
01
100
AcDbLine
 10
5069.336970603145
 20
-308.4260272083793
 30
0.0000000001057481
 11
5069.695262229122
 21
-309.6089610157524
 31
0.0000000001057481
  0
LINE
  5
B2A8
330
18
100
AcDbEntity
  8
01
100
AcDbLine
 10
5069.695262229122
 20
-309.6089610157524
 30
0.0000000001057481
 11
5069.937297141231
 21
-310.8208788929496
 31
0.0000000001057481
  0
LINE
  5
B2A9
330
18
100
AcDbEntity
  8
01
100
AcDbLine
 10
5069.937297141231
 20
-310.8208788929496
 30
0.0000000001057481
 11
5070.060862815059
 21
-312.0505961475883
 31
0.0000000001057481
  0
LINE
  5
B2AA
330
18
100
AcDbEntity
  8
01
100
AcDbLine
 10
5070.060862815059
 20
-312.0505961475883
 30
0.0000000001057481
 11
5070.064784323848
 21
-313.2864932117973
 31
0.0000000001057481
  0
LINE
  5
B2AB
330
18
100
AcDbEntity
  8
01
100
AcDbLine
 10
5070.064784323848
 20
-313.2864932117973
 30
0.0000000001057481
 11
5069.949046408809
 21
-314.5169619617973
 31
0.0000000001057481
  0
LINE
  5
B2AC
330
18
100
AcDbEntity
  8
01
100
AcDbLine
 10
5069.949046408809
 20
-314.5169619617973
 30
0.0000000001057481
 11
5069.714701926388
 21
-315.7304400501762
 31
0.0000000001057481
  0
LINE
  5
B2AD
330
18
100
AcDbEntity
  8
01
100
AcDbLine
 10
5069.714701926388
 20
-315.7304400501762
 30
0.0000000001057481
 11
5069.36391762463
 21
-316.9155062733207
 31
0.0000000001057481
  0
LINE
  5
B2AE
330
18
100
AcDbEntity
  8
01
100
AcDbLine
 10
5069.36391762463
 20
-316.9155062733207
 30
0.0000000001057481
 11
5068.865916525997
 21
-318.1345423756156
 31
0.0000000001057481
  0
LINE
  5
B2AF
330
18
100
AcDbEntity
  8
01
100
AcDbLine
 10
5056.515940940059
 20
-302.708551317266
 30
0.0000000001057481
 11
5055.996119773067
 21
-302.7065905628715
 31
0.0000000001057481
  0
LINE
  5
B2B0
330
18
100
AcDbEntity
  8
01
100
AcDbLine
 10
5055.996119773067
 20
-302.7065905628715
 30
0.0000000001057481
 11
5055.380427634395
 21
-302.7030009327445
 31
0.0000000001057481
  0
LINE
  5
B2B1
330
18
100
AcDbEntity
  8
01
100
AcDbLine
 10
5055.380427634395
 20
-302.7030009327445
 30
0.0000000001057481
 11
5054.623805319942
 21
-302.6973170338188
 31
0.0000000001057481
  0
LINE
  5
B2B2
330
18
100
AcDbEntity
  8
01
100
AcDbLine
 10
5054.623805319942
 20
-302.6973170338188
 30
0.0000000001057481
 11
5053.709956442989
 21
-302.6890238819633
 31
0.0000000001057481
  0
LINE
  5
B2B3
330
18
100
AcDbEntity
  8
01
100
AcDbLine
 10
5053.709956442989
 20
-302.6890238819633
 30
0.0000000001057481
 11
5052.640651023067
 21
-302.6775187550102
 31
0.0000000001057481
  0
LINE
  5
B2B4
330
18
100
AcDbEntity
  8
01
100
AcDbLine
 10
5052.640651023067
 20
-302.6775187550102
 30
0.0000000001057481
 11
5051.428874289669
 21
-302.662221818975
 31
0.0000000001057481
  0
LINE
  5
B2B5
330
18
100
AcDbEntity
  8
01
100
AcDbLine
 10
5051.428874289669
 20
-302.662221818975
 30
0.0000000001057481
 11
5050.094294821895
 21
-302.6426486073051
 31
0.0000000001057481
  0
LINE
  5
B2B6
330
18
100
AcDbEntity
  8
01
100
AcDbLine
 10
5050.094294821895
 20
-302.6426486073051
 30
0.0000000001057481
 11
5048.663996970333
 21
-302.6187533436332
 31
0.0000000001057481
  0
LINE
  5
B2B7
330
18
100
AcDbEntity
  8
01
100
AcDbLine
 10
5048.663996970333
 20
-302.6187533436332
 30
0.0000000001057481
 11
5047.17119911877
 21
-302.591722398809
 31
0.0000000001057481
  0
LINE
  5
B2B8
330
18
100
AcDbEntity
  8
01
100
AcDbLine
 10
5047.17119911877
 20
-302.591722398809
 30
0.0000000001057481
 11
5045.655436789669
 21
-302.5647410450492
 31
0.0000000001057481
  0
LINE
  5
B2B9
330
18
100
AcDbEntity
  8
01
100
AcDbLine
 10
5045.655436789669
 20
-302.5647410450492
 30
0.0000000001057481
 11
5044.142512595333
 21
-302.5414332447563
 31
0.0000000001057481
  0
LINE
  5
B2BA
330
18
100
AcDbEntity
  8
01
100
AcDbLine
 10
5044.142512595333
 20
-302.5414332447563
 30
0.0000000001057481
 11
5042.629100119747
 21
-302.5241755543266
 31
0.0000000001057481
  0
LINE
  5
B2BB
330
18
100
AcDbEntity
  8
01
100
AcDbLine
 10
5042.629100119747
 20
-302.5241755543266
 30
0.0000000001057481
 11
5041.114756858028
 21
-302.5154971180473
 31
0.0000000001057481
  0
LINE
  5
B2BC
330
18
100
AcDbEntity
  8
01
100
AcDbLine
 10
5041.114756858028
 20
-302.5154971180473
 30
0.0000000001057481
 11
5039.598643576778
 21
-302.5159625111137
 31
0.0000000001057481
  0
LINE
  5
B2BD
330
18
100
AcDbEntity
  8
01
100
AcDbLine
 10
5039.598643576778
 20
-302.5159625111137
 30
0.0000000001057481
 11
5038.080302512325
 21
-302.5252245960746
 31
0.0000000001057481
  0
LINE
  5
B2BE
330
18
100
AcDbEntity
  8
01
100
AcDbLine
 10
5038.080302512325
 20
-302.5252245960746
 30
0.0000000001057481
 11
5036.559642111934
 21
-302.5412272511039
 31
0.0000000001057481
  0
LINE
  5
B2BF
330
18
100
AcDbEntity
  8
01
100
AcDbLine
 10
5036.559642111934
 20
-302.5412272511039
 30
0.0000000001057481
 11
5035.036784445919
 21
-302.5612315235649
 31
0.0000000001057481
  0
LINE
  5
B2C0
330
18
100
AcDbEntity
  8
01
100
AcDbLine
 10
5035.036784445919
 20
-302.5612315235649
 30
0.0000000001057481
 11
5033.511912619747
 21
-302.5831240711723
 31
0.0000000001057481
  0
LINE
  5
B2C1
330
18
100
AcDbEntity
  8
01
100
AcDbLine
 10
5033.511912619747
 20
-302.5831240711723
 30
0.0000000001057481
 11
5031.985362326778
 21
-302.6052035389457
 31
0.0000000001057481
  0
LINE
  5
B2C2
330
18
100
AcDbEntity
  8
01
100
AcDbLine
 10
5031.985362326778
 20
-302.6052035389457
 30
0.0000000001057481
 11
5030.457438742794
 21
-302.6260661182914
 31
0.0000000001057481
  0
LINE
  5
B2C3
330
18
100
AcDbEntity
  8
01
100
AcDbLine
 10
5030.457438742794
 20
-302.6260661182914
 30
0.0000000001057481
 11
5028.928386008419
 21
-302.6449908314262
 31
0.0000000001057481
  0
LINE
  5
B2C4
330
18
100
AcDbEntity
  8
01
100
AcDbLine
 10
5028.928386008419
 20
-302.6449908314262
 30
0.0000000001057481
 11
5027.398539817013
 21
-302.6614016590629
 31
0.0000000001057481
  0
LINE
  5
B2C5
330
18
100
AcDbEntity
  8
01
100
AcDbLine
 10
5027.398539817013
 20
-302.6614016590629
 30
0.0000000001057481
 11
5025.8681443092
 21
-302.6752833424125
 31
0.0000000001057481
  0
LINE
  5
B2C6
330
18
100
AcDbEntity
  8
01
100
AcDbLine
 10
5025.8681443092
 20
-302.6752833424125
 30
0.0000000001057481
 11
5024.337260520138
 21
-302.6869410572563
 31
0.0000000001057481
  0
LINE
  5
B2C7
330
18
100
AcDbEntity
  8
01
100
AcDbLine
 10
5024.337260520138
 20
-302.6869410572563
 30
0.0000000001057481
 11
5022.805980002559
 21
-302.6961916981254
 31
0.0000000001057481
  0
LINE
  5
B2C8
330
18
100
AcDbEntity
  8
01
100
AcDbLine
 10
5022.805980002559
 20
-302.6961916981254
 30
0.0000000001057481
 11
5021.274363791622
 21
-302.7030619679008
 31
0.0000000001057481
  0
LINE
  5
B2C9
330
18
100
AcDbEntity
  8
01
100
AcDbLine
 10
5021.274363791622
 20
-302.7030619679008
 30
0.0000000001057481
 11
5019.734751975216
 21
-302.7064913807426
 31
0.0000000001057481
  0
LINE
  5
B2CA
330
18
100
AcDbEntity
  8
01
100
AcDbLine
 10
5056.515940940059
 20
-322.7094668446098
 30
0.0000000001057481
 11
5055.996119773067
 21
-322.7114314137016
 31
0.0000000001057481
  0
LINE
  5
B2CB
330
18
100
AcDbEntity
  8
01
100
AcDbLine
 10
5055.996119773067
 20
-322.7114314137016
 30
0.0000000001057481
 11
5055.380427634395
 21
-322.7150210438285
 31
0.0000000001057481
  0
LINE
  5
B2CC
330
18
100
AcDbEntity
  8
01
100
AcDbLine
 10
5055.380427634395
 20
-322.7150210438285
 30
0.0000000001057481
 11
5054.623805319942
 21
-322.7207049427543
 31
0.0000000001057481
  0
LINE
  5
B2CD
330
18
100
AcDbEntity
  8
01
100
AcDbLine
 10
5054.623805319942
 20
-322.7207049427543
 30
0.0000000001057481
 11
5053.709956442989
 21
-322.7289942799125
 31
0.0000000001057481
  0
LINE
  5
B2CE
330
18
100
AcDbEntity
  8
01
100
AcDbLine
 10
5053.709956442989
 20
-322.7289942799125
 30
0.0000000001057481
 11
5052.640651023067
 21
-322.7405032215629
 31
0.0000000001057481
  0
LINE
  5
B2CF
330
18
100
AcDbEntity
  8
01
100
AcDbLine
 10
5052.640651023067
 20
-322.7405032215629
 30
0.0000000001057481
 11
5051.428874289669
 21
-322.7558001575981
 31
0.0000000001057481
  0
LINE
  5
B2D0
330
18
100
AcDbEntity
  8
01
100
AcDbLine
 10
5051.428874289669
 20
-322.7558001575981
 30
0.0000000001057481
 11
5050.094294821895
 21
-322.775373369268
 31
0.0000000001057481
  0
LINE
  5
B2D1
330
18
100
AcDbEntity
  8
01
100
AcDbLine
 10
5050.094294821895
 20
-322.775373369268
 30
0.0000000001057481
 11
5048.663996970333
 21
-322.7992686329399
 31
0.0000000001057481
  0
LINE
  5
B2D2
330
18
100
AcDbEntity
  8
01
100
AcDbLine
 10
5048.663996970333
 20
-322.7992686329399
 30
0.0000000001057481
 11
5047.17119911877
 21
-322.8262957630668
 31
0.0000000001057481
  0
LINE
  5
B2D3
330
18
100
AcDbEntity
  8
01
100
AcDbLine
 10
5047.17119911877
 20
-322.8262957630668
 30
0.0000000001057481
 11
5045.655436789669
 21
-322.8532771168266
 31
0.0000000001057481
  0
LINE
  5
B2D4
330
18
100
AcDbEntity
  8
01
100
AcDbLine
 10
5045.655436789669
 20
-322.8532771168266
 30
0.0000000001057481
 11
5044.142512595333
 21
-322.8765887318168
 31
0.0000000001057481
  0
LINE
  5
B2D5
330
18
100
AcDbEntity
  8
01
100
AcDbLine
 10
5044.142512595333
 20
-322.8765887318168
 30
0.0000000001057481
 11
5042.629100119747
 21
-322.8938464222465
 31
0.0000000001057481
  0
LINE
  5
B2D6
330
18
100
AcDbEntity
  8
01
100
AcDbLine
 10
5042.629100119747
 20
-322.8938464222465
 30
0.0000000001057481
 11
5041.114756858028
 21
-322.9025210438285
 31
0.0000000001057481
  0
LINE
  5
B2D7
330
18
100
AcDbEntity
  8
01
100
AcDbLine
 10
5041.114756858028
 20
-322.9025210438285
 30
0.0000000001057481
 11
5039.598643576778
 21
-322.9020556507621
 31
0.0000000001057481
  0
LINE
  5
B2D8
330
18
100
AcDbEntity
  8
01
100
AcDbLine
 10
5039.598643576778
 20
-322.9020556507621
 30
0.0000000001057481
 11
5038.080302512325
 21
-322.8927973804985
 31
0.0000000001057481
  0
LINE
  5
B2D9
330
18
100
AcDbEntity
  8
01
100
AcDbLine
 10
5038.080302512325
 20
-322.8927973804985
 30
0.0000000001057481
 11
5036.559642111934
 21
-322.8767947254692
 31
0.0000000001057481
  0
LINE
  5
B2DA
330
18
100
AcDbEntity
  8
01
100
AcDbLine
 10
5036.559642111934
 20
-322.8767947254692
 30
0.0000000001057481
 11
5035.036784445919
 21
-322.8567904530082
 31
0.0000000001057481
  0
LINE
  5
B2DB
330
18
100
AcDbEntity
  8
01
100
AcDbLine
 10
5035.036784445919
 20
-322.8567904530082
 30
0.0000000001057481
 11
5033.511912619747
 21
-322.8348979054008
 31
0.0000000001057481
  0
LINE
  5
B2DC
330
18
100
AcDbEntity
  8
01
100
AcDbLine
 10
5033.511912619747
 20
-322.8348979054008
 30
0.0000000001057481
 11
5031.985362326778
 21
-322.8128146229301
 31
0.0000000001057481
  0
LINE
  5
B2DD
330
18
100
AcDbEntity
  8
01
100
AcDbLine
 10
5031.985362326778
 20
-322.8128146229301
 30
0.0000000001057481
 11
5030.457438742794
 21
-322.7919520435844
 31
0.0000000001057481
  0
LINE
  5
B2DE
330
18
100
AcDbEntity
  8
01
100
AcDbLine
 10
5030.457438742794
 20
-322.7919520435844
 30
0.0000000001057481
 11
5028.928386008419
 21
-322.7730311451469
 31
0.0000000001057481
  0
LINE
  5
B2DF
330
18
100
AcDbEntity
  8
01
100
AcDbLine
 10
5028.928386008419
 20
-322.7730311451469
 30
0.0000000001057481
 11
5027.398539817013
 21
-322.7566165028129
 31
0.0000000001057481
  0
LINE
  5
B2E0
330
18
100
AcDbEntity
  8
01
100
AcDbLine
 10
5027.398539817013
 20
-322.7566165028129
 30
0.0000000001057481
 11
5025.8681443092
 21
-322.7427348194633
 31
0.0000000001057481
  0
LINE
  5
B2E1
330
18
100
AcDbEntity
  8
01
100
AcDbLine
 10
5025.8681443092
 20
-322.7427348194633
 30
0.0000000001057481
 11
5024.337260520138
 21
-322.7310809193168
 31
0.0000000001057481
  0
LINE
  5
B2E2
330
18
100
AcDbEntity
  8
01
100
AcDbLine
 10
5024.337260520138
 20
-322.7310809193168
 30
0.0000000001057481
 11
5022.805980002559
 21
-322.7218264637504
 31
0.0000000001057481
  0
LINE
  5
B2E3
330
18
100
AcDbEntity
  8
01
100
AcDbLine
 10
5022.805980002559
 20
-322.7218264637504
 30
0.0000000001057481
 11
5021.274363791622
 21
-322.7149600086723
 31
0.0000000001057481
  0
LINE
  5
B2E4
330
18
100
AcDbEntity
  8
01
100
AcDbLine
 10
5021.274363791622
 20
-322.7149600086723
 30
0.0000000001057481
 11
5019.734751975216
 21
-322.7115267811332
 31
0.0000000001057481
  0
LINE
  5
B2E5
330
18
100
AcDbEntity
  8
01
100
AcDbLine
 10
5026.406077658809
 20
-332.9939040241752
 30
0.0000000001057481
 11
5026.181865012325
 21
-333.1517352161918
 31
0.0000000001057481
  0
LINE
  5
B2E6
330
18
100
AcDbEntity
  8
01
100
AcDbLine
 10
5026.181865012325
 20
-333.1517352161918
 30
0.0000000001057481
 11
5025.281108176388
 21
-333.7838896809135
 31
0.0000000001057481
  0
LINE
  5
B2E7
330
18
100
AcDbEntity
  8
01
100
AcDbLine
 10
5066.253535544552
 20
-322.0840128956352
 30
0.0000000001057481
 11
5066.542643820919
 21
-321.3348902760063
 31
0.0000000001057481
  0
LINE
  5
B2E8
330
18
100
AcDbEntity
  8
01
100
AcDbLine
 10
5066.542643820919
 20
-321.3348902760063
 30
0.0000000001057481
 11
5066.807582175411
 21
-320.5768717823539
 31
0.0000000001057481
  0
LINE
  5
B2E9
330
18
100
AcDbEntity
  8
01
100
AcDbLine
 10
5066.807582175411
 20
-320.5768717823539
 30
0.0000000001057481
 11
5067.0956833717
 21
-319.6477870045219
 31
0.0000000001057481
  0
LINE
  5
B2EA
330
18
100
AcDbEntity
  8
01
100
AcDbLine
 10
5066.253535544552
 20
-303.3340128956352
 30
0.0000000001057481
 11
5066.542643820919
 21
-304.0831355152641
 31
0.0000000001057481
  0
LINE
  5
B2EB
330
18
100
AcDbEntity
  8
01
100
AcDbLine
 10
5066.542643820919
 20
-304.0831355152641
 30
0.0000000001057481
 11
5066.807582175411
 21
-304.8411540089164
 31
0.0000000001057481
  0
LINE
  5
B2EC
330
18
100
AcDbEntity
  8
01
100
AcDbLine
 10
5066.807582175411
 20
-304.8411540089164
 30
0.0000000001057481
 11
5067.0956833717
 21
-305.7702387867485
 31
0.0000000001057481
  0
LINE
  5
B2ED
330
18
100
AcDbEntity
  8
01
100
AcDbLine
 10
5020.314646994747
 20
-337.0253447590385
 30
0.0000000001057481
 11
5021.295573508419
 21
-336.4382227955375
 31
0.0000000001057481
  0
LINE
  5
B2EE
330
18
100
AcDbEntity
  8
01
100
AcDbLine
 10
5021.295573508419
 20
-336.4382227955375
 30
0.0000000001057481
 11
5022.260051047481
 21
-335.8292616901908
 31
0.0000000001057481
  0
LINE
  5
B2EF
330
18
100
AcDbEntity
  8
01
100
AcDbLine
 10
5022.260051047481
 20
-335.8292616901908
 30
0.0000000001057481
 11
5023.211558615841
 21
-335.2035292683158
 31
0.0000000001057481
  0
LINE
  5
B2F0
330
18
100
AcDbEntity
  8
01
100
AcDbLine
 10
5023.211558615841
 20
-335.2035292683158
 30
0.0000000001057481
 11
5024.153483664669
 21
-334.5652331409965
 31
0.0000000001057481
  0
LINE
  5
B2F1
330
18
100
AcDbEntity
  8
01
100
AcDbLine
 10
5024.153483664669
 20
-334.5652331409965
 30
0.0000000001057481
 11
5025.281077658809
 21
-333.7838458118949
 31
0.0000000001057481
  0
LINE
  5
B2F2
330
18
100
AcDbEntity
  8
01
100
AcDbLine
 10
5056.39873818127
 20
-322.7098025379692
 30
0.0000000001057481
 11
5054.150615012325
 21
-322.7471179066215
 31
0.0000000001057481
  0
LINE
  5
B2F3
330
18
100
AcDbEntity
  8
01
100
AcDbLine
 10
5054.150615012325
 20
-322.7471179066215
 30
0.0000000001057481
 11
5051.897975241817
 21
-322.862157732061
 31
0.0000000001057481
  0
LINE
  5
B2F4
330
18
100
AcDbEntity
  8
01
100
AcDbLine
 10
5051.897975241817
 20
-322.862157732061
 30
0.0000000001057481
 11
5049.593867575802
 21
-323.0772875843559
 31
0.0000000001057481
  0
LINE
  5
B2F5
330
18
100
AcDbEntity
  8
01
100
AcDbLine
 10
5049.593867575802
 20
-323.0772875843559
 30
0.0000000001057481
 11
5047.277751242794
 21
-323.4083270130668
 31
0.0000000001057481
  0
LINE
  5
B2F6
330
18
100
AcDbEntity
  8
01
100
AcDbLine
 10
5047.277751242794
 20
-323.4083270130668
 30
0.0000000001057481
 11
5044.976451193966
 21
-323.866739183477
 31
0.0000000001057481
  0
LINE
  5
B2F7
330
18
100
AcDbEntity
  8
01
100
AcDbLine
 10
5044.976451193966
 20
-323.866739183477
 30
0.0000000001057481
 11
5042.708415305294
 21
-324.4604853687797
 31
0.0000000001057481
  0
LINE
  5
B2F8
330
18
100
AcDbEntity
  8
01
100
AcDbLine
 10
5042.708415305294
 20
-324.4604853687797
 30
0.0000000001057481
 11
5040.477946555294
 21
-325.1891421375785
 31
0.0000000001057481
  0
LINE
  5
B2F9
330
18
100
AcDbEntity
  8
01
100
AcDbLine
 10
5040.477946555294
 20
-325.1891421375785
 30
0.0000000001057481
 11
5038.287455832638
 21
-326.0444659290824
 31
0.0000000001057481
  0
LINE
  5
B2FA
330
18
100
AcDbEntity
  8
01
100
AcDbLine
 10
5038.287455832638
 20
-326.0444659290824
 30
0.0000000001057481
 11
5036.141398703731
 21
-327.0140093861137
 31
0.0000000001057481
  0
LINE
  5
B2FB
330
18
100
AcDbEntity
  8
01
100
AcDbLine
 10
5036.141398703731
 20
-327.0140093861137
 30
0.0000000001057481
 11
5034.048655783809
 21
-328.0827082691703
 31
0.0000000001057481
  0
LINE
  5
B2FC
330
18
100
AcDbEntity
  8
01
100
AcDbLine
 10
5034.048655783809
 20
-328.0827082691703
 30
0.0000000001057481
 11
5032.026896750606
 21
-329.2336939869438
 31
0.0000000001057481
  0
LINE
  5
B2FD
330
18
100
AcDbEntity
  8
01
100
AcDbLine
 10
5032.026896750606
 20
-329.2336939869438
 30
0.0000000001057481
 11
5030.099955832638
 21
-330.4437159596
 31
0.0000000001057481
  0
LINE
  5
B2FE
330
18
100
AcDbEntity
  8
01
100
AcDbLine
 10
5030.099955832638
 20
-330.4437159596
 30
0.0000000001057481
 11
5028.276988303341
 21
-331.6801547108207
 31
0.0000000001057481
  0
LINE
  5
B2FF
330
18
100
AcDbEntity
  8
01
100
AcDbLine
 10
5028.276988303341
 20
-331.6801547108207
 30
0.0000000001057481
 11
5026.406077658809
 21
-332.9939040241752
 31
0.0000000001057481
  0
LINE
  5
B300
330
18
100
AcDbEntity
  8
01
100
AcDbLine
 10
5020.314646994747
 20
-288.392675310186
 30
0.0000000001057481
 11
5022.200297629513
 21
-289.5501994190727
 31
0.0000000001057481
  0
LINE
  5
B301
330
18
100
AcDbEntity
  8
01
100
AcDbLine
 10
5022.200297629513
 20
-289.5501994190727
 30
0.0000000001057481
 11
5024.036387717403
 21
-290.7725962696586
 31
0.0000000001057481
  0
LINE
  5
B302
330
18
100
AcDbEntity
  8
01
100
AcDbLine
 10
5024.036387717403
 20
-290.7725962696586
 30
0.0000000001057481
 11
5025.846354758419
 21
-292.0303553638969
 31
0.0000000001057481
  0
LINE
  5
B303
330
18
100
AcDbEntity
  8
01
100
AcDbLine
 10
5025.846354758419
 20
-292.0303553638969
 30
0.0000000001057481
 11
5027.651316916622
 21
-293.3003748951469
 31
0.0000000001057481
  0
LINE
  5
B304
330
18
100
AcDbEntity
  8
01
100
AcDbLine
 10
5027.651316916622
 20
-293.3003748951469
 30
0.0000000001057481
 11
5029.490397727169
 21
-294.5692500172172
 31
0.0000000001057481
  0
LINE
  5
B305
330
18
100
AcDbEntity
  8
01
100
AcDbLine
 10
5029.490397727169
 20
-294.5692500172172
 30
0.0000000001057481
 11
5031.429515158809
 21
-295.8211115894828
 31
0.0000000001057481
  0
LINE
  5
B306
330
18
100
AcDbEntity
  8
01
100
AcDbLine
 10
5031.429515158809
 20
-295.8211115894828
 30
0.0000000001057481
 11
5033.474620139278
 21
-297.0205515919242
 31
0.0000000001057481
  0
LINE
  5
B307
330
18
100
AcDbEntity
  8
01
100
AcDbLine
 10
5033.474620139278
 20
-297.0205515919242
 30
0.0000000001057481
 11
5035.600535666622
 21
-298.1395091114555
 31
0.0000000001057481
  0
LINE
  5
B308
330
18
100
AcDbEntity
  8
01
100
AcDbLine
 10
5035.600535666622
 20
-298.1395091114555
 30
0.0000000001057481
 11
5037.78660134045
 21
-299.158803850225
 31
0.0000000001057481
  0
LINE
  5
B309
330
18
100
AcDbEntity
  8
01
100
AcDbLine
 10
5037.78660134045
 20
-299.158803850225
 30
0.0000000001057481
 11
5040.020793234981
 21
-300.0617732105766
 31
0.0000000001057481
  0
LINE
  5
B30A
330
18
100
AcDbEntity
  8
01
100
AcDbLine
 10
5040.020793234981
 20
-300.0617732105766
 30
0.0000000001057481
 11
5042.297679221309
 21
-300.8341883717094
 31
0.0000000001057481
  0
LINE
  5
B30B
330
18
100
AcDbEntity
  8
01
100
AcDbLine
 10
5042.297679221309
 20
-300.8341883717094
 30
0.0000000001057481
 11
5044.614299094356
 21
-301.4662722645317
 31
0.0000000001057481
  0
LINE
  5
B30C
330
18
100
AcDbEntity
  8
01
100
AcDbLine
 10
5044.614299094356
 20
-301.4662722645317
 30
0.0000000001057481
 11
5046.967341696895
 21
-301.9557437000785
 31
0.0000000001057481
  0
LINE
  5
B30D
330
18
100
AcDbEntity
  8
01
100
AcDbLine
 10
5046.967341696895
 20
-301.9557437000785
 30
0.0000000001057481
 11
5049.338954245723
 21
-302.3102091846977
 31
0.0000000001057481
  0
LINE
  5
B30E
330
18
100
AcDbEntity
  8
01
100
AcDbLine
 10
5049.338954245723
 20
-302.3102091846977
 30
0.0000000001057481
 11
5051.701686179317
 21
-302.5415972767387
 31
0.0000000001057481
  0
LINE
  5
B30F
330
18
100
AcDbEntity
  8
01
100
AcDbLine
 10
5051.701686179317
 20
-302.5415972767387
 30
0.0000000001057481
 11
5054.014033591427
 21
-302.6663264332328
 31
0.0000000001057481
  0
LINE
  5
B310
330
18
100
AcDbEntity
  8
01
100
AcDbLine
 10
5054.014033591427
 20
-302.6663264332328
 30
0.0000000001057481
 11
5056.396098410763
 21
-302.7082118092094
 31
0.0000000001057481
  0
LINE
  5
B311
330
18
100
AcDbEntity
  8
01
100
AcDbLine
 10
5159.299404227413
 20
-302.7084783257214
 30
0.0000000001127424
 11
5157.785854422726
 21
-302.7065099419324
 31
0.0000000001127424
  0
LINE
  5
B312
330
18
100
AcDbEntity
  8
01
100
AcDbLine
 10
5157.785854422726
 20
-302.7065099419324
 30
0.0000000001127424
 11
5156.308635794796
 21
-302.7029241265027
 31
0.0000000001127424
  0
LINE
  5
B313
330
18
100
AcDbEntity
  8
01
100
AcDbLine
 10
5156.308635794796
 20
-302.7029241265027
 30
0.0000000001127424
 11
5154.898037039913
 21
-302.6972325981824
 31
0.0000000001127424
  0
LINE
  5
B314
330
18
100
AcDbEntity
  8
01
100
AcDbLine
 10
5154.898037039913
 20
-302.6972325981824
 30
0.0000000001127424
 11
5153.582622611202
 21
-302.6889470757214
 31
0.0000000001127424
  0
LINE
  5
B315
330
18
100
AcDbEntity
  8
01
100
AcDbLine
 10
5153.582622611202
 20
-302.6889470757214
 30
0.0000000001127424
 11
5152.388378226437
 21
-302.6774266899793
 31
0.0000000001127424
  0
LINE
  5
B316
330
18
100
AcDbEntity
  8
01
100
AcDbLine
 10
5152.388378226437
 20
-302.6774266899793
 30
0.0000000001127424
 11
5151.335720145382
 21
-302.6621373833386
 31
0.0000000001127424
  0
LINE
  5
B317
330
18
100
AcDbEntity
  8
01
100
AcDbLine
 10
5151.335720145382
 20
-302.6621373833386
 30
0.0000000001127424
 11
5150.439403617062
 21
-302.6425450981824
 31
0.0000000001127424
  0
LINE
  5
B318
330
18
100
AcDbEntity
  8
01
100
AcDbLine
 10
5150.439403617062
 20
-302.6425450981824
 30
0.0000000001127424
 11
5149.700420462765
 21
-302.6186498345105
 31
0.0000000001127424
  0
LINE
  5
B319
330
18
100
AcDbEntity
  8
01
100
AcDbLine
 10
5149.700420462765
 20
-302.6186498345105
 30
0.0000000001127424
 11
5149.094478690304
 21
-302.5916112602918
 31
0.0000000001127424
  0
LINE
  5
B31A
330
18
100
AcDbEntity
  8
01
100
AcDbLine
 10
5149.094478690304
 20
-302.5916112602918
 30
0.0000000001127424
 11
5148.567043387569
 21
-302.5646184624402
 31
0.0000000001127424
  0
LINE
  5
B31B
330
18
100
AcDbEntity
  8
01
100
AcDbLine
 10
5148.567043387569
 20
-302.5646184624402
 30
0.0000000001127424
 11
5148.044719779171
 21
-302.5413182915418
 31
0.0000000001127424
  0
LINE
  5
B31C
330
18
100
AcDbEntity
  8
01
100
AcDbLine
 10
5148.044719779171
 20
-302.5413182915418
 30
0.0000000001127424
 11
5147.517925345577
 21
-302.5240758599011
 31
0.0000000001127424
  0
LINE
  5
B31D
330
18
100
AcDbEntity
  8
01
100
AcDbLine
 10
5147.517925345577
 20
-302.5240758599011
 30
0.0000000001127424
 11
5146.989681327022
 21
-302.5154088677136
 31
0.0000000001127424
  0
LINE
  5
B31E
330
18
100
AcDbEntity
  8
01
100
AcDbLine
 10
5146.989681327022
 20
-302.5154088677136
 30
0.0000000001127424
 11
5146.463619315304
 21
-302.5158971489636
 31
0.0000000001127424
  0
LINE
  5
B31F
330
18
100
AcDbEntity
  8
01
100
AcDbLine
 10
5146.463619315304
 20
-302.5158971489636
 30
0.0000000001127424
 11
5145.943142020382
 21
-302.5251897515027
 31
0.0000000001127424
  0
LINE
  5
B320
330
18
100
AcDbEntity
  8
01
100
AcDbLine
 10
5145.943142020382
 20
-302.5251897515027
 30
0.0000000001127424
 11
5145.43015679089
 21
-302.5411962212293
 31
0.0000000001127424
  0
LINE
  5
B321
330
18
100
AcDbEntity
  8
01
100
AcDbLine
 10
5145.43015679089
 20
-302.5411962212293
 30
0.0000000001127424
 11
5144.925869071163
 21
-302.5612157524793
 31
0.0000000001127424
  0
LINE
  5
B322
330
18
100
AcDbEntity
  8
01
100
AcDbLine
 10
5144.925869071163
 20
-302.5612157524793
 30
0.0000000001127424
 11
5144.429973685421
 21
-302.5831121147839
 31
0.0000000001127424
  0
LINE
  5
B323
330
18
100
AcDbEntity
  8
01
100
AcDbLine
 10
5144.429973685421
 20
-302.5831121147839
 30
0.0000000001127424
 11
5143.941204154171
 21
-302.6051915825574
 31
0.0000000001127424
  0
LINE
  5
B324
330
18
100
AcDbEntity
  8
01
100
AcDbLine
 10
5143.941204154171
 20
-302.6051915825574
 30
0.0000000001127424
 11
5143.458339774288
 21
-302.6260656059949
 31
0.0000000001127424
  0
LINE
  5
B325
330
18
100
AcDbEntity
  8
01
100
AcDbLine
 10
5143.458339774288
 20
-302.6260656059949
 30
0.0000000001127424
 11
5142.98028191296
 21
-302.6449712456433
 31
0.0000000001127424
  0
LINE
  5
B326
330
18
100
AcDbEntity
  8
01
100
AcDbLine
 10
5142.98028191296
 20
-302.6449712456433
 30
0.0000000001127424
 11
5142.505977713741
 21
-302.6613897026746
 31
0.0000000001127424
  0
LINE
  5
B327
330
18
100
AcDbEntity
  8
01
100
AcDbLine
 10
5142.505977713741
 20
-302.6613897026746
 30
0.0000000001127424
 11
5142.034557425655
 21
-302.6752599419324
 31
0.0000000001127424
  0
LINE
  5
B328
330
18
100
AcDbEntity
  8
01
100
AcDbLine
 10
5142.034557425655
 20
-302.6752599419324
 30
0.0000000001127424
 11
5141.565258109249
 21
-302.6869023979871
 31
0.0000000001127424
  0
LINE
  5
B329
330
18
100
AcDbEntity
  8
01
100
AcDbLine
 10
5141.565258109249
 20
-302.6869023979871
 30
0.0000000001127424
 11
5141.097591483272
 21
-302.6961492241589
 31
0.0000000001127424
  0
LINE
  5
B32A
330
18
100
AcDbEntity
  8
01
100
AcDbLine
 10
5141.097591483272
 20
-302.6961492241589
 30
0.0000000001127424
 11
5140.631237113155
 21
-302.7030309380261
 31
0.0000000001127424
  0
LINE
  5
B32B
330
18
100
AcDbEntity
  8
01
100
AcDbLine
 10
5140.631237113155
 20
-302.7030309380261
 30
0.0000000001127424
 11
5140.166240775265
 21
-302.706418389198
 31
0.0000000001127424
  0
LINE
  5
B32C
330
18
100
AcDbEntity
  8
01
100
AcDbLine
 10
5159.299404227413
 20
-322.7093938530652
 30
0.0000000001127424
 11
5157.785854422726
 21
-322.7113622368543
 31
0.0000000001127424
  0
LINE
  5
B32D
330
18
100
AcDbEntity
  8
01
100
AcDbLine
 10
5157.785854422726
 20
-322.7113622368543
 30
0.0000000001127424
 11
5156.308635794796
 21
-322.7149480522839
 31
0.0000000001127424
  0
LINE
  5
B32E
330
18
100
AcDbEntity
  8
01
100
AcDbLine
 10
5156.308635794796
 20
-322.7149480522839
 30
0.0000000001127424
 11
5154.898037039913
 21
-322.7206395806043
 31
0.0000000001127424
  0
LINE
  5
B32F
330
18
100
AcDbEntity
  8
01
100
AcDbLine
 10
5154.898037039913
 20
-322.7206395806043
 30
0.0000000001127424
 11
5153.582622611202
 21
-322.7289251030652
 31
0.0000000001127424
  0
LINE
  5
B330
330
18
100
AcDbEntity
  8
01
100
AcDbLine
 10
5153.582622611202
 20
-322.7289251030652
 30
0.0000000001127424
 11
5152.388378226437
 21
-322.7404454888074
 31
0.0000000001127424
  0
LINE
  5
B331
330
18
100
AcDbEntity
  8
01
100
AcDbLine
 10
5152.388378226437
 20
-322.7404454888074
 30
0.0000000001127424
 11
5151.335720145382
 21
-322.755734795448
 31
0.0000000001127424
  0
LINE
  5
B332
330
18
100
AcDbEntity
  8
01
100
AcDbLine
 10
5151.335720145382
 20
-322.755734795448
 30
0.0000000001127424
 11
5150.439403617062
 21
-322.7753270806043
 31
0.0000000001127424
  0
LINE
  5
B333
330
18
100
AcDbEntity
  8
01
100
AcDbLine
 10
5150.439403617062
 20
-322.7753270806043
 30
0.0000000001127424
 11
5149.700420462765
 21
-322.7992223442761
 31
0.0000000001127424
  0
LINE
  5
B334
330
18
100
AcDbEntity
  8
01
100
AcDbLine
 10
5149.700420462765
 20
-322.7992223442761
 30
0.0000000001127424
 11
5149.094478690304
 21
-322.8262609184949
 31
0.0000000001127424
  0
LINE
  5
B335
330
18
100
AcDbEntity
  8
01
100
AcDbLine
 10
5149.094478690304
 20
-322.8262609184949
 30
0.0000000001127424
 11
5148.567043387569
 21
-322.8532537163464
 31
0.0000000001127424
  0
LINE
  5
B336
330
18
100
AcDbEntity
  8
01
100
AcDbLine
 10
5148.567043387569
 20
-322.8532537163464
 30
0.0000000001127424
 11
5148.044719779171
 21
-322.8765538872449
 31
0.0000000001127424
  0
LINE
  5
B337
330
18
100
AcDbEntity
  8
01
100
AcDbLine
 10
5148.044719779171
 20
-322.8765538872449
 30
0.0000000001127424
 11
5147.517925345577
 21
-322.8937963188855
 31
0.0000000001127424
  0
LINE
  5
B338
330
18
100
AcDbEntity
  8
01
100
AcDbLine
 10
5147.517925345577
 20
-322.8937963188855
 30
0.0000000001127424
 11
5146.989681327022
 21
-322.902463311073
 31
0.0000000001127424
  0
LINE
  5
B339
330
18
100
AcDbEntity
  8
01
100
AcDbLine
 10
5146.989681327022
 20
-322.902463311073
 30
0.0000000001127424
 11
5146.463619315304
 21
-322.901975029823
 31
0.0000000001127424
  0
LINE
  5
B33A
330
18
100
AcDbEntity
  8
01
100
AcDbLine
 10
5146.463619315304
 20
-322.901975029823
 30
0.0000000001127424
 11
5145.943142020382
 21
-322.8926824272839
 31
0.0000000001127424
  0
LINE
  5
B33B
330
18
100
AcDbEntity
  8
01
100
AcDbLine
 10
5145.943142020382
 20
-322.8926824272839
 30
0.0000000001127424
 11
5145.43015679089
 21
-322.8766759575574
 31
0.0000000001127424
  0
LINE
  5
B33C
330
18
100
AcDbEntity
  8
01
100
AcDbLine
 10
5145.43015679089
 20
-322.8766759575574
 30
0.0000000001127424
 11
5144.925869071163
 21
-322.8566564263074
 31
0.0000000001127424
  0
LINE
  5
B33D
330
18
100
AcDbEntity
  8
01
100
AcDbLine
 10
5144.925869071163
 20
-322.8566564263074
 30
0.0000000001127424
 11
5144.429973685421
 21
-322.8347600640027
 31
0.0000000001127424
  0
LINE
  5
B33E
330
18
100
AcDbEntity
  8
01
100
AcDbLine
 10
5144.429973685421
 20
-322.8347600640027
 30
0.0000000001127424
 11
5143.941204154171
 21
-322.8126805962293
 31
0.0000000001127424
  0
LINE
  5
B33F
330
18
100
AcDbEntity
  8
01
100
AcDbLine
 10
5143.941204154171
 20
-322.8126805962293
 30
0.0000000001127424
 11
5143.458339774288
 21
-322.7918065727918
 31
0.0000000001127424
  0
LINE
  5
B340
330
18
100
AcDbEntity
  8
01
100
AcDbLine
 10
5143.458339774288
 20
-322.7918065727918
 30
0.0000000001127424
 11
5142.98028191296
 21
-322.7729009331433
 31
0.0000000001127424
  0
LINE
  5
B341
330
18
100
AcDbEntity
  8
01
100
AcDbLine
 10
5142.98028191296
 20
-322.7729009331433
 30
0.0000000001127424
 11
5142.505977713741
 21
-322.7564824761121
 31
0.0000000001127424
  0
LINE
  5
B342
330
18
100
AcDbEntity
  8
01
100
AcDbLine
 10
5142.505977713741
 20
-322.7564824761121
 30
0.0000000001127424
 11
5142.034557425655
 21
-322.7426122368543
 31
0.0000000001127424
  0
LINE
  5
B343
330
18
100
AcDbEntity
  8
01
100
AcDbLine
 10
5142.034557425655
 20
-322.7426122368543
 30
0.0000000001127424
 11
5141.565258109249
 21
-322.7309697807996
 31
0.0000000001127424
  0
LINE
  5
B344
330
18
100
AcDbEntity
  8
01
100
AcDbLine
 10
5141.565258109249
 20
-322.7309697807996
 30
0.0000000001127424
 11
5141.097591483272
 21
-322.7217229546277
 31
0.0000000001127424
  0
LINE
  5
B345
330
18
100
AcDbEntity
  8
01
100
AcDbLine
 10
5141.097591483272
 20
-322.7217229546277
 30
0.0000000001127424
 11
5140.631237113155
 21
-322.7148412407605
 31
0.0000000001127424
  0
LINE
  5
B346
330
18
100
AcDbEntity
  8
01
100
AcDbLine
 10
5140.631237113155
 20
-322.7148412407605
 30
0.0000000001127424
 11
5140.166240775265
 21
-322.7114537895886
 31
0.0000000001127424
  0
LINE
  5
B347
330
18
100
AcDbEntity
  8
01
  6
BYBLOCK
100
AcDbLine
 10
5127.183443883462
 20
-290.3089360893933
 30
0.0000000001127424
 11
5127.880111777462
 21
-287.7089360893933
 31
0.0000000001127424
  0
LINE
  5
B348
330
18
100
AcDbEntity
  8
01
  6
BYBLOCK
100
AcDbLine
 10
5127.880111777462
 20
-287.7089360893933
 30
0.0000000001127424
 11
5128.576779671462
 21
-290.3089360893933
 31
0.0000000001127424
  0
LINE
  5
B349
330
18
100
AcDbEntity
  8
01
  6
BYBLOCK
100
AcDbLine
 10
5127.880111777462
 20
-287.7089360893933
 30
0.0000000001127424
 11
5127.880111777462
 21
-290.3089360893933
 31
0.0000000001127424
  0
LINE
  5
B34A
330
18
100
AcDbEntity
  8
01
  6
BYBLOCK
100
AcDbLine
 10
5128.576779671462
 20
-335.1089360893924
 30
0.0000000001127424
 11
5127.880111777462
 21
-337.7089360893924
 31
0.0000000001127424
  0
LINE
  5
B34B
330
18
100
AcDbEntity
  8
01
  6
BYBLOCK
100
AcDbLine
 10
5127.880111777462
 20
-337.7089360893924
 30
0.0000000001127424
 11
5127.183443883462
 21
-335.1089360893924
 31
0.0000000001127424
  0
LINE
  5
B34C
330
18
100
AcDbEntity
  8
01
  6
BYBLOCK
100
AcDbLine
 10
5127.880111777462
 20
-337.7089360893924
 30
0.0000000001127424
 11
5127.880111777462
 21
-335.1089360893924
 31
0.0000000001127424
  0
TEXT
  5
B34D
330
18
100
AcDbEntity
  8
01
  6
CONTINUOUS
100
AcDbText
 10
5126.970111777462
 20
-320.9084389959926
 30
0.0000000001127424
 40
4.55
  1
φ50
 50
90.0
100
AcDbText
1001
ACAD
1000
DSTYLE
1002
{
1070
     3
1000
φ<>
1070
    40
1040
1.3
1070
    45
1040
0.5
1002
}
  0
LINE
  5
B34E
330
18
100
AcDbEntity
  8
1DIM
100
AcDbLine
 10
5285.043654914618
 20
-322.7087323631413
 30
0.0000000001127424
 11
5319.180111777462
 21
-322.7087323631413
 31
0.0000000001127424
1001
ACAD
1000
DSTYLE
1002
{
1070
    40
1040
1.3
1070
    45
1040
0.5
1002
}
  0
LINE
  5
B34F
330
18
100
AcDbEntity
  8
1DIM
100
AcDbLine
 10
5284.830337043524
 20
-302.7087323631413
 30
0.0000000001127424
 11
5319.180111777462
 21
-302.7087323631413
 31
0.0000000001127424
1001
ACAD
1000
DSTYLE
1002
{
1070
    40
1040
1.3
1070
    45
1040
0.5
1002
}
  0
LINE
  5
B350
330
18
100
AcDbEntity
  8
1DIM
100
AcDbLine
 10
5317.880111777462
 20
-320.1087323631413
 30
0.0000000001127424
 11
5317.880111777462
 21
-305.3087323631413
 31
0.0000000001127424
1001
ACAD
1000
DSTYLE
1002
{
1070
    40
1040
1.3
1070
    45
1040
0.5
1002
}
  0
LINE
  5
B354
330
18
100
AcDbEntity
  8
1DIM
100
AcDbLine
 10
5267.896731235678
 20
-182.0498224880025
 30
0.0000000001127424
 11
5303.994833297279
 21
-182.0498224880025
 31
0.0000000001127424
1001
ACAD
1000
DSTYLE
1002
{
1070
    40
1040
1.3
1070
   271
1070
     0
1070
   341
1005
0
1002
}
  0
LINE
  5
B355
330
18
100
AcDbEntity
  8
1DIM
100
AcDbLine
 10
5265.635259774809
 20
-152.710254402496
 30
0.0000000001127424
 11
5303.994833297279
 21
-152.710254402496
 31
0.0000000001127424
1001
ACAD
1000
DSTYLE
1002
{
1070
    40
1040
1.3
1070
   271
1070
     0
1070
   341
1005
0
1002
}
  0
LINE
  5
B356
330
18
100
AcDbEntity
  8
1DIM
100
AcDbLine
 10
5302.694833297279
 20
-179.4498224880025
 30
0.0000000001127424
 11
5302.694833297279
 21
-155.310254402496
 31
0.0000000001127424
1001
ACAD
1000
DSTYLE
1002
{
1070
    40
1040
1.3
1070
   271
1070
     0
1070
   341
1005
0
1002
}
  0
LINE
  5
B35A
330
18
100
AcDbEntity
  8
1DIM
100
AcDbLine
 10
5214.25429708418
 20
-209.9076715820634
 30
0.0000000001127424
 11
5313.994833297279
 21
-209.9076715820634
 31
0.0000000001127424
1001
ACAD
1000
DSTYLE
1002
{
1070
    40
1040
1.3
1070
   341
1005
0
1002
}
  0
LINE
  5
B35B
330
18
100
AcDbEntity
  8
1DIM
100
AcDbLine
 10
5265.635259774809
 20
-152.710254402496
 30
0.0000000001127424
 11
5313.994833297279
 21
-152.7102544024961
 31
0.0000000001127424
1001
ACAD
1000
DSTYLE
1002
{
1070
    40
1040
1.3
1070
   341
1005
0
1002
}
  0
LINE
  5
B35C
330
18
100
AcDbEntity
  8
1DIM
100
AcDbLine
 10
5312.694833297279
 20
-207.3076715820634
 30
0.0000000001127424
 11
5312.694833297279
 21
-155.3102544024961
 31
0.0000000001127424
1001
ACAD
1000
DSTYLE
1002
{
1070
    40
1040
1.3
1070
   341
1005
0
1002
}
  0
LINE
  5
B360
330
18
100
AcDbEntity
  8
1DIM
100
AcDbLine
 10
5162.880111777462
 20
-174.210254402496
 30
0.0000000001127424
 11
5162.880111777462
 21
-230.2102544025004
 31
0.0000000001127424
1001
ACAD
1000
DSTYLE
1002
{
1070
    40
1040
1.3
1070
   271
1070
     0
1070
   341
1005
0
1002
}
  0
LINE
  5
B361
330
18
100
AcDbEntity
  8
1DIM
100
AcDbLine
 10
5289.880111690132
 20
-189.9075073813897
 30
0.0000000001127424
 11
5289.880111690132
 21
-230.2102544025004
 31
0.0000000001127424
1001
ACAD
1000
DSTYLE
1002
{
1070
    40
1040
1.3
1070
   271
1070
     0
1070
   341
1005
0
1002
}
  0
LINE
  5
B362
330
18
100
AcDbEntity
  8
1DIM
100
AcDbLine
 10
5165.480111777462
 20
-228.9102544025004
 30
0.0000000001127424
 11
5287.280111690132
 21
-228.9102544025004
 31
0.0000000001127424
1001
ACAD
1000
DSTYLE
1002
{
1070
    40
1040
1.3
1070
   271
1070
     0
1070
   341
1005
0
1002
}
  0
LINE
  5
B366
330
18
100
AcDbEntity
  8
1DIM
100
AcDbLine
 10
5137.880111777462
 20
-158.1472719570515
 30
0.0000000001127424
 11
5137.880111777462
 21
-240.2102544025004
 31
0.0000000001127424
1001
ACAD
1000
DSTYLE
1002
{
1070
    40
1040
1.3
1070
   271
1070
     0
1070
   341
1005
0
1002
}
  0
LINE
  5
B367
330
18
100
AcDbEntity
  8
1DIM
100
AcDbLine
 10
5289.880111690132
 20
-189.9075073813897
 30
0.0000000001127424
 11
5289.880111690132
 21
-240.2102544025004
 31
0.0000000001127424
1001
ACAD
1000
DSTYLE
1002
{
1070
    40
1040
1.3
1070
   271
1070
     0
1070
   341
1005
0
1002
}
  0
LINE
  5
B368
330
18
100
AcDbEntity
  8
1DIM
100
AcDbLine
 10
5140.480111777462
 20
-238.9102544025004
 30
0.0000000001127424
 11
5287.280111690132
 21
-238.9102544025004
 31
0.0000000001127424
1001
ACAD
1000
DSTYLE
1002
{
1070
    40
1040
1.3
1070
   271
1070
     0
1070
   341
1005
0
1002
}
  0
LINE
  5
B36C
330
18
100
AcDbEntity
  8
0
  6
BYBLOCK
100
AcDbLine
 10
5318.576779671462
 20
-320.1087323631413
 30
0.0000000001127424
 11
5317.880111777462
 21
-322.7087323631413
 31
0.0000000001127424
  0
LINE
  5
B36D
330
18
100
AcDbEntity
  8
0
  6
BYBLOCK
100
AcDbLine
 10
5317.880111777462
 20
-322.7087323631413
 30
0.0000000001127424
 11
5317.183443883462
 21
-320.1087323631413
 31
0.0000000001127424
  0
LINE
  5
B36E
330
18
100
AcDbEntity
  8
0
  6
BYBLOCK
100
AcDbLine
 10
5317.880111777462
 20
-322.7087323631413
 30
0.0000000001127424
 11
5317.880111777462
 21
-320.1087323631413
 31
0.0000000001127424
  0
LINE
  5
B36F
330
18
100
AcDbEntity
  8
0
  6
BYBLOCK
100
AcDbLine
 10
5317.183443883462
 20
-305.3087323631413
 30
0.0000000001127424
 11
5317.880111777462
 21
-302.7087323631413
 31
0.0000000001127424
  0
LINE
  5
B370
330
18
100
AcDbEntity
  8
0
  6
BYBLOCK
100
AcDbLine
 10
5317.880111777462
 20
-302.7087323631413
 30
0.0000000001127424
 11
5318.576779671462
 21
-305.3087323631413
 31
0.0000000001127424
  0
LINE
  5
B371
330
18
100
AcDbEntity
  8
0
  6
BYBLOCK
100
AcDbLine
 10
5317.880111777462
 20
-302.7087323631413
 30
0.0000000001127424
 11
5317.880111777462
 21
-305.3087323631413
 31
0.0000000001127424
  0
TEXT
  5
B372
330
18
100
AcDbEntity
  8
1DIM
  6
CONTINUOUS
100
AcDbText
 10
5316.970111777462
 20
-316.2160240298072
 30
0.0000000001127424
 40
4.55
  1
20
 50
90.0
100
AcDbText
1001
ACAD
1000
DSTYLE
1002
{
1070
    40
1040
1.3
1070
    45
1040
0.5
1002
}
  0
LINE
  5
B373
330
18
100
AcDbEntity
  8
0
  6
BYBLOCK
100
AcDbLine
 10
5303.391501191279
 20
-179.4498224880025
 30
0.0000000001127424
 11
5302.694833297279
 21
-182.0498224880025
 31
0.0000000001127424
  0
LINE
  5
B374
330
18
100
AcDbEntity
  8
0
  6
BYBLOCK
100
AcDbLine
 10
5302.694833297279
 20
-182.0498224880025
 30
0.0000000001127424
 11
5301.998165403279
 21
-179.4498224880025
 31
0.0000000001127424
  0
LINE
  5
B375
330
18
100
AcDbEntity
  8
0
  6
BYBLOCK
100
AcDbLine
 10
5302.694833297279
 20
-182.0498224880025
 30
0.0000000001127424
 11
5302.694833297279
 21
-179.4498224880025
 31
0.0000000001127424
  0
LINE
  5
B376
330
18
100
AcDbEntity
  8
0
  6
BYBLOCK
100
AcDbLine
 10
5301.998165403279
 20
-155.310254402496
 30
0.0000000001127424
 11
5302.694833297279
 21
-152.710254402496
 31
0.0000000001127424
  0
LINE
  5
B377
330
18
100
AcDbEntity
  8
0
  6
BYBLOCK
100
AcDbLine
 10
5302.694833297279
 20
-152.710254402496
 30
0.0000000001127424
 11
5303.391501191279
 21
-155.310254402496
 31
0.0000000001127424
  0
LINE
  5
B378
330
18
100
AcDbEntity
  8
0
  6
BYBLOCK
100
AcDbLine
 10
5302.694833297279
 20
-152.710254402496
 30
0.0000000001127424
 11
5302.694833297279
 21
-155.310254402496
 31
0.0000000001127424
  0
TEXT
  5
B379
330
18
100
AcDbEntity
  8
1DIM
  6
CONTINUOUS
100
AcDbText
 10
5301.784833297278
 20
-171.1727583526563
 30
0.0000000001127424
 40
4.55
  1
29
 50
90.0
100
AcDbText
1001
ACAD
1000
DSTYLE
1002
{
1070
    40
1040
1.3
1070
   271
1070
     0
1070
   341
1005
0
1002
}
  0
LINE
  5
B37A
330
18
100
AcDbEntity
  8
0
  6
BYBLOCK
100
AcDbLine
 10
5313.391501191279
 20
-207.3076715820634
 30
0.0000000001127424
 11
5312.694833297279
 21
-209.9076715820634
 31
0.0000000001127424
  0
LINE
  5
B37B
330
18
100
AcDbEntity
  8
0
  6
BYBLOCK
100
AcDbLine
 10
5312.694833297279
 20
-209.9076715820634
 30
0.0000000001127424
 11
5311.998165403279
 21
-207.3076715820634
 31
0.0000000001127424
  0
LINE
  5
B37C
330
18
100
AcDbEntity
  8
0
  6
BYBLOCK
100
AcDbLine
 10
5312.694833297279
 20
-209.9076715820634
 30
0.0000000001127424
 11
5312.694833297279
 21
-207.3076715820634
 31
0.0000000001127424
  0
LINE
  5
B37D
330
18
100
AcDbEntity
  8
0
  6
BYBLOCK
100
AcDbLine
 10
5311.998165403279
 20
-155.3102544024961
 30
0.0000000001127424
 11
5312.694833297279
 21
-152.7102544024961
 31
0.0000000001127424
  0
LINE
  5
B37E
330
18
100
AcDbEntity
  8
0
  6
BYBLOCK
100
AcDbLine
 10
5312.694833297279
 20
-152.7102544024961
 30
0.0000000001127424
 11
5313.391501191279
 21
-155.3102544024961
 31
0.0000000001127424
  0
LINE
  5
B37F
330
18
100
AcDbEntity
  8
0
  6
BYBLOCK
100
AcDbLine
 10
5312.694833297279
 20
-152.7102544024961
 30
0.0000000001127424
 11
5312.694833297279
 21
-155.3102544024961
 31
0.0000000001127424
  0
TEXT
  5
B380
330
18
100
AcDbEntity
  8
1DIM
  6
CONTINUOUS
100
AcDbText
 10
5311.784833297279
 20
-188.1508148441308
 30
0.0000000001127424
 40
4.55
  1
59.5
 50
90.0
100
AcDbText
1001
ACAD
1000
DSTYLE
1002
{
1070
    40
1040
1.3
1070
   341
1005
0
1002
}
  0
LINE
  5
B381
330
18
100
AcDbEntity
  8
0
  6
BYBLOCK
100
AcDbLine
 10
5165.480111777462
 20
-229.6069222965004
 30
0.0000000001127424
 11
5162.880111777462
 21
-228.9102544025004
 31
0.0000000001127424
  0
LINE
  5
B382
330
18
100
AcDbEntity
  8
0
  6
BYBLOCK
100
AcDbLine
 10
5162.880111777462
 20
-228.9102544025004
 30
0.0000000001127424
 11
5165.480111777462
 21
-228.2135865085004
 31
0.0000000001127424
  0
LINE
  5
B383
330
18
100
AcDbEntity
  8
0
  6
BYBLOCK
100
AcDbLine
 10
5162.880111777462
 20
-228.9102544025004
 30
0.0000000001127424
 11
5165.480111777462
 21
-228.9102544025004
 31
0.0000000001127424
  0
LINE
  5
B384
330
18
100
AcDbEntity
  8
0
  6
BYBLOCK
100
AcDbLine
 10
5287.280111690132
 20
-228.2135865085004
 30
0.0000000001127424
 11
5289.880111690132
 21
-228.9102544025004
 31
0.0000000001127424
  0
LINE
  5
B385
330
18
100
AcDbEntity
  8
0
  6
BYBLOCK
100
AcDbLine
 10
5289.880111690132
 20
-228.9102544025004
 30
0.0000000001127424
 11
5287.280111690132
 21
-229.6069222965004
 31
0.0000000001127424
  0
LINE
  5
B386
330
18
100
AcDbEntity
  8
0
  6
BYBLOCK
100
AcDbLine
 10
5289.880111690132
 20
-228.9102544025004
 30
0.0000000001127424
 11
5287.280111690132
 21
-228.9102544025004
 31
0.0000000001127424
  0
TEXT
  5
B387
330
18
100
AcDbEntity
  8
1DIM
  6
CONTINUOUS
100
AcDbText
 10
5221.071778400464
 20
-228.0002544025004
 30
0.0000000001127424
 40
4.55
  1
127
100
AcDbText
1001
ACAD
1000
DSTYLE
1002
{
1070
    40
1040
1.3
1070
   271
1070
     0
1070
   341
1005
0
1002
}
  0
LINE
  5
B388
330
18
100
AcDbEntity
  8
0
  6
BYBLOCK
100
AcDbLine
 10
5140.480111777462
 20
-239.6069222965004
 30
0.0000000001127424
 11
5137.880111777462
 21
-238.9102544025004
 31
0.0000000001127424
  0
LINE
  5
B389
330
18
100
AcDbEntity
  8
0
  6
BYBLOCK
100
AcDbLine
 10
5137.880111777462
 20
-238.9102544025004
 30
0.0000000001127424
 11
5140.480111777462
 21
-238.2135865085004
 31
0.0000000001127424
  0
LINE
  5
B38A
330
18
100
AcDbEntity
  8
0
  6
BYBLOCK
100
AcDbLine
 10
5137.880111777462
 20
-238.9102544025004
 30
0.0000000001127424
 11
5140.480111777462
 21
-238.9102544025004
 31
0.0000000001127424
  0
LINE
  5
B38B
330
18
100
AcDbEntity
  8
0
  6
BYBLOCK
100
AcDbLine
 10
5287.280111690132
 20
-238.2135865085004
 30
0.0000000001127424
 11
5289.880111690132
 21
-238.9102544025004
 31
0.0000000001127424
  0
LINE
  5
B38C
330
18
100
AcDbEntity
  8
0
  6
BYBLOCK
100
AcDbLine
 10
5289.880111690132
 20
-238.9102544025004
 30
0.0000000001127424
 11
5287.280111690132
 21
-239.6069222965004
 31
0.0000000001127424
  0
LINE
  5
B38D
330
18
100
AcDbEntity
  8
0
  6
BYBLOCK
100
AcDbLine
 10
5289.880111690132
 20
-238.9102544025004
 30
0.0000000001127424
 11
5287.280111690132
 21
-238.9102544025004
 31
0.0000000001127424
  0
TEXT
  5
B38E
330
18
100
AcDbEntity
  8
1DIM
  6
CONTINUOUS
100
AcDbText
 10
5208.555979789353
 20
-238.0002544025004
 30
0.0000000001127424
 40
4.55
  1
152
100
AcDbText
1001
ACAD
1000
DSTYLE
1002
{
1070
    40
1040
1.3
1070
   271
1070
     0
1070
   341
1005
0
1002
}
  0
VIEWPORT
  5
57
330
15
100
AcDbEntity
 67
     1
  8
0
100
AcDbViewport
 68
     1
 10
0.0
 20
0.0
 30
0.0
 40
555.8298653610772
 41
297.0
 68
     1
 69
     1
1001
ACAD
1000
MVIEW
1002
{
1070
    16
1010
0.0
1020
0.0
1030
0.0
1010
0.0
1020
0.0
1030
1.0
1040
0.0
1040
297.0
1040
5.728000000000009
1040
25.33900000000001
1040
50.0
1040
0.0
1040
0.0
1070
    16
1070
   100
1070
     0
1070
     1
1070
     0
1070
     0
1070
     0
1070
     0
1040
0.0
1040
0.0
1040
0.0
1040
10.0
1040
10.0
1040
10.0
1040
10.0
1070
     0
1002
{
1002
}
1002
}
  0
ENDSEC
  0
SECTION
  2
OBJECTS
  0
DICTIONARY
  5
C
330
0
100
AcDbDictionary
  3
ACAD_CIP_PREVIOUS_PRODUCT_INFO
350
AEA8
  3
ACAD_COLOR
350
18D
  3
ACAD_GROUP
350
D
  3
ACAD_LAYOUT
350
18E
  3
ACAD_MATERIAL
350
18C
  3
ACAD_MLEADERSTYLE
350
9583
  3
ACAD_MLINESTYLE
350
1B
  3
ACAD_PLOTSETTINGS
350
18F
  3
ACAD_SCALELIST
350
9561
  3
ACAD_VISUALSTYLE
350
9550
  3
ACDBHEADERROUNDTRIPXREC
350
B38F
  3
ACDBVARIABLEDICTIONARY
350
37
  3
CONTENTDICTIONARY
350
D8
  3
DRAWINGVARIABLESDICT
350
20
  3
DWGPROPS
350
B392
1001
ACAD
1000
TREAT_AS_HARD
1070
     0
  0
DICTIONARY
  5
96D9
330
2
100
AcDbDictionary
  3
ACAD_LAYERSTATES
360
96DA
1001
ACAD
1000
TREAT_AS_HARD
1070
     1
  0
DICTIONARY
  5
9593
330
E
100
AcDbDictionary
  3
ADSK_XREC_LAYER_RECONCILED
360
9594
1001
ACAD
1000
TREAT_AS_HARD
1070
     1
  0
DICTIONARY
  5
9595
330
29
100
AcDbDictionary
  3
ADSK_XREC_LAYER_RECONCILED
360
9596
1001
ACAD
1000
TREAT_AS_HARD
1070
     1
  0
DICTIONARY
  5
9597
330
31
100
AcDbDictionary
  3
ADSK_XREC_LAYER_RECONCILED
360
9598
1001
ACAD
1000
TREAT_AS_HARD
1070
     1
  0
DICTIONARY
  5
959D
330
243
100
AcDbDictionary
  3
ADSK_XREC_LAYER_RECONCILED
360
959E
1001
ACAD
1000
TREAT_AS_HARD
1070
     1
  0
DICTIONARY
  5
95A3
330
24E
100
AcDbDictionary
  3
ADSK_XREC_LAYER_RECONCILED
360
95A4
1001
ACAD
1000
TREAT_AS_HARD
1070
     1
  0
DICTIONARY
  5
88F
330
18
100
AcDbDictionary
  3
ACAD_SORTENTS
360
890
1001
ACAD
1000
TREAT_AS_HARD
1070
     1
  0
XRECORD
  5
AEA8
102
{ACAD_REACTORS
330
C
102
}
330
C
100
AcDbXrecord
300
ACDLT
300
2012
300
ACDLT_F_S
  0
DICTIONARY
  5
18D
102
{ACAD_REACTORS
330
C
102
}
330
C
100
AcDbDictionary
1001
ACAD
1000
TREAT_AS_HARD
1070
     0
  0
DICTIONARY
  5
D
102
{ACAD_REACTORS
330
C
102
}
330
C
100
AcDbDictionary
1001
ACAD
1000
TREAT_AS_HARD
1070
     0
  0
DICTIONARY
  5
18E
102
{ACAD_REACTORS
330
C
102
}
330
C
100
AcDbDictionary
1001
ACAD
1000
TREAT_AS_HARD
1070
     0
  0
DICTIONARY
  5
18C
102
{ACAD_REACTORS
330
C
102
}
330
C
100
AcDbDictionary
  3
BYBLOCK
350
9540
  3
BYLAYER
350
9538
  3
GLOBAL
350
9548
1001
ACAD
1000
TREAT_AS_HARD
1070
     0
  0
DICTIONARY
  5
9583
102
{ACAD_REACTORS
330
C
102
}
330
C
100
AcDbDictionary
  3
STANDARD
350
9584
1001
ACAD
1000
TREAT_AS_HARD
1070
     0
  0
DICTIONARY
  5
1B
102
{ACAD_REACTORS
330
C
102
}
330
C
100
AcDbDictionary
  3
STANDARD
350
1C
1001
ACAD
1000
TREAT_AS_HARD
1070
     0
  0
DICTIONARY
  5
18F
102
{ACAD_REACTORS
330
C
102
}
330
C
100
AcDbDictionary
1001
ACAD
1000
TREAT_AS_HARD
1070
     0
  0
DICTIONARY
  5
9561
102
{ACAD_REACTORS
330
C
102
}
330
C
100
AcDbDictionary
  3
A0
350
9562
  3
A1
350
9563
  3
A2
350
9564
  3
A3
350
9565
  3
A4
350
9566
  3
A5
350
9567
  3
A6
350
9568
  3
A7
350
9569
  3
A8
350
956A
  3
A9
350
956B
  3
B0
350
956C
  3
B1
350
956D
  3
B2
350
956E
  3
B3
350
956F
  3
B4
350
9570
  3
B5
350
9571
  3
B6
350
9572
  3
B7
350
9573
  3
B8
350
9574
  3
B9
350
9575
  3
C0
350
9576
  3
C1
350
9577
  3
C2
350
9578
  3
C3
350
9579
  3
C4
350
957A
  3
C5
350
957B
  3
C6
350
957C
  3
C7
350
957D
  3
C8
350
957E
  3
C9
350
957F
  3
D0
350
9580
  3
D1
350
9581
  3
D2
350
9582
1001
ACAD
1000
TREAT_AS_HARD
1070
     0
  0
DICTIONARY
  5
9550
102
{ACAD_REACTORS
330
C
102
}
330
C
100
AcDbDictionary
  3
2DWIREFRAME
350
9556
  3
3D_HIDDEN
350
9558
  3
3DWIREFRAME
350
9557
  3
BASIC
350
9555
  3
BRIGHTEN
350
955C
  3
COLORCHANGE
350
9560
  3
CONCEPTUAL
350
9559
  3
DIM
350
955B
  3
EDGECOLOROFF
350
A211
  3
FACEPATTERN
350
955F
  3
FLAT
350
9551
  3
FLATWITHEDGES
350
9552
  3
GOURAUD
350
9553
  3
GOURAUDWITHEDGES
350
9554
  3
HIDDEN
350
A260
  3
JITTEROFF
350
A20F
  3
LINEPATTERN
350
955E
  3
MODELING
350
B16E
  3
OVERHANGOFF
350
A210
  3
REALISTIC
350
955A
  3
SHADED
350
A265
  3
SHADED_WITH_EDGES
350
A264
  3
SHADES_OF_GRAY
350
A261
  3
SKETCHY
350
A262
  3
THICKEN
350
955D
  3
WIREFRAME
350
A25F
  3
X-RAY
350
A263
1001
ACAD
1000
TREAT_AS_HARD
1070
     0
  0
DICTIONARY
  5
B38F
102
{ACAD_REACTORS
330
C
102
}
330
C
100
AcDbDictionary
  3
COLORDICT
350
B390
  3
MATERIALDICT
350
B391
1001
ACAD
1000
TREAT_AS_HARD
1070
     0
  0
DICTIONARY
  5
37
102
{ACAD_REACTORS
330
C
102
}
330
C
100
AcDbDictionary
  3
CANNOSCALE
350
B18B
  3
CMLEADERSTYLE
350
9627
  3
CTABLESTYLE
350
29E
  3
DIMADEC
350
38
  3
DIMASSOC
350
1CE
  3
HIDETEXT
350
704E
  3
INDEXCTL
350
962A
  3
INTERSECTIONCOLOR
350
7052
  3
INTERSECTIONDISPLAY
350
7051
  3
LAYEREVAL
350
B143
  3
LAYERNOTIFY
350
B144
  3
MSLTSCALE
350
AB30
  3
OBSCOLOR
350
704F
  3
OBSLTYPE
350
7050
  3
PROJECTNAME
350
1CF
  3
SORTENTS
350
9629
  3
XCLIPFRAME
350
B16D
1001
ACAD
1000
TREAT_AS_HARD
1070
     0
  0
DICTIONARY
  5
D8
102
{ACAD_REACTORS
330
C
102
}
330
C
100
AcDbDictionary
1001
ACAD
1000
TREAT_AS_HARD
1070
     0
  0
DICTIONARY
  5
20
102
{ACAD_REACTORS
330
C
102
}
330
C
100
AcDbDictionary
1001
DRAWINGVARIABLESXDATA
1000
POLARANG
1000
0.261799387799149410000000
1000
POLARMODE
1000
1
1000
POLARSTYLE
1000
1
1001
ACAD
1000
TREAT_AS_HARD
1070
     0
  0
XRECORD
  5
B392
102
{ACAD_REACTORS
330
C
102
}
330
C
100
AcDbXrecord
  1
DWGPROPS COOKIE
  2

  3

  4

  6

  7

  8
3684
  9

300
=
301
=
302
=
303
=
304
=
305
=
306
=
307
=
308
=
309
=
 40
0.0
 41
2451318.246352917
 42
2458163.183467002
  1

 90
        0
  0
DICTIONARY
  5
96DA
102
{ACAD_REACTORS
330
96D9
102
}
330
96D9
100
AcDbDictionary
1001
ACAD
1000
TREAT_AS_HARD
1070
     0
  0
ACAD_PROXY_OBJECT
  5
9594
102
{ACAD_REACTORS
330
9593
102
}
330
9593
100
AcDbZombieObject
 90
      499
 91
      514
 93
       34
310
40C8804040
  0
ACAD_PROXY_OBJECT
  5
9596
102
{ACAD_REACTORS
330
9595
102
}
330
9595
100
AcDbZombieObject
 90
      499
 91
      514
 93
       34
310
40C8804040
  0
ACAD_PROXY_OBJECT
  5
9598
102
{ACAD_REACTORS
330
9597
102
}
330
9597
100
AcDbZombieObject
 90
      499
 91
      514
 93
       34
310
40C8804040
  0
ACAD_PROXY_OBJECT
  5
959E
102
{ACAD_REACTORS
330
959D
102
}
330
959D
100
AcDbZombieObject
 90
      499
 91
      514
 93
       34
310
40C8804040
  0
ACAD_PROXY_OBJECT
  5
95A4
102
{ACAD_REACTORS
330
95A3
102
}
330
95A3
100
AcDbZombieObject
 90
      499
 91
      514
 93
       34
310
40C8804040
  0
SORTENTSTABLE
  5
890
102
{ACAD_REACTORS
330
88F
102
}
330
88F
100
AcDbSortentsTable
330
18
331
AF94
  5
AFA1
331
AF95
  5
AFA2
331
AF96
  5
AFA3
331
0
  5
AFA4
331
AF98
  5
AFC2
331
AF99
  5
AFC3
331
AF9A
  5
AFC4
331
AF9B
  5
AFC5
331
AF9C
  5
AFC9
331
AF9D
  5
AFCA
331
AF9E
  5
AFCB
331
AF9F
  5
AFD3
331
0
  5
AFB3
331
0
  5
AFB4
331
0
  5
AFB5
331
0
  5
AFB6
331
AFA4
  5
B00C
331
AFA5
  5
B00D
331
AFA6
  5
B00E
331
AFA7
  5
B00F
331
AFA8
  5
B010
331
AFA9
  5
B011
331
AFAA
  5
B012
331
AFAE
  5
B1F6
331
AFB0
  5
B1FE
331
AFB3
  5
B20B
331
AFB4
  5
B20C
331
AFB5
  5
B20D
331
AFB6
  5
B20E
331
AFB8
  5
B212
331
AFB9
  5
B213
331
AFBA
  5
B214
331
AFBB
  5
B215
331
AFBF
  5
B22E
331
AFC2
  5
B235
331
AFC3
  5
B236
331
AFC4
  5
B237
331
AFC5
  5
B238
331
AFC6
  5
B239
331
AFC7
  5
B23A
331
AFC8
  5
B23B
331
AFC9
  5
B23C
331
AFCA
  5
B23D
331
AFCB
  5
B23E
331
AFCF
  5
B25C
331
AFD0
  5
B25D
331
AFD1
  5
B25E
331
AFD3
  5
B263
331
AFD4
  5
B264
331
AFD5
  5
B265
331
AFD6
  5
B266
331
AFD7
  5
B267
331
AFD8
  5
B268
331
AFD9
  5
B269
331
AFDA
  5
B26A
331
AFDB
  5
B26B
331
AFDC
  5
B26C
331
AFDD
  5
B26D
331
AFDF
  5
B28D
331
AFE0
  5
B28E
331
AFE2
  5
B291
331
AFE3
  5
B292
331
AFE5
  5
B294
331
AFE6
  5
B295
331
AFE7
  5
B296
331
AFE8
  5
B297
331
AFEA
  5
B29F
331
AFEB
  5
B2A0
331
AFEE
  5
B2C5
331
AFEF
  5
B2C6
331
AFF0
  5
B2C7
331
AFF1
  5
B2C8
331
AFF2
  5
B2C9
331
AFF3
  5
B2CA
331
AFF4
  5
B2CB
331
AFF5
  5
B2CC
331
AFF6
  5
B2CD
331
AFF7
  5
B2CE
331
AFF8
  5
B2CF
331
AFFA
  5
B2D9
331
AFFB
  5
B2DA
331
AFFD
  5
B2F6
331
AFFE
  5
B2F7
331
AFFF
  5
B2F8
331
B000
  5
B2F9
331
B002
  5
B315
331
B004
  5
B318
331
B005
  5
B319
331
B006
  5
B31A
331
B007
  5
B31B
331
B008
  5
B31C
331
B009
  5
B31D
331
B00A
  5
B31E
331
B00B
  5
B31F
331
B00C
  5
B320
331
B00D
  5
B321
331
B00E
  5
B322
331
B00F
  5
B323
331
B010
  5
B324
331
B011
  5
B325
331
B012
  5
B326
331
B013
  5
B327
331
B018
  5
B341
331
B019
  5
B342
331
B01B
  5
B354
331
B01C
  5
B355
331
B01D
  5
B356
331
B01E
  5
B357
331
B021
  5
B38E
331
B1EC
  5
AF94
331
B1ED
  5
AF95
331
B1EE
  5
AF96
331
0
  5
AF97
331
0
  5
AF98
331
0
  5
AF99
331
B1F2
  5
B013
331
B1F3
  5
B018
331
B1F4
  5
B019
331
B1F5
  5
B01B
331
B1F6
  5
B01C
331
B1F7
  5
B01D
331
B1F8
  5
B01E
331
B1F9
  5
B021
331
B1FA
  5
B1EC
331
B1FB
  5
B1ED
331
B1FC
  5
B1EE
331
B1FD
  5
B1EF
331
B1FE
  5
B1F0
331
B1FF
  5
B1F1
331
B200
  5
B1F2
331
B201
  5
B1F3
331
B202
  5
B1F4
331
B203
  5
B1F5
331
B204
  5
B1F7
331
B205
  5
B1F8
331
B206
  5
B1F9
331
B207
  5
B1FA
331
B208
  5
B1FB
331
B209
  5
B1FC
331
B20A
  5
B1FD
331
B20B
  5
B1FF
331
B20C
  5
B200
331
B20D
  5
B201
331
B20E
  5
B202
331
B20F
  5
B203
331
B210
  5
B204
331
B211
  5
B205
331
B212
  5
B206
331
B213
  5
B207
331
B214
  5
B208
331
B215
  5
B209
331
B216
  5
B20A
331
B217
  5
B20F
331
B218
  5
B210
331
B219
  5
B211
331
B21A
  5
B216
331
B21B
  5
B217
331
B21C
  5
B218
331
B21D
  5
B219
331
B21E
  5
B21A
331
B21F
  5
B21B
331
B220
  5
B21C
331
B221
  5
B21D
331
B222
  5
B21E
331
B223
  5
B21F
331
B224
  5
B220
331
B225
  5
B221
331
B226
  5
B222
331
B227
  5
B223
331
B228
  5
B224
331
B229
  5
B225
331
B22A
  5
B226
331
B22B
  5
B227
331
B22C
  5
B228
331
B22D
  5
B229
331
B22E
  5
B22A
331
B22F
  5
B22B
331
B230
  5
B22C
331
B231
  5
B22D
331
B232
  5
B22F
331
B233
  5
B230
331
B234
  5
B231
331
B235
  5
B232
331
B236
  5
B233
331
B237
  5
B234
331
B238
  5
B23F
331
B239
  5
B240
331
B23A
  5
B241
331
B23B
  5
B242
331
B23C
  5
B243
331
B23D
  5
B244
331
B23E
  5
B245
331
B23F
  5
B246
331
B240
  5
B247
331
B241
  5
B248
331
B242
  5
B249
331
B243
  5
B24A
331
B244
  5
B24B
331
B245
  5
B24C
331
B246
  5
B24D
331
B247
  5
B24E
331
B248
  5
B24F
331
B249
  5
B250
331
B24A
  5
B251
331
B24B
  5
B252
331
B24C
  5
B253
331
B24D
  5
B254
331
B24E
  5
B255
331
B24F
  5
B256
331
B250
  5
B257
331
B251
  5
B258
331
B252
  5
B259
331
B253
  5
B25A
331
B254
  5
B25B
331
B255
  5
B25F
331
B256
  5
B260
331
B257
  5
B261
331
B258
  5
B262
331
B259
  5
B26E
331
B25A
  5
B26F
331
B25B
  5
B270
331
B25C
  5
B271
331
B25D
  5
B272
331
B25E
  5
B273
331
B25F
  5
B274
331
B260
  5
B275
331
B261
  5
B276
331
B262
  5
B277
331
B263
  5
B278
331
B264
  5
B279
331
B265
  5
B27A
331
B266
  5
B27B
331
B267
  5
B27C
331
B268
  5
B27D
331
B269
  5
B27E
331
B26A
  5
B27F
331
B26B
  5
B280
331
B26C
  5
B281
331
B26D
  5
B282
331
B26E
  5
B283
331
B26F
  5
B284
331
B270
  5
B285
331
B271
  5
B286
331
B272
  5
B287
331
B273
  5
B288
331
B274
  5
B289
331
B275
  5
B28A
331
B276
  5
B28B
331
B277
  5
B28C
331
B278
  5
B28F
331
B279
  5
B290
331
B27A
  5
B293
331
B27B
  5
B298
331
B27C
  5
B299
331
B27D
  5
B29A
331
B27E
  5
B29B
331
B27F
  5
B29C
331
B280
  5
B29D
331
B281
  5
B29E
331
B282
  5
B2A1
331
B283
  5
B2A2
331
B284
  5
B2A3
331
B285
  5
B2A4
331
B286
  5
B2A5
331
B287
  5
B2A6
331
B288
  5
B2A7
331
B289
  5
B2A8
331
B28A
  5
B2A9
331
B28B
  5
B2AA
331
B28C
  5
B2AB
331
B28D
  5
B2AC
331
B28E
  5
B2AD
331
B28F
  5
B2AE
331
B290
  5
B2AF
331
B291
  5
B2B0
331
B292
  5
B2B1
331
B293
  5
B2B2
331
B294
  5
B2B3
331
B295
  5
B2B4
331
B296
  5
B2B5
331
B297
  5
B2B6
331
B298
  5
B2B7
331
B299
  5
B2B8
331
B29A
  5
B2B9
331
B29B
  5
B2BA
331
B29C
  5
B2BB
331
B29D
  5
B2BC
331
B29E
  5
B2BD
331
B29F
  5
B2BE
331
B2A0
  5
B2BF
331
B2A1
  5
B2C0
331
B2A2
  5
B2C1
331
B2A3
  5
B2C2
331
B2A4
  5
B2C3
331
B2A5
  5
B2C4
331
B2A6
  5
B2D0
331
B2A7
  5
B2D1
331
B2A8
  5
B2D2
331
B2A9
  5
B2D3
331
B2AA
  5
B2D4
331
B2AB
  5
B2D5
331
B2AC
  5
B2D6
331
B2AD
  5
B2D7
331
B2AE
  5
B2D8
331
B2AF
  5
B2DB
331
B2B0
  5
B2DC
331
B2B1
  5
B2DD
331
B2B2
  5
B2DE
331
B2B3
  5
B2DF
331
B2B4
  5
B2E0
331
B2B5
  5
B2E1
331
B2B6
  5
B2E2
331
B2B7
  5
B2E3
331
B2B8
  5
B2E4
331
B2B9
  5
B2E5
331
B2BA
  5
B2E6
331
B2BB
  5
B2E7
331
B2BC
  5
B2E8
331
B2BD
  5
B2E9
331
B2BE
  5
B2EA
331
B2BF
  5
B2EB
331
B2C0
  5
B2EC
331
B2C1
  5
B2ED
331
B2C2
  5
B2EE
331
B2C3
  5
B2EF
331
B2C4
  5
B2F0
331
B2C5
  5
B2F1
331
B2C6
  5
B2F2
331
B2C7
  5
B2F3
331
B2C8
  5
B2F4
331
B2C9
  5
B2F5
331
B2CA
  5
B2FA
331
B2CB
  5
B2FB
331
B2CC
  5
B2FC
331
B2CD
  5
B2FD
331
B2CE
  5
B2FE
331
B2CF
  5
B2FF
331
B2D0
  5
B300
331
B2D1
  5
B301
331
B2D2
  5
B302
331
B2D3
  5
B303
331
B2D4
  5
B304
331
B2D5
  5
B305
331
B2D6
  5
B306
331
B2D7
  5
B307
331
B2D8
  5
B308
331
B2D9
  5
B309
331
B2DA
  5
B30A
331
B2DB
  5
B30B
331
B2DC
  5
B30C
331
B2DD
  5
B30D
331
B2DE
  5
B30E
331
B2DF
  5
B30F
331
B2E0
  5
B310
331
B2E1
  5
B311
331
B2E2
  5
B312
331
B2E3
  5
B313
331
B2E4
  5
B314
331
B2E5
  5
B316
331
B2E6
  5
B317
331
B2E7
  5
B328
331
B2E8
  5
B329
331
B2E9
  5
B32A
331
B2EA
  5
B32B
331
B2EB
  5
B32C
331
B2EC
  5
B32D
331
B2ED
  5
B32E
331
B2EE
  5
B32F
331
B2EF
  5
B330
331
B2F0
  5
B331
331
B2F1
  5
B332
331
B2F2
  5
B333
331
B2F3
  5
B334
331
B2F4
  5
B335
331
B2F5
  5
B336
331
B2F6
  5
B337
331
B2F7
  5
B338
331
B2F8
  5
B339
331
B2F9
  5
B33A
331
B2FA
  5
B33B
331
B2FB
  5
B33C
331
B2FC
  5
B33D
331
B2FD
  5
B33E
331
B2FE
  5
B33F
331
B2FF
  5
B340
331
B300
  5
B343
331
B301
  5
B344
331
B302
  5
B345
331
B303
  5
B346
331
B304
  5
B347
331
B305
  5
B348
331
B306
  5
B349
331
B307
  5
B34A
331
B308
  5
B34B
331
B309
  5
B34C
331
B30A
  5
B34D
331
B30B
  5
B34E
331
B30C
  5
B34F
331
B30D
  5
B350
331
B30E
  5
B351
331
B30F
  5
B352
331
B310
  5
B353
331
B311
  5
B358
331
B312
  5
B359
331
B313
  5
B35A
331
B314
  5
B35B
331
B315
  5
B35C
331
B316
  5
B35D
331
B317
  5
B35E
331
B318
  5
B35F
331
B319
  5
B360
331
B31A
  5
B361
331
B31B
  5
B362
331
B31C
  5
B363
331
B31D
  5
B364
331
B31E
  5
B365
331
B31F
  5
B366
331
B320
  5
B367
331
B321
  5
B368
331
B322
  5
B369
331
B323
  5
B36A
331
B324
  5
B36B
331
B325
  5
B36C
331
B326
  5
B36D
331
B327
  5
B36E
331
B328
  5
B36F
331
B329
  5
B370
331
B32A
  5
B371
331
B32B
  5
B372
331
B32C
  5
B373
331
B32D
  5
B374
331
B32E
  5
B375
331
B32F
  5
B376
331
B330
  5
B377
331
B331
  5
B378
331
B332
  5
B379
331
B333
  5
B37A
331
B334
  5
B37B
331
B335
  5
B37C
331
B336
  5
B37D
331
B337
  5
B37E
331
B338
  5
B37F
331
B339
  5
B380
331
B33A
  5
B381
331
B33B
  5
B382
331
B33C
  5
B383
331
B33D
  5
B384
331
B33E
  5
B385
331
B33F
  5
B386
331
B340
  5
B387
331
B341
  5
B388
331
B342
  5
B389
331
B343
  5
B38A
331
B344
  5
B38B
331
B345
  5
B38C
331
B346
  5
B38D
331
B347
  5
AF9A
331
B348
  5
AF9B
331
B349
  5
AF9C
331
B34A
  5
AF9D
331
B34B
  5
AF9E
331
B34C
  5
AF9F
331
B34D
  5
AFA0
331
B34E
  5
AFA5
331
B34F
  5
AFA6
331
B350
  5
AFA7
331
0
  5
AFA8
331
0
  5
AFA9
331
0
  5
AFAA
331
B354
  5
AFD4
331
B355
  5
AFD5
331
B356
  5
AFD9
331
0
  5
AFC6
331
0
  5
AFC7
331
0
  5
AFC8
331
B35A
  5
AFE7
331
B35B
  5
AFE8
331
B35C
  5
AFEA
331
0
  5
AFCF
331
0
  5
AFD0
331
0
  5
AFD1
331
B360
  5
AFF4
331
B361
  5
AFF5
331
B362
  5
AFF6
331
0
  5
AFD6
331
0
  5
AFD7
331
0
  5
AFD8
331
B366
  5
B000
331
B367
  5
B002
331
B368
  5
B004
331
0
  5
AFDC
331
0
  5
AFDD
331
0
  5
AFDF
331
B36C
  5
AFAE
331
B36D
  5
AFB0
331
B36E
  5
AFB8
331
B36F
  5
AFB9
331
B370
  5
AFBA
331
B371
  5
AFBB
331
B372
  5
AFBF
331
B373
  5
AFDA
331
B374
  5
AFDB
331
B375
  5
AFE0
331
B376
  5
AFE2
331
B377
  5
AFE3
331
B378
  5
AFE5
331
B379
  5
AFE6
331
B37A
  5
AFEB
331
B37B
  5
AFEE
331
B37C
  5
AFEF
331
B37D
  5
AFF0
331
B37E
  5
AFF1
331
B37F
  5
AFF2
331
B380
  5
AFF3
331
B381
  5
AFF7
331
B382
  5
AFF8
331
B383
  5
AFFA
331
B384
  5
AFFB
331
B385
  5
AFFD
331
B386
  5
AFFE
331
B387
  5
AFFF
331
B388
  5
B005
331
B389
  5
B006
331
B38A
  5
B007
331
B38B
  5
B008
331
B38C
  5
B009
331
B38D
  5
B00A
331
B38E
  5
B00B
  0
MATERIAL
  5
9540
102
{ACAD_REACTORS
330
18C
102
}
102
{ACAD_XDICTIONARY
360
B52D
102
}
330
18C
100
AcDbMaterial
  1
BYBLOCK
 72
     0
 73
     2
 43
0.0208333333333333
 43
0.0
 43
0.0
 43
0.0
 43
0.0
 43
0.0208333333333333
 43
0.0
 43
0.0
 43
0.0
 43
0.0
 43
1.0
 43
0.0
 43
0.0
 43
0.0
 43
0.0
 43
1.0
 77
     0
 78
     2
 47
0.0208333333333333
 47
0.0
 47
0.0
 47
0.0
 47
0.0
 47
0.0208333333333333
 47
0.0
 47
0.0
 47
0.0
 47
0.0
 47
1.0
 47
0.0
 47
0.0
 47
0.0
 47
0.0
 47
1.0
171
     0
172
     2
 49
0.0208333333333333
 49
0.0
 49
0.0
 49
0.0
 49
0.0
 49
0.0208333333333333
 49
0.0
 49
0.0
 49
0.0
 49
0.0
 49
1.0
 49
0.0
 49
0.0
 49
0.0
 49
0.0
 49
1.0
175
     0
176
     2
142
0.0208333333333333
142
0.0
142
0.0
142
0.0
142
0.0
142
0.0208333333333333
142
0.0
142
0.0
142
0.0
142
0.0
142
1.0
142
0.0
142
0.0
142
0.0
142
0.0
142
1.0
179
     0
270
     2
144
0.0208333333333333
144
0.0
144
0.0
144
0.0
144
0.0
144
0.0208333333333333
144
0.0
144
0.0
144
0.0
144
0.0
144
1.0
144
0.0
144
0.0
144
0.0
144
0.0
144
1.0
274
     2
147
0.0208333333333333
147
0.0
147
0.0
147
0.0
147
0.0
147
0.0208333333333333
147
0.0
147
0.0
147
0.0
147
0.0
147
1.0
147
0.0
147
0.0
147
0.0
147
0.0
147
1.0
  0
MATERIAL
  5
9538
102
{ACAD_REACTORS
330
18C
102
}
102
{ACAD_XDICTIONARY
360
B52F
102
}
330
18C
100
AcDbMaterial
  1
BYLAYER
 72
     0
 73
     2
 43
0.0208333333333333
 43
0.0
 43
0.0
 43
0.0
 43
0.0
 43
0.0208333333333333
 43
0.0
 43
0.0
 43
0.0
 43
0.0
 43
1.0
 43
0.0
 43
0.0
 43
0.0
 43
0.0
 43
1.0
 77
     0
 78
     2
 47
0.0208333333333333
 47
0.0
 47
0.0
 47
0.0
 47
0.0
 47
0.0208333333333333
 47
0.0
 47
0.0
 47
0.0
 47
0.0
 47
1.0
 47
0.0
 47
0.0
 47
0.0
 47
0.0
 47
1.0
171
     0
172
     2
 49
0.0208333333333333
 49
0.0
 49
0.0
 49
0.0
 49
0.0
 49
0.0208333333333333
 49
0.0
 49
0.0
 49
0.0
 49
0.0
 49
1.0
 49
0.0
 49
0.0
 49
0.0
 49
0.0
 49
1.0
175
     0
176
     2
142
0.0208333333333333
142
0.0
142
0.0
142
0.0
142
0.0
142
0.0208333333333333
142
0.0
142
0.0
142
0.0
142
0.0
142
1.0
142
0.0
142
0.0
142
0.0
142
0.0
142
1.0
179
     0
270
     2
144
0.0208333333333333
144
0.0
144
0.0
144
0.0
144
0.0
144
0.0208333333333333
144
0.0
144
0.0
144
0.0
144
0.0
144
1.0
144
0.0
144
0.0
144
0.0
144
0.0
144
1.0
274
     2
147
0.0208333333333333
147
0.0
147
0.0
147
0.0
147
0.0
147
0.0208333333333333
147
0.0
147
0.0
147
0.0
147
0.0
147
1.0
147
0.0
147
0.0
147
0.0
147
0.0
147
1.0
  0
MATERIAL
  5
9548
102
{ACAD_REACTORS
330
18C
102
}
102
{ACAD_XDICTIONARY
360
B531
102
}
330
18C
100
AcDbMaterial
  1
GLOBAL
 72
     0
 73
     2
 43
0.0208333333333333
 43
0.0
 43
0.0
 43
0.0
 43
0.0
 43
0.0208333333333333
 43
0.0
 43
0.0
 43
0.0
 43
0.0
 43
1.0
 43
0.0
 43
0.0
 43
0.0
 43
0.0
 43
1.0
 77
     0
 78
     2
 47
0.0208333333333333
 47
0.0
 47
0.0
 47
0.0
 47
0.0
 47
0.0208333333333333
 47
0.0
 47
0.0
 47
0.0
 47
0.0
 47
1.0
 47
0.0
 47
0.0
 47
0.0
 47
0.0
 47
1.0
171
     0
172
     2
 49
0.0208333333333333
 49
0.0
 49
0.0
 49
0.0
 49
0.0
 49
0.0208333333333333
 49
0.0
 49
0.0
 49
0.0
 49
0.0
 49
1.0
 49
0.0
 49
0.0
 49
0.0
 49
0.0
 49
1.0
175
     0
176
     2
142
0.0208333333333333
142
0.0
142
0.0
142
0.0
142
0.0
142
0.0208333333333333
142
0.0
142
0.0
142
0.0
142
0.0
142
1.0
142
0.0
142
0.0
142
0.0
142
0.0
142
1.0
179
     0
270
     2
144
0.0208333333333333
144
0.0
144
0.0
144
0.0
144
0.0
144
0.0208333333333333
144
0.0
144
0.0
144
0.0
144
0.0
144
1.0
144
0.0
144
0.0
144
0.0
144
0.0
144
1.0
274
     2
147
0.0208333333333333
147
0.0
147
0.0
147
0.0
147
0.0
147
0.0208333333333333
147
0.0
147
0.0
147
0.0
147
0.0
147
1.0
147
0.0
147
0.0
147
0.0
147
0.0
147
1.0
  0
ACAD_PROXY_OBJECT
  5
9584
102
{ACAD_REACTORS
330
9583
102
}
330
9583
100
AcDbZombieObject
 90
      499
 91
      511
 93
      610
310
40901902A4063FBFFFFFE000000000000002040AD7A3703D0AD73F4214DD185B99185C990000000000000104090141901A00000000000004100000000000000041025764000000000000300FC0
340
12
340
0
340
F
340
0
 94
        0
1001
ACAD_MLEADERVER
1070
     2
  0
MLINESTYLE
  5
1C
102
{ACAD_REACTORS
330
1B
102
}
330
1B
100
AcDbMlineStyle
  2
STANDARD
 70
     0
  3

 62
   256
 51
90.0
 52
90.0
 71
     2
 49
0.5
 62
   256
  6
BYLAYER
 49
-0.5
 62
   256
  6
BYLAYER
  0
ACAD_PROXY_OBJECT
  5
9562
102
{ACAD_REACTORS
330
9561
102
}
330
9561
100
AcDbZombieObject
 90
      499
 91
      510
 93
       41
310
903313A31580
  0
ACAD_PROXY_OBJECT
  5
9563
102
{ACAD_REACTORS
330
9561
102
}
330
9561
100
AcDbZombieObject
 90
      499
 91
      510
 93
      105
310
903313A324000000000000004000
  0
ACAD_PROXY_OBJECT
  5
9564
102
{ACAD_REACTORS
330
9561
102
}
330
9561
100
AcDbZombieObject
 90
      499
 91
      510
 93
      105
310
903313A344000000000000104000
  0
ACAD_PROXY_OBJECT
  5
9565
102
{ACAD_REACTORS
330
9561
102
}
330
9561
100
AcDbZombieObject
 90
      499
 91
      510
 93
      105
310
903313A354000000000000144000
  0
ACAD_PROXY_OBJECT
  5
9566
102
{ACAD_REACTORS
330
9561
102
}
330
9561
100
AcDbZombieObject
 90
      499
 91
      510
 93
      105
310
903313A384000000000000204000
  0
ACAD_PROXY_OBJECT
  5
9567
102
{ACAD_REACTORS
330
9561
102
}
330
9561
100
AcDbZombieObject
 90
      499
 91
      510
 93
      113
310
904313A31304000000000000244000
  0
ACAD_PROXY_OBJECT
  5
9568
102
{ACAD_REACTORS
330
9561
102
}
330
9561
100
AcDbZombieObject
 90
      499
 91
      510
 93
      113
310
904313A31364000000000000304000
  0
ACAD_PROXY_OBJECT
  5
9569
102
{ACAD_REACTORS
330
9561
102
}
330
9561
100
AcDbZombieObject
 90
      499
 91
      510
 93
      113
310
904313A32304000000000000344000
  0
ACAD_PROXY_OBJECT
  5
956A
102
{ACAD_REACTORS
330
9561
102
}
330
9561
100
AcDbZombieObject
 90
      499
 91
      510
 93
      113
310
904313A333040000000000003E4000
  0
ACAD_PROXY_OBJECT
  5
956B
102
{ACAD_REACTORS
330
9561
102
}
330
9561
100
AcDbZombieObject
 90
      499
 91
      510
 93
      113
310
904313A34304000000000000444000
  0
ACAD_PROXY_OBJECT
  5
956C
102
{ACAD_REACTORS
330
9561
102
}
330
9561
100
AcDbZombieObject
 90
      499
 91
      510
 93
      113
310
904313A35304000000000000494000
  0
ACAD_PROXY_OBJECT
  5
956D
102
{ACAD_REACTORS
330
9561
102
}
330
9561
100
AcDbZombieObject
 90
      499
 91
      510
 93
      121
310
905313A3130304000000000000594000
  0
ACAD_PROXY_OBJECT
  5
956E
102
{ACAD_REACTORS
330
9561
102
}
330
9561
100
AcDbZombieObject
 90
      499
 91
      510
 93
      105
310
903323A310000000000000010100
  0
ACAD_PROXY_OBJECT
  5
956F
102
{ACAD_REACTORS
330
9561
102
}
330
9561
100
AcDbZombieObject
 90
      499
 91
      510
 93
      105
310
903343A310000000000000410100
  0
ACAD_PROXY_OBJECT
  5
9570
102
{ACAD_REACTORS
330
9561
102
}
330
9561
100
AcDbZombieObject
 90
      499
 91
      510
 93
      105
310
903383A310000000000000810100
  0
ACAD_PROXY_OBJECT
  5
9571
102
{ACAD_REACTORS
330
9561
102
}
330
9561
100
AcDbZombieObject
 90
      499
 91
      510
 93
      113
310
90431303A310000000000000910100
  0
ACAD_PROXY_OBJECT
  5
9572
102
{ACAD_REACTORS
330
9561
102
}
330
9561
100
AcDbZombieObject
 90
      499
 91
      510
 93
      121
310
9053130303A310000000000001650100
  0
ACAD_PROXY_OBJECT
  5
9573
102
{ACAD_REACTORS
330
9561
102
}
330
9561
100
AcDbZombieObject
 90
      499
 91
      510
 93
      257
310
90E312F31323822203D2031272D3022000000000000200FC000000000000284000
  0
ACAD_PROXY_OBJECT
  5
9574
102
{ACAD_REACTORS
330
9561
102
}
330
9561
100
AcDbZombieObject
 90
      499
 91
      510
 93
      249
310
90D312F363422203D2031272D3022000000000000240FC000000000000284000
  0
ACAD_PROXY_OBJECT
  5
9575
102
{ACAD_REACTORS
330
9561
102
}
330
9561
100
AcDbZombieObject
 90
      499
 91
      510
 93
      249
310
90D312F333222203D2031272D3022000000000000280FC000000000000284000
  0
ACAD_PROXY_OBJECT
  5
9576
102
{ACAD_REACTORS
330
9561
102
}
330
9561
100
AcDbZombieObject
 90
      499
 91
      510
 93
      249
310
90D312F313622203D2031272D30220000000000002C0FC000000000000284000
  0
ACAD_PROXY_OBJECT
  5
9577
102
{ACAD_REACTORS
330
9561
102
}
330
9561
100
AcDbZombieObject
 90
      499
 91
      510
 93
      249
310
90D332F333222203D2031272D30220000000000002E0FC000000000000284000
  0
ACAD_PROXY_OBJECT
  5
9578
102
{ACAD_REACTORS
330
9561
102
}
330
9561
100
AcDbZombieObject
 90
      499
 91
      510
 93
      241
310
90C312F3822203D2031272D3022000000000000300FC000000000000284000
  0
ACAD_PROXY_OBJECT
  5
9579
102
{ACAD_REACTORS
330
9561
102
}
330
9561
100
AcDbZombieObject
 90
      499
 91
      510
 93
      249
310
90D332F313622203D2031272D3022000000000000320FC000000000000284000
  0
ACAD_PROXY_OBJECT
  5
957A
102
{ACAD_REACTORS
330
9561
102
}
330
9561
100
AcDbZombieObject
 90
      499
 91
      510
 93
      241
310
90C312F3422203D2031272D3022000000000000340FC000000000000284000
  0
ACAD_PROXY_OBJECT
  5
957B
102
{ACAD_REACTORS
330
9561
102
}
330
9561
100
AcDbZombieObject
 90
      499
 91
      510
 93
      241
310
90C332F3822203D2031272D3022000000000000360FC000000000000284000
  0
ACAD_PROXY_OBJECT
  5
957C
102
{ACAD_REACTORS
330
9561
102
}
330
9561
100
AcDbZombieObject
 90
      499
 91
      510
 93
      241
310
90C312F3222203D2031272D3022000000000000380FC000000000000284000
  0
ACAD_PROXY_OBJECT
  5
957D
102
{ACAD_REACTORS
330
9561
102
}
330
9561
100
AcDbZombieObject
 90
      499
 91
      510
 93
      241
310
90C332F3422203D2031272D30220000000000003A0FC000000000000284000
  0
ACAD_PROXY_OBJECT
  5
957E
102
{ACAD_REACTORS
330
9561
102
}
330
9561
100
AcDbZombieObject
 90
      499
 91
      510
 93
      161
310
90A3122203D2031272D30224000000000000284000
  0
ACAD_PROXY_OBJECT
  5
957F
102
{ACAD_REACTORS
330
9561
102
}
330
9561
100
AcDbZombieObject
 90
      499
 91
      510
 93
      257
310
90E312D312F3222203D2031272D30220000000000003E0FC000000000000284000
  0
ACAD_PROXY_OBJECT
  5
9580
102
{ACAD_REACTORS
330
9561
102
}
330
9561
100
AcDbZombieObject
 90
      499
 91
      510
 93
      225
310
90A3322203D2031272D302200000000000002100000000000000284000
  0
ACAD_PROXY_OBJECT
  5
9581
102
{ACAD_REACTORS
330
9561
102
}
330
9561
100
AcDbZombieObject
 90
      499
 91
      510
 93
      225
310
90A3622203D2031272D302200000000000006100000000000000284000
  0
ACAD_PROXY_OBJECT
  5
9582
102
{ACAD_REACTORS
330
9561
102
}
330
9561
100
AcDbZombieObject
 90
      499
 91
      510
 93
      249
310
90D31272D3022203D2031272D30220000000000000A100000000000000284000
  0
ACAD_PROXY_OBJECT
  5
9556
102
{ACAD_REACTORS
330
9550
102
}
330
9550
100
AcDbZombieObject
 90
      499
 91
      509
 93
      436
310
42CC9915DA5C99599C985B595049028333333333333E3BF0000000000000FB0107901411070040501600405405064090741402480A0340
1001
ACAD
1000
AcDbSavedByObjectVersion
1070
     0
  0
ACAD_PROXY_OBJECT
  5
9558
102
{ACAD_REACTORS
330
9550
102
}
330
9550
100
AcDbZombieObject
 90
      499
 91
      509
 93
      500
310
424CD108121A5919195B90640502408333333333333E3BF0000000000000FB01079024090700405020000000000001110200405405064090740C02480A0340
1001
ACAD
1000
AcDbSavedByObjectVersion
1070
     0
  0
ACAD_PROXY_OBJECT
  5
9557
102
{ACAD_REACTORS
330
9550
102
}
330
9550
100
AcDbZombieObject
 90
      499
 91
      509
 93
      436
310
42CCD915DA5C99599C985B595059028333333333333E3BF0000000000000FB0107901411070040501600405405064090741402480A0340
1001
ACAD
1000
AcDbSavedByObjectVersion
1070
     0
  0
ACAD_PROXY_OBJECT
  5
9555
102
{ACAD_REACTORS
330
9550
102
}
330
9550
100
AcDbZombieObject
 90
      499
 91
      509
 93
      388
310
4150985CDA58D07406404333333333333E3BF0000000000000FB0107A41107004050150841D405064090741402480A0350
1001
ACAD
1000
AcDbSavedByObjectVersion
1070
     0
  0
ACAD_PROXY_OBJECT
  5
955C
102
{ACAD_REACTORS
330
9550
102
}
330
9550
100
AcDbZombieObject
 90
      499
 91
      509
 93
      428
310
42109C9A59DA1D195B90C409028333333333333E3BF0000000000000FB010790141107004050150841D405064090741402480A029950
1001
ACAD
1000
AcDbSavedByObjectVersion
1070
     0
  0
ACAD_PROXY_OBJECT
  5
9560
102
{ACAD_REACTORS
330
9550
102
}
330
9550
100
AcDbZombieObject
 90
      499
 91
      509
 93
      452
310
42D0DBDB1BDC90DA185B99D95104090240C333333333333E3BF0000000000000FB0108901411070040501508421405064090741402480A0350
1001
ACAD
1000
AcDbSavedByObjectVersion
1070
     0
  0
ACAD_PROXY_OBJECT
  5
9559
102
{ACAD_REACTORS
330
9550
102
}
330
9550
100
AcDbZombieObject
 90
      499
 91
      509
 93
      500
310
4290DBDB98D95C1D1D585B10940D028333333333333E3BF0000000000000FB0107902409070040501000000000000111010841D405064090740C02480A0340
1001
ACAD
1000
AcDbSavedByObjectVersion
1070
     0
  0
ACAD_PROXY_OBJECT
  5
955B
102
{ACAD_REACTORS
330
9550
102
}
330
9550
100
AcDbZombieObject
 90
      499
 91
      509
 93
      412
310
40D11A5B50B409028333333333333E3BF0000000000000FB010790141107004050150841D405064090741402480A02677FFFFFD0
1001
ACAD
1000
AcDbSavedByObjectVersion
1070
     0
  0
ACAD_PROXY_OBJECT
  5
A211
102
{ACAD_REACTORS
330
9550
102
}
330
9550
100
AcDbZombieObject
 90
      499
 91
      509
 93
      452
310
43115919D950DBDB1BDC93D999916409028333333333333E3BF0000000000000FB010790141107004050150841D405064090741402480A0350
1001
ACAD
1000
AcDbSavedByObjectVersion
1070
     0
  0
ACAD_PROXY_OBJECT
  5
955F
102
{ACAD_REACTORS
330
9550
102
}
330
9550
100
AcDbZombieObject
 90
      499
 91
      509
 93
      444
310
42D19858D95C185D1D195C9B90F409028333333333333E3BF0000000000000FB010790141107004050150841D405064090741402480A0350
1001
ACAD
1000
AcDbSavedByObjectVersion
1070
     0
  0
ACAD_PROXY_OBJECT
  5
9551
102
{ACAD_REACTORS
330
9550
102
}
330
9550
100
AcDbZombieObject
 90
      499
 91
      509
 93
      388
310
41119B185D240901404333333333333E3BF0000000000000F9010740A41107004050150841D405064090741402480A1B50
1001
ACAD
1000
AcDbSavedByObjectVersion
1070
     0
  0
ACAD_PROXY_OBJECT
  5
9552
102
{ACAD_REACTORS
330
9550
102
}
330
9550
100
AcDbZombieObject
 90
      499
 91
      509
 93
      476
310
43519B185D15DA5D1A115919D95CD0140901404333333333333E3BF0000000000000F9010740901411070040501600405405064090741402480A1B50
1001
ACAD
1000
AcDbSavedByObjectVersion
1070
     0
  0
ACAD_PROXY_OBJECT
  5
9553
102
{ACAD_REACTORS
330
9550
102
}
330
9550
100
AcDbZombieObject
 90
      499
 91
      509
 93
      412
310
41D1DBDD5C985D5910240902404333333333333E3BF0000000000000F9010740A411070040501641D405064090741402480A1B50
1001
ACAD
1000
AcDbSavedByObjectVersion
1070
     0
  0
ACAD_PROXY_OBJECT
  5
9554
102
{ACAD_REACTORS
330
9550
102
}
330
9550
100
AcDbZombieObject
 90
      499
 91
      509
 93
      500
310
4411DBDD5C985D5915DA5D1A115919D95CD0340902404333333333333E3BF0000000000000F9010740901411070040501600405405064090741402480A1B50
1001
ACAD
1000
AcDbSavedByObjectVersion
1070
     0
  0
ACAD_PROXY_OBJECT
  5
A260
102
{ACAD_REACTORS
330
9550
102
}
330
9550
100
AcDbZombieObject
 90
      499
 91
      509
 93
      476
310
41921A5919195B90640502408333333333333E3BF0000000000000FB01079024090700405020000000000001110200405405064090740C02480A0340
1001
ACAD
1000
AcDbSavedByObjectVersion
1070
     0
  0
ACAD_PROXY_OBJECT
  5
A20F
102
{ACAD_REACTORS
330
9550
102
}
330
9550
100
AcDbZombieObject
 90
      499
 91
      509
 93
      428
310
42529A5D1D195C93D999914409028333333333333E3BF0000000000000FB010790141107004050150A41D405064090741402480A0350
1001
ACAD
1000
AcDbSavedByObjectVersion
1070
     0
  0
ACAD_PROXY_OBJECT
  5
955E
102
{ACAD_REACTORS
330
9550
102
}
330
9550
100
AcDbZombieObject
 90
      499
 91
      509
 93
      444
310
42D31A5B995C185D1D195C9B90E409028333333333333E3BF0000000000000FB010790141107004050750841D405064090741402483A0350
1001
ACAD
1000
AcDbSavedByObjectVersion
1070
     0
  0
ACAD_PROXY_OBJECT
  5
B16E
102
{ACAD_REACTORS
330
9550
102
}
330
9550
100
AcDbZombieObject
 90
      499
 91
      509
 93
      484
310
42135BD9195B1A5B99D0A409038333333333333E33F0000000000000F901074090290700405010000000000201990108421405064090741402480A1B40
1001
ACAD
1000
AcDbSavedByObjectVersion
1070
     0
  0
ACAD_PROXY_OBJECT
  5
A210
102
{ACAD_REACTORS
330
9550
102
}
330
9550
100
AcDbZombieObject
 90
      499
 91
      509
 93
      444
310
42D3DD995C9A185B99D3D999915409028333333333333E3BF0000000000000FB010790141107004050150941D405064090741402480A0350
1001
ACAD
1000
AcDbSavedByObjectVersion
1070
     0
  0
ACAD_PROXY_OBJECT
  5
955A
102
{ACAD_REACTORS
330
9550
102
}
330
9550
100
AcDbZombieObject
 90
      499
 91
      509
 93
      420
310
425499585B1A5CDD1A58D08409028333333333333E3BF0000000000000FB01079019070040501508421405064090741402480A1B40
1001
ACAD
1000
AcDbSavedByObjectVersion
1070
     0
  0
ACAD_PROXY_OBJECT
  5
A265
102
{ACAD_REACTORS
330
9550
102
}
330
9550
100
AcDbZombieObject
 90
      499
 91
      509
 93
      420
310
4194DA1859195911B40902404333333333333E3BF0000000000000F9010740A41107004050150800405405064090840C02480A0B40
1001
ACAD
1000
AcDbSavedByObjectVersion
1070
     0
  0
ACAD_PROXY_OBJECT
  5
A264
102
{ACAD_REACTORS
330
9550
102
}
330
9550
100
AcDbZombieObject
 90
      499
 91
      509
 93
      516
310
4454DA18591959081DDA5D1A08195919D95CD1A40902404333333333333E3BF0000000000000F901074090142907004050250800405405064090740C02480A0B40
1001
ACAD
1000
AcDbSavedByObjectVersion
1070
     0
  0
ACAD_PROXY_OBJECT
  5
A261
102
{ACAD_REACTORS
330
9550
102
}
330
9550
100
AcDbZombieObject
 90
      499
 91
      509
 93
      532
310
4394DA1859195CC81BD98811DC985E5174090240C333333333333E3BF0000000000000FB01079024090741D01000000000000111010841D405064090740C02480A0340
1001
ACAD
1000
AcDbSavedByObjectVersion
1070
     0
  0
ACAD_PROXY_OBJECT
  5
A262
102
{ACAD_REACTORS
330
9550
102
}
330
9550
100
AcDbZombieObject
 90
      499
 91
      509
 93
      476
310
41D4DAD95D18DA1E51840502408333333333333E3BF0000000000000FB01079024090741D01000000000000111010B41D405064090741802480A0340
1001
ACAD
1000
AcDbSavedByObjectVersion
1070
     0
  0
ACAD_PROXY_OBJECT
  5
955D
102
{ACAD_REACTORS
330
9550
102
}
330
9550
100
AcDbZombieObject
 90
      499
 91
      509
 93
      412
310
41D51A1A58DAD95B90D409028333333333333E3BF0000000000000FB010790141107004050150C41D405064090741402480A0350
1001
ACAD
1000
AcDbSavedByObjectVersion
1070
     0
  0
ACAD_PROXY_OBJECT
  5
A25F
102
{ACAD_REACTORS
330
9550
102
}
330
9550
100
AcDbZombieObject
 90
      499
 91
      509
 93
      420
310
4255DA5C99599C985B595059028333333333333E3BF0000000000000FB0107901411070040501600405405064090740C02480A0340
1001
ACAD
1000
AcDbSavedByObjectVersion
1070
     0
  0
ACAD_PROXY_OBJECT
  5
A263
102
{ACAD_REACTORS
330
9550
102
}
330
9550
100
AcDbZombieObject
 90
      499
 91
      509
 93
      404
310
41560B54985E51940902404000000000000E03F0000000000000FB010740501907004050150841D405064090740C02480A1B40
1001
ACAD
1000
AcDbSavedByObjectVersion
1070
     0
  0
XRECORD
  5
B390
102
{ACAD_REACTORS
330
B38F
102
}
330
B38F
100
AcDbXrecord
340
18D
  0
XRECORD
  5
B391
102
{ACAD_REACTORS
330
B38F
102
}
330
B38F
100
AcDbXrecord
340
18C
  0
DICTIONARYVAR
  5
B18B
102
{ACAD_REACTORS
330
37
102
}
330
37
100
DictionaryVariables
280
     0
  1
1:1
  0
DICTIONARYVAR
  5
9627
102
{ACAD_REACTORS
330
37
102
}
330
37
100
DictionaryVariables
280
     0
  1
Standard
  0
DICTIONARYVAR
  5
29E
102
{ACAD_REACTORS
330
37
102
}
330
37
100
DictionaryVariables
280
     0
  1
Standard
  0
DICTIONARYVAR
  5
38
102
{ACAD_REACTORS
330
37
102
}
330
37
100
DictionaryVariables
280
     0
  1
-1
  0
DICTIONARYVAR
  5
1CE
102
{ACAD_REACTORS
330
37
102
}
330
37
100
DictionaryVariables
280
     0
  1
2
  0
DICTIONARYVAR
  5
704E
102
{ACAD_REACTORS
330
37
102
}
330
37
100
DictionaryVariables
280
     0
  1
1
  0
DICTIONARYVAR
  5
962A
102
{ACAD_REACTORS
330
37
102
}
330
37
100
DictionaryVariables
280
     0
  1
0
  0
DICTIONARYVAR
  5
7052
102
{ACAD_REACTORS
330
37
102
}
330
37
100
DictionaryVariables
280
     0
  1
8
  0
DICTIONARYVAR
  5
7051
102
{ACAD_REACTORS
330
37
102
}
330
37
100
DictionaryVariables
280
     0
  1
1
  0
DICTIONARYVAR
  5
B143
102
{ACAD_REACTORS
330
37
102
}
330
37
100
DictionaryVariables
280
     0
  1
0
  0
DICTIONARYVAR
  5
B144
102
{ACAD_REACTORS
330
37
102
}
330
37
100
DictionaryVariables
280
     0
  1
0
  0
DICTIONARYVAR
  5
AB30
102
{ACAD_REACTORS
330
37
102
}
330
37
100
DictionaryVariables
280
     0
  1
0
  0
DICTIONARYVAR
  5
704F
102
{ACAD_REACTORS
330
37
102
}
330
37
100
DictionaryVariables
280
     0
  1
120
  0
DICTIONARYVAR
  5
7050
102
{ACAD_REACTORS
330
37
102
}
330
37
100
DictionaryVariables
280
     0
  1
0
  0
DICTIONARYVAR
  5
1CF
102
{ACAD_REACTORS
330
37
102
}
330
37
100
DictionaryVariables
280
     0
  1

  0
DICTIONARYVAR
  5
9629
102
{ACAD_REACTORS
330
37
102
}
330
37
100
DictionaryVariables
280
     0
  1
127
  0
DICTIONARYVAR
  5
B16D
102
{ACAD_REACTORS
330
37
102
}
330
37
100
DictionaryVariables
280
     0
  1
2
  0
DICTIONARY
  5
B52D
330
9540
100
AcDbDictionary
  3
ACAD_XREC_ROUNDTRIP
360
B52E
1001
ACAD
1000
TREAT_AS_HARD
1070
     1
  0
DICTIONARY
  5
B52F
330
9538
100
AcDbDictionary
  3
ACAD_XREC_ROUNDTRIP
360
B530
1001
ACAD
1000
TREAT_AS_HARD
1070
     1
  0
DICTIONARY
  5
B531
330
9548
100
AcDbDictionary
  3
ACAD_XREC_ROUNDTRIP
360
B532
1001
ACAD
1000
TREAT_AS_HARD
1070
     1
  0
XRECORD
  5
B52E
102
{ACAD_REACTORS
330
B52D
102
}
330
B52D
100
AcDbXrecord
102
MATERIAL
148
0.0
149
0.0
149
0.0
 93
        0
 94
      127
282
     0
 72
     0
 77
     0
171
     0
175
     0
179
     0
273
     0
  0
XRECORD
  5
B530
102
{ACAD_REACTORS
330
B52F
102
}
330
B52F
100
AcDbXrecord
102
MATERIAL
148
0.0
149
0.0
149
0.0
 93
        0
 94
      127
282
     0
 72
     0
 77
     0
171
     0
175
     0
179
     0
273
     0
  0
XRECORD
  5
B532
102
{ACAD_REACTORS
330
B531
102
}
330
B531
100
AcDbXrecord
102
MATERIAL
148
0.0
149
0.0
149
0.0
 93
        0
 94
      127
282
     0
 72
     0
 77
     0
171
     0
175
     0
179
     0
273
     0
  0
ENDSEC
  0
EOF
