  0
SECTION
  2
HEADER
  9
$ACADVER
  1
AC1012
  9
$DWGCODEPAGE
  3
ansi_932
  9
$INSBASE
 10
0.0
 20
0.0
 30
0.0
  9
$EXTMIN
 10
6539.111505369538
 20
15.0062448631752
 30
0.0000000001127424
  9
$EXTMAX
 10
6848.098854143024
 20
255.004926550072
 30
0.0000000001127424
  9
$LIMMIN
 10
0.0
 20
0.0
  9
$LIMMAX
 10
420.0
 20
297.0
  9
$ORTHOMODE
 70
     0
  9
$REGENMODE
 70
     1
  9
$FILLMODE
 70
     1
  9
$QTEXTMODE
 70
     0
  9
$MIRRTEXT
 70
     0
  9
$DRAGMODE
 70
     2
  9
$LTSCALE
 40
0.5
  9
$OSMODE
 70
 14463
  9
$ATTMODE
 70
     1
  9
$TEXTSIZE
 40
4.0
  9
$TRACEWID
 40
1.0
  9
$TEXTSTYLE
  7
STANDARD
  9
$CLAYER
  8
1TEXT
  9
$CELTYPE
  6
BYLAYER
  9
$CECOLOR
 62
   256
  9
$CELTSCALE
 40
1.0
  9
$DELOBJ
 70
     1
  9
$DISPSILH
 70
     0
  9
$DIMSCALE
 40
1.0
  9
$DIMASZ
 40
2.0
  9
$DIMEXO
 40
0.0
  9
$DIMDLI
 40
7.0
  9
$DIMRND
 40
0.0
  9
$DIMDLE
 40
0.0
  9
$DIMEXE
 40
1.0
  9
$DIMTP
 40
0.0
  9
$DIMTM
 40
0.0
  9
$DIMTXT
 40
3.5
  9
$DIMCEN
 40
0.0
  9
$DIMTSZ
 40
0.0
  9
$DIMTOL
 70
     0
  9
$DIMLIM
 70
     0
  9
$DIMTIH
 70
     0
  9
$DIMTOH
 70
     0
  9
$DIMSE1
 70
     0
  9
$DIMSE2
 70
     0
  9
$DIMTAD
 70
     1
  9
$DIMZIN
 70
     8
  9
$DIMBLK
  1

  9
$DIMASO
 70
     1
  9
$DIMSHO
 70
     1
  9
$DIMPOST
  1
 
  9
$DIMAPOST
  1

  9
$DIMALT
 70
     0
  9
$DIMALTD
 70
     2
  9
$DIMALTF
 40
25.4
  9
$DIMLFAC
 40
1.0
  9
$DIMTOFL
 70
     1
  9
$DIMTVP
 40
0.0
  9
$DIMTIX
 70
     0
  9
$DIMSOXD
 70
     0
  9
$DIMSAH
 70
     1
  9
$DIMBLK1
  1
OPEN30
  9
$DIMBLK2
  1
OPEN30
  9
$DIMSTYLE
  2
NEWX10
  9
$DIMCLRD
 70
   256
  9
$DIMCLRE
 70
   256
  9
$DIMCLRT
 70
   201
  9
$DIMTFAC
 40
0.7
  9
$DIMGAP
 40
0.7
  9
$DIMJUST
 70
     0
  9
$DIMSD1
 70
     0
  9
$DIMSD2
 70
     0
  9
$DIMTOLJ
 70
     1
  9
$DIMTZIN
 70
     8
  9
$DIMALTZ
 70
     0
  9
$DIMALTTZ
 70
     0
  9
$DIMFIT
 70
     3
  9
$DIMUPT
 70
     0
  9
$DIMUNIT
 70
     2
  9
$DIMDEC
 70
     2
  9
$DIMTDEC
 70
     4
  9
$DIMALTU
 70
     2
  9
$DIMALTTD
 70
     2
  9
$DIMTXSTY
  7
STANDARD
  9
$DIMAUNIT
 70
     0
  9
$LUNITS
 70
     2
  9
$LUPREC
 70
     4
  9
$SKETCHINC
 40
1.0
  9
$FILLETRAD
 40
0.0
  9
$AUNITS
 70
     0
  9
$AUPREC
 70
     2
  9
$MENU
  1
acad
  9
$ELEVATION
 40
0.0
  9
$PELEVATION
 40
0.0
  9
$THICKNESS
 40
0.0
  9
$LIMCHECK
 70
     0
  9
$CHAMFERA
 40
10.0
  9
$CHAMFERB
 40
10.0
  9
$CHAMFERC
 40
20.0
  9
$CHAMFERD
 40
0.0
  9
$SKPOLY
 70
     0
  9
$TDCREATE
 40
2451318.621352917
  9
$TDUPDATE
 40
2458163.559452408
  9
$TDINDWG
 40
1.479909375
  9
$TDUSRTIMER
 40
1.479909375
  9
$USRTIMER
 70
     1
  9
$ANGBASE
 50
0.0
  9
$ANGDIR
 70
     0
  9
$PDMODE
 70
     0
  9
$PDSIZE
 40
0.0
  9
$PLINEWID
 40
0.0
  9
$COORDS
 70
     2
  9
$SPLFRAME
 70
     0
  9
$SPLINETYPE
 70
     6
  9
$SPLINESEGS
 70
     8
  9
$ATTDIA
 70
     0
  9
$ATTREQ
 70
     1
  9
$HANDLING
 70
     1
  9
$HANDSEED
  5
B756
  9
$SURFTAB1
 70
     6
  9
$SURFTAB2
 70
     6
  9
$SURFTYPE
 70
     6
  9
$SURFU
 70
     6
  9
$SURFV
 70
     6
  9
$UCSNAME
  2

  9
$UCSORG
 10
0.0
 20
0.0
 30
0.0
  9
$UCSXDIR
 10
1.0
 20
0.0
 30
0.0
  9
$UCSYDIR
 10
0.0
 20
1.0
 30
0.0
  9
$PUCSNAME
  2

  9
$PUCSORG
 10
0.0
 20
0.0
 30
0.0
  9
$PUCSXDIR
 10
1.0
 20
0.0
 30
0.0
  9
$PUCSYDIR
 10
0.0
 20
1.0
 30
0.0
  9
$USERI1
 70
     0
  9
$USERI2
 70
     0
  9
$USERI3
 70
     0
  9
$USERI4
 70
     0
  9
$USERI5
 70
     0
  9
$USERR1
 40
0.0
  9
$USERR2
 40
0.0
  9
$USERR3
 40
0.0
  9
$USERR4
 40
0.0
  9
$USERR5
 40
0.0
  9
$WORLDVIEW
 70
     1
  9
$SHADEDGE
 70
     3
  9
$SHADEDIF
 70
    70
  9
$TILEMODE
 70
     1
  9
$MAXACTVP
 70
    48
  9
$PINSBASE
 10
0.0
 20
0.0
 30
0.0
  9
$PLIMCHECK
 70
     0
  9
$PEXTMIN
 10
1.000000000000000E+20
 20
1.000000000000000E+20
 30
1.000000000000000E+20
  9
$PEXTMAX
 10
-1.000000000000000E+20
 20
-1.000000000000000E+20
 30
-1.000000000000000E+20
  9
$PLIMMIN
 10
0.0
 20
0.0
  9
$PLIMMAX
 10
420.0
 20
297.0
  9
$UNITMODE
 70
     0
  9
$VISRETAIN
 70
     1
  9
$PLINEGEN
 70
     0
  9
$PSLTSCALE
 70
     1
  9
$TREEDEPTH
 70
  3020
  9
$PICKSTYLE
 70
     1
  9
$CMLSTYLE
  2
STANDARD
  9
$CMLJUST
 70
     0
  9
$CMLSCALE
 40
20.0
  9
$SAVEIMAGES
 70
     1
  0
ENDSEC
  0
SECTION
  2
CLASSES
  0
CLASS
  1
DICTIONARYVAR
  2
AcDbDictionaryVar
  3
ObjectDBX Classes
 90
        0
280
     0
281
     0
  0
CLASS
  1
IDBUFFER
  2
AcDbIdBuffer
  3
ObjectDBX Classes
 90
    32768
280
     0
281
     0
  0
CLASS
  1
LWPOLYLINE
  2
AcDbPolyline
  3
ObjectDBX Classes
 90
    32768
280
     0
281
     1
  0
CLASS
  1
ACDBDICTIONARYWDFLT
  2
AcDbDictionaryWithDefault
  3
ObjectDBX Classes
 90
    32768
280
     0
281
     0
  0
CLASS
  1
ACDBPLACEHOLDER
  2
AcDbPlaceHolder
  3
ObjectDBX Classes
 90
        0
280
     0
281
     0
  0
CLASS
  1
LAYOUT
  2
AcDbLayout
  3
ObjectDBX Classes
 90
        0
280
     0
281
     0
  0
CLASS
  1
TABLESTYLE
  2
AcDbTableStyle
  3
ObjectDBX Classes
 90
     4095
280
     0
281
     0
  0
CLASS
  1
SORTENTSTABLE
  2
AcDbSortentsTable
  3
ObjectDBX Classes
 90
    32768
280
     0
281
     0
  0
CLASS
  1
MATERIAL
  2
AcDbMaterial
  3
ObjectDBX Classes
 90
     1153
280
     0
281
     0
  0
CLASS
  1
VISUALSTYLE
  2
AcDbVisualStyle
  3
ObjectDBX Classes
 90
     4095
280
     0
281
     0
  0
CLASS
  1
SCALE
  2
AcDbScale
  3
ObjectDBX Classes
 90
     1153
280
     0
281
     0
  0
CLASS
  1
MLEADERSTYLE
  2
AcDbMLeaderStyle
  3
ACDB_MLEADERSTYLE_CLASS
 90
     4095
280
     0
281
     0
  0
CLASS
  1
CELLSTYLEMAP
  2
AcDbCellStyleMap
  3
ObjectDBX Classes
 90
     1152
280
     0
281
     0
  0
CLASS
  1
SUN
  2
AcDbSun
  3
SCENEOE
 90
     1153
280
     0
281
     0
  0
CLASS
  1
XRECORD
  2
AcDbXrecord
  3
ObjectDBX Classes
 90
    32768
280
     0
281
     0
  0
CLASS
  1
HATCH
  2
AcDbHatch
  3
ObjectDBX Classes
 90
    32768
280
     0
281
     1
  0
ENDSEC
  0
SECTION
  2
TABLES
  0
TABLE
  2
VPORT
  5
8
330
0
100
AcDbSymbolTable
 70
     1
  0
VPORT
  5
952D
330
8
100
AcDbSymbolTableRecord
100
AcDbViewportTableRecord
  2
*ACTIVE
 70
     0
 10
0.0
 20
0.0
 11
1.0
 21
1.0
 12
6693.605179756281
 22
135.0055857066236
 13
0.0
 23
0.0
 14
10.0
 24
10.0
 15
10.0
 25
10.0
 16
0.0
 26
0.0
 36
1.0
 17
0.0
 27
0.0
 37
0.0
 40
257.6827950743524
 41
1.871481028151775
 42
50.0
 43
0.0
 44
0.0
 50
0.0
 51
0.0
 71
    16
 72
  1000
 73
     1
 74
     1
 75
     0
 76
     0
 77
     0
 78
     0
1001
ACAD_NAV_VCDISPLAY
1070
     3
  0
ENDTAB
  0
TABLE
  2
LTYPE
  5
5
330
0
100
AcDbSymbolTable
 70
     2
  0
LTYPE
  5
12
330
5
100
AcDbSymbolTableRecord
100
AcDbLinetypeTableRecord
  2
BYBLOCK
 70
     0
  3

 72
    65
 73
     0
 40
0.0
  0
LTYPE
  5
13
330
5
100
AcDbSymbolTableRecord
100
AcDbLinetypeTableRecord
  2
BYLAYER
 70
     0
  3

 72
    65
 73
     0
 40
0.0
  0
LTYPE
  5
14
330
5
100
AcDbSymbolTableRecord
100
AcDbLinetypeTableRecord
  2
CONTINUOUS
 70
     0
  3
Solid line
 72
    65
 73
     0
 40
0.0
  0
LTYPE
  5
9837
330
5
100
AcDbSymbolTableRecord
100
AcDbLinetypeTableRecord
  2
CENTER2
 70
     0
  3
Center (.5x) ___ _ ___ _ ___ _ ___ _ ___ _ ___
 72
    65
 73
     4
 40
28.575
 49
19.05
 74
     0
 49
-3.175
 74
     0
 49
3.175
 74
     0
 49
-3.175
 74
     0
  0
ENDTAB
  0
TABLE
  2
LAYER
  5
2
102
{ACAD_XDICTIONARY
360
96D9
102
}
330
0
100
AcDbSymbolTable
 70
     5
  0
LAYER
  5
E
102
{ACAD_XDICTIONARY
360
9593
102
}
330
2
100
AcDbSymbolTableRecord
100
AcDbLayerTableRecord
  2
0
 70
     0
 62
     7
  6
CONTINUOUS
  0
LAYER
  5
29
102
{ACAD_XDICTIONARY
360
9595
102
}
330
2
100
AcDbSymbolTableRecord
100
AcDbLayerTableRecord
  2
1CENTER
 70
     0
 62
     7
  6
CENTER2
  0
LAYER
  5
31
102
{ACAD_XDICTIONARY
360
9597
102
}
330
2
100
AcDbSymbolTableRecord
100
AcDbLayerTableRecord
  2
1TEXT
 70
     0
 62
     7
  6
CONTINUOUS
  0
LAYER
  5
243
102
{ACAD_XDICTIONARY
360
959D
102
}
330
2
100
AcDbSymbolTableRecord
100
AcDbLayerTableRecord
  2
01
 70
     0
 62
     1
  6
CONTINUOUS
  0
LAYER
  5
24E
102
{ACAD_XDICTIONARY
360
95A3
102
}
330
2
100
AcDbSymbolTableRecord
100
AcDbLayerTableRecord
  2
1DIM
 70
     0
 62
     7
  6
CONTINUOUS
  0
ENDTAB
  0
TABLE
  2
STYLE
  5
3
330
0
100
AcDbSymbolTable
 70
     1
  0
STYLE
  5
F
330
3
100
AcDbSymbolTableRecord
100
AcDbTextStyleTableRecord
  2
STANDARD
 70
     0
 40
0.0
 41
1.0
 50
0.0
 71
     0
 42
4.0
  3
txt.shx
  4
extfont.shx
  0
ENDTAB
  0
TABLE
  2
VIEW
  5
6
330
0
100
AcDbSymbolTable
 70
     0
  0
ENDTAB
  0
TABLE
  2
UCS
  5
7
330
0
100
AcDbSymbolTable
 70
     5
  0
UCS
  5
B181
330
7
100
AcDbSymbolTableRecord
100
AcDbUCSTableRecord
  2
U
 70
     0
 10
0.0
 20
0.0
 30
0.0
 11
1.0
 21
0.0
 31
0.0
 12
0.0
 22
2.220446049250313E-16
 32
1.0
 79
     0
146
0.0
  0
UCS
  5
B182
330
7
100
AcDbSymbolTableRecord
100
AcDbUCSTableRecord
  2
L
 70
     0
 10
0.0
 20
0.0
 30
0.0
 11
-2.220446049250313E-16
 21
-1.0
 31
2.220446049250313E-16
 12
0.0
 22
2.220446049250313E-16
 32
1.0
 79
     0
146
0.0
  0
UCS
  5
B183
330
7
100
AcDbSymbolTableRecord
100
AcDbUCSTableRecord
  2
R
 70
     0
 10
0.0
 20
0.0
 30
0.0
 11
3.445092848397667E-16
 21
1.0
 31
-2.220446049250313E-16
 12
0.0
 22
2.220446049250313E-16
 32
1.0
 79
     0
146
0.0
  0
UCS
  5
B184
330
7
100
AcDbSymbolTableRecord
100
AcDbUCSTableRecord
  2
ISOME
 70
     0
 10
0.0
 20
0.0
 30
0.0
 11
0.7071450863198265
 21
-0.7070684729403536
 31
-3.830824619466267E-5
 12
0.4082704059428734
 22
0.4082704077401151
 32
0.8164744636514736
 79
     0
146
0.0
  0
UCS
  5
B185
330
7
100
AcDbSymbolTableRecord
100
AcDbUCSTableRecord
  2
PERSPECTIVE
 70
     0
 10
0.0
 20
0.0
 30
0.0
 11
0.8191477691768964
 21
-0.5735823260466403
 31
-0.0004974931557765462
 12
0.1584844715982971
 22
0.225502028986108
 32
0.961265575782966
 79
     0
146
0.0
  0
ENDTAB
  0
TABLE
  2
APPID
  5
9
330
0
100
AcDbSymbolTable
 70
    14
  0
APPID
  5
10
330
9
100
AcDbSymbolTableRecord
100
AcDbRegAppTableRecord
  2
ACAD
 70
     0
  0
APPID
  5
21
330
9
100
AcDbSymbolTableRecord
100
AcDbRegAppTableRecord
  2
DRAWINGVARIABLESXDATA
 70
     0
  0
APPID
  5
64
330
9
100
AcDbSymbolTableRecord
100
AcDbRegAppTableRecord
  2
CONTENTTABDATA
 70
     0
  0
APPID
  5
65
330
9
100
AcDbSymbolTableRecord
100
AcDbRegAppTableRecord
  2
CONTENTCURRENTTAB
 70
     0
  0
APPID
  5
66
330
9
100
AcDbSymbolTableRecord
100
AcDbRegAppTableRecord
  2
CONTENTBLOCKDESCRIPTION
 70
     0
  0
APPID
  5
67
330
9
100
AcDbSymbolTableRecord
100
AcDbRegAppTableRecord
  2
CONTENTBLOCKICON
 70
     0
  0
APPID
  5
68
330
9
100
AcDbSymbolTableRecord
100
AcDbRegAppTableRecord
  2
CONTENTLONGBLOCKNAME
 70
     0
  0
APPID
  5
2AE
330
9
100
AcDbSymbolTableRecord
100
AcDbRegAppTableRecord
  2
ACAD_PSEXT
 70
     0
  0
APPID
  5
9585
330
9
100
AcDbSymbolTableRecord
100
AcDbRegAppTableRecord
  2
ACAD_MLEADERVER
 70
     0
  0
APPID
  5
A2E3
330
9
100
AcDbSymbolTableRecord
100
AcDbRegAppTableRecord
  2
ACADANNOTATIVE
 70
     0
  0
APPID
  5
A2E4
330
9
100
AcDbSymbolTableRecord
100
AcDbRegAppTableRecord
  2
ACDBBLOCKREPETAG
 70
     0
  0
APPID
  5
AEB1
330
9
100
AcDbSymbolTableRecord
100
AcDbRegAppTableRecord
  2
ACAD_NAV_VCDISPLAY
 70
     0
  0
APPID
  5
AF00
330
9
100
AcDbSymbolTableRecord
100
AcDbRegAppTableRecord
  2
ACAECLAYERSTANDARD
 70
     0
  0
APPID
  5
B18D
330
9
100
AcDbSymbolTableRecord
100
AcDbRegAppTableRecord
  2
ACAD_EXEMPT_FROM_CAD_STAND
 70
     0
  0
ENDTAB
  0
TABLE
  2
DIMSTYLE
  5
A
330
0
100
AcDbSymbolTable
 70
     1
  0
DIMSTYLE
105
48
330
A
100
AcDbSymbolTableRecord
100
AcDbDimStyleTableRecord
  2
NEWX10
 70
     0
  3
 
  4

  5

  6
OPEN30
  7
OPEN30
 40
1.0
 41
2.0
 42
0.0
 43
7.0
 44
1.0
 45
0.0
 46
0.0
 47
0.0
 48
0.0
140
3.5
141
0.0
142
0.0
143
25.4
144
1.0
145
0.0
146
0.7
147
0.7
 71
     0
 72
     0
 73
     0
 74
     0
 75
     0
 76
     0
 77
     1
 78
     8
170
     0
171
     2
172
     1
173
     1
174
     0
175
     0
176
   256
177
   256
178
   201
179
     1
270
     2
271
     2
272
     4
273
     2
274
     2
340
F
275
     0
280
     0
281
     0
282
     0
283
     1
284
     8
285
     0
286
     0
287
     3
288
     0
  0
ENDTAB
  0
TABLE
  2
BLOCK_RECORD
  5
1
330
0
100
AcDbSymbolTable
 70
     8
  0
BLOCK_RECORD
  5
18
102
{ACAD_XDICTIONARY
360
88F
102
}
330
1
100
AcDbSymbolTableRecord
100
AcDbBlockTableRecord
  2
*MODEL_SPACE
  0
BLOCK_RECORD
  5
15
330
1
100
AcDbSymbolTableRecord
100
AcDbBlockTableRecord
  2
*PAPER_SPACE
  0
BLOCK_RECORD
  5
42
330
1
100
AcDbSymbolTableRecord
100
AcDbBlockTableRecord
  2
_OPEN30
  0
BLOCK_RECORD
  5
A333
330
1
100
AcDbSymbolTableRecord
100
AcDbBlockTableRecord
  2
A3WAKUKAWAJUN2017_HYOUDAI_
  0
BLOCK_RECORD
  5
B5B6
330
1
100
AcDbSymbolTableRecord
100
AcDbBlockTableRecord
  2
*X27
  0
BLOCK_RECORD
  5
B604
330
1
100
AcDbSymbolTableRecord
100
AcDbBlockTableRecord
  2
*X28
  0
BLOCK_RECORD
  5
B656
330
1
100
AcDbSymbolTableRecord
100
AcDbBlockTableRecord
  2
*X29
  0
BLOCK_RECORD
  5
B6A7
330
1
100
AcDbSymbolTableRecord
100
AcDbBlockTableRecord
  2
*X30
  0
BLOCK_RECORD
  5
B6E4
330
1
100
AcDbSymbolTableRecord
100
AcDbBlockTableRecord
  2
*X31
  0
BLOCK_RECORD
  5
B724
330
1
100
AcDbSymbolTableRecord
100
AcDbBlockTableRecord
  2
*X32
  0
ENDTAB
  0
ENDSEC
  0
SECTION
  2
BLOCKS
  0
BLOCK
  5
19
330
18
100
AcDbEntity
  8
0
100
AcDbBlockBegin
  2
*MODEL_SPACE
 70
     0
 10
0.0
 20
0.0
 30
0.0
  3
*MODEL_SPACE
  1

  0
ENDBLK
  5
1A
330
18
100
AcDbEntity
  8
0
100
AcDbBlockEnd
  0
BLOCK
  5
16
330
15
100
AcDbEntity
 67
     1
  8
0
100
AcDbBlockBegin
  2
*PAPER_SPACE
 70
     0
 10
0.0
 20
0.0
 30
0.0
  3
*PAPER_SPACE
  1

  0
ENDBLK
  5
17
330
15
100
AcDbEntity
 67
     1
  8
0
100
AcDbBlockEnd
  0
BLOCK
  5
43
330
42
100
AcDbEntity
  8
0
100
AcDbBlockBegin
  2
_OPEN30
 70
     0
 10
0.0
 20
0.0
 30
0.0
  3
_OPEN30
  1

  0
LINE
  5
44
330
42
100
AcDbEntity
  8
0
  6
BYBLOCK
 62
     0
100
AcDbLine
 10
-1.0
 20
0.26794919
 30
0.0
 11
0.0
 21
0.0
 31
0.0
  0
LINE
  5
45
330
42
100
AcDbEntity
  8
0
  6
BYBLOCK
 62
     0
100
AcDbLine
 10
0.0
 20
0.0
 30
0.0
 11
-1.0
 21
-0.26794919
 31
0.0
  0
LINE
  5
46
330
42
100
AcDbEntity
  8
0
  6
BYBLOCK
 62
     0
100
AcDbLine
 10
0.0
 20
0.0
 30
0.0
 11
-1.0
 21
0.0
 31
0.0
  0
ENDBLK
  5
47
330
42
100
AcDbEntity
  8
0
100
AcDbBlockEnd
  0
BLOCK
  5
AA56
330
A333
100
AcDbEntity
  8
0
100
AcDbBlockBegin
  2
A3WAKUKAWAJUN2017_HYOUDAI_
 70
     0
 10
0.0
 20
0.0
 30
0.0
  3
A3WAKUKAWAJUN2017_HYOUDAI_
  1

  0
LINE
  5
A335
330
A333
100
AcDbEntity
  8
0
100
AcDbLine
 10
13.26299999998673
 20
-0.0001000000000317
 30
0.0
 11
9.236999999990758
 21
8.999899999990987
 31
0.0
1001
ACAD
1000
ASC_BOUNDS
1002
{
1070
    19
1005
A376
1002
}
  0
LINE
  5
A336
330
A333
100
AcDbEntity
  8
0
100
AcDbLine
 10
5.657999999994331
 20
0.9999999999989768
 30
0.0
 11
9.236999999990758
 21
8.999999999991019
 31
0.0
1001
ACAD
1000
ASC_BOUNDS
1002
{
1070
    19
1005
A376
1002
}
  0
LINE
  5
A337
330
A333
100
AcDbEntity
  8
0
100
AcDbLine
 10
18.59199999998134
 20
-0.2368999999997641
 30
0.0
 11
16.46099999998353
 21
5.432899999994561
 31
0.0
1001
ACAD
1000
ASC_BOUNDS
1002
{
1070
    19
1005
A377
1002
}
  0
LINE
  5
A338
330
A333
100
AcDbEntity
  8
0
100
AcDbLine
 10
18.59199999998134
 20
-0.2368999999997641
 30
0.0
 11
22.38199999997767
 21
8.763099999991255
 31
0.0
1001
ACAD
1000
ASC_BOUNDS
1002
{
1070
    19
1005
A377
1002
}
  0
LINE
  5
A339
330
A333
100
AcDbEntity
  8
0
100
AcDbLine
 10
14.32899999998563
 20
-0.2368999999997641
 30
0.0
 11
16.46099999998353
 21
5.432899999994561
 31
0.0
1001
ACAD
1000
ASC_BOUNDS
1002
{
1070
    19
1005
A377
1002
}
  0
LINE
  5
A33A
330
A333
100
AcDbEntity
  8
0
100
AcDbLine
 10
14.32899999998563
 20
-0.2368999999997641
 30
0.0
 11
10.53899999998941
 21
8.763099999991255
 31
0.0
1001
ACAD
1000
ASC_BOUNDS
1002
{
1070
    19
1005
A377
1002
}
  0
LINE
  5
A33B
330
A333
100
AcDbEntity
  8
0
100
AcDbLine
 10
19.53899999998043
 20
-0.0001000000000317
 30
0.0
 11
23.56599999997638
 21
8.999899999990987
 31
0.0
1001
ACAD
1000
ASC_BOUNDS
1002
{
1070
    19
1005
A378
1002
}
  0
LINE
  5
A33C
330
A333
100
AcDbEntity
  8
0
100
AcDbLine
 10
26.97358892824991
 20
1.383099999991202
 30
0.0
 11
23.56599999997638
 21
8.999899999990987
 31
0.0
1001
ACAD
1000
ASC_BOUNDS
1002
{
1070
    19
1005
A378
1002
}
  0
LINE
  5
A33D
330
A333
100
AcDbEntity
  8
0
100
AcDbLine
 10
5.657999999994331
 20
0.9999999999989768
 30
0.0
 11
3.181999999996833
 21
4.668599999995308
 31
0.0
1001
ACAD
1000
ASC_BOUNDS
1002
{
1070
    19
1005
A376
1002
}
  0
LINE
  5
A33E
330
A333
100
AcDbEntity
  8
0
100
AcDbLine
 10
4.617999999995391
 20
-0.0001000000000317
 30
0.0
 11
1.420999999998571
 21
4.736799999995242
 31
0.0
1001
ACAD
1000
ASC_BOUNDS
1002
{
1070
    19
1005
A376
1002
}
  0
LINE
  5
A33F
330
A333
100
AcDbEntity
  8
0
100
AcDbLine
 10
1.420999999998571
 20
8.763099999991255
 30
0.0
 11
1.420999999998571
 21
0.0
 31
0.0
1001
ACAD
1000
ASC_BOUNDS
1002
{
1070
    19
1005
A37B
1002
}
  0
LINE
  5
A340
330
A333
100
AcDbEntity
  8
0
100
AcDbLine
 10
0.0
 20
8.763099999991255
 30
0.0
 11
0.0
 21
0.0
 31
0.0
1001
ACAD
1000
ASC_BOUNDS
1002
{
1070
    19
1005
A37B
1002
}
  0
LINE
  5
A341
330
A333
100
AcDbEntity
  8
0
100
AcDbLine
 10
6.766999999993232
 20
-0.0001000000000317
 30
0.0
 11
7.826999999992154
 21
2.368399999997621
 31
0.0
1001
ACAD
1000
ASC_BOUNDS
1002
{
1070
    19
1005
A376
1002
}
  0
LINE
  5
A342
330
A333
100
AcDbEntity
  8
0
100
AcDbLine
 10
0.0
 20
0.0
 30
0.0
 11
1.420999999998571
 21
0.0
 31
0.0
1001
ACAD
1000
ASC_BOUNDS
1002
{
1070
    19
1005
A37B
1002
}
  0
LINE
  5
A343
330
A333
100
AcDbEntity
  8
0
100
AcDbLine
 10
4.617999999995391
 20
0.0
 30
0.0
 11
6.766999999993232
 21
0.0
 31
0.0
1001
ACAD
1000
ASC_BOUNDS
1002
{
1070
    19
1005
A376
1002
}
  0
LINE
  5
A344
330
A333
100
AcDbEntity
  8
0
100
AcDbLine
 10
11.70599999998831
 20
-0.0001000000000317
 30
0.0
 11
10.64699999998936
 21
2.368399999997621
 31
0.0
1001
ACAD
1000
ASC_BOUNDS
1002
{
1070
    19
1005
A376
1002
}
  0
LINE
  5
A345
330
A333
100
AcDbEntity
  8
0
100
AcDbLine
 10
7.826999999992154
 20
2.368399999997621
 30
0.0
 11
10.64699999998936
 21
2.368399999997621
 31
0.0
1001
ACAD
1000
ASC_BOUNDS
1002
{
1070
    19
1005
A376
1002
}
  0
LINE
  5
A346
330
A333
100
AcDbEntity
  8
0
100
AcDbLine
 10
11.70599999998831
 20
0.0
 30
0.0
 11
13.26299999998673
 21
0.0
 31
0.0
1001
ACAD
1000
ASC_BOUNDS
1002
{
1070
    19
1005
A376
1002
}
  0
LINE
  5
A347
330
A333
100
AcDbEntity
  8
0
100
AcDbLine
 10
22.15599999997789
 20
2.368399999997621
 30
0.0
 11
24.97599999997499
 21
2.368399999997621
 31
0.0
1001
ACAD
1000
ASC_BOUNDS
1002
{
1070
    19
1005
A378
1002
}
  0
LINE
  5
A348
330
A333
100
AcDbEntity
  8
0
100
AcDbLine
 10
19.53899999998043
 20
0.0
 30
0.0
 11
21.09599999997886
 21
0.0
 31
0.0
1001
ACAD
1000
ASC_BOUNDS
1002
{
1070
    19
1005
A378
1002
}
  0
LINE
  5
A349
330
A333
100
AcDbEntity
  8
0
100
AcDbLine
 10
21.09599999997886
 20
-0.0001000000000317
 30
0.0
 11
22.15599999997789
 21
2.368399999997621
 31
0.0
1001
ACAD
1000
ASC_BOUNDS
1002
{
1070
    19
1005
A378
1002
}
  0
LINE
  5
A34A
330
A333
100
AcDbEntity
  8
0
100
AcDbLine
 10
26.02015566812236
 20
0.0330999999912365
 30
0.0
 11
24.97599999997499
 21
2.368399999997621
 31
0.0
1001
ACAD
1000
ASC_BOUNDS
1002
{
1070
    19
1005
A378
1002
}
  0
LINE
  5
A34B
330
A333
100
AcDbEntity
  8
0
100
AcDbLine
 10
14.32399999998563
 20
3.315799999996671
 30
0.0
 11
16.46099999998353
 21
8.999899999990987
 31
0.0
1001
ACAD
1000
ASC_BOUNDS
1002
{
1070
    19
1005
A377
1002
}
  0
LINE
  5
A34C
330
A333
100
AcDbEntity
  8
0
100
AcDbLine
 10
6.432999999993513
 20
8.763099999991255
 30
0.0
 11
3.181999999996833
 21
4.668599999995308
 31
0.0
1001
ACAD
1000
ASC_BOUNDS
1002
{
1070
    19
1005
A376
1002
}
  0
LINE
  5
A34D
330
A333
100
AcDbEntity
  8
0
100
AcDbLine
 10
4.617999999995391
 20
8.763099999991255
 30
0.0
 11
1.420999999998571
 21
4.736799999995242
 31
0.0
1001
ACAD
1000
ASC_BOUNDS
1002
{
1070
    19
1005
A376
1002
}
  0
LINE
  5
A34E
330
A333
100
AcDbEntity
  8
0
100
AcDbLine
 10
0.0
 20
8.763099999991255
 30
0.0
 11
1.420999999998571
 21
8.763099999991255
 31
0.0
1001
ACAD
1000
ASC_BOUNDS
1002
{
1070
    19
1005
A37B
1002
}
  0
LINE
  5
A34F
330
A333
100
AcDbEntity
  8
0
100
AcDbLine
 10
4.617999999995391
 20
8.763099999991255
 30
0.0
 11
6.432999999993513
 21
8.763099999991255
 31
0.0
1001
ACAD
1000
ASC_BOUNDS
1002
{
1070
    19
1005
A376
1002
}
  0
LINE
  5
A350
330
A333
100
AcDbEntity
  8
0
100
AcDbLine
 10
14.32399999998563
 20
3.315799999996671
 30
0.0
 11
12.02999999998792
 21
8.763099999991255
 31
0.0
1001
ACAD
1000
ASC_BOUNDS
1002
{
1070
    19
1005
A377
1002
}
  0
LINE
  5
A351
330
A333
100
AcDbEntity
  8
0
100
AcDbLine
 10
10.06399999998996
 20
3.670999999996297
 30
0.0
 11
9.236999999990758
 21
5.5200999999945
 31
0.0
1001
ACAD
1000
ASC_BOUNDS
1002
{
1070
    19
1005
A376
1002
}
  0
LINE
  5
A352
330
A333
100
AcDbEntity
  8
0
100
AcDbLine
 10
8.409999999991555
 20
3.670999999996297
 30
0.0
 11
9.236999999990758
 21
5.5200999999945
 31
0.0
1001
ACAD
1000
ASC_BOUNDS
1002
{
1070
    19
1005
A376
1002
}
  0
LINE
  5
A353
330
A333
100
AcDbEntity
  8
0
100
AcDbLine
 10
8.409999999991555
 20
3.670999999996297
 30
0.0
 11
10.06399999998996
 21
3.670999999996297
 31
0.0
1001
ACAD
1000
ASC_BOUNDS
1002
{
1070
    19
1005
A376
1002
}
  0
LINE
  5
A354
330
A333
100
AcDbEntity
  8
0
100
AcDbLine
 10
10.53899999998941
 20
8.763099999991255
 30
0.0
 11
12.02999999998792
 21
8.763099999991255
 31
0.0
1001
ACAD
1000
ASC_BOUNDS
1002
{
1070
    19
1005
A377
1002
}
  0
LINE
  5
A355
330
A333
100
AcDbEntity
  8
0
100
AcDbLine
 10
22.7389999999773
 20
3.670999999996297
 30
0.0
 11
23.56599999997638
 21
5.5200999999945
 31
0.0
1001
ACAD
1000
ASC_BOUNDS
1002
{
1070
    19
1005
A378
1002
}
  0
LINE
  5
A356
330
A333
100
AcDbEntity
  8
0
100
AcDbLine
 10
22.7389999999773
 20
3.670999999996297
 30
0.0
 11
24.39299999997559
 21
3.670999999996297
 31
0.0
1001
ACAD
1000
ASC_BOUNDS
1002
{
1070
    19
1005
A378
1002
}
  0
LINE
  5
A357
330
A333
100
AcDbEntity
  8
0
100
AcDbLine
 10
18.59799999998143
 20
3.315799999996671
 30
0.0
 11
20.89099999997916
 21
8.763099999991255
 31
0.0
1001
ACAD
1000
ASC_BOUNDS
1002
{
1070
    19
1005
A377
1002
}
  0
LINE
  5
A358
330
A333
100
AcDbEntity
  8
0
100
AcDbLine
 10
18.59799999998143
 20
3.315799999996671
 30
0.0
 11
16.46099999998353
 21
8.999899999990987
 31
0.0
1001
ACAD
1000
ASC_BOUNDS
1002
{
1070
    19
1005
A377
1002
}
  0
LINE
  5
A359
330
A333
100
AcDbEntity
  8
0
100
AcDbLine
 10
20.89099999997916
 20
8.763099999991255
 30
0.0
 11
22.38199999997767
 21
8.763099999991255
 31
0.0
1001
ACAD
1000
ASC_BOUNDS
1002
{
1070
    19
1005
A377
1002
}
  0
LINE
  5
A35A
330
A333
100
AcDbEntity
  8
0
100
AcDbLine
 10
24.39299999997559
 20
3.670999999996297
 30
0.0
 11
23.56599999997638
 21
5.5200999999945
 31
0.0
1001
ACAD
1000
ASC_BOUNDS
1002
{
1070
    19
1005
A378
1002
}
  0
LINE
  5
A35B
330
A333
100
AcDbEntity
  8
0
100
AcDbLine
 10
44.99999999995498
 20
-0.2368999999997641
 30
0.0
 11
40.02599999995994
 21
5.341799999994635
 31
0.0
1001
ACAD
1000
ASC_BOUNDS
1002
{
1070
    19
1005
A37A
1002
}
  0
LINE
  5
A35C
330
A333
100
AcDbEntity
  8
0
100
AcDbLine
 10
40.02599999995994
 20
5.341799999994635
 30
0.0
 11
40.02599999995994
 21
0.0
 31
0.0
1001
ACAD
1000
ASC_BOUNDS
1002
{
1070
    19
1005
A37A
1002
}
  0
LINE
  5
A35D
330
A333
100
AcDbEntity
  8
0
100
AcDbLine
 10
38.60499999996136
 20
8.999999999991019
 30
0.0
 11
38.60499999996136
 21
0.0
 31
0.0
1001
ACAD
1000
ASC_BOUNDS
1002
{
1070
    19
1005
A37A
1002
}
  0
LINE
  5
A35E
330
A333
100
AcDbEntity
  8
0
100
AcDbLine
 10
44.99999999995498
 20
8.763099999991255
 30
0.0
 11
44.99999999995498
 21
-0.2368999999997641
 31
0.0
1001
ACAD
1000
ASC_BOUNDS
1002
{
1070
    19
1005
A37A
1002
}
  0
LINE
  5
A35F
330
A333
100
AcDbEntity
  8
0
100
AcDbLine
 10
38.60499999996136
 20
0.0
 30
0.0
 11
40.02599999995994
 21
0.0
 31
0.0
1001
ACAD
1000
ASC_BOUNDS
1002
{
1070
    19
1005
A37A
1002
}
  0
LINE
  5
A360
330
A333
100
AcDbEntity
  8
0
100
AcDbLine
 10
43.57899999995641
 20
3.421199999996588
 30
0.0
 11
38.60499999996136
 21
8.999899999990987
 31
0.0
1001
ACAD
1000
ASC_BOUNDS
1002
{
1070
    19
1005
A37A
1002
}
  0
LINE
  5
A361
330
A333
100
AcDbEntity
  8
0
100
AcDbLine
 10
43.57899999995641
 20
8.763099999991255
 30
0.0
 11
43.57899999995641
 21
3.421199999996588
 31
0.0
1001
ACAD
1000
ASC_BOUNDS
1002
{
1070
    19
1005
A37A
1002
}
  0
LINE
  5
A362
330
A333
100
AcDbEntity
  8
0
100
AcDbLine
 10
43.57899999995641
 20
8.763099999991255
 30
0.0
 11
44.99999999995498
 21
8.763099999991255
 31
0.0
1001
ACAD
1000
ASC_BOUNDS
1002
{
1070
    19
1005
A37A
1002
}
  0
LINE
  5
A363
330
A333
100
AcDbEntity
  8
0
100
AcDbLine
 10
37.67199999996831
 20
8.763099999991255
 30
0.0
 11
36.23199999996837
 21
8.763099999991255
 31
0.0
  0
LINE
  5
A364
330
A333
100
AcDbEntity
  8
0
100
AcDbLine
 10
31.64199999996833
 20
8.763099999991255
 30
0.0
 11
31.64199999996833
 21
2.481619422925121
 31
0.0
  0
LINE
  5
A365
330
A333
100
AcDbEntity
  8
0
100
AcDbLine
 10
37.67199999996831
 20
8.763099999991255
 30
0.0
 11
37.67199999996831
 21
2.481619422925121
 31
0.0
  0
LINE
  5
A366
330
A333
100
AcDbEntity
  8
0
100
AcDbLine
 10
36.23199999996837
 20
8.763099999991255
 30
0.0
 11
36.23199999996837
 21
2.481619422925064
 31
0.0
  0
LINE
  5
A367
330
A333
100
AcDbEntity
  8
0
100
AcDbLine
 10
33.08199999996839
 20
8.763099999991255
 30
0.0
 11
33.08199999996839
 21
2.481619422925121
 31
0.0
  0
ARC
  5
A368
330
A333
100
AcDbEntity
  8
0
100
AcDbCircle
 10
34.65699999996832
 20
3.183099999991214
 30
0.0
 40
3.420000000000007
100
AcDbArc
 50
240.0000000000255
 51
299.9999999999766
  0
ARC
  5
A369
330
A333
100
AcDbEntity
  8
0
100
AcDbCircle
 10
34.65699999996832
 20
3.183099999991214
 30
0.0
 40
1.97999999999999
100
AcDbArc
 50
240.000000000026
 51
299.9999999999703
  0
LINE
  5
A36A
330
A333
100
AcDbEntity
  8
0
100
AcDbLine
 10
33.08199999996828
 20
8.763099999991255
 30
0.0
 11
31.64199999996833
 21
8.763099999991255
 31
0.0
  0
ARC
  5
A36B
330
A333
100
AcDbEntity
  8
0
100
AcDbCircle
 10
35.06199999996829
 20
2.481619422925064
 30
0.0
 40
1.17
100
AcDbArc
 50
299.9999999999699
 51
0.0
  0
ARC
  5
A36C
330
A333
100
AcDbEntity
  8
0
100
AcDbCircle
 10
34.25199999996835
 20
2.481619422925121
 30
0.0
 40
1.17
100
AcDbArc
 50
180.0
 51
240.0000000000238
  0
ARC
  5
A36D
330
A333
100
AcDbEntity
  8
0
100
AcDbCircle
 10
35.06199999996841
 20
2.481619422925121
 30
0.0
 40
2.61
100
AcDbArc
 50
299.9999999999756
 51
0.0
  0
ARC
  5
A36E
330
A333
100
AcDbEntity
  8
0
100
AcDbCircle
 10
34.25199999996835
 20
2.481619422925121
 30
0.0
 40
2.61
100
AcDbArc
 50
180.0
 51
240.0000000000244
  0
LINE
  5
A36F
330
A333
100
AcDbEntity
  8
0
100
AcDbLine
 10
29.30199999996933
 20
8.763099999991255
 30
0.0
 11
30.74199999996927
 21
8.763099999991255
 31
0.0
1001
ACAD
1000
ASC_BOUNDS
1002
{
1070
    19
1005
A378
1002
}
  0
LINE
  5
A370
330
A333
100
AcDbEntity
  8
0
100
AcDbLine
 10
30.74199999996927
 20
8.763099999991255
 30
0.0
 11
30.74199999996927
 21
2.373099999991211
 31
0.0
1001
ACAD
1000
ASC_BOUNDS
1002
{
1070
    19
1005
A378
1002
}
  0
LINE
  5
A371
330
A333
100
AcDbEntity
  8
0
100
AcDbLine
 10
26.02015566812236
 20
0.0330999999912365
 30
0.0
 11
28.40199999996923
 21
0.0330999999912365
 31
0.0
1001
ACAD
1000
ASC_BOUNDS
1002
{
1070
    19
1005
A378
1002
}
  0
LINE
  5
A372
330
A333
100
AcDbEntity
  8
0
100
AcDbLine
 10
29.30199999996933
 20
8.763099999991255
 30
0.0
 11
29.30199999996933
 21
2.283099999991236
 31
0.0
1001
ACAD
1000
ASC_BOUNDS
1002
{
1070
    19
1005
A378
1002
}
  0
LINE
  5
A373
330
A333
100
AcDbEntity
  8
0
100
AcDbLine
 10
26.97358892824991
 20
1.383099999991202
 30
0.0
 11
28.40199999996923
 21
1.383099999991202
 31
0.0
1001
ACAD
1000
ASC_BOUNDS
1002
{
1070
    19
1005
A378
1002
}
  0
ARC
  5
A374
330
A333
100
AcDbEntity
  8
0
100
AcDbCircle
 10
28.40199999996923
 20
2.283099999991236
 30
0.0
 40
0.9
100
AcDbArc
 50
270.0
 51
0.0
1001
ACAD
1000
ASC_BOUNDS
1002
{
1070
    19
1005
A378
1002
}
  0
ARC
  5
A375
330
A333
100
AcDbEntity
  8
0
100
AcDbCircle
 10
28.40199999996923
 20
2.373099999991211
 30
0.0
 40
2.34
100
AcDbArc
 50
270.0
 51
0.0
1001
ACAD
1000
ASC_BOUNDS
1002
{
1070
    19
1005
A378
1002
}
  0
INSERT
  5
A376
330
A333
100
AcDbEntity
  8
0
100
AcDbBlockReference
  2
*X27
 10
0.0
 20
0.0
 30
0.0
1001
ACAD
1000
HATCH
1002
{
1070
    19
1000
ANSI37
1040
0.15
1040
0.0
1000
ASC_BOUNDS
1070
     2
1070
     2
1070
    12
1005
A335
1005
A336
1005
A33D
1005
A34C
1005
A34F
1005
A34D
1005
A33E
1005
A343
1005
A341
1005
A345
1005
A344
1005
A346
1070
     2
1070
     3
1005
A351
1005
A353
1005
A352
1000
ASC_SEEDPOINT
1011
3.614004224891801
1021
2.996669441146025
1031
0.0
1000
R14_HATCH_DATA
1000
A376
1011
1.0
1021
0.0
1031
0.0
1011
0.0
1021
1.0
1031
0.0
1011
0.0
1021
0.0
1031
1.0
1040
0.0
1010
0.0
1020
0.0
1030
1.0
1000
ANSI37
1070
     0
1070
     1
1071
        2
1071
        7
1070
     0
1070
     1
1071
       17
1040
13.26299999998673
1040
-0.0001000000000317
1040
9.236999999990758
1040
8.999899999990987
1040
9.236999999990758
1040
8.999999999991019
1040
5.657999999994331
1040
0.9999999999989768
1040
3.181999999996833
1040
4.668599999995308
1040
6.432999999993513
1040
8.763099999991255
1040
4.617999999995391
1040
8.763099999991255
1040
1.420999999998571
1040
4.736799999995242
1040
4.617999999995391
1040
-0.0001000000000317
1040
4.617999999995391
1040
0.0
1040
6.766999999993232
1040
0.0
1040
6.766999999993232
1040
-0.0001000000000317
1040
7.826999999992154
1040
2.368399999997621
1040
10.64699999998936
1040
2.368399999997621
1040
11.70599999998831
1040
-0.0001000000000317
1040
11.70599999998831
1040
0.0
1040
13.26299999998673
1040
0.0
1071
       12
1005
A335
1005
A336
1005
A33D
1005
A34C
1005
A34F
1005
A34D
1005
A33E
1005
A343
1005
A341
1005
A345
1005
A344
1005
A346
1071
       22
1070
     0
1070
     1
1071
        3
1040
9.236999999990758
1040
5.5200999999945
1040
10.06399999998996
1040
3.670999999996297
1040
8.409999999991555
1040
3.670999999996297
1071
        3
1005
A351
1005
A353
1005
A352
1070
     0
1070
     1
1040
0.0
1040
0.15
1070
     0
1070
     2
1040
0.7853981633974483
1040
49.29960901727088
1040
-10.17736998311392
1040
-0.3367596045400932
1040
0.3367596045400932
1070
     0
1040
2.356194490192345
1040
49.29960901727088
1040
-10.17736998311392
1040
-0.3367596045400932
1040
-0.3367596045400932
1070
     0
1040
0.0110235143455945
1071
        2
1040
3.614004224891801
1040
2.996669441146025
1040
0.0
1040
3.614004224891801
1040
2.996669441146025
1040
0.0
1002
}
  0
INSERT
  5
A377
330
A333
100
AcDbEntity
  8
0
100
AcDbBlockReference
  2
*X28
 10
0.0
 20
0.0
 30
0.0
1001
ACAD
1000
HATCH
1002
{
1070
    19
1000
ANSI37
1040
0.15
1040
0.0
1000
ASC_BOUNDS
1070
     1
1070
     2
1070
    10
1005
A337
1005
A338
1005
A359
1005
A357
1005
A358
1005
A34B
1005
A350
1005
A354
1005
A33A
1005
A339
1000
ASC_SEEDPOINT
1011
14.73245321214324
1021
2.798246178283421
1031
0.0
1000
R14_HATCH_DATA
1000
A377
1011
1.0
1021
0.0
1031
0.0
1011
0.0
1021
1.0
1031
0.0
1011
0.0
1021
0.0
1031
1.0
1040
0.0
1010
0.0
1020
0.0
1030
1.0
1000
ANSI37
1070
     0
1070
     1
1071
        1
1071
        7
1070
     0
1070
     1
1071
       10
1040
16.46099999998353
1040
5.432899999994561
1040
18.59199999998134
1040
-0.2368999999997641
1040
22.38199999997767
1040
8.763099999991255
1040
20.89099999997916
1040
8.763099999991255
1040
18.59799999998143
1040
3.315799999996671
1040
16.46099999998353
1040
8.999899999990987
1040
14.32399999998563
1040
3.315799999996671
1040
12.02999999998792
1040
8.763099999991255
1040
10.53899999998941
1040
8.763099999991255
1040
14.32899999998563
1040
-0.2368999999997641
1071
       10
1005
A337
1005
A338
1005
A359
1005
A357
1005
A358
1005
A34B
1005
A350
1005
A354
1005
A33A
1005
A339
1070
     0
1070
     1
1040
0.0
1040
0.15
1070
     0
1070
     2
1040
0.7853981633974483
1040
49.29960901727088
1040
-10.17736998311392
1040
-0.3367596045400932
1040
0.3367596045400932
1070
     0
1040
2.356194490192345
1040
49.29960901727088
1040
-10.17736998311392
1040
-0.3367596045400932
1040
-0.3367596045400932
1070
     0
1040
0.0110235143455945
1071
        1
1040
14.73245321214324
1040
2.798246178283421
1040
0.0
1002
}
  0
INSERT
  5
A378
330
A333
100
AcDbEntity
  8
0
100
AcDbBlockReference
  2
*X29
 10
0.0
 20
0.0
 30
0.0
1001
ACAD
1000
HATCH
1002
{
1070
    19
1000
ANSI37
1040
0.15
1040
0.0
1000
ASC_BOUNDS
1070
     2
1070
     2
1070
    13
1005
A33B
1005
A348
1005
A349
1005
A347
1005
A34A
1005
A371
1005
A375
1005
A370
1005
A36F
1005
A372
1005
A374
1005
A373
1005
A33C
1070
     2
1070
     3
1005
A355
1005
A35A
1005
A356
1000
ASC_SEEDPOINT
1011
21.97929957367762
1021
3.294304244259308
1031
0.0
1000
R14_HATCH_DATA
1000
A378
1011
1.0
1021
0.0
1031
0.0
1011
0.0
1021
1.0
1031
0.0
1011
0.0
1021
0.0
1031
1.0
1040
0.0
1010
0.0
1020
0.0
1030
1.0
1000
ANSI37
1070
     0
1070
     1
1071
        2
1071
        7
1070
     1
1070
     1
1071
       15
1040
23.56599999997638
1040
8.999899999990987
1040
0.0
1040
19.53899999998043
1040
-0.0001000000000317
1040
0.0
1040
19.53899999998043
1040
0.0
1040
0.0
1040
21.09599999997886
1040
0.0
1040
0.0
1040
21.09599999997886
1040
-0.0001000000000317
1040
0.0
1040
22.15599999997789
1040
2.368399999997621
1040
0.0
1040
24.97599999997499
1040
2.368399999997621
1040
0.0
1040
26.02015566812236
1040
0.0330999999912365
1040
0.0
1040
28.40199999996923
1040
0.0330999999912365
1040
0.414213562373095
1040
30.74199999996923
1040
2.373099999991211
1040
0.0
1040
30.74199999996927
1040
8.763099999991255
1040
0.0
1040
29.30199999996933
1040
8.763099999991255
1040
0.0
1040
29.30199999996933
1040
2.283099999991236
1040
-0.414213562373095
1040
28.40199999996923
1040
1.383099999991237
1040
0.0
1040
26.97358892824991
1040
1.383099999991202
1040
0.0
1071
       13
1005
A33B
1005
A348
1005
A349
1005
A347
1005
A34A
1005
A371
1005
A375
1005
A370
1005
A36F
1005
A372
1005
A374
1005
A373
1005
A33C
1071
       22
1070
     0
1070
     1
1071
        3
1040
22.7389999999773
1040
3.670999999996297
1040
23.56599999997638
1040
5.5200999999945
1040
24.39299999997559
1040
3.670999999996297
1071
        3
1005
A355
1005
A35A
1005
A356
1070
     0
1070
     1
1040
0.0
1040
0.15
1070
     0
1070
     2
1040
0.7853981633974483
1040
49.29960901727088
1040
-10.17736998311392
1040
-0.3367596045400932
1040
0.3367596045400932
1070
     0
1040
2.356194490192345
1040
49.29960901727088
1040
-10.17736998311392
1040
-0.3367596045400932
1040
-0.3367596045400932
1070
     0
1040
0.0110235143455945
1071
        2
1040
21.97929957367762
1040
3.294304244259308
1040
0.0
1040
21.97929957367762
1040
3.294304244259308
1040
0.0
1002
}
  0
INSERT
  5
A379
330
A333
100
AcDbEntity
  8
0
100
AcDbBlockReference
  2
*X30
 10
0.0
 20
0.0
 30
0.0
1001
ACAD
1000
HATCH
1002
{
1070
    19
1000
ANSI37
1040
0.15
1040
0.0
1000
R14_HATCH_DATA
1000
A379
1011
1.0
1021
0.0
1031
0.0
1011
0.0
1021
1.0
1031
0.0
1011
0.0
1021
0.0
1031
1.0
1040
0.0
1010
0.0
1020
0.0
1030
1.0
1000
ANSI37
1070
     0
1070
     1
1071
        1
1071
        7
1070
     1
1070
     1
1071
       12
1040
31.64199999996833
1040
2.481619422925121
1040
0.2679491924310942
1040
32.94699999997067
1040
0.2212931190493919
1040
0.2679491924301353
1040
36.36699999995983
1040
0.2212931190459813
1040
0.2679491924321411
1040
37.67199999996831
1040
2.481619422928361
1040
0.0
1040
37.67199999996831
1040
8.763099999991255
1040
0.0
1040
36.23199999996837
1040
8.763099999991255
1040
0.0
1040
36.23199999996837
1040
2.481619422925064
1040
-0.2679491924310291
1040
35.64699999996708
1040
1.468369700498386
1040
-0.267949192430519
1040
33.66699999997093
1040
1.468369700497703
1040
-0.267949192431809
1040
33.08199999996839
1040
2.481619422926997
1040
0.0
1040
33.08199999996839
1040
8.763099999991255
1040
0.0
1040
31.64199999996833
1040
8.763099999991255
1040
0.0
1071
        0
1070
     0
1070
     1
1040
0.0
1040
0.15
1070
     0
1070
     2
1040
0.7853981633974483
1040
49.29960901727088
1040
-10.17736998311392
1040
-0.3367596045400932
1040
0.3367596045400932
1070
     0
1040
2.356194490192345
1040
49.29960901727088
1040
-10.17736998311392
1040
-0.3367596045400932
1040
-0.3367596045400932
1070
     0
1040
0.0110235143455945
1071
        1
1040
32.30357378967278
1040
3.988785755459219
1040
0.0
1002
}
  0
INSERT
  5
A37A
330
A333
100
AcDbEntity
  8
0
100
AcDbBlockReference
  2
*X31
 10
0.0
 20
0.0
 30
0.0
1001
ACAD
1000
HATCH
1002
{
1070
    19
1000
ANSI37
1040
0.15
1040
0.0
1000
ASC_BOUNDS
1070
     1
1070
     2
1070
     8
1005
A35B
1005
A35E
1005
A362
1005
A361
1005
A360
1005
A35D
1005
A35F
1005
A35C
1000
ASC_SEEDPOINT
1011
39.74896370716704
1021
4.484843821435049
1031
0.0
1000
R14_HATCH_DATA
1000
A37A
1011
1.0
1021
0.0
1031
0.0
1011
0.0
1021
1.0
1031
0.0
1011
0.0
1021
0.0
1031
1.0
1040
0.0
1010
0.0
1020
0.0
1030
1.0
1000
ANSI37
1070
     0
1070
     1
1071
        1
1071
        7
1070
     0
1070
     1
1071
        9
1040
40.02599999995994
1040
5.341799999994635
1040
44.99999999995498
1040
-0.2368999999997641
1040
44.99999999995498
1040
8.763099999991255
1040
43.57899999995641
1040
8.763099999991255
1040
43.57899999995641
1040
3.421199999996588
1040
38.60499999996136
1040
8.999899999990987
1040
38.60499999996136
1040
8.999999999991019
1040
38.60499999996136
1040
0.0
1040
40.02599999995994
1040
0.0
1071
        8
1005
A35B
1005
A35E
1005
A362
1005
A361
1005
A360
1005
A35D
1005
A35F
1005
A35C
1070
     0
1070
     1
1040
0.0
1040
0.15
1070
     0
1070
     2
1040
0.7853981633974483
1040
49.29960901727088
1040
-10.17736998311392
1040
-0.3367596045400932
1040
0.3367596045400932
1070
     0
1040
2.356194490192345
1040
49.29960901727088
1040
-10.17736998311392
1040
-0.3367596045400932
1040
-0.3367596045400932
1070
     0
1040
0.0110235143455945
1071
        1
1040
39.74896370716704
1040
4.484843821435049
1040
0.0
1002
}
  0
INSERT
  5
A37B
330
A333
100
AcDbEntity
  8
0
100
AcDbBlockReference
  2
*X32
 10
0.0
 20
0.0
 30
0.0
1001
ACAD
1000
HATCH
1002
{
1070
    19
1000
ANSI37
1040
0.15
1040
0.0
1000
ASC_BOUNDS
1070
     1
1070
     2
1070
     4
1005
A33F
1005
A34E
1005
A340
1005
A342
1000
ASC_SEEDPOINT
1011
1.079051535452663
1021
4.148538732891836
1031
0.0
1000
R14_HATCH_DATA
1000
A37B
1011
1.0
1021
0.0
1031
0.0
1011
0.0
1021
1.0
1031
0.0
1011
0.0
1021
0.0
1031
1.0
1040
0.0
1010
0.0
1020
0.0
1030
1.0
1000
ANSI37
1070
     0
1070
     1
1071
        1
1071
        7
1070
     0
1070
     1
1071
        4
1040
1.420999999998571
1040
0.0
1040
1.420999999998571
1040
8.763099999991255
1040
0.0
1040
8.763099999991255
1040
0.0
1040
0.0
1071
        4
1005
A33F
1005
A34E
1005
A340
1005
A342
1070
     0
1070
     1
1040
0.0
1040
0.15
1070
     0
1070
     2
1040
0.7853981633974483
1040
49.29960901727088
1040
-10.17736998311392
1040
-0.3367596045400932
1040
0.3367596045400932
1070
     0
1040
2.356194490192345
1040
49.29960901727088
1040
-10.17736998311392
1040
-0.3367596045400932
1040
-0.3367596045400932
1070
     0
1040
0.0053004257112761
1071
        1
1040
1.079051535452663
1040
4.148538732891836
1040
0.0
1002
}
  0
ENDBLK
  5
AA57
330
A333
100
AcDbEntity
  8
0
100
AcDbBlockEnd
  0
BLOCK
  5
B744
330
B5B6
100
AcDbEntity
  8
0
100
AcDbBlockBegin
  2
*X27
 70
     1
 10
0.0
 20
0.0
 30
0.0
  3
*X27
  1

  0
LINE
  5
B5B7
330
B5B6
100
AcDbEntity
  8
0
  6
CONTINUOUS
100
AcDbLine
 10
3.418023043697893
 20
7.251849696850613
 30
0.0
 11
4.929273346838536
 21
8.763099999991255
 31
0.0
  0
LINE
  5
B5B8
330
B5B6
100
AcDbEntity
  8
0
  6
CONTINUOUS
100
AcDbLine
 10
1.483656411257782
 20
4.643963855330318
 30
0.0
 11
5.60279255591872
 21
8.763099999991255
 31
0.0
  0
LINE
  5
B5B9
330
B5B6
100
AcDbEntity
  8
0
  6
CONTINUOUS
100
AcDbLine
 10
1.755053947328235
 20
4.241842182320584
 30
0.0
 11
6.276311764998907
 21
8.763099999991255
 31
0.0
  0
LINE
  5
B5BA
330
B5B6
100
AcDbEntity
  8
0
  6
CONTINUOUS
100
AcDbLine
 10
2.026451483398688
 20
3.839720509310849
 30
0.0
 11
4.441040904851878
 21
6.254309930764039
 31
0.0
  0
LINE
  5
B5BB
330
B5B6
100
AcDbEntity
  8
0
  6
CONTINUOUS
100
AcDbLine
 10
2.297849019469139
 20
3.437598836301114
 30
0.0
 11
3.321765168359338
 21
4.461514985191313
 31
0.0
  0
LINE
  5
B5BC
330
B5B6
100
AcDbEntity
  8
0
  6
CONTINUOUS
100
AcDbLine
 10
2.569246555539591
 20
3.03547716329138
 30
0.0
 11
3.593163397972743
 21
4.059394005724531
 31
0.0
  0
LINE
  5
B5BD
330
B5B6
100
AcDbEntity
  8
0
  6
CONTINUOUS
100
AcDbLine
 10
2.840644091610043
 20
2.633355490281646
 30
0.0
 11
3.864561627586149
 21
3.657273026257751
 31
0.0
  0
LINE
  5
B5BE
330
B5B6
100
AcDbEntity
  8
0
  6
CONTINUOUS
100
AcDbLine
 10
3.112041627680496
 20
2.231233817271911
 30
0.0
 11
4.135959857199554
 21
3.25515204679097
 31
0.0
  0
LINE
  5
B5BF
330
B5B6
100
AcDbEntity
  8
0
  6
CONTINUOUS
100
AcDbLine
 10
3.383439163750948
 20
1.829112144262177
 30
0.0
 11
4.40735808681296
 21
2.853031067324189
 31
0.0
  0
LINE
  5
B5C0
330
B5B6
100
AcDbEntity
  8
0
  6
CONTINUOUS
100
AcDbLine
 10
3.654836699821399
 20
1.426990471252442
 30
0.0
 11
4.678756316426365
 21
2.450910087857407
 31
0.0
  0
LINE
  5
B5C1
330
B5B6
100
AcDbEntity
  8
0
  6
CONTINUOUS
100
AcDbLine
 10
3.926234235891853
 20
1.024868798242709
 30
0.0
 11
4.95015454603977
 21
2.048789108390626
 31
0.0
  0
LINE
  5
B5C2
330
B5B6
100
AcDbEntity
  8
0
  6
CONTINUOUS
100
AcDbLine
 10
4.197631771962304
 20
0.6227471252329737
 30
0.0
 11
5.221552775653176
 21
1.646668128923846
 31
0.0
  0
LINE
  5
B5C3
330
B5B6
100
AcDbEntity
  8
0
  6
CONTINUOUS
100
AcDbLine
 10
8.715877546767851
 20
7.835069736359266
 30
0.0
 11
9.435953450375058
 21
8.555145639966472
 31
0.0
  0
LINE
  5
B5C4
330
B5B6
100
AcDbEntity
  8
0
  6
CONTINUOUS
100
AcDbLine
 10
8.170620868422267
 20
6.616293848933497
 30
0.0
 11
9.644120833743461
 21
8.08979381425469
 31
0.0
  0
LINE
  5
B5C5
330
B5B6
100
AcDbEntity
  8
0
  6
CONTINUOUS
100
AcDbLine
 10
7.625364190076684
 20
5.397517961507727
 30
0.0
 11
9.852288217111864
 21
7.624441988542907
 31
0.0
  0
LINE
  5
B5C6
330
B5B6
100
AcDbEntity
  8
0
  6
CONTINUOUS
100
AcDbLine
 10
7.080107511731101
 20
4.178742074081957
 30
0.0
 11
10.06045560048027
 21
7.159090162831124
 31
0.0
  0
LINE
  5
B5C7
330
B5B6
100
AcDbEntity
  8
0
  6
CONTINUOUS
100
AcDbLine
 10
6.534850833385518
 20
2.959966186656187
 30
0.0
 11
10.26862298384867
 21
6.693738337119342
 31
0.0
  0
LINE
  5
B5C8
330
B5B6
100
AcDbEntity
  8
0
  6
CONTINUOUS
100
AcDbLine
 10
4.469029308032756
 20
0.2206254522232385
 30
0.0
 11
5.492951005266582
 21
1.244547149457064
 31
0.0
  0
LINE
  5
B5C9
330
B5B6
100
AcDbEntity
  8
0
  6
CONTINUOUS
100
AcDbLine
 10
5.989594155039935
 20
1.741190299230417
 30
0.0
 11
8.806950407233131
 21
4.558546551423613
 31
0.0
  0
LINE
  5
B5CA
330
B5B6
100
AcDbEntity
  8
0
  6
CONTINUOUS
100
AcDbLine
 10
9.401251593263643
 20
5.152847737454126
 30
0.0
 11
10.47679036721708
 21
6.228386511407559
 31
0.0
  0
LINE
  5
B5CB
330
B5B6
100
AcDbEntity
  8
0
  6
CONTINUOUS
100
AcDbLine
 10
4.921837203428691
 20
-0.0000858614610131
 30
0.0
 11
8.592923064886001
 21
3.670999999996297
 31
0.0
  0
LINE
  5
B5CC
330
B5B6
100
AcDbEntity
  8
0
  6
CONTINUOUS
100
AcDbLine
 10
9.609390446785305
 20
4.6874673818956
 30
0.0
 11
10.68495775058548
 21
5.763034685695775
 31
0.0
  0
LINE
  5
B5CD
330
B5B6
100
AcDbEntity
  8
0
  6
CONTINUOUS
100
AcDbLine
 10
5.595387755019432
 20
-0.0000545189504582
 30
0.0
 11
7.716137258923768
 21
2.120694984953879
 31
0.0
  0
LINE
  5
B5CE
330
B5B6
100
AcDbEntity
  8
0
  6
CONTINUOUS
100
AcDbLine
 10
6.268938306610172
 20
-0.000023176439905
 30
0.0
 11
7.170485805526503
 21
0.9015243224764267
 31
0.0
  0
LINE
  5
B5CF
330
B5B6
100
AcDbEntity
  8
0
  6
CONTINUOUS
100
AcDbLine
 10
7.963842273967511
 20
2.368399999997621
 30
0.0
 11
9.266442273966188
 21
3.670999999996297
 31
0.0
  0
LINE
  5
B5D0
330
B5B6
100
AcDbEntity
  8
0
  6
CONTINUOUS
100
AcDbLine
 10
8.637361483047696
 20
2.368399999997621
 30
0.0
 11
9.939961483046375
 21
3.670999999996297
 31
0.0
  0
LINE
  5
B5D1
330
B5B6
100
AcDbEntity
  8
0
  6
CONTINUOUS
100
AcDbLine
 10
9.817529300306965
 20
4.222087026337075
 30
0.0
 11
10.89312513395388
 21
5.297682859983993
 31
0.0
  0
LINE
  5
B5D2
330
B5B6
100
AcDbEntity
  8
0
  6
CONTINUOUS
100
AcDbLine
 10
10.02566815382863
 20
3.756706670778549
 30
0.0
 11
11.10129251732229
 21
4.832331034272211
 31
0.0
  0
LINE
  5
B5D3
330
B5B6
100
AcDbEntity
  8
0
  6
CONTINUOUS
100
AcDbLine
 10
9.310880692127883
 20
2.368399999997621
 30
0.0
 11
11.30945990069069
 21
4.366979208560428
 31
0.0
  0
LINE
  5
B5D4
330
B5B6
100
AcDbEntity
  8
0
  6
CONTINUOUS
100
AcDbLine
 10
9.98439990120807
 20
2.36839999999762
 30
0.0
 11
11.5176272840591
 21
3.901627382848645
 31
0.0
  0
LINE
  5
B5D5
330
B5B6
100
AcDbEntity
  8
0
  6
CONTINUOUS
100
AcDbLine
 10
10.65037369446246
 20
2.36085458417182
 30
0.0
 11
11.7257946674275
 21
3.436275557136862
 31
0.0
  0
LINE
  5
B5D6
330
B5B6
100
AcDbEntity
  8
0
  6
CONTINUOUS
100
AcDbLine
 10
10.85847197087848
 20
1.895433651507656
 30
0.0
 11
11.9339620507959
 21
2.97092373142508
 31
0.0
  0
LINE
  5
B5D7
330
B5B6
100
AcDbEntity
  8
0
  6
CONTINUOUS
100
AcDbLine
 10
11.0665702472945
 20
1.430012718843491
 30
0.0
 11
12.14212943416431
 21
2.505571905713296
 31
0.0
  0
LINE
  5
B5D8
330
B5B6
100
AcDbEntity
  8
0
  6
CONTINUOUS
100
AcDbLine
 10
11.27466852371052
 20
0.9645917861793256
 30
0.0
 11
12.35029681753271
 21
2.040220080001513
 31
0.0
  0
LINE
  5
B5D9
330
B5B6
100
AcDbEntity
  8
0
  6
CONTINUOUS
100
AcDbLine
 10
11.48276680012654
 20
0.4991708535151611
 30
0.0
 11
12.55846420090111
 21
1.57486825428973
 31
0.0
  0
LINE
  5
B5DA
330
B5B6
100
AcDbEntity
  8
0
  6
CONTINUOUS
100
AcDbLine
 10
11.69086507654257
 20
0.0337499208509957
 30
0.0
 11
12.76663158426952
 21
1.109516428577947
 31
0.0
  0
LINE
  5
B5DB
330
B5B6
100
AcDbEntity
  8
0
  6
CONTINUOUS
100
AcDbLine
 10
12.33057447873954
 20
-0.0000598860322123
 30
0.0
 11
12.97479896763792
 21
0.6441646028661663
 31
0.0
  0
LINE
  5
B5DC
330
B5B6
100
AcDbEntity
  8
0
  6
CONTINUOUS
100
AcDbLine
 10
13.00413694809395
 20
-0.0000166257579952
 30
0.0
 11
13.18296635100632
 21
0.1788127771543824
 31
0.0
  0
LINE
  5
B5DD
330
B5B6
100
AcDbEntity
  8
0
  6
CONTINUOUS
100
AcDbLine
 10
4.772852165289667
 20
-0.000092794222212
 30
0.0
 11
4.296495091028902
 21
0.4762642800385528
 31
0.0
  0
LINE
  5
B5DE
330
B5B6
100
AcDbEntity
  8
0
  6
CONTINUOUS
100
AcDbLine
 10
5.446340034776103
 20
-0.0000614546284616
 30
0.0
 11
2.898195908335625
 21
2.548082671812017
 31
0.0
  0
LINE
  5
B5DF
330
B5B6
100
AcDbEntity
  8
0
  6
CONTINUOUS
100
AcDbLine
 10
6.119827904262539
 20
-0.0000301150347113
 30
0.0
 11
1.499896725642348
 21
4.61990106358548
 31
0.0
  0
LINE
  5
B5E0
330
B5B6
100
AcDbEntity
  8
0
  6
CONTINUOUS
100
AcDbLine
 10
6.775136745476159
 20
0.0181802528318542
 30
0.0
 11
5.699826040202669
 21
1.093490958105344
 31
0.0
  0
LINE
  5
B5E1
330
B5B6
100
AcDbEntity
  8
0
  6
CONTINUOUS
100
AcDbLine
 10
6.983376846288489
 20
0.4834593610997118
 30
0.0
 11
5.908008617934405
 21
1.558827589453796
 31
0.0
  0
LINE
  5
B5E2
330
B5B6
100
AcDbEntity
  8
0
  6
CONTINUOUS
100
AcDbLine
 10
5.377063484962296
 20
1.416253513345719
 30
0.0
 11
1.702276957014131
 21
5.091040041293883
 31
0.0
  0
LINE
  5
B5E3
330
B5B6
100
AcDbEntity
  8
0
  6
CONTINUOUS
100
AcDbLine
 10
3.978745891735324
 20
3.488090315652877
 30
0.0
 11
2.000373521109399
 21
5.466462686278803
 31
0.0
  0
LINE
  5
B5E4
330
B5B6
100
AcDbEntity
  8
0
  6
CONTINUOUS
100
AcDbLine
 10
7.191616947100819
 20
0.948738469367568
 30
0.0
 11
6.11619119566614
 21
2.024164220802247
 31
0.0
  0
LINE
  5
B5E5
330
B5B6
100
AcDbEntity
  8
0
  6
CONTINUOUS
100
AcDbLine
 10
7.399857047913149
 20
1.414017577635424
 30
0.0
 11
6.324373773397875
 21
2.489500852150698
 31
0.0
  0
LINE
  5
B5E6
330
B5B6
100
AcDbEntity
  8
0
  6
CONTINUOUS
100
AcDbLine
 10
7.608097148725479
 20
1.879296685903281
 30
0.0
 11
6.53255635112961
 21
2.95483748349915
 31
0.0
  0
LINE
  5
B5E7
330
B5B6
100
AcDbEntity
  8
0
  6
CONTINUOUS
100
AcDbLine
 10
7.816337249537808
 20
2.344575794171138
 30
0.0
 11
6.740738928861345
 21
3.420174114847601
 31
0.0
  0
LINE
  5
B5E8
330
B5B6
100
AcDbEntity
  8
0
  6
CONTINUOUS
100
AcDbLine
 10
3.310241080789734
 20
4.830114335678653
 30
0.0
 11
2.298470085204666
 21
5.84188533126372
 31
0.0
  0
LINE
  5
B5E9
330
B5B6
100
AcDbEntity
  8
0
  6
CONTINUOUS
100
AcDbLine
 10
3.60832983563551
 20
5.205544789913063
 30
0.0
 11
2.596566649299935
 21
6.217307976248638
 31
0.0
  0
LINE
  5
B5EA
330
B5B6
100
AcDbEntity
  8
0
  6
CONTINUOUS
100
AcDbLine
 10
3.906418590481286
 20
5.580975244147473
 30
0.0
 11
2.894663213395203
 21
6.592730621233557
 31
0.0
  0
LINE
  5
B5EB
330
B5B6
100
AcDbEntity
  8
0
  6
CONTINUOUS
100
AcDbLine
 10
4.204507345327062
 20
5.956405698381884
 30
0.0
 11
3.192759777490472
 21
6.968153266218474
 31
0.0
  0
LINE
  5
B5EC
330
B5B6
100
AcDbEntity
  8
0
  6
CONTINUOUS
100
AcDbLine
 10
8.466032252791512
 20
2.368399999997621
 30
0.0
 11
6.948921506593081
 21
3.885510746196053
 31
0.0
  0
LINE
  5
B5ED
330
B5B6
100
AcDbEntity
  8
0
  6
CONTINUOUS
100
AcDbLine
 10
9.139551461871699
 20
2.36839999999762
 30
0.0
 11
7.157104084324816
 21
4.350847377544504
 31
0.0
  0
LINE
  5
B5EE
330
B5B6
100
AcDbEntity
  8
0
  6
CONTINUOUS
100
AcDbLine
 10
4.502596100172839
 20
6.331836152616295
 30
0.0
 11
3.49085634158574
 21
7.343575911203393
 31
0.0
  0
LINE
  5
B5EF
330
B5B6
100
AcDbEntity
  8
0
  6
CONTINUOUS
100
AcDbLine
 10
4.800684855018615
 20
6.707266606850705
 30
0.0
 11
3.788952905681008
 21
7.718998556188312
 31
0.0
  0
LINE
  5
B5F0
330
B5B6
100
AcDbEntity
  8
0
  6
CONTINUOUS
100
AcDbLine
 10
12.18154012887317
 20
-0.0000694579236642
 30
0.0
 11
11.32140332908496
 21
0.8600673418645499
 31
0.0
  0
LINE
  5
B5F1
330
B5B6
100
AcDbEntity
  8
0
  6
CONTINUOUS
100
AcDbLine
 10
12.85501608323566
 20
-0.0000262032059659
 30
0.0
 11
10.77672456435345
 21
2.078265315676246
 31
0.0
  0
LINE
  5
B5F2
330
B5B6
100
AcDbEntity
  8
0
  6
CONTINUOUS
100
AcDbLine
 10
9.813070670951886
 20
2.36839999999762
 30
0.0
 11
8.51047067095321
 21
3.670999999996297
 31
0.0
  0
LINE
  5
B5F3
330
B5B6
100
AcDbEntity
  8
0
  6
CONTINUOUS
100
AcDbLine
 10
10.48658988003207
 20
2.36839999999762
 30
0.0
 11
9.183989880033396
 21
3.670999999996297
 31
0.0
  0
LINE
  5
B5F4
330
B5B6
100
AcDbEntity
  8
0
  6
CONTINUOUS
100
AcDbLine
 10
8.441048632286794
 20
3.740422038662712
 30
0.0
 11
7.365286662056551
 21
4.816184008892956
 31
0.0
  0
LINE
  5
B5F5
330
B5B6
100
AcDbEntity
  8
0
  6
CONTINUOUS
100
AcDbLine
 10
8.649187485808454
 20
4.205802394221237
 30
0.0
 11
7.573469239788285
 21
5.281520640241407
 31
0.0
  0
LINE
  5
B5F6
330
B5B6
100
AcDbEntity
  8
0
  6
CONTINUOUS
100
AcDbLine
 10
5.098773609864391
 20
7.082697061085115
 30
0.0
 11
4.087049469776277
 21
8.09442120117323
 31
0.0
  0
LINE
  5
B5F7
330
B5B6
100
AcDbEntity
  8
0
  6
CONTINUOUS
100
AcDbLine
 10
5.396862364710167
 20
7.458127515319526
 30
0.0
 11
4.385146033871544
 21
8.469843846158149
 31
0.0
  0
LINE
  5
B5F8
330
B5B6
100
AcDbEntity
  8
0
  6
CONTINUOUS
100
AcDbLine
 10
13.04801363231285
 20
0.4804954567970334
 30
0.0
 11
9.85750908911358
 21
3.670999999996297
 31
0.0
  0
LINE
  5
B5F9
330
B5B6
100
AcDbEntity
  8
0
  6
CONTINUOUS
100
AcDbLine
 10
8.857326339330116
 20
4.671182749779763
 30
0.0
 11
7.781651817520021
 21
5.746857271589858
 31
0.0
  0
LINE
  5
B5FA
330
B5B6
100
AcDbEntity
  8
0
  6
CONTINUOUS
100
AcDbLine
 10
5.694951119555943
 20
7.833557969553937
 30
0.0
 11
4.765409089118624
 21
8.763099999991255
 31
0.0
  0
LINE
  5
B5FB
330
B5B6
100
AcDbEntity
  8
0
  6
CONTINUOUS
100
AcDbLine
 10
12.50286117236978
 20
1.699167125820288
 30
0.0
 11
9.68611877250287
 21
4.515909525687196
 31
0.0
  0
LINE
  5
B5FC
330
B5B6
100
AcDbEntity
  8
0
  6
CONTINUOUS
100
AcDbLine
 10
9.065465192851777
 20
5.136563105338288
 30
0.0
 11
7.989834395251757
 21
6.21219390293831
 31
0.0
  0
LINE
  5
B5FD
330
B5B6
100
AcDbEntity
  8
0
  6
CONTINUOUS
100
AcDbLine
 10
5.993039874401719
 20
8.208988423788346
 30
0.0
 11
5.43892829819881
 21
8.763099999991255
 31
0.0
  0
LINE
  5
B5FE
330
B5B6
100
AcDbEntity
  8
0
  6
CONTINUOUS
100
AcDbLine
 10
11.95770871242671
 20
2.917838794843543
 30
0.0
 11
8.19801697298349
 21
6.677530534286761
 31
0.0
  0
LINE
  5
B5FF
330
B5B6
100
AcDbEntity
  8
0
  6
CONTINUOUS
100
AcDbLine
 10
6.291128629247495
 20
8.584418878022756
 30
0.0
 11
6.112447507278997
 21
8.763099999991255
 31
0.0
  0
LINE
  5
B600
330
B5B6
100
AcDbEntity
  8
0
  6
CONTINUOUS
100
AcDbLine
 10
11.41255625248364
 20
4.136510463866797
 30
0.0
 11
8.406199550715227
 21
7.142867165635211
 31
0.0
  0
LINE
  5
B601
330
B5B6
100
AcDbEntity
  8
0
  6
CONTINUOUS
100
AcDbLine
 10
10.86740379254057
 20
5.355182132890051
 30
0.0
 11
8.614382128446962
 21
7.608203796983664
 31
0.0
  0
LINE
  5
B602
330
B5B6
100
AcDbEntity
  8
0
  6
CONTINUOUS
100
AcDbLine
 10
10.3222513325975
 20
6.573853801913305
 30
0.0
 11
8.822564706178696
 21
8.073540428332114
 31
0.0
  0
LINE
  5
B603
330
B5B6
100
AcDbEntity
  8
0
  6
CONTINUOUS
100
AcDbLine
 10
9.777098872654436
 20
7.792525470936562
 30
0.0
 11
9.030747283910433
 21
8.538877059680566
 31
0.0
  0
ENDBLK
  5
B745
330
B5B6
100
AcDbEntity
  8
0
100
AcDbBlockEnd
  0
BLOCK
  5
B746
330
B604
100
AcDbEntity
  8
0
100
AcDbBlockBegin
  2
*X28
 70
     1
 10
0.0
 20
0.0
 30
0.0
  3
*X28
  1

  0
LINE
  5
B605
330
B604
100
AcDbEntity
  8
0
  6
CONTINUOUS
100
AcDbLine
 10
10.67292308101235
 20
8.445076852443387
 30
0.0
 11
10.99094622856022
 21
8.763099999991255
 31
0.0
  0
LINE
  5
B606
330
B604
100
AcDbEntity
  8
0
  6
CONTINUOUS
100
AcDbLine
 10
10.87250383178748
 20
7.971138394138331
 30
0.0
 11
11.6644654376404
 21
8.763099999991255
 31
0.0
  0
LINE
  5
B607
330
B604
100
AcDbEntity
  8
0
  6
CONTINUOUS
100
AcDbLine
 10
11.07208458256261
 20
7.497199935833273
 30
0.0
 11
12.12126590876355
 21
8.546381262034211
 31
0.0
  0
LINE
  5
B608
330
B604
100
AcDbEntity
  8
0
  6
CONTINUOUS
100
AcDbLine
 10
11.27166533333774
 20
7.023261477528216
 30
0.0
 11
12.32085164573666
 21
8.072447789927136
 31
0.0
  0
LINE
  5
B609
330
B604
100
AcDbEntity
  8
0
  6
CONTINUOUS
100
AcDbLine
 10
11.47124608411287
 20
6.549323019223158
 30
0.0
 11
12.52043738270977
 21
7.59851431782006
 31
0.0
  0
LINE
  5
B60A
330
B604
100
AcDbEntity
  8
0
  6
CONTINUOUS
100
AcDbLine
 10
11.670826834888
 20
6.075384560918101
 30
0.0
 11
12.72002311968288
 21
7.124580845712984
 31
0.0
  0
LINE
  5
B60B
330
B604
100
AcDbEntity
  8
0
  6
CONTINUOUS
100
AcDbLine
 10
11.87040758566313
 20
5.601446102613043
 30
0.0
 11
12.91960885665599
 21
6.650647373605907
 31
0.0
  0
LINE
  5
B60C
330
B604
100
AcDbEntity
  8
0
  6
CONTINUOUS
100
AcDbLine
 10
12.06998833643825
 20
5.127507644307986
 30
0.0
 11
13.1191945936291
 21
6.176713901498832
 31
0.0
  0
LINE
  5
B60D
330
B604
100
AcDbEntity
  8
0
  6
CONTINUOUS
100
AcDbLine
 10
12.26956908721338
 20
4.65356918600293
 30
0.0
 11
13.31878033060221
 21
5.702780429391757
 31
0.0
  0
LINE
  5
B60E
330
B604
100
AcDbEntity
  8
0
  6
CONTINUOUS
100
AcDbLine
 10
12.46914983798851
 20
4.179630727697873
 30
0.0
 11
13.51836606757532
 21
5.228846957284683
 31
0.0
  0
LINE
  5
B60F
330
B604
100
AcDbEntity
  8
0
  6
CONTINUOUS
100
AcDbLine
 10
12.66873058876364
 20
3.705692269392816
 30
0.0
 11
13.71795180454843
 21
4.754913485177607
 31
0.0
  0
LINE
  5
B610
330
B604
100
AcDbEntity
  8
0
  6
CONTINUOUS
100
AcDbLine
 10
12.86831133953877
 20
3.231753811087759
 30
0.0
 11
13.91753754152154
 21
4.280980013070531
 31
0.0
  0
LINE
  5
B611
330
B604
100
AcDbEntity
  8
0
  6
CONTINUOUS
100
AcDbLine
 10
13.0678920903139
 20
2.757815352782702
 30
0.0
 11
14.11712327849465
 21
3.807046540963456
 31
0.0
  0
LINE
  5
B612
330
B604
100
AcDbEntity
  8
0
  6
CONTINUOUS
100
AcDbLine
 10
13.26747284108903
 20
2.283876894477644
 30
0.0
 11
14.31670901546777
 21
3.333113068856379
 31
0.0
  0
LINE
  5
B613
330
B604
100
AcDbEntity
  8
0
  6
CONTINUOUS
100
AcDbLine
 10
16.36767838827179
 20
8.751678487061342
 30
0.0
 11
16.50332410898388
 21
8.887324207773432
 31
0.0
  0
LINE
  5
B614
330
B604
100
AcDbEntity
  8
0
  6
CONTINUOUS
100
AcDbLine
 10
15.96190732182191
 20
7.67238821153127
 30
0.0
 11
16.68735328004734
 21
8.397834169756699
 31
0.0
  0
LINE
  5
B615
330
B604
100
AcDbEntity
  8
0
  6
CONTINUOUS
100
AcDbLine
 10
15.55613625537202
 20
6.593097936001196
 30
0.0
 11
16.87138245111079
 21
7.908344131739965
 31
0.0
  0
LINE
  5
B616
330
B604
100
AcDbEntity
  8
0
  6
CONTINUOUS
100
AcDbLine
 10
15.15036518892213
 20
5.513807660471122
 30
0.0
 11
17.05541162217424
 21
7.418854093723231
 31
0.0
  0
LINE
  5
B617
330
B604
100
AcDbEntity
  8
0
  6
CONTINUOUS
100
AcDbLine
 10
14.74459412247225
 20
4.434517384941048
 30
0.0
 11
17.2394407932377
 21
6.929364055706499
 31
0.0
  0
LINE
  5
B618
330
B604
100
AcDbEntity
  8
0
  6
CONTINUOUS
100
AcDbLine
 10
14.33882305602236
 20
3.355227109410975
 30
0.0
 11
17.42346996430115
 21
6.439874017689766
 31
0.0
  0
LINE
  5
B619
330
B604
100
AcDbEntity
  8
0
  6
CONTINUOUS
100
AcDbLine
 10
13.46705359186416
 20
1.809938436172586
 30
0.0
 11
16.0819338255367
 21
4.424818669845129
 31
0.0
  0
LINE
  5
B61A
330
B604
100
AcDbEntity
  8
0
  6
CONTINUOUS
100
AcDbLine
 10
16.63283254238972
 20
4.975717386698149
 30
0.0
 11
17.60749913536461
 21
5.950383979673033
 31
0.0
  0
LINE
  5
B61B
330
B604
100
AcDbEntity
  8
0
  6
CONTINUOUS
100
AcDbLine
 10
13.66663434263929
 20
1.335999977867529
 30
0.0
 11
15.67604797733754
 21
3.345413612565779
 31
0.0
  0
LINE
  5
B61C
330
B604
100
AcDbEntity
  8
0
  6
CONTINUOUS
100
AcDbLine
 10
13.86621509341442
 20
0.8620615195624723
 30
0.0
 11
15.27016212913838
 21
2.26600855528643
 31
0.0
  0
LINE
  5
B61D
330
B604
100
AcDbEntity
  8
0
  6
CONTINUOUS
100
AcDbLine
 10
16.81682257348267
 20
4.486188208710908
 30
0.0
 11
17.79152830642806
 21
5.460893941656299
 31
0.0
  0
LINE
  5
B61E
330
B604
100
AcDbEntity
  8
0
  6
CONTINUOUS
100
AcDbLine
 10
17.00081260457561
 20
3.996659030723667
 30
0.0
 11
17.97555747749151
 21
4.971403903639565
 31
0.0
  0
LINE
  5
B61F
330
B604
100
AcDbEntity
  8
0
  6
CONTINUOUS
100
AcDbLine
 10
20.74362343514722
 20
8.412989070375462
 30
0.0
 11
21.09373436476302
 21
8.763099999991256
 31
0.0
  0
LINE
  5
B620
330
B604
100
AcDbEntity
  8
0
  6
CONTINUOUS
100
AcDbLine
 10
20.25401257174777
 20
7.249858997895826
 30
0.0
 11
21.7672535738432
 21
8.763099999991255
 31
0.0
  0
LINE
  5
B621
330
B604
100
AcDbEntity
  8
0
  6
CONTINUOUS
100
AcDbLine
 10
14.06579584418955
 20
0.3881230612574149
 30
0.0
 11
14.86427628093921
 21
1.186603498007082
 31
0.0
  0
LINE
  5
B622
330
B604
100
AcDbEntity
  8
0
  6
CONTINUOUS
100
AcDbLine
 10
14.26537659496467
 20
-0.0858153970476412
 30
0.0
 11
14.45839043274005
 21
0.1071984407277329
 31
0.0
  0
LINE
  5
B623
330
B604
100
AcDbEntity
  8
0
  6
CONTINUOUS
100
AcDbLine
 10
17.18480263566856
 20
3.507129852736426
 30
0.0
 11
18.15958664855496
 21
4.481913865622833
 31
0.0
  0
LINE
  5
B624
330
B604
100
AcDbEntity
  8
0
  6
CONTINUOUS
100
AcDbLine
 10
17.3687926667615
 20
3.017600674749186
 30
0.0
 11
18.34361581961842
 21
3.9924238276061
 31
0.0
  0
LINE
  5
B625
330
B604
100
AcDbEntity
  8
0
  6
CONTINUOUS
100
AcDbLine
 10
19.76440170834832
 20
6.086728925416191
 30
0.0
 11
22.33924590259489
 21
8.661573119662755
 31
0.0
  0
LINE
  5
B626
330
B604
100
AcDbEntity
  8
0
  6
CONTINUOUS
100
AcDbLine
 10
19.27479084494887
 20
4.923598852936555
 30
0.0
 11
21.84929622842713
 21
7.498104236414807
 31
0.0
  0
LINE
  5
B627
330
B604
100
AcDbEntity
  8
0
  6
CONTINUOUS
100
AcDbLine
 10
17.55278269785445
 20
2.528071496761945
 30
0.0
 11
18.52764499068187
 21
3.502933789589366
 31
0.0
  0
LINE
  5
B628
330
B604
100
AcDbEntity
  8
0
  6
CONTINUOUS
100
AcDbLine
 10
18.78517998154942
 20
3.760468780456919
 30
0.0
 11
21.35934655425936
 21
6.33463535316686
 31
0.0
  0
LINE
  5
B629
330
B604
100
AcDbEntity
  8
0
  6
CONTINUOUS
100
AcDbLine
 10
17.73677272894739
 20
2.038542318774704
 30
0.0
 11
20.8693968800916
 21
5.171166469918914
 31
0.0
  0
LINE
  5
B62A
330
B604
100
AcDbEntity
  8
0
  6
CONTINUOUS
100
AcDbLine
 10
17.92076276004034
 20
1.549013140787464
 30
0.0
 11
20.37944720592384
 21
4.007697586670968
 31
0.0
  0
LINE
  5
B62B
330
B604
100
AcDbEntity
  8
0
  6
CONTINUOUS
100
AcDbLine
 10
18.10475279113329
 20
1.059483962800223
 30
0.0
 11
19.88949753175608
 21
2.84422870342302
 31
0.0
  0
LINE
  5
B62C
330
B604
100
AcDbEntity
  8
0
  6
CONTINUOUS
100
AcDbLine
 10
18.28874282222623
 20
0.5699547848129822
 30
0.0
 11
19.39954785758832
 21
1.680759820175074
 31
0.0
  0
LINE
  5
B62D
330
B604
100
AcDbEntity
  8
0
  6
CONTINUOUS
100
AcDbLine
 10
18.47273285331918
 20
0.0804256068257416
 30
0.0
 11
18.90959818342056
 21
0.517290936927127
 31
0.0
  0
LINE
  5
B62E
330
B604
100
AcDbEntity
  8
0
  6
CONTINUOUS
100
AcDbLine
 10
14.3590401358224
 20
-0.1570118376323384
 30
0.0
 11
14.24903296539946
 21
-0.0470046672093929
 31
0.0
  0
LINE
  5
B62F
330
B604
100
AcDbEntity
  8
0
  6
CONTINUOUS
100
AcDbLine
 10
14.54309291258661
 20
0.332454594683643
 30
0.0
 11
13.75908329123172
 21
1.116464216038529
 31
0.0
  0
LINE
  5
B630
330
B604
100
AcDbEntity
  8
0
  6
CONTINUOUS
100
AcDbLine
 10
14.72714568935081
 20
0.8219210269996244
 30
0.0
 11
13.26913361706399
 21
2.27993309928645
 31
0.0
  0
LINE
  5
B631
330
B604
100
AcDbEntity
  8
0
  6
CONTINUOUS
100
AcDbLine
 10
14.91119846611502
 20
1.311387459315606
 30
0.0
 11
12.77918394289625
 21
3.443401982534371
 31
0.0
  0
LINE
  5
B632
330
B604
100
AcDbEntity
  8
0
  6
CONTINUOUS
100
AcDbLine
 10
15.09525124287922
 20
1.800853891631587
 30
0.0
 11
12.28923426872852
 21
4.606870865782293
 31
0.0
  0
LINE
  5
B633
330
B604
100
AcDbEntity
  8
0
  6
CONTINUOUS
100
AcDbLine
 10
15.27930401964343
 20
2.290320323947569
 30
0.0
 11
11.79928459456078
 21
5.770339749030213
 31
0.0
  0
LINE
  5
B634
330
B604
100
AcDbEntity
  8
0
  6
CONTINUOUS
100
AcDbLine
 10
15.46335679640763
 20
2.77978675626355
 30
0.0
 11
14.48885470994921
 21
3.754288842721972
 31
0.0
  0
LINE
  5
B635
330
B604
100
AcDbEntity
  8
0
  6
CONTINUOUS
100
AcDbLine
 10
13.88507249233704
 20
4.358071060334137
 30
0.0
 11
11.30933492039305
 21
6.933808632278135
 31
0.0
  0
LINE
  5
B636
330
B604
100
AcDbEntity
  8
0
  6
CONTINUOUS
100
AcDbLine
 10
18.75840522805855
 20
0.1582575336928151
 30
0.0
 11
18.25383727664818
 21
0.6628254851031863
 31
0.0
  0
LINE
  5
B637
330
B604
100
AcDbEntity
  8
0
  6
CONTINUOUS
100
AcDbLine
 10
15.64740957317184
 20
3.269253188579531
 30
0.0
 11
14.67288388101266
 21
4.243778880738705
 31
0.0
  0
LINE
  5
B638
330
B604
100
AcDbEntity
  8
0
  6
CONTINUOUS
100
AcDbLine
 10
13.39509276772158
 20
5.521569994029786
 30
0.0
 11
10.81938524622531
 21
8.097277515526056
 31
0.0
  0
LINE
  5
B639
330
B604
100
AcDbEntity
  8
0
  6
CONTINUOUS
100
AcDbLine
 10
18.95798597883369
 20
0.6321959919978686
 30
0.0
 11
17.84825644852853
 21
1.741925522303024
 31
0.0
  0
LINE
  5
B63A
330
B604
100
AcDbEntity
  8
0
  6
CONTINUOUS
100
AcDbLine
 10
19.15756672960882
 20
1.106134450302922
 30
0.0
 11
17.44267562040888
 21
2.821025559502861
 31
0.0
  0
LINE
  5
B63B
330
B604
100
AcDbEntity
  8
0
  6
CONTINUOUS
100
AcDbLine
 10
15.83146234993604
 20
3.758719620895513
 30
0.0
 11
14.85691305207612
 21
4.733268918755439
 31
0.0
  0
LINE
  5
B63C
330
B604
100
AcDbEntity
  8
0
  6
CONTINUOUS
100
AcDbLine
 10
16.01551512670025
 20
4.248186053211494
 30
0.0
 11
15.04094222313957
 21
5.222758956772172
 31
0.0
  0
LINE
  5
B63D
330
B604
100
AcDbEntity
  8
0
  6
CONTINUOUS
100
AcDbLine
 10
12.90511304310612
 20
6.685068927725435
 30
0.0
 11
10.8270819708403
 21
8.763099999991255
 31
0.0
  0
LINE
  5
B63E
330
B604
100
AcDbEntity
  8
0
  6
CONTINUOUS
100
AcDbLine
 10
12.41513331849066
 20
7.848567861421083
 30
0.0
 11
11.50060117992049
 21
8.763099999991255
 31
0.0
  0
LINE
  5
B63F
330
B604
100
AcDbEntity
  8
0
  6
CONTINUOUS
100
AcDbLine
 10
19.35714748038395
 20
1.580072908607975
 30
0.0
 11
17.03709479228923
 21
3.900125596702697
 31
0.0
  0
LINE
  5
B640
330
B604
100
AcDbEntity
  8
0
  6
CONTINUOUS
100
AcDbLine
 10
19.55672823115909
 20
2.054011366913028
 30
0.0
 11
16.63151396416958
 21
4.979225633902534
 31
0.0
  0
LINE
  5
B641
330
B604
100
AcDbEntity
  8
0
  6
CONTINUOUS
100
AcDbLine
 10
16.19956790346445
 20
4.737652485527476
 30
0.0
 11
15.22497139420302
 21
5.712248994788904
 31
0.0
  0
LINE
  5
B642
330
B604
100
AcDbEntity
  8
0
  6
CONTINUOUS
100
AcDbLine
 10
16.38362068022866
 20
5.227118917843457
 30
0.0
 11
15.40900056526648
 21
6.201739032805637
 31
0.0
  0
LINE
  5
B643
330
B604
100
AcDbEntity
  8
0
  6
CONTINUOUS
100
AcDbLine
 10
19.75630898193422
 20
2.527949825218081
 30
0.0
 11
18.70774536448286
 21
3.576513442669441
 31
0.0
  0
LINE
  5
B644
330
B604
100
AcDbEntity
  8
0
  6
CONTINUOUS
100
AcDbLine
 10
19.95588973270936
 20
3.001888283523134
 30
0.0
 11
18.90726987211446
 21
4.050508144118028
 31
0.0
  0
LINE
  5
B645
330
B604
100
AcDbEntity
  8
0
  6
CONTINUOUS
100
AcDbLine
 10
20.15547048348449
 20
3.475826741828186
 30
0.0
 11
19.10679437974606
 21
4.524502845566614
 31
0.0
  0
LINE
  5
B646
330
B604
100
AcDbEntity
  8
0
  6
CONTINUOUS
100
AcDbLine
 10
20.35505123425962
 20
3.94976520013324
 30
0.0
 11
19.30631888737766
 21
4.998497547015201
 31
0.0
  0
LINE
  5
B647
330
B604
100
AcDbEntity
  8
0
  6
CONTINUOUS
100
AcDbLine
 10
20.55463198503475
 20
4.423703658438292
 30
0.0
 11
19.50584339500926
 21
5.472492248463787
 31
0.0
  0
LINE
  5
B648
330
B604
100
AcDbEntity
  8
0
  6
CONTINUOUS
100
AcDbLine
 10
18.37481191085755
 20
3.909446896294752
 30
0.0
 11
15.59302973632993
 21
6.691229070822371
 31
0.0
  0
LINE
  5
B649
330
B604
100
AcDbEntity
  8
0
  6
CONTINUOUS
100
AcDbLine
 10
17.96904084440766
 20
4.988737171824825
 30
0.0
 11
15.77705890739338
 21
7.180719108839104
 31
0.0
  0
LINE
  5
B64A
330
B604
100
AcDbEntity
  8
0
  6
CONTINUOUS
100
AcDbLine
 10
17.56326977795777
 20
6.068027447354899
 30
0.0
 11
15.96108807845684
 21
7.670209146855838
 31
0.0
  0
LINE
  5
B64B
330
B604
100
AcDbEntity
  8
0
  6
CONTINUOUS
100
AcDbLine
 10
17.15749871150789
 20
7.147317722884972
 30
0.0
 11
16.14511724952029
 21
8.15969918487257
 31
0.0
  0
LINE
  5
B64C
330
B604
100
AcDbEntity
  8
0
  6
CONTINUOUS
100
AcDbLine
 10
16.751727645058
 20
8.226607998415046
 30
0.0
 11
16.32914642058374
 21
8.649189222889303
 31
0.0
  0
LINE
  5
B64D
330
B604
100
AcDbEntity
  8
0
  6
CONTINUOUS
100
AcDbLine
 10
20.75421273580989
 20
4.897642116743345
 30
0.0
 11
19.70536790264086
 21
5.946486949912374
 31
0.0
  0
LINE
  5
B64E
330
B604
100
AcDbEntity
  8
0
  6
CONTINUOUS
100
AcDbLine
 10
20.95379348658502
 20
5.371580575048398
 30
0.0
 11
19.90489241027246
 21
6.42048165136096
 31
0.0
  0
LINE
  5
B64F
330
B604
100
AcDbEntity
  8
0
  6
CONTINUOUS
100
AcDbLine
 10
21.15337423736015
 20
5.845519033353452
 30
0.0
 11
20.10441691790406
 21
6.894476352809547
 31
0.0
  0
LINE
  5
B650
330
B604
100
AcDbEntity
  8
0
  6
CONTINUOUS
100
AcDbLine
 10
21.35295498813529
 20
6.319457491658505
 30
0.0
 11
20.30394142553566
 21
7.368471054258134
 31
0.0
  0
LINE
  5
B651
330
B604
100
AcDbEntity
  8
0
  6
CONTINUOUS
100
AcDbLine
 10
21.55253573891042
 20
6.793395949963558
 30
0.0
 11
20.50346593316726
 21
7.842465755706721
 31
0.0
  0
LINE
  5
B652
330
B604
100
AcDbEntity
  8
0
  6
CONTINUOUS
100
AcDbLine
 10
21.75211648968556
 20
7.267334408268612
 30
0.0
 11
20.70299044079886
 21
8.316460457155308
 31
0.0
  0
LINE
  5
B653
330
B604
100
AcDbEntity
  8
0
  6
CONTINUOUS
100
AcDbLine
 10
21.95169724046069
 20
7.741272866573663
 30
0.0
 11
20.9298701070431
 21
8.763099999991256
 31
0.0
  0
LINE
  5
B654
330
B604
100
AcDbEntity
  8
0
  6
CONTINUOUS
100
AcDbLine
 10
22.15127799123582
 20
8.215211324878716
 30
0.0
 11
21.60338931612328
 21
8.763099999991256
 31
0.0
  0
LINE
  5
B655
330
B604
100
AcDbEntity
  8
0
  6
CONTINUOUS
100
AcDbLine
 10
22.35085874201096
 20
8.689149783183769
 30
0.0
 11
22.27690852520347
 21
8.763099999991255
 31
0.0
  0
ENDBLK
  5
B747
330
B604
100
AcDbEntity
  8
0
100
AcDbBlockEnd
  0
BLOCK
  5
B748
330
B656
100
AcDbEntity
  8
0
100
AcDbBlockBegin
  2
*X29
 70
     1
 10
0.0
 20
0.0
 30
0.0
  3
*X29
  1

  0
LINE
  5
B657
330
B656
100
AcDbEntity
  8
0
  6
CONTINUOUS
100
AcDbLine
 10
23.19462913593892
 20
8.169917934846424
 30
0.0
 11
23.70775465517246
 21
8.683043454079957
 31
0.0
  0
LINE
  5
B658
330
B656
100
AcDbEntity
  8
0
  6
CONTINUOUS
100
AcDbLine
 10
22.64923161835078
 20
6.951001208178088
 30
0.0
 11
23.9159364069932
 21
8.217705996820516
 31
0.0
  0
LINE
  5
B659
330
B656
100
AcDbEntity
  8
0
  6
CONTINUOUS
100
AcDbLine
 10
22.10383410076263
 20
5.732084481509751
 30
0.0
 11
24.12411815881395
 21
7.752368539561078
 31
0.0
  0
LINE
  5
B65A
330
B656
100
AcDbEntity
  8
0
  6
CONTINUOUS
100
AcDbLine
 10
21.55843658317447
 20
4.513167754841414
 30
0.0
 11
24.3322999106347
 21
7.287031082301639
 31
0.0
  0
LINE
  5
B65B
330
B656
100
AcDbEntity
  8
0
  6
CONTINUOUS
100
AcDbLine
 10
21.01303906558632
 20
3.294251028173077
 30
0.0
 11
24.54048166245544
 21
6.821693625042199
 31
0.0
  0
LINE
  5
B65C
330
B656
100
AcDbEntity
  8
0
  6
CONTINUOUS
100
AcDbLine
 10
20.46764154799817
 20
2.075334301504738
 30
0.0
 11
23.28571549467848
 21
4.89340824818505
 31
0.0
  0
LINE
  5
B65D
330
B656
100
AcDbEntity
  8
0
  6
CONTINUOUS
100
AcDbLine
 10
19.92224403041002
 20
0.8564175748364002
 30
0.0
 11
22.74075865492779
 21
3.674932199354171
 31
0.0
  0
LINE
  5
B65E
330
B656
100
AcDbEntity
  8
0
  6
CONTINUOUS
100
AcDbLine
 10
23.67305085490148
 20
5.280743608408048
 30
0.0
 11
24.74866341427619
 21
6.356356167782759
 31
0.0
  0
LINE
  5
B65F
330
B656
100
AcDbEntity
  8
0
  6
CONTINUOUS
100
AcDbLine
 10
23.88118970842314
 20
4.815363252849522
 30
0.0
 11
24.95684516609694
 21
5.89101871052332
 31
0.0
  0
LINE
  5
B660
330
B656
100
AcDbEntity
  8
0
  6
CONTINUOUS
100
AcDbLine
 10
19.73925852647308
 20
-0.0000871381807288
 30
0.0
 11
23.4103456646501
 21
3.670999999996297
 31
0.0
  0
LINE
  5
B661
330
B656
100
AcDbEntity
  8
0
  6
CONTINUOUS
100
AcDbLine
 10
24.0893285619448
 20
4.349982897290997
 30
0.0
 11
25.16502691791769
 21
5.42568125326388
 31
0.0
  0
LINE
  5
B662
330
B656
100
AcDbEntity
  8
0
  6
CONTINUOUS
100
AcDbLine
 10
20.41282099582748
 20
-0.0000438779065108
 30
0.0
 11
21.64944178675636
 21
1.236576913022366
 31
0.0
  0
LINE
  5
B663
330
B656
100
AcDbEntity
  8
0
  6
CONTINUOUS
100
AcDbLine
 10
22.78126487373161
 20
2.36839999999762
 30
0.0
 11
24.08386487373029
 21
3.670999999996297
 31
0.0
  0
LINE
  5
B664
330
B656
100
AcDbEntity
  8
0
  6
CONTINUOUS
100
AcDbLine
 10
24.29746741546646
 20
3.884602541732471
 30
0.0
 11
25.37320866973843
 21
4.960343796004441
 31
0.0
  0
LINE
  5
B665
330
B656
100
AcDbEntity
  8
0
  6
CONTINUOUS
100
AcDbLine
 10
21.08638346518189
 20
-0.0000006176322938
 30
0.0
 11
21.10379033335899
 21
0.0174062505448083
 31
0.0
  0
LINE
  5
B666
330
B656
100
AcDbEntity
  8
0
  6
CONTINUOUS
100
AcDbLine
 10
23.4547840828118
 20
2.36839999999762
 30
0.0
 11
25.58139042155918
 21
4.495006338745002
 31
0.0
  0
LINE
  5
B667
330
B656
100
AcDbEntity
  8
0
  6
CONTINUOUS
100
AcDbLine
 10
29.30199999996933
 20
8.215615917155148
 30
0.0
 11
29.84948408280543
 21
8.763099999991255
 31
0.0
  0
LINE
  5
B668
330
B656
100
AcDbEntity
  8
0
  6
CONTINUOUS
100
AcDbLine
 10
24.12830329189199
 20
2.36839999999762
 30
0.0
 11
25.78957217337993
 21
4.029668881485562
 31
0.0
  0
LINE
  5
B669
330
B656
100
AcDbEntity
  8
0
  6
CONTINUOUS
100
AcDbLine
 10
29.30199999996933
 20
7.54209670807496
 30
0.0
 11
30.52300329188562
 21
8.763099999991255
 31
0.0
  0
LINE
  5
B66A
330
B656
100
AcDbEntity
  8
0
  6
CONTINUOUS
100
AcDbLine
 10
24.80182250097217
 20
2.36839999999762
 30
0.0
 11
25.99775392520067
 21
3.564331424226122
 31
0.0
  0
LINE
  5
B66B
330
B656
100
AcDbEntity
  8
0
  6
CONTINUOUS
100
AcDbLine
 10
29.30199999996933
 20
6.868577498994774
 30
0.0
 11
30.74199999996926
 21
8.308577498994712
 31
0.0
  0
LINE
  5
B66C
330
B656
100
AcDbEntity
  8
0
  6
CONTINUOUS
100
AcDbLine
 10
25.13028238392013
 20
2.023340673865392
 30
0.0
 11
26.20593567702142
 21
3.098993966966683
 31
0.0
  0
LINE
  5
B66D
330
B656
100
AcDbEntity
  8
0
  6
CONTINUOUS
100
AcDbLine
 10
25.33838066033617
 20
1.557919741201244
 30
0.0
 11
26.41411742884217
 21
2.633656509707244
 31
0.0
  0
LINE
  5
B66E
330
B656
100
AcDbEntity
  8
0
  6
CONTINUOUS
100
AcDbLine
 10
25.54647893675221
 20
1.092498808537098
 30
0.0
 11
26.62229918066291
 21
2.168319052447804
 31
0.0
  0
LINE
  5
B66F
330
B656
100
AcDbEntity
  8
0
  6
CONTINUOUS
100
AcDbLine
 10
25.75457721316825
 20
0.62707787587295
 30
0.0
 11
26.83048093248366
 21
1.702981595188365
 31
0.0
  0
LINE
  5
B670
330
B656
100
AcDbEntity
  8
0
  6
CONTINUOUS
100
AcDbLine
 10
29.30199999996933
 20
6.195058289914587
 30
0.0
 11
30.74199999996926
 21
7.635058289914522
 31
0.0
  0
LINE
  5
B671
330
B656
100
AcDbEntity
  8
0
  6
CONTINUOUS
100
AcDbLine
 10
29.30199999996933
 20
5.521539080834401
 30
0.0
 11
30.74199999996926
 21
6.961539080834331
 31
0.0
  0
LINE
  5
B672
330
B656
100
AcDbEntity
  8
0
  6
CONTINUOUS
100
AcDbLine
 10
29.30199999996933
 20
4.848019871754214
 30
0.0
 11
30.74199999996925
 21
6.288019871754143
 31
0.0
  0
LINE
  5
B673
330
B656
100
AcDbEntity
  8
0
  6
CONTINUOUS
100
AcDbLine
 10
29.30199999996933
 20
4.174500662674028
 30
0.0
 11
30.74199999996925
 21
5.614500662673953
 31
0.0
  0
LINE
  5
B674
330
B656
100
AcDbEntity
  8
0
  6
CONTINUOUS
100
AcDbLine
 10
25.96267548958429
 20
0.1616569432088024
 30
0.0
 11
27.18411854636669
 21
1.383099999991207
 31
0.0
  0
LINE
  5
B675
330
B656
100
AcDbEntity
  8
0
  6
CONTINUOUS
100
AcDbLine
 10
29.30199999996933
 20
3.500981453593841
 30
0.0
 11
30.74199999996925
 21
4.940981453593762
 31
0.0
  0
LINE
  5
B676
330
B656
100
AcDbEntity
  8
0
  6
CONTINUOUS
100
AcDbLine
 10
26.50763775544691
 20
0.0330999999912356
 30
0.0
 11
27.85763775544689
 21
1.383099999991223
 31
0.0
  0
LINE
  5
B677
330
B656
100
AcDbEntity
  8
0
  6
CONTINUOUS
100
AcDbLine
 10
29.30199999996933
 20
2.827462244513656
 30
0.0
 11
30.74199999996925
 21
4.267462244513574
 31
0.0
  0
LINE
  5
B678
330
B656
100
AcDbEntity
  8
0
  6
CONTINUOUS
100
AcDbLine
 10
27.18115696452709
 20
0.0330999999912356
 30
0.0
 11
28.55073879889363
 21
1.402681834357775
 31
0.0
  0
LINE
  5
B679
330
B656
100
AcDbEntity
  8
0
  6
CONTINUOUS
100
AcDbLine
 10
29.28241816560272
 20
2.134361201066866
 30
0.0
 11
30.74199999996924
 21
3.593943035433383
 31
0.0
  0
LINE
  5
B67A
330
B656
100
AcDbEntity
  8
0
  6
CONTINUOUS
100
AcDbLine
 10
27.85467617360728
 20
0.0330999999912356
 30
0.0
 11
30.74199999996924
 21
2.920423826353195
 31
0.0
  0
LINE
  5
B67B
330
B656
100
AcDbEntity
  8
0
  6
CONTINUOUS
100
AcDbLine
 10
28.53897559587887
 20
0.0438802131826428
 30
0.0
 11
30.73121978677781
 21
2.236124404081585
 31
0.0
  0
LINE
  5
B67C
330
B656
100
AcDbEntity
  8
0
  6
CONTINUOUS
100
AcDbLine
 10
29.45140055588722
 20
0.2827859641107988
 30
0.0
 11
30.49231403584965
 21
1.323699444073236
 31
0.0
  0
LINE
  5
B67D
330
B656
100
AcDbEntity
  8
0
  6
CONTINUOUS
100
AcDbLine
 10
19.59027867740337
 20
-0.0000967065718083
 30
0.0
 11
19.55485265190471
 21
0.035329318926844
 31
0.0
  0
LINE
  5
B67E
330
B656
100
AcDbEntity
  8
0
  6
CONTINUOUS
100
AcDbLine
 10
20.26375463176586
 20
-0.0000534518541091
 30
0.0
 11
19.76305575737534
 21
0.5006454225364014
 31
0.0
  0
LINE
  5
B67F
330
B656
100
AcDbEntity
  8
0
  6
CONTINUOUS
100
AcDbLine
 10
20.93723058612834
 20
-0.0000101971364099
 30
0.0
 11
19.97125886284597
 21
0.965961526145958
 31
0.0
  0
LINE
  5
B680
330
B656
100
AcDbEntity
  8
0
  6
CONTINUOUS
100
AcDbLine
 10
21.25514828313686
 20
0.355591314935257
 30
0.0
 11
20.1794619683166
 21
1.431277629755512
 31
0.0
  0
LINE
  5
B681
330
B656
100
AcDbEntity
  8
0
  6
CONTINUOUS
100
AcDbLine
 10
21.46338838394921
 20
0.8208704232030986
 30
0.0
 11
20.38766507378723
 21
1.896593733365069
 31
0.0
  0
LINE
  5
B682
330
B656
100
AcDbEntity
  8
0
  6
CONTINUOUS
100
AcDbLine
 10
21.67162848476155
 20
1.28614953147094
 30
0.0
 11
20.59586817925786
 21
2.361909836974626
 31
0.0
  0
LINE
  5
B683
330
B656
100
AcDbEntity
  8
0
  6
CONTINUOUS
100
AcDbLine
 10
21.8798685855739
 20
1.751428639738782
 30
0.0
 11
20.80407128472849
 21
2.827225940584183
 31
0.0
  0
LINE
  5
B684
330
B656
100
AcDbEntity
  8
0
  6
CONTINUOUS
100
AcDbLine
 10
22.08810868638624
 20
2.216707748006623
 30
0.0
 11
21.01227439019912
 21
3.292542044193739
 31
0.0
  0
LINE
  5
B685
330
B656
100
AcDbEntity
  8
0
  6
CONTINUOUS
100
AcDbLine
 10
22.60993564347543
 20
2.36839999999762
 30
0.0
 11
21.22047749566975
 21
3.757858147803296
 31
0.0
  0
LINE
  5
B686
330
B656
100
AcDbEntity
  8
0
  6
CONTINUOUS
100
AcDbLine
 10
23.28345485255561
 20
2.36839999999762
 30
0.0
 11
21.42868060114038
 21
4.223174251412853
 31
0.0
  0
LINE
  5
B687
330
B656
100
AcDbEntity
  8
0
  6
CONTINUOUS
100
AcDbLine
 10
26.29227406164219
 20
0.0330999999912356
 30
0.0
 11
25.80009199592872
 21
0.5252820657046957
 31
0.0
  0
LINE
  5
B688
330
B656
100
AcDbEntity
  8
0
  6
CONTINUOUS
100
AcDbLine
 10
23.9569740616358
 20
2.36839999999762
 30
0.0
 11
21.63688370661101
 21
4.688490355022409
 31
0.0
  0
LINE
  5
B689
330
B656
100
AcDbEntity
  8
0
  6
CONTINUOUS
100
AcDbLine
 10
26.96579327072237
 20
0.0330999999912356
 30
0.0
 11
25.2554132311971
 21
1.743480039516508
 31
0.0
  0
LINE
  5
B68A
330
B656
100
AcDbEntity
  8
0
  6
CONTINUOUS
100
AcDbLine
 10
24.63049327071599
 20
2.36839999999762
 30
0.0
 11
23.32789327071731
 21
3.670999999996297
 31
0.0
  0
LINE
  5
B68B
330
B656
100
AcDbEntity
  8
0
  6
CONTINUOUS
100
AcDbLine
 10
22.92098674744635
 20
4.077906523267254
 30
0.0
 11
21.84508681208164
 21
5.153806458631966
 31
0.0
  0
LINE
  5
B68C
330
B656
100
AcDbEntity
  8
0
  6
CONTINUOUS
100
AcDbLine
 10
27.63931247980256
 20
0.0330999999912356
 30
0.0
 11
24.0014124797975
 21
3.670999999996297
 31
0.0
  0
LINE
  5
B68D
330
B656
100
AcDbEntity
  8
0
  6
CONTINUOUS
100
AcDbLine
 10
23.129125600968
 20
4.5432868788258
 30
0.0
 11
22.05328991755227
 21
5.619122562241522
 31
0.0
  0
LINE
  5
B68E
330
B656
100
AcDbEntity
  8
0
  6
CONTINUOUS
100
AcDbLine
 10
28.31283168888275
 20
0.0330999999912356
 30
0.0
 11
24.16488385994816
 21
4.181047828925828
 31
0.0
  0
LINE
  5
B68F
330
B656
100
AcDbEntity
  8
0
  6
CONTINUOUS
100
AcDbLine
 10
23.33726445448964
 20
5.008667234384345
 30
0.0
 11
22.2614930230229
 21
6.084438665851079
 31
0.0
  0
LINE
  5
B690
330
B656
100
AcDbEntity
  8
0
  6
CONTINUOUS
100
AcDbLine
 10
28.92085740005492
 20
0.0985934978992438
 30
0.0
 11
27.63635089796295
 21
1.383099999991217
 31
0.0
  0
LINE
  5
B691
330
B656
100
AcDbEntity
  8
0
  6
CONTINUOUS
100
AcDbLine
 10
26.43704649509776
 20
2.582404402856405
 30
0.0
 11
23.61992702019732
 21
5.399523877756844
 31
0.0
  0
LINE
  5
B692
330
B656
100
AcDbEntity
  8
0
  6
CONTINUOUS
100
AcDbLine
 10
23.54540330801128
 20
5.47404758994289
 30
0.0
 11
22.46969612849353
 21
6.549754769460635
 31
0.0
  0
LINE
  5
B693
330
B656
100
AcDbEntity
  8
0
  6
CONTINUOUS
100
AcDbLine
 10
29.42225615078443
 20
0.2707139562499279
 30
0.0
 11
28.30987010704312
 21
1.383099999991234
 31
0.0
  0
LINE
  5
B694
330
B656
100
AcDbEntity
  8
0
  6
CONTINUOUS
100
AcDbLine
 10
25.89179548232307
 20
3.801174624711282
 30
0.0
 11
22.67789923396416
 21
7.015070873070191
 31
0.0
  0
LINE
  5
B695
330
B656
100
AcDbEntity
  8
0
  6
CONTINUOUS
100
AcDbLine
 10
29.83624534690007
 20
0.5302439692144705
 30
0.0
 11
28.85811781497101
 21
1.508371501143527
 31
0.0
  0
LINE
  5
B696
330
B656
100
AcDbEntity
  8
0
  6
CONTINUOUS
100
AcDbLine
 10
25.34654446954838
 20
5.01994484656616
 30
0.0
 11
22.88610233943479
 21
7.480386976679748
 31
0.0
  0
LINE
  5
B697
330
B656
100
AcDbEntity
  8
0
  6
CONTINUOUS
100
AcDbLine
 10
30.17865975401872
 20
0.8613487711760022
 30
0.0
 11
29.18888744090175
 21
1.851121084292977
 31
0.0
  0
LINE
  5
B698
330
B656
100
AcDbEntity
  8
0
  6
CONTINUOUS
100
AcDbLine
 10
24.80129345677369
 20
6.238715068421037
 30
0.0
 11
23.09430544490542
 21
7.945703080289305
 31
0.0
  0
LINE
  5
B699
330
B656
100
AcDbEntity
  8
0
  6
CONTINUOUS
100
AcDbLine
 10
30.45496647202376
 20
1.258561262251155
 30
0.0
 11
29.30199999996933
 21
2.411527734305588
 31
0.0
  0
LINE
  5
B69A
330
B656
100
AcDbEntity
  8
0
  6
CONTINUOUS
100
AcDbLine
 10
24.256042443999
 20
7.457485290275915
 30
0.0
 11
23.30250855037605
 21
8.411019183898862
 31
0.0
  0
LINE
  5
B69B
330
B656
100
AcDbEntity
  8
0
  6
CONTINUOUS
100
AcDbLine
 10
30.64868582078271
 20
1.738361122572387
 30
0.0
 11
29.30199999996933
 21
3.085046943385775
 31
0.0
  0
LINE
  5
B69C
330
B656
100
AcDbEntity
  8
0
  6
CONTINUOUS
100
AcDbLine
 10
23.71079143122431
 20
8.676255512130794
 30
0.0
 11
23.51071165584668
 21
8.876335287508416
 31
0.0
  0
LINE
  5
B69D
330
B656
100
AcDbEntity
  8
0
  6
CONTINUOUS
100
AcDbLine
 10
30.73802122914428
 20
2.322544923291007
 30
0.0
 11
29.30199999996933
 21
3.758566152465961
 31
0.0
  0
LINE
  5
B69E
330
B656
100
AcDbEntity
  8
0
  6
CONTINUOUS
100
AcDbLine
 10
30.74199999996924
 20
2.992085361546236
 30
0.0
 11
29.30199999996933
 21
4.432085361546148
 31
0.0
  0
LINE
  5
B69F
330
B656
100
AcDbEntity
  8
0
  6
CONTINUOUS
100
AcDbLine
 10
30.74199999996924
 20
3.665604570626419
 30
0.0
 11
29.30199999996933
 21
5.105604570626333
 31
0.0
  0
LINE
  5
B6A0
330
B656
100
AcDbEntity
  8
0
  6
CONTINUOUS
100
AcDbLine
 10
30.74199999996925
 20
4.339123779706602
 30
0.0
 11
29.30199999996933
 21
5.77912377970652
 31
0.0
  0
LINE
  5
B6A1
330
B656
100
AcDbEntity
  8
0
  6
CONTINUOUS
100
AcDbLine
 10
30.74199999996925
 20
5.012642988786785
 30
0.0
 11
29.30199999996933
 21
6.452642988786707
 31
0.0
  0
LINE
  5
B6A2
330
B656
100
AcDbEntity
  8
0
  6
CONTINUOUS
100
AcDbLine
 10
30.74199999996925
 20
5.68616219786697
 30
0.0
 11
29.30199999996933
 21
7.126162197866894
 31
0.0
  0
LINE
  5
B6A3
330
B656
100
AcDbEntity
  8
0
  6
CONTINUOUS
100
AcDbLine
 10
30.74199999996925
 20
6.359681406947153
 30
0.0
 11
29.30199999996933
 21
7.799681406947081
 31
0.0
  0
LINE
  5
B6A4
330
B656
100
AcDbEntity
  8
0
  6
CONTINUOUS
100
AcDbLine
 10
30.74199999996926
 20
7.033200616027337
 30
0.0
 11
29.30199999996933
 21
8.473200616027269
 31
0.0
  0
LINE
  5
B6A5
330
B656
100
AcDbEntity
  8
0
  6
CONTINUOUS
100
AcDbLine
 10
30.74199999996926
 20
7.706719825107518
 30
0.0
 11
29.68561982508552
 21
8.763099999991255
 31
0.0
  0
LINE
  5
B6A6
330
B656
100
AcDbEntity
  8
0
  6
CONTINUOUS
100
AcDbLine
 10
30.74199999996926
 20
8.380239034187703
 30
0.0
 11
30.35913903416571
 21
8.763099999991255
 31
0.0
  0
ENDBLK
  5
B749
330
B656
100
AcDbEntity
  8
0
100
AcDbBlockEnd
  0
BLOCK
  5
B74A
330
B6A7
100
AcDbEntity
  8
0
100
AcDbBlockBegin
  2
*X30
 70
     1
 10
0.0
 20
0.0
 30
0.0
  3
*X30
  1

  0
LINE
  5
B6A8
330
B6A7
100
AcDbEntity
  8
0
  6
CONTINUOUS
100
AcDbLine
 10
31.64199999996833
 20
8.535058289913598
 30
0.0
 11
31.87004171004599
 21
8.763099999991255
 31
0.0
  0
LINE
  5
B6A9
330
B6A7
100
AcDbEntity
  8
0
  6
CONTINUOUS
100
AcDbLine
 10
31.64199999996833
 20
7.861539080833412
 30
0.0
 11
32.54356091912618
 21
8.763099999991255
 31
0.0
  0
LINE
  5
B6AA
330
B6A7
100
AcDbEntity
  8
0
  6
CONTINUOUS
100
AcDbLine
 10
31.64199999996833
 20
7.188019871753226
 30
0.0
 11
33.08199999996839
 21
8.628019871753281
 31
0.0
  0
LINE
  5
B6AB
330
B6A7
100
AcDbEntity
  8
0
  6
CONTINUOUS
100
AcDbLine
 10
31.64199999996833
 20
6.51450066267304
 30
0.0
 11
33.08199999996839
 21
7.954500662673095
 31
0.0
  0
LINE
  5
B6AC
330
B6A7
100
AcDbEntity
  8
0
  6
CONTINUOUS
100
AcDbLine
 10
31.64199999996833
 20
5.840981453592853
 30
0.0
 11
33.08199999996839
 21
7.280981453592908
 31
0.0
  0
LINE
  5
B6AD
330
B6A7
100
AcDbEntity
  8
0
  6
CONTINUOUS
100
AcDbLine
 10
31.64199999996833
 20
5.167462244512667
 30
0.0
 11
33.08199999996839
 21
6.607462244512721
 31
0.0
  0
LINE
  5
B6AE
330
B6A7
100
AcDbEntity
  8
0
  6
CONTINUOUS
100
AcDbLine
 10
31.64199999996833
 20
4.493943035432481
 30
0.0
 11
33.08199999996839
 21
5.933943035432535
 31
0.0
  0
LINE
  5
B6AF
330
B6A7
100
AcDbEntity
  8
0
  6
CONTINUOUS
100
AcDbLine
 10
31.64199999996833
 20
3.820423826352293
 30
0.0
 11
33.08199999996839
 21
5.260423826352348
 31
0.0
  0
LINE
  5
B6B0
330
B6A7
100
AcDbEntity
  8
0
  6
CONTINUOUS
100
AcDbLine
 10
31.64199999996833
 20
3.146904617272106
 30
0.0
 11
33.08199999996839
 21
4.586904617272161
 31
0.0
  0
LINE
  5
B6B1
330
B6A7
100
AcDbEntity
  8
0
  6
CONTINUOUS
100
AcDbLine
 10
36.23199999996837
 20
8.410423826352325
 30
0.0
 11
36.5846761736073
 21
8.763099999991255
 31
0.0
  0
LINE
  5
B6B2
330
B6A7
100
AcDbEntity
  8
0
  6
CONTINUOUS
100
AcDbLine
 10
36.23199999996837
 20
7.73690461727214
 30
0.0
 11
37.25819538268748
 21
8.763099999991255
 31
0.0
  0
LINE
  5
B6B3
330
B6A7
100
AcDbEntity
  8
0
  6
CONTINUOUS
100
AcDbLine
 10
31.64257403601376
 20
2.473959444237348
 30
0.0
 11
33.08199999996839
 21
3.913385408191974
 31
0.0
  0
LINE
  5
B6B4
330
B6A7
100
AcDbEntity
  8
0
  6
CONTINUOUS
100
AcDbLine
 10
36.23199999996837
 20
7.063385408191953
 30
0.0
 11
37.67199999996831
 21
8.503385408191894
 31
0.0
  0
LINE
  5
B6B5
330
B6A7
100
AcDbEntity
  8
0
  6
CONTINUOUS
100
AcDbLine
 10
31.72013636841932
 20
1.87800256756272
 30
0.0
 11
33.08199999996839
 21
3.239866199111788
 31
0.0
  0
LINE
  5
B6B6
330
B6A7
100
AcDbEntity
  8
0
  6
CONTINUOUS
100
AcDbLine
 10
36.23199999996837
 20
6.389866199111767
 30
0.0
 11
37.67199999996831
 21
7.829866199111708
 31
0.0
  0
LINE
  5
B6B7
330
B6A7
100
AcDbEntity
  8
0
  6
CONTINUOUS
100
AcDbLine
 10
31.89042734314753
 20
1.374774333210744
 30
0.0
 11
33.08199999996839
 21
2.566346990031601
 31
0.0
  0
LINE
  5
B6B8
330
B6A7
100
AcDbEntity
  8
0
  6
CONTINUOUS
100
AcDbLine
 10
36.23199999996837
 20
5.71634699003158
 30
0.0
 11
37.67199999996831
 21
7.156346990031521
 31
0.0
  0
LINE
  5
B6B9
330
B6A7
100
AcDbEntity
  8
0
  6
CONTINUOUS
100
AcDbLine
 10
32.14210568064475
 20
0.952933461627778
 30
0.0
 11
33.18745552475986
 21
1.998283305742888
 31
0.0
  0
LINE
  5
B6BA
330
B6A7
100
AcDbEntity
  8
0
  6
CONTINUOUS
100
AcDbLine
 10
36.23199999996837
 20
5.042827780951393
 30
0.0
 11
37.67199999996831
 21
6.482827780951334
 31
0.0
  0
LINE
  5
B6BB
330
B6A7
100
AcDbEntity
  8
0
  6
CONTINUOUS
100
AcDbLine
 10
32.45820639400955
 20
0.5955149659123915
 30
0.0
 11
33.47242681921943
 21
1.60973539112227
 31
0.0
  0
LINE
  5
B6BC
330
B6A7
100
AcDbEntity
  8
0
  6
CONTINUOUS
100
AcDbLine
 10
36.23199999996837
 20
4.369308571871207
 30
0.0
 11
37.67199999996831
 21
5.809308571871147
 31
0.0
  0
LINE
  5
B6BD
330
B6A7
100
AcDbEntity
  8
0
  6
CONTINUOUS
100
AcDbLine
 10
32.83432456621412
 20
0.2981139290367771
 30
0.0
 11
33.89722476612215
 21
1.361014128944803
 31
0.0
  0
LINE
  5
B6BE
330
B6A7
100
AcDbEntity
  8
0
  6
CONTINUOUS
100
AcDbLine
 10
36.23199999996837
 20
3.69578936279102
 30
0.0
 11
37.67199999996831
 21
5.135789362790962
 31
0.0
  0
LINE
  5
B6BF
330
B6A7
100
AcDbEntity
  8
0
  6
CONTINUOUS
100
AcDbLine
 10
33.2711633111245
 20
0.0614334648669672
 30
0.0
 11
34.43247338014423
 21
1.222743533886696
 31
0.0
  0
LINE
  5
B6C0
330
B6A7
100
AcDbEntity
  8
0
  6
CONTINUOUS
100
AcDbLine
 10
36.23199999996837
 20
3.022270153710834
 30
0.0
 11
37.67199999996831
 21
4.462270153710775
 31
0.0
  0
LINE
  5
B6C1
330
B6A7
100
AcDbEntity
  8
0
  6
CONTINUOUS
100
AcDbLine
 10
33.76515245874577
 20
-0.1180965965919523
 30
0.0
 11
35.1587445516215
 21
1.27549549628378
 31
0.0
  0
LINE
  5
B6C2
330
B6A7
100
AcDbEntity
  8
0
  6
CONTINUOUS
100
AcDbLine
 10
36.21639478609585
 20
2.333145730758136
 30
0.0
 11
37.67199999996831
 21
3.788750944630588
 31
0.0
  0
LINE
  5
B6C3
330
B6A7
100
AcDbEntity
  8
0
  6
CONTINUOUS
100
AcDbLine
 10
34.34060583368432
 20
-0.2161624307335863
 30
0.0
 11
37.67199999996831
 21
3.115231735550401
 31
0.0
  0
LINE
  5
B6C4
330
B6A7
100
AcDbEntity
  8
0
  6
CONTINUOUS
100
AcDbLine
 10
35.01698193613905
 20
-0.2133055373590427
 30
0.0
 11
37.66876712070525
 21
2.438479647207154
 31
0.0
  0
LINE
  5
B6C5
330
B6A7
100
AcDbEntity
  8
0
  6
CONTINUOUS
100
AcDbLine
 10
35.90743367693304
 20
0.0036269943547609
 30
0.0
 11
37.51723902192366
 21
1.613432339345381
 31
0.0
  0
LINE
  5
B6C6
330
B6A7
100
AcDbEntity
  8
0
  6
CONTINUOUS
100
AcDbLine
 10
32.55309425579761
 20
0.5074718966376706
 30
0.0
 11
32.27784730925847
 21
0.7827188431768102
 31
0.0
  0
LINE
  5
B6C7
330
B6A7
100
AcDbEntity
  8
0
  6
CONTINUOUS
100
AcDbLine
 10
33.87496468909684
 20
-0.1408793275813673
 30
0.0
 11
31.67993083278052
 21
2.054154528734943
 31
0.0
  0
LINE
  5
B6C8
330
B6A7
100
AcDbEntity
  8
0
  6
CONTINUOUS
100
AcDbLine
 10
34.64362813207632
 20
-0.2360235614806649
 30
0.0
 11
31.64199999996833
 21
2.765604570627322
 31
0.0
  0
LINE
  5
B6C9
330
B6A7
100
AcDbEntity
  8
0
  6
CONTINUOUS
100
AcDbLine
 10
35.25801106796118
 20
-0.1768872882853429
 30
0.0
 11
31.64199999996833
 21
3.439123779707508
 31
0.0
  0
LINE
  5
B6CA
330
B6A7
100
AcDbEntity
  8
0
  6
CONTINUOUS
100
AcDbLine
 10
35.79065650332146
 20
-0.0360135145654361
 30
0.0
 11
34.54143210838231
 21
1.213210880373721
 31
0.0
  0
LINE
  5
B6CB
330
B6A7
100
AcDbEntity
  8
0
  6
CONTINUOUS
100
AcDbLine
 10
33.08199999996839
 20
2.67264298878764
 30
0.0
 11
31.64199999996833
 21
4.112642988787695
 31
0.0
  0
LINE
  5
B6CC
330
B6A7
100
AcDbEntity
  8
0
  6
CONTINUOUS
100
AcDbLine
 10
36.25975597779143
 20
0.1684062200447833
 30
0.0
 11
35.15395110240023
 21
1.274211095435983
 31
0.0
  0
LINE
  5
B6CD
330
B6A7
100
AcDbEntity
  8
0
  6
CONTINUOUS
100
AcDbLine
 10
33.08199999996839
 20
3.346162197867826
 30
0.0
 11
31.64199999996833
 21
4.786162197867881
 31
0.0
  0
LINE
  5
B6CE
330
B6A7
100
AcDbEntity
  8
0
  6
CONTINUOUS
100
AcDbLine
 10
36.67226329638774
 20
0.4294181105286579
 30
0.0
 11
35.63766478748767
 21
1.464016619428737
 31
0.0
  0
LINE
  5
B6CF
330
B6A7
100
AcDbEntity
  8
0
  6
CONTINUOUS
100
AcDbLine
 10
33.08199999996839
 20
4.019681406948012
 30
0.0
 11
31.64199999996833
 21
5.459681406948068
 31
0.0
  0
LINE
  5
B6D0
330
B6A7
100
AcDbEntity
  8
0
  6
CONTINUOUS
100
AcDbLine
 10
37.01677749710036
 20
0.7584231188962329
 30
0.0
 11
35.99563422741351
 21
1.779566388583076
 31
0.0
  0
LINE
  5
B6D1
330
B6A7
100
AcDbEntity
  8
0
  6
CONTINUOUS
100
AcDbLine
 10
33.08199999996839
 20
4.693200616028199
 30
0.0
 11
31.64199999996833
 21
6.133200616028255
 31
0.0
  0
LINE
  5
B6D2
330
B6A7
100
AcDbEntity
  8
0
  6
CONTINUOUS
100
AcDbLine
 10
37.29859977568887
 20
1.1501200493879
 30
0.0
 11
36.20680593341555
 21
2.241913891661226
 31
0.0
  0
LINE
  5
B6D3
330
B6A7
100
AcDbEntity
  8
0
  6
CONTINUOUS
100
AcDbLine
 10
33.08199999996839
 20
5.366719825108386
 30
0.0
 11
31.64199999996833
 21
6.80671982510844
 31
0.0
  0
LINE
  5
B6D4
330
B6A7
100
AcDbEntity
  8
0
  6
CONTINUOUS
100
AcDbLine
 10
37.5148623517228
 20
1.607376682434161
 30
0.0
 11
36.23199999996837
 21
2.890239034188594
 31
0.0
  0
LINE
  5
B6D5
330
B6A7
100
AcDbEntity
  8
0
  6
CONTINUOUS
100
AcDbLine
 10
33.08199999996839
 20
6.040239034188573
 30
0.0
 11
31.64199999996833
 21
7.480239034188627
 31
0.0
  0
LINE
  5
B6D6
330
B6A7
100
AcDbEntity
  8
0
  6
CONTINUOUS
100
AcDbLine
 10
37.64705163358367
 20
2.148706609653477
 30
0.0
 11
36.23199999996837
 21
3.56375824326878
 31
0.0
  0
LINE
  5
B6D7
330
B6A7
100
AcDbEntity
  8
0
  6
CONTINUOUS
100
AcDbLine
 10
33.08199999996839
 20
6.713758243268758
 30
0.0
 11
31.64199999996833
 21
8.153758243268815
 31
0.0
  0
LINE
  5
B6D8
330
B6A7
100
AcDbEntity
  8
0
  6
CONTINUOUS
100
AcDbLine
 10
37.67199999996831
 20
2.797277452349026
 30
0.0
 11
36.23199999996837
 21
4.237277452348967
 31
0.0
  0
LINE
  5
B6D9
330
B6A7
100
AcDbEntity
  8
0
  6
CONTINUOUS
100
AcDbLine
 10
37.67199999996831
 20
3.470796661429213
 30
0.0
 11
36.23199999996837
 21
4.910796661429154
 31
0.0
  0
LINE
  5
B6DA
330
B6A7
100
AcDbEntity
  8
0
  6
CONTINUOUS
100
AcDbLine
 10
37.67199999996831
 20
4.144315870509399
 30
0.0
 11
36.23199999996837
 21
5.58431587050934
 31
0.0
  0
LINE
  5
B6DB
330
B6A7
100
AcDbEntity
  8
0
  6
CONTINUOUS
100
AcDbLine
 10
33.08199999996839
 20
7.387277452348945
 30
0.0
 11
31.70617745232608
 21
8.763099999991255
 31
0.0
  0
LINE
  5
B6DC
330
B6A7
100
AcDbEntity
  8
0
  6
CONTINUOUS
100
AcDbLine
 10
33.08199999996839
 20
8.060796661429132
 30
0.0
 11
32.37969666140626
 21
8.763099999991255
 31
0.0
  0
LINE
  5
B6DD
330
B6A7
100
AcDbEntity
  8
0
  6
CONTINUOUS
100
AcDbLine
 10
33.08199999996839
 20
8.734315870509318
 30
0.0
 11
33.05321587048645
 21
8.763099999991255
 31
0.0
  0
LINE
  5
B6DE
330
B6A7
100
AcDbEntity
  8
0
  6
CONTINUOUS
100
AcDbLine
 10
37.67199999996831
 20
4.817835079589585
 30
0.0
 11
36.23199999996837
 21
6.257835079589526
 31
0.0
  0
LINE
  5
B6DF
330
B6A7
100
AcDbEntity
  8
0
  6
CONTINUOUS
100
AcDbLine
 10
37.67199999996831
 20
5.491354288669771
 30
0.0
 11
36.23199999996837
 21
6.931354288669713
 31
0.0
  0
LINE
  5
B6E0
330
B6A7
100
AcDbEntity
  8
0
  6
CONTINUOUS
100
AcDbLine
 10
37.67199999996831
 20
6.164873497749958
 30
0.0
 11
36.23199999996837
 21
7.6048734977499
 31
0.0
  0
LINE
  5
B6E1
330
B6A7
100
AcDbEntity
  8
0
  6
CONTINUOUS
100
AcDbLine
 10
37.67199999996831
 20
6.838392706830144
 30
0.0
 11
36.23199999996837
 21
8.278392706830086
 31
0.0
  0
LINE
  5
B6E2
330
B6A7
100
AcDbEntity
  8
0
  6
CONTINUOUS
100
AcDbLine
 10
37.67199999996831
 20
7.511911915910332
 30
0.0
 11
36.42081191588738
 21
8.763099999991255
 31
0.0
  0
LINE
  5
B6E3
330
B6A7
100
AcDbEntity
  8
0
  6
CONTINUOUS
100
AcDbLine
 10
37.67199999996831
 20
8.185431124990519
 30
0.0
 11
37.09433112496757
 21
8.763099999991255
 31
0.0
  0
ENDBLK
  5
B74B
330
B6A7
100
AcDbEntity
  8
0
100
AcDbBlockEnd
  0
BLOCK
  5
B74C
330
B6E4
100
AcDbEntity
  8
0
100
AcDbBlockBegin
  2
*X31
 70
     1
 10
0.0
 20
0.0
 30
0.0
  3
*X31
  1

  0
LINE
  5
B6E5
330
B6E4
100
AcDbEntity
  8
0
  6
CONTINUOUS
100
AcDbLine
 10
38.60499999996136
 20
8.762866199104765
 30
0.0
 11
38.71672554182345
 21
8.874591740966855
 31
0.0
  0
LINE
  5
B6E6
330
B6E4
100
AcDbEntity
  8
0
  6
CONTINUOUS
100
AcDbLine
 10
38.60499999996136
 20
8.089346990024577
 30
0.0
 11
39.03418785440363
 21
8.518534844466847
 31
0.0
  0
LINE
  5
B6E7
330
B6E4
100
AcDbEntity
  8
0
  6
CONTINUOUS
100
AcDbLine
 10
38.60499999996136
 20
7.41582778094439
 30
0.0
 11
39.35165016698382
 21
8.16247794796684
 31
0.0
  0
LINE
  5
B6E8
330
B6E4
100
AcDbEntity
  8
0
  6
CONTINUOUS
100
AcDbLine
 10
38.60499999996136
 20
6.742308571864204
 30
0.0
 11
39.66911247956399
 21
7.806421051466834
 31
0.0
  0
LINE
  5
B6E9
330
B6E4
100
AcDbEntity
  8
0
  6
CONTINUOUS
100
AcDbLine
 10
38.60499999996136
 20
6.068789362784018
 30
0.0
 11
39.98657479214418
 21
7.450364154966827
 31
0.0
  0
LINE
  5
B6EA
330
B6E4
100
AcDbEntity
  8
0
  6
CONTINUOUS
100
AcDbLine
 10
38.60499999996136
 20
5.395270153703832
 30
0.0
 11
40.30403710472435
 21
7.09430725846682
 31
0.0
  0
LINE
  5
B6EB
330
B6E4
100
AcDbEntity
  8
0
  6
CONTINUOUS
100
AcDbLine
 10
38.60499999996136
 20
4.721750944623645
 30
0.0
 11
40.62149941730453
 21
6.738250361966813
 31
0.0
  0
LINE
  5
B6EC
330
B6E4
100
AcDbEntity
  8
0
  6
CONTINUOUS
100
AcDbLine
 10
38.60499999996136
 20
4.048231735543458
 30
0.0
 11
40.93896172988471
 21
6.382193465466806
 31
0.0
  0
LINE
  5
B6ED
330
B6E4
100
AcDbEntity
  8
0
  6
CONTINUOUS
100
AcDbLine
 10
38.60499999996136
 20
3.374712526463272
 30
0.0
 11
40.02599999995994
 21
4.795712526461843
 31
0.0
  0
LINE
  5
B6EE
330
B6E4
100
AcDbEntity
  8
0
  6
CONTINUOUS
100
AcDbLine
 10
38.60499999996136
 20
2.701193317383085
 30
0.0
 11
40.02599999995994
 21
4.122193317381657
 31
0.0
  0
LINE
  5
B6EF
330
B6E4
100
AcDbEntity
  8
0
  6
CONTINUOUS
100
AcDbLine
 10
40.28339754687704
 20
5.053110073378947
 30
0.0
 11
41.25642404246489
 21
6.026136568966799
 31
0.0
  0
LINE
  5
B6F0
330
B6E4
100
AcDbEntity
  8
0
  6
CONTINUOUS
100
AcDbLine
 10
40.60085985945722
 20
4.697053176878939
 30
0.0
 11
41.57388635504507
 21
5.670079672466793
 31
0.0
  0
LINE
  5
B6F1
330
B6E4
100
AcDbEntity
  8
0
  6
CONTINUOUS
100
AcDbLine
 10
43.57899999995641
 20
8.348712526458318
 30
0.0
 11
43.99338747348935
 21
8.763099999991255
 31
0.0
  0
LINE
  5
B6F2
330
B6E4
100
AcDbEntity
  8
0
  6
CONTINUOUS
100
AcDbLine
 10
43.57899999995641
 20
7.675193317378131
 30
0.0
 11
44.66690668256953
 21
8.763099999991255
 31
0.0
  0
LINE
  5
B6F3
330
B6E4
100
AcDbEntity
  8
0
  6
CONTINUOUS
100
AcDbLine
 10
38.60499999996136
 20
2.027674108302898
 30
0.0
 11
40.02599999995994
 21
3.44867410830147
 31
0.0
  0
LINE
  5
B6F4
330
B6E4
100
AcDbEntity
  8
0
  6
CONTINUOUS
100
AcDbLine
 10
38.60499999996136
 20
1.354154899222712
 30
0.0
 11
40.02599999995994
 21
2.775154899221284
 31
0.0
  0
LINE
  5
B6F5
330
B6E4
100
AcDbEntity
  8
0
  6
CONTINUOUS
100
AcDbLine
 10
38.60499999996136
 20
0.6806356901425255
 30
0.0
 11
40.02599999995994
 21
2.101635690141098
 31
0.0
  0
LINE
  5
B6F6
330
B6E4
100
AcDbEntity
  8
0
  6
CONTINUOUS
100
AcDbLine
 10
38.60499999996136
 20
0.0071164810623383
 30
0.0
 11
40.02599999995994
 21
1.428116481060911
 31
0.0
  0
LINE
  5
B6F7
330
B6E4
100
AcDbEntity
  8
0
  6
CONTINUOUS
100
AcDbLine
 10
40.9183221720374
 20
4.340996280378933
 30
0.0
 11
41.89134866762525
 21
5.314022775966786
 31
0.0
  0
LINE
  5
B6F8
330
B6E4
100
AcDbEntity
  8
0
  6
CONTINUOUS
100
AcDbLine
 10
41.23578448461758
 20
3.984939383878926
 30
0.0
 11
42.20881098020543
 21
4.957965879466778
 31
0.0
  0
LINE
  5
B6F9
330
B6E4
100
AcDbEntity
  8
0
  6
CONTINUOUS
100
AcDbLine
 10
41.55324679719776
 20
3.628882487378919
 30
0.0
 11
42.52627329278561
 21
4.601908982966772
 31
0.0
  0
LINE
  5
B6FA
330
B6E4
100
AcDbEntity
  8
0
  6
CONTINUOUS
100
AcDbLine
 10
41.87070910977793
 20
3.272825590878912
 30
0.0
 11
42.84373560536579
 21
4.245852086466765
 31
0.0
  0
LINE
  5
B6FB
330
B6E4
100
AcDbEntity
  8
0
  6
CONTINUOUS
100
AcDbLine
 10
43.57899999995641
 20
7.001674108297943
 30
0.0
 11
44.99999999995498
 21
8.422674108296516
 31
0.0
  0
LINE
  5
B6FC
330
B6E4
100
AcDbEntity
  8
0
  6
CONTINUOUS
100
AcDbLine
 10
43.57899999995641
 20
6.328154899217758
 30
0.0
 11
44.99999999995498
 21
7.749154899216329
 31
0.0
  0
LINE
  5
B6FD
330
B6E4
100
AcDbEntity
  8
0
  6
CONTINUOUS
100
AcDbLine
 10
43.57899999995641
 20
5.654635690137571
 30
0.0
 11
44.99999999995498
 21
7.075635690136142
 31
0.0
  0
LINE
  5
B6FE
330
B6E4
100
AcDbEntity
  8
0
  6
CONTINUOUS
100
AcDbLine
 10
43.57899999995641
 20
4.981116481057384
 30
0.0
 11
44.99999999995498
 21
6.402116481055955
 31
0.0
  0
LINE
  5
B6FF
330
B6E4
100
AcDbEntity
  8
0
  6
CONTINUOUS
100
AcDbLine
 10
39.27140272797921
 20
-0.0000000000000009
 30
0.0
 11
40.02599999995994
 21
0.7545972719807246
 31
0.0
  0
LINE
  5
B700
330
B6E4
100
AcDbEntity
  8
0
  6
CONTINUOUS
100
AcDbLine
 10
39.9449219370594
 20
-0.0000000000000009
 30
0.0
 11
40.02599999995994
 21
0.0810780629005379
 31
0.0
  0
LINE
  5
B701
330
B6E4
100
AcDbEntity
  8
0
  6
CONTINUOUS
100
AcDbLine
 10
42.18817142235812
 20
2.916768694378905
 30
0.0
 11
43.16119791794597
 21
3.889795189966758
 31
0.0
  0
LINE
  5
B702
330
B6E4
100
AcDbEntity
  8
0
  6
CONTINUOUS
100
AcDbLine
 10
42.50563373493829
 20
2.560711797878898
 30
0.0
 11
43.47866023052615
 21
3.533738293466751
 31
0.0
  0
LINE
  5
B703
330
B6E4
100
AcDbEntity
  8
0
  6
CONTINUOUS
100
AcDbLine
 10
43.57899999995641
 20
4.307597271977198
 30
0.0
 11
44.99999999995498
 21
5.728597271975769
 31
0.0
  0
LINE
  5
B704
330
B6E4
100
AcDbEntity
  8
0
  6
CONTINUOUS
100
AcDbLine
 10
43.57899999995641
 20
3.634078062897011
 30
0.0
 11
44.99999999995498
 21
5.055078062895582
 31
0.0
  0
LINE
  5
B705
330
B6E4
100
AcDbEntity
  8
0
  6
CONTINUOUS
100
AcDbLine
 10
42.82309604751848
 20
2.204654901378891
 30
0.0
 11
44.99999999995498
 21
4.381558853815395
 31
0.0
  0
LINE
  5
B706
330
B6E4
100
AcDbEntity
  8
0
  6
CONTINUOUS
100
AcDbLine
 10
43.14055836009865
 20
1.848598004878885
 30
0.0
 11
44.99999999995498
 21
3.70803964473521
 31
0.0
  0
LINE
  5
B707
330
B6E4
100
AcDbEntity
  8
0
  6
CONTINUOUS
100
AcDbLine
 10
43.45802067267883
 20
1.492541108378878
 30
0.0
 11
44.99999999995498
 21
3.034520435655023
 31
0.0
  0
LINE
  5
B708
330
B6E4
100
AcDbEntity
  8
0
  6
CONTINUOUS
100
AcDbLine
 10
43.77548298525902
 20
1.136484211878871
 30
0.0
 11
44.99999999995498
 21
2.361001226574837
 31
0.0
  0
LINE
  5
B709
330
B6E4
100
AcDbEntity
  8
0
  6
CONTINUOUS
100
AcDbLine
 10
44.09294529783919
 20
0.7804273153788639
 30
0.0
 11
44.99999999995498
 21
1.687482017494649
 31
0.0
  0
LINE
  5
B70A
330
B6E4
100
AcDbEntity
  8
0
  6
CONTINUOUS
100
AcDbLine
 10
44.41040761041938
 20
0.4243704188788566
 30
0.0
 11
44.99999999995498
 21
1.013962808414463
 31
0.0
  0
LINE
  5
B70B
330
B6E4
100
AcDbEntity
  8
0
  6
CONTINUOUS
100
AcDbLine
 10
44.72786992299955
 20
0.0683135223788494
 30
0.0
 11
44.99999999995498
 21
0.340443599334276
 31
0.0
  0
LINE
  5
B70C
330
B6E4
100
AcDbEntity
  8
0
  6
CONTINUOUS
100
AcDbLine
 10
39.12223903415696
 20
-0.0000000000000009
 30
0.0
 11
38.60499999996136
 21
0.5172390341955961
 31
0.0
  0
LINE
  5
B70D
330
B6E4
100
AcDbEntity
  8
0
  6
CONTINUOUS
100
AcDbLine
 10
39.79575824323715
 20
-0.0000000000000009
 30
0.0
 11
38.60499999996136
 21
1.190758243275783
 31
0.0
  0
LINE
  5
B70E
330
B6E4
100
AcDbEntity
  8
0
  6
CONTINUOUS
100
AcDbLine
 10
40.02599999995994
 20
0.443277452357397
 30
0.0
 11
38.60499999996136
 21
1.864277452355969
 31
0.0
  0
LINE
  5
B70F
330
B6E4
100
AcDbEntity
  8
0
  6
CONTINUOUS
100
AcDbLine
 10
40.02599999995994
 20
1.116796661437583
 30
0.0
 11
38.60499999996136
 21
2.537796661436155
 31
0.0
  0
LINE
  5
B710
330
B6E4
100
AcDbEntity
  8
0
  6
CONTINUOUS
100
AcDbLine
 10
40.02599999995994
 20
1.79031587051777
 30
0.0
 11
38.60499999996136
 21
3.211315870516341
 31
0.0
  0
LINE
  5
B711
330
B6E4
100
AcDbEntity
  8
0
  6
CONTINUOUS
100
AcDbLine
 10
40.02599999995994
 20
2.463835079597956
 30
0.0
 11
38.60499999996136
 21
3.884835079596527
 31
0.0
  0
LINE
  5
B712
330
B6E4
100
AcDbEntity
  8
0
  6
CONTINUOUS
100
AcDbLine
 10
40.02599999995994
 20
3.137354288678143
 30
0.0
 11
38.60499999996136
 21
4.558354288676714
 31
0.0
  0
LINE
  5
B713
330
B6E4
100
AcDbEntity
  8
0
  6
CONTINUOUS
100
AcDbLine
 10
40.02599999995994
 20
3.810873497758329
 30
0.0
 11
38.60499999996136
 21
5.2318734977569
 31
0.0
  0
LINE
  5
B714
330
B6E4
100
AcDbEntity
  8
0
  6
CONTINUOUS
100
AcDbLine
 10
40.02599999995994
 20
4.484392706838515
 30
0.0
 11
38.60499999996136
 21
5.905392706837086
 31
0.0
  0
LINE
  5
B715
330
B6E4
100
AcDbEntity
  8
0
  6
CONTINUOUS
100
AcDbLine
 10
44.99999999995498
 20
0.183911915923658
 30
0.0
 11
41.53858364506288
 21
3.64532827081576
 31
0.0
  0
LINE
  5
B716
330
B6E4
100
AcDbEntity
  8
0
  6
CONTINUOUS
100
AcDbLine
 10
40.02599999995994
 20
5.157911915918703
 30
0.0
 11
38.60499999996136
 21
6.578911915917274
 31
0.0
  0
LINE
  5
B717
330
B6E4
100
AcDbEntity
  8
0
  6
CONTINUOUS
100
AcDbLine
 10
44.99999999995498
 20
0.8574311250038447
 30
0.0
 11
38.60499999996136
 21
7.25243112499746
 31
0.0
  0
LINE
  5
B718
330
B6E4
100
AcDbEntity
  8
0
  6
CONTINUOUS
100
AcDbLine
 10
44.99999999995498
 20
1.530950334084031
 30
0.0
 11
38.60499999996136
 21
7.925950334077647
 31
0.0
  0
LINE
  5
B719
330
B6E4
100
AcDbEntity
  8
0
  6
CONTINUOUS
100
AcDbLine
 10
44.99999999995498
 20
2.204469543164218
 30
0.0
 11
43.57899999995641
 21
3.625469543162789
 31
0.0
  0
LINE
  5
B71A
330
B6E4
100
AcDbEntity
  8
0
  6
CONTINUOUS
100
AcDbLine
 10
41.89876730984767
 20
5.305702233271528
 30
0.0
 11
38.60499999996136
 21
8.599469543157834
 31
0.0
  0
LINE
  5
B71B
330
B6E4
100
AcDbEntity
  8
0
  6
CONTINUOUS
100
AcDbLine
 10
44.99999999995498
 20
2.877988752244405
 30
0.0
 11
43.57899999995641
 21
4.298988752242975
 31
0.0
  0
LINE
  5
B71C
330
B6E4
100
AcDbEntity
  8
0
  6
CONTINUOUS
100
AcDbLine
 10
44.99999999995498
 20
3.551507961324591
 30
0.0
 11
43.57899999995641
 21
4.972507961323163
 31
0.0
  0
LINE
  5
B71D
330
B6E4
100
AcDbEntity
  8
0
  6
CONTINUOUS
100
AcDbLine
 10
44.99999999995498
 20
4.225027170404777
 30
0.0
 11
43.57899999995641
 21
5.646027170403348
 31
0.0
  0
LINE
  5
B71E
330
B6E4
100
AcDbEntity
  8
0
  6
CONTINUOUS
100
AcDbLine
 10
44.99999999995498
 20
4.898546379484964
 30
0.0
 11
43.57899999995641
 21
6.319546379483535
 31
0.0
  0
LINE
  5
B71F
330
B6E4
100
AcDbEntity
  8
0
  6
CONTINUOUS
100
AcDbLine
 10
44.99999999995498
 20
5.572065588565151
 30
0.0
 11
43.57899999995641
 21
6.993065588563722
 31
0.0
  0
LINE
  5
B720
330
B6E4
100
AcDbEntity
  8
0
  6
CONTINUOUS
100
AcDbLine
 10
44.99999999995498
 20
6.245584797645336
 30
0.0
 11
43.57899999995641
 21
7.666584797643908
 31
0.0
  0
LINE
  5
B721
330
B6E4
100
AcDbEntity
  8
0
  6
CONTINUOUS
100
AcDbLine
 10
44.99999999995498
 20
6.919104006725522
 30
0.0
 11
43.57899999995641
 21
8.340104006724093
 31
0.0
  0
LINE
  5
B722
330
B6E4
100
AcDbEntity
  8
0
  6
CONTINUOUS
100
AcDbLine
 10
44.99999999995498
 20
7.592623215805709
 30
0.0
 11
43.82952321576943
 21
8.763099999991255
 31
0.0
  0
LINE
  5
B723
330
B6E4
100
AcDbEntity
  8
0
  6
CONTINUOUS
100
AcDbLine
 10
44.99999999995498
 20
8.266142424885896
 30
0.0
 11
44.50304242484962
 21
8.763099999991255
 31
0.0
  0
ENDBLK
  5
B74D
330
B6E4
100
AcDbEntity
  8
0
100
AcDbBlockEnd
  0
BLOCK
  5
B74E
330
B724
100
AcDbEntity
  8
0
100
AcDbBlockBegin
  2
*X32
 70
     1
 10
0.0
 20
0.0
 30
0.0
  3
*X32
  1

  0
LINE
  5
B725
330
B724
100
AcDbEntity
  8
0
  6
CONTINUOUS
100
AcDbLine
 10
0.0
 20
8.548461116714023
 30
0.0
 11
0.2146388832772324
 21
8.763099999991255
 31
0.0
  0
LINE
  5
B726
330
B724
100
AcDbEntity
  8
0
  6
CONTINUOUS
100
AcDbLine
 10
-0.0000000000000002
 20
7.874941907633837
 30
0.0
 11
0.8881580923574184
 21
8.763099999991255
 31
0.0
  0
LINE
  5
B727
330
B724
100
AcDbEntity
  8
0
  6
CONTINUOUS
100
AcDbLine
 10
0.0
 20
7.20142269855365
 30
0.0
 11
1.420999999998572
 21
8.622422698552223
 31
0.0
  0
LINE
  5
B728
330
B724
100
AcDbEntity
  8
0
  6
CONTINUOUS
100
AcDbLine
 10
-0.0000000000000001
 20
6.527903489473465
 30
0.0
 11
1.420999999998571
 21
7.948903489472036
 31
0.0
  0
LINE
  5
B729
330
B724
100
AcDbEntity
  8
0
  6
CONTINUOUS
100
AcDbLine
 10
-0.0000000000000002
 20
5.854384280393278
 30
0.0
 11
1.420999999998571
 21
7.275384280391849
 31
0.0
  0
LINE
  5
B72A
330
B724
100
AcDbEntity
  8
0
  6
CONTINUOUS
100
AcDbLine
 10
-0.0000000000000002
 20
5.180865071313091
 30
0.0
 11
1.420999999998571
 21
6.601865071311663
 31
0.0
  0
LINE
  5
B72B
330
B724
100
AcDbEntity
  8
0
  6
CONTINUOUS
100
AcDbLine
 10
0.0
 20
4.507345862232905
 30
0.0
 11
1.420999999998571
 21
5.928345862231477
 31
0.0
  0
LINE
  5
B72C
330
B724
100
AcDbEntity
  8
0
  6
CONTINUOUS
100
AcDbLine
 10
-0.0000000000000003
 20
3.833826653152718
 30
0.0
 11
1.420999999998571
 21
5.25482665315129
 31
0.0
  0
LINE
  5
B72D
330
B724
100
AcDbEntity
  8
0
  6
CONTINUOUS
100
AcDbLine
 10
-0.0000000000000002
 20
3.160307444072532
 30
0.0
 11
1.420999999998571
 21
4.581307444071103
 31
0.0
  0
LINE
  5
B72E
330
B724
100
AcDbEntity
  8
0
  6
CONTINUOUS
100
AcDbLine
 10
-0.0000000000000001
 20
2.486788234992345
 30
0.0
 11
1.420999999998571
 21
3.907788234990917
 31
0.0
  0
LINE
  5
B72F
330
B724
100
AcDbEntity
  8
0
  6
CONTINUOUS
100
AcDbLine
 10
-0.0000000000000006
 20
1.813269025912159
 30
0.0
 11
1.420999999998571
 21
3.234269025910731
 31
0.0
  0
LINE
  5
B730
330
B724
100
AcDbEntity
  8
0
  6
CONTINUOUS
100
AcDbLine
 10
0.0
 20
1.139749816831973
 30
0.0
 11
1.420999999998571
 21
2.560749816830544
 31
0.0
  0
LINE
  5
B731
330
B724
100
AcDbEntity
  8
0
  6
CONTINUOUS
100
AcDbLine
 10
0.0000000000000002
 20
0.466230607751787
 30
0.0
 11
1.420999999998571
 21
1.887230607750358
 31
0.0
  0
LINE
  5
B732
330
B724
100
AcDbEntity
  8
0
  6
CONTINUOUS
100
AcDbLine
 10
0.2072886013284003
 20
-0.0000000000000009
 30
0.0
 11
1.420999999998571
 21
1.213711398670171
 31
0.0
  0
LINE
  5
B733
330
B724
100
AcDbEntity
  8
0
  6
CONTINUOUS
100
AcDbLine
 10
0.8808078104085864
 20
-0.0000000000000009
 30
0.0
 11
1.420999999998571
 21
0.5401921895899839
 31
0.0
  0
LINE
  5
B734
330
B724
100
AcDbEntity
  8
0
  6
CONTINUOUS
100
AcDbLine
 10
0.0581249075061505
 20
-0.0000000000000009
 30
0.0
 11
-0.0000000000000002
 21
0.0581249075061496
 31
0.0
  0
LINE
  5
B735
330
B724
100
AcDbEntity
  8
0
  6
CONTINUOUS
100
AcDbLine
 10
0.7316441165863372
 20
-0.0000000000000009
 30
0.0
 11
-0.0000000000000002
 21
0.7316441165863363
 31
0.0
  0
LINE
  5
B736
330
B724
100
AcDbEntity
  8
0
  6
CONTINUOUS
100
AcDbLine
 10
1.405163325666523
 20
-0.0000000000000009
 30
0.0
 11
-0.0000000000000002
 21
1.405163325666523
 31
0.0
  0
LINE
  5
B737
330
B724
100
AcDbEntity
  8
0
  6
CONTINUOUS
100
AcDbLine
 10
1.420999999998572
 20
0.6576825347481381
 30
0.0
 11
-0.0000000000000001
 21
2.07868253474671
 31
0.0
  0
LINE
  5
B738
330
B724
100
AcDbEntity
  8
0
  6
CONTINUOUS
100
AcDbLine
 10
1.420999999998571
 20
1.331201743828324
 30
0.0
 11
-0.0000000000000001
 21
2.752201743826896
 31
0.0
  0
LINE
  5
B739
330
B724
100
AcDbEntity
  8
0
  6
CONTINUOUS
100
AcDbLine
 10
1.420999999998571
 20
2.004720952908511
 30
0.0
 11
-0.0000000000000002
 21
3.425720952907082
 31
0.0
  0
LINE
  5
B73A
330
B724
100
AcDbEntity
  8
0
  6
CONTINUOUS
100
AcDbLine
 10
1.420999999998571
 20
2.678240161988697
 30
0.0
 11
-0.0000000000000001
 21
4.099240161987269
 31
0.0
  0
LINE
  5
B73B
330
B724
100
AcDbEntity
  8
0
  6
CONTINUOUS
100
AcDbLine
 10
1.420999999998572
 20
3.351759371068884
 30
0.0
 11
0.0
 21
4.772759371067455
 31
0.0
  0
LINE
  5
B73C
330
B724
100
AcDbEntity
  8
0
  6
CONTINUOUS
100
AcDbLine
 10
1.420999999998571
 20
4.02527858014907
 30
0.0
 11
-0.0000000000000003
 21
5.446278580147642
 31
0.0
  0
LINE
  5
B73D
330
B724
100
AcDbEntity
  8
0
  6
CONTINUOUS
100
AcDbLine
 10
1.420999999998571
 20
4.698797789229257
 30
0.0
 11
0.0
 21
6.119797789227828
 31
0.0
  0
LINE
  5
B73E
330
B724
100
AcDbEntity
  8
0
  6
CONTINUOUS
100
AcDbLine
 10
1.420999999998571
 20
5.372316998309444
 30
0.0
 11
-0.0000000000000001
 21
6.793316998308015
 31
0.0
  0
LINE
  5
B73F
330
B724
100
AcDbEntity
  8
0
  6
CONTINUOUS
100
AcDbLine
 10
1.420999999998572
 20
6.045836207389629
 30
0.0
 11
-0.0000000000000004
 21
7.466836207388202
 31
0.0
  0
LINE
  5
B740
330
B724
100
AcDbEntity
  8
0
  6
CONTINUOUS
100
AcDbLine
 10
1.420999999998571
 20
6.719355416469816
 30
0.0
 11
0.0
 21
8.140355416468388
 31
0.0
  0
LINE
  5
B741
330
B724
100
AcDbEntity
  8
0
  6
CONTINUOUS
100
AcDbLine
 10
1.420999999998571
 20
7.392874625550003
 30
0.0
 11
0.0507746255573185
 21
8.763099999991255
 31
0.0
  0
LINE
  5
B742
330
B724
100
AcDbEntity
  8
0
  6
CONTINUOUS
100
AcDbLine
 10
1.420999999998571
 20
8.06639383463019
 30
0.0
 11
0.7242938346375052
 21
8.763099999991255
 31
0.0
  0
LINE
  5
B743
330
B724
100
AcDbEntity
  8
0
  6
CONTINUOUS
100
AcDbLine
 10
1.420999999998571
 20
8.739913043710375
 30
0.0
 11
1.397813043717691
 21
8.763099999991255
 31
0.0
  0
ENDBLK
  5
B74F
330
B724
100
AcDbEntity
  8
0
100
AcDbBlockEnd
  0
ENDSEC
  0
SECTION
  2
ENTITIES
  0
LINE
  5
B2D3
330
18
100
AcDbEntity
  8
01
  6
BYBLOCK
100
AcDbLine
 10
6640.240558594285
 20
245.004926550072
 30
0.0000000001127424
 11
6793.994938749316
 21
245.004926550072
 31
0.0000000001127424
  0
LINE
  5
B2D6
330
18
100
AcDbEntity
  8
01
100
AcDbLine
 10
6541.239790751968
 20
205.0062448631752
 30
0.0000000001127424
 11
6541.239790751968
 21
15.0062448631752
 31
0.0000000001127424
  0
LINE
  5
B2D7
330
18
100
AcDbEntity
  8
01
100
AcDbLine
 10
6661.239790751968
 20
85.0062448631752
 30
0.0000000001127424
 11
6721.239790751968
 21
85.0062448631752
 31
0.0000000001127424
  0
LINE
  5
B2D8
330
18
100
AcDbEntity
  8
01
100
AcDbLine
 10
6691.239790751968
 20
115.0062448631752
 30
0.0000000001127424
 11
6691.239790751968
 21
55.0062448631752
 31
0.0000000001127424
  0
TEXT
  5
B2D9
330
18
100
AcDbEntity
  8
1TEXT
100
AcDbText
 10
6541.239790751968
 20
245.004926550072
 30
0.0000000001127424
 40
10.0
  1
GKB
 41
1.0171875
100
AcDbText
  0
LINE
  5
B2DB
330
18
100
AcDbEntity
  8
01
100
AcDbLine
 10
6541.239790751968
 20
110.0062448631752
 30
0.0000000001127424
 11
6541.239790751968
 21
60.0062448631752
 31
0.0000000001127424
  0
LINE
  5
B2DC
330
18
100
AcDbEntity
  8
01
100
AcDbLine
 10
6539.111505369538
 20
85.0062448631752
 30
0.0000000001127424
 11
6561.739790751968
 21
85.0062448631752
 31
0.0000000001127424
  0
LINE
  5
B2DD
330
18
100
AcDbEntity
  8
01
100
AcDbLine
 10
6666.239790751968
 20
245.004926550072
 30
0.0000000001127424
 11
6716.239790751968
 21
245.004926550072
 31
0.0000000001127424
  0
LINE
  5
B2DE
330
18
100
AcDbEntity
  8
01
100
AcDbLine
 10
6691.239790751968
 20
250.004926550072
 30
0.0000000001127424
 11
6691.239790751968
 21
223.504926550072
 31
0.0000000001127424
  0
LINE
  5
B2DF
330
18
100
AcDbEntity
  8
1CENTER
100
AcDbLine
 10
6555.739790751968
 20
70.0062448631752
 30
0.0000000001127424
 11
6555.739790751968
 21
78.0062448631752
 31
0.0000000001127424
  0
ARC
  5
B2E0
330
18
100
AcDbEntity
  8
01
100
AcDbCircle
 10
6691.239790751977
 20
85.00624486317156
 30
0.0000000001127424
 40
28.5
100
AcDbArc
 50
270.0
 51
339.8793779014023
  0
ARC
  5
B2E1
330
18
100
AcDbEntity
  8
01
100
AcDbCircle
 10
6691.239790751977
 20
85.00624486317156
 30
0.0000000001127424
 40
28.5
100
AcDbArc
 50
11.42847619109884
 51
269.94048090576
  0
ARC
  5
B2E2
330
18
100
AcDbEntity
  8
01
100
AcDbCircle
 10
6691.239790751977
 20
85.00624486317156
 30
0.0000000001127424
 40
25.50000000000034
100
AcDbArc
 50
14.06450015435328
 51
335.3352124088779
  0
ARC
  5
B2E3
330
18
100
AcDbEntity
  8
01
100
AcDbCircle
 10
6691.239790751977
 20
85.00624486317156
 30
0.0000000001127424
 40
25.00000000000034
100
AcDbArc
 50
14.61555201686857
 51
334.4607180061967
  0
ARC
  5
B2E4
330
18
100
AcDbEntity
  8
01
100
AcDbCircle
 10
5049.739790751968
 20
85.0062448631752
 30
0.0000000001127424
 40
1500.0
100
AcDbArc
 50
359.0547130097181
 51
359.7937347482181
  0
SPLINE
  5
B2E5
330
18
100
AcDbEntity
  8
01
100
AcDbSpline
210
0.0
220
0.0
230
1.0
 70
     8
 71
     3
 72
    46
 73
    42
 74
     0
 42
0.0000000001
 43
0.0000000001
 40
0.0
 40
0.0
 40
0.0
 40
0.0
 40
0.0624999999999994
 40
0.0624999999999994
 40
0.0937499999999992
 40
0.0937499999999992
 40
0.1249999999999991
 40
0.1249999999999991
 40
0.187499999999999
 40
0.187499999999999
 40
0.2499999999999989
 40
0.2499999999999989
 40
0.3124999999999987
 40
0.3124999999999987
 40
0.3437499999999987
 40
0.3437499999999987
 40
0.3749999999999987
 40
0.3749999999999987
 40
0.4374999999999988
 40
0.4374999999999988
 40
0.4999999999999988
 40
0.4999999999999988
 40
0.5624999999999988
 40
0.5624999999999988
 40
0.6249999999999989
 40
0.6249999999999989
 40
0.6562499999999989
 40
0.6562499999999989
 40
0.6874999999999989
 40
0.6874999999999989
 40
0.7499999999999993
 40
0.7499999999999993
 40
0.8124999999999997
 40
0.8124999999999997
 40
0.8437499999999999
 40
0.8437499999999999
 40
0.875
 40
0.875
 40
0.9375
 40
0.9375
 40
1.0
 40
1.0
 40
1.0
 40
1.0
 10
6549.685986453667
 20
90.40624486317483
 30
0.0000000001127424
 10
6549.683251581333
 20
90.40624486317483
 30
0.0000000001127424
 10
6549.680562386186
 20
90.37124721777309
 30
0.0000000001127424
 10
6549.676594309345
 20
90.26840002598146
 30
0.0000000001127424
 10
6549.675282651147
 20
90.22566345647556
 30
0.0000000001127424
 10
6549.672681906737
 20
90.12289614189376
 30
0.0000000001127424
 10
6549.671389290019
 20
90.06257525767705
 30
0.0000000001127424
 10
6549.667629196505
 20
89.85933301425666
 30
0.0000000001127424
 10
6549.665251343935
 20
89.69350203143676
 30
0.0000000001127424
 10
6549.660751085852
 20
89.30171135707042
 30
0.0000000001127424
 10
6549.658620292485
 20
89.07366390373954
 30
0.0000000001127424
 10
6549.654800955268
 20
88.57550777689448
 30
0.0000000001127424
 10
6549.653087079954
 20
88.30369439973947
 30
0.0000000001127424
 10
6549.650816960597
 20
87.86105847449016
 30
0.0000000001127424
 10
6549.650112090842
 20
87.70769045459656
 30
0.0000000001127424
 10
6549.648834595346
 20
87.39597377198697
 30
0.0000000001127424
 10
6549.648257533114
 20
87.23680795737346
 30
0.0000000001127424
 10
6549.646708599541
 20
86.74953844149331
 30
0.0000000001127424
 10
6549.645913729079
 20
86.40935087270373
 30
0.0000000001127424
 10
6549.644849587199
 20
85.71237031469354
 30
0.0000000001127424
 10
6549.6445862333
 20
85.3620330599606
 30
0.0000000001127424
 10
6549.644582580087
 20
84.65776343949437
 30
0.0000000001127424
 10
6549.644850769349
 20
84.30009636250452
 30
0.0000000001127424
 10
6549.645905854641
 20
83.6075498931259
 30
0.0000000001127424
 10
6549.646686722712
 20
83.27094700628004
 30
0.0000000001127424
 10
6549.648240089506
 20
82.7806275352832
 30
0.0000000001127424
 10
6549.648825856504
 20
82.61878145233914
 30
0.0000000001127424
 10
6549.650107091733
 20
82.3058873373302
 30
0.0000000001127424
 10
6549.650802491611
 20
82.15456394698867
 30
0.0000000001127424
 10
6549.653049082703
 20
81.7155949099506
 30
0.0000000001127424
 10
6549.654759100536
 20
81.44280403753146
 30
0.0000000001127424
 10
6549.658620218797
 20
80.93847637706949
 30
0.0000000001127424
 10
6549.660715296081
 20
80.71445117532676
 30
0.0000000001127424
 10
6549.664076848036
 20
80.42096863795996
 30
0.0000000001127424
 10
6549.665235087339
 20
80.33016082167433
 30
0.0000000001127424
 10
6549.667628591513
 20
80.16287899102554
 30
0.0000000001127424
 10
6549.668869416846
 20
80.0861823629375
 30
0.0000000001127424
 10
6549.672631662888
 20
79.8826369225144
 30
0.0000000001127424
 10
6549.675211919212
 20
79.78039919539424
 30
0.0000000001127424
 10
6549.680514811051
 20
79.64200538950172
 30
0.0000000001127424
 10
6549.6832515694
 20
79.60624486317465
 30
0.0000000001127424
 10
6549.685986453667
 20
79.60624486317465
 30
0.0000000001127424
  0
ARC
  5
B2E6
330
18
100
AcDbEntity
  8
01
100
AcDbCircle
 10
5049.739790751968
 20
85.0062448631752
 30
0.0000000001127424
 40
1500.0
100
AcDbArc
 50
0.2062652517819285
 51
0.9452869902818962
  0
ARC
  5
B2E7
330
18
100
AcDbEntity
  8
01
100
AcDbCircle
 10
6549.235689042798
 20
109.7477284277084
 30
0.0000000001127424
 40
0.3000000000000317
100
AcDbArc
 50
0.9452869913239584
 51
81.36283119001901
  0
ARC
  5
B2E8
330
18
100
AcDbEntity
  8
01
100
AcDbCircle
 10
6549.235689042798
 20
60.26476129864113
 30
0.0000000001127424
 40
0.3000000000000037
100
AcDbArc
 50
278.637168809981
 51
359.054713008676
  0
LINE
  5
B2E9
330
18
100
AcDbEntity
  8
01
100
AcDbLine
 10
6547.654212048117
 20
110.2913951142536
 30
0.0000000001127424
 11
6549.280742063631
 21
110.0443261777236
 31
0.0000000001127424
  0
LINE
  5
B2EA
330
18
100
AcDbEntity
  8
01
100
AcDbLine
 10
6549.280742063631
 20
59.96816354862676
 30
0.0000000001127424
 11
6547.654212048117
 21
59.72109461209584
 31
0.0000000001127424
  0
ARC
  5
B2EB
330
18
100
AcDbEntity
  8
01
100
AcDbCircle
 10
6548.029653888389
 20
57.24944669530578
 30
0.0000000001127424
 40
2.500000000000002
100
AcDbArc
 50
98.63716880998098
 51
158.1985905136385
  0
ARC
  5
B2EC
330
18
100
AcDbEntity
  8
01
100
AcDbCircle
 10
6548.029653888389
 20
112.7630430310446
 30
0.0000000001127424
 40
2.500000000000016
100
AcDbArc
 50
201.8014094863615
 51
261.362831190019
  0
LINE
  5
B2ED
330
18
100
AcDbEntity
  8
01
100
AcDbLine
 10
6545.115223870805
 20
113.3176620660815
 30
0.0000000001127424
 11
6545.708462161176
 21
111.8345663401587
 31
0.0000000001127424
  0
LINE
  5
B2EE
330
18
100
AcDbEntity
  8
01
100
AcDbLine
 10
6545.708462161176
 20
58.17792338619074
 30
0.0000000001127424
 11
6545.115223870805
 21
56.69482766026886
 31
0.0000000001127424
  0
ARC
  5
B2EF
330
18
100
AcDbEntity
  8
01
100
AcDbCircle
 10
6544.83668086354
 20
113.206244863175
 30
0.0000000001127424
 40
0.3000000000000114
100
AcDbArc
 50
21.80140948636149
 51
90.0
  0
ARC
  5
B2F0
330
18
100
AcDbEntity
  8
01
100
AcDbCircle
 10
6544.83668086354
 20
56.80624486317538
 30
0.0000000001127424
 40
0.2999999999999972
100
AcDbArc
 50
270.0
 51
338.1985905136385
  0
LINE
  5
B2F1
330
18
100
AcDbEntity
  8
01
100
AcDbLine
 10
6544.83668086354
 20
56.5062448631752
 30
0.0000000001127424
 11
6541.239790751968
 21
56.5062448631752
 31
0.0000000001127424
  0
LINE
  5
B2F2
330
18
100
AcDbEntity
  8
01
100
AcDbLine
 10
6541.239790751968
 20
113.5062448631752
 30
0.0000000001127424
 11
6544.83668086354
 21
113.5062448631752
 31
0.0000000001127424
  0
LINE
  5
B2F3
330
18
100
AcDbEntity
  8
01
100
AcDbLine
 10
6541.239790751968
 20
56.5062448631752
 30
0.0000000001127424
 11
6541.239790751968
 21
113.5062448631752
 31
0.0000000001127424
  0
LINE
  5
B2F4
330
18
100
AcDbEntity
  8
01
100
AcDbLine
 10
6545.039790751969
 20
112.9216324308427
 30
0.0000000001127424
 11
6545.039790751969
 21
57.38005167751635
 31
0.0000000001127424
  0
LINE
  5
B2F5
330
18
100
AcDbEntity
  8
01
100
AcDbLine
 10
6666.239790751968
 20
245.004926550072
 30
0.0000000001127424
 11
6716.239790751968
 21
245.004926550072
 31
0.0000000001127424
  0
ARC
  5
B2F6
330
18
100
AcDbEntity
  8
01
100
AcDbCircle
 10
6691.239790751968
 20
1736.504926550072
 30
0.0000000001127424
 40
1500.0
100
AcDbArc
 50
270.206265251782
 51
270.9452869902294
  0
SPLINE
  5
B2F7
330
18
100
AcDbEntity
  8
01
100
AcDbSpline
210
0.0
220
0.0
230
1.0
 70
     8
 71
     3
 72
    46
 73
    42
 74
     0
 42
0.0000000001
 43
0.0000000001
 40
0.0
 40
0.0
 40
0.0
 40
0.0
 40
0.0624999999999994
 40
0.0624999999999994
 40
0.0937499999999992
 40
0.0937499999999992
 40
0.1249999999999991
 40
0.1249999999999991
 40
0.187499999999999
 40
0.187499999999999
 40
0.2499999999999989
 40
0.2499999999999989
 40
0.3124999999999987
 40
0.3124999999999987
 40
0.3437499999999987
 40
0.3437499999999987
 40
0.3749999999999987
 40
0.3749999999999987
 40
0.4374999999999988
 40
0.4374999999999988
 40
0.4999999999999988
 40
0.4999999999999988
 40
0.5624999999999988
 40
0.5624999999999988
 40
0.6249999999999989
 40
0.6249999999999989
 40
0.6562499999999989
 40
0.6562499999999989
 40
0.6874999999999989
 40
0.6874999999999989
 40
0.7499999999999993
 40
0.7499999999999993
 40
0.8124999999999997
 40
0.8124999999999997
 40
0.8437499999999999
 40
0.8437499999999999
 40
0.875
 40
0.875
 40
0.9375
 40
0.9375
 40
1.0
 40
1.0
 40
1.0
 40
1.0
 10
6685.839790751968
 20
236.5587308483728
 30
0.0000000001127424
 10
6685.839790751968
 20
236.561465720707
 30
0.0000000001127424
 10
6685.87478839737
 20
236.5641549158545
 30
0.0000000001127424
 10
6685.977635589163
 20
236.568122992694
 30
0.0000000001127424
 10
6686.020372158668
 20
236.5694346508935
 30
0.0000000001127424
 10
6686.123139473249
 20
236.572035395302
 30
0.0000000001127424
 10
6686.183460357466
 20
236.5733280120203
 30
0.0000000001127424
 10
6686.386702600887
 20
236.5770881055341
 30
0.0000000001127424
 10
6686.552533583706
 20
236.5794659581052
 30
0.0000000001127424
 10
6686.944324258073
 20
236.583966216187
 30
0.0000000001127424
 10
6687.172371711404
 20
236.5860970095546
 30
0.0000000001127424
 10
6687.670527838249
 20
236.5899163467711
 30
0.0000000001127424
 10
6687.942341215403
 20
236.5916302220867
 30
0.0000000001127424
 10
6688.384977140653
 20
236.5939003414433
 30
0.0000000001127424
 10
6688.538345160547
 20
236.5946052111985
 30
0.0000000001127424
 10
6688.850061843157
 20
236.5958827066943
 30
0.0000000001127424
 10
6689.009227657771
 20
236.5964597689272
 30
0.0000000001127424
 10
6689.49649717365
 20
236.5980087024991
 30
0.0000000001127424
 10
6689.83668474244
 20
236.5988035729615
 30
0.0000000001127424
 10
6690.533665300449
 20
236.59986771484
 30
0.0000000001127424
 10
6690.884002555184
 20
236.6001310687398
 30
0.0000000001127424
 10
6691.58827217565
 20
236.6001347219535
 30
0.0000000001127424
 10
6691.945939252639
 20
236.5998665326906
 30
0.0000000001127424
 10
6692.638485722018
 20
236.5988114473994
 30
0.0000000001127424
 10
6692.975088608862
 20
236.5980305793282
 30
0.0000000001127424
 10
6693.465408079861
 20
236.5964772125344
 30
0.0000000001127424
 10
6693.627254162804
 20
236.5958914455368
 30
0.0000000001127424
 10
6693.940148277812
 20
236.5946102103071
 30
0.0000000001127424
 10
6694.091471668155
 20
236.5939148104299
 30
0.0000000001127424
 10
6694.530440705192
 20
236.5916682193374
 30
0.0000000001127424
 10
6694.803231577611
 20
236.5899582015045
 30
0.0000000001127424
 10
6695.307559238074
 20
236.5860970832418
 30
0.0000000001127424
 10
6695.531584439817
 20
236.5840020059595
 30
0.0000000001127424
 10
6695.825066977184
 20
236.5806404540044
 30
0.0000000001127424
 10
6695.915874793469
 20
236.5794822147009
 30
0.0000000001127424
 10
6696.083156624118
 20
236.5770887105282
 30
0.0000000001127424
 10
6696.159853252206
 20
236.575847885194
 30
0.0000000001127424
 10
6696.363398692629
 20
236.5720856391526
 30
0.0000000001127424
 10
6696.465636419749
 20
236.5695053828285
 30
0.0000000001127424
 10
6696.604030225641
 20
236.5642024909894
 30
0.0000000001127424
 10
6696.639790751968
 20
236.5614657326405
 30
0.0000000001127424
 10
6696.639790751968
 20
236.5587308483728
 30
0.0000000001127424
  0
ARC
  5
B2F8
330
18
100
AcDbEntity
  8
01
100
AcDbCircle
 10
6691.239790751968
 20
1736.504926550072
 30
0.0000000001127424
 40
1500.0
100
AcDbArc
 50
269.0547130096664
 51
269.793734748218
  0
ARC
  5
B2F9
330
18
100
AcDbEntity
  8
01
100
AcDbCircle
 10
6666.498307187434
 20
237.0090282592409
 30
0.0000000001127424
 40
0.3000000000000317
100
AcDbArc
 50
188.637168809981
 51
269.0547130086239
  0
ARC
  5
B2FA
330
18
100
AcDbEntity
  8
01
100
AcDbCircle
 10
6715.981274316502
 20
237.0090282592409
 30
0.0000000001127424
 40
0.3000000000000037
100
AcDbArc
 50
270.9452869912719
 51
351.362831190019
  0
LINE
  5
B2FB
330
18
100
AcDbEntity
  8
01
100
AcDbLine
 10
6665.95464050089
 20
238.5905052539229
 30
0.0000000001127424
 11
6666.201709437421
 21
236.9639752384091
 31
0.0000000001127424
  0
LINE
  5
B2FC
330
18
100
AcDbEntity
  8
01
100
AcDbLine
 10
6716.277872066516
 20
236.9639752384091
 30
0.0000000001127424
 11
6716.524941003048
 21
238.5905052539229
 31
0.0000000001127424
  0
ARC
  5
B2FD
330
18
100
AcDbEntity
  8
01
100
AcDbCircle
 10
6718.996588919837
 20
238.2150634136524
 30
0.0000000001127424
 40
2.500000000000002
100
AcDbArc
 50
111.8014094863034
 51
171.362831190019
  0
ARC
  5
B2FE
330
18
100
AcDbEntity
  8
01
100
AcDbCircle
 10
6663.482992584099
 20
238.2150634136524
 30
0.0000000001127424
 40
2.500000000000016
100
AcDbArc
 50
8.637168809981
 51
68.19859051369657
  0
LINE
  5
B2FF
330
18
100
AcDbEntity
  8
01
100
AcDbLine
 10
6662.928373549061
 20
241.1294934312346
 30
0.0000000001127424
 11
6664.411469274984
 21
240.5362551408653
 31
0.0000000001127424
  0
LINE
  5
B300
330
18
100
AcDbEntity
  8
01
100
AcDbLine
 10
6718.068112228953
 20
240.5362551408653
 30
0.0000000001127424
 11
6719.551207954875
 21
241.1294934312346
 31
0.0000000001127424
  0
ARC
  5
B301
330
18
100
AcDbEntity
  8
01
100
AcDbCircle
 10
6663.039790751969
 20
241.4080364384999
 30
0.0000000001127424
 40
0.3000000000000114
100
AcDbArc
 50
180.0
 51
248.1985905136966
  0
ARC
  5
B302
330
18
100
AcDbEntity
  8
01
100
AcDbCircle
 10
6719.439790751967
 20
241.4080364384999
 30
0.0000000001127424
 40
0.2999999999999972
100
AcDbArc
 50
291.8014094863034
 51
0.0
  0
LINE
  5
B303
330
18
100
AcDbEntity
  8
01
100
AcDbLine
 10
6719.739790751968
 20
241.4080364384999
 30
0.0000000001127424
 11
6719.739790751968
 21
245.004926550072
 31
0.0000000001127424
  0
LINE
  5
B304
330
18
100
AcDbEntity
  8
01
100
AcDbLine
 10
6662.739790751968
 20
245.004926550072
 30
0.0000000001127424
 11
6662.739790751968
 21
241.4080364384999
 31
0.0000000001127424
  0
LINE
  5
B305
330
18
100
AcDbEntity
  8
01
100
AcDbLine
 10
6719.739790751968
 20
245.004926550072
 30
0.0000000001127424
 11
6662.739790751968
 21
245.004926550072
 31
0.0000000001127424
  0
LINE
  5
B306
330
18
100
AcDbEntity
  8
01
100
AcDbLine
 10
6663.324403184301
 20
241.2049265500718
 30
0.0000000001127424
 11
6718.865983937627
 21
241.2049265500718
 31
0.0000000001127424
  0
SPLINE
  5
B308
330
18
100
AcDbEntity
  8
01
100
AcDbSpline
210
0.0
220
0.0
230
1.0
 70
     8
 71
     3
 72
    13
 73
     9
 74
     0
 42
0.0000000001
 43
0.0000000001
 40
0.0
 40
0.0
 40
0.0
 40
0.0
 40
0.2825823225386555
 40
0.5730913835741768
 40
1.137324503636949
 40
1.701409959843073
 40
1.98209608213223
 40
2.270571951263659
 40
2.270571951263659
 40
2.270571951263659
 40
2.270571951263659
 10
6594.233014537238
 20
71.11631154638417
 30
0.0000000001127424
 10
6594.327166117209
 20
71.11551351474282
 30
0.0000000001127424
 10
6594.518432406863
 20
71.13219112643583
 30
0.0000000001127424
 10
6594.884742308286
 20
71.23572362478353
 30
0.0000000001127424
 10
6595.293078372415
 20
71.4910461373247
 30
0.0000000001127424
 10
6595.576688603149
 20
71.87562010850252
 30
0.0000000001127424
 10
6595.708035460939
 20
72.23175531497964
 30
0.0000000001127424
 10
6595.738769711579
 20
72.41973750997386
 30
0.0000000001127424
 10
6595.747122878562
 20
72.51551207471766
 30
0.0000000001127424
  0
SPLINE
  5
B309
330
18
100
AcDbEntity
  8
01
100
AcDbSpline
210
0.0
220
0.0
230
1.0
 70
     8
 71
     3
 72
    13
 73
     9
 74
     0
 42
0.0000000001
 43
0.0000000001
 40
0.0
 40
0.0
 40
0.0
 40
0.0
 40
1.514270518485179
 40
2.784188582370669
 40
4.072647443195531
 40
5.470743173067762
 40
8.271328420499865
 40
10.43032980000946
 40
10.43032980000946
 40
10.43032980000946
 40
10.43032980000946
 10
6600.641339695829
 20
85.00624486277138
 30
0.0000000001127424
 10
6600.858305945334
 20
85.43736135927793
 30
0.0000000001127424
 10
6601.157740194645
 20
86.31580033228147
 30
0.0000000001127424
 10
6601.578036861607
 20
87.60669959053303
 30
0.0000000001127424
 10
6601.965236986347
 20
88.86744522579374
 30
0.0000000001127424
 10
6602.480246549132
 20
90.62249674496707
 30
0.0000000001127424
 10
6603.053617350412
 20
92.66282201780723
 30
0.0000000001127424
 10
6603.44687542535
 20
94.26895812478415
 30
0.0000000001127424
 10
6603.635470578851
 20
95.15871472632534
 30
0.0000000001127424
  0
SPLINE
  5
B30A
330
18
100
AcDbEntity
  8
01
100
AcDbSpline
210
0.0
220
0.0
230
1.0
 70
     8
 71
     3
 72
    13
 73
     9
 74
     0
 42
0.0000000001
 43
0.0000000001
 40
0.0
 40
0.0
 40
0.0
 40
0.0
 40
0.3553239003413249
 40
0.6823766033696608
 40
1.327954058914766
 40
2.089040341337766
 40
3.046744214799989
 40
3.16933261953159
 40
3.16933261953159
 40
3.16933261953159
 40
3.16933261953159
 10
6603.635470578851
 20
95.15871472632534
 30
0.0000000001127424
 10
6603.664604353837
 20
95.27351856344922
 30
0.0000000001127424
 10
6603.720883595921
 20
95.49389981361128
 30
0.0000000001127424
 10
6603.831589463161
 20
95.92249555305443
 30
0.0000000001127424
 10
6603.979812705489
 20
96.48105349617344
 30
0.0000000001127424
 10
6604.186182074169
 20
97.24172095493759
 30
0.0000000001127424
 10
6604.354167149741
 20
97.83204635551101
 30
0.0000000001127424
 10
6604.449951001692
 20
98.17920939579653
 30
0.0000000001127424
 10
6604.457139584259
 20
98.21949234129715
 30
0.0000000001127424
  0
SPLINE
  5
B30B
330
18
100
AcDbEntity
  8
01
100
AcDbSpline
210
0.0
220
0.0
230
1.0
 70
    12
 71
     2
 72
     6
 73
     3
 74
     0
 42
0.0000000001
 43
0.0000000001
 40
0.0
 40
0.0
 40
0.0
 40
0.2815991903304812
 40
0.2815991903304812
 40
0.2815991903304812
 10
6604.457139605329
 20
98.21949245342239
 30
0.0000000001127424
 41
1.0
 10
6604.483254929159
 20
98.35875681992457
 30
0.0000000001127424
 41
0.9905812239377643
 10
6604.47061226521
 20
98.49988348985062
 30
0.0000000001127424
 41
1.0
  0
SPLINE
  5
B30C
330
18
100
AcDbEntity
  8
01
100
AcDbSpline
210
0.0
220
0.0
230
1.0
 70
     8
 71
     3
 72
    11
 73
     7
 74
     0
 42
0.0000000001
 43
0.0000000001
 40
0.0
 40
0.0
 40
0.0
 40
0.0
 40
0.3585939345208991
 40
0.7128735432054626
 40
1.417610612397259
 40
2.835565773342772
 40
2.835565773342772
 40
2.835565773342772
 40
2.835565773342772
 10
6585.861868487111
 20
72.35145478683808
 30
0.0000000001127424
 10
6585.922340004749
 20
72.24841270939669
 30
0.0000000001127424
 10
6586.056374180172
 20
72.05131177777002
 30
0.0000000001127424
 10
6586.375145647631
 20
71.70126301479468
 30
0.0000000001127424
 10
6587.053507442881
 20
71.21529812731478
 30
0.0000000001127424
 10
6587.775551642086
 20
71.07218818961883
 30
0.0000000001127424
 10
6588.246470303871
 20
71.11630072384378
 30
0.0000000001127424
  0
SPLINE
  5
B30D
330
18
100
AcDbEntity
  8
01
100
AcDbSpline
210
0.0
220
0.0
230
1.0
 70
    12
 71
     2
 72
     6
 73
     3
 74
     0
 42
0.0000000001
 43
0.0000000001
 40
0.0
 40
0.0
 40
0.0
 40
2.435982564742631
 40
2.435982564742631
 40
2.435982564742631
 10
6578.693522400774
 20
93.70159393577796
 30
0.0000000001127424
 41
1.0
 10
6578.968189687335
 20
92.5149189978365
 30
0.0000000001127424
 41
0.9999308644252065
 10
6579.214875505797
 20
91.32211321581872
 30
0.0000000001127424
 41
1.0
  0
SPLINE
  5
B30E
330
18
100
AcDbEntity
  8
01
100
AcDbSpline
210
0.0
220
0.0
230
1.0
 70
    12
 71
     2
 72
     6
 73
     3
 74
     0
 42
0.0000000001
 43
0.0000000001
 40
0.0
 40
0.0
 40
0.0
 40
0.3278715859501683
 40
0.3278715859501683
 40
0.3278715859501683
 10
6578.618596962951
 20
94.02078932519271
 30
0.0000000001127424
 41
1.0
 10
6578.65680078818
 20
93.8613659944549
 30
0.0000000001127424
 41
0.9999892161061419
 10
6578.693522225432
 20
93.70159469949886
 30
0.0000000001127424
 41
1.0
  0
SPLINE
  5
B30F
330
18
100
AcDbEntity
  8
01
100
AcDbSpline
210
0.0
220
0.0
230
1.0
 70
    12
 71
     2
 72
     6
 73
     3
 74
     0
 42
0.0000000001
 43
0.0000000001
 40
0.0
 40
0.0
 40
0.0
 40
0.342099304062881
 40
0.342099304062881
 40
0.342099304062881
 10
6578.540312079565
 20
94.35381128304743
 30
0.0000000001127424
 41
1.0
 10
6578.579089405681
 20
94.18721477591589
 30
0.0000000001127424
 41
0.999997596841958
 10
6578.618596826289
 20
94.02078989518577
 30
0.0000000001127424
 41
1.0
  0
SPLINE
  5
B310
330
18
100
AcDbEntity
  8
01
100
AcDbSpline
210
0.0
220
0.0
230
1.0
 70
     8
 71
     3
 72
    15
 73
    11
 74
     0
 42
0.0000000001
 43
0.0000000001
 40
0.0
 40
0.0
 40
0.0
 40
0.0
 40
0.2906003641965045
 40
0.5863208488843633
 40
1.175627888168057
 40
1.388704881296795
 40
1.693344582320466
 40
1.994096660461498
 40
3.324382755941857
 40
4.25889178916164
 40
4.25889178916164
 40
4.25889178916164
 40
4.25889178916164
 10
6578.008800941952
 20
98.4999347536077
 30
0.0000000001127424
 10
6577.966736066241
 20
98.41243130869134
 30
0.0000000001127424
 10
6577.896750044358
 20
98.22984710001856
 30
0.0000000001127424
 10
6577.807698316145
 20
97.84672887669603
 30
0.0000000001127424
 10
6577.806907950315
 20
97.47708859246904
 30
0.0000000001127424
 10
6577.871459415765
 20
97.11358732852841
 30
0.0000000001127424
 10
6577.932625930689
 20
96.8476614530191
 30
0.0000000001127424
 10
6578.085895791846
 20
96.22091954746429
 30
0.0000000001127424
 10
6578.293122688026
 20
95.39120587480193
 30
0.0000000001127424
 10
6578.46870954625
 20
94.6569735157882
 30
0.0000000001127424
 10
6578.540311999421
 20
94.35381162361955
 30
0.0000000001127424
  0
SPLINE
  5
B311
330
18
100
AcDbEntity
  8
01
100
AcDbSpline
210
0.0
220
0.0
230
1.0
 70
    12
 71
     2
 72
     6
 73
     3
 74
     0
 42
0.0000000001
 43
0.0000000001
 40
0.0
 40
0.0
 40
0.0
 40
1.773977164189089
 40
1.773977164189089
 40
1.773977164189089
 10
6580.905569705208
 20
105.6776094029556
 30
0.0000000001127424
 41
1.0
 10
6579.90830434105
 20
105.5386828281703
 30
0.0000000001127424
 41
0.8305802367546331
 10
6579.658136472281
 20
104.5633598882296
 30
0.0000000001127424
 41
1.0
  0
SPLINE
  5
B312
330
18
100
AcDbEntity
  8
01
100
AcDbSpline
210
0.0
220
0.0
230
1.0
 70
    12
 71
     2
 72
     6
 73
     3
 74
     0
 42
0.0000000001
 43
0.0000000001
 40
0.0
 40
0.0
 40
0.0
 40
1.778254593935464
 40
1.778254593935464
 40
1.778254593935464
 10
6602.821997988322
 20
104.5634817585405
 30
0.0000000001127424
 41
1.0
 10
6602.580714317108
 20
105.5490815354797
 30
0.0000000001127424
 41
0.8242949694575904
 10
6601.574185772142
 20
105.6776312086331
 30
0.0000000001127424
 41
1.0
  0
SPLINE
  5
B313
330
18
100
AcDbEntity
  8
01
100
AcDbSpline
210
0.0
220
0.0
230
1.0
 70
    12
 71
     2
 72
     6
 73
     3
 74
     0
 42
0.0000000001
 43
0.0000000001
 40
0.0
 40
0.0
 40
0.0
 40
6.281138828429571
 40
6.281138828429571
 40
6.281138828429571
 10
6579.657670012948
 20
104.5615183721548
 30
0.0000000001127424
 41
1.0
 10
6578.842805946308
 20
101.5284940980919
 30
0.0000000001127424
 41
0.9999951753682695
 10
6578.009114592433
 20
98.5005907937184
 30
0.0000000001127424
 41
1.0
  0
SPLINE
  5
B314
330
18
100
AcDbEntity
  8
01
100
AcDbSpline
210
0.0
220
0.0
230
1.0
 70
     8
 71
     3
 72
    11
 73
     7
 74
     0
 42
0.0000000001
 43
0.0000000001
 40
0.0
 40
0.0
 40
0.0
 40
0.0
 40
2.596882953153894
 40
5.146552609739903
 40
10.35533439937081
 40
20.747286850574
 40
20.747286850574
 40
20.747286850574
 40
20.747286850574
 10
6601.573870754095
 20
105.6775630010698
 30
0.0000000001127424
 10
6600.718074136343
 20
105.8074074269771
 30
0.0000000001127424
 10
6599.017296474109
 20
106.0347710846809
 30
0.0000000001127424
 10
6595.580504985022
 20
106.361314335586
 30
0.0000000001127424
 10
6589.530350398732
 20
106.5950256649494
 30
0.0000000001127424
 10
6584.330205813738
 20
106.1987852547782
 30
0.0000000001127424
 10
6580.905710144783
 20
105.6776250392359
 30
0.0000000001127424
  0
SPLINE
  5
B315
330
18
100
AcDbEntity
  8
01
100
AcDbSpline
210
0.0
220
0.0
230
1.0
 70
    12
 71
     2
 72
     6
 73
     3
 74
     0
 42
0.0000000001
 43
0.0000000001
 40
0.0
 40
0.0
 40
0.0
 40
6.281026795634914
 40
6.281026795634914
 40
6.281026795634914
 10
6604.470529316499
 20
98.50070013941968
 30
0.0000000001127424
 41
1.0
 10
6603.637068510589
 20
101.5286088276425
 30
0.0000000001127424
 41
0.9999951684528973
 10
6602.822448520488
 20
104.5616406789322
 30
0.0000000001127424
 41
1.0
  0
SPLINE
  5
B316
330
18
100
AcDbEntity
  8
01
100
AcDbSpline
210
0.0
220
0.0
230
1.0
 70
    24
 71
     2
 72
     6
 73
     3
 74
     0
 42
0.0000000001
 43
0.0000000001
 40
0.0
 40
0.0
 40
0.0
 40
5.98552478497507
 40
5.98552478497507
 40
5.98552478497507
 10
6588.247257736992
 20
71.11630928770865
 30
0.0000000001127424
 10
6591.24002012948
 20
71.11630928770865
 30
0.0000000001127424
 10
6594.232782521967
 20
71.11630928770956
 30
0.0000000001127424
  0
SPLINE
  5
B317
330
18
100
AcDbEntity
  8
01
100
AcDbSpline
210
0.0
220
0.0
230
1.0
 70
     8
 71
     3
 72
    12
 73
     8
 74
     0
 42
0.0000000001
 43
0.0000000001
 40
0.0
 40
0.0
 40
0.0
 40
0.0
 40
1.116075836210166
 40
2.186735755447307
 40
4.342493710456409
 40
6.582163727723639
 40
8.856624156227353
 40
8.856624156227353
 40
8.856624156227353
 40
8.856624156227353
 10
6580.348719978279
 20
86.21441800083994
 30
0.0000000001127424
 10
6580.421776716987
 20
85.84963453665841
 30
0.0000000001127424
 10
6580.573352922613
 20
85.13660620435076
 30
0.0000000001127424
 10
6580.909842446405
 20
83.72863039784625
 30
0.0000000001127424
 10
6581.403241596227
 20
81.9740381805741
 30
0.0000000001127424
 10
6582.113283587822
 20
79.86646585875224
 30
0.0000000001127424
 10
6582.660818906712
 20
78.46447073028594
 30
0.0000000001127424
 10
6582.953872150723
 20
77.76523505829118
 30
0.0000000001127424
  0
SPLINE
  5
B318
330
18
100
AcDbEntity
  8
01
100
AcDbSpline
210
0.0
220
0.0
230
1.0
 70
     8
 71
     3
 72
    11
 73
     7
 74
     0
 42
0.0000000001
 43
0.0000000001
 40
0.0
 40
0.0
 40
0.0
 40
0.0
 40
0.8085614233478281
 40
1.605037686117279
 40
3.105911159160854
 40
6.148313745279906
 40
6.148313745279906
 40
6.148313745279906
 40
6.148313745279906
 10
6582.953873356135
 20
77.76523218441525
 30
0.0000000001127424
 10
6583.057984474926
 20
77.51662400097212
 30
0.0000000001127424
 10
6583.270484970997
 20
77.02560843583433
 30
0.0000000001127424
 10
6583.70114508257
 20
76.08404145180339
 30
0.0000000001127424
 10
6584.502225695142
 20
74.49393754009816
 30
0.0000000001127424
 10
6585.288787128562
 20
73.19733806134082
 30
0.0000000001127424
 10
6585.857451027658
 20
72.35771463714536
 30
0.0000000001127424
  0
SPLINE
  5
B319
330
18
100
AcDbEntity
  8
01
100
AcDbSpline
210
0.0
220
0.0
230
1.0
 70
    12
 71
     2
 72
     6
 73
     3
 74
     0
 42
0.0000000001
 43
0.0000000001
 40
0.0
 40
0.0
 40
0.0
 40
0.5010152233938245
 40
0.5010152233938245
 40
0.5010152233938245
 10
6583.458252141407
 20
75.75569372371956
 30
0.0000000001127424
 41
1.0
 10
6583.707203292828
 20
75.71770596812257
 30
0.0000000001127424
 41
0.9921255574932897
 10
6583.938903117294
 20
75.61904018524547
 30
0.0000000001127424
 41
1.0
  0
SPLINE
  5
B31A
330
18
100
AcDbEntity
  8
01
100
AcDbSpline
210
0.0
220
0.0
230
1.0
 70
    12
 71
     2
 72
     6
 73
     3
 74
     0
 42
0.0000000001
 43
0.0000000001
 40
0.0
 40
0.0
 40
0.0
 40
0.8260481403283874
 40
0.8260481403283874
 40
0.8260481403283874
 10
6552.619714854505
 20
98.33833468082685
 30
0.0000000001127424
 41
1.0
 10
6552.235951354123
 20
98.50651481006389
 30
0.0000000001127424
 41
0.9787515181143928
 10
6551.816953764515
 20
98.50651528737308
 30
0.0000000001127424
 41
1.0
  0
SPLINE
  5
B31B
330
18
100
AcDbEntity
  8
01
100
AcDbSpline
210
0.0
220
0.0
230
1.0
 70
    12
 71
     2
 72
     6
 73
     3
 74
     0
 42
0.0000000001
 43
0.0000000001
 40
0.0
 40
0.0
 40
0.0
 40
0.826047236556634
 40
0.826047236556634
 40
0.826047236556634
 10
6551.816953764521
 20
71.50623474100848
 30
0.0000000001127424
 41
1.0
 10
6552.235950654094
 20
71.50623531703332
 30
0.0000000001127424
 41
0.9787523598835237
 10
6552.619714854511
 20
71.67441210482593
 30
0.0000000001127424
 41
1.0
  0
SPLINE
  5
B31C
330
18
100
AcDbEntity
  8
01
100
AcDbSpline
210
0.0
220
0.0
230
1.0
 70
    12
 71
     2
 72
     6
 73
     3
 74
     0
 42
0.0000000001
 43
0.0000000001
 40
0.0
 40
0.0
 40
0.0
 40
26.71832081413334
 40
26.71832081413334
 40
26.71832081413334
 10
6578.683732865038
 20
93.74408431187385
 30
0.0000000001127424
 41
1.0
 10
6565.09320964439
 20
92.87184328657167
 30
0.0000000001127424
 41
0.9716801085392781
 10
6552.619868026259
 20
98.3380005011577
 30
0.0000000001127424
 41
1.0
  0
SPLINE
  5
B31D
330
18
100
AcDbEntity
  8
01
100
AcDbSpline
210
0.0
220
0.0
230
1.0
 70
    12
 71
     2
 72
     6
 73
     3
 74
     0
 42
0.0000000001
 43
0.0000000001
 40
0.0
 40
0.0
 40
0.0
 40
24.88396728360076
 40
24.88396728360076
 40
24.88396728360076
 10
6558.839911268245
 20
73.9716878506706
 30
0.0000000001127424
 41
1.0
 10
6570.945923990781
 20
77.64429591308044
 30
0.0000000001127424
 41
0.9754197708359782
 10
6583.455060796416
 20
75.75615121625924
 30
0.0000000001127424
 41
1.0
  0
SPLINE
  5
B31E
330
18
100
AcDbEntity
  8
01
100
AcDbSpline
210
0.0
220
0.0
230
1.0
 70
    12
 71
     2
 72
     6
 73
     3
 74
     0
 42
0.0000000001
 43
0.0000000001
 40
0.0
 40
0.0
 40
0.0
 40
0.021553835936788
 40
0.021553835936788
 40
0.021553835936788
 10
6552.619959535297
 20
71.6745293268441
 30
0.0000000001127424
 41
1.0
 10
6552.629830258049
 20
71.67885492462119
 30
0.0000000001127424
 41
0.9999999813807111
 10
6552.639702649512
 20
71.68317671251043
 30
0.0000000001127424
 41
1.0
  0
SPLINE
  5
B31F
330
18
100
AcDbEntity
  8
01
100
AcDbSpline
210
0.0
220
0.0
230
1.0
 70
    24
 71
     2
 72
     6
 73
     3
 74
     0
 42
0.0000000001
 43
0.0000000001
 40
0.0
 40
0.0
 40
0.0
 40
1.577163012553655
 40
1.577163012553655
 40
1.577163012553655
 10
6551.816953764523
 20
98.50624486317702
 30
0.0000000001127424
 10
6551.028372258244
 20
98.50624486317611
 30
0.0000000001127424
 10
6550.239790751968
 20
98.5062448631752
 30
0.0000000001127424
  0
SPLINE
  5
B320
330
18
100
AcDbEntity
  8
01
100
AcDbSpline
210
0.0
220
0.0
230
1.0
 70
    24
 71
     2
 72
     6
 73
     3
 74
     0
 42
0.0000000001
 43
0.0000000001
 40
0.0
 40
0.0
 40
0.0
 40
1.577163012553655
 40
1.577163012553655
 40
1.577163012553655
 10
6550.239790751968
 20
71.5062448631752
 30
0.0000000001127424
 10
6551.028372258244
 20
71.5062448631752
 30
0.0000000001127424
 10
6551.816953764523
 20
71.50624486317429
 30
0.0000000001127424
  0
SPLINE
  5
B321
330
18
100
AcDbEntity
  8
01
100
AcDbSpline
210
0.0
220
0.0
230
1.0
 70
    12
 71
     2
 72
     6
 73
     3
 74
     0
 42
0.0000000001
 43
0.0000000001
 40
0.0
 40
0.0
 40
0.0
 40
0.011907712513334
 40
0.011907712513334
 40
0.011907712513334
 10
6579.656999835584
 20
104.5536390710004
 30
0.0000000001127424
 41
1.0
 10
6579.658472211197
 20
104.5594080318961
 30
0.0000000001127424
 41
0.9999916337521431
 10
6579.659991733342
 20
104.5651647542445
 30
0.0000000001127424
 41
1.0
  0
SPLINE
  5
B322
330
18
100
AcDbEntity
  8
01
100
AcDbSpline
210
0.0
220
0.0
230
1.0
 70
    12
 71
     2
 72
     6
 73
     3
 74
     0
 42
0.0000000001
 43
0.0000000001
 40
0.0
 40
0.0
 40
0.0
 40
0.0058050818162527
 40
0.0058050818162527
 40
0.0058050818162527
 10
6579.657255975379
 20
104.5594325937391
 30
0.0000000001127424
 41
1.0
 10
6579.656901206628
 20
104.5565458550445
 30
0.0000000001127424
 41
0.9969517267319483
 10
6579.656999835584
 20
104.5536390710004
 30
0.0000000001127424
 41
1.0
  0
SPLINE
  5
B323
330
18
100
AcDbEntity
  8
01
100
AcDbSpline
210
0.0
220
0.0
230
1.0
 70
     8
 71
     3
 72
    40
 73
    36
 74
     0
 42
0.0000000001
 43
0.0000000001
 40
-0.2033736725683364
 40
-0.2033736725683364
 40
-0.2033736725683364
 40
-0.2033736725683364
 40
-0.0232170586701017
 40
-0.0232170586701017
 40
-0.0232170586701017
 40
0.0
 40
0.0
 40
0.0
 40
1.130800052608883
 40
1.130800052608883
 40
2.261600105217765
 40
2.261600105217765
 40
2.498793226740147
 40
2.498793226740147
 40
2.973179469784911
 40
2.973179469784911
 40
3.098213445970866
 40
3.098213445970866
 40
3.40438526250069
 40
3.40438526250069
 40
3.461198448702591
 40
3.461198448702591
 40
3.61067271509402
 40
3.61067271509402
 40
3.635103263115257
 40
3.635103263115257
 40
3.683964359157731
 40
3.683964359157731
 40
3.696424735644299
 40
3.696424735644299
 40
3.720947097242794
 40
3.720947097242794
 40
3.727509536139739
 40
3.727509536139739
 40
3.733486731397206
 40
3.733486731397206
 40
3.733486731397206
 40
3.733486731397206
 10
6582.025807436572
 20
101.2605307932763
 30
0.0000000001127424
 10
6582.002659981161
 20
101.3169504573325
 30
0.0000000001127424
 10
6581.97951252575
 20
101.3733701213887
 30
0.0000000001127424
 10
6581.956365070339
 20
101.4297897854458
 30
0.0000000001127424
 10
6581.953382022319
 20
101.4370606739367
 30
0.0000000001127424
 10
6581.950398974299
 20
101.4443315624276
 30
0.0000000001127424
 10
6581.947415016402
 20
101.4516005740497
 30
0.0000000001127424
 10
6581.802079649213
 20
101.8056419210261
 30
0.0000000001127424
 10
6581.654585840282
 20
102.1552308982727
 30
0.0000000001127424
 10
6581.355046689276
 20
102.8549384531243
 30
0.0000000001127424
 10
6581.202635564036
 20
103.2045236833583
 30
0.0000000001127424
 10
6581.013291858719
 20
103.6267206593075
 30
0.0000000001127424
 10
6580.980282650209
 20
103.6998935903312
 30
0.0000000001127424
 10
6580.880678885751
 20
103.9193007288932
 30
0.0000000001127424
 10
6580.813396424441
 20
104.0658380667765
 30
0.0000000001127424
 10
6580.726074587168
 20
104.2518585277894
 30
0.0000000001127424
 10
6580.707773788985
 20
104.2906248447007
 30
0.0000000001127424
 10
6580.643874782572
 20
104.425050548517
 30
0.0000000001127424
 10
6580.597047222451
 20
104.5218977517625
 30
0.0000000001127424
 10
6580.538919412278
 20
104.6379013921651
 30
0.0000000001127424
 10
6580.529802550122
 20
104.6559816400031
 30
0.0000000001127424
 10
6580.495925024419
 20
104.7226754868252
 30
0.0000000001127424
 10
6580.470326286268
 20
104.7723725856613
 30
0.0000000001127424
 10
6580.433988658213
 20
104.8385640930928
 30
0.0000000001127424
 10
6580.428615095785
 20
104.84825111179
 30
0.0000000001127424
 10
6580.411608511027
 20
104.8784341780338
 30
0.0000000001127424
 10
6580.399094346945
 20
104.9000552855659
 30
0.0000000001127424
 10
6580.381570352691
 20
104.9288963035951
 30
0.0000000001127424
 10
6580.377857449877
 20
104.9349640582614
 30
0.0000000001127424
 10
6580.363409020731
 20
104.9580366444579
 30
0.0000000001127424
 10
6580.350320288515
 20
104.978416894417
 30
0.0000000001127424
 10
6580.328213032628
 20
105.009411221502
 30
0.0000000001127424
 10
6580.32323327544
 20
105.0162405968886
 30
0.0000000001127424
 10
6580.313089648911
 20
105.0297753979057
 30
0.0000000001127424
 10
6580.308125330805
 20
105.0362670771592
 30
0.0000000001127424
 10
6580.302825006036
 20
105.0430030582593
 30
0.0000000001127424
  0
SPLINE
  5
B324
330
18
100
AcDbEntity
  8
01
100
AcDbSpline
210
0.0
220
0.0
230
1.0
 70
     8
 71
     3
 72
    14
 73
    10
 74
     0
 42
0.0000000001
 43
0.0000000001
 40
0.6952679873348555
 40
0.6952679873348555
 40
0.6952679873348555
 40
0.6952679873348555
 40
1.542415948630465
 40
1.542415948630465
 40
5.110139298488134
 40
5.110139298488134
 40
8.677862648345801
 40
8.677862648345801
 40
9.374995553762131
 40
9.374995553762131
 40
9.374995553762131
 40
9.374995553762131
 10
6582.025807436574
 20
101.2605307932745
 30
0.0000000001127424
 10
6582.123663703653
 20
101.0036165743013
 30
0.0000000001127424
 10
6582.218098890249
 20
100.7448753561839
 30
0.0000000001127424
 10
6582.694822863326
 20
99.38754783920922
 30
0.0000000001127424
 10
6583.030944589078
 20
98.26466315051948
 30
0.0000000001127424
 10
6583.632312896927
 20
95.99960256215763
 30
0.0000000001127424
 10
6583.89636356251
 20
94.85589841581805
 30
0.0000000001127424
 10
6584.172249752923
 20
93.48018451521148
 30
0.0000000001127424
 10
6584.216066780418
 20
93.25502849141503
 30
0.0000000001127424
 10
6584.258623007958
 20
93.02961163915916
 30
0.0000000001127424
  0
SPLINE
  5
B325
330
18
100
AcDbEntity
  8
01
100
AcDbSpline
210
0.0
220
0.0
230
1.0
 70
     8
 71
     3
 72
    16
 73
    12
 74
     0
 42
0.0000000001
 43
0.0000000001
 40
-30.46765048934617
 40
-30.46765048934617
 40
-30.46765048934617
 40
-30.46765048934617
 40
-28.59888003943466
 40
-28.59888003943466
 40
-24.86133913961166
 40
-24.86133913961166
 40
-21.12379823978866
 40
-21.12379823978866
 40
-17.38625733996566
 40
-17.38625733996566
 40
-17.03811439411124
 40
-17.03811439411124
 40
-17.03811439411124
 40
-17.03811439411124
 10
6600.699435489871
 20
101.8541304666442
 30
0.0000000001127424
 10
6600.581045436829
 20
101.5931942275902
 30
0.0000000001127424
 10
6600.47018366361
 20
101.3086326335379
 30
0.0000000001127424
 10
6600.129249667363
 20
100.3879161583709
 30
0.0000000001127424
 10
6599.89108978418
 20
99.68413886436429
 30
0.0000000001127424
 10
6599.412082763731
 20
98.11649071355441
 30
0.0000000001127424
 10
6599.172001081741
 20
97.25574042942117
 30
0.0000000001127424
 10
6598.703152213146
 20
95.37006839050355
 30
0.0000000001127424
 10
6598.474110830033
 20
94.3438770047278
 30
0.0000000001127424
 10
6598.235488089485
 20
93.12068587815065
 30
0.0000000001127424
 10
6598.21524826852
 20
93.01565237483192
 30
0.0000000001127424
 10
6598.195106138983
 20
92.90980647042579
 30
0.0000000001127424
  0
SPLINE
  5
B326
330
18
100
AcDbEntity
  8
01
100
AcDbSpline
210
0.0
220
0.0
230
1.0
 70
     8
 71
     3
 72
    30
 73
    26
 74
     0
 42
0.0000000001
 43
0.0000000001
 40
0.0277439952034887
 40
0.0277439952034887
 40
0.0277439952034887
 40
0.0277439952034887
 40
0.0369148784349517
 40
0.0369148784349517
 40
0.0554036117160496
 40
0.0554036117160496
 40
0.0738923449971475
 40
0.0738923449971475
 40
0.1108698115593434
 40
0.1108698115593434
 40
0.184824744683735
 40
0.184824744683735
 40
0.2587796778081267
 40
0.2587796778081267
 40
0.4066895440569099
 40
0.4066895440569099
 40
0.5545994103056933
 40
0.5545994103056933
 40
0.8504191428032599
 40
0.8504191428032599
 40
1.527414423663821
 40
1.527414423663821
 40
2.89104647630398
 40
2.89104647630398
 40
3.331684133886355
 40
3.331684133886355
 40
3.331684133886355
 40
3.331684133886355
 10
6602.177199934842
 20
105.0430030582529
 30
0.0000000001127424
 10
6602.168387614573
 20
105.0317873018139
 30
0.0000000001127424
 10
6602.160781140352
 20
105.0216241993421
 30
0.0000000001127424
 10
6602.141227674474
 20
104.9947934110905
 30
0.0000000001127424
 10
6602.13241996776
 20
104.9818342709941
 30
0.0000000001127424
 10
6602.114546982411
 20
104.9548509096921
 30
0.0000000001127424
 10
6602.106592813789
 20
104.9422936615947
 30
0.0000000001127424
 10
6602.085279116196
 20
104.9076981654653
 30
0.0000000001127424
 10
6602.074432457715
 20
104.8887537216624
 30
0.0000000001127424
 10
6602.049841277609
 20
104.845429648256
 30
0.0000000001127424
 10
6602.035928684667
 20
104.8200973636021
 30
0.0000000001127424
 10
6602.007631767668
 20
104.7675062260305
 30
0.0000000001127424
 10
6601.994097994617
 20
104.7417361702865
 30
0.0000000001127424
 10
6601.955057656269
 20
104.6661595508167
 30
0.0000000001127424
 10
6601.931462343202
 20
104.6188885893107
 30
0.0000000001127424
 10
6601.885182642976
 20
104.525347262178
 30
0.0000000001127424
 10
6601.862431451684
 20
104.4787234318319
 30
0.0000000001127424
 10
6601.795169812374
 20
104.3393823390643
 30
0.0000000001127424
 10
6601.751745668864
 20
104.2474516936281
 30
0.0000000001127424
 10
6601.610896467157
 20
103.9458128662709
 30
0.0000000001127424
 10
6601.516232011098
 20
103.7372481075572
 30
0.0000000001127424
 10
6601.234272994219
 20
103.1075770663501
 30
0.0000000001127424
 10
6601.051550896776
 20
102.6857094929819
 30
0.0000000001127424
 10
6600.81451324722
 20
102.1274902283558
 30
0.0000000001127424
 10
6600.756832385097
 20
101.991152110897
 30
0.0000000001127424
 10
6600.699435489871
 20
101.8541304666442
 30
0.0000000001127424
  0
SPLINE
  5
B327
330
18
100
AcDbEntity
  8
01
100
AcDbSpline
210
0.0
220
0.0
230
1.0
 70
    12
 71
     2
 72
     6
 73
     3
 74
     0
 42
0.0000000001
 43
0.0000000001
 40
0.0
 40
0.0
 40
0.0
 40
0.0057888718397516
 40
0.0057888718397516
 40
0.0057888718397516
 10
6602.823106559461
 20
104.5537779004053
 30
0.0000000001127424
 41
1.0
 10
6602.823204726599
 20
104.5566765127105
 30
0.0000000001127424
 41
0.9969832501799664
 10
6602.822853105177
 20
104.559555393128
 30
0.0000000001127424
 41
1.0
  0
SPLINE
  5
B328
330
18
100
AcDbEntity
  8
01
100
AcDbSpline
210
0.0
220
0.0
230
1.0
 70
     8
 71
     3
 72
    10
 73
     6
 74
     0
 42
0.0000000001
 43
0.0000000001
 40
0.0
 40
0.0
 40
0.0
 40
0.0
 40
6.020659347724358
 40
6.020659347724358
 40
7.32911927856711
 40
7.32911927856711
 40
7.32911927856711
 40
7.32911927856711
 10
6585.664780739711
 20
85.11243217112315
 30
0.0000000001127424
 10
6585.933426875785
 20
83.10940500483684
 30
0.0000000001127424
 10
6586.151921395405
 20
81.09947799496513
 30
0.0000000001127424
 10
6586.337270366581
 20
78.64112691520859
 30
0.0000000001127424
 10
6586.367092956893
 20
78.20180805560722
 30
0.0000000001127424
 10
6586.393331612438
 20
77.76207555231122
 30
0.0000000001127424
  0
SPLINE
  5
B329
330
18
100
AcDbEntity
  8
01
100
AcDbSpline
210
0.0
220
0.0
230
1.0
 70
     8
 71
     3
 72
    10
 73
     6
 74
     0
 42
0.0000000001
 43
0.0000000001
 40
-16.90023055275178
 40
-16.90023055275178
 40
-16.90023055275178
 40
-16.90023055275178
 40
-15.36748994248735
 40
-15.36748994248735
 40
-12.63716819274803
 40
-12.63716819274803
 40
-12.63716819274803
 40
-12.63716819274803
 10
6598.195192792778
 20
92.89141237285912
 30
0.0000000001127424
 10
6598.102968550558
 20
92.46010051172925
 30
0.0000000001127424
 10
6598.012060901059
 20
92.01387065618201
 30
0.0000000001127424
 10
6597.764250976634
 20
90.7383280748154
 30
0.0000000001127424
 10
6597.611304553426
 20
89.88213351606828
 30
0.0000000001127424
 10
6597.466748875477
 20
89.00076355203419
 30
0.0000000001127424
  0
SPLINE
  5
B32A
330
18
100
AcDbEntity
  8
1DIM
100
AcDbSpline
210
0.0
220
0.0
230
1.0
 70
    12
 71
     2
 72
     6
 73
     3
 74
     0
 42
0.0000000001
 43
0.0000000001
 40
0.0
 40
0.0
 40
0.0
 40
0.0119588043415659
 40
0.0119588043415659
 40
0.0119588043415659
 10
6586.393451632777
 20
85.00624486289689
 30
0.0000000001127424
 41
1.0
 10
6586.392474117067
 20
85.01214382157013
 30
0.0000000001127424
 41
0.999999998423781
 10
6586.391495938949
 20
85.01804267043826
 30
0.0000000001127424
 41
1.0
  0
SPLINE
  5
B32C
330
18
100
AcDbEntity
  8
01
100
AcDbSpline
210
0.0
220
0.0
230
1.0
 70
    12
 71
     2
 72
     6
 73
     3
 74
     0
 42
0.0000000001
 43
0.0000000001
 40
0.0
 40
0.0
 40
0.0
 40
1.784723330451919
 40
1.784723330451919
 40
1.784723330451919
 10
6580.348952852875
 20
86.21446391196059
 30
0.0000000001127424
 41
1.0
 10
6580.169983531134
 20
87.08934226917427
 30
0.0000000001127424
 41
0.9989345401295663
 10
6580.072441057784
 20
87.97699514273427
 30
0.0000000001127424
 41
1.0
  0
SPLINE
  5
B32D
330
18
100
AcDbEntity
  8
01
100
AcDbSpline
210
0.0
220
0.0
230
1.0
 70
    12
 71
     2
 72
     6
 73
     3
 74
     0
 42
0.0000000001
 43
0.0000000001
 40
0.0
 40
0.0
 40
0.0
 40
0.0099270442838628
 40
0.0099270442838628
 40
0.0099270442838628
 10
6585.875184097484
 20
72.3365263313317
 30
0.0000000001127424
 41
1.0
 10
6585.870602417392
 20
72.33870688986008
 30
0.0000000001127424
 41
0.9676255471276739
 10
6585.867669519121
 20
72.34284751006362
 30
0.0000000001127424
 41
1.0
  0
SPLINE
  5
B32E
330
18
100
AcDbEntity
  8
01
100
AcDbSpline
210
0.0
220
0.0
230
1.0
 70
    12
 71
     2
 72
     6
 73
     3
 74
     0
 42
0.0000000001
 43
0.0000000001
 40
0.0
 40
0.0
 40
0.0
 40
0.0576862209510712
 40
0.0576862209510712
 40
0.0576862209510712
 10
6585.8472715485
 20
72.38226521555498
 30
0.0000000001127424
 41
1.0
 10
6585.837678893691
 20
72.40949820577043
 30
0.0000000001127424
 41
0.9984437347960601
 10
6585.831178657811
 20
72.43763006877089
 30
0.0000000001127424
 41
1.0
  0
SPLINE
  5
B32F
330
18
100
AcDbEntity
  8
01
100
AcDbSpline
210
0.0
220
0.0
230
1.0
 70
     8
 71
     3
 72
    13
 73
     9
 74
     0
 42
0.0000000001
 43
0.0000000001
 40
0.0
 40
0.0
 40
0.0
 40
0.0
 40
0.0006755204159111
 40
0.7349935245358244
 40
1.488482365781062
 40
3.05628718648066
 40
4.765125168405222
 40
6.700945851926766
 40
6.700945851926766
 40
6.700945851926766
 40
6.700945851926766
 10
6558.839210849503
 20
73.97165502750158
 30
0.0000000001127424
 10
6558.84030836945
 20
73.9716625861738
 30
0.0000000001127424
 10
6558.595386337081
 20
73.9662509054815
 30
0.0000000001127424
 10
6558.099932950363
 20
73.93318240733333
 30
0.0000000001127424
 10
6557.092206627947
 20
73.77733107142922
 30
0.0000000001127424
 10
6555.798157621033
 20
73.401038857598
 30
0.0000000001127424
 10
6554.215080805276
 20
72.67606356906799
 30
0.0000000001127424
 10
6553.176250540591
 20
72.04283781940558
 30
0.0000000001127424
 10
6552.64034689541
 20
71.6835194976511
 30
0.0000000001127424
  0
ARC
  5
B330
330
18
100
AcDbEntity
  8
01
100
AcDbCircle
 10
6549.958470973215
 20
104.596089714154
 30
0.0000000001127424
 40
54.3370518454478
100
AcDbArc
 50
328.1065790840828
 51
338.8675819087636
  0
ARC
  5
B331
330
18
100
AcDbEntity
  8
01
100
AcDbCircle
 10
6696.356626827772
 20
63.91798141618619
 30
0.0000000001127424
 40
100.9761844116235
100
AcDbArc
 50
173.1922035819735
 51
175.1156863112961
  0
ARC
  5
B332
330
18
100
AcDbEntity
  8
01
100
AcDbCircle
 10
6696.356626827772
 20
63.91798141618619
 30
0.0000000001127424
 40
101.7750067916235
100
AcDbArc
 50
170.1373907071071
 51
175.1156863112961
  0
ARC
  5
B333
330
18
100
AcDbEntity
  8
01
100
AcDbCircle
 10
6401.333023648393
 20
67.6615612071264
 30
0.0000000001127424
 40
185.3357439183937
100
AcDbArc
 50
1.196375424918872
 51
3.124080045578016
  0
ARC
  5
B334
330
18
100
AcDbEntity
  8
01
100
AcDbCircle
 10
6316.753271089392
 20
41.43494643256599
 30
0.0000000001127424
 40
272.4355387662479
100
AcDbArc
 50
9.22560278235092
 51
10.91678017500643
  0
ARC
  5
B335
330
18
100
AcDbEntity
  8
01
100
AcDbCircle
 10
3502.085976686298
 20
643.8400544221604
 30
0.0000000001127424
 40
3144.714416848013
100
AcDbArc
 50
349.6961571654149
 51
349.8377932718656
  0
SPLINE
  5
B336
330
18
100
AcDbEntity
  8
01
100
AcDbSpline
210
0.0
220
0.0
230
1.0
 70
    28
 71
     2
 72
     8
 73
     5
 74
     0
 42
0.0000000001
 43
0.0000000001
 40
0.0900235761335404
 40
0.0900235761335404
 40
0.0900235761335404
 40
1.571624059894424
 40
1.571624059894424
 40
3.052971217677295
 40
3.052971217677295
 40
3.052971217677295
 10
6552.239790751915
 20
98.46130546045698
 30
0.0000000001127424
 41
0.9686256104764459
 10
6552.23979075197
 20
97.44704747584775
 30
0.0000000001127424
 41
0.7237383820665405
 10
6552.239790751968
 20
85.0062448631752
 30
0.0000000001127424
 41
1.0
 10
6552.239790751968
 20
72.56838116578729
 30
0.0000000001127424
 41
0.723785617637342
 10
6552.239790751968
 20
71.55144380100228
 30
0.0000000001127424
 41
0.9685418834382905
  0
LINE
  5
B337
330
18
100
AcDbEntity
  8
01
100
AcDbLine
 10
6550.239790751968
 20
98.5062448631752
 30
0.0000000001127424
 11
6550.239790751968
 21
71.5062448631752
 31
0.0000000001127424
  0
SPLINE
  5
B338
330
18
100
AcDbEntity
  8
01
100
AcDbSpline
210
0.0
220
0.0
230
1.0
 70
    12
 71
     2
 72
     6
 73
     3
 74
     0
 42
0.0000000001
 43
0.0000000001
 40
0.0
 40
0.0
 40
0.0
 40
0.7948447943829219
 40
0.7948447943829219
 40
0.7948447943829219
 10
6796.57587010566
 20
74.7647725765537
 30
0.0000000001127424
 41
1.0
 10
6796.792746706673
 20
74.43134493058187
 30
0.0000000001127424
 41
0.9987442066881631
 10
6797.041902075131
 20
74.1212948418306
 30
0.0000000001127424
 41
1.0
  0
SPLINE
  5
B339
330
18
100
AcDbEntity
  8
01
100
AcDbSpline
210
0.0
220
0.0
230
1.0
 70
    12
 71
     2
 72
     6
 73
     3
 74
     0
 42
0.0000000001
 43
0.0000000001
 40
0.0
 40
0.0
 40
0.0
 40
7.582750196493782
 40
7.582750196493782
 40
7.582750196493782
 10
6790.174399099824
 20
82.12714097861408
 30
0.0000000001127424
 41
1.0
 10
6793.049044893087
 20
79.63233437471263
 30
0.0000000001127424
 41
0.994142645831835
 10
6795.320438352886
 20
76.5780881209912
 30
0.0000000001127424
 41
1.0
  0
SPLINE
  5
B33A
330
18
100
AcDbEntity
  8
01
100
AcDbSpline
210
0.0
220
0.0
230
1.0
 70
     8
 71
     3
 72
    11
 73
     7
 74
     0
 42
0.0000000001
 43
0.0000000001
 40
0.0
 40
0.0
 40
0.0
 40
0.0
 40
0.8532711445931744
 40
1.678992452512001
 40
3.379780420541171
 40
6.796880316499922
 40
6.796880316499922
 40
6.796880316499922
 40
6.796880316499922
 10
6804.785509067662
 20
71.2589054954069
 30
0.0000000001127424
 10
6805.065243176259
 20
71.31032294372108
 30
0.0000000001127424
 10
6805.612448205547
 20
71.42914762491273
 30
0.0000000001127424
 10
6806.696930922115
 20
71.7361459605736
 30
0.0000000001127424
 10
6808.549146226325
 20
72.44986743453683
 30
0.0000000001127424
 10
6810.014333904819
 20
73.34765442616299
 30
0.0000000001127424
 10
6810.907824297892
 20
74.05403444558124
 30
0.0000000001127424
  0
SPLINE
  5
B33B
330
18
100
AcDbEntity
  8
01
100
AcDbSpline
210
0.0
220
0.0
230
1.0
 70
    12
 71
     2
 72
     6
 73
     3
 74
     0
 42
0.0000000001
 43
0.0000000001
 40
0.0
 40
0.0
 40
0.0
 40
0.5430594245025755
 40
0.5430594245025755
 40
0.5430594245025755
 10
6804.248886075697
 20
71.17338984239177
 30
0.0000000001127424
 41
1.0
 10
6804.517822090324
 20
71.2110628474411
 30
0.0000000001127424
 41
0.9998225248165757
 10
6804.78514799056
 20
71.25884043984297
 30
0.0000000001127424
 41
1.0
  0
SPLINE
  5
B33C
330
18
100
AcDbEntity
  8
01
100
AcDbSpline
210
0.0
220
0.0
230
1.0
 70
    12
 71
     2
 72
     6
 73
     3
 74
     0
 42
0.0000000001
 43
0.0000000001
 40
0.0
 40
0.0
 40
0.0
 40
4.593446985507753
 40
4.593446985507753
 40
4.593446985507753
 10
6799.781788832561
 20
71.93270702470181
 30
0.0000000001127424
 41
1.0
 10
6801.903657823535
 20
70.89630003192451
 30
0.0000000001127424
 41
0.9593853893982737
 10
6804.248800739153
 20
71.17337795392723
 30
0.0000000001127424
 41
1.0
  0
SPLINE
  5
B33D
330
18
100
AcDbEntity
  8
01
100
AcDbSpline
210
0.0
220
0.0
230
1.0
 70
    12
 71
     2
 72
     6
 73
     3
 74
     0
 42
0.0000000001
 43
0.0000000001
 40
0.0
 40
0.0
 40
0.0
 40
0.2036919345825323
 40
0.2036919345825323
 40
0.2036919345825323
 10
6796.317693773646
 20
75.16539552067024
 30
0.0000000001127424
 41
1.0
 10
6796.374359607726
 20
75.08076902209359
 30
0.0000000001127424
 41
0.9999956645825673
 10
6796.43052607469
 20
74.99581027326803
 30
0.0000000001127424
 41
1.0
  0
SPLINE
  5
B33E
330
18
100
AcDbEntity
  8
01
100
AcDbSpline
210
0.0
220
0.0
230
1.0
 70
    12
 71
     2
 72
     6
 73
     3
 74
     0
 42
0.0000000001
 43
0.0000000001
 40
0.0
 40
0.0
 40
0.0
 40
2.972881301175501
 40
2.972881301175501
 40
2.972881301175501
 10
6784.97716583183
 20
85.8545835707937
 30
0.0000000001127424
 41
1.0
 10
6786.262202788817
 20
85.10551547629893
 30
0.0000000001127424
 41
0.9990110572036313
 10
6787.703816980336
 20
84.08329954437158
 30
0.0000000001127424
 41
1.0
  0
SPLINE
  5
B33F
330
18
100
AcDbEntity
  8
01
100
AcDbSpline
210
0.0
220
0.0
230
1.0
 70
     8
 71
     3
 72
    11
 73
     7
 74
     0
 42
0.0000000001
 43
0.0000000001
 40
0.0
 40
0.0
 40
0.0
 40
0.0
 40
2.013202041149625
 40
4.028404306221672
 40
8.060217833232702
 40
16.23257532911386
 40
16.23257532911386
 40
16.23257532911386
 40
16.23257532911386
 10
6769.603790956689
 20
90.61187019083991
 30
0.0000000001127424
 10
6770.273250338887
 20
90.56551667647545
 30
0.0000000001127424
 10
6771.610131403619
 20
90.43343906537393
 30
0.0000000001127424
 10
6774.265076788979
 20
90.01424157567908
 30
0.0000000001127424
 10
6778.873954830993
 20
88.87535913390093
 30
0.0000000001127424
 10
6782.623424457781
 20
87.22944888536495
 30
0.0000000001127424
 10
6784.975687174996
 20
85.85544334703172
 30
0.0000000001127424
  0
SPLINE
  5
B340
330
18
100
AcDbEntity
  8
01
100
AcDbSpline
210
0.0
220
0.0
230
1.0
 70
    12
 71
     2
 72
     6
 73
     3
 74
     0
 42
0.0000000001
 43
0.0000000001
 40
0.0
 40
0.0
 40
0.0
 40
11.98012702326537
 40
11.98012702326537
 40
11.98012702326537
 10
6746.177393393185
 20
92.97486409232715
 30
0.0000000001127424
 41
1.0
 10
6740.466744931742
 20
91.09849417739952
 30
0.0000000001127424
 41
0.9947805651466427
 10
6734.49408963536
 20
90.42051289562369
 30
0.0000000001127424
 41
1.0
  0
SPLINE
  5
B341
330
18
100
AcDbEntity
  8
01
100
AcDbSpline
210
0.0
220
0.0
230
1.0
 70
     8
 71
     3
 72
    11
 73
     7
 74
     0
 42
0.0000000001
 43
0.0000000001
 40
0.0
 40
0.0
 40
0.0
 40
0.0
 40
3.690843602868563
 40
7.382991531392564
 40
14.91028593332272
 40
29.80923161888602
 40
29.80923161888602
 40
29.80923161888602
 40
29.80923161888602
 10
6734.494089601352
 20
90.42051289176106
 30
0.0000000001127424
 10
6733.271707148873
 20
90.28181146744282
 30
0.0000000001127424
 10
6730.817688697454
 20
90.07975438865742
 30
0.0000000001127424
 10
6725.846447362779
 20
89.97973687787999
 30
0.0000000001127424
 10
6717.146020339722
 20
90.61258299052588
 30
0.0000000001127424
 10
6709.865184312037
 20
92.54556192123437
 30
0.0000000001127424
 10
6705.260566952178
 20
94.4063977363212
 30
0.0000000001127424
  0
SPLINE
  5
B342
330
18
100
AcDbEntity
  8
01
100
AcDbSpline
210
0.0
220
0.0
230
1.0
 70
     8
 71
     3
 72
    61
 73
    57
 74
     0
 42
0.0000000001
 43
0.0000000001
 40
0.0
 40
0.0
 40
0.0
 40
0.0
 40
3.544576659050423
 40
5.70659080000539
 40
7.06065259108426
 40
8.519678531750248
 40
10.57769974648699
 40
11.56768624308525
 40
12.87017487001783
 40
13.52150914378072
 40
14.08157829041618
 40
14.9379125229656
 40
15.68066895317434
 40
18.54623884123928
 40
20.89110043426123
 40
23.26203940113155
 40
24.38242476245907
 40
25.50283701008561
 40
26.62323556286803
 40
27.76967996188374
 40
30.0103988666637
 40
31.13078389593653
 40
32.25114785387096
 40
33.63203128862298
 40
35.37756935251454
 40
36.91479797481001
 40
37.59192009849718
 40
38.29111114294434
 40
39.1237568277303
 40
40.47824138559302
 40
41.8321168049164
 40
43.13396957604191
 40
44.48798652785594
 40
45.7907455174651
 40
48.49996665902187
 40
49.85464118834577
 40
52.04278736527779
 40
54.90809685005371
 40
58.50265973047272
 40
59.75287633756769
 40
60.89880025100782
 40
62.14895260248733
 40
63.39892962816716
 40
64.54488849567765
 40
65.69074535993175
 40
66.21177878960712
 40
66.6808970172498
 40
66.88934015724578
 40
67.14945461614512
 40
67.71990794407543
 40
68.13592947584593
 40
68.78652077187859
 40
70.32368591030075
 40
74.38743431226423
 40
80.06609138918697
 40
85.69243442100306
 40
85.69243442100306
 40
85.69243442100306
 40
85.69243442100306
 10
6814.38836161062
 20
93.35614278780758
 30
0.0000000001127424
 10
6813.797770513069
 20
94.37951110874837
 30
0.0000000001127424
 10
6812.721224098421
 20
95.95420903336435
 30
0.0000000001127424
 10
6811.169391653713
 20
97.72686972671818
 30
0.0000000001127424
 10
6809.984539014131
 20
98.88828495027337
 30
0.0000000001127424
 10
6808.757227862825
 20
99.95253958670946
 30
0.0000000001127424
 10
6807.550344589736
 20
100.8497207384853
 30
0.0000000001127424
 10
6806.330017947896
 20
101.6339157221082
 30
0.0000000001127424
 10
6805.478872489659
 20
102.1229204874708
 30
0.0000000001127424
 10
6804.734747196715
 20
102.508498492818
 30
0.0000000001127424
 10
6804.114469332479
 20
102.8090949212901
 30
0.0000000001127424
 10
6803.458544989318
 20
103.1055141388888
 30
0.0000000001127424
 10
6802.091936320796
 20
103.6948196127005
 30
0.0000000001127424
 10
6800.235441220404
 20
104.3993013961726
 30
0.0000000001127424
 10
6797.81839945868
 20
105.1407855706502
 30
0.0000000001127424
 10
6795.926626415161
 20
105.5983350062061
 30
0.0000000001127424
 10
6794.417467609635
 20
105.8916818396347
 30
0.0000000001127424
 10
6793.311724110898
 20
106.0730803484448
 30
0.0000000001127424
 10
6792.192475173953
 20
106.222728461099
 30
0.0000000001127424
 10
6790.697673000668
 20
106.3765800562987
 30
0.0000000001127424
 10
6789.196911779834
 20
106.4622541887229
 30
0.0000000001127424
 10
6787.702998948858
 20
106.4788708937485
 30
0.0000000001127424
 10
6786.495881656867
 20
106.4550149185025
 30
0.0000000001127424
 10
6785.082132072397
 20
106.3777197253266
 30
0.0000000001127424
 10
6783.534637049379
 20
106.2249468245363
 30
0.0000000001127424
 10
6782.228224979219
 20
106.0340726525274
 30
0.0000000001127424
 10
6781.272070157249
 20
105.863618075321
 30
0.0000000001127424
 10
6780.550156206913
 20
105.7185328497371
 30
0.0000000001127424
 10
6779.609087674628
 20
105.5184078679658
 30
0.0000000001127424
 10
6778.456678752293
 20
105.2630857880413
 30
0.0000000001127424
 10
6777.156117658773
 20
104.9539965254098
 30
0.0000000001127424
 10
6775.859514087324
 20
104.6295058846408
 30
0.0000000001127424
 10
6774.583869578617
 20
104.2918119135975
 30
0.0000000001127424
 10
6772.860537373557
 20
103.8127120444733
 30
0.0000000001127424
 10
6771.146393185654
 20
103.3004894219675
 30
0.0000000001127424
 10
6769.161043381542
 20
102.666747446403
 30
0.0000000001127424
 10
6767.136832914348
 20
101.9843053270515
 30
0.0000000001127424
 10
6764.426402500107
 20
101.0021361931767
 30
0.0000000001127424
 10
6762.035185959638
 20
100.0594292350779
 30
0.0000000001127424
 10
6760.192515105116
 20
99.289845197467
 30
0.0000000001127424
 10
6759.075608717025
 20
98.81043765065897
 30
0.0000000001127424
 10
6757.963477658093
 20
98.32025824240645
 30
0.0000000001127424
 10
6756.85628417362
 20
97.818991624923
 30
0.0000000001127424
 10
6755.785381387504
 20
97.3219969515767
 30
0.0000000001127424
 10
6754.938403226799
 20
96.919789799108
 30
0.0000000001127424
 10
6754.297247597608
 20
96.61016195161665
 30
0.0000000001127424
 10
6753.938024328532
 20
96.43527793644262
 30
0.0000000001127424
 10
6753.657350193518
 20
96.2977458497935
 30
0.0000000001127424
 10
6753.346698083082
 20
96.14462855266447
 30
0.0000000001127424
 10
6752.974934628435
 20
95.95900070249809
 30
0.0000000001127424
 10
6752.486144181397
 20
95.71638362542126
 30
0.0000000001127424
 10
6751.704724436599
 20
95.33863308838863
 30
0.0000000001127424
 10
6749.81177098749
 20
94.46676064414532
 30
0.0000000001127424
 10
6746.32118586839
 20
93.06354512225425
 30
0.0000000001127424
 10
6741.414534184538
 20
91.56673990479794
 30
0.0000000001127424
 10
6737.709211745061
 20
90.85223794394642
 30
0.0000000001127424
 10
6735.851908149067
 20
90.59225798485568
 30
0.0000000001127424
  0
SPLINE
  5
B343
330
18
100
AcDbEntity
  8
01
100
AcDbSpline
210
0.0
220
0.0
230
1.0
 70
     8
 71
     3
 72
    24
 73
    20
 74
     0
 42
0.0000000001
 43
0.0000000001
 40
0.0
 40
0.0
 40
0.0
 40
0.0
 40
2.955238632616005
 40
4.859257632477719
 40
5.279228914728051
 40
5.699265608721992
 40
6.18914083659282
 40
6.874854570018707
 40
7.042841721911718
 40
7.350814105120607
 40
8.96064861540019
 40
9.296578216059636
 40
13.9994598557548
 40
17.02221024511627
 40
18.45646087964137
 40
18.69433856556405
 40
19.94665491289613
 40
22.81500737520586
 40
25.68345655540319
 40
25.68345655540319
 40
25.68345655540319
 40
25.68345655540319
 10
6705.260554838209
 20
94.40640263084515
 30
0.0000000001127424
 10
6704.34721999586
 20
94.77544790338379
 30
0.0000000001127424
 10
6702.860300357144
 20
95.41910286428629
 30
0.0000000001127424
 10
6701.275076283564
 20
96.18365418947178
 30
0.0000000001127424
 10
6700.458845738345
 20
96.59645712737347
 30
0.0000000001127424
 10
6700.064476359044
 20
96.79891302844317
 30
0.0000000001127424
 10
6699.594426625137
 20
97.04781042039212
 30
0.0000000001127424
 10
6699.199708608061
 20
97.25942746785859
 30
0.0000000001127424
 10
6698.854777346691
 20
97.43543423100618
 30
0.0000000001127424
 10
6698.230447355661
 20
97.74150162662136
 30
0.0000000001127424
 10
6697.535334823842
 20
98.02898388859921
 30
0.0000000001127424
 10
6695.441397503935
 20
98.75526798810552
 30
0.0000000001127424
 10
6692.766939177016
 20
99.2307680122558
 30
0.0000000001127424
 10
6689.70651228833
 20
99.0285172725371
 30
0.0000000001127424
 10
6688.172732731788
 20
98.71038189287083
 30
0.0000000001127424
 10
6687.230020596659
 20
98.46203582829276
 30
0.0000000001127424
 10
6685.845395897286
 20
98.01726595716809
 30
0.0000000001127424
 10
6683.744813156007
 20
96.98174882939475
 30
0.0000000001127424
 10
6682.229668545364
 20
95.7986189889325
 30
0.0000000001127424
 10
6681.540230748682
 20
95.13614183245863
 30
0.0000000001127424
  0
SPLINE
  5
B344
330
18
100
AcDbEntity
  8
01
100
AcDbSpline
210
0.0
220
0.0
230
1.0
 70
     8
 71
     3
 72
    19
 73
    15
 74
     0
 42
0.0000000001
 43
0.0000000001
 40
0.0
 40
0.0
 40
0.0
 40
0.0
 40
1.637463558351361
 40
3.19106547282248
 40
4.793693089293065
 40
5.577550767937534
 40
6.438323877958452
 40
8.56588061575334
 40
10.77760283333846
 40
11.65953098409317
 40
12.55546741910589
 40
13.18546326058944
 40
14.36140495964812
 40
16.07679524899824
 40
16.07679524899824
 40
16.07679524899824
 40
16.07679524899824
 10
6684.207032323178
 20
72.9327230818626
 30
0.0000000001127424
 10
6684.679109324141
 20
72.65869122401364
 30
0.0000000001127424
 10
6685.630037211713
 20
72.17821557682873
 30
0.0000000001127424
 10
6687.131284141033
 20
71.62341559288507
 30
0.0000000001127424
 10
6688.408654544419
 20
71.30949058710485
 30
0.0000000001127424
 10
6689.478349019833
 20
71.14026776677383
 30
0.0000000001127424
 10
6690.730413756732
 20
71.0219112428531
 30
0.0000000001127424
 10
6692.462974772581
 20
70.94302807472013
 30
0.0000000001127424
 10
6694.203958082862
 20
70.98920626094059
 30
0.0000000001127424
 10
6695.529935123521
 20
71.09273710013531
 30
0.0000000001127424
 10
6696.327836294735
 20
71.1805245310934
 30
0.0000000001127424
 10
6697.220692318526
 20
71.2986286158175
 30
0.0000000001127424
 10
6698.383748135002
 20
71.45689875037897
 30
0.0000000001127424
 10
6699.337984424757
 20
71.59223711425057
 30
0.0000000001127424
 10
6699.903623763261
 20
71.67593854093502
 30
0.0000000001127424
  0
SPLINE
  5
B345
330
18
100
AcDbEntity
  8
01
100
AcDbSpline
210
0.0
220
0.0
230
1.0
 70
     8
 71
     3
 72
    11
 73
     7
 74
     0
 42
0.0000000001
 43
0.0000000001
 40
0.0
 40
0.0
 40
0.0
 40
0.0
 40
1.110225562988375
 40
2.218123097136978
 40
4.409720672009446
 40
8.792647496957004
 40
8.792647496957004
 40
8.792647496957004
 40
8.792647496957004
 10
6816.813160712014
 20
85.01805221196992
 30
0.0000000001127424
 10
6816.808836052725
 20
85.38809762904839
 30
0.0000000001127424
 10
6816.775175760687
 20
86.12714312773824
 30
0.0000000001127424
 10
6816.608897800304
 20
87.5884418639589
 30
0.0000000001127424
 10
6816.062965233512
 20
90.0963984536802
 30
0.0000000001127424
 10
6815.162924668037
 20
92.11721890735953
 30
0.0000000001127424
 10
6814.38836161062
 20
93.35614278780758
 30
0.0000000001127424
  0
SPLINE
  5
B346
330
18
100
AcDbEntity
  8
01
100
AcDbSpline
210
0.0
220
0.0
230
1.0
 70
     8
 71
     3
 72
    12
 73
     8
 74
     0
 42
0.0000000001
 43
0.0000000001
 40
0.0
 40
0.0
 40
0.0
 40
0.0
 40
1.439656051001365
 40
2.820862797357471
 40
5.466895045256753
 40
7.985821842205755
 40
10.33068787796922
 40
10.33068787796922
 40
10.33068787796922
 40
10.33068787796922
 10
6812.719817167059
 20
75.76719001873334
 30
0.0000000001127424
 10
6813.039856263156
 20
76.12468382353927
 30
0.0000000001127424
 10
6813.64197462109
 20
76.84789322465531
 30
0.0000000001127424
 10
6814.706521358119
 20
78.32804787552686
 30
0.0000000001127424
 10
6815.770218592912
 20
80.24196438053423
 30
0.0000000001127424
 10
6816.585691554692
 20
82.6203381873056
 30
0.0000000001127424
 10
6816.79970548958
 20
84.23635580353402
 30
0.0000000001127424
 10
6816.813160574269
 20
85.01802876601869
 30
0.0000000001127424
  0
SPLINE
  5
B347
330
18
100
AcDbEntity
  8
01
100
AcDbSpline
210
0.0
220
0.0
230
1.0
 70
    12
 71
     2
 72
     6
 73
     3
 74
     0
 42
0.0000000001
 43
0.0000000001
 40
0.0
 40
0.0
 40
0.0
 40
0.0162391654894524
 40
0.0162391654894524
 40
0.0162391654894524
 10
6804.782460575594
 20
71.27506189635642
 30
0.0000000001127424
 41
1.0
 10
6804.782948216391
 20
71.26692743855165
 30
0.0000000001127424
 41
0.9945827272766864
 10
6804.785107279977
 20
71.25906959904296
 30
0.0000000001127424
 41
1.0
  0
SPLINE
  5
B348
330
18
100
AcDbEntity
  8
01
100
AcDbSpline
210
0.0
220
0.0
230
1.0
 70
     8
 71
     3
 72
    13
 73
     9
 74
     0
 42
0.0000000001
 43
0.0000000001
 40
0.0
 40
0.0
 40
0.0
 40
0.0
 40
3.093218514782281
 40
6.185337816767072
 40
12.36231365449998
 40
18.54413710648841
 40
22.39989144042458
 40
24.59642557052199
 40
24.59642557052199
 40
24.59642557052199
 40
24.59642557052199
 10
6734.497922428547
 20
79.97308001919464
 30
0.0000000001127424
 10
6735.475189692312
 20
80.3017983039199
 30
0.0000000001127424
 10
6737.42432800367
 20
80.97416037536732
 30
0.0000000001127424
 10
6741.298679760397
 20
82.37812376383408
 30
0.0000000001127424
 10
6746.099521650576
 20
84.24467007999647
 30
0.0000000001127424
 10
6751.074602049712
 20
86.35840307894159
 30
0.0000000001127424
 10
6754.787139566872
 20
88.04631567128217
 30
0.0000000001127424
 10
6756.61057054095
 20
88.90958470036549
 30
0.0000000001127424
 10
6757.270993366083
 20
89.22569623383424
 30
0.0000000001127424
  0
SPLINE
  5
B349
330
18
100
AcDbEntity
  8
01
100
AcDbSpline
210
0.0
220
0.0
230
1.0
 70
    12
 71
     2
 72
     6
 73
     3
 74
     0
 42
0.0000000001
 43
0.0000000001
 40
0.0
 40
0.0
 40
0.0
 40
0.0855455479168094
 40
0.0855455479168094
 40
0.0855455479168094
 10
6813.943231789013
 20
93.18888592964686
 30
0.0000000001127424
 41
1.0
 10
6813.965324287054
 20
93.15226030992471
 30
0.0000000001127424
 41
0.9999982382471518
 10
6813.987279129782
 20
93.11555200881503
 30
0.0000000001127424
 41
1.0
  0
SPLINE
  5
B34A
330
18
100
AcDbEntity
  8
01
100
AcDbSpline
210
0.0
220
0.0
230
1.0
 70
    12
 71
     3
 72
    12
 73
     8
 74
     0
 42
0.0000000001
 43
0.0000000001
 40
-30.46765048934617
 40
-30.46765048934617
 40
-30.46765048934617
 40
-30.46765048934617
 40
-27.11026646553744
 40
-27.11026646553744
 40
-23.7528824417287
 40
-23.7528824417287
 40
-17.03811439411124
 40
-17.03811439411124
 40
-17.03811439411124
 40
-17.03811439411124
 10
6804.054808714209
 20
102.1663245692707
 30
0.0000000001127424
 41
1.0
 10
6805.077503555525
 20
101.6823213726502
 30
0.0000000001127424
 41
1.0
 10
6806.062194214599
 20
101.1235172882489
 30
0.0000000001127424
 41
1.0
 10
6807.937184714594
 20
99.86827427258595
 30
0.0000000001127424
 41
1.0
 10
6808.827711572223
 20
99.17212890088558
 30
0.0000000001127424
 41
1.0
 10
6811.331919843053
 20
96.89834322101797
 30
0.0000000001127424
 41
1.0
 10
6812.778912093736
 20
95.13483412908408
 30
0.0000000001127424
 41
1.0
 10
6813.943231789013
 20
93.18888592964686
 30
0.0000000001127424
 41
1.0
  0
SPLINE
  5
B34D
330
18
100
AcDbEntity
  8
01
100
AcDbSpline
210
0.0
220
0.0
230
1.0
 70
     8
 71
     3
 72
    12
 73
     8
 74
     0
 42
0.0000000001
 43
0.0000000001
 40
0.0
 40
0.0
 40
0.0
 40
0.0
 40
2.006385461849148
 40
2.006385461849148
 40
6.019156385547443
 40
6.019156385547443
 40
13.37417788579176
 40
13.37417788579176
 40
13.37417788579176
 40
13.37417788579176
 10
6799.996228282944
 20
94.99741381119293
 30
0.0000000001127424
 10
6799.420484911954
 20
95.3083476630336
 30
0.0000000001127424
 10
6798.832215699093
 20
95.59629945853067
 30
0.0000000001127424
 10
6797.036046454697
 20
96.3893377201357
 30
0.0000000001127424
 10
6795.796812930515
 20
96.822325771147
 30
0.0000000001127424
 10
6792.210311880652
 20
97.76463130745924
 30
0.0000000001127424
 10
6789.80015025835
 20
98.03671151418257
 30
0.0000000001127424
 10
6787.403724750999
 20
97.95564157510762
 30
0.0000000001127424
  0
SPLINE
  5
B34E
330
18
100
AcDbEntity
  8
01
100
AcDbSpline
210
0.0
220
0.0
230
1.0
 70
     8
 71
     3
 72
    20
 73
    16
 74
     0
 42
0.0000000001
 43
0.0000000001
 40
0.0
 40
0.0
 40
0.0
 40
0.0
 40
1.958711168709224
 40
1.958711168709224
 40
3.409895362584144
 40
3.409895362584144
 40
4.861079556459064
 40
4.861079556459064
 40
7.898023732099021
 40
7.898023732099021
 40
16.46269464945192
 40
16.46269464945192
 40
25.02736556680481
 40
25.02736556680481
 40
31.62716105710886
 40
31.62716105710889
 40
31.62716105710889
 40
31.62716105710889
 10
6787.403541223295
 20
97.95563539752311
 30
0.0000000001127424
 10
6786.764727538766
 20
97.93424093077283
 30
0.0000000001127424
 10
6786.127907080114
 20
97.8881084351824
 30
0.0000000001127424
 10
6785.020263473383
 20
97.76605616189681
 30
0.0000000001127424
 10
6784.540803599706
 20
97.70298347771222
 30
0.0000000001127424
 10
6783.587061829036
 20
97.5759383179693
 30
0.0000000001127424
 10
6783.111560881589
 20
97.50865431008606
 30
0.0000000001127424
 10
6781.641284603378
 20
97.28757133507679
 30
0.0000000001127424
 10
6780.648713033985
 20
97.12099610083897
 30
0.0000000001127424
 10
6776.868902887367
 20
96.42140004337307
 30
0.0000000001127424
 10
6774.103393480445
 20
95.77148647258127
 30
0.0000000001127424
 10
6768.640211468903
 20
94.22607664611587
 30
0.0000000001127424
 10
6765.94423169993
 20
93.33133008620916
 30
0.0000000001127424
 10
6761.308365530122
 20
91.43197542501002
 30
0.0000000001127424
 10
6759.626368667807
 20
90.55418964974433
 30
0.0000000001127424
 10
6757.270993366068
 20
89.22569623382515
 30
0.0000000001127424
  0
SPLINE
  5
B34F
330
18
100
AcDbEntity
  8
01
100
AcDbSpline
210
0.0
220
0.0
230
1.0
 70
     8
 71
     3
 72
    16
 73
    12
 74
     0
 42
0.0000000001
 43
0.0000000001
 40
0.0
 40
0.0
 40
0.0
 40
0.0
 40
1.859455621533415
 40
3.616346636688536
 40
5.373329691842923
 40
7.348973919468328
 40
10.97073059486467
 40
11.8466005742208
 40
12.78037052892068
 40
13.71506173807425
 40
14.59102448367031
 40
14.59102448367031
 40
14.59102448367031
 40
14.59102448367031
 10
6684.207061485771
 20
72.93277365924132
 30
0.0000000001127424
 10
6683.671030072486
 20
73.24402019367426
 30
0.0000000001127424
 10
6682.669078599863
 20
73.91891261203182
 30
0.0000000001127424
 10
6681.32205565219
 20
75.10495614218871
 30
0.0000000001127424
 10
6680.108527610306
 20
76.47917244633209
 30
0.0000000001127424
 10
6678.740484681884
 20
78.52097201121796
 30
0.0000000001127424
 10
6677.912816298915
 20
80.53309107619498
 30
0.0000000001127424
 10
6677.500279198262
 20
82.29695651580641
 30
0.0000000001127424
 10
6677.352356684021
 20
83.20015009466806
 30
0.0000000001127424
 10
6677.258929004904
 20
84.11064218736101
 30
0.0000000001127424
 10
6677.239146456688
 20
84.71426457166035
 30
0.0000000001127424
 10
6677.239797275852
 20
85.0062448631752
 30
0.0000000001127424
  0
SPLINE
  5
B351
330
18
100
AcDbEntity
  8
01
100
AcDbSpline
210
0.0
220
0.0
230
1.0
 70
     8
 71
     3
 72
    13
 73
     9
 74
     0
 42
0.0000000001
 43
0.0000000001
 40
0.0
 40
0.0
 40
0.0
 40
0.0
 40
1.442845278600407
 40
2.986541950524756
 40
5.762890502221856
 40
8.537498273320884
 40
9.923680250718649
 40
11.30967416505033
 40
11.30967416505033
 40
11.30967416505033
 40
11.30967416505033
 10
6681.540216680893
 20
95.13615624567228
 30
0.0000000001127424
 10
6681.193586328358
 20
94.80285007665861
 30
0.0000000001127424
 10
6680.5110943768
 20
94.07603549763098
 30
0.0000000001127424
 10
6679.351811298775
 20
92.54101804440234
 30
0.0000000001127424
 10
6678.225747344446
 20
90.44774559067992
 30
0.0000000001127424
 10
6677.552575971893
 20
88.2238113100293
 30
0.0000000001127424
 10
6677.281388992636
 20
86.39253909988201
 30
0.0000000001127424
 10
6677.240456189389
 20
85.46817784489212
 30
0.0000000001127424
 10
6677.239797275852
 20
85.0062448631752
 30
0.0000000001127424
  0
SPLINE
  5
B352
330
18
100
AcDbEntity
  8
01
100
AcDbSpline
210
0.0
220
0.0
230
1.0
 70
    12
 71
     3
 72
    10
 73
     6
 74
     0
 42
0.0000000001
 43
0.0000000001
 40
-16.90023055275178
 40
-16.90023055275178
 40
-16.90023055275178
 40
-16.90023055275178
 40
-12.7232494902371
 40
-12.7232494902371
 40
-8.546268427722422
 40
-8.546268427722422
 40
-8.546268427722422
 40
-8.546268427722422
 10
6814.016305167575
 20
93.07024101163825
 30
0.0000000001127424
 41
1.0
 10
6814.775370181043
 20
91.88066571086802
 30
0.0000000001127424
 41
1.0
 10
6815.368027309303
 20
90.58288239110789
 30
0.0000000001127424
 41
1.0
 10
6816.178442686705
 20
87.86875393229548
 30
0.0000000001127424
 41
1.0
 10
6816.396256915443
 20
86.45260266445712
 30
0.0000000001127424
 41
1.0
 10
6816.418840965314
 20
85.02984065388682
 30
0.0000000001127424
 41
1.0
  0
SPLINE
  5
B353
330
18
100
AcDbEntity
  8
01
100
AcDbSpline
210
0.0
220
0.0
230
1.0
 70
    12
 71
     2
 72
     6
 73
     3
 74
     0
 42
0.0000000001
 43
0.0000000001
 40
0.0
 40
0.0
 40
0.0
 40
0.0538087302516594
 40
0.0538087302516594
 40
0.0538087302516594
 10
6813.987280081088
 20
93.11555052653512
 30
0.0000000001127424
 41
1.0
 10
6814.00183304066
 20
93.09292183297111
 30
0.0000000001127424
 41
0.999998402450402
 10
6814.016305010538
 20
93.07024125774751
 30
0.0000000001127424
 41
1.0
  0
SPLINE
  5
B354
330
18
100
AcDbEntity
  8
01
100
AcDbSpline
210
0.0
220
0.0
230
1.0
 70
     8
 71
     3
 72
    12
 73
     8
 74
     0
 42
0.0000000001
 43
0.0000000001
 40
0.0
 40
0.0
 40
0.0
 40
0.0
 40
1.030902137346003
 40
2.062975723425374
 40
4.130901567152943
 40
6.319535201692672
 40
8.496503316450662
 40
8.496503316450662
 40
8.496503316450662
 40
8.496503316450662
 10
6816.419104677059
 20
85.01804284634545
 30
0.0000000001127424
 10
6816.419015955478
 20
84.67440117158822
 30
0.0000000001127424
 10
6816.390306045567
 20
83.98677892625892
 30
0.0000000001127424
 10
6816.221470030743
 20
82.61903951517525
 30
0.0000000001127424
 10
6815.796843955941
 20
80.90246111027864
 30
0.0000000001127424
 10
6814.96015261349
 20
78.92075026170187
 30
0.0000000001127424
 10
6814.196421580282
 20
77.67748754741024
 30
0.0000000001127424
 10
6813.774025987066
 20
77.08747189227233
 30
0.0000000001127424
  0
SPLINE
  5
B355
330
18
100
AcDbEntity
  8
01
100
AcDbSpline
210
0.0
220
0.0
230
1.0
 70
    12
 71
     2
 72
     6
 73
     3
 74
     0
 42
0.0000000001
 43
0.0000000001
 40
0.0
 40
0.0
 40
0.0
 40
0.2613029595504561
 40
0.2613029595504561
 40
0.2613029595504561
 10
6796.575870105606
 20
74.76477257663646
 30
0.0000000001127424
 41
1.0
 10
6796.504583943655
 20
74.87427693364862
 30
0.0000000001127424
 41
0.9998632950503696
 10
6796.43695747434
 20
74.98607846198502
 30
0.0000000001127424
 41
1.0
  0
SPLINE
  5
B356
330
18
100
AcDbEntity
  8
01
100
AcDbSpline
210
0.0
220
0.0
230
1.0
 70
    12
 71
     2
 72
     6
 73
     3
 74
     0
 42
0.0000000001
 43
0.0000000001
 40
0.0
 40
0.0
 40
0.0
 40
3.464309003838922
 40
3.464309003838922
 40
3.464309003838922
 10
6799.781788832561
 20
71.93270702470181
 30
0.0000000001127424
 41
1.0
 10
6798.143153729219
 20
72.74872728468927
 30
0.0000000001127424
 41
0.9766483481210344
 10
6797.041902074789
 20
74.12129484225807
 30
0.0000000001127424
 41
1.0
  0
SPLINE
  5
B357
330
18
100
AcDbEntity
  8
01
100
AcDbSpline
210
0.0
220
0.0
230
1.0
 70
    12
 71
     3
 72
    14
 73
    10
 74
     0
 42
0.0000000001
 43
0.0000000001
 40
7.835519074281066
 40
7.835519074281066
 40
7.835519074281066
 40
7.835519074281066
 40
20.00339090088998
 40
20.00339090088998
 40
20.00339090088998
 40
20.0314810078104
 40
20.0314810078104
 40
20.0314810078104
 40
20.04180546928831
 40
20.04180546928831
 40
20.04180546928831
 40
20.04180546928831
 10
6769.423737803581
 20
90.62452401823157
 30
0.0000000001127424
 41
0.9806721023379735
 10
6765.337052389092
 20
90.88061529645256
 30
0.0000000001127424
 41
0.9771098932982157
 10
6761.281539467876
 20
90.42204417159155
 30
0.0000000001127424
 41
0.9835525258522245
 10
6757.378320834248
 20
89.27638735983146
 30
0.0000000001127424
 41
1.0
 10
6757.369458273963
 20
89.27378605728791
 30
0.0000000001127424
 41
1.0
 10
6757.360597248226
 20
89.27118139445338
 30
0.0000000001127424
 41
1.0
 10
6757.351736222488
 20
89.26857673161885
 30
0.0000000001127424
 41
1.0
 10
6757.348479370561
 20
89.26761939310927
 30
0.0000000001127424
 41
1.0
 10
6757.345222518634
 20
89.26666205459969
 30
0.0000000001127424
 41
1.0
 10
6757.341965666707
 20
89.26570471609011
 30
0.0000000001127424
 41
1.0
  0
SPLINE
  5
B358
330
18
100
AcDbEntity
  8
01
100
AcDbSpline
210
0.0
220
0.0
230
1.0
 70
    12
 71
     2
 72
     6
 73
     3
 74
     0
 42
0.0000000001
 43
0.0000000001
 40
0.0
 40
0.0
 40
0.0
 40
3.152310251675009
 40
3.152310251675009
 40
3.152310251675009
 10
6790.174399105184
 20
82.1271409739611
 30
0.0000000001127424
 41
1.0
 10
6788.983223091875
 20
83.16093652543805
 30
0.0000000001127424
 41
0.9989843749511076
 10
6787.703816980336
 20
84.08329954437158
 30
0.0000000001127424
 41
1.0
  0
SPLINE
  5
B359
330
18
100
AcDbEntity
  8
01
100
AcDbSpline
210
0.0
220
0.0
230
1.0
 70
    12
 71
     2
 72
     6
 73
     3
 74
     0
 42
0.0000000001
 43
0.0000000001
 40
0.0
 40
0.0
 40
0.0
 40
1.936805454221697
 40
1.936805454221697
 40
1.936805454221697
 10
6796.4325731686
 20
74.99271350313757
 30
0.0000000001127424
 41
1.0
 10
6795.898463255679
 20
75.8008039189599
 30
0.0000000001127424
 41
0.9996165736615457
 10
6795.32043835281
 20
76.57808812109397
 30
0.0000000001127424
 41
1.0
  0
SPLINE
  5
B35A
330
18
100
AcDbEntity
  8
01
100
AcDbSpline
210
0.0
220
0.0
230
1.0
 70
    12
 71
     2
 72
     6
 73
     3
 74
     0
 42
0.0000000001
 43
0.0000000001
 40
0.0
 40
0.0
 40
0.0
 40
0.0079527296058076
 40
0.0079527296058076
 40
0.0079527296058076
 10
6796.43695747434
 20
74.98607846198502
 30
0.0000000001127424
 41
1.0
 10
6796.434765699429
 20
74.98939623230854
 30
0.0000000001127424
 41
0.999999993510206
 10
6796.4325731686
 20
74.99271350313757
 30
0.0000000001127424
 41
1.0
  0
SPLINE
  5
B35B
330
18
100
AcDbEntity
  8
01
100
AcDbSpline
210
0.0
220
0.0
230
1.0
 70
     8
 71
     3
 72
    14
 73
    10
 74
     0
 42
0.0000000001
 43
0.0000000001
 40
0.3025061059899254
 40
0.3025061059899254
 40
0.3025061059899254
 40
0.3025061059899254
 40
2.241343644728573
 40
2.241343644728573
 40
6.119018722205869
 40
6.119018722205869
 40
8.57774947294747
 40
8.57774947294747
 40
9.283857971440654
 40
9.283857971440654
 40
9.283857971440654
 40
9.283857971440654
 10
6806.784493407731
 20
89.61829072817181
 30
0.0000000001127424
 10
6806.372921803129
 20
90.0788799377824
 30
0.0000000001127424
 10
6805.942971688577
 20
90.52552106968051
 30
0.0000000001127424
 10
6804.602339693343
 20
91.81919544669472
 30
0.0000000001127424
 10
6803.64069253768
 20
92.61992763570288
 30
0.0000000001127424
 10
6801.980792386832
 20
93.80707294736021
 30
0.0000000001127424
 10
6801.312457779724
 20
94.23976471270635
 30
0.0000000001127424
 10
6800.427955411575
 20
94.75672881357332
 30
0.0000000001127424
 10
6800.228857316028
 20
94.86964357907073
 30
0.0000000001127424
 10
6800.027882789989
 20
94.98022414376737
 30
0.0000000001127424
  0
SPLINE
  5
B35C
330
18
100
AcDbEntity
  8
01
100
AcDbSpline
210
0.0
220
0.0
230
1.0
 70
     8
 71
     3
 72
    10
 73
     6
 74
     0
 42
0.0000000001
 43
0.0000000001
 40
0.0
 40
0.0
 40
0.0
 40
0.0
 40
1.821916879714433
 40
1.821916879714433
 40
5.274368906185793
 40
5.274368906185793
 40
5.274368906185793
 40
5.274368906185793
 10
6806.784493407731
 20
89.61829072817181
 30
0.0000000001127424
 10
6807.360835820535
 20
88.95959727713216
 30
0.0000000001127424
 10
6807.725112431544
 20
88.50974164223862
 30
0.0000000001127424
 10
6808.728045045105
 20
87.17448739833435
 30
0.0000000001127424
 10
6809.320476264669
 20
86.25960219880017
 30
0.0000000001127424
 10
6809.839688954338
 20
85.31561012569182
 30
0.0000000001127424
  0
SPLINE
  5
B35D
330
18
100
AcDbEntity
  8
01
100
AcDbSpline
210
0.0
220
0.0
230
1.0
 70
     8
 71
     3
 72
    18
 73
    14
 74
     0
 42
0.0000000001
 43
0.0000000001
 40
-1.66172903563032
 40
-1.66172903563032
 40
-1.66172903563032
 40
-1.66172903563032
 40
-0.0315396208301583
 40
-0.0315396208301583
 40
-0.0315396208301583
 40
0.0
 40
0.0
 40
0.0
 40
1.993417746311399
 40
1.993417746311399
 40
5.980253238934196
 40
5.980253238934196
 40
7.735833865168871
 40
7.735833865168871
 40
7.735833865168871
 40
7.735833865168871
 10
6812.940209614651
 20
76.02110309687578
 30
0.0000000001127424
 10
6812.830029230872
 20
76.54209112054468
 30
0.0000000001127424
 10
6812.719848847093
 20
77.06307914421177
 30
0.0000000001127424
 10
6812.609668463312
 20
77.58406716787977
 30
0.0000000001127424
 10
6812.607536780028
 20
77.59414683382147
 30
0.0000000001127424
 10
6812.605405096741
 20
77.60422649976408
 30
0.0000000001127424
 10
6812.603268240582
 20
77.61430540167294
 30
0.0000000001127424
 10
6812.468211227262
 20
78.25132833980115
 30
0.0000000001127424
 10
6812.312490153401
 20
78.88529919818484
 30
0.0000000001127424
 10
6811.784228110097
 20
80.77208617447832
 30
0.0000000001127424
 10
6811.35034505661
 20
82.00968125363761
 30
0.0000000001127424
 10
6810.615490254724
 20
83.74115114600863
 30
0.0000000001127424
 10
6810.376083697482
 20
84.2636382217197
 30
0.0000000001127424
 10
6809.839688954338
 20
85.31561012569182
 30
0.0000000001127424
  0
ARC
  5
B35E
330
18
100
AcDbEntity
  8
01
100
AcDbCircle
 10
6670.740545209634
 20
269.5383638930234
 30
0.0000000001127424
 40
200.0
100
AcDbArc
 50
279.9336012208787
 51
288.5895767580249
  0
ARC
  5
B35F
330
18
100
AcDbEntity
  8
01
100
AcDbCircle
 10
6799.227452501424
 20
88.22312735965079
 30
0.0000000001127424
 40
18.36285052248968
100
AcDbArc
 50
309.5006571688565
 51
317.2872927305914
  0
ARC
  5
B360
330
18
100
AcDbEntity
  8
1DIM
100
AcDbCircle
 10
6767.410612648964
 20
60.692144775815
 30
0.0000000001127424
 40
30.0
100
AcDbArc
 50
85.80759793713035
 51
86.15232281185045
  0
SPLINE
  5
B362
330
18
100
AcDbEntity
  8
01
100
AcDbSpline
210
0.0
220
0.0
230
1.0
 70
     8
 71
     3
 72
    12
 73
     8
 74
     0
 42
0.0000000001
 43
0.0000000001
 40
0.0
 40
0.0
 40
0.0
 40
0.0
 40
0.2814432585024133
 40
0.5663372303519589
 40
1.139133262719584
 40
1.714870113976688
 40
2.295471640374696
 40
2.295471640374696
 40
2.295471640374696
 40
2.295471640374696
 10
6816.402715888456
 20
190.0887842440279
 30
0.0000000001127424
 10
6816.375850164584
 20
189.9988946255826
 30
0.0000000001127424
 10
6816.314017082854
 20
189.8203616920609
 30
0.0000000001127424
 10
6816.159808127393
 20
189.4729839132297
 30
0.0000000001127424
 10
6815.91165698348
 20
189.062741941244
 30
0.0000000001127424
 10
6815.535137920237
 20
188.6237662643871
 30
0.0000000001127424
 10
6815.238890236164
 20
188.3751966022583
 30
0.0000000001127424
 10
6814.802043600204
 20
188.0874701826306
 30
0.0000000001127424
  0
SPLINE
  5
B363
330
18
100
AcDbEntity
  8
01
100
AcDbSpline
210
0.0
220
0.0
230
1.0
 70
     8
 71
     3
 72
    12
 73
     8
 74
     0
 42
0.0000000001
 43
0.0000000001
 40
0.0
 40
0.0
 40
0.0
 40
0.0
 40
0.373266863721133
 40
0.7183234729015618
 40
1.361712225754347
 40
1.982511188107879
 40
2.593741048538691
 40
2.593741048538691
 40
2.593741048538691
 40
2.593741048538691
 10
6814.79408571121
 20
201.907419398377
 30
0.0000000001127424
 10
6814.98020890849
 20
201.8015044728336
 30
0.0000000001127424
 10
6815.184078613398
 20
201.6753040020467
 30
0.0000000001127424
 10
6815.548173366122
 20
201.4038126887835
 30
0.0000000001127424
 10
6815.928515526473
 20
201.0209689854601
 30
0.0000000001127424
 10
6816.256397739957
 20
200.4832203993292
 30
0.0000000001127424
 10
6816.378667744755
 20
200.0878024156846
 30
0.0000000001127424
 10
6816.413728861377
 20
199.8870894560205
 30
0.0000000001127424
  0
SPLINE
  5
B364
330
18
100
AcDbEntity
  8
01
100
AcDbSpline
210
0.0
220
0.0
230
1.0
 70
     8
 71
     3
 72
    11
 73
     7
 74
     0
 42
0.0000000001
 43
0.0000000001
 40
0.0
 40
0.0
 40
0.0
 40
0.0
 40
0.3936168557554579
 40
0.7396807209718521
 40
1.441915776095877
 40
2.786845694942128
 40
2.786845694942128
 40
2.786845694942128
 40
2.786845694942128
 10
6804.302336510831
 20
206.8833123069553
 30
0.0000000001127424
 10
6804.430373306112
 20
206.8546295474807
 30
0.0000000001127424
 10
6804.670894925566
 20
206.8004507932601
 30
0.0000000001127424
 10
6805.138495715039
 20
206.6891192597577
 30
0.0000000001127424
 10
6805.910917493704
 20
206.4896359595696
 30
0.0000000001127424
 10
6806.565193772067
 20
206.2948404330446
 30
0.0000000001127424
 10
6807.204383907016
 20
206.0794894718092
 30
0.0000000001127424
  0
SPLINE
  5
B365
330
18
100
AcDbEntity
  8
01
100
AcDbSpline
210
0.0
220
0.0
230
1.0
 70
    12
 71
     2
 72
     6
 73
     3
 74
     0
 42
0.0000000001
 43
0.0000000001
 40
0.0
 40
0.0
 40
0.0
 40
0.2553367901693145
 40
0.2553367901693145
 40
0.2553367901693145
 10
6804.053243484666
 20
206.9394369874144
 30
0.0000000001127424
 41
1.0
 10
6804.177838275644
 20
206.9115911623894
 30
0.0000000001127424
 41
0.9999984904368814
 10
6804.302335546701
 20
206.8833125236479
 30
0.0000000001127424
 41
1.0
  0
SPLINE
  5
B366
330
18
100
AcDbEntity
  8
01
100
AcDbSpline
210
0.0
220
0.0
230
1.0
 70
    12
 71
     2
 72
     6
 73
     3
 74
     0
 42
0.0000000001
 43
0.0000000001
 40
0.0
 40
0.0
 40
0.0
 40
0.5345003541368404
 40
0.5345003541368404
 40
0.5345003541368404
 10
6803.53017369294
 20
207.0493137590202
 30
0.0000000001127424
 41
1.0
 10
6803.792433446619
 20
206.9978280646474
 30
0.0000000001127424
 41
0.9999128738494927
 10
6804.053242683271
 20
206.9394371646576
 30
0.0000000001127424
 41
1.0
  0
SPLINE
  5
B367
330
18
100
AcDbEntity
  8
01
100
AcDbSpline
210
0.0
220
0.0
230
1.0
 70
    12
 71
     2
 72
     6
 73
     3
 74
     0
 42
0.0000000001
 43
0.0000000001
 40
0.0
 40
0.0
 40
0.0
 40
3.86994524178189
 40
3.86994524178189
 40
3.86994524178189
 10
6799.712163807915
 20
207.6778861200155
 30
0.0000000001127424
 41
1.0
 10
6801.630262862054
 20
207.4188399626591
 30
0.0000000001127424
 41
0.9995816012737575
 10
6803.530173214267
 20
207.0493138517013
 30
0.0000000001127424
 41
1.0
  0
SPLINE
  5
B368
330
18
100
AcDbEntity
  8
01
100
AcDbSpline
210
0.0
220
0.0
230
1.0
 70
     8
 71
     3
 72
    20
 73
    16
 74
     0
 42
0.0000000001
 43
0.0000000001
 40
0.0
 40
0.0
 40
0.0
 40
0.0
 40
3.61397819058549
 40
5.658702805711015
 40
6.578608269064039
 40
7.773400549894898
 40
8.263450332068492
 40
9.463325143397944
 40
12.58478680157911
 40
20.20972180788161
 40
22.29556388096753
 40
24.48623327757797
 40
28.74667162554054
 40
33.00486836023859
 40
37.35612897234253
 40
37.35612897234253
 40
37.35612897234253
 40
37.35612897234253
 10
6762.666089750306
 20
205.0085969948932
 30
0.0000000001127424
 10
6763.854267679742
 20
205.2071749579773
 30
0.0000000001127424
 10
6765.711727318165
 20
205.5359446534194
 30
0.0000000001127424
 10
6767.864534256365
 20
205.9534188269763
 30
0.0000000001127424
 10
6769.223340867346
 20
206.2290188488796
 30
0.0000000001127424
 10
6770.072915144256
 20
206.4082249583298
 30
0.0000000001127424
 10
6771.014537141271
 20
206.6029294745558
 30
0.0000000001127424
 10
6772.588202064151
 20
206.9128476154237
 30
0.0000000001127424
 10
6776.509014071984
 20
207.6100995034221
 30
0.0000000001127424
 10
6780.76032813577
 20
208.1182384269314
 30
0.0000000001127424
 10
6784.721135486696
 20
208.3510557518575
 30
0.0000000001127424
 10
6787.565370889128
 20
208.4466015308863
 30
0.0000000001127424
 10
6791.13633117123
 20
208.4265418503655
 30
0.0000000001127424
 10
6795.420584418534
 20
208.1800093104894
 30
0.0000000001127424
 10
6798.27459497997
 20
207.8705049765258
 30
0.0000000001127424
 10
6799.712163446095
 20
207.6778861693165
 30
0.0000000001127424
  0
SPLINE
  5
B369
330
18
100
AcDbEntity
  8
01
100
AcDbSpline
210
0.0
220
0.0
230
1.0
 70
     8
 71
     3
 72
    11
 73
     7
 74
     0
 42
0.0000000001
 43
0.0000000001
 40
0.0
 40
0.0
 40
0.0
 40
0.0
 40
0.3873900654252936
 40
0.7714216399364627
 40
1.553136113709459
 40
3.136174055585685
 40
3.136174055585685
 40
3.136174055585685
 40
3.136174055585685
 10
6807.204383907016
 20
206.0794894718092
 30
0.0000000001127424
 10
6807.326699363774
 20
206.0380782211751
 30
0.0000000001127424
 10
6807.569026042815
 20
205.9520335471971
 30
0.0000000001127424
 10
6808.052165994799
 20
205.7658232638396
 30
0.0000000001127424
 10
6808.893488423935
 20
205.4022201222842
 30
0.0000000001127424
 10
6809.592217222335
 20
205.0350914499077
 30
0.0000000001127424
 10
6810.045648102001
 20
204.7651794695921
 30
0.0000000001127424
  0
SPLINE
  5
B36A
330
18
100
AcDbEntity
  8
01
100
AcDbSpline
210
0.0
220
0.0
230
1.0
 70
    12
 71
     2
 72
     6
 73
     3
 74
     0
 42
0.0000000001
 43
0.0000000001
 40
0.0
 40
0.0
 40
0.0
 40
16.02867124039313
 40
16.02867124039313
 40
16.02867124039313
 10
6705.240326482237
 20
200.6952375801411
 30
0.0000000001127424
 41
1.0
 10
6713.255391071834
 20
200.6810109093512
 30
0.0000000001127424
 41
0.9998612181884985
 10
6721.266480546734
 20
200.9338116188392
 30
0.0000000001127424
 41
1.0
  0
SPLINE
  5
B36B
330
18
100
AcDbEntity
  8
01
100
AcDbSpline
210
0.0
220
0.0
230
1.0
 70
    12
 71
     2
 72
     6
 73
     3
 74
     0
 42
0.0000000001
 43
0.0000000001
 40
0.0
 40
0.0
 40
0.0
 40
19.01876191816507
 40
19.01876191816507
 40
19.01876191816507
 10
6724.256032318337
 20
188.9719832771862
 30
0.0000000001127424
 41
1.0
 10
6714.752194356637
 20
189.3309141439977
 30
0.0000000001127424
 41
0.9998056315227541
 10
6705.241594442907
 20
189.3148938332406
 30
0.0000000001127424
 41
1.0
  0
SPLINE
  5
B36C
330
18
100
AcDbEntity
  8
01
100
AcDbSpline
210
0.0
220
0.0
230
1.0
 70
     8
 71
     3
 72
    15
 73
    11
 74
     0
 42
0.0000000001
 43
0.0000000001
 40
0.0
 40
0.0
 40
0.0
 40
0.0
 40
2.213105414196272
 40
4.432029203426481
 40
8.644333966129535
 40
11.76154976962729
 40
12.91171903717371
 40
15.24179402686431
 40
16.5147910675512
 40
18.68221486928075
 40
18.68221486928075
 40
18.68221486928075
 40
18.68221486928075
 10
6686.563187355941
 20
201.0946456265201
 30
0.0000000001127424
 10
6687.300331278733
 20
201.0659639691758
 30
0.0000000001127424
 10
6688.776683697866
 20
201.0117722455007
 30
0.0000000001127424
 10
6691.656609403921
 20
200.9180385528271
 30
0.0000000001127424
 10
6694.838386047777
 20
200.8355144303587
 30
0.0000000001127424
 10
6697.664516583871
 20
200.7849670701307
 30
0.0000000001127424
 10
6699.863506052516
 20
200.7578985026721
 30
0.0000000001127424
 10
6701.447770422597
 20
200.7362039599921
 30
0.0000000001127424
 10
6703.371120567881
 20
200.7122278155266
 30
0.0000000001127424
 10
6704.517864816051
 20
200.7001021612296
 30
0.0000000001127424
 10
6705.240324464219
 20
200.6952375836763
 30
0.0000000001127424
  0
SPLINE
  5
B36D
330
18
100
AcDbEntity
  8
01
100
AcDbSpline
210
0.0
220
0.0
230
1.0
 70
    12
 71
     2
 72
     6
 73
     3
 74
     0
 42
0.0000000001
 43
0.0000000001
 40
0.0
 40
0.0
 40
0.0
 40
1.703649957091572
 40
1.703649957091572
 40
1.703649957091572
 10
6678.310554123022
 20
201.478245002425
 30
0.0000000001127424
 41
1.0
 10
6679.162111334217
 20
201.4568882610747
 30
0.0000000001127424
 41
0.9999999997252562
 10
6680.013669545729
 20
201.4355714427165
 30
0.0000000001127424
 41
1.0
  0
SPLINE
  5
B36E
330
18
100
AcDbEntity
  8
01
100
AcDbSpline
210
0.0
220
0.0
230
1.0
 70
    12
 71
     3
 72
     8
 73
     4
 74
     0
 42
0.0000000001
 43
0.0000000001
 40
0.1104547816295199
 40
0.1104547816295199
 40
0.1104547816295199
 40
0.1104547816295199
 40
11.11050779827743
 40
11.11050779827743
 40
11.11050779827743
 40
11.11050779827743
 10
6677.240184823946
 20
189.5048727818839
 30
0.0000000001127424
 41
1.0
 10
6677.240186432169
 20
193.1715570184861
 30
0.0000000001127424
 41
1.0
 10
6677.240187692558
 20
196.8382439316547
 30
0.0000000001127424
 41
1.0
 10
6677.240189300779
 20
200.5049281682641
 30
0.0000000001127424
 41
1.0
  0
SPLINE
  5
B36F
330
18
100
AcDbEntity
  8
01
100
AcDbSpline
210
0.0
220
0.0
230
1.0
 70
     8
 71
     3
 72
    13
 73
     9
 74
     0
 42
0.0000000001
 43
0.0000000001
 40
0.0
 40
0.0
 40
0.0
 40
0.0
 40
9.070760702555079
 40
11.99020254789402
 40
14.45935057939748
 40
18.03696774246572
 40
19.25693594060979
 40
20.0899564370509
 40
20.0899564370509
 40
20.0899564370509
 40
20.0899564370509
 10
6680.529626253954
 20
188.5872072116726
 30
0.0000000001127424
 10
6683.552271421362
 20
188.6626723646541
 30
0.0000000001127424
 10
6687.54777839332
 20
188.7616853904055
 30
0.0000000001127424
 10
6692.36612286936
 20
188.8794960969626
 30
0.0000000001127424
 10
6695.354013252343
 20
188.9505272350707
 30
0.0000000001127424
 10
6697.775612808908
 20
189.0065301868372
 30
0.0000000001127424
 10
6699.652103522862
 20
189.0442636342777
 30
0.0000000001127424
 10
6700.336339599371
 20
189.0557025467397
 30
0.0000000001127424
 10
6700.613993784022
 20
189.0590077926399
 30
0.0000000001127424
  0
SPLINE
  5
B370
330
18
100
AcDbEntity
  8
01
100
AcDbSpline
210
0.0
220
0.0
230
1.0
 70
    12
 71
     2
 72
     6
 73
     3
 74
     0
 42
0.0000000001
 43
0.0000000001
 40
0.0
 40
0.0
 40
0.0
 40
2.219648104676204
 40
2.219648104676204
 40
2.219648104676204
 10
6680.529626253954
 20
188.5872072116726
 30
0.0000000001127424
 41
1.0
 10
6679.42014985893
 20
188.5594303039752
 30
0.0000000001127424
 41
0.9999999996532017
 10
6678.310674928522
 20
188.5315949574697
 30
0.0000000001127424
 41
1.0
  0
SPLINE
  5
B371
330
18
100
AcDbEntity
  8
01
100
AcDbSpline
210
0.0
220
0.0
230
1.0
 70
     8
 71
     3
 72
    13
 73
     9
 74
     0
 42
0.0000000001
 43
0.0000000001
 40
0.0
 40
0.0
 40
0.0
 40
0.0
 40
2.263629185510714
 40
5.948847321259252
 40
7.430025640749101
 40
10.99595135053941
 40
15.65302319296405
 40
20.42588370516004
 40
20.42588370516004
 40
20.42588370516004
 40
20.42588370516004
 10
6705.241539844532
 20
189.3148937514061
 30
0.0000000001127424
 10
6704.487018638794
 20
189.3092516173647
 30
0.0000000001127424
 10
6702.504173843578
 20
189.288141165679
 30
0.0000000001127424
 10
6700.027792802932
 20
189.2497191221346
 30
0.0000000001127424
 10
6697.117241253207
 20
189.2135521054179
 30
0.0000000001127424
 10
6693.883077906985
 20
189.1513803885591
 30
0.0000000001127424
 10
6689.552800924837
 20
189.0293886794325
 30
0.0000000001127424
 10
6686.41166084022
 20
188.9115584005012
 30
0.0000000001127424
 10
6684.822126761321
 20
188.8444044547277
 30
0.0000000001127424
  0
SPLINE
  5
B372
330
18
100
AcDbEntity
  8
01
100
AcDbSpline
210
0.0
220
0.0
230
1.0
 70
    12
 71
     2
 72
     6
 73
     3
 74
     0
 42
0.0000000001
 43
0.0000000001
 40
0.0
 40
0.0
 40
0.0
 40
5.011425066494094
 40
5.011425066494094
 40
5.011425066494094
 10
6810.494169131915
 20
204.4805184549523
 30
0.0000000001127424
 41
1.0
 10
6812.615099788383
 20
203.1454607276346
 30
0.0000000001127424
 41
0.9997455663994296
 10
6814.79408571121
 20
201.907419398377
 30
0.0000000001127424
 41
1.0
  0
SPLINE
  5
B373
330
18
100
AcDbEntity
  8
01
100
AcDbSpline
210
0.0
220
0.0
230
1.0
 70
    12
 71
     2
 72
     6
 73
     3
 74
     0
 42
0.0000000001
 43
0.0000000001
 40
0.0
 40
0.0
 40
0.0
 40
0.8090909357237148
 40
0.8090909357237148
 40
0.8090909357237148
 10
6816.538051055264
 20
190.9480277193961
 30
0.0000000001127424
 41
1.0
 10
6816.483239909738
 20
190.5471892920832
 30
0.0000000001127424
 41
0.9999144452877083
 10
6816.402715888456
 20
190.0887842440279
 30
0.0000000001127424
 41
1.0
  0
SPLINE
  5
B374
330
18
100
AcDbEntity
  8
01
100
AcDbSpline
210
0.0
220
0.0
230
1.0
 70
     8
 71
     3
 72
    12
 73
     8
 74
     0
 42
0.0000000001
 43
0.0000000001
 40
0.0
 40
0.0
 40
0.0
 40
0.0
 40
0.8701567313307016
 40
1.705755924621163
 40
3.114248929190609
 40
4.259670531648617
 40
5.131223200879802
 40
5.131223200879802
 40
5.131223200879802
 40
5.131223200879802
 10
6814.802043600204
 20
188.0874701826306
 30
0.0000000001127424
 10
6814.551658185574
 20
187.9410551601004
 30
0.0000000001127424
 10
6814.060989239037
 20
187.6537679734829
 30
0.0000000001127424
 10
6813.165990198113
 20
187.1278476245152
 30
0.0000000001127424
 10
6812.193345168584
 20
186.5529543717585
 30
0.0000000001127424
 10
6811.213427407656
 20
185.966839357322
 30
0.0000000001127424
 10
6810.639231793963
 20
185.6170795908347
 30
0.0000000001127424
 10
6810.392407999017
 20
185.4638496362768
 30
0.0000000001127424
  0
SPLINE
  5
B375
330
18
100
AcDbEntity
  8
01
100
AcDbSpline
210
0.0
220
0.0
230
1.0
 70
    12
 71
     2
 72
     6
 73
     3
 74
     0
 42
0.0000000001
 43
0.0000000001
 40
0.0
 40
0.0
 40
0.0
 40
0.003006865715046
 40
0.003006865715046
 40
0.003006865715046
 10
6680.054552370686
 20
201.434966982697
 30
0.0000000001127424
 41
1.0
 10
6680.056055787913
 20
201.4349600630421
 30
0.0000000001127424
 41
0.9999997076182131
 10
6680.057559213963
 20
201.4349554427154
 30
0.0000000001127424
 41
1.0
  0
SPLINE
  5
B376
330
18
100
AcDbEntity
  8
01
100
AcDbSpline
210
0.0
220
0.0
230
1.0
 70
    12
 71
     2
 72
     6
 73
     3
 74
     0
 42
0.0000000001
 43
0.0000000001
 40
0.0
 40
0.0
 40
0.0
 40
0.0067408054992562
 40
0.0067408054992562
 40
0.0067408054992562
 10
6680.046535152442
 20
201.4350198723687
 30
0.0000000001127424
 41
1.0
 10
6680.049905434358
 20
201.4349909681096
 30
0.0000000001127424
 41
0.9999986162691825
 10
6680.053275793789
 20
201.4349732773835
 30
0.0000000001127424
 41
1.0
  0
SPLINE
  5
B377
330
18
100
AcDbEntity
  8
01
100
AcDbSpline
210
0.0
220
0.0
230
1.0
 70
    12
 71
     2
 72
     6
 73
     3
 74
     0
 42
0.0000000001
 43
0.0000000001
 40
0.0
 40
0.0
 40
0.0
 40
0.5552879829442151
 40
0.5552879829442151
 40
0.5552879829442151
 10
6681.889097720215
 20
202.6176666381543
 30
0.0000000001127424
 41
1.0
 10
6682.003288453981
 20
202.8727116673572
 30
0.0000000001127424
 41
0.9903796966394672
 10
6682.043200692284
 20
203.1492880651804
 30
0.0000000001127424
 41
1.0
  0
SPLINE
  5
B378
330
18
100
AcDbEntity
  8
01
100
AcDbSpline
 70
     0
 71
     2
 72
     6
 73
     3
 74
     0
 42
0.0000000001
 43
0.0000000001
 40
0.0
 40
0.0
 40
0.0
 40
1.577163012524763
 40
1.577163012553626
 40
1.577163012553626
 10
6704.740204618518
 20
236.004926550072
 30
0.0000000001127424
 10
6704.740204618518
 20
235.2163450438093
 30
0.0000000001127424
 10
6704.740204618518
 20
234.4277635375329
 30
0.0000000001127424
  0
SPLINE
  5
B37A
330
18
100
AcDbEntity
  8
01
100
AcDbSpline
210
0.0
220
0.0
230
1.0
 70
     8
 71
     3
 72
    16
 73
    12
 74
     0
 42
0.0000000001
 43
0.0000000001
 40
0.0
 40
0.0
 40
0.0
 40
0.0
 40
9.412206356960635
 40
9.412206356960635
 40
9.507279148445086
 40
9.507279148445086
 40
9.507279148445086
 40
9.519107031573299
 40
9.519107031573299
 40
9.519107031573299
 40
11.65469821055401
 40
11.65469821055401
 40
11.65469821055401
 40
11.65469821055401
 10
6803.524195166083
 20
204.421818774169
 30
0.0000000001127424
 10
6806.577974732263
 20
203.8204102220288
 30
0.0000000001127424
 10
6809.6027577764
 20
203.0462311624733
 30
0.0000000001127424
 10
6812.600033386234
 20
202.0970630378315
 30
0.0000000001127424
 10
6812.630000292987
 20
202.0875545247645
 30
0.0000000001127424
 10
6812.659961322075
 20
202.0780291906449
 30
0.0000000001127424
 10
6812.663688734985
 20
202.0768441561368
 30
0.0000000001127424
 10
6812.667416056926
 20
202.0756588612794
 30
0.0000000001127424
 10
6812.671143378864
 20
202.074473566423
 30
0.0000000001127424
 10
6813.344132430946
 20
201.86046187786
 30
0.0000000001127424
 10
6814.017121483028
 20
201.6464501892979
 30
0.0000000001127424
 10
6814.690110535112
 20
201.4324385007349
 30
0.0000000001127424
  0
SPLINE
  5
B37B
330
18
100
AcDbEntity
  8
01
100
AcDbSpline
210
0.0
220
0.0
230
1.0
 70
     8
 71
     3
 72
    10
 73
     6
 74
     0
 42
0.0000000001
 43
0.0000000001
 40
0.0
 40
0.0
 40
0.0
 40
0.0
 40
16.19447607402174
 40
16.19447607402174
 40
16.358056640426
 40
16.358056640426
 40
16.358056640426
 40
16.358056640426
 10
6803.526099897615
 20
204.4214467401735
 30
0.0000000001127424
 10
6798.273259515105
 20
205.4389420127236
 30
0.0000000001127424
 10
6792.899270149386
 20
205.9581202871932
 30
0.0000000001127424
 10
6787.494257291795
 20
205.9649832182004
 30
0.0000000001127424
 10
6787.44020953614
 20
205.9650000361607
 30
0.0000000001127424
 10
6787.38616430203
 20
205.9649650568908
 30
0.0000000001127424
  0
SPLINE
  5
B37C
330
18
100
AcDbEntity
  8
01
100
AcDbSpline
210
0.0
220
0.0
230
1.0
 70
     8
 71
     3
 72
    26
 73
    22
 74
     0
 42
0.0000000001
 43
0.0000000001
 40
0.0
 40
0.0
 40
0.0
 40
0.0
 40
6.375208711564601
 40
6.375208711564601
 40
9.797304398300861
 40
9.797304398300861
 40
11.38333778314955
 40
11.38333778314955
 40
12.2665684401134
 40
12.2665684401134
 40
13.14979909707724
 40
13.14979909707724
 40
14.91626041100492
 40
14.91626041100492
 40
18.44918303886029
 40
18.44918303886029
 40
21.98210566671566
 40
21.98210566671566
 40
29.77445075780777
 40
29.77445075780777
 40
32.47109755138439
 40
32.47109755138439
 40
32.47109755138439
 40
32.47109755138439
 10
6787.386171884855
 20
205.9649650618449
 30
0.0000000001127424
 10
6785.276641315948
 20
205.9635740407293
 30
0.0000000001127424
 10
6783.165350371091
 20
205.8851129657851
 30
0.0000000001127424
 10
6779.932069262126
 20
205.6498275640824
 30
0.0000000001127424
 10
6778.804363751133
 20
205.5444490361042
 30
0.0000000001127424
 10
6777.157400954797
 20
205.3583785758656
 30
0.0000000001127424
 10
6776.636415622232
 20
205.2947104572149
 30
0.0000000001127424
 10
6775.826382477437
 20
205.1880015992974
 30
0.0000000001127424
 10
6775.537795074681
 20
205.1475174906745
 30
0.0000000001127424
 10
6774.954518218907
 20
205.0658224680965
 30
0.0000000001127424
 10
6774.662885859021
 20
205.0250296728464
 30
0.0000000001127424
 10
6773.788015824044
 20
204.9027569139544
 30
0.0000000001127424
 10
6773.204849361689
 20
204.8213567911698
 30
0.0000000001127424
 10
6771.455093759923
 20
204.5773016940839
 30
0.0000000001127424
 10
6770.288645268354
 20
204.4144809186946
 30
0.0000000001127424
 10
6767.952028119886
 20
204.0953786802293
 30
0.0000000001127424
 10
6766.782624832102
 20
203.9406371922751
 30
0.0000000001127424
 10
6763.032910369726
 20
203.4599141884837
 30
0.0000000001127424
 10
6760.450157826726
 20
203.1511365203887
 30
0.0000000001127424
 10
6756.969504342354
 20
202.7683455199594
 30
0.0000000001127424
 10
6756.074300743805
 20
202.6728737684371
 30
0.0000000001127424
 10
6755.178748901797
 20
202.5804644537211
 30
0.0000000001127424
  0
SPLINE
  5
B37D
330
18
100
AcDbEntity
  8
01
100
AcDbSpline
210
0.0
220
0.0
230
1.0
 70
     8
 71
     3
 72
    10
 73
     6
 74
     0
 42
0.0000000001
 43
0.0000000001
 40
0.0
 40
0.0
 40
0.0
 40
0.0
 40
20.48229809698997
 40
20.48229809698997
 40
20.68918999695957
 40
20.68918999695957
 40
20.68918999695957
 40
20.68918999695957
 10
6755.191183584067
 20
202.581747750477
 30
0.0000000001127424
 10
6748.371623686138
 20
201.9213412792369
 30
0.0000000001127424
 10
6741.556443930936
 20
201.4104172176567
 30
0.0000000001127424
 10
6734.722562516454
 20
201.21681711158
 30
0.0000000001127424
 10
6734.595476370265
 20
200.9956515704735
 30
0.0000000001127424
 10
6721.266480546734
 20
200.9338116188392
 30
0.0000000001127424
  0
SPLINE
  5
B37E
330
18
100
AcDbEntity
  8
01
100
AcDbSpline
210
0.0
220
0.0
230
1.0
 70
     8
 71
     3
 72
    12
 73
     8
 74
     0
 42
0.0000000001
 43
0.0000000001
 40
0.0
 40
0.0
 40
0.0
 40
0.0
 40
0.075932509315378
 40
0.240414058733202
 40
2.681080570963123
 40
4.477430070244719
 40
8.325408144532984
 40
8.325408144532984
 40
8.325408144532984
 40
8.325408144532984
 10
6678.24676293075
 20
201.4798421453024
 30
0.0000000001127424
 10
6678.272061957015
 20
201.4790861847905
 30
0.0000000001127424
 10
6678.352130970878
 20
201.4756973639005
 30
0.0000000001127424
 10
6679.244643419011
 20
201.4297799250025
 30
0.0000000001127424
 10
6680.709839937865
 20
201.3537414492894
 30
0.0000000001127424
 10
6683.401768243391
 20
201.2250430361109
 30
0.0000000001127424
 10
6685.281494589812
 20
201.1444676332731
 30
0.0000000001127424
 10
6686.563187381178
 20
201.0946462855427
 30
0.0000000001127424
  0
SPLINE
  5
B37F
330
18
100
AcDbEntity
  8
01
100
AcDbSpline
210
0.0
220
0.0
230
1.0
 70
    12
 71
     2
 72
     6
 73
     3
 74
     0
 42
0.0000000001
 43
0.0000000001
 40
0.0
 40
0.0
 40
0.0
 40
0.0063331249445506
 40
0.0063331249445506
 40
0.0063331249445506
 10
6678.239944423465
 20
201.479933117379
 30
0.0000000001127424
 41
1.0
 10
6678.243111436983
 20
201.4799838021281
 30
0.0000000001127424
 41
0.9995943890850747
 10
6678.246276198979
 20
201.4798540906413
 30
0.0000000001127424
 41
1.0
  0
SPLINE
  5
B380
330
18
100
AcDbEntity
  8
01
100
AcDbSpline
210
0.0
220
0.0
230
1.0
 70
     8
 71
     3
 72
    18
 73
    14
 74
     0
 42
0.0000000001
 43
0.0000000001
 40
-30.46765048934617
 40
-30.46765048934617
 40
-30.46765048934617
 40
-30.46765048934617
 40
-28.60200470952118
 40
-28.60200470952118
 40
-24.87071314987121
 40
-24.87071314987121
 40
-17.03811439411124
 40
-17.03811439411124
 40
-17.03811439411124
 40
-16.99929497299831
 40
-16.99929497299831
 40
-16.99929497299831
 40
-15.95714145176902
 40
-15.95714145176902
 40
-15.95714145176902
 40
-15.95714145176902
 10
6804.169427290935
 20
185.7018751020723
 30
0.0000000001127424
 10
6804.741928689395
 20
185.8124351965071
 30
0.0000000001127424
 10
6805.302458329516
 20
185.9270172053302
 30
0.0000000001127424
 10
6806.943435273384
 20
186.2784286132264
 30
0.0000000001127424
 10
6807.983309521154
 20
186.5225414335137
 30
0.0000000001127424
 10
6811.003073000687
 20
187.2815409424302
 30
0.0000000001127424
 10
6812.757647794098
 20
187.7993021731991
 30
0.0000000001127424
 10
6814.124839599848
 20
188.2305493501217
 30
0.0000000001127424
 10
6814.131615587756
 20
188.2326866695848
 30
0.0000000001127424
 10
6814.138382060266
 20
188.2348218639781
 30
0.0000000001127424
 10
6814.145148532776
 20
188.2369570583724
 30
0.0000000001127424
 10
6814.326802533555
 20
188.2942788909058
 30
0.0000000001127424
 10
6814.508456534333
 20
188.3516007234393
 30
0.0000000001127424
 10
6814.690110535112
 20
188.4089225559728
 30
0.0000000001127424
  0
SPLINE
  5
B381
330
18
100
AcDbEntity
  8
01
100
AcDbSpline
210
0.0
220
0.0
230
1.0
 70
     8
 71
     3
 72
    10
 73
     6
 74
     0
 42
0.0000000001
 43
0.0000000001
 40
0.0
 40
0.0
 40
0.0
 40
0.0
 40
20.11449074215962
 40
20.11449074215962
 40
20.31766741632284
 40
20.31766741632284
 40
20.31766741632284
 40
20.31766741632284
 10
6724.256032318337
 20
188.9719832771862
 30
0.0000000001127424
 10
6741.144261567306
 20
188.5338282198372
 30
0.0000000001127424
 10
6747.822824510265
 20
188.0157725329755
 30
0.0000000001127424
 10
6754.553619152859
 20
187.3526572963192
 30
0.0000000001127424
 10
6754.620925561585
 20
187.3460120261598
 30
0.0000000001127424
 10
6754.688230423732
 20
187.3393526392711
 30
0.0000000001127424
  0
ARC
  5
B382
330
18
100
AcDbEntity
  8
1DIM
100
AcDbCircle
 10
-6754.749478424965
 20
187.9583718295526
 30
-0.0000000001127424
 40
0.62204186
210
0.0
220
0.0
230
-1.0
100
AcDbArc
 50
275.6323073610929
 51
275.6506601992464
  0
SPLINE
  5
B383
330
18
100
AcDbEntity
  8
01
100
AcDbSpline
210
0.0
220
0.0
230
1.0
 70
     8
 71
     3
 72
    22
 73
    18
 74
     0
 42
0.0000000001
 43
0.0000000001
 40
20.31766741632285
 40
20.31766741632285
 40
20.31766741632285
 40
20.31766741632285
 40
27.75984649927592
 40
27.75984649927592
 40
33.01310469893301
 40
33.01310469893301
 40
37.74681393216022
 40
37.74681393216022
 40
40.15711919756929
 40
40.15711919756929
 40
41.82022918859833
 40
41.82022918859833
 40
43.48333917962738
 40
43.48333917962738
 40
46.6073506700392
 40
46.6073506700392
 40
53.14015150591318
 40
53.14015150591318
 40
53.14015150591318
 40
53.14015150591318
 10
6754.68842870952
 20
187.339333052224
 30
0.0000000001127424
 10
6757.154116966531
 20
187.0961664333054
 30
0.0000000001127424
 10
6759.618003722011
 20
186.8346901629784
 30
0.0000000001127424
 10
6763.817676300841
 20
186.3578864409938
 30
0.0000000001127424
 10
6765.5544951141
 20
186.1516799257324
 30
0.0000000001127424
 10
6768.854241510979
 20
185.7429234903047
 30
0.0000000001127424
 10
6770.417204546928
 20
185.541813682722
 30
0.0000000001127424
 10
6772.77521087369
 20
185.2279274944813
 30
0.0000000001127424
 10
6773.570518638595
 20
185.1208946271245
 30
0.0000000001127424
 10
6774.913297537221
 20
184.9352319990658
 30
0.0000000001127424
 10
6775.46246762655
 20
184.8562313574948
 30
0.0000000001127424
 10
6776.570892009664
 20
184.7104659685756
 30
0.0000000001127424
 10
6777.124698054458
 20
184.6433165037352
 30
0.0000000001127424
 10
6778.721913401412
 20
184.4647050521371
 30
0.0000000001127424
 10
6779.766469274251
 20
184.3670398686927
 30
0.0000000001127424
 10
6782.999606725441
 20
184.1241179207673
 30
0.0000000001127424
 10
6785.193036214749
 20
184.043237849698
 30
0.0000000001127424
 10
6787.386143126176
 20
184.0445842397867
 30
0.0000000001127424
  0
SPLINE
  5
B385
330
18
100
AcDbEntity
  8
01
100
AcDbSpline
210
0.0
220
0.0
230
1.0
 70
     8
 71
     3
 72
    10
 73
     6
 74
     0
 42
0.0000000001
 43
0.0000000001
 40
0.0
 40
0.0
 40
0.0
 40
0.0
 40
16.14671611413685
 40
16.14671611413685
 40
16.30981425670389
 40
16.30981425670389
 40
16.30981425670389
 40
16.30981425670389
 10
6787.38615576341
 20
184.0436524774695
 30
0.0000000001127424
 10
6792.72096186315
 20
184.0402689578823
 30
0.0000000001127424
 10
6798.080041071657
 20
184.545971713168
 30
0.0000000001127424
 10
6803.373436620641
 20
185.5575291139203
 30
0.0000000001127424
 10
6803.426358538019
 20
185.5676948107603
 30
0.0000000001127424
 10
6804.169427290935
 20
185.7018751020723
 30
0.0000000001127424
  0
SPLINE
  5
B386
330
18
100
AcDbEntity
  8
01
100
AcDbSpline
210
0.0
220
0.0
230
1.0
 70
    12
 71
     2
 72
     6
 73
     3
 74
     0
 42
0.0000000001
 43
0.0000000001
 40
0.0
 40
0.0
 40
0.0
 40
12.90662644537231
 40
12.90662644537231
 40
12.90662644537231
 10
6800.254625171297
 20
182.6037084524969
 30
0.0000000001127424
 41
1.0
 10
6793.85012242729
 20
181.7244520886034
 30
0.0000000001127424
 41
0.9973886261488797
 10
6787.385759964973
 20
181.7770363755963
 30
0.0000000001127424
 41
1.0
  0
SPLINE
  5
B388
330
18
100
AcDbEntity
  8
01
100
AcDbSpline
210
0.0
220
0.0
230
1.0
 70
    12
 71
     2
 72
     6
 73
     3
 74
     0
 42
0.0000000001
 43
0.0000000001
 40
0.0
 40
0.0
 40
0.0
 40
3.597808024682023
 40
3.597808024682023
 40
3.597808024682023
 10
6700.613994262389
 20
189.0589136223443
 30
0.0000000001127424
 41
1.0
 10
6702.412896815662
 20
189.0645760533371
 30
0.0000000001127424
 41
0.999993785613741
 10
6704.211794577657
 20
189.0575545729416
 30
0.0000000001127424
 41
1.0
  0
SPLINE
  5
B389
330
18
100
AcDbEntity
  8
01
100
AcDbSpline
210
0.0
220
0.0
230
1.0
 70
     8
 71
     3
 72
    14
 73
    10
 74
     0
 42
0.0000000001
 43
0.0000000001
 40
0.0
 40
0.0
 40
0.0
 40
0.0
 40
0.735436010223716
 40
1.482220886697748
 40
2.934853025769868
 40
4.202924044163054
 40
6.342077458709602
 40
6.51897003011711
 40
6.589018172816895
 40
6.589018172816895
 40
6.589018172816895
 40
6.589018172816895
 10
6684.822126776013
 20
188.8444040838085
 30
0.0000000001127424
 10
6684.577199671432
 20
188.83405833298
 30
0.0000000001127424
 10
6684.083586502678
 20
188.8127441812658
 30
0.0000000001127424
 10
6683.106258435415
 20
188.7694703636007
 30
0.0000000001127424
 10
6681.951686605717
 20
188.7155710929555
 30
0.0000000001127424
 10
6680.333649872005
 20
188.6367764813385
 30
0.0000000001127424
 10
6679.140564200077
 20
188.5745494734147
 30
0.0000000001127424
 10
6678.34624111313
 20
188.5338704068918
 30
0.0000000001127424
 10
6678.263998835546
 20
188.5303736639517
 30
0.0000000001127424
 10
6678.240653934701
 20
188.5299056939512
 30
0.0000000001127424
  0
SPLINE
  5
B38B
330
18
100
AcDbEntity
  8
01
100
AcDbSpline
210
0.0
220
0.0
230
1.0
 70
    12
 71
     2
 72
     6
 73
     3
 74
     0
 42
0.0000000001
 43
0.0000000001
 40
0.0
 40
0.0
 40
0.0
 40
0.0019733878920496
 40
0.0019733878920496
 40
0.0019733878920496
 10
6816.419528919345
 20
199.8512656692628
 30
0.0000000001127424
 41
1.0
 10
6816.419399239086
 20
199.8522438058108
 30
0.0000000001127424
 41
0.9999975865019194
 10
6816.419265262075
 20
199.8532213630915
 30
0.0000000001127424
 41
1.0
  0
SPLINE
  5
B38C
330
18
100
AcDbEntity
  8
01
100
AcDbSpline
210
0.0
220
0.0
230
1.0
 70
    12
 71
     2
 72
     6
 73
     3
 74
     0
 42
0.0000000001
 43
0.0000000001
 40
0.0
 40
0.0
 40
0.0
 40
8.937022847436342
 40
8.937022847436342
 40
8.937022847436342
 10
6816.413728861377
 20
199.8870894560205
 30
0.0000000001127424
 41
1.0
 10
6817.146666561832
 20
195.4085376510902
 30
0.0000000001127424
 41
0.9889319943097061
 10
6816.538051059641
 20
190.9480277514194
 30
0.0000000001127424
 41
1.0
  0
SPLINE
  5
B38F
330
18
100
AcDbEntity
  8
01
100
AcDbSpline
210
0.0
220
0.0
230
1.0
 70
    12
 71
     3
 72
    11
 73
     7
 74
     0
 42
0.0000000001
 43
0.0000000001
 40
0.0
 40
0.0
 40
0.0
 40
0.0
 40
2.319606526625814
 40
2.319606526625814
 40
2.319606526625814
 40
2.714880695630744
 40
2.714880695630744
 40
2.714880695630744
 40
2.714880695630744
 10
6680.043766468871
 20
201.4350447718916
 30
0.0000000001127424
 41
1.0
 10
6680.86368062419
 20
201.426870073743
 30
0.0000000001127424
 41
0.8910110360493367
 10
6681.55403164565
 20
201.8692969207514
 30
0.0000000001127424
 41
0.8910110360493367
 10
6681.889097605474
 20
202.6176663818796
 30
0.0000000001127424
 41
1.0
 10
6681.939971795115
 20
202.7312938297591
 30
0.0000000001127424
 41
1.0
 10
6681.978819040387
 20
202.8465060303206
 30
0.0000000001127424
 41
1.0
 10
6682.015844181029
 20
202.9619583238846
 30
0.0000000001127424
 41
1.0
  0
SPLINE
  5
B390
330
18
100
AcDbEntity
  8
01
100
AcDbSpline
210
0.0
220
0.0
230
1.0
 70
    12
 71
     2
 72
     6
 73
     3
 74
     0
 42
0.0000000001
 43
0.0000000001
 40
0.0
 40
0.0
 40
0.0
 40
0.0408750996907026
 40
0.0408750996907026
 40
0.0408750996907026
 10
6680.054546574018
 20
201.4341526339613
 30
0.0000000001127424
 41
1.0
 10
6680.034125482978
 20
201.4349781923402
 30
0.0000000001127424
 41
0.9999837284636197
 10
6680.0136963022
 20
201.4355707112245
 30
0.0000000001127424
 41
1.0
  0
SPLINE
  5
B391
330
18
100
AcDbEntity
  8
01
100
AcDbSpline
210
0.0
220
0.0
230
1.0
 70
    24
 71
     2
 72
     6
 73
     3
 74
     0
 42
0.0000000001
 43
0.0000000001
 40
0.0
 40
0.0
 40
0.0
 40
26.99917226690047
 40
26.99917226690047
 40
26.99917226690047
 10
6677.740204618518
 20
236.004926550072
 30
0.0000000001127424
 10
6691.239790751968
 20
236.004926550072
 30
0.0000000001127424
 10
6704.739376885418
 20
236.004926550072
 30
0.0000000001127424
  0
SPLINE
  5
B392
330
18
100
AcDbEntity
  8
01
100
AcDbSpline
 70
     0
 71
     2
 72
     6
 73
     3
 74
     0
 42
0.0000000001
 43
0.0000000001
 40
-0.0000000000181782
 40
-0.0000000000083867
 40
-0.0000000000083867
 40
1.577163012549477
 40
1.577163012549477
 40
1.577163012549477
 10
6677.740204618516
 20
234.4277635375229
 30
0.0000000001127424
 10
6677.740204618516
 20
235.2163450437974
 30
0.0000000001127424
 10
6677.740204618518
 20
236.004926550072
 30
0.0000000001127424
  0
LINE
  5
B393
330
18
100
AcDbEntity
  8
01
100
AcDbLine
 10
6810.045648102001
 20
204.7651794695921
 30
0.0000000001127424
 11
6810.494169131915
 21
204.4805184549523
 31
0.0000000001127424
  0
ARC
  5
B394
330
18
100
AcDbEntity
  8
01
100
AcDbCircle
 10
6660.256939377954
 20
857.9599409431703
 30
0.0000000001127424
 40
660.9335001676399
100
AcDbArc
 50
278.4133337224316
 51
278.9136774538948
  0
ARC
  5
B395
330
18
100
AcDbEntity
  8
01
100
AcDbCircle
 10
6679.740204618516
 20
234.427763537512
 30
0.0000000001127424
 40
2.0
100
AcDbArc
 50
179.9999999999479
 51
203.6645114199841
  0
LINE
  5
B396
330
18
100
AcDbEntity
  8
01
100
AcDbLine
 10
6677.785413355461
 20
234.0049265501466
 30
0.0000000001127424
 11
6704.694995881569
 21
234.0049265501466
 31
0.0000000001127424
  0
ARC
  5
B397
330
18
100
AcDbEntity
  8
01
100
AcDbCircle
 10
6626.617344513947
 20
211.1476919279294
 30
0.0000000001127424
 40
56.0
100
AcDbArc
 50
351.5947419148335
 51
23.66451142115079
  0
LINE
  5
B398
330
18
100
AcDbEntity
  8
01
100
AcDbLine
 10
6705.240328447759
 20
200.9573338845939
 30
0.0000000001127424
 11
6702.494353831364
 21
200.9499123183477
 31
0.0000000001127424
  0
ARC
  5
B399
330
18
100
AcDbEntity
  8
01
100
AcDbCircle
 10
6755.863064725489
 20
211.1476919299375
 30
0.0000000001127424
 40
56.0
100
AcDbArc
 50
156.3354885816033
 51
188.7318836621484
  0
ARC
  5
B39A
330
18
100
AcDbEntity
  8
01
100
AcDbCircle
 10
6702.488948436065
 20
202.9499050137592
 30
0.0000000001127424
 40
2.0
100
AcDbArc
 50
188.7318836621484
 51
270.1548533571403
  0
ARC
  5
B39B
330
18
100
AcDbEntity
  8
01
100
AcDbCircle
 10
6678.239876875747
 20
200.47993311966
 30
0.0000000001127424
 40
1.0
100
AcDbArc
 50
89.99612980091135
 51
178.5677400452009
  0
ARC
  5
B39C
330
18
100
AcDbEntity
  8
01
100
AcDbCircle
 10
6678.239871459167
 20
189.5299053878171
 30
0.0000000001127424
 40
1.0
100
AcDbArc
 50
181.4344125047128
 51
270.044832550241
  0
ARC
  5
B39D
330
18
100
AcDbEntity
  8
01
100
AcDbCircle
 10
6702.740204618522
 20
234.4277635375447
 30
0.0000000001127424
 40
2.0
100
AcDbArc
 50
336.3354885816033
 51
0.0000000000521102
  0
LINE
  5
B54F
330
18
100
AcDbEntity
  8
01
100
AcDbLine
 10
6691.254593710612
 20
113.5062410188275
 30
0.0000000001127424
 11
6654.939790751968
 21
113.5062410188275
 31
0.0000000001127424
1001
ACAD
1000
DSTYLE
1002
{
1070
     3
1000
φ<>
1070
    40
1040
1.3
1070
    45
1040
0.5
1002
}
  0
LINE
  5
B550
330
18
100
AcDbEntity
  8
01
100
AcDbLine
 10
6691.239790751977
 20
56.50624486317156
 30
0.0000000001127424
 11
6654.939790751968
 21
56.50624486317157
 31
0.0000000001127424
1001
ACAD
1000
DSTYLE
1002
{
1070
     3
1000
φ<>
1070
    40
1040
1.3
1070
    45
1040
0.5
1002
}
  0
LINE
  5
B551
330
18
100
AcDbEntity
  8
01
100
AcDbLine
 10
6656.239790751968
 20
110.9062410188275
 30
0.0000000001127424
 11
6656.239790751968
 21
59.10624486317157
 31
0.0000000001127424
1001
ACAD
1000
DSTYLE
1002
{
1070
     3
1000
φ<>
1070
    40
1040
1.3
1070
    45
1040
0.5
1002
}
  0
SPLINE
  5
B555
330
18
100
AcDbEntity
  8
01
100
AcDbSpline
210
0.0
220
0.0
230
1.0
 70
    12
 71
     3
 72
     8
 73
     4
 74
     0
 42
0.000000001
 43
0.0000000001
 40
0.0
 40
0.0
 40
0.0
 40
0.0
 40
0.6667271429746832
 40
0.6667271429746832
 40
0.6667271429746832
 40
0.6667271429746832
 10
6580.072441057784
 20
87.97699514273427
 30
0.0000000001127424
 41
1.0
 10
6580.012403934081
 20
88.19097521243293
 30
0.0000000001127424
 41
0.9999949274729283
 10
6579.953201995824
 20
88.40518785668519
 30
0.0000000001127424
 41
0.9999949274729276
 10
6579.894836143925
 20
88.61962981569286
 30
0.0000000001127424
 41
1.0
  0
SPLINE
  5
B556
330
18
100
AcDbEntity
  8
01
100
AcDbSpline
210
0.0
220
0.0
230
1.0
 70
    12
 71
     3
 72
    12
 73
     8
 74
     0
 42
0.000000001
 43
0.0000000001
 40
0.6667271429746832
 40
0.6667271429746832
 40
0.6667271429746832
 40
0.6667271429746832
 40
1.027058993357056
 40
1.380506180017902
 40
2.134967071477019
 40
2.983864171051231
 40
3.359228561760846
 40
3.359228561760846
 40
3.359228561760846
 40
3.359228561760846
 10
6579.894836143925
 20
88.61962981569286
 30
0.0000000001127424
 41
1.0
 10
6579.863449882068
 20
88.73556373928932
 30
0.0000000001127424
 41
1.0
 10
6579.80116611817
 20
88.96520283583686
 30
0.0000000001127424
 41
1.0
 10
6579.676483559455
 20
89.43845767609946
 30
0.0000000001127424
 41
1.0
 10
6579.512370090039
 20
90.06976495740946
 30
0.0000000001127424
 41
1.0
 10
6579.356486252958
 20
90.71066582964431
 30
0.0000000001127424
 41
1.0
 10
6579.2606453761
 20
91.10733602429991
 30
0.0000000001127424
 41
1.0
 10
6579.214875505797
 20
91.32211321581872
 30
0.0000000001127424
 41
1.0
  0
SPLINE
  5
B557
330
18
100
AcDbEntity
  8
01
100
AcDbSpline
210
0.0
220
0.0
230
1.0
 70
    12
 71
     3
 72
     8
 73
     4
 74
     0
 42
0.000000001
 43
0.0000000001
 40
0.0
 40
0.0
 40
0.0
 40
0.0
 40
0.0835804630210002
 40
0.0835804630210002
 40
0.0835804630210002
 40
0.0835804630210002
 10
6804.054808714209
 20
102.1663245692707
 30
0.0000000001127424
 41
1.0
 10
6804.029629451514
 20
102.1782490715595
 30
0.0000000001127424
 41
0.9999989373141727
 10
6804.004428937607
 20
102.1901285969516
 30
0.0000000001127424
 41
0.999998937314172
 10
6803.979207252829
 20
102.2019631075755
 30
0.0000000001127424
 41
1.0
  0
SPLINE
  5
B558
330
18
100
AcDbEntity
  8
01
100
AcDbSpline
210
0.0
220
0.0
230
1.0
 70
    12
 71
     3
 72
    12
 73
     8
 74
     0
 42
0.000000001
 43
0.0000000001
 40
0.0835804630210002
 40
0.0835804630210002
 40
0.0835804630210002
 40
0.0835804630210002
 40
1.09327972305943
 40
2.209732281493759
 40
4.339224692538367
 40
8.609255097315495
 40
17.18672039506663
 40
17.18672039506663
 40
17.18672039506663
 40
17.18672039506663
 10
6803.979207252829
 20
102.2019631075755
 30
0.0000000001127424
 41
1.0
 10
6803.674418287634
 20
102.3447669818224
 30
0.0000000001127424
 41
1.0
 10
6803.02713718459
 20
102.6334867283485
 30
0.0000000001127424
 41
1.0
 10
6801.71665572498
 20
103.1770355131275
 30
0.0000000001127424
 41
1.0
 10
6799.362168365751
 20
104.0359701693369
 30
0.0000000001127424
 41
1.0
 10
6794.536111039353
 20
105.3453580270025
 30
0.0000000001127424
 41
1.0
 10
6790.243872133195
 20
105.7452491619633
 30
0.0000000001127424
 41
1.0
 10
6787.38536868972
 20
105.6798192294582
 30
0.0000000001127424
 41
1.0
  0
SPLINE
  5
B559
330
18
100
AcDbEntity
  8
01
100
AcDbSpline
210
0.0
220
0.0
230
1.0
 70
     8
 71
     3
 72
    15
 73
    11
 74
     0
 42
0.000000001
 43
0.0000000001
 40
0.0
 40
0.0
 40
0.0
 40
0.0
 40
0.9909067118052614
 40
2.179617780359669
 40
4.362766464228326
 40
6.353729930132879
 40
6.951386168824295
 40
7.947650071144875
 40
8.335367335264944
 40
9.275241193963915
 40
9.275241193963915
 40
9.275241193963915
 40
9.275241193963915
 10
6746.177394631468
 20
92.97486032011057
 30
0.0000000001127424
 10
6746.491229903459
 20
93.07785510038502
 30
0.0000000001127424
 10
6747.17963338538
 20
93.31021794626577
 30
0.0000000001127424
 10
6748.548842255312
 20
93.80047684611236
 30
0.0000000001127424
 10
6750.214273978178
 20
94.45081253394073
 30
0.0000000001127424
 10
6751.675164018066
 20
95.0804693652617
 30
0.0000000001127424
 10
6752.762119000137
 20
95.57695895465531
 30
0.0000000001127424
 10
6753.358680518248
 20
95.86062141202092
 30
0.0000000001127424
 10
6754.061409131094
 20
96.18650862436607
 30
0.0000000001127424
 10
6754.463790484953
 20
96.37070052571198
 30
0.0000000001127424
 10
6754.749085871779
 20
96.50015104965951
 30
0.0000000001127424
  0
SPLINE
  5
B55A
330
18
100
AcDbEntity
  8
01
100
AcDbSpline
210
0.0
220
0.0
230
1.0
 70
     8
 71
     3
 72
    15
 73
    11
 74
     0
 42
0.000000001
 43
0.0000000001
 40
9.275241193963915
 40
9.275241193963915
 40
9.275241193963915
 40
9.275241193963915
 40
14.4113904085767
 40
18.68602729936651
 40
27.75870971081969
 40
32.58558834591094
 40
35.07375042408801
 40
36.44893877468319
 40
37.40259515454989
 40
43.3527299428039
 40
43.3527299428039
 40
43.3527299428039
 40
43.3527299428039
 10
6754.749085871779
 20
96.50015104965951
 30
0.0000000001127424
 10
6756.308251325474
 20
97.20733054833818
 30
0.0000000001127424
 10
6759.192082867923
 20
98.44357679510358
 30
0.0000000001127424
 10
6764.944799286321
 20
100.6520812810877
 30
0.0000000001127424
 10
6770.715109806853
 20
102.5110889517646
 30
0.0000000001127424
 10
6776.003828992045
 20
103.8826767898345
 30
0.0000000001127424
 10
6778.828676449442
 20
104.5247243233525
 30
0.0000000001127424
 10
6780.399497293627
 20
104.8574447246656
 30
0.0000000001127424
 10
6783.105701936156
 20
105.3989139074447
 30
0.0000000001127424
 10
6785.402691369422
 20
105.6338690285411
 30
0.0000000001127424
 10
6787.38536868972
 20
105.6798192294582
 30
0.0000000001127424
  0
SPLINE
  5
B55B
330
18
100
AcDbEntity
  8
01
100
AcDbSpline
210
0.0
220
0.0
230
1.0
 70
    12
 71
     2
 72
     6
 73
     3
 74
     0
 42
0.000000001
 43
0.0000000001
 40
0.0
 40
0.0
 40
0.0
 40
0.8655573246127151
 40
0.8655573246127151
 40
0.8655573246127151
 10
6705.239935894573
 20
72.53635372108602
 30
0.0000000001127424
 41
1.0
 10
6704.813644185886
 20
72.4616989403512
 30
0.0000000001127424
 41
0.9999976509337996
 10
6704.387032852597
 20
72.38889284519882
 30
0.0000000001127424
 41
1.0
  0
SPLINE
  5
B55C
330
18
100
AcDbEntity
  8
01
100
AcDbSpline
210
0.0
220
0.0
230
1.0
 70
    12
 71
     2
 72
     6
 73
     3
 74
     0
 42
0.000000001
 43
0.0000000001
 40
0.8655573246127151
 40
0.8655573246127151
 40
0.8655573246127151
 40
5.40539614956201
 40
5.40539614956201
 40
5.40539614956201
 10
6704.387032852597
 20
72.38889284519882
 30
0.0000000001127424
 41
1.0
 10
6702.149352832821
 20
72.00710767047622
 30
0.0000000001127424
 41
0.9999363009788398
 10
6699.903625158086
 20
71.67592946848072
 30
0.0000000001127424
 41
1.0
  0
SPLINE
  5
B55D
330
18
100
AcDbEntity
  8
01
100
AcDbSpline
210
0.0
220
0.0
230
1.0
 70
    12
 71
     3
 72
     8
 73
     4
 74
     0
 42
0.000000001
 43
0.0000000001
 40
0.0
 40
0.0
 40
0.0
 40
0.0
 40
28.93631830401828
 40
28.93631830401828
 40
28.93631830401828
 40
28.93631830401828
 10
6705.240328447759
 20
200.9573338845939
 30
0.0000000001127424
 41
1.0
 10
6714.886707032183
 20
201.0364695551079
 30
0.0000000001127424
 41
0.9997380217577037
 10
6724.527076591488
 20
201.3859792236717
 30
0.0000000001127424
 41
0.9997380217577038
 10
6734.153860424456
 20
202.0055881984999
 30
0.0000000001127424
 41
1.0
  0
SPLINE
  5
B55E
330
18
100
AcDbEntity
  8
01
100
AcDbSpline
210
0.0
220
0.0
230
1.0
 70
    12
 71
     3
 72
    14
 73
    10
 74
     0
 42
0.000000001
 43
0.0000000001
 40
28.93631830401828
 40
28.93631830401828
 40
28.93631830401828
 40
28.93631830401828
 40
32.16262949009032
 40
35.65990944796282
 40
37.39864711596649
 40
39.13115134201431
 40
42.43549037533029
 40
46.99291252218782
 40
51.84742123004608
 40
51.84742123004608
 40
51.84742123004608
 40
51.84742123004608
 10
6734.153860424456
 20
202.0055881984999
 30
0.0000000001127424
 41
1.0
 10
6735.227062210481
 20
202.0748096348634
 30
0.0000000001127424
 41
1.0
 10
6737.463227573453
 20
202.2253014412536
 30
0.0000000001127424
 41
1.0
 10
6740.276213017627
 20
202.4347897990147
 30
0.0000000001127424
 41
1.0
 10
6742.591846060297
 20
202.6179390677626
 30
0.0000000001127424
 41
1.0
 10
6744.84239652728
 20
202.8072584325519
 30
0.0000000001127424
 41
1.0
 10
6748.02871817604
 20
203.0821987914223
 30
0.0000000001127424
 41
1.0
 10
6752.244810949309
 20
203.5223055190409
 30
0.0000000001127424
 41
1.0
 10
6755.357127258625
 20
203.9192674622627
 30
0.0000000001127424
 41
1.0
 10
6756.960264812691
 20
204.1392021364909
 30
0.0000000001127424
 41
1.0
  0
SPLINE
  5
B55F
330
18
100
AcDbEntity
  8
01
100
AcDbSpline
210
0.0
220
0.0
230
1.0
 70
    12
 71
     3
 72
    18
 73
    14
 74
     0
 42
0.000000001
 43
0.0000000001
 40
0.0
 40
0.0
 40
0.0
 40
0.0
 40
1.192545499527317
 40
2.449983782935909
 40
3.437342236517618
 40
4.852121903753034
 40
5.987323880028718
 40
7.125337436875524
 40
8.266269853952442
 40
9.409902389727666
 40
11.27424710098435
 40
15.02818452691016
 40
22.91110135985678
 40
22.91110135985678
 40
22.91110135985678
 40
22.91110135985678
 10
6756.960260037476
 20
185.8705906030054
 30
0.0000000001127424
 41
1.0
 10
6756.566462726541
 20
185.9248318708314
 30
0.0000000001127424
 41
1.0
 10
6755.757108356845
 20
186.0338521265121
 30
0.0000000001127424
 41
1.0
 10
6754.620812661951
 20
186.1810080606219
 30
0.0000000001127424
 41
1.0
 10
6753.410303928231
 20
186.3317763772839
 30
0.0000000001127424
 41
1.0
 10
6752.239466315104
 20
186.4712837160832
 30
0.0000000001127424
 41
1.0
 10
6751.017896906607
 20
186.6092568946242
 30
0.0000000001127424
 41
1.0
 10
6749.886350309644
 20
186.7307818898416
 30
0.0000000001127424
 41
1.0
 10
6748.751378347835
 20
186.8465712216585
 30
0.0000000001127424
 41
1.0
 10
6747.374734076704
 20
186.9787808852961
 30
0.0000000001127424
 41
1.0
 10
6745.129744446142
 20
187.1798629320374
 30
0.0000000001127424
 41
1.0
 10
6740.645117841617
 20
187.5567100560584
 30
0.0000000001127424
 41
1.0
 10
6736.776068644393
 20
187.8354307854788
 30
0.0000000001127424
 41
1.0
 10
6734.153859422564
 20
188.0042298022427
 30
0.0000000001127424
 41
1.0
  0
SPLINE
  5
B560
330
18
100
AcDbEntity
  8
01
100
AcDbSpline
210
0.0
220
0.0
230
1.0
 70
    12
 71
     3
 72
     8
 73
     4
 74
     0
 42
0.000000001
 43
0.0000000001
 40
22.91110135985678
 40
22.91110135985678
 40
22.91110135985678
 40
22.91110135985678
 40
51.84741977580074
 40
51.84741977580074
 40
51.84741977580074
 40
51.84741977580074
 10
6734.153859422564
 20
188.0042298022427
 30
0.0000000001127424
 41
1.0
 10
6724.527076389257
 20
188.6238524598439
 30
0.0000000001127424
 41
0.9997380127353647
 10
6714.886707077001
 20
188.9733711739691
 30
0.0000000001127424
 41
0.999738012735365
 10
6705.240328447759
 20
189.0525112362639
 30
0.0000000001127424
 41
1.0
  0
SPLINE
  5
B561
330
18
100
AcDbEntity
  8
01
100
AcDbSpline
210
0.0
220
0.0
230
1.0
 70
    12
 71
     3
 72
    20
 73
    16
 74
     0
 42
0.000000001
 43
0.0000000001
 40
0.0
 40
0.0
 40
0.0
 40
0.0
 40
2.823963404279791
 40
5.421570450642835
 40
10.90075717819617
 40
12.87895648108865
 40
15.04493333970837
 40
16.51264247302383
 40
17.09771778316821
 40
18.26360008737222
 40
18.99071986212419
 40
20.68080198717725
 40
24.12200473053288
 40
27.32400221376073
 40
30.66459316192836
 40
30.66459316192836
 40
30.66459316192836
 40
30.66459316192836
 10
6787.385759964973
 20
181.7770363755963
 30
0.0000000001127424
 41
1.0
 10
6786.444509534476
 20
181.7856178927505
 30
0.0000000001127424
 41
1.0
 10
6784.637496364976
 20
181.8262073896867
 30
0.0000000001127424
 41
1.0
 10
6781.009020258125
 20
182.0265035985203
 30
0.0000000001127424
 41
1.0
 10
6777.673472519782
 20
182.3723478099419
 30
0.0000000001127424
 41
1.0
 10
6774.49905940089
 20
182.8343246867526
 30
0.0000000001127424
 41
1.0
 10
6772.65398031025
 20
183.1434823674199
 30
0.0000000001127424
 41
1.0
 10
6771.271115332571
 20
183.3988095807636
 30
0.0000000001127424
 41
1.0
 10
6770.218253493455
 20
183.6053096337109
 30
0.0000000001127424
 41
1.0
 10
6769.408824488681
 20
183.7700192866496
 30
0.0000000001127424
 41
1.0
 10
6768.237020539906
 20
184.0010996055626
 30
0.0000000001127424
 41
1.0
 10
6766.319005937619
 20
184.3681046569536
 30
0.0000000001127424
 41
1.0
 10
6763.584412431248
 20
184.8564750133237
 30
0.0000000001127424
 41
1.0
 10
6760.299453552525
 20
185.3900969297974
 30
0.0000000001127424
 41
1.0
 10
6758.141673194583
 20
185.7070387809863
 30
0.0000000001127424
 41
1.0
 10
6757.038667478233
 20
185.8597742901557
 30
0.0000000001127424
 41
1.0
  0
SPLINE
  5
B562
330
18
100
AcDbEntity
  8
01
100
AcDbSpline
210
0.0
220
0.0
230
1.0
 70
    12
 71
     3
 72
     8
 73
     4
 74
     0
 42
0.000000001
 43
0.0000000001
 40
30.66459316192836
 40
30.66459316192836
 40
30.66459316192836
 40
30.66459316192836
 40
30.74374314280701
 40
30.74374314280701
 40
30.74374314280701
 40
30.74374314280701
 10
6757.038667478233
 20
185.8597742901557
 30
0.0000000001127424
 41
1.0
 10
6757.012532386421
 20
185.8633849586158
 30
0.0000000001127424
 41
0.9999999866477597
 10
6756.986396572487
 20
185.8669903962809
 30
0.0000000001127424
 41
0.9999999866477594
 10
6756.960260037476
 20
185.8705906030054
 30
0.0000000001127424
 41
1.0
  0
SPLINE
  5
B563
330
18
100
AcDbEntity
  8
01
100
AcDbSpline
210
0.0
220
0.0
230
1.0
 70
    12
 71
     2
 72
     6
 73
     3
 74
     0
 42
0.000000001
 43
0.0000000001
 40
0.0
 40
0.0
 40
0.0
 40
0.1735895441887995
 40
0.1735895441887995
 40
0.1735895441887995
 10
6705.240328447759
 20
189.0525112362639
 30
0.0000000001127424
 41
1.0
 10
6705.153535187772
 20
189.0530237089642
 30
0.0000000001127424
 41
0.9999999856198043
 10
6705.066741758958
 20
189.0535067432902
 30
0.0000000001127424
 41
1.0
  0
SPLINE
  5
B564
330
18
100
AcDbEntity
  8
01
100
AcDbSpline
210
0.0
220
0.0
230
1.0
 70
    12
 71
     2
 72
     6
 73
     3
 74
     0
 42
0.000000001
 43
0.0000000001
 40
0.1735895441887995
 40
0.1735895441887995
 40
0.1735895441887995
 40
1.028546413584553
 40
1.028546413584553
 40
1.028546413584553
 10
6705.066741758958
 20
189.0535067432902
 30
0.0000000001127424
 41
1.0
 10
6704.639269911693
 20
189.055898880878
 30
0.0000000001127424
 41
0.9999996290012501
 10
6704.211794577657
 20
189.0575545729416
 30
0.0000000001127424
 41
1.0
  0
SPLINE
  5
B565
330
18
100
AcDbEntity
  8
01
100
AcDbSpline
210
0.0
220
0.0
230
1.0
 70
    12
 71
     3
 72
     8
 73
     4
 74
     0
 42
0.000000001
 43
0.0000000001
 40
0.0
 40
0.0
 40
0.0
 40
0.0
 40
0.2103245486187653
 40
0.2103245486187653
 40
0.2103245486187653
 40
0.2103245486187653
 10
6807.389764058818
 20
184.1049018573167
 30
0.0000000001127424
 41
1.0
 10
6807.32329513832
 20
184.0826067092667
 30
0.0000000001127424
 41
0.9999931410419975
 10
6807.256725767273
 20
184.0606133044066
 30
0.0000000001127424
 41
0.9999931410419978
 10
6807.190057315467
 20
184.0389220952957
 30
0.0000000001127424
 41
1.0
  0
SPLINE
  5
B566
330
18
100
AcDbEntity
  8
01
100
AcDbSpline
210
0.0
220
0.0
230
1.0
 70
    12
 71
     3
 72
    12
 73
     8
 74
     0
 42
0.000000001
 43
0.0000000001
 40
0.2103245486187653
 40
0.2103245486187653
 40
0.2103245486187653
 40
0.2103245486187653
 40
4.690246209719758
 40
4.690246209719758
 40
6.93281760976901
 40
6.93281760976901
 40
9.192148187755555
 40
9.192148187755555
 40
9.192148187755555
 40
9.192148187755555
 10
6807.190057315467
 20
184.0389220952957
 30
0.0000000001127424
 41
1.0
 10
6806.218343435034
 20
183.7221916997642
 30
0.0000000001127424
 41
1.0
 10
6805.146900225029
 20
183.4394596543125
 30
0.0000000001127424
 41
1.0
 10
6803.416292046133
 20
183.0790424230081
 30
0.0000000001127424
 41
1.0
 10
6802.821058266563
 20
182.9698190782547
 30
0.0000000001127424
 41
1.0
 10
6801.583060230743
 20
182.7718467766508
 30
0.0000000001127424
 41
1.0
 10
6800.946120922796
 20
182.6842527066365
 30
0.0000000001127424
 41
1.0
 10
6800.254625171297
 20
182.6037084524969
 30
0.0000000001127424
 41
1.0
  0
SPLINE
  5
B567
330
18
100
AcDbEntity
  8
01
100
AcDbSpline
210
0.0
220
0.0
230
1.0
 70
    12
 71
     3
 72
     8
 73
     4
 74
     0
 42
0.000000001
 43
0.0000000001
 40
0.0
 40
0.0
 40
0.0
 40
0.0
 40
5.276995864227518
 40
5.276995864227518
 40
5.276995864227518
 40
5.276995864227518
 10
6807.389764058818
 20
184.1049018573167
 30
0.0000000001127424
 41
1.0
 10
6808.517521631333
 20
184.4832973846942
 30
0.0000000001127424
 41
1.0
 10
6809.504260537518
 20
184.9228965943448
 30
0.0000000001127424
 41
1.0
 10
6810.317035843003
 20
185.4175106542061
 30
0.0000000001127424
 41
1.0
  0
SPLINE
  5
B568
330
18
100
AcDbEntity
  8
01
100
AcDbSpline
210
0.0
220
0.0
230
1.0
 70
    12
 71
     3
 72
     8
 73
     4
 74
     0
 42
0.000000001
 43
0.0000000001
 40
5.276995864227518
 40
5.276995864227518
 40
5.276995864227518
 40
5.276995864227518
 40
5.365473663314273
 40
5.365473663314273
 40
5.365473663314273
 40
5.365473663314273
 10
6810.317035843003
 20
185.4175106542061
 30
0.0000000001127424
 41
1.0
 10
6810.342232415809
 20
185.4328388169852
 30
0.0000000001127424
 41
0.9999926209010606
 10
6810.367356590474
 20
185.4482853603777
 30
0.0000000001127424
 41
0.9999926209010606
 10
6810.392407810814
 20
185.4638499424373
 30
0.0000000001127424
 41
1.0
  0
LINE
  5
B569
330
18
100
AcDbEntity
  8
01
  6
BYBLOCK
100
AcDbLine
 10
6655.543122857968
 20
110.9062410188275
 30
0.0000000001127424
 11
6656.239790751968
 21
113.5062410188275
 31
0.0000000001127424
  0
LINE
  5
B56A
330
18
100
AcDbEntity
  8
01
  6
BYBLOCK
100
AcDbLine
 10
6656.239790751968
 20
113.5062410188275
 30
0.0000000001127424
 11
6656.936458645968
 21
110.9062410188275
 31
0.0000000001127424
  0
LINE
  5
B56B
330
18
100
AcDbEntity
  8
01
  6
BYBLOCK
100
AcDbLine
 10
6656.239790751968
 20
113.5062410188275
 30
0.0000000001127424
 11
6656.239790751968
 21
110.9062410188275
 31
0.0000000001127424
  0
LINE
  5
B56C
330
18
100
AcDbEntity
  8
01
  6
BYBLOCK
100
AcDbLine
 10
6656.936458645968
 20
59.10624486317157
 30
0.0000000001127424
 11
6656.239790751968
 21
56.50624486317157
 31
0.0000000001127424
  0
LINE
  5
B56D
330
18
100
AcDbEntity
  8
01
  6
BYBLOCK
100
AcDbLine
 10
6656.239790751968
 20
56.50624486317157
 30
0.0000000001127424
 11
6655.543122857968
 21
59.10624486317157
 31
0.0000000001127424
  0
LINE
  5
B56E
330
18
100
AcDbEntity
  8
01
  6
BYBLOCK
100
AcDbLine
 10
6656.239790751968
 20
56.50624486317157
 30
0.0000000001127424
 11
6656.239790751968
 21
59.10624486317157
 31
0.0000000001127424
  0
TEXT
  5
B56F
330
18
100
AcDbEntity
  8
01
  6
CONTINUOUS
100
AcDbText
 10
6655.329790751968
 20
76.52236695657666
 30
0.0000000001127424
 40
4.55
  1
φ57
 50
90.0
100
AcDbText
1001
ACAD
1000
DSTYLE
1002
{
1070
     3
1000
φ<>
1070
    40
1040
1.3
1070
    45
1040
0.5
1002
}
  0
LINE
  5
B570
330
18
100
AcDbEntity
  8
1DIM
100
AcDbLine
 10
6691.239790751968
 20
223.504926550072
 30
0.0000000001127424
 11
6691.239790751968
 21
158.704926550072
 31
0.0000000001127424
1001
ACAD
1000
DSTYLE
1002
{
1070
    40
1040
1.3
1070
    45
1040
0.5
1002
}
  0
LINE
  5
B571
330
18
100
AcDbEntity
  8
1DIM
100
AcDbLine
 10
6816.812322974292
 20
195.004926550072
 30
0.0000000001127424
 11
6816.812322974292
 21
158.704926550072
 31
0.0000000001127424
1001
ACAD
1000
DSTYLE
1002
{
1070
    40
1040
1.3
1070
    45
1040
0.5
1002
}
  0
LINE
  5
B572
330
18
100
AcDbEntity
  8
1DIM
100
AcDbLine
 10
6693.839790751968
 20
160.004926550072
 30
0.0000000001127424
 11
6814.212322974292
 21
160.004926550072
 31
0.0000000001127424
1001
ACAD
1000
DSTYLE
1002
{
1070
    40
1040
1.3
1070
    45
1040
0.5
1002
}
  0
LINE
  5
B576
330
18
100
AcDbEntity
  8
1DIM
100
AcDbLine
 10
6677.240184823946
 20
189.5048727818848
 30
0.0000000001127424
 11
6677.240184823946
 21
148.704926550072
 31
0.0000000001127424
1001
ACAD
1000
DSTYLE
1002
{
1070
    40
1040
1.3
1070
    45
1040
0.5
1002
}
  0
LINE
  5
B577
330
18
100
AcDbEntity
  8
1DIM
100
AcDbLine
 10
6816.812322974292
 20
195.0030277193964
 30
0.0000000001127424
 11
6816.812322974292
 21
148.704926550072
 31
0.0000000001127424
1001
ACAD
1000
DSTYLE
1002
{
1070
    40
1040
1.3
1070
    45
1040
0.5
1002
}
  0
LINE
  5
B578
330
18
100
AcDbEntity
  8
1DIM
100
AcDbLine
 10
6679.840184823946
 20
150.004926550072
 30
0.0000000001127424
 11
6814.212322974292
 21
150.004926550072
 31
0.0000000001127424
1001
ACAD
1000
DSTYLE
1002
{
1070
    40
1040
1.3
1070
    45
1040
0.5
1002
}
  0
LINE
  5
B57C
330
18
100
AcDbEntity
  8
1DIM
100
AcDbLine
 10
6555.741931750808
 20
73.50846417106823
 30
0.0000000001127424
 11
6555.741930797134
 21
73.51507885612682
 31
0.0000000001127424
  0
LINE
  5
B57D
330
18
100
AcDbEntity
  8
1DIM
100
AcDbLine
 10
6788.321421149614
 20
106.4705124394468
 30
0.0000000001127424
 11
6838.098854143024
 21
106.4705124394468
 31
0.0000000001127424
1001
ACAD
1000
DSTYLE
1002
{
1070
    40
1040
1.3
1070
   271
1070
     1
1002
}
  0
LINE
  5
B57E
330
18
100
AcDbEntity
  8
1DIM
100
AcDbLine
 10
6803.342186521832
 20
70.97051243944588
 30
0.0000000001127424
 11
6838.098854143024
 21
70.97051243944587
 31
0.0000000001127424
1001
ACAD
1000
DSTYLE
1002
{
1070
    40
1040
1.3
1070
   271
1070
     1
1002
}
  0
LINE
  5
B57F
330
18
100
AcDbEntity
  8
1DIM
100
AcDbLine
 10
6836.798854143024
 20
103.8705124394468
 30
0.0000000001127424
 11
6836.798854143024
 21
73.57051243944586
 31
0.0000000001127424
1001
ACAD
1000
DSTYLE
1002
{
1070
    40
1040
1.3
1070
   271
1070
     1
1002
}
  0
LINE
  5
B583
330
18
100
AcDbEntity
  8
1DIM
100
AcDbLine
 10
6788.869516988696
 20
208.4299653262269
 30
0.0000000001127424
 11
6838.098854143024
 21
208.4299653262269
 31
0.0000000001127424
1001
ACAD
1000
DSTYLE
1002
{
1070
    40
1040
1.3
1070
    45
1040
0.5
1002
}
  0
LINE
  5
B584
330
18
100
AcDbEntity
  8
1DIM
100
AcDbLine
 10
6793.994938749316
 20
245.004926550072
 30
0.0000000001127424
 11
6838.098854143024
 21
245.004926550072
 31
0.0000000001127424
1001
ACAD
1000
DSTYLE
1002
{
1070
    40
1040
1.3
1070
    45
1040
0.5
1002
}
  0
LINE
  5
B585
330
18
100
AcDbEntity
  8
1DIM
100
AcDbLine
 10
6836.798854143024
 20
211.0299653262269
 30
0.0000000001127424
 11
6836.798854143024
 21
242.404926550072
 31
0.0000000001127424
1001
ACAD
1000
DSTYLE
1002
{
1070
    40
1040
1.3
1070
    45
1040
0.5
1002
}
  0
LINE
  5
B589
330
18
100
AcDbEntity
  8
1DIM
100
AcDbLine
 10
6788.869516988696
 20
181.7772970033311
 30
0.0000000001127424
 11
6848.098854143024
 21
181.7772970033311
 31
0.0000000001127424
1001
ACAD
1000
DSTYLE
1002
{
1070
    40
1040
1.3
1070
    45
1040
0.5
1002
}
  0
LINE
  5
B58A
330
18
100
AcDbEntity
  8
1DIM
100
AcDbLine
 10
6793.994938749316
 20
245.004926550072
 30
0.0000000001127424
 11
6848.098854143024
 21
245.004926550072
 31
0.0000000001127424
1001
ACAD
1000
DSTYLE
1002
{
1070
    40
1040
1.3
1070
    45
1040
0.5
1002
}
  0
LINE
  5
B58B
330
18
100
AcDbEntity
  8
1DIM
100
AcDbLine
 10
6846.798854143024
 20
184.3772970033311
 30
0.0000000001127424
 11
6846.798854143024
 21
242.404926550072
 31
0.0000000001127424
1001
ACAD
1000
DSTYLE
1002
{
1070
    40
1040
1.3
1070
    45
1040
0.5
1002
}
  0
LINE
  5
B58F
330
18
100
AcDbEntity
  8
0
  6
BYBLOCK
100
AcDbLine
 10
6693.839790751968
 20
159.308258656072
 30
0.0000000001127424
 11
6691.239790751968
 21
160.004926550072
 31
0.0000000001127424
  0
LINE
  5
B590
330
18
100
AcDbEntity
  8
0
  6
BYBLOCK
100
AcDbLine
 10
6691.239790751968
 20
160.004926550072
 30
0.0000000001127424
 11
6693.839790751968
 21
160.701594444072
 31
0.0000000001127424
  0
LINE
  5
B591
330
18
100
AcDbEntity
  8
0
  6
BYBLOCK
100
AcDbLine
 10
6691.239790751968
 20
160.004926550072
 30
0.0000000001127424
 11
6693.839790751968
 21
160.004926550072
 31
0.0000000001127424
  0
LINE
  5
B592
330
18
100
AcDbEntity
  8
0
  6
BYBLOCK
100
AcDbLine
 10
6814.212322974292
 20
160.701594444072
 30
0.0000000001127424
 11
6816.812322974292
 21
160.004926550072
 31
0.0000000001127424
  0
LINE
  5
B593
330
18
100
AcDbEntity
  8
0
  6
BYBLOCK
100
AcDbLine
 10
6816.812322974292
 20
160.004926550072
 30
0.0000000001127424
 11
6814.212322974292
 21
159.308258656072
 31
0.0000000001127424
  0
LINE
  5
B594
330
18
100
AcDbEntity
  8
0
  6
BYBLOCK
100
AcDbLine
 10
6816.812322974292
 20
160.004926550072
 30
0.0000000001127424
 11
6814.212322974292
 21
160.004926550072
 31
0.0000000001127424
  0
TEXT
  5
B595
330
18
100
AcDbEntity
  8
1DIM
  6
CONTINUOUS
100
AcDbText
 10
6745.668591585352
 20
160.914926550072
 30
0.0000000001127424
 40
4.55
  1
125.5
100
AcDbText
1001
ACAD
1000
DSTYLE
1002
{
1070
    40
1040
1.3
1070
    45
1040
0.5
1002
}
  0
LINE
  5
B596
330
18
100
AcDbEntity
  8
0
  6
BYBLOCK
100
AcDbLine
 10
6679.840184823946
 20
149.308258656072
 30
0.0000000001127424
 11
6677.240184823946
 21
150.004926550072
 31
0.0000000001127424
  0
LINE
  5
B597
330
18
100
AcDbEntity
  8
0
  6
BYBLOCK
100
AcDbLine
 10
6677.240184823946
 20
150.004926550072
 30
0.0000000001127424
 11
6679.840184823946
 21
150.701594444072
 31
0.0000000001127424
  0
LINE
  5
B598
330
18
100
AcDbEntity
  8
0
  6
BYBLOCK
100
AcDbLine
 10
6677.240184823946
 20
150.004926550072
 30
0.0000000001127424
 11
6679.840184823946
 21
150.004926550072
 31
0.0000000001127424
  0
LINE
  5
B599
330
18
100
AcDbEntity
  8
0
  6
BYBLOCK
100
AcDbLine
 10
6814.212322974292
 20
150.701594444072
 30
0.0000000001127424
 11
6816.812322974292
 21
150.004926550072
 31
0.0000000001127424
  0
LINE
  5
B59A
330
18
100
AcDbEntity
  8
0
  6
BYBLOCK
100
AcDbLine
 10
6816.812322974292
 20
150.004926550072
 30
0.0000000001127424
 11
6814.212322974292
 21
149.308258656072
 31
0.0000000001127424
  0
LINE
  5
B59B
330
18
100
AcDbEntity
  8
0
  6
BYBLOCK
100
AcDbLine
 10
6816.812322974292
 20
150.004926550072
 30
0.0000000001127424
 11
6814.212322974292
 21
150.004926550072
 31
0.0000000001127424
  0
TEXT
  5
B59C
330
18
100
AcDbEntity
  8
1DIM
  6
CONTINUOUS
100
AcDbText
 10
6738.683533991712
 20
150.914926550072
 30
0.0000000001127424
 40
4.55
  1
139.5
100
AcDbText
1001
ACAD
1000
DSTYLE
1002
{
1070
    40
1040
1.3
1070
    45
1040
0.5
1002
}
  0
LINE
  5
B59D
330
18
100
AcDbEntity
  8
0
  6
BYBLOCK
100
AcDbLine
 10
6836.102186249024
 20
103.8705124394468
 30
0.0000000001127424
 11
6836.798854143024
 21
106.4705124394468
 31
0.0000000001127424
  0
LINE
  5
B59E
330
18
100
AcDbEntity
  8
0
  6
BYBLOCK
100
AcDbLine
 10
6836.798854143024
 20
106.4705124394468
 30
0.0000000001127424
 11
6837.495522037024
 21
103.8705124394468
 31
0.0000000001127424
  0
LINE
  5
B59F
330
18
100
AcDbEntity
  8
0
  6
BYBLOCK
100
AcDbLine
 10
6836.798854143024
 20
106.4705124394468
 30
0.0000000001127424
 11
6836.798854143024
 21
103.8705124394468
 31
0.0000000001127424
  0
LINE
  5
B5A0
330
18
100
AcDbEntity
  8
0
  6
BYBLOCK
100
AcDbLine
 10
6837.495522037024
 20
73.57051243944586
 30
0.0000000001127424
 11
6836.798854143024
 21
70.97051243944587
 31
0.0000000001127424
  0
LINE
  5
B5A1
330
18
100
AcDbEntity
  8
0
  6
BYBLOCK
100
AcDbLine
 10
6836.798854143024
 20
70.97051243944587
 30
0.0000000001127424
 11
6836.102186249024
 21
73.57051243944586
 31
0.0000000001127424
  0
LINE
  5
B5A2
330
18
100
AcDbEntity
  8
0
  6
BYBLOCK
100
AcDbLine
 10
6836.798854143024
 20
70.97051243944587
 30
0.0000000001127424
 11
6836.798854143024
 21
73.57051243944586
 31
0.0000000001127424
  0
TEXT
  5
B5A3
330
18
100
AcDbEntity
  8
1DIM
  6
CONTINUOUS
100
AcDbText
 10
6835.888854143023
 20
81.87971382833621
 30
0.0000000001127424
 40
4.55
  1
35.5
 50
90.0
100
AcDbText
1001
ACAD
1000
DSTYLE
1002
{
1070
    40
1040
1.3
1070
   271
1070
     1
1002
}
  0
LINE
  5
B5A4
330
18
100
AcDbEntity
  8
0
  6
BYBLOCK
100
AcDbLine
 10
6837.495522037024
 20
211.0299653262269
 30
0.0000000001127424
 11
6836.798854143024
 21
208.4299653262269
 31
0.0000000001127424
  0
LINE
  5
B5A5
330
18
100
AcDbEntity
  8
0
  6
BYBLOCK
100
AcDbLine
 10
6836.798854143024
 20
208.4299653262269
 30
0.0000000001127424
 11
6836.102186249024
 21
211.0299653262269
 31
0.0000000001127424
  0
LINE
  5
B5A6
330
18
100
AcDbEntity
  8
0
  6
BYBLOCK
100
AcDbLine
 10
6836.798854143024
 20
208.4299653262269
 30
0.0000000001127424
 11
6836.798854143024
 21
211.0299653262269
 31
0.0000000001127424
  0
LINE
  5
B5A7
330
18
100
AcDbEntity
  8
0
  6
BYBLOCK
100
AcDbLine
 10
6836.102186249024
 20
242.404926550072
 30
0.0000000001127424
 11
6836.798854143024
 21
245.004926550072
 31
0.0000000001127424
  0
LINE
  5
B5A8
330
18
100
AcDbEntity
  8
0
  6
BYBLOCK
100
AcDbLine
 10
6836.798854143024
 20
245.004926550072
 30
0.0000000001127424
 11
6837.495522037024
 21
242.404926550072
 31
0.0000000001127424
  0
LINE
  5
B5A9
330
18
100
AcDbEntity
  8
0
  6
BYBLOCK
100
AcDbLine
 10
6836.798854143024
 20
245.004926550072
 30
0.0000000001127424
 11
6836.798854143024
 21
242.404926550072
 31
0.0000000001127424
  0
TEXT
  5
B5AA
330
18
100
AcDbEntity
  8
1DIM
  6
CONTINUOUS
100
AcDbText
 10
6835.888854143024
 20
219.8766473270389
 30
0.0000000001127424
 40
4.55
  1
36.5
 50
90.0
100
AcDbText
1001
ACAD
1000
DSTYLE
1002
{
1070
    40
1040
1.3
1070
    45
1040
0.5
1002
}
  0
LINE
  5
B5AB
330
18
100
AcDbEntity
  8
0
  6
BYBLOCK
100
AcDbLine
 10
6847.495522037024
 20
184.3772970033311
 30
0.0000000001127424
 11
6846.798854143024
 21
181.7772970033311
 31
0.0000000001127424
  0
LINE
  5
B5AC
330
18
100
AcDbEntity
  8
0
  6
BYBLOCK
100
AcDbLine
 10
6846.798854143024
 20
181.7772970033311
 30
0.0000000001127424
 11
6846.102186249024
 21
184.3772970033311
 31
0.0000000001127424
  0
LINE
  5
B5AD
330
18
100
AcDbEntity
  8
0
  6
BYBLOCK
100
AcDbLine
 10
6846.798854143024
 20
181.7772970033311
 30
0.0000000001127424
 11
6846.798854143024
 21
184.3772970033311
 31
0.0000000001127424
  0
LINE
  5
B5AE
330
18
100
AcDbEntity
  8
0
  6
BYBLOCK
100
AcDbLine
 10
6846.102186249024
 20
242.404926550072
 30
0.0000000001127424
 11
6846.798854143024
 21
245.004926550072
 31
0.0000000001127424
  0
LINE
  5
B5AF
330
18
100
AcDbEntity
  8
0
  6
BYBLOCK
100
AcDbLine
 10
6846.798854143024
 20
245.004926550072
 30
0.0000000001127424
 11
6847.495522037024
 21
242.404926550072
 31
0.0000000001127424
  0
LINE
  5
B5B0
330
18
100
AcDbEntity
  8
0
  6
BYBLOCK
100
AcDbLine
 10
6846.798854143024
 20
245.004926550072
 30
0.0000000001127424
 11
6846.798854143024
 21
242.404926550072
 31
0.0000000001127424
  0
TEXT
  5
B5B1
330
18
100
AcDbEntity
  8
1DIM
  6
CONTINUOUS
100
AcDbText
 10
6845.888854143023
 20
209.5836464989252
 30
0.0000000001127424
 40
4.55
  1
63
 50
90.0
100
AcDbText
1001
ACAD
1000
DSTYLE
1002
{
1070
    40
1040
1.3
1070
    45
1040
0.5
1002
}
  0
VIEWPORT
  5
57
330
15
100
AcDbEntity
 67
     1
  8
0
100
AcDbViewport
 68
     1
 10
0.0
 20
0.0
 30
0.0
 40
555.8298653610772
 41
297.0
 68
     1
 69
     1
1001
ACAD
1000
MVIEW
1002
{
1070
    16
1010
0.0
1020
0.0
1030
0.0
1010
0.0
1020
0.0
1030
1.0
1040
0.0
1040
297.0
1040
5.728000000000009
1040
25.339
1040
50.0
1040
0.0
1040
0.0
1070
    16
1070
   100
1070
     0
1070
     1
1070
     0
1070
     0
1070
     0
1070
     0
1040
0.0
1040
0.0
1040
0.0
1040
10.0
1040
10.0
1040
10.0
1040
10.0
1070
     0
1002
{
1002
}
1002
}
  0
ENDSEC
  0
SECTION
  2
OBJECTS
  0
DICTIONARY
  5
C
330
0
100
AcDbDictionary
  3
ACAD_CIP_PREVIOUS_PRODUCT_INFO
350
AEA8
  3
ACAD_COLOR
350
18D
  3
ACAD_GROUP
350
D
  3
ACAD_LAYOUT
350
18E
  3
ACAD_MATERIAL
350
18C
  3
ACAD_MLEADERSTYLE
350
9583
  3
ACAD_MLINESTYLE
350
1B
  3
ACAD_PLOTSETTINGS
350
18F
  3
ACAD_SCALELIST
350
9561
  3
ACAD_VISUALSTYLE
350
9550
  3
ACDBHEADERROUNDTRIPXREC
350
B5B2
  3
ACDBVARIABLEDICTIONARY
350
37
  3
CONTENTDICTIONARY
350
D8
  3
DRAWINGVARIABLESDICT
350
20
  3
DWGPROPS
350
B5B5
1001
ACAD
1000
TREAT_AS_HARD
1070
     0
  0
DICTIONARY
  5
96D9
330
2
100
AcDbDictionary
  3
ACAD_LAYERSTATES
360
96DA
1001
ACAD
1000
TREAT_AS_HARD
1070
     1
  0
DICTIONARY
  5
9593
330
E
100
AcDbDictionary
  3
ADSK_XREC_LAYER_RECONCILED
360
9594
1001
ACAD
1000
TREAT_AS_HARD
1070
     1
  0
DICTIONARY
  5
9595
330
29
100
AcDbDictionary
  3
ADSK_XREC_LAYER_RECONCILED
360
9596
1001
ACAD
1000
TREAT_AS_HARD
1070
     1
  0
DICTIONARY
  5
9597
330
31
100
AcDbDictionary
  3
ADSK_XREC_LAYER_RECONCILED
360
9598
1001
ACAD
1000
TREAT_AS_HARD
1070
     1
  0
DICTIONARY
  5
959D
330
243
100
AcDbDictionary
  3
ADSK_XREC_LAYER_RECONCILED
360
959E
1001
ACAD
1000
TREAT_AS_HARD
1070
     1
  0
DICTIONARY
  5
95A3
330
24E
100
AcDbDictionary
  3
ADSK_XREC_LAYER_RECONCILED
360
95A4
1001
ACAD
1000
TREAT_AS_HARD
1070
     1
  0
DICTIONARY
  5
88F
330
18
100
AcDbDictionary
  3
ACAD_SORTENTS
360
890
1001
ACAD
1000
TREAT_AS_HARD
1070
     1
  0
XRECORD
  5
AEA8
102
{ACAD_REACTORS
330
C
102
}
330
C
100
AcDbXrecord
300
ACDLT
300
2012
300
ACDLT_F_S
  0
DICTIONARY
  5
18D
102
{ACAD_REACTORS
330
C
102
}
330
C
100
AcDbDictionary
1001
ACAD
1000
TREAT_AS_HARD
1070
     0
  0
DICTIONARY
  5
D
102
{ACAD_REACTORS
330
C
102
}
330
C
100
AcDbDictionary
1001
ACAD
1000
TREAT_AS_HARD
1070
     0
  0
DICTIONARY
  5
18E
102
{ACAD_REACTORS
330
C
102
}
330
C
100
AcDbDictionary
1001
ACAD
1000
TREAT_AS_HARD
1070
     0
  0
DICTIONARY
  5
18C
102
{ACAD_REACTORS
330
C
102
}
330
C
100
AcDbDictionary
  3
BYBLOCK
350
9540
  3
BYLAYER
350
9538
  3
GLOBAL
350
9548
1001
ACAD
1000
TREAT_AS_HARD
1070
     0
  0
DICTIONARY
  5
9583
102
{ACAD_REACTORS
330
C
102
}
330
C
100
AcDbDictionary
  3
STANDARD
350
9584
1001
ACAD
1000
TREAT_AS_HARD
1070
     0
  0
DICTIONARY
  5
1B
102
{ACAD_REACTORS
330
C
102
}
330
C
100
AcDbDictionary
  3
STANDARD
350
1C
1001
ACAD
1000
TREAT_AS_HARD
1070
     0
  0
DICTIONARY
  5
18F
102
{ACAD_REACTORS
330
C
102
}
330
C
100
AcDbDictionary
1001
ACAD
1000
TREAT_AS_HARD
1070
     0
  0
DICTIONARY
  5
9561
102
{ACAD_REACTORS
330
C
102
}
330
C
100
AcDbDictionary
  3
A0
350
9562
  3
A1
350
9563
  3
A2
350
9564
  3
A3
350
9565
  3
A4
350
9566
  3
A5
350
9567
  3
A6
350
9568
  3
A7
350
9569
  3
A8
350
956A
  3
A9
350
956B
  3
B0
350
956C
  3
B1
350
956D
  3
B2
350
956E
  3
B3
350
956F
  3
B4
350
9570
  3
B5
350
9571
  3
B6
350
9572
  3
B7
350
9573
  3
B8
350
9574
  3
B9
350
9575
  3
C0
350
9576
  3
C1
350
9577
  3
C2
350
9578
  3
C3
350
9579
  3
C4
350
957A
  3
C5
350
957B
  3
C6
350
957C
  3
C7
350
957D
  3
C8
350
957E
  3
C9
350
957F
  3
D0
350
9580
  3
D1
350
9581
  3
D2
350
9582
1001
ACAD
1000
TREAT_AS_HARD
1070
     0
  0
DICTIONARY
  5
9550
102
{ACAD_REACTORS
330
C
102
}
330
C
100
AcDbDictionary
  3
2DWIREFRAME
350
9556
  3
3D_HIDDEN
350
9558
  3
3DWIREFRAME
350
9557
  3
BASIC
350
9555
  3
BRIGHTEN
350
955C
  3
COLORCHANGE
350
9560
  3
CONCEPTUAL
350
9559
  3
DIM
350
955B
  3
EDGECOLOROFF
350
A211
  3
FACEPATTERN
350
955F
  3
FLAT
350
9551
  3
FLATWITHEDGES
350
9552
  3
GOURAUD
350
9553
  3
GOURAUDWITHEDGES
350
9554
  3
HIDDEN
350
A260
  3
JITTEROFF
350
A20F
  3
LINEPATTERN
350
955E
  3
MODELING
350
B4A9
  3
OVERHANGOFF
350
A210
  3
REALISTIC
350
955A
  3
SHADED
350
A265
  3
SHADED_WITH_EDGES
350
A264
  3
SHADES_OF_GRAY
350
A261
  3
SKETCHY
350
A262
  3
THICKEN
350
955D
  3
WIREFRAME
350
A25F
  3
X-RAY
350
A263
1001
ACAD
1000
TREAT_AS_HARD
1070
     0
  0
DICTIONARY
  5
B5B2
102
{ACAD_REACTORS
330
C
102
}
330
C
100
AcDbDictionary
  3
COLORDICT
350
B5B3
  3
MATERIALDICT
350
B5B4
1001
ACAD
1000
TREAT_AS_HARD
1070
     0
  0
DICTIONARY
  5
37
102
{ACAD_REACTORS
330
C
102
}
330
C
100
AcDbDictionary
  3
CANNOSCALE
350
B4CC
  3
CMLEADERSTYLE
350
9627
  3
CTABLESTYLE
350
29E
  3
DIMADEC
350
38
  3
DIMASSOC
350
1CE
  3
HIDETEXT
350
704E
  3
INDEXCTL
350
962A
  3
INTERSECTIONCOLOR
350
7052
  3
INTERSECTIONDISPLAY
350
7051
  3
LAYEREVAL
350
B1A0
  3
LAYERNOTIFY
350
B1A1
  3
MSLTSCALE
350
AB30
  3
OBSCOLOR
350
704F
  3
OBSLTYPE
350
7050
  3
PROJECTNAME
350
1CF
  3
SORTENTS
350
9629
  3
XCLIPFRAME
350
B4A8
1001
ACAD
1000
TREAT_AS_HARD
1070
     0
  0
DICTIONARY
  5
D8
102
{ACAD_REACTORS
330
C
102
}
330
C
100
AcDbDictionary
1001
ACAD
1000
TREAT_AS_HARD
1070
     0
  0
DICTIONARY
  5
20
102
{ACAD_REACTORS
330
C
102
}
330
C
100
AcDbDictionary
1001
DRAWINGVARIABLESXDATA
1000
POLARANG
1000
0.261799387799149410000000
1000
POLARMODE
1000
1
1000
POLARSTYLE
1000
1
1001
ACAD
1000
TREAT_AS_HARD
1070
     0
  0
XRECORD
  5
B5B5
102
{ACAD_REACTORS
330
C
102
}
330
C
100
AcDbXrecord
  1
DWGPROPS COOKIE
  2

  3

  4

  6

  7

  8
3684
  9

300
=
301
=
302
=
303
=
304
=
305
=
306
=
307
=
308
=
309
=
 40
0.0
 41
2451318.246352917
 42
2458163.184452408
  1

 90
        0
  0
DICTIONARY
  5
96DA
102
{ACAD_REACTORS
330
96D9
102
}
330
96D9
100
AcDbDictionary
1001
ACAD
1000
TREAT_AS_HARD
1070
     0
  0
ACAD_PROXY_OBJECT
  5
9594
102
{ACAD_REACTORS
330
9593
102
}
330
9593
100
AcDbZombieObject
 90
      499
 91
      514
 93
       34
310
40C8804040
  0
ACAD_PROXY_OBJECT
  5
9596
102
{ACAD_REACTORS
330
9595
102
}
330
9595
100
AcDbZombieObject
 90
      499
 91
      514
 93
       34
310
40C8804040
  0
ACAD_PROXY_OBJECT
  5
9598
102
{ACAD_REACTORS
330
9597
102
}
330
9597
100
AcDbZombieObject
 90
      499
 91
      514
 93
       34
310
40C8804040
  0
ACAD_PROXY_OBJECT
  5
959E
102
{ACAD_REACTORS
330
959D
102
}
330
959D
100
AcDbZombieObject
 90
      499
 91
      514
 93
       34
310
40C8804040
  0
ACAD_PROXY_OBJECT
  5
95A4
102
{ACAD_REACTORS
330
95A3
102
}
330
95A3
100
AcDbZombieObject
 90
      499
 91
      514
 93
       34
310
40C8804040
  0
SORTENTSTABLE
  5
890
102
{ACAD_REACTORS
330
88F
102
}
330
88F
100
AcDbSortentsTable
330
18
331
B2D6
  5
B2F4
331
B2D7
  5
B2F5
331
B2D8
  5
B2F6
331
B2D9
  5
B2F7
331
B2DB
  5
B302
331
B2DC
  5
B303
331
B2DD
  5
B304
331
B2DE
  5
B305
331
B2DF
  5
B306
331
B2E0
  5
B307
331
B2E1
  5
B308
331
B2E2
  5
B309
331
B2E3
  5
B30A
331
B2E4
  5
B30B
331
B2E5
  5
B30C
331
B2E6
  5
B30D
331
B2E7
  5
B30E
331
B2E8
  5
B30F
331
B2E9
  5
B310
331
B2EA
  5
B311
331
B2EB
  5
B312
331
B2EC
  5
B313
331
B2ED
  5
B315
331
B2EE
  5
B316
331
B2EF
  5
B317
331
B2F0
  5
B318
331
B2F1
  5
B319
331
B2F2
  5
B31A
331
B2F3
  5
B31B
331
B2F4
  5
B31C
331
B2F5
  5
B31D
331
B2F6
  5
B31E
331
B2F7
  5
B31F
331
B2F8
  5
B320
331
B2F9
  5
B321
331
B2FA
  5
B322
331
B2FB
  5
B323
331
B2FC
  5
B324
331
B2FD
  5
B325
331
B2FE
  5
B326
331
B2FF
  5
B327
331
B300
  5
B328
331
B301
  5
B329
331
B302
  5
B32A
331
B303
  5
B32C
331
B304
  5
B32D
331
B305
  5
B32E
331
B306
  5
B32F
331
0
  5
B314
331
B308
  5
B331
331
B309
  5
B332
331
B30A
  5
B333
331
B30B
  5
B334
331
B30C
  5
B335
331
B30D
  5
B336
331
B30E
  5
B337
331
B30F
  5
B338
331
B310
  5
B339
331
B311
  5
B33A
331
B312
  5
B33B
331
B313
  5
B33C
331
B314
  5
B33D
331
B315
  5
B33E
331
B316
  5
B33F
331
B317
  5
B340
331
B318
  5
B341
331
B319
  5
B342
331
B31A
  5
B343
331
B31B
  5
B344
331
B31C
  5
B345
331
B31D
  5
B346
331
B31E
  5
B347
331
B31F
  5
B348
331
B320
  5
B349
331
B321
  5
B34A
331
B322
  5
B34D
331
B323
  5
B34E
331
B324
  5
B34F
331
B325
  5
B351
331
B326
  5
B352
331
B327
  5
B353
331
B328
  5
B354
331
B329
  5
B355
331
B32A
  5
B356
331
B32C
  5
B359
331
B32D
  5
B35A
331
B32E
  5
B35B
331
B32F
  5
B35C
331
B330
  5
B35D
331
B331
  5
B35E
331
B332
  5
B35F
331
B333
  5
B360
331
B334
  5
B361
331
B335
  5
B362
331
B336
  5
B363
331
B337
  5
B364
331
B338
  5
B365
331
B339
  5
B366
331
B33A
  5
B367
331
B33B
  5
B368
331
B33C
  5
B369
331
B33D
  5
B36A
331
B33E
  5
B36B
331
B33F
  5
B36C
331
B340
  5
B36D
331
B341
  5
B36E
331
B342
  5
B36F
331
B343
  5
B370
331
B344
  5
B371
331
B345
  5
B372
331
B346
  5
B373
331
B347
  5
B374
331
B348
  5
B375
331
B349
  5
B377
331
B34A
  5
B378
331
B34D
  5
B37E
331
B34E
  5
B37F
331
B34F
  5
B380
331
B351
  5
B383
331
B352
  5
B385
331
B353
  5
B386
331
B354
  5
B388
331
B355
  5
B389
331
B356
  5
B390
331
B357
  5
B391
331
B358
  5
B392
331
B359
  5
B393
331
B35A
  5
B394
331
B35B
  5
B395
331
B35C
  5
B396
331
B35D
  5
B397
331
B35E
  5
B398
331
B35F
  5
B399
331
B360
  5
B39A
331
0
  5
B376
331
B362
  5
B554
331
B363
  5
B555
331
B364
  5
B556
331
B365
  5
B557
331
B366
  5
B558
331
B367
  5
B559
331
B368
  5
B55A
331
B369
  5
B55B
331
B36A
  5
B55C
331
B36B
  5
B55D
331
B36C
  5
B55E
331
B36D
  5
B55F
331
B36E
  5
B560
331
B36F
  5
B561
331
B370
  5
B562
331
B371
  5
B563
331
B372
  5
B564
331
B373
  5
B565
331
B374
  5
B566
331
B375
  5
B567
331
B376
  5
B568
331
B377
  5
B569
331
B378
  5
B56A
331
B37A
  5
B56D
331
B37B
  5
B570
331
B37C
  5
B571
331
B37D
  5
B572
331
B37E
  5
B573
331
B37F
  5
B574
331
B380
  5
B575
331
B381
  5
B576
331
B382
  5
B577
331
B383
  5
B578
331
B385
  5
B57B
331
B386
  5
B57C
331
B388
  5
B57F
331
B389
  5
B580
331
B38B
  5
B583
331
B38C
  5
B584
331
B38F
  5
B58F
331
B390
  5
B590
331
B391
  5
B591
331
B392
  5
B592
331
B393
  5
B593
331
B394
  5
B594
331
B395
  5
B595
331
B396
  5
B596
331
B397
  5
B597
331
B398
  5
B598
331
B399
  5
B599
331
B39A
  5
B59A
331
B39B
  5
B59B
331
B39C
  5
B59C
331
B39D
  5
B59D
331
0
  5
B56E
331
0
  5
B56F
331
B54F
  5
B2F8
331
B550
  5
B2F9
331
B551
  5
B2FA
331
0
  5
B2DE
331
0
  5
B2DF
331
0
  5
B2E0
331
B555
  5
B357
331
B556
  5
B358
331
B557
  5
B37A
331
B558
  5
B37B
331
B559
  5
B37C
331
B55A
  5
B37D
331
B55B
  5
B381
331
B55C
  5
B382
331
B55D
  5
B56B
331
B55E
  5
B56C
331
B55F
  5
B579
331
B560
  5
B57A
331
B561
  5
B57D
331
B562
  5
B57E
331
B563
  5
B581
331
B564
  5
B582
331
B565
  5
B585
331
B566
  5
B589
331
B567
  5
B58A
331
B568
  5
B58B
331
B569
  5
B2FB
331
B56A
  5
B2FC
331
B56B
  5
B2FD
331
B56C
  5
B2FE
331
B56D
  5
B2FF
331
B56E
  5
B300
331
B56F
  5
B301
331
B570
  5
B2D6
331
B571
  5
B2D7
331
B572
  5
B2D8
331
0
  5
B2D9
331
0
  5
B2DB
331
0
  5
B2DC
331
B576
  5
B2EA
331
B577
  5
B2EB
331
B578
  5
B2EC
331
0
  5
B2E3
331
0
  5
B2E4
331
0
  5
B2E5
331
B57C
  5
B330
331
B57D
  5
B39B
331
B57E
  5
B39C
331
B57F
  5
B39D
331
0
  5
B38B
331
0
  5
B38C
331
0
  5
B38F
331
B583
  5
B59E
331
B584
  5
B59F
331
B585
  5
B5A0
331
B589
  5
B5A8
331
B58A
  5
B5A9
331
B58B
  5
B5AA
331
B58F
  5
B2DD
331
B590
  5
B2E1
331
B591
  5
B2E2
331
B592
  5
B2E6
331
B593
  5
B2E7
331
B594
  5
B2E8
331
B595
  5
B2E9
331
B596
  5
B2ED
331
B597
  5
B2EE
331
B598
  5
B2EF
331
B599
  5
B2F0
331
B59A
  5
B2F1
331
B59B
  5
B2F2
331
B59C
  5
B2F3
331
B59D
  5
B39E
331
B59E
  5
B39F
331
B59F
  5
B54F
331
B5A0
  5
B550
331
B5A1
  5
B551
331
B5A2
  5
B552
331
B5A3
  5
B553
331
B5A4
  5
B5A1
331
B5A5
  5
B5A2
331
B5A6
  5
B5A3
331
B5A7
  5
B5A4
331
B5A8
  5
B5A5
331
B5A9
  5
B5A6
331
B5AA
  5
B5A7
  0
MATERIAL
  5
9540
102
{ACAD_REACTORS
330
18C
102
}
102
{ACAD_XDICTIONARY
360
B750
102
}
330
18C
100
AcDbMaterial
  1
BYBLOCK
 72
     0
 73
     2
 43
0.0208333333333333
 43
0.0
 43
0.0
 43
0.0
 43
0.0
 43
0.0208333333333333
 43
0.0
 43
0.0
 43
0.0
 43
0.0
 43
1.0
 43
0.0
 43
0.0
 43
0.0
 43
0.0
 43
1.0
 77
     0
 78
     2
 47
0.0208333333333333
 47
0.0
 47
0.0
 47
0.0
 47
0.0
 47
0.0208333333333333
 47
0.0
 47
0.0
 47
0.0
 47
0.0
 47
1.0
 47
0.0
 47
0.0
 47
0.0
 47
0.0
 47
1.0
171
     0
172
     2
 49
0.0208333333333333
 49
0.0
 49
0.0
 49
0.0
 49
0.0
 49
0.0208333333333333
 49
0.0
 49
0.0
 49
0.0
 49
0.0
 49
1.0
 49
0.0
 49
0.0
 49
0.0
 49
0.0
 49
1.0
175
     0
176
     2
142
0.0208333333333333
142
0.0
142
0.0
142
0.0
142
0.0
142
0.0208333333333333
142
0.0
142
0.0
142
0.0
142
0.0
142
1.0
142
0.0
142
0.0
142
0.0
142
0.0
142
1.0
179
     0
270
     2
144
0.0208333333333333
144
0.0
144
0.0
144
0.0
144
0.0
144
0.0208333333333333
144
0.0
144
0.0
144
0.0
144
0.0
144
1.0
144
0.0
144
0.0
144
0.0
144
0.0
144
1.0
274
     2
147
0.0208333333333333
147
0.0
147
0.0
147
0.0
147
0.0
147
0.0208333333333333
147
0.0
147
0.0
147
0.0
147
0.0
147
1.0
147
0.0
147
0.0
147
0.0
147
0.0
147
1.0
  0
MATERIAL
  5
9538
102
{ACAD_REACTORS
330
18C
102
}
102
{ACAD_XDICTIONARY
360
B752
102
}
330
18C
100
AcDbMaterial
  1
BYLAYER
 72
     0
 73
     2
 43
0.0208333333333333
 43
0.0
 43
0.0
 43
0.0
 43
0.0
 43
0.0208333333333333
 43
0.0
 43
0.0
 43
0.0
 43
0.0
 43
1.0
 43
0.0
 43
0.0
 43
0.0
 43
0.0
 43
1.0
 77
     0
 78
     2
 47
0.0208333333333333
 47
0.0
 47
0.0
 47
0.0
 47
0.0
 47
0.0208333333333333
 47
0.0
 47
0.0
 47
0.0
 47
0.0
 47
1.0
 47
0.0
 47
0.0
 47
0.0
 47
0.0
 47
1.0
171
     0
172
     2
 49
0.0208333333333333
 49
0.0
 49
0.0
 49
0.0
 49
0.0
 49
0.0208333333333333
 49
0.0
 49
0.0
 49
0.0
 49
0.0
 49
1.0
 49
0.0
 49
0.0
 49
0.0
 49
0.0
 49
1.0
175
     0
176
     2
142
0.0208333333333333
142
0.0
142
0.0
142
0.0
142
0.0
142
0.0208333333333333
142
0.0
142
0.0
142
0.0
142
0.0
142
1.0
142
0.0
142
0.0
142
0.0
142
0.0
142
1.0
179
     0
270
     2
144
0.0208333333333333
144
0.0
144
0.0
144
0.0
144
0.0
144
0.0208333333333333
144
0.0
144
0.0
144
0.0
144
0.0
144
1.0
144
0.0
144
0.0
144
0.0
144
0.0
144
1.0
274
     2
147
0.0208333333333333
147
0.0
147
0.0
147
0.0
147
0.0
147
0.0208333333333333
147
0.0
147
0.0
147
0.0
147
0.0
147
1.0
147
0.0
147
0.0
147
0.0
147
0.0
147
1.0
  0
MATERIAL
  5
9548
102
{ACAD_REACTORS
330
18C
102
}
102
{ACAD_XDICTIONARY
360
B754
102
}
330
18C
100
AcDbMaterial
  1
GLOBAL
 72
     0
 73
     2
 43
0.0208333333333333
 43
0.0
 43
0.0
 43
0.0
 43
0.0
 43
0.0208333333333333
 43
0.0
 43
0.0
 43
0.0
 43
0.0
 43
1.0
 43
0.0
 43
0.0
 43
0.0
 43
0.0
 43
1.0
 77
     0
 78
     2
 47
0.0208333333333333
 47
0.0
 47
0.0
 47
0.0
 47
0.0
 47
0.0208333333333333
 47
0.0
 47
0.0
 47
0.0
 47
0.0
 47
1.0
 47
0.0
 47
0.0
 47
0.0
 47
0.0
 47
1.0
171
     0
172
     2
 49
0.0208333333333333
 49
0.0
 49
0.0
 49
0.0
 49
0.0
 49
0.0208333333333333
 49
0.0
 49
0.0
 49
0.0
 49
0.0
 49
1.0
 49
0.0
 49
0.0
 49
0.0
 49
0.0
 49
1.0
175
     0
176
     2
142
0.0208333333333333
142
0.0
142
0.0
142
0.0
142
0.0
142
0.0208333333333333
142
0.0
142
0.0
142
0.0
142
0.0
142
1.0
142
0.0
142
0.0
142
0.0
142
0.0
142
1.0
179
     0
270
     2
144
0.0208333333333333
144
0.0
144
0.0
144
0.0
144
0.0
144
0.0208333333333333
144
0.0
144
0.0
144
0.0
144
0.0
144
1.0
144
0.0
144
0.0
144
0.0
144
0.0
144
1.0
274
     2
147
0.0208333333333333
147
0.0
147
0.0
147
0.0
147
0.0
147
0.0208333333333333
147
0.0
147
0.0
147
0.0
147
0.0
147
1.0
147
0.0
147
0.0
147
0.0
147
0.0
147
1.0
  0
ACAD_PROXY_OBJECT
  5
9584
102
{ACAD_REACTORS
330
9583
102
}
330
9583
100
AcDbZombieObject
 90
      499
 91
      511
 93
      610
310
40901902A4063FBFFFFFE000000000000002040AD7A3703D0AD73F4214DD185B99185C990000000000000104090141901A00000000000004100000000000000041025764000000000000300FC0
340
12
340
0
340
F
340
0
 94
        0
1001
ACAD_MLEADERVER
1070
     2
  0
MLINESTYLE
  5
1C
102
{ACAD_REACTORS
330
1B
102
}
330
1B
100
AcDbMlineStyle
  2
STANDARD
 70
     0
  3

 62
   256
 51
90.0
 52
90.0
 71
     2
 49
0.5
 62
   256
  6
BYLAYER
 49
-0.5
 62
   256
  6
BYLAYER
  0
ACAD_PROXY_OBJECT
  5
9562
102
{ACAD_REACTORS
330
9561
102
}
330
9561
100
AcDbZombieObject
 90
      499
 91
      510
 93
       41
310
903313A31580
  0
ACAD_PROXY_OBJECT
  5
9563
102
{ACAD_REACTORS
330
9561
102
}
330
9561
100
AcDbZombieObject
 90
      499
 91
      510
 93
      105
310
903313A324000000000000004000
  0
ACAD_PROXY_OBJECT
  5
9564
102
{ACAD_REACTORS
330
9561
102
}
330
9561
100
AcDbZombieObject
 90
      499
 91
      510
 93
      105
310
903313A344000000000000104000
  0
ACAD_PROXY_OBJECT
  5
9565
102
{ACAD_REACTORS
330
9561
102
}
330
9561
100
AcDbZombieObject
 90
      499
 91
      510
 93
      105
310
903313A354000000000000144000
  0
ACAD_PROXY_OBJECT
  5
9566
102
{ACAD_REACTORS
330
9561
102
}
330
9561
100
AcDbZombieObject
 90
      499
 91
      510
 93
      105
310
903313A384000000000000204000
  0
ACAD_PROXY_OBJECT
  5
9567
102
{ACAD_REACTORS
330
9561
102
}
330
9561
100
AcDbZombieObject
 90
      499
 91
      510
 93
      113
310
904313A31304000000000000244000
  0
ACAD_PROXY_OBJECT
  5
9568
102
{ACAD_REACTORS
330
9561
102
}
330
9561
100
AcDbZombieObject
 90
      499
 91
      510
 93
      113
310
904313A31364000000000000304000
  0
ACAD_PROXY_OBJECT
  5
9569
102
{ACAD_REACTORS
330
9561
102
}
330
9561
100
AcDbZombieObject
 90
      499
 91
      510
 93
      113
310
904313A32304000000000000344000
  0
ACAD_PROXY_OBJECT
  5
956A
102
{ACAD_REACTORS
330
9561
102
}
330
9561
100
AcDbZombieObject
 90
      499
 91
      510
 93
      113
310
904313A333040000000000003E4000
  0
ACAD_PROXY_OBJECT
  5
956B
102
{ACAD_REACTORS
330
9561
102
}
330
9561
100
AcDbZombieObject
 90
      499
 91
      510
 93
      113
310
904313A34304000000000000444000
  0
ACAD_PROXY_OBJECT
  5
956C
102
{ACAD_REACTORS
330
9561
102
}
330
9561
100
AcDbZombieObject
 90
      499
 91
      510
 93
      113
310
904313A35304000000000000494000
  0
ACAD_PROXY_OBJECT
  5
956D
102
{ACAD_REACTORS
330
9561
102
}
330
9561
100
AcDbZombieObject
 90
      499
 91
      510
 93
      121
310
905313A3130304000000000000594000
  0
ACAD_PROXY_OBJECT
  5
956E
102
{ACAD_REACTORS
330
9561
102
}
330
9561
100
AcDbZombieObject
 90
      499
 91
      510
 93
      105
310
903323A310000000000000010100
  0
ACAD_PROXY_OBJECT
  5
956F
102
{ACAD_REACTORS
330
9561
102
}
330
9561
100
AcDbZombieObject
 90
      499
 91
      510
 93
      105
310
903343A310000000000000410100
  0
ACAD_PROXY_OBJECT
  5
9570
102
{ACAD_REACTORS
330
9561
102
}
330
9561
100
AcDbZombieObject
 90
      499
 91
      510
 93
      105
310
903383A310000000000000810100
  0
ACAD_PROXY_OBJECT
  5
9571
102
{ACAD_REACTORS
330
9561
102
}
330
9561
100
AcDbZombieObject
 90
      499
 91
      510
 93
      113
310
90431303A310000000000000910100
  0
ACAD_PROXY_OBJECT
  5
9572
102
{ACAD_REACTORS
330
9561
102
}
330
9561
100
AcDbZombieObject
 90
      499
 91
      510
 93
      121
310
9053130303A310000000000001650100
  0
ACAD_PROXY_OBJECT
  5
9573
102
{ACAD_REACTORS
330
9561
102
}
330
9561
100
AcDbZombieObject
 90
      499
 91
      510
 93
      257
310
90E312F31323822203D2031272D3022000000000000200FC000000000000284000
  0
ACAD_PROXY_OBJECT
  5
9574
102
{ACAD_REACTORS
330
9561
102
}
330
9561
100
AcDbZombieObject
 90
      499
 91
      510
 93
      249
310
90D312F363422203D2031272D3022000000000000240FC000000000000284000
  0
ACAD_PROXY_OBJECT
  5
9575
102
{ACAD_REACTORS
330
9561
102
}
330
9561
100
AcDbZombieObject
 90
      499
 91
      510
 93
      249
310
90D312F333222203D2031272D3022000000000000280FC000000000000284000
  0
ACAD_PROXY_OBJECT
  5
9576
102
{ACAD_REACTORS
330
9561
102
}
330
9561
100
AcDbZombieObject
 90
      499
 91
      510
 93
      249
310
90D312F313622203D2031272D30220000000000002C0FC000000000000284000
  0
ACAD_PROXY_OBJECT
  5
9577
102
{ACAD_REACTORS
330
9561
102
}
330
9561
100
AcDbZombieObject
 90
      499
 91
      510
 93
      249
310
90D332F333222203D2031272D30220000000000002E0FC000000000000284000
  0
ACAD_PROXY_OBJECT
  5
9578
102
{ACAD_REACTORS
330
9561
102
}
330
9561
100
AcDbZombieObject
 90
      499
 91
      510
 93
      241
310
90C312F3822203D2031272D3022000000000000300FC000000000000284000
  0
ACAD_PROXY_OBJECT
  5
9579
102
{ACAD_REACTORS
330
9561
102
}
330
9561
100
AcDbZombieObject
 90
      499
 91
      510
 93
      249
310
90D332F313622203D2031272D3022000000000000320FC000000000000284000
  0
ACAD_PROXY_OBJECT
  5
957A
102
{ACAD_REACTORS
330
9561
102
}
330
9561
100
AcDbZombieObject
 90
      499
 91
      510
 93
      241
310
90C312F3422203D2031272D3022000000000000340FC000000000000284000
  0
ACAD_PROXY_OBJECT
  5
957B
102
{ACAD_REACTORS
330
9561
102
}
330
9561
100
AcDbZombieObject
 90
      499
 91
      510
 93
      241
310
90C332F3822203D2031272D3022000000000000360FC000000000000284000
  0
ACAD_PROXY_OBJECT
  5
957C
102
{ACAD_REACTORS
330
9561
102
}
330
9561
100
AcDbZombieObject
 90
      499
 91
      510
 93
      241
310
90C312F3222203D2031272D3022000000000000380FC000000000000284000
  0
ACAD_PROXY_OBJECT
  5
957D
102
{ACAD_REACTORS
330
9561
102
}
330
9561
100
AcDbZombieObject
 90
      499
 91
      510
 93
      241
310
90C332F3422203D2031272D30220000000000003A0FC000000000000284000
  0
ACAD_PROXY_OBJECT
  5
957E
102
{ACAD_REACTORS
330
9561
102
}
330
9561
100
AcDbZombieObject
 90
      499
 91
      510
 93
      161
310
90A3122203D2031272D30224000000000000284000
  0
ACAD_PROXY_OBJECT
  5
957F
102
{ACAD_REACTORS
330
9561
102
}
330
9561
100
AcDbZombieObject
 90
      499
 91
      510
 93
      257
310
90E312D312F3222203D2031272D30220000000000003E0FC000000000000284000
  0
ACAD_PROXY_OBJECT
  5
9580
102
{ACAD_REACTORS
330
9561
102
}
330
9561
100
AcDbZombieObject
 90
      499
 91
      510
 93
      225
310
90A3322203D2031272D302200000000000002100000000000000284000
  0
ACAD_PROXY_OBJECT
  5
9581
102
{ACAD_REACTORS
330
9561
102
}
330
9561
100
AcDbZombieObject
 90
      499
 91
      510
 93
      225
310
90A3622203D2031272D302200000000000006100000000000000284000
  0
ACAD_PROXY_OBJECT
  5
9582
102
{ACAD_REACTORS
330
9561
102
}
330
9561
100
AcDbZombieObject
 90
      499
 91
      510
 93
      249
310
90D31272D3022203D2031272D30220000000000000A100000000000000284000
  0
ACAD_PROXY_OBJECT
  5
9556
102
{ACAD_REACTORS
330
9550
102
}
330
9550
100
AcDbZombieObject
 90
      499
 91
      509
 93
      436
310
42CC9915DA5C99599C985B595049028333333333333E3BF0000000000000FB0107901411070040501600405405064090741402480A0340
1001
ACAD
1000
AcDbSavedByObjectVersion
1070
     0
  0
ACAD_PROXY_OBJECT
  5
9558
102
{ACAD_REACTORS
330
9550
102
}
330
9550
100
AcDbZombieObject
 90
      499
 91
      509
 93
      500
310
424CD108121A5919195B90640502408333333333333E3BF0000000000000FB01079024090700405020000000000001110200405405064090740C02480A0340
1001
ACAD
1000
AcDbSavedByObjectVersion
1070
     0
  0
ACAD_PROXY_OBJECT
  5
9557
102
{ACAD_REACTORS
330
9550
102
}
330
9550
100
AcDbZombieObject
 90
      499
 91
      509
 93
      436
310
42CCD915DA5C99599C985B595059028333333333333E3BF0000000000000FB0107901411070040501600405405064090741402480A0340
1001
ACAD
1000
AcDbSavedByObjectVersion
1070
     0
  0
ACAD_PROXY_OBJECT
  5
9555
102
{ACAD_REACTORS
330
9550
102
}
330
9550
100
AcDbZombieObject
 90
      499
 91
      509
 93
      388
310
4150985CDA58D07406404333333333333E3BF0000000000000FB0107A41107004050150841D405064090741402480A0350
1001
ACAD
1000
AcDbSavedByObjectVersion
1070
     0
  0
ACAD_PROXY_OBJECT
  5
955C
102
{ACAD_REACTORS
330
9550
102
}
330
9550
100
AcDbZombieObject
 90
      499
 91
      509
 93
      428
310
42109C9A59DA1D195B90C409028333333333333E3BF0000000000000FB010790141107004050150841D405064090741402480A029950
1001
ACAD
1000
AcDbSavedByObjectVersion
1070
     0
  0
ACAD_PROXY_OBJECT
  5
9560
102
{ACAD_REACTORS
330
9550
102
}
330
9550
100
AcDbZombieObject
 90
      499
 91
      509
 93
      452
310
42D0DBDB1BDC90DA185B99D95104090240C333333333333E3BF0000000000000FB0108901411070040501508421405064090741402480A0350
1001
ACAD
1000
AcDbSavedByObjectVersion
1070
     0
  0
ACAD_PROXY_OBJECT
  5
9559
102
{ACAD_REACTORS
330
9550
102
}
330
9550
100
AcDbZombieObject
 90
      499
 91
      509
 93
      500
310
4290DBDB98D95C1D1D585B10940D028333333333333E3BF0000000000000FB0107902409070040501000000000000111010841D405064090740C02480A0340
1001
ACAD
1000
AcDbSavedByObjectVersion
1070
     0
  0
ACAD_PROXY_OBJECT
  5
955B
102
{ACAD_REACTORS
330
9550
102
}
330
9550
100
AcDbZombieObject
 90
      499
 91
      509
 93
      412
310
40D11A5B50B409028333333333333E3BF0000000000000FB010790141107004050150841D405064090741402480A02677FFFFFD0
1001
ACAD
1000
AcDbSavedByObjectVersion
1070
     0
  0
ACAD_PROXY_OBJECT
  5
A211
102
{ACAD_REACTORS
330
9550
102
}
330
9550
100
AcDbZombieObject
 90
      499
 91
      509
 93
      452
310
43115919D950DBDB1BDC93D999916409028333333333333E3BF0000000000000FB010790141107004050150841D405064090741402480A0350
1001
ACAD
1000
AcDbSavedByObjectVersion
1070
     0
  0
ACAD_PROXY_OBJECT
  5
955F
102
{ACAD_REACTORS
330
9550
102
}
330
9550
100
AcDbZombieObject
 90
      499
 91
      509
 93
      444
310
42D19858D95C185D1D195C9B90F409028333333333333E3BF0000000000000FB010790141107004050150841D405064090741402480A0350
1001
ACAD
1000
AcDbSavedByObjectVersion
1070
     0
  0
ACAD_PROXY_OBJECT
  5
9551
102
{ACAD_REACTORS
330
9550
102
}
330
9550
100
AcDbZombieObject
 90
      499
 91
      509
 93
      388
310
41119B185D240901404333333333333E3BF0000000000000F9010740A41107004050150841D405064090741402480A1B50
1001
ACAD
1000
AcDbSavedByObjectVersion
1070
     0
  0
ACAD_PROXY_OBJECT
  5
9552
102
{ACAD_REACTORS
330
9550
102
}
330
9550
100
AcDbZombieObject
 90
      499
 91
      509
 93
      476
310
43519B185D15DA5D1A115919D95CD0140901404333333333333E3BF0000000000000F9010740901411070040501600405405064090741402480A1B50
1001
ACAD
1000
AcDbSavedByObjectVersion
1070
     0
  0
ACAD_PROXY_OBJECT
  5
9553
102
{ACAD_REACTORS
330
9550
102
}
330
9550
100
AcDbZombieObject
 90
      499
 91
      509
 93
      412
310
41D1DBDD5C985D5910240902404333333333333E3BF0000000000000F9010740A411070040501641D405064090741402480A1B50
1001
ACAD
1000
AcDbSavedByObjectVersion
1070
     0
  0
ACAD_PROXY_OBJECT
  5
9554
102
{ACAD_REACTORS
330
9550
102
}
330
9550
100
AcDbZombieObject
 90
      499
 91
      509
 93
      500
310
4411DBDD5C985D5915DA5D1A115919D95CD0340902404333333333333E3BF0000000000000F9010740901411070040501600405405064090741402480A1B50
1001
ACAD
1000
AcDbSavedByObjectVersion
1070
     0
  0
ACAD_PROXY_OBJECT
  5
A260
102
{ACAD_REACTORS
330
9550
102
}
330
9550
100
AcDbZombieObject
 90
      499
 91
      509
 93
      476
310
41921A5919195B90640502408333333333333E3BF0000000000000FB01079024090700405020000000000001110200405405064090740C02480A0340
1001
ACAD
1000
AcDbSavedByObjectVersion
1070
     0
  0
ACAD_PROXY_OBJECT
  5
A20F
102
{ACAD_REACTORS
330
9550
102
}
330
9550
100
AcDbZombieObject
 90
      499
 91
      509
 93
      428
310
42529A5D1D195C93D999914409028333333333333E3BF0000000000000FB010790141107004050150A41D405064090741402480A0350
1001
ACAD
1000
AcDbSavedByObjectVersion
1070
     0
  0
ACAD_PROXY_OBJECT
  5
955E
102
{ACAD_REACTORS
330
9550
102
}
330
9550
100
AcDbZombieObject
 90
      499
 91
      509
 93
      444
310
42D31A5B995C185D1D195C9B90E409028333333333333E3BF0000000000000FB010790141107004050750841D405064090741402483A0350
1001
ACAD
1000
AcDbSavedByObjectVersion
1070
     0
  0
ACAD_PROXY_OBJECT
  5
B4A9
102
{ACAD_REACTORS
330
9550
102
}
330
9550
100
AcDbZombieObject
 90
      499
 91
      509
 93
      484
310
42135BD9195B1A5B99D0A409038333333333333E33F0000000000000F901074090290700405010000000000201990108421405064090741402480A1B40
1001
ACAD
1000
AcDbSavedByObjectVersion
1070
     0
  0
ACAD_PROXY_OBJECT
  5
A210
102
{ACAD_REACTORS
330
9550
102
}
330
9550
100
AcDbZombieObject
 90
      499
 91
      509
 93
      444
310
42D3DD995C9A185B99D3D999915409028333333333333E3BF0000000000000FB010790141107004050150941D405064090741402480A0350
1001
ACAD
1000
AcDbSavedByObjectVersion
1070
     0
  0
ACAD_PROXY_OBJECT
  5
955A
102
{ACAD_REACTORS
330
9550
102
}
330
9550
100
AcDbZombieObject
 90
      499
 91
      509
 93
      420
310
425499585B1A5CDD1A58D08409028333333333333E3BF0000000000000FB01079019070040501508421405064090741402480A1B40
1001
ACAD
1000
AcDbSavedByObjectVersion
1070
     0
  0
ACAD_PROXY_OBJECT
  5
A265
102
{ACAD_REACTORS
330
9550
102
}
330
9550
100
AcDbZombieObject
 90
      499
 91
      509
 93
      420
310
4194DA1859195911B40902404333333333333E3BF0000000000000F9010740A41107004050150800405405064090840C02480A0B40
1001
ACAD
1000
AcDbSavedByObjectVersion
1070
     0
  0
ACAD_PROXY_OBJECT
  5
A264
102
{ACAD_REACTORS
330
9550
102
}
330
9550
100
AcDbZombieObject
 90
      499
 91
      509
 93
      516
310
4454DA18591959081DDA5D1A08195919D95CD1A40902404333333333333E3BF0000000000000F901074090142907004050250800405405064090740C02480A0B40
1001
ACAD
1000
AcDbSavedByObjectVersion
1070
     0
  0
ACAD_PROXY_OBJECT
  5
A261
102
{ACAD_REACTORS
330
9550
102
}
330
9550
100
AcDbZombieObject
 90
      499
 91
      509
 93
      532
310
4394DA1859195CC81BD98811DC985E5174090240C333333333333E3BF0000000000000FB01079024090741D01000000000000111010841D405064090740C02480A0340
1001
ACAD
1000
AcDbSavedByObjectVersion
1070
     0
  0
ACAD_PROXY_OBJECT
  5
A262
102
{ACAD_REACTORS
330
9550
102
}
330
9550
100
AcDbZombieObject
 90
      499
 91
      509
 93
      476
310
41D4DAD95D18DA1E51840502408333333333333E3BF0000000000000FB01079024090741D01000000000000111010B41D405064090741802480A0340
1001
ACAD
1000
AcDbSavedByObjectVersion
1070
     0
  0
ACAD_PROXY_OBJECT
  5
955D
102
{ACAD_REACTORS
330
9550
102
}
330
9550
100
AcDbZombieObject
 90
      499
 91
      509
 93
      412
310
41D51A1A58DAD95B90D409028333333333333E3BF0000000000000FB010790141107004050150C41D405064090741402480A0350
1001
ACAD
1000
AcDbSavedByObjectVersion
1070
     0
  0
ACAD_PROXY_OBJECT
  5
A25F
102
{ACAD_REACTORS
330
9550
102
}
330
9550
100
AcDbZombieObject
 90
      499
 91
      509
 93
      420
310
4255DA5C99599C985B595059028333333333333E3BF0000000000000FB0107901411070040501600405405064090740C02480A0340
1001
ACAD
1000
AcDbSavedByObjectVersion
1070
     0
  0
ACAD_PROXY_OBJECT
  5
A263
102
{ACAD_REACTORS
330
9550
102
}
330
9550
100
AcDbZombieObject
 90
      499
 91
      509
 93
      404
310
41560B54985E51940902404000000000000E03F0000000000000FB010740501907004050150841D405064090740C02480A1B40
1001
ACAD
1000
AcDbSavedByObjectVersion
1070
     0
  0
XRECORD
  5
B5B3
102
{ACAD_REACTORS
330
B5B2
102
}
330
B5B2
100
AcDbXrecord
340
18D
  0
XRECORD
  5
B5B4
102
{ACAD_REACTORS
330
B5B2
102
}
330
B5B2
100
AcDbXrecord
340
18C
  0
DICTIONARYVAR
  5
B4CC
102
{ACAD_REACTORS
330
37
102
}
330
37
100
DictionaryVariables
280
     0
  1
1:1
  0
DICTIONARYVAR
  5
9627
102
{ACAD_REACTORS
330
37
102
}
330
37
100
DictionaryVariables
280
     0
  1
Standard
  0
DICTIONARYVAR
  5
29E
102
{ACAD_REACTORS
330
37
102
}
330
37
100
DictionaryVariables
280
     0
  1
Standard
  0
DICTIONARYVAR
  5
38
102
{ACAD_REACTORS
330
37
102
}
330
37
100
DictionaryVariables
280
     0
  1
-1
  0
DICTIONARYVAR
  5
1CE
102
{ACAD_REACTORS
330
37
102
}
330
37
100
DictionaryVariables
280
     0
  1
2
  0
DICTIONARYVAR
  5
704E
102
{ACAD_REACTORS
330
37
102
}
330
37
100
DictionaryVariables
280
     0
  1
1
  0
DICTIONARYVAR
  5
962A
102
{ACAD_REACTORS
330
37
102
}
330
37
100
DictionaryVariables
280
     0
  1
0
  0
DICTIONARYVAR
  5
7052
102
{ACAD_REACTORS
330
37
102
}
330
37
100
DictionaryVariables
280
     0
  1
8
  0
DICTIONARYVAR
  5
7051
102
{ACAD_REACTORS
330
37
102
}
330
37
100
DictionaryVariables
280
     0
  1
1
  0
DICTIONARYVAR
  5
B1A0
102
{ACAD_REACTORS
330
37
102
}
330
37
100
DictionaryVariables
280
     0
  1
0
  0
DICTIONARYVAR
  5
B1A1
102
{ACAD_REACTORS
330
37
102
}
330
37
100
DictionaryVariables
280
     0
  1
0
  0
DICTIONARYVAR
  5
AB30
102
{ACAD_REACTORS
330
37
102
}
330
37
100
DictionaryVariables
280
     0
  1
0
  0
DICTIONARYVAR
  5
704F
102
{ACAD_REACTORS
330
37
102
}
330
37
100
DictionaryVariables
280
     0
  1
120
  0
DICTIONARYVAR
  5
7050
102
{ACAD_REACTORS
330
37
102
}
330
37
100
DictionaryVariables
280
     0
  1
0
  0
DICTIONARYVAR
  5
1CF
102
{ACAD_REACTORS
330
37
102
}
330
37
100
DictionaryVariables
280
     0
  1

  0
DICTIONARYVAR
  5
9629
102
{ACAD_REACTORS
330
37
102
}
330
37
100
DictionaryVariables
280
     0
  1
127
  0
DICTIONARYVAR
  5
B4A8
102
{ACAD_REACTORS
330
37
102
}
330
37
100
DictionaryVariables
280
     0
  1
2
  0
DICTIONARY
  5
B750
330
9540
100
AcDbDictionary
  3
ACAD_XREC_ROUNDTRIP
360
B751
1001
ACAD
1000
TREAT_AS_HARD
1070
     1
  0
DICTIONARY
  5
B752
330
9538
100
AcDbDictionary
  3
ACAD_XREC_ROUNDTRIP
360
B753
1001
ACAD
1000
TREAT_AS_HARD
1070
     1
  0
DICTIONARY
  5
B754
330
9548
100
AcDbDictionary
  3
ACAD_XREC_ROUNDTRIP
360
B755
1001
ACAD
1000
TREAT_AS_HARD
1070
     1
  0
XRECORD
  5
B751
102
{ACAD_REACTORS
330
B750
102
}
330
B750
100
AcDbXrecord
102
MATERIAL
148
0.0
149
0.0
149
0.0
 93
        0
 94
      127
282
     0
 72
     0
 77
     0
171
     0
175
     0
179
     0
273
     0
  0
XRECORD
  5
B753
102
{ACAD_REACTORS
330
B752
102
}
330
B752
100
AcDbXrecord
102
MATERIAL
148
0.0
149
0.0
149
0.0
 93
        0
 94
      127
282
     0
 72
     0
 77
     0
171
     0
175
     0
179
     0
273
     0
  0
XRECORD
  5
B755
102
{ACAD_REACTORS
330
B754
102
}
330
B754
100
AcDbXrecord
102
MATERIAL
148
0.0
149
0.0
149
0.0
 93
        0
 94
      127
282
     0
 72
     0
 77
     0
171
     0
175
     0
179
     0
273
     0
  0
ENDSEC
  0
EOF
