  0
SECTION
  2
HEADER
  9
$ACADVER
  1
AC1012
  9
$DWGCODEPAGE
  3
ansi_932
  9
$INSBASE
 10
0.0
 20
0.0
 30
0.0
  9
$EXTMIN
 10
4628.724163440167
 20
465.0088116253919
 30
0.0000000001057481
  9
$EXTMAX
 10
4947.152448822598
 20
705.0074933122893
 30
0.0000000001127424
  9
$LIMMIN
 10
0.0
 20
0.0
  9
$LIMMAX
 10
420.0
 20
297.0
  9
$ORTHOMODE
 70
     0
  9
$REGENMODE
 70
     1
  9
$FILLMODE
 70
     1
  9
$QTEXTMODE
 70
     0
  9
$MIRRTEXT
 70
     0
  9
$DRAGMODE
 70
     2
  9
$LTSCALE
 40
0.5
  9
$OSMODE
 70
 14463
  9
$ATTMODE
 70
     1
  9
$TEXTSIZE
 40
4.0
  9
$TRACEWID
 40
1.0
  9
$TEXTSTYLE
  7
STANDARD
  9
$CLAYER
  8
1TEXT
  9
$CELTYPE
  6
BYLAYER
  9
$CECOLOR
 62
   256
  9
$CELTSCALE
 40
1.0
  9
$DELOBJ
 70
     1
  9
$DISPSILH
 70
     0
  9
$DIMSCALE
 40
1.0
  9
$DIMASZ
 40
2.0
  9
$DIMEXO
 40
0.0
  9
$DIMDLI
 40
7.0
  9
$DIMRND
 40
0.0
  9
$DIMDLE
 40
0.0
  9
$DIMEXE
 40
1.0
  9
$DIMTP
 40
0.0
  9
$DIMTM
 40
0.0
  9
$DIMTXT
 40
3.5
  9
$DIMCEN
 40
0.0
  9
$DIMTSZ
 40
0.0
  9
$DIMTOL
 70
     0
  9
$DIMLIM
 70
     0
  9
$DIMTIH
 70
     0
  9
$DIMTOH
 70
     0
  9
$DIMSE1
 70
     0
  9
$DIMSE2
 70
     0
  9
$DIMTAD
 70
     1
  9
$DIMZIN
 70
     8
  9
$DIMBLK
  1

  9
$DIMASO
 70
     1
  9
$DIMSHO
 70
     1
  9
$DIMPOST
  1
 
  9
$DIMAPOST
  1

  9
$DIMALT
 70
     0
  9
$DIMALTD
 70
     2
  9
$DIMALTF
 40
25.4
  9
$DIMLFAC
 40
1.0
  9
$DIMTOFL
 70
     1
  9
$DIMTVP
 40
0.0
  9
$DIMTIX
 70
     0
  9
$DIMSOXD
 70
     0
  9
$DIMSAH
 70
     1
  9
$DIMBLK1
  1
OPEN30
  9
$DIMBLK2
  1
OPEN30
  9
$DIMSTYLE
  2
NEWX10
  9
$DIMCLRD
 70
   256
  9
$DIMCLRE
 70
   256
  9
$DIMCLRT
 70
   201
  9
$DIMTFAC
 40
0.7
  9
$DIMGAP
 40
0.7
  9
$DIMJUST
 70
     0
  9
$DIMSD1
 70
     0
  9
$DIMSD2
 70
     0
  9
$DIMTOLJ
 70
     1
  9
$DIMTZIN
 70
     8
  9
$DIMALTZ
 70
     0
  9
$DIMALTTZ
 70
     0
  9
$DIMFIT
 70
     2
  9
$DIMUPT
 70
     0
  9
$DIMUNIT
 70
     2
  9
$DIMDEC
 70
     2
  9
$DIMTDEC
 70
     4
  9
$DIMALTU
 70
     2
  9
$DIMALTTD
 70
     2
  9
$DIMTXSTY
  7
STANDARD
  9
$DIMAUNIT
 70
     0
  9
$LUNITS
 70
     2
  9
$LUPREC
 70
     4
  9
$SKETCHINC
 40
1.0
  9
$FILLETRAD
 40
0.0
  9
$AUNITS
 70
     0
  9
$AUPREC
 70
     2
  9
$MENU
  1
acad
  9
$ELEVATION
 40
0.0
  9
$PELEVATION
 40
0.0
  9
$THICKNESS
 40
0.0
  9
$LIMCHECK
 70
     0
  9
$CHAMFERA
 40
10.0
  9
$CHAMFERB
 40
10.0
  9
$CHAMFERC
 40
20.0
  9
$CHAMFERD
 40
0.0
  9
$SKPOLY
 70
     0
  9
$TDCREATE
 40
2451318.621352917
  9
$TDUPDATE
 40
2458159.43665882
  9
$TDINDWG
 40
1.4826393519
  9
$TDUSRTIMER
 40
1.4826393519
  9
$USRTIMER
 70
     1
  9
$ANGBASE
 50
0.0
  9
$ANGDIR
 70
     0
  9
$PDMODE
 70
     0
  9
$PDSIZE
 40
0.0
  9
$PLINEWID
 40
0.0
  9
$COORDS
 70
     2
  9
$SPLFRAME
 70
     0
  9
$SPLINETYPE
 70
     6
  9
$SPLINESEGS
 70
     8
  9
$ATTDIA
 70
     0
  9
$ATTREQ
 70
     1
  9
$HANDLING
 70
     1
  9
$HANDSEED
  5
E867
  9
$SURFTAB1
 70
     6
  9
$SURFTAB2
 70
     6
  9
$SURFTYPE
 70
     6
  9
$SURFU
 70
     6
  9
$SURFV
 70
     6
  9
$UCSNAME
  2

  9
$UCSORG
 10
0.0
 20
0.0
 30
0.0
  9
$UCSXDIR
 10
1.0
 20
0.0
 30
0.0
  9
$UCSYDIR
 10
0.0
 20
1.0
 30
0.0
  9
$PUCSNAME
  2

  9
$PUCSORG
 10
0.0
 20
0.0
 30
0.0
  9
$PUCSXDIR
 10
1.0
 20
0.0
 30
0.0
  9
$PUCSYDIR
 10
0.0
 20
1.0
 30
0.0
  9
$USERI1
 70
     0
  9
$USERI2
 70
     0
  9
$USERI3
 70
     0
  9
$USERI4
 70
     0
  9
$USERI5
 70
     0
  9
$USERR1
 40
0.0
  9
$USERR2
 40
0.0
  9
$USERR3
 40
0.0
  9
$USERR4
 40
0.0
  9
$USERR5
 40
0.0
  9
$WORLDVIEW
 70
     1
  9
$SHADEDGE
 70
     3
  9
$SHADEDIF
 70
    70
  9
$TILEMODE
 70
     1
  9
$MAXACTVP
 70
    48
  9
$PINSBASE
 10
0.0
 20
0.0
 30
0.0
  9
$PLIMCHECK
 70
     0
  9
$PEXTMIN
 10
1.000000000000000E+20
 20
1.000000000000000E+20
 30
1.000000000000000E+20
  9
$PEXTMAX
 10
-1.000000000000000E+20
 20
-1.000000000000000E+20
 30
-1.000000000000000E+20
  9
$PLIMMIN
 10
0.0
 20
0.0
  9
$PLIMMAX
 10
420.0
 20
297.0
  9
$UNITMODE
 70
     0
  9
$VISRETAIN
 70
     1
  9
$PLINEGEN
 70
     0
  9
$PSLTSCALE
 70
     1
  9
$TREEDEPTH
 70
  3020
  9
$PICKSTYLE
 70
     1
  9
$CMLSTYLE
  2
STANDARD
  9
$CMLJUST
 70
     0
  9
$CMLSCALE
 40
20.0
  9
$SAVEIMAGES
 70
     1
  0
ENDSEC
  0
SECTION
  2
CLASSES
  0
CLASS
  1
DICTIONARYVAR
  2
AcDbDictionaryVar
  3
ObjectDBX Classes
 90
        0
280
     0
281
     0
  0
CLASS
  1
IDBUFFER
  2
AcDbIdBuffer
  3
ObjectDBX Classes
 90
    32768
280
     0
281
     0
  0
CLASS
  1
LWPOLYLINE
  2
AcDbPolyline
  3
ObjectDBX Classes
 90
    32768
280
     0
281
     1
  0
CLASS
  1
ACDBDICTIONARYWDFLT
  2
AcDbDictionaryWithDefault
  3
ObjectDBX Classes
 90
    32768
280
     0
281
     0
  0
CLASS
  1
ACDBPLACEHOLDER
  2
AcDbPlaceHolder
  3
ObjectDBX Classes
 90
        0
280
     0
281
     0
  0
CLASS
  1
LAYOUT
  2
AcDbLayout
  3
ObjectDBX Classes
 90
        0
280
     0
281
     0
  0
CLASS
  1
TABLESTYLE
  2
AcDbTableStyle
  3
ObjectDBX Classes
 90
     4095
280
     0
281
     0
  0
CLASS
  1
SORTENTSTABLE
  2
AcDbSortentsTable
  3
ObjectDBX Classes
 90
    32768
280
     0
281
     0
  0
CLASS
  1
MATERIAL
  2
AcDbMaterial
  3
ObjectDBX Classes
 90
     1153
280
     0
281
     0
  0
CLASS
  1
VISUALSTYLE
  2
AcDbVisualStyle
  3
ObjectDBX Classes
 90
     4095
280
     0
281
     0
  0
CLASS
  1
SCALE
  2
AcDbScale
  3
ObjectDBX Classes
 90
     1153
280
     0
281
     0
  0
CLASS
  1
MLEADERSTYLE
  2
AcDbMLeaderStyle
  3
ACDB_MLEADERSTYLE_CLASS
 90
     4095
280
     0
281
     0
  0
CLASS
  1
CELLSTYLEMAP
  2
AcDbCellStyleMap
  3
ObjectDBX Classes
 90
     1152
280
     0
281
     0
  0
CLASS
  1
SUN
  2
AcDbSun
  3
SCENEOE
 90
     1153
280
     0
281
     0
  0
CLASS
  1
XRECORD
  2
AcDbXrecord
  3
ObjectDBX Classes
 90
    32768
280
     0
281
     0
  0
CLASS
  1
HATCH
  2
AcDbHatch
  3
ObjectDBX Classes
 90
    32768
280
     0
281
     1
  0
ENDSEC
  0
SECTION
  2
TABLES
  0
TABLE
  2
VPORT
  5
8
330
0
100
AcDbSymbolTable
 70
     1
  0
VPORT
  5
952D
330
8
100
AcDbSymbolTableRecord
100
AcDbViewportTableRecord
  2
*ACTIVE
 70
     0
 10
0.0
 20
0.0
 11
1.0
 21
1.0
 12
4787.938306131382
 22
585.0081524688405
 13
0.0
 23
0.0
 14
10.0
 24
10.0
 15
10.0
 25
10.0
 16
0.0
 26
0.0
 36
1.0
 17
0.0
 27
0.0
 37
0.0
 40
257.682795074353
 41
1.871481028151775
 42
50.0
 43
0.0
 44
0.0
 50
0.0
 51
0.0
 71
    16
 72
   100
 73
     1
 74
     1
 75
     0
 76
     0
 77
     0
 78
     0
1001
ACAD_NAV_VCDISPLAY
1070
     3
  0
ENDTAB
  0
TABLE
  2
LTYPE
  5
5
330
0
100
AcDbSymbolTable
 70
     2
  0
LTYPE
  5
12
330
5
100
AcDbSymbolTableRecord
100
AcDbLinetypeTableRecord
  2
BYBLOCK
 70
     0
  3

 72
    65
 73
     0
 40
0.0
  0
LTYPE
  5
13
330
5
100
AcDbSymbolTableRecord
100
AcDbLinetypeTableRecord
  2
BYLAYER
 70
     0
  3

 72
    65
 73
     0
 40
0.0
  0
LTYPE
  5
14
330
5
100
AcDbSymbolTableRecord
100
AcDbLinetypeTableRecord
  2
CONTINUOUS
 70
     0
  3
Solid line
 72
    65
 73
     0
 40
0.0
  0
LTYPE
  5
9837
330
5
100
AcDbSymbolTableRecord
100
AcDbLinetypeTableRecord
  2
CENTER2
 70
     0
  3
Center (.5x) ___ _ ___ _ ___ _ ___ _ ___ _ ___
 72
    65
 73
     4
 40
28.575
 49
19.05
 74
     0
 49
-3.175
 74
     0
 49
3.175
 74
     0
 49
-3.175
 74
     0
  0
ENDTAB
  0
TABLE
  2
LAYER
  5
2
102
{ACAD_XDICTIONARY
360
96D9
102
}
330
0
100
AcDbSymbolTable
 70
     5
  0
LAYER
  5
E
102
{ACAD_XDICTIONARY
360
9593
102
}
330
2
100
AcDbSymbolTableRecord
100
AcDbLayerTableRecord
  2
0
 70
     0
 62
     7
  6
CONTINUOUS
  0
LAYER
  5
29
102
{ACAD_XDICTIONARY
360
9595
102
}
330
2
100
AcDbSymbolTableRecord
100
AcDbLayerTableRecord
  2
1CENTER
 70
     0
 62
     7
  6
CENTER2
  0
LAYER
  5
31
102
{ACAD_XDICTIONARY
360
9597
102
}
330
2
100
AcDbSymbolTableRecord
100
AcDbLayerTableRecord
  2
1TEXT
 70
     0
 62
     7
  6
CONTINUOUS
  0
LAYER
  5
243
102
{ACAD_XDICTIONARY
360
959D
102
}
330
2
100
AcDbSymbolTableRecord
100
AcDbLayerTableRecord
  2
01
 70
     0
 62
     1
  6
CONTINUOUS
  0
LAYER
  5
24E
102
{ACAD_XDICTIONARY
360
95A3
102
}
330
2
100
AcDbSymbolTableRecord
100
AcDbLayerTableRecord
  2
1DIM
 70
     0
 62
     7
  6
CONTINUOUS
  0
ENDTAB
  0
TABLE
  2
STYLE
  5
3
330
0
100
AcDbSymbolTable
 70
     1
  0
STYLE
  5
F
330
3
100
AcDbSymbolTableRecord
100
AcDbTextStyleTableRecord
  2
STANDARD
 70
     0
 40
0.0
 41
1.0
 50
0.0
 71
     0
 42
4.0
  3
txt.shx
  4
extfont.shx
  0
ENDTAB
  0
TABLE
  2
VIEW
  5
6
330
0
100
AcDbSymbolTable
 70
     0
  0
ENDTAB
  0
TABLE
  2
UCS
  5
7
330
0
100
AcDbSymbolTable
 70
     0
  0
ENDTAB
  0
TABLE
  2
APPID
  5
9
330
0
100
AcDbSymbolTable
 70
    14
  0
APPID
  5
10
330
9
100
AcDbSymbolTableRecord
100
AcDbRegAppTableRecord
  2
ACAD
 70
     0
  0
APPID
  5
21
330
9
100
AcDbSymbolTableRecord
100
AcDbRegAppTableRecord
  2
DRAWINGVARIABLESXDATA
 70
     0
  0
APPID
  5
64
330
9
100
AcDbSymbolTableRecord
100
AcDbRegAppTableRecord
  2
CONTENTTABDATA
 70
     0
  0
APPID
  5
65
330
9
100
AcDbSymbolTableRecord
100
AcDbRegAppTableRecord
  2
CONTENTCURRENTTAB
 70
     0
  0
APPID
  5
66
330
9
100
AcDbSymbolTableRecord
100
AcDbRegAppTableRecord
  2
CONTENTBLOCKDESCRIPTION
 70
     0
  0
APPID
  5
67
330
9
100
AcDbSymbolTableRecord
100
AcDbRegAppTableRecord
  2
CONTENTBLOCKICON
 70
     0
  0
APPID
  5
68
330
9
100
AcDbSymbolTableRecord
100
AcDbRegAppTableRecord
  2
CONTENTLONGBLOCKNAME
 70
     0
  0
APPID
  5
2AE
330
9
100
AcDbSymbolTableRecord
100
AcDbRegAppTableRecord
  2
ACAD_PSEXT
 70
     0
  0
APPID
  5
9585
330
9
100
AcDbSymbolTableRecord
100
AcDbRegAppTableRecord
  2
ACAD_MLEADERVER
 70
     0
  0
APPID
  5
A2E3
330
9
100
AcDbSymbolTableRecord
100
AcDbRegAppTableRecord
  2
ACADANNOTATIVE
 70
     0
  0
APPID
  5
A2E4
330
9
100
AcDbSymbolTableRecord
100
AcDbRegAppTableRecord
  2
ACDBBLOCKREPETAG
 70
     0
  0
APPID
  5
AEB1
330
9
100
AcDbSymbolTableRecord
100
AcDbRegAppTableRecord
  2
ACAD_NAV_VCDISPLAY
 70
     0
  0
APPID
  5
B6A4
330
9
100
AcDbSymbolTableRecord
100
AcDbRegAppTableRecord
  2
ACAECLAYERSTANDARD
 70
     0
  0
APPID
  5
E1EF
330
9
100
AcDbSymbolTableRecord
100
AcDbRegAppTableRecord
  2
ACAD_EXEMPT_FROM_CAD_STAND
 70
     0
  0
ENDTAB
  0
TABLE
  2
DIMSTYLE
  5
A
330
0
100
AcDbSymbolTable
 70
     1
  0
DIMSTYLE
105
48
330
A
100
AcDbSymbolTableRecord
100
AcDbDimStyleTableRecord
  2
NEWX10
 70
     0
  3
 
  4

  5

  6
OPEN30
  7
OPEN30
 40
1.0
 41
2.0
 42
0.0
 43
7.0
 44
1.0
 45
0.0
 46
0.0
 47
0.0
 48
0.0
140
3.5
141
0.0
142
0.0
143
25.4
144
1.0
145
0.0
146
0.7
147
0.7
 71
     0
 72
     0
 73
     0
 74
     0
 75
     0
 76
     0
 77
     1
 78
     8
170
     0
171
     2
172
     1
173
     1
174
     0
175
     0
176
   256
177
   256
178
   201
179
     2
270
     2
271
     2
272
     4
273
     2
274
     2
340
F
275
     0
280
     0
281
     0
282
     0
283
     1
284
     8
285
     0
286
     0
287
     2
288
     0
  0
ENDTAB
  0
TABLE
  2
BLOCK_RECORD
  5
1
330
0
100
AcDbSymbolTable
 70
     8
  0
BLOCK_RECORD
  5
18
102
{ACAD_XDICTIONARY
360
88F
102
}
330
1
100
AcDbSymbolTableRecord
100
AcDbBlockTableRecord
  2
*MODEL_SPACE
  0
BLOCK_RECORD
  5
15
330
1
100
AcDbSymbolTableRecord
100
AcDbBlockTableRecord
  2
*PAPER_SPACE
  0
BLOCK_RECORD
  5
42
330
1
100
AcDbSymbolTableRecord
100
AcDbBlockTableRecord
  2
_OPEN30
  0
BLOCK_RECORD
  5
A333
330
1
100
AcDbSymbolTableRecord
100
AcDbBlockTableRecord
  2
A3WAKUKAWAJUN2017_HYOUDAI_
  0
BLOCK_RECORD
  5
E6C7
330
1
100
AcDbSymbolTableRecord
100
AcDbBlockTableRecord
  2
*X12
  0
BLOCK_RECORD
  5
E715
330
1
100
AcDbSymbolTableRecord
100
AcDbBlockTableRecord
  2
*X13
  0
BLOCK_RECORD
  5
E767
330
1
100
AcDbSymbolTableRecord
100
AcDbBlockTableRecord
  2
*X14
  0
BLOCK_RECORD
  5
E7B8
330
1
100
AcDbSymbolTableRecord
100
AcDbBlockTableRecord
  2
*X15
  0
BLOCK_RECORD
  5
E7F5
330
1
100
AcDbSymbolTableRecord
100
AcDbBlockTableRecord
  2
*X16
  0
BLOCK_RECORD
  5
E835
330
1
100
AcDbSymbolTableRecord
100
AcDbBlockTableRecord
  2
*X17
  0
ENDTAB
  0
ENDSEC
  0
SECTION
  2
BLOCKS
  0
BLOCK
  5
19
330
18
100
AcDbEntity
  8
0
100
AcDbBlockBegin
  2
*MODEL_SPACE
 70
     0
 10
0.0
 20
0.0
 30
0.0
  3
*MODEL_SPACE
  1

  0
ENDBLK
  5
1A
330
18
100
AcDbEntity
  8
0
100
AcDbBlockEnd
  0
BLOCK
  5
16
330
15
100
AcDbEntity
 67
     1
  8
0
100
AcDbBlockBegin
  2
*PAPER_SPACE
 70
     0
 10
0.0
 20
0.0
 30
0.0
  3
*PAPER_SPACE
  1

  0
ENDBLK
  5
17
330
15
100
AcDbEntity
 67
     1
  8
0
100
AcDbBlockEnd
  0
BLOCK
  5
43
330
42
100
AcDbEntity
  8
0
100
AcDbBlockBegin
  2
_OPEN30
 70
     0
 10
0.0
 20
0.0
 30
0.0
  3
_OPEN30
  1

  0
LINE
  5
44
330
42
100
AcDbEntity
  8
0
  6
BYBLOCK
 62
     0
100
AcDbLine
 10
-1.0
 20
0.26794919
 30
0.0
 11
0.0
 21
0.0
 31
0.0
  0
LINE
  5
45
330
42
100
AcDbEntity
  8
0
  6
BYBLOCK
 62
     0
100
AcDbLine
 10
0.0
 20
0.0
 30
0.0
 11
-1.0
 21
-0.26794919
 31
0.0
  0
LINE
  5
46
330
42
100
AcDbEntity
  8
0
  6
BYBLOCK
 62
     0
100
AcDbLine
 10
0.0
 20
0.0
 30
0.0
 11
-1.0
 21
0.0
 31
0.0
  0
ENDBLK
  5
47
330
42
100
AcDbEntity
  8
0
100
AcDbBlockEnd
  0
BLOCK
  5
AA56
330
A333
100
AcDbEntity
  8
0
100
AcDbBlockBegin
  2
A3WAKUKAWAJUN2017_HYOUDAI_
 70
     0
 10
0.0
 20
0.0
 30
0.0
  3
A3WAKUKAWAJUN2017_HYOUDAI_
  1

  0
LINE
  5
A335
330
A333
100
AcDbEntity
  8
0
100
AcDbLine
 10
13.26299999998673
 20
-0.0001000000000317
 30
0.0
 11
9.236999999990758
 21
8.999899999990987
 31
0.0
1001
ACAD
1000
ASC_BOUNDS
1002
{
1070
    19
1005
A376
1002
}
  0
LINE
  5
A336
330
A333
100
AcDbEntity
  8
0
100
AcDbLine
 10
5.657999999994331
 20
0.9999999999989768
 30
0.0
 11
9.236999999990758
 21
8.999999999991019
 31
0.0
1001
ACAD
1000
ASC_BOUNDS
1002
{
1070
    19
1005
A376
1002
}
  0
LINE
  5
A337
330
A333
100
AcDbEntity
  8
0
100
AcDbLine
 10
18.59199999998134
 20
-0.2368999999997641
 30
0.0
 11
16.46099999998353
 21
5.432899999994561
 31
0.0
1001
ACAD
1000
ASC_BOUNDS
1002
{
1070
    19
1005
A377
1002
}
  0
LINE
  5
A338
330
A333
100
AcDbEntity
  8
0
100
AcDbLine
 10
18.59199999998134
 20
-0.2368999999997641
 30
0.0
 11
22.38199999997767
 21
8.763099999991255
 31
0.0
1001
ACAD
1000
ASC_BOUNDS
1002
{
1070
    19
1005
A377
1002
}
  0
LINE
  5
A339
330
A333
100
AcDbEntity
  8
0
100
AcDbLine
 10
14.32899999998563
 20
-0.2368999999997641
 30
0.0
 11
16.46099999998353
 21
5.432899999994561
 31
0.0
1001
ACAD
1000
ASC_BOUNDS
1002
{
1070
    19
1005
A377
1002
}
  0
LINE
  5
A33A
330
A333
100
AcDbEntity
  8
0
100
AcDbLine
 10
14.32899999998563
 20
-0.2368999999997641
 30
0.0
 11
10.53899999998941
 21
8.763099999991255
 31
0.0
1001
ACAD
1000
ASC_BOUNDS
1002
{
1070
    19
1005
A377
1002
}
  0
LINE
  5
A33B
330
A333
100
AcDbEntity
  8
0
100
AcDbLine
 10
19.53899999998043
 20
-0.0001000000000317
 30
0.0
 11
23.56599999997638
 21
8.999899999990987
 31
0.0
1001
ACAD
1000
ASC_BOUNDS
1002
{
1070
    19
1005
A378
1002
}
  0
LINE
  5
A33C
330
A333
100
AcDbEntity
  8
0
100
AcDbLine
 10
26.97358892824991
 20
1.383099999991202
 30
0.0
 11
23.56599999997638
 21
8.999899999990987
 31
0.0
1001
ACAD
1000
ASC_BOUNDS
1002
{
1070
    19
1005
A378
1002
}
  0
LINE
  5
A33D
330
A333
100
AcDbEntity
  8
0
100
AcDbLine
 10
5.657999999994331
 20
0.9999999999989768
 30
0.0
 11
3.181999999996833
 21
4.668599999995308
 31
0.0
1001
ACAD
1000
ASC_BOUNDS
1002
{
1070
    19
1005
A376
1002
}
  0
LINE
  5
A33E
330
A333
100
AcDbEntity
  8
0
100
AcDbLine
 10
4.617999999995391
 20
-0.0001000000000317
 30
0.0
 11
1.420999999998571
 21
4.736799999995242
 31
0.0
1001
ACAD
1000
ASC_BOUNDS
1002
{
1070
    19
1005
A376
1002
}
  0
LINE
  5
A33F
330
A333
100
AcDbEntity
  8
0
100
AcDbLine
 10
1.420999999998571
 20
8.763099999991255
 30
0.0
 11
1.420999999998571
 21
0.0
 31
0.0
1001
ACAD
1000
ASC_BOUNDS
1002
{
1070
    19
1005
A37B
1002
}
  0
LINE
  5
A340
330
A333
100
AcDbEntity
  8
0
100
AcDbLine
 10
0.0
 20
8.763099999991255
 30
0.0
 11
0.0
 21
0.0
 31
0.0
1001
ACAD
1000
ASC_BOUNDS
1002
{
1070
    19
1005
A37B
1002
}
  0
LINE
  5
A341
330
A333
100
AcDbEntity
  8
0
100
AcDbLine
 10
6.766999999993232
 20
-0.0001000000000317
 30
0.0
 11
7.826999999992154
 21
2.368399999997621
 31
0.0
1001
ACAD
1000
ASC_BOUNDS
1002
{
1070
    19
1005
A376
1002
}
  0
LINE
  5
A342
330
A333
100
AcDbEntity
  8
0
100
AcDbLine
 10
0.0
 20
0.0
 30
0.0
 11
1.420999999998571
 21
0.0
 31
0.0
1001
ACAD
1000
ASC_BOUNDS
1002
{
1070
    19
1005
A37B
1002
}
  0
LINE
  5
A343
330
A333
100
AcDbEntity
  8
0
100
AcDbLine
 10
4.617999999995391
 20
0.0
 30
0.0
 11
6.766999999993232
 21
0.0
 31
0.0
1001
ACAD
1000
ASC_BOUNDS
1002
{
1070
    19
1005
A376
1002
}
  0
LINE
  5
A344
330
A333
100
AcDbEntity
  8
0
100
AcDbLine
 10
11.70599999998831
 20
-0.0001000000000317
 30
0.0
 11
10.64699999998936
 21
2.368399999997621
 31
0.0
1001
ACAD
1000
ASC_BOUNDS
1002
{
1070
    19
1005
A376
1002
}
  0
LINE
  5
A345
330
A333
100
AcDbEntity
  8
0
100
AcDbLine
 10
7.826999999992154
 20
2.368399999997621
 30
0.0
 11
10.64699999998936
 21
2.368399999997621
 31
0.0
1001
ACAD
1000
ASC_BOUNDS
1002
{
1070
    19
1005
A376
1002
}
  0
LINE
  5
A346
330
A333
100
AcDbEntity
  8
0
100
AcDbLine
 10
11.70599999998831
 20
0.0
 30
0.0
 11
13.26299999998673
 21
0.0
 31
0.0
1001
ACAD
1000
ASC_BOUNDS
1002
{
1070
    19
1005
A376
1002
}
  0
LINE
  5
A347
330
A333
100
AcDbEntity
  8
0
100
AcDbLine
 10
22.15599999997789
 20
2.368399999997621
 30
0.0
 11
24.97599999997499
 21
2.368399999997621
 31
0.0
1001
ACAD
1000
ASC_BOUNDS
1002
{
1070
    19
1005
A378
1002
}
  0
LINE
  5
A348
330
A333
100
AcDbEntity
  8
0
100
AcDbLine
 10
19.53899999998043
 20
0.0
 30
0.0
 11
21.09599999997886
 21
0.0
 31
0.0
1001
ACAD
1000
ASC_BOUNDS
1002
{
1070
    19
1005
A378
1002
}
  0
LINE
  5
A349
330
A333
100
AcDbEntity
  8
0
100
AcDbLine
 10
21.09599999997886
 20
-0.0001000000000317
 30
0.0
 11
22.15599999997789
 21
2.368399999997621
 31
0.0
1001
ACAD
1000
ASC_BOUNDS
1002
{
1070
    19
1005
A378
1002
}
  0
LINE
  5
A34A
330
A333
100
AcDbEntity
  8
0
100
AcDbLine
 10
26.02015566812236
 20
0.0330999999912365
 30
0.0
 11
24.97599999997499
 21
2.368399999997621
 31
0.0
1001
ACAD
1000
ASC_BOUNDS
1002
{
1070
    19
1005
A378
1002
}
  0
LINE
  5
A34B
330
A333
100
AcDbEntity
  8
0
100
AcDbLine
 10
14.32399999998563
 20
3.315799999996671
 30
0.0
 11
16.46099999998353
 21
8.999899999990987
 31
0.0
1001
ACAD
1000
ASC_BOUNDS
1002
{
1070
    19
1005
A377
1002
}
  0
LINE
  5
A34C
330
A333
100
AcDbEntity
  8
0
100
AcDbLine
 10
6.432999999993513
 20
8.763099999991255
 30
0.0
 11
3.181999999996833
 21
4.668599999995308
 31
0.0
1001
ACAD
1000
ASC_BOUNDS
1002
{
1070
    19
1005
A376
1002
}
  0
LINE
  5
A34D
330
A333
100
AcDbEntity
  8
0
100
AcDbLine
 10
4.617999999995391
 20
8.763099999991255
 30
0.0
 11
1.420999999998571
 21
4.736799999995242
 31
0.0
1001
ACAD
1000
ASC_BOUNDS
1002
{
1070
    19
1005
A376
1002
}
  0
LINE
  5
A34E
330
A333
100
AcDbEntity
  8
0
100
AcDbLine
 10
0.0
 20
8.763099999991255
 30
0.0
 11
1.420999999998571
 21
8.763099999991255
 31
0.0
1001
ACAD
1000
ASC_BOUNDS
1002
{
1070
    19
1005
A37B
1002
}
  0
LINE
  5
A34F
330
A333
100
AcDbEntity
  8
0
100
AcDbLine
 10
4.617999999995391
 20
8.763099999991255
 30
0.0
 11
6.432999999993513
 21
8.763099999991255
 31
0.0
1001
ACAD
1000
ASC_BOUNDS
1002
{
1070
    19
1005
A376
1002
}
  0
LINE
  5
A350
330
A333
100
AcDbEntity
  8
0
100
AcDbLine
 10
14.32399999998563
 20
3.315799999996671
 30
0.0
 11
12.02999999998792
 21
8.763099999991255
 31
0.0
1001
ACAD
1000
ASC_BOUNDS
1002
{
1070
    19
1005
A377
1002
}
  0
LINE
  5
A351
330
A333
100
AcDbEntity
  8
0
100
AcDbLine
 10
10.06399999998996
 20
3.670999999996297
 30
0.0
 11
9.236999999990758
 21
5.5200999999945
 31
0.0
1001
ACAD
1000
ASC_BOUNDS
1002
{
1070
    19
1005
A376
1002
}
  0
LINE
  5
A352
330
A333
100
AcDbEntity
  8
0
100
AcDbLine
 10
8.409999999991555
 20
3.670999999996297
 30
0.0
 11
9.236999999990758
 21
5.5200999999945
 31
0.0
1001
ACAD
1000
ASC_BOUNDS
1002
{
1070
    19
1005
A376
1002
}
  0
LINE
  5
A353
330
A333
100
AcDbEntity
  8
0
100
AcDbLine
 10
8.409999999991555
 20
3.670999999996297
 30
0.0
 11
10.06399999998996
 21
3.670999999996297
 31
0.0
1001
ACAD
1000
ASC_BOUNDS
1002
{
1070
    19
1005
A376
1002
}
  0
LINE
  5
A354
330
A333
100
AcDbEntity
  8
0
100
AcDbLine
 10
10.53899999998941
 20
8.763099999991255
 30
0.0
 11
12.02999999998792
 21
8.763099999991255
 31
0.0
1001
ACAD
1000
ASC_BOUNDS
1002
{
1070
    19
1005
A377
1002
}
  0
LINE
  5
A355
330
A333
100
AcDbEntity
  8
0
100
AcDbLine
 10
22.7389999999773
 20
3.670999999996297
 30
0.0
 11
23.56599999997638
 21
5.5200999999945
 31
0.0
1001
ACAD
1000
ASC_BOUNDS
1002
{
1070
    19
1005
A378
1002
}
  0
LINE
  5
A356
330
A333
100
AcDbEntity
  8
0
100
AcDbLine
 10
22.7389999999773
 20
3.670999999996297
 30
0.0
 11
24.39299999997559
 21
3.670999999996297
 31
0.0
1001
ACAD
1000
ASC_BOUNDS
1002
{
1070
    19
1005
A378
1002
}
  0
LINE
  5
A357
330
A333
100
AcDbEntity
  8
0
100
AcDbLine
 10
18.59799999998143
 20
3.315799999996671
 30
0.0
 11
20.89099999997916
 21
8.763099999991255
 31
0.0
1001
ACAD
1000
ASC_BOUNDS
1002
{
1070
    19
1005
A377
1002
}
  0
LINE
  5
A358
330
A333
100
AcDbEntity
  8
0
100
AcDbLine
 10
18.59799999998143
 20
3.315799999996671
 30
0.0
 11
16.46099999998353
 21
8.999899999990987
 31
0.0
1001
ACAD
1000
ASC_BOUNDS
1002
{
1070
    19
1005
A377
1002
}
  0
LINE
  5
A359
330
A333
100
AcDbEntity
  8
0
100
AcDbLine
 10
20.89099999997916
 20
8.763099999991255
 30
0.0
 11
22.38199999997767
 21
8.763099999991255
 31
0.0
1001
ACAD
1000
ASC_BOUNDS
1002
{
1070
    19
1005
A377
1002
}
  0
LINE
  5
A35A
330
A333
100
AcDbEntity
  8
0
100
AcDbLine
 10
24.39299999997559
 20
3.670999999996297
 30
0.0
 11
23.56599999997638
 21
5.5200999999945
 31
0.0
1001
ACAD
1000
ASC_BOUNDS
1002
{
1070
    19
1005
A378
1002
}
  0
LINE
  5
A35B
330
A333
100
AcDbEntity
  8
0
100
AcDbLine
 10
44.99999999995498
 20
-0.2368999999997641
 30
0.0
 11
40.02599999995994
 21
5.341799999994635
 31
0.0
1001
ACAD
1000
ASC_BOUNDS
1002
{
1070
    19
1005
A37A
1002
}
  0
LINE
  5
A35C
330
A333
100
AcDbEntity
  8
0
100
AcDbLine
 10
40.02599999995994
 20
5.341799999994635
 30
0.0
 11
40.02599999995994
 21
0.0
 31
0.0
1001
ACAD
1000
ASC_BOUNDS
1002
{
1070
    19
1005
A37A
1002
}
  0
LINE
  5
A35D
330
A333
100
AcDbEntity
  8
0
100
AcDbLine
 10
38.60499999996136
 20
8.999999999991019
 30
0.0
 11
38.60499999996136
 21
0.0
 31
0.0
1001
ACAD
1000
ASC_BOUNDS
1002
{
1070
    19
1005
A37A
1002
}
  0
LINE
  5
A35E
330
A333
100
AcDbEntity
  8
0
100
AcDbLine
 10
44.99999999995498
 20
8.763099999991255
 30
0.0
 11
44.99999999995498
 21
-0.2368999999997641
 31
0.0
1001
ACAD
1000
ASC_BOUNDS
1002
{
1070
    19
1005
A37A
1002
}
  0
LINE
  5
A35F
330
A333
100
AcDbEntity
  8
0
100
AcDbLine
 10
38.60499999996136
 20
0.0
 30
0.0
 11
40.02599999995994
 21
0.0
 31
0.0
1001
ACAD
1000
ASC_BOUNDS
1002
{
1070
    19
1005
A37A
1002
}
  0
LINE
  5
A360
330
A333
100
AcDbEntity
  8
0
100
AcDbLine
 10
43.57899999995641
 20
3.421199999996588
 30
0.0
 11
38.60499999996136
 21
8.999899999990987
 31
0.0
1001
ACAD
1000
ASC_BOUNDS
1002
{
1070
    19
1005
A37A
1002
}
  0
LINE
  5
A361
330
A333
100
AcDbEntity
  8
0
100
AcDbLine
 10
43.57899999995641
 20
8.763099999991255
 30
0.0
 11
43.57899999995641
 21
3.421199999996588
 31
0.0
1001
ACAD
1000
ASC_BOUNDS
1002
{
1070
    19
1005
A37A
1002
}
  0
LINE
  5
A362
330
A333
100
AcDbEntity
  8
0
100
AcDbLine
 10
43.57899999995641
 20
8.763099999991255
 30
0.0
 11
44.99999999995498
 21
8.763099999991255
 31
0.0
1001
ACAD
1000
ASC_BOUNDS
1002
{
1070
    19
1005
A37A
1002
}
  0
LINE
  5
A363
330
A333
100
AcDbEntity
  8
0
100
AcDbLine
 10
37.67199999996831
 20
8.763099999991255
 30
0.0
 11
36.23199999996837
 21
8.763099999991255
 31
0.0
  0
LINE
  5
A364
330
A333
100
AcDbEntity
  8
0
100
AcDbLine
 10
31.64199999996833
 20
8.763099999991255
 30
0.0
 11
31.64199999996833
 21
2.481619422925121
 31
0.0
  0
LINE
  5
A365
330
A333
100
AcDbEntity
  8
0
100
AcDbLine
 10
37.67199999996831
 20
8.763099999991255
 30
0.0
 11
37.67199999996831
 21
2.481619422925121
 31
0.0
  0
LINE
  5
A366
330
A333
100
AcDbEntity
  8
0
100
AcDbLine
 10
36.23199999996837
 20
8.763099999991255
 30
0.0
 11
36.23199999996837
 21
2.481619422925064
 31
0.0
  0
LINE
  5
A367
330
A333
100
AcDbEntity
  8
0
100
AcDbLine
 10
33.08199999996839
 20
8.763099999991255
 30
0.0
 11
33.08199999996839
 21
2.481619422925121
 31
0.0
  0
ARC
  5
A368
330
A333
100
AcDbEntity
  8
0
100
AcDbCircle
 10
34.65699999996832
 20
3.183099999991214
 30
0.0
 40
3.420000000000007
100
AcDbArc
 50
240.0000000000255
 51
299.9999999999766
  0
ARC
  5
A369
330
A333
100
AcDbEntity
  8
0
100
AcDbCircle
 10
34.65699999996832
 20
3.183099999991214
 30
0.0
 40
1.97999999999999
100
AcDbArc
 50
240.000000000026
 51
299.9999999999703
  0
LINE
  5
A36A
330
A333
100
AcDbEntity
  8
0
100
AcDbLine
 10
33.08199999996828
 20
8.763099999991255
 30
0.0
 11
31.64199999996833
 21
8.763099999991255
 31
0.0
  0
ARC
  5
A36B
330
A333
100
AcDbEntity
  8
0
100
AcDbCircle
 10
35.06199999996829
 20
2.481619422925064
 30
0.0
 40
1.17
100
AcDbArc
 50
299.9999999999699
 51
0.0
  0
ARC
  5
A36C
330
A333
100
AcDbEntity
  8
0
100
AcDbCircle
 10
34.25199999996835
 20
2.481619422925121
 30
0.0
 40
1.17
100
AcDbArc
 50
180.0
 51
240.0000000000238
  0
ARC
  5
A36D
330
A333
100
AcDbEntity
  8
0
100
AcDbCircle
 10
35.06199999996841
 20
2.481619422925121
 30
0.0
 40
2.61
100
AcDbArc
 50
299.9999999999756
 51
0.0
  0
ARC
  5
A36E
330
A333
100
AcDbEntity
  8
0
100
AcDbCircle
 10
34.25199999996835
 20
2.481619422925121
 30
0.0
 40
2.61
100
AcDbArc
 50
180.0
 51
240.0000000000244
  0
LINE
  5
A36F
330
A333
100
AcDbEntity
  8
0
100
AcDbLine
 10
29.30199999996933
 20
8.763099999991255
 30
0.0
 11
30.74199999996927
 21
8.763099999991255
 31
0.0
1001
ACAD
1000
ASC_BOUNDS
1002
{
1070
    19
1005
A378
1002
}
  0
LINE
  5
A370
330
A333
100
AcDbEntity
  8
0
100
AcDbLine
 10
30.74199999996927
 20
8.763099999991255
 30
0.0
 11
30.74199999996927
 21
2.373099999991211
 31
0.0
1001
ACAD
1000
ASC_BOUNDS
1002
{
1070
    19
1005
A378
1002
}
  0
LINE
  5
A371
330
A333
100
AcDbEntity
  8
0
100
AcDbLine
 10
26.02015566812236
 20
0.0330999999912365
 30
0.0
 11
28.40199999996923
 21
0.0330999999912365
 31
0.0
1001
ACAD
1000
ASC_BOUNDS
1002
{
1070
    19
1005
A378
1002
}
  0
LINE
  5
A372
330
A333
100
AcDbEntity
  8
0
100
AcDbLine
 10
29.30199999996933
 20
8.763099999991255
 30
0.0
 11
29.30199999996933
 21
2.283099999991236
 31
0.0
1001
ACAD
1000
ASC_BOUNDS
1002
{
1070
    19
1005
A378
1002
}
  0
LINE
  5
A373
330
A333
100
AcDbEntity
  8
0
100
AcDbLine
 10
26.97358892824991
 20
1.383099999991202
 30
0.0
 11
28.40199999996923
 21
1.383099999991202
 31
0.0
1001
ACAD
1000
ASC_BOUNDS
1002
{
1070
    19
1005
A378
1002
}
  0
ARC
  5
A374
330
A333
100
AcDbEntity
  8
0
100
AcDbCircle
 10
28.40199999996923
 20
2.283099999991236
 30
0.0
 40
0.9
100
AcDbArc
 50
270.0
 51
0.0
1001
ACAD
1000
ASC_BOUNDS
1002
{
1070
    19
1005
A378
1002
}
  0
ARC
  5
A375
330
A333
100
AcDbEntity
  8
0
100
AcDbCircle
 10
28.40199999996923
 20
2.373099999991211
 30
0.0
 40
2.34
100
AcDbArc
 50
270.0
 51
0.0
1001
ACAD
1000
ASC_BOUNDS
1002
{
1070
    19
1005
A378
1002
}
  0
INSERT
  5
A376
330
A333
100
AcDbEntity
  8
0
100
AcDbBlockReference
  2
*X12
 10
0.0
 20
0.0
 30
0.0
1001
ACAD
1000
HATCH
1002
{
1070
    19
1000
ANSI37
1040
0.15
1040
0.0
1000
ASC_BOUNDS
1070
     2
1070
     2
1070
    12
1005
A335
1005
A336
1005
A33D
1005
A34C
1005
A34F
1005
A34D
1005
A33E
1005
A343
1005
A341
1005
A345
1005
A344
1005
A346
1070
     2
1070
     3
1005
A351
1005
A353
1005
A352
1000
ASC_SEEDPOINT
1011
3.614004224891801
1021
2.996669441146025
1031
0.0
1000
R14_HATCH_DATA
1000
A376
1011
1.0
1021
0.0
1031
0.0
1011
0.0
1021
1.0
1031
0.0
1011
0.0
1021
0.0
1031
1.0
1040
0.0
1010
0.0
1020
0.0
1030
1.0
1000
ANSI37
1070
     0
1070
     1
1071
        2
1071
        7
1070
     0
1070
     1
1071
       17
1040
13.26299999998673
1040
-0.0001000000000317
1040
9.236999999990758
1040
8.999899999990987
1040
9.236999999990758
1040
8.999999999991019
1040
5.657999999994331
1040
0.9999999999989768
1040
3.181999999996833
1040
4.668599999995308
1040
6.432999999993513
1040
8.763099999991255
1040
4.617999999995391
1040
8.763099999991255
1040
1.420999999998571
1040
4.736799999995242
1040
4.617999999995391
1040
-0.0001000000000317
1040
4.617999999995391
1040
0.0
1040
6.766999999993232
1040
0.0
1040
6.766999999993232
1040
-0.0001000000000317
1040
7.826999999992154
1040
2.368399999997621
1040
10.64699999998936
1040
2.368399999997621
1040
11.70599999998831
1040
-0.0001000000000317
1040
11.70599999998831
1040
0.0
1040
13.26299999998673
1040
0.0
1071
       12
1005
A335
1005
A336
1005
A33D
1005
A34C
1005
A34F
1005
A34D
1005
A33E
1005
A343
1005
A341
1005
A345
1005
A344
1005
A346
1071
       22
1070
     0
1070
     1
1071
        3
1040
9.236999999990758
1040
5.5200999999945
1040
10.06399999998996
1040
3.670999999996297
1040
8.409999999991555
1040
3.670999999996297
1071
        3
1005
A351
1005
A353
1005
A352
1070
     0
1070
     1
1040
0.0
1040
0.15
1070
     0
1070
     2
1040
0.7853981633974483
1040
49.29960901727088
1040
-10.17736998311392
1040
-0.3367596045400932
1040
0.3367596045400932
1070
     0
1040
2.356194490192345
1040
49.29960901727088
1040
-10.17736998311392
1040
-0.3367596045400932
1040
-0.3367596045400932
1070
     0
1040
0.0110235143455945
1071
        2
1040
3.614004224891801
1040
2.996669441146025
1040
0.0
1040
3.614004224891801
1040
2.996669441146025
1040
0.0
1002
}
  0
INSERT
  5
A377
330
A333
100
AcDbEntity
  8
0
100
AcDbBlockReference
  2
*X13
 10
0.0
 20
0.0
 30
0.0
1001
ACAD
1000
HATCH
1002
{
1070
    19
1000
ANSI37
1040
0.15
1040
0.0
1000
ASC_BOUNDS
1070
     1
1070
     2
1070
    10
1005
A337
1005
A338
1005
A359
1005
A357
1005
A358
1005
A34B
1005
A350
1005
A354
1005
A33A
1005
A339
1000
ASC_SEEDPOINT
1011
14.73245321214324
1021
2.798246178283421
1031
0.0
1000
R14_HATCH_DATA
1000
A377
1011
1.0
1021
0.0
1031
0.0
1011
0.0
1021
1.0
1031
0.0
1011
0.0
1021
0.0
1031
1.0
1040
0.0
1010
0.0
1020
0.0
1030
1.0
1000
ANSI37
1070
     0
1070
     1
1071
        1
1071
        7
1070
     0
1070
     1
1071
       10
1040
16.46099999998353
1040
5.432899999994561
1040
18.59199999998134
1040
-0.2368999999997641
1040
22.38199999997767
1040
8.763099999991255
1040
20.89099999997916
1040
8.763099999991255
1040
18.59799999998143
1040
3.315799999996671
1040
16.46099999998353
1040
8.999899999990987
1040
14.32399999998563
1040
3.315799999996671
1040
12.02999999998792
1040
8.763099999991255
1040
10.53899999998941
1040
8.763099999991255
1040
14.32899999998563
1040
-0.2368999999997641
1071
       10
1005
A337
1005
A338
1005
A359
1005
A357
1005
A358
1005
A34B
1005
A350
1005
A354
1005
A33A
1005
A339
1070
     0
1070
     1
1040
0.0
1040
0.15
1070
     0
1070
     2
1040
0.7853981633974483
1040
49.29960901727088
1040
-10.17736998311392
1040
-0.3367596045400932
1040
0.3367596045400932
1070
     0
1040
2.356194490192345
1040
49.29960901727088
1040
-10.17736998311392
1040
-0.3367596045400932
1040
-0.3367596045400932
1070
     0
1040
0.0110235143455945
1071
        1
1040
14.73245321214324
1040
2.798246178283421
1040
0.0
1002
}
  0
INSERT
  5
A378
330
A333
100
AcDbEntity
  8
0
100
AcDbBlockReference
  2
*X14
 10
0.0
 20
0.0
 30
0.0
1001
ACAD
1000
HATCH
1002
{
1070
    19
1000
ANSI37
1040
0.15
1040
0.0
1000
ASC_BOUNDS
1070
     2
1070
     2
1070
    13
1005
A33B
1005
A348
1005
A349
1005
A347
1005
A34A
1005
A371
1005
A375
1005
A370
1005
A36F
1005
A372
1005
A374
1005
A373
1005
A33C
1070
     2
1070
     3
1005
A355
1005
A35A
1005
A356
1000
ASC_SEEDPOINT
1011
21.97929957367762
1021
3.294304244259308
1031
0.0
1000
R14_HATCH_DATA
1000
A378
1011
1.0
1021
0.0
1031
0.0
1011
0.0
1021
1.0
1031
0.0
1011
0.0
1021
0.0
1031
1.0
1040
0.0
1010
0.0
1020
0.0
1030
1.0
1000
ANSI37
1070
     0
1070
     1
1071
        2
1071
        7
1070
     1
1070
     1
1071
       15
1040
23.56599999997638
1040
8.999899999990987
1040
0.0
1040
19.53899999998043
1040
-0.0001000000000317
1040
0.0
1040
19.53899999998043
1040
0.0
1040
0.0
1040
21.09599999997886
1040
0.0
1040
0.0
1040
21.09599999997886
1040
-0.0001000000000317
1040
0.0
1040
22.15599999997789
1040
2.368399999997621
1040
0.0
1040
24.97599999997499
1040
2.368399999997621
1040
0.0
1040
26.02015566812236
1040
0.0330999999912365
1040
0.0
1040
28.40199999996923
1040
0.0330999999912365
1040
0.414213562373095
1040
30.74199999996923
1040
2.373099999991211
1040
0.0
1040
30.74199999996927
1040
8.763099999991255
1040
0.0
1040
29.30199999996933
1040
8.763099999991255
1040
0.0
1040
29.30199999996933
1040
2.283099999991236
1040
-0.414213562373095
1040
28.40199999996923
1040
1.383099999991237
1040
0.0
1040
26.97358892824991
1040
1.383099999991202
1040
0.0
1071
       13
1005
A33B
1005
A348
1005
A349
1005
A347
1005
A34A
1005
A371
1005
A375
1005
A370
1005
A36F
1005
A372
1005
A374
1005
A373
1005
A33C
1071
       22
1070
     0
1070
     1
1071
        3
1040
22.7389999999773
1040
3.670999999996297
1040
23.56599999997638
1040
5.5200999999945
1040
24.39299999997559
1040
3.670999999996297
1071
        3
1005
A355
1005
A35A
1005
A356
1070
     0
1070
     1
1040
0.0
1040
0.15
1070
     0
1070
     2
1040
0.7853981633974483
1040
49.29960901727088
1040
-10.17736998311392
1040
-0.3367596045400932
1040
0.3367596045400932
1070
     0
1040
2.356194490192345
1040
49.29960901727088
1040
-10.17736998311392
1040
-0.3367596045400932
1040
-0.3367596045400932
1070
     0
1040
0.0110235143455945
1071
        2
1040
21.97929957367762
1040
3.294304244259308
1040
0.0
1040
21.97929957367762
1040
3.294304244259308
1040
0.0
1002
}
  0
INSERT
  5
A379
330
A333
100
AcDbEntity
  8
0
100
AcDbBlockReference
  2
*X15
 10
0.0
 20
0.0
 30
0.0
1001
ACAD
1000
HATCH
1002
{
1070
    19
1000
ANSI37
1040
0.15
1040
0.0
1000
R14_HATCH_DATA
1000
A379
1011
1.0
1021
0.0
1031
0.0
1011
0.0
1021
1.0
1031
0.0
1011
0.0
1021
0.0
1031
1.0
1040
0.0
1010
0.0
1020
0.0
1030
1.0
1000
ANSI37
1070
     0
1070
     1
1071
        1
1071
        7
1070
     1
1070
     1
1071
       12
1040
31.64199999996833
1040
2.481619422925121
1040
0.2679491924310942
1040
32.94699999997067
1040
0.2212931190493919
1040
0.2679491924301353
1040
36.36699999995983
1040
0.2212931190459813
1040
0.2679491924321411
1040
37.67199999996831
1040
2.481619422928361
1040
0.0
1040
37.67199999996831
1040
8.763099999991255
1040
0.0
1040
36.23199999996837
1040
8.763099999991255
1040
0.0
1040
36.23199999996837
1040
2.481619422925064
1040
-0.2679491924310291
1040
35.64699999996708
1040
1.468369700498386
1040
-0.267949192430519
1040
33.66699999997093
1040
1.468369700497703
1040
-0.267949192431809
1040
33.08199999996839
1040
2.481619422926997
1040
0.0
1040
33.08199999996839
1040
8.763099999991255
1040
0.0
1040
31.64199999996833
1040
8.763099999991255
1040
0.0
1071
        0
1070
     0
1070
     1
1040
0.0
1040
0.15
1070
     0
1070
     2
1040
0.7853981633974483
1040
49.29960901727088
1040
-10.17736998311392
1040
-0.3367596045400932
1040
0.3367596045400932
1070
     0
1040
2.356194490192345
1040
49.29960901727088
1040
-10.17736998311392
1040
-0.3367596045400932
1040
-0.3367596045400932
1070
     0
1040
0.0110235143455945
1071
        1
1040
32.30357378967278
1040
3.988785755459219
1040
0.0
1002
}
  0
INSERT
  5
A37A
330
A333
100
AcDbEntity
  8
0
100
AcDbBlockReference
  2
*X16
 10
0.0
 20
0.0
 30
0.0
1001
ACAD
1000
HATCH
1002
{
1070
    19
1000
ANSI37
1040
0.15
1040
0.0
1000
ASC_BOUNDS
1070
     1
1070
     2
1070
     8
1005
A35B
1005
A35E
1005
A362
1005
A361
1005
A360
1005
A35D
1005
A35F
1005
A35C
1000
ASC_SEEDPOINT
1011
39.74896370716704
1021
4.484843821435049
1031
0.0
1000
R14_HATCH_DATA
1000
A37A
1011
1.0
1021
0.0
1031
0.0
1011
0.0
1021
1.0
1031
0.0
1011
0.0
1021
0.0
1031
1.0
1040
0.0
1010
0.0
1020
0.0
1030
1.0
1000
ANSI37
1070
     0
1070
     1
1071
        1
1071
        7
1070
     0
1070
     1
1071
        9
1040
40.02599999995994
1040
5.341799999994635
1040
44.99999999995498
1040
-0.2368999999997641
1040
44.99999999995498
1040
8.763099999991255
1040
43.57899999995641
1040
8.763099999991255
1040
43.57899999995641
1040
3.421199999996588
1040
38.60499999996136
1040
8.999899999990987
1040
38.60499999996136
1040
8.999999999991019
1040
38.60499999996136
1040
0.0
1040
40.02599999995994
1040
0.0
1071
        8
1005
A35B
1005
A35E
1005
A362
1005
A361
1005
A360
1005
A35D
1005
A35F
1005
A35C
1070
     0
1070
     1
1040
0.0
1040
0.15
1070
     0
1070
     2
1040
0.7853981633974483
1040
49.29960901727088
1040
-10.17736998311392
1040
-0.3367596045400932
1040
0.3367596045400932
1070
     0
1040
2.356194490192345
1040
49.29960901727088
1040
-10.17736998311392
1040
-0.3367596045400932
1040
-0.3367596045400932
1070
     0
1040
0.0110235143455945
1071
        1
1040
39.74896370716704
1040
4.484843821435049
1040
0.0
1002
}
  0
INSERT
  5
A37B
330
A333
100
AcDbEntity
  8
0
100
AcDbBlockReference
  2
*X17
 10
0.0
 20
0.0
 30
0.0
1001
ACAD
1000
HATCH
1002
{
1070
    19
1000
ANSI37
1040
0.15
1040
0.0
1000
ASC_BOUNDS
1070
     1
1070
     2
1070
     4
1005
A33F
1005
A34E
1005
A340
1005
A342
1000
ASC_SEEDPOINT
1011
1.079051535452663
1021
4.148538732891836
1031
0.0
1000
R14_HATCH_DATA
1000
A37B
1011
1.0
1021
0.0
1031
0.0
1011
0.0
1021
1.0
1031
0.0
1011
0.0
1021
0.0
1031
1.0
1040
0.0
1010
0.0
1020
0.0
1030
1.0
1000
ANSI37
1070
     0
1070
     1
1071
        1
1071
        7
1070
     0
1070
     1
1071
        4
1040
1.420999999998571
1040
0.0
1040
1.420999999998571
1040
8.763099999991255
1040
0.0
1040
8.763099999991255
1040
0.0
1040
0.0
1071
        4
1005
A33F
1005
A34E
1005
A340
1005
A342
1070
     0
1070
     1
1040
0.0
1040
0.15
1070
     0
1070
     2
1040
0.7853981633974483
1040
49.29960901727088
1040
-10.17736998311392
1040
-0.3367596045400932
1040
0.3367596045400932
1070
     0
1040
2.356194490192345
1040
49.29960901727088
1040
-10.17736998311392
1040
-0.3367596045400932
1040
-0.3367596045400932
1070
     0
1040
0.0053004257112761
1071
        1
1040
1.079051535452663
1040
4.148538732891836
1040
0.0
1002
}
  0
ENDBLK
  5
AA57
330
A333
100
AcDbEntity
  8
0
100
AcDbBlockEnd
  0
BLOCK
  5
E855
330
E6C7
100
AcDbEntity
  8
0
100
AcDbBlockBegin
  2
*X12
 70
     1
 10
0.0
 20
0.0
 30
0.0
  3
*X12
  1

  0
LINE
  5
E6C8
330
E6C7
100
AcDbEntity
  8
0
  6
CONTINUOUS
100
AcDbLine
 10
3.418023043697893
 20
7.251849696850613
 30
0.0
 11
4.929273346838536
 21
8.763099999991255
 31
0.0
  0
LINE
  5
E6C9
330
E6C7
100
AcDbEntity
  8
0
  6
CONTINUOUS
100
AcDbLine
 10
1.483656411257782
 20
4.643963855330318
 30
0.0
 11
5.60279255591872
 21
8.763099999991255
 31
0.0
  0
LINE
  5
E6CA
330
E6C7
100
AcDbEntity
  8
0
  6
CONTINUOUS
100
AcDbLine
 10
1.755053947328235
 20
4.241842182320584
 30
0.0
 11
6.276311764998907
 21
8.763099999991255
 31
0.0
  0
LINE
  5
E6CB
330
E6C7
100
AcDbEntity
  8
0
  6
CONTINUOUS
100
AcDbLine
 10
2.026451483398688
 20
3.839720509310849
 30
0.0
 11
4.441040904851878
 21
6.254309930764039
 31
0.0
  0
LINE
  5
E6CC
330
E6C7
100
AcDbEntity
  8
0
  6
CONTINUOUS
100
AcDbLine
 10
2.297849019469139
 20
3.437598836301114
 30
0.0
 11
3.321765168359338
 21
4.461514985191313
 31
0.0
  0
LINE
  5
E6CD
330
E6C7
100
AcDbEntity
  8
0
  6
CONTINUOUS
100
AcDbLine
 10
2.569246555539591
 20
3.03547716329138
 30
0.0
 11
3.593163397972743
 21
4.059394005724531
 31
0.0
  0
LINE
  5
E6CE
330
E6C7
100
AcDbEntity
  8
0
  6
CONTINUOUS
100
AcDbLine
 10
2.840644091610043
 20
2.633355490281646
 30
0.0
 11
3.864561627586149
 21
3.657273026257751
 31
0.0
  0
LINE
  5
E6CF
330
E6C7
100
AcDbEntity
  8
0
  6
CONTINUOUS
100
AcDbLine
 10
3.112041627680496
 20
2.231233817271911
 30
0.0
 11
4.135959857199554
 21
3.25515204679097
 31
0.0
  0
LINE
  5
E6D0
330
E6C7
100
AcDbEntity
  8
0
  6
CONTINUOUS
100
AcDbLine
 10
3.383439163750948
 20
1.829112144262177
 30
0.0
 11
4.40735808681296
 21
2.853031067324189
 31
0.0
  0
LINE
  5
E6D1
330
E6C7
100
AcDbEntity
  8
0
  6
CONTINUOUS
100
AcDbLine
 10
3.654836699821399
 20
1.426990471252442
 30
0.0
 11
4.678756316426365
 21
2.450910087857407
 31
0.0
  0
LINE
  5
E6D2
330
E6C7
100
AcDbEntity
  8
0
  6
CONTINUOUS
100
AcDbLine
 10
3.926234235891853
 20
1.024868798242709
 30
0.0
 11
4.95015454603977
 21
2.048789108390626
 31
0.0
  0
LINE
  5
E6D3
330
E6C7
100
AcDbEntity
  8
0
  6
CONTINUOUS
100
AcDbLine
 10
4.197631771962304
 20
0.6227471252329737
 30
0.0
 11
5.221552775653176
 21
1.646668128923846
 31
0.0
  0
LINE
  5
E6D4
330
E6C7
100
AcDbEntity
  8
0
  6
CONTINUOUS
100
AcDbLine
 10
8.715877546767851
 20
7.835069736359266
 30
0.0
 11
9.435953450375058
 21
8.555145639966472
 31
0.0
  0
LINE
  5
E6D5
330
E6C7
100
AcDbEntity
  8
0
  6
CONTINUOUS
100
AcDbLine
 10
8.170620868422267
 20
6.616293848933497
 30
0.0
 11
9.644120833743461
 21
8.08979381425469
 31
0.0
  0
LINE
  5
E6D6
330
E6C7
100
AcDbEntity
  8
0
  6
CONTINUOUS
100
AcDbLine
 10
7.625364190076684
 20
5.397517961507727
 30
0.0
 11
9.852288217111864
 21
7.624441988542907
 31
0.0
  0
LINE
  5
E6D7
330
E6C7
100
AcDbEntity
  8
0
  6
CONTINUOUS
100
AcDbLine
 10
7.080107511731101
 20
4.178742074081957
 30
0.0
 11
10.06045560048027
 21
7.159090162831124
 31
0.0
  0
LINE
  5
E6D8
330
E6C7
100
AcDbEntity
  8
0
  6
CONTINUOUS
100
AcDbLine
 10
6.534850833385518
 20
2.959966186656187
 30
0.0
 11
10.26862298384867
 21
6.693738337119342
 31
0.0
  0
LINE
  5
E6D9
330
E6C7
100
AcDbEntity
  8
0
  6
CONTINUOUS
100
AcDbLine
 10
4.469029308032756
 20
0.2206254522232385
 30
0.0
 11
5.492951005266582
 21
1.244547149457064
 31
0.0
  0
LINE
  5
E6DA
330
E6C7
100
AcDbEntity
  8
0
  6
CONTINUOUS
100
AcDbLine
 10
5.989594155039935
 20
1.741190299230417
 30
0.0
 11
8.806950407233131
 21
4.558546551423613
 31
0.0
  0
LINE
  5
E6DB
330
E6C7
100
AcDbEntity
  8
0
  6
CONTINUOUS
100
AcDbLine
 10
9.401251593263643
 20
5.152847737454126
 30
0.0
 11
10.47679036721708
 21
6.228386511407559
 31
0.0
  0
LINE
  5
E6DC
330
E6C7
100
AcDbEntity
  8
0
  6
CONTINUOUS
100
AcDbLine
 10
4.921837203428691
 20
-0.0000858614610131
 30
0.0
 11
8.592923064886001
 21
3.670999999996297
 31
0.0
  0
LINE
  5
E6DD
330
E6C7
100
AcDbEntity
  8
0
  6
CONTINUOUS
100
AcDbLine
 10
9.609390446785305
 20
4.6874673818956
 30
0.0
 11
10.68495775058548
 21
5.763034685695775
 31
0.0
  0
LINE
  5
E6DE
330
E6C7
100
AcDbEntity
  8
0
  6
CONTINUOUS
100
AcDbLine
 10
5.595387755019432
 20
-0.0000545189504582
 30
0.0
 11
7.716137258923768
 21
2.120694984953879
 31
0.0
  0
LINE
  5
E6DF
330
E6C7
100
AcDbEntity
  8
0
  6
CONTINUOUS
100
AcDbLine
 10
6.268938306610172
 20
-0.000023176439905
 30
0.0
 11
7.170485805526503
 21
0.9015243224764267
 31
0.0
  0
LINE
  5
E6E0
330
E6C7
100
AcDbEntity
  8
0
  6
CONTINUOUS
100
AcDbLine
 10
7.963842273967511
 20
2.368399999997621
 30
0.0
 11
9.266442273966188
 21
3.670999999996297
 31
0.0
  0
LINE
  5
E6E1
330
E6C7
100
AcDbEntity
  8
0
  6
CONTINUOUS
100
AcDbLine
 10
8.637361483047696
 20
2.368399999997621
 30
0.0
 11
9.939961483046375
 21
3.670999999996297
 31
0.0
  0
LINE
  5
E6E2
330
E6C7
100
AcDbEntity
  8
0
  6
CONTINUOUS
100
AcDbLine
 10
9.817529300306965
 20
4.222087026337075
 30
0.0
 11
10.89312513395388
 21
5.297682859983993
 31
0.0
  0
LINE
  5
E6E3
330
E6C7
100
AcDbEntity
  8
0
  6
CONTINUOUS
100
AcDbLine
 10
10.02566815382863
 20
3.756706670778549
 30
0.0
 11
11.10129251732229
 21
4.832331034272211
 31
0.0
  0
LINE
  5
E6E4
330
E6C7
100
AcDbEntity
  8
0
  6
CONTINUOUS
100
AcDbLine
 10
9.310880692127883
 20
2.368399999997621
 30
0.0
 11
11.30945990069069
 21
4.366979208560428
 31
0.0
  0
LINE
  5
E6E5
330
E6C7
100
AcDbEntity
  8
0
  6
CONTINUOUS
100
AcDbLine
 10
9.98439990120807
 20
2.36839999999762
 30
0.0
 11
11.5176272840591
 21
3.901627382848645
 31
0.0
  0
LINE
  5
E6E6
330
E6C7
100
AcDbEntity
  8
0
  6
CONTINUOUS
100
AcDbLine
 10
10.65037369446246
 20
2.36085458417182
 30
0.0
 11
11.7257946674275
 21
3.436275557136862
 31
0.0
  0
LINE
  5
E6E7
330
E6C7
100
AcDbEntity
  8
0
  6
CONTINUOUS
100
AcDbLine
 10
10.85847197087848
 20
1.895433651507656
 30
0.0
 11
11.9339620507959
 21
2.97092373142508
 31
0.0
  0
LINE
  5
E6E8
330
E6C7
100
AcDbEntity
  8
0
  6
CONTINUOUS
100
AcDbLine
 10
11.0665702472945
 20
1.430012718843491
 30
0.0
 11
12.14212943416431
 21
2.505571905713296
 31
0.0
  0
LINE
  5
E6E9
330
E6C7
100
AcDbEntity
  8
0
  6
CONTINUOUS
100
AcDbLine
 10
11.27466852371052
 20
0.9645917861793256
 30
0.0
 11
12.35029681753271
 21
2.040220080001513
 31
0.0
  0
LINE
  5
E6EA
330
E6C7
100
AcDbEntity
  8
0
  6
CONTINUOUS
100
AcDbLine
 10
11.48276680012654
 20
0.4991708535151611
 30
0.0
 11
12.55846420090111
 21
1.57486825428973
 31
0.0
  0
LINE
  5
E6EB
330
E6C7
100
AcDbEntity
  8
0
  6
CONTINUOUS
100
AcDbLine
 10
11.69086507654257
 20
0.0337499208509957
 30
0.0
 11
12.76663158426952
 21
1.109516428577947
 31
0.0
  0
LINE
  5
E6EC
330
E6C7
100
AcDbEntity
  8
0
  6
CONTINUOUS
100
AcDbLine
 10
12.33057447873954
 20
-0.0000598860322123
 30
0.0
 11
12.97479896763792
 21
0.6441646028661663
 31
0.0
  0
LINE
  5
E6ED
330
E6C7
100
AcDbEntity
  8
0
  6
CONTINUOUS
100
AcDbLine
 10
13.00413694809395
 20
-0.0000166257579952
 30
0.0
 11
13.18296635100632
 21
0.1788127771543824
 31
0.0
  0
LINE
  5
E6EE
330
E6C7
100
AcDbEntity
  8
0
  6
CONTINUOUS
100
AcDbLine
 10
4.772852165289667
 20
-0.000092794222212
 30
0.0
 11
4.296495091028902
 21
0.4762642800385528
 31
0.0
  0
LINE
  5
E6EF
330
E6C7
100
AcDbEntity
  8
0
  6
CONTINUOUS
100
AcDbLine
 10
5.446340034776103
 20
-0.0000614546284616
 30
0.0
 11
2.898195908335625
 21
2.548082671812017
 31
0.0
  0
LINE
  5
E6F0
330
E6C7
100
AcDbEntity
  8
0
  6
CONTINUOUS
100
AcDbLine
 10
6.119827904262539
 20
-0.0000301150347113
 30
0.0
 11
1.499896725642348
 21
4.61990106358548
 31
0.0
  0
LINE
  5
E6F1
330
E6C7
100
AcDbEntity
  8
0
  6
CONTINUOUS
100
AcDbLine
 10
6.775136745476159
 20
0.0181802528318542
 30
0.0
 11
5.699826040202669
 21
1.093490958105344
 31
0.0
  0
LINE
  5
E6F2
330
E6C7
100
AcDbEntity
  8
0
  6
CONTINUOUS
100
AcDbLine
 10
6.983376846288489
 20
0.4834593610997118
 30
0.0
 11
5.908008617934405
 21
1.558827589453796
 31
0.0
  0
LINE
  5
E6F3
330
E6C7
100
AcDbEntity
  8
0
  6
CONTINUOUS
100
AcDbLine
 10
5.377063484962296
 20
1.416253513345719
 30
0.0
 11
1.702276957014131
 21
5.091040041293883
 31
0.0
  0
LINE
  5
E6F4
330
E6C7
100
AcDbEntity
  8
0
  6
CONTINUOUS
100
AcDbLine
 10
3.978745891735324
 20
3.488090315652877
 30
0.0
 11
2.000373521109399
 21
5.466462686278803
 31
0.0
  0
LINE
  5
E6F5
330
E6C7
100
AcDbEntity
  8
0
  6
CONTINUOUS
100
AcDbLine
 10
7.191616947100819
 20
0.948738469367568
 30
0.0
 11
6.11619119566614
 21
2.024164220802247
 31
0.0
  0
LINE
  5
E6F6
330
E6C7
100
AcDbEntity
  8
0
  6
CONTINUOUS
100
AcDbLine
 10
7.399857047913149
 20
1.414017577635424
 30
0.0
 11
6.324373773397875
 21
2.489500852150698
 31
0.0
  0
LINE
  5
E6F7
330
E6C7
100
AcDbEntity
  8
0
  6
CONTINUOUS
100
AcDbLine
 10
7.608097148725479
 20
1.879296685903281
 30
0.0
 11
6.53255635112961
 21
2.95483748349915
 31
0.0
  0
LINE
  5
E6F8
330
E6C7
100
AcDbEntity
  8
0
  6
CONTINUOUS
100
AcDbLine
 10
7.816337249537808
 20
2.344575794171138
 30
0.0
 11
6.740738928861345
 21
3.420174114847601
 31
0.0
  0
LINE
  5
E6F9
330
E6C7
100
AcDbEntity
  8
0
  6
CONTINUOUS
100
AcDbLine
 10
3.310241080789734
 20
4.830114335678653
 30
0.0
 11
2.298470085204666
 21
5.84188533126372
 31
0.0
  0
LINE
  5
E6FA
330
E6C7
100
AcDbEntity
  8
0
  6
CONTINUOUS
100
AcDbLine
 10
3.60832983563551
 20
5.205544789913063
 30
0.0
 11
2.596566649299935
 21
6.217307976248638
 31
0.0
  0
LINE
  5
E6FB
330
E6C7
100
AcDbEntity
  8
0
  6
CONTINUOUS
100
AcDbLine
 10
3.906418590481286
 20
5.580975244147473
 30
0.0
 11
2.894663213395203
 21
6.592730621233557
 31
0.0
  0
LINE
  5
E6FC
330
E6C7
100
AcDbEntity
  8
0
  6
CONTINUOUS
100
AcDbLine
 10
4.204507345327062
 20
5.956405698381884
 30
0.0
 11
3.192759777490472
 21
6.968153266218474
 31
0.0
  0
LINE
  5
E6FD
330
E6C7
100
AcDbEntity
  8
0
  6
CONTINUOUS
100
AcDbLine
 10
8.466032252791512
 20
2.368399999997621
 30
0.0
 11
6.948921506593081
 21
3.885510746196053
 31
0.0
  0
LINE
  5
E6FE
330
E6C7
100
AcDbEntity
  8
0
  6
CONTINUOUS
100
AcDbLine
 10
9.139551461871699
 20
2.36839999999762
 30
0.0
 11
7.157104084324816
 21
4.350847377544504
 31
0.0
  0
LINE
  5
E6FF
330
E6C7
100
AcDbEntity
  8
0
  6
CONTINUOUS
100
AcDbLine
 10
4.502596100172839
 20
6.331836152616295
 30
0.0
 11
3.49085634158574
 21
7.343575911203393
 31
0.0
  0
LINE
  5
E700
330
E6C7
100
AcDbEntity
  8
0
  6
CONTINUOUS
100
AcDbLine
 10
4.800684855018615
 20
6.707266606850705
 30
0.0
 11
3.788952905681008
 21
7.718998556188312
 31
0.0
  0
LINE
  5
E701
330
E6C7
100
AcDbEntity
  8
0
  6
CONTINUOUS
100
AcDbLine
 10
12.18154012887317
 20
-0.0000694579236642
 30
0.0
 11
11.32140332908496
 21
0.8600673418645499
 31
0.0
  0
LINE
  5
E702
330
E6C7
100
AcDbEntity
  8
0
  6
CONTINUOUS
100
AcDbLine
 10
12.85501608323566
 20
-0.0000262032059659
 30
0.0
 11
10.77672456435345
 21
2.078265315676246
 31
0.0
  0
LINE
  5
E703
330
E6C7
100
AcDbEntity
  8
0
  6
CONTINUOUS
100
AcDbLine
 10
9.813070670951886
 20
2.36839999999762
 30
0.0
 11
8.51047067095321
 21
3.670999999996297
 31
0.0
  0
LINE
  5
E704
330
E6C7
100
AcDbEntity
  8
0
  6
CONTINUOUS
100
AcDbLine
 10
10.48658988003207
 20
2.36839999999762
 30
0.0
 11
9.183989880033396
 21
3.670999999996297
 31
0.0
  0
LINE
  5
E705
330
E6C7
100
AcDbEntity
  8
0
  6
CONTINUOUS
100
AcDbLine
 10
8.441048632286794
 20
3.740422038662712
 30
0.0
 11
7.365286662056551
 21
4.816184008892956
 31
0.0
  0
LINE
  5
E706
330
E6C7
100
AcDbEntity
  8
0
  6
CONTINUOUS
100
AcDbLine
 10
8.649187485808454
 20
4.205802394221237
 30
0.0
 11
7.573469239788285
 21
5.281520640241407
 31
0.0
  0
LINE
  5
E707
330
E6C7
100
AcDbEntity
  8
0
  6
CONTINUOUS
100
AcDbLine
 10
5.098773609864391
 20
7.082697061085115
 30
0.0
 11
4.087049469776277
 21
8.09442120117323
 31
0.0
  0
LINE
  5
E708
330
E6C7
100
AcDbEntity
  8
0
  6
CONTINUOUS
100
AcDbLine
 10
5.396862364710167
 20
7.458127515319526
 30
0.0
 11
4.385146033871544
 21
8.469843846158149
 31
0.0
  0
LINE
  5
E709
330
E6C7
100
AcDbEntity
  8
0
  6
CONTINUOUS
100
AcDbLine
 10
13.04801363231285
 20
0.4804954567970334
 30
0.0
 11
9.85750908911358
 21
3.670999999996297
 31
0.0
  0
LINE
  5
E70A
330
E6C7
100
AcDbEntity
  8
0
  6
CONTINUOUS
100
AcDbLine
 10
8.857326339330116
 20
4.671182749779763
 30
0.0
 11
7.781651817520021
 21
5.746857271589858
 31
0.0
  0
LINE
  5
E70B
330
E6C7
100
AcDbEntity
  8
0
  6
CONTINUOUS
100
AcDbLine
 10
5.694951119555943
 20
7.833557969553937
 30
0.0
 11
4.765409089118624
 21
8.763099999991255
 31
0.0
  0
LINE
  5
E70C
330
E6C7
100
AcDbEntity
  8
0
  6
CONTINUOUS
100
AcDbLine
 10
12.50286117236978
 20
1.699167125820288
 30
0.0
 11
9.68611877250287
 21
4.515909525687196
 31
0.0
  0
LINE
  5
E70D
330
E6C7
100
AcDbEntity
  8
0
  6
CONTINUOUS
100
AcDbLine
 10
9.065465192851777
 20
5.136563105338288
 30
0.0
 11
7.989834395251757
 21
6.21219390293831
 31
0.0
  0
LINE
  5
E70E
330
E6C7
100
AcDbEntity
  8
0
  6
CONTINUOUS
100
AcDbLine
 10
5.993039874401719
 20
8.208988423788346
 30
0.0
 11
5.43892829819881
 21
8.763099999991255
 31
0.0
  0
LINE
  5
E70F
330
E6C7
100
AcDbEntity
  8
0
  6
CONTINUOUS
100
AcDbLine
 10
11.95770871242671
 20
2.917838794843543
 30
0.0
 11
8.19801697298349
 21
6.677530534286761
 31
0.0
  0
LINE
  5
E710
330
E6C7
100
AcDbEntity
  8
0
  6
CONTINUOUS
100
AcDbLine
 10
6.291128629247495
 20
8.584418878022756
 30
0.0
 11
6.112447507278997
 21
8.763099999991255
 31
0.0
  0
LINE
  5
E711
330
E6C7
100
AcDbEntity
  8
0
  6
CONTINUOUS
100
AcDbLine
 10
11.41255625248364
 20
4.136510463866797
 30
0.0
 11
8.406199550715227
 21
7.142867165635211
 31
0.0
  0
LINE
  5
E712
330
E6C7
100
AcDbEntity
  8
0
  6
CONTINUOUS
100
AcDbLine
 10
10.86740379254057
 20
5.355182132890051
 30
0.0
 11
8.614382128446962
 21
7.608203796983664
 31
0.0
  0
LINE
  5
E713
330
E6C7
100
AcDbEntity
  8
0
  6
CONTINUOUS
100
AcDbLine
 10
10.3222513325975
 20
6.573853801913305
 30
0.0
 11
8.822564706178696
 21
8.073540428332114
 31
0.0
  0
LINE
  5
E714
330
E6C7
100
AcDbEntity
  8
0
  6
CONTINUOUS
100
AcDbLine
 10
9.777098872654436
 20
7.792525470936562
 30
0.0
 11
9.030747283910433
 21
8.538877059680566
 31
0.0
  0
ENDBLK
  5
E856
330
E6C7
100
AcDbEntity
  8
0
100
AcDbBlockEnd
  0
BLOCK
  5
E857
330
E715
100
AcDbEntity
  8
0
100
AcDbBlockBegin
  2
*X13
 70
     1
 10
0.0
 20
0.0
 30
0.0
  3
*X13
  1

  0
LINE
  5
E716
330
E715
100
AcDbEntity
  8
0
  6
CONTINUOUS
100
AcDbLine
 10
10.67292308101235
 20
8.445076852443387
 30
0.0
 11
10.99094622856022
 21
8.763099999991255
 31
0.0
  0
LINE
  5
E717
330
E715
100
AcDbEntity
  8
0
  6
CONTINUOUS
100
AcDbLine
 10
10.87250383178748
 20
7.971138394138331
 30
0.0
 11
11.6644654376404
 21
8.763099999991255
 31
0.0
  0
LINE
  5
E718
330
E715
100
AcDbEntity
  8
0
  6
CONTINUOUS
100
AcDbLine
 10
11.07208458256261
 20
7.497199935833273
 30
0.0
 11
12.12126590876355
 21
8.546381262034211
 31
0.0
  0
LINE
  5
E719
330
E715
100
AcDbEntity
  8
0
  6
CONTINUOUS
100
AcDbLine
 10
11.27166533333774
 20
7.023261477528216
 30
0.0
 11
12.32085164573666
 21
8.072447789927136
 31
0.0
  0
LINE
  5
E71A
330
E715
100
AcDbEntity
  8
0
  6
CONTINUOUS
100
AcDbLine
 10
11.47124608411287
 20
6.549323019223158
 30
0.0
 11
12.52043738270977
 21
7.59851431782006
 31
0.0
  0
LINE
  5
E71B
330
E715
100
AcDbEntity
  8
0
  6
CONTINUOUS
100
AcDbLine
 10
11.670826834888
 20
6.075384560918101
 30
0.0
 11
12.72002311968288
 21
7.124580845712984
 31
0.0
  0
LINE
  5
E71C
330
E715
100
AcDbEntity
  8
0
  6
CONTINUOUS
100
AcDbLine
 10
11.87040758566313
 20
5.601446102613043
 30
0.0
 11
12.91960885665599
 21
6.650647373605907
 31
0.0
  0
LINE
  5
E71D
330
E715
100
AcDbEntity
  8
0
  6
CONTINUOUS
100
AcDbLine
 10
12.06998833643825
 20
5.127507644307986
 30
0.0
 11
13.1191945936291
 21
6.176713901498832
 31
0.0
  0
LINE
  5
E71E
330
E715
100
AcDbEntity
  8
0
  6
CONTINUOUS
100
AcDbLine
 10
12.26956908721338
 20
4.65356918600293
 30
0.0
 11
13.31878033060221
 21
5.702780429391757
 31
0.0
  0
LINE
  5
E71F
330
E715
100
AcDbEntity
  8
0
  6
CONTINUOUS
100
AcDbLine
 10
12.46914983798851
 20
4.179630727697873
 30
0.0
 11
13.51836606757532
 21
5.228846957284683
 31
0.0
  0
LINE
  5
E720
330
E715
100
AcDbEntity
  8
0
  6
CONTINUOUS
100
AcDbLine
 10
12.66873058876364
 20
3.705692269392816
 30
0.0
 11
13.71795180454843
 21
4.754913485177607
 31
0.0
  0
LINE
  5
E721
330
E715
100
AcDbEntity
  8
0
  6
CONTINUOUS
100
AcDbLine
 10
12.86831133953877
 20
3.231753811087759
 30
0.0
 11
13.91753754152154
 21
4.280980013070531
 31
0.0
  0
LINE
  5
E722
330
E715
100
AcDbEntity
  8
0
  6
CONTINUOUS
100
AcDbLine
 10
13.0678920903139
 20
2.757815352782702
 30
0.0
 11
14.11712327849465
 21
3.807046540963456
 31
0.0
  0
LINE
  5
E723
330
E715
100
AcDbEntity
  8
0
  6
CONTINUOUS
100
AcDbLine
 10
13.26747284108903
 20
2.283876894477644
 30
0.0
 11
14.31670901546777
 21
3.333113068856379
 31
0.0
  0
LINE
  5
E724
330
E715
100
AcDbEntity
  8
0
  6
CONTINUOUS
100
AcDbLine
 10
16.36767838827179
 20
8.751678487061342
 30
0.0
 11
16.50332410898388
 21
8.887324207773432
 31
0.0
  0
LINE
  5
E725
330
E715
100
AcDbEntity
  8
0
  6
CONTINUOUS
100
AcDbLine
 10
15.96190732182191
 20
7.67238821153127
 30
0.0
 11
16.68735328004734
 21
8.397834169756699
 31
0.0
  0
LINE
  5
E726
330
E715
100
AcDbEntity
  8
0
  6
CONTINUOUS
100
AcDbLine
 10
15.55613625537202
 20
6.593097936001196
 30
0.0
 11
16.87138245111079
 21
7.908344131739965
 31
0.0
  0
LINE
  5
E727
330
E715
100
AcDbEntity
  8
0
  6
CONTINUOUS
100
AcDbLine
 10
15.15036518892213
 20
5.513807660471122
 30
0.0
 11
17.05541162217424
 21
7.418854093723231
 31
0.0
  0
LINE
  5
E728
330
E715
100
AcDbEntity
  8
0
  6
CONTINUOUS
100
AcDbLine
 10
14.74459412247225
 20
4.434517384941048
 30
0.0
 11
17.2394407932377
 21
6.929364055706499
 31
0.0
  0
LINE
  5
E729
330
E715
100
AcDbEntity
  8
0
  6
CONTINUOUS
100
AcDbLine
 10
14.33882305602236
 20
3.355227109410975
 30
0.0
 11
17.42346996430115
 21
6.439874017689766
 31
0.0
  0
LINE
  5
E72A
330
E715
100
AcDbEntity
  8
0
  6
CONTINUOUS
100
AcDbLine
 10
13.46705359186416
 20
1.809938436172586
 30
0.0
 11
16.0819338255367
 21
4.424818669845129
 31
0.0
  0
LINE
  5
E72B
330
E715
100
AcDbEntity
  8
0
  6
CONTINUOUS
100
AcDbLine
 10
16.63283254238972
 20
4.975717386698149
 30
0.0
 11
17.60749913536461
 21
5.950383979673033
 31
0.0
  0
LINE
  5
E72C
330
E715
100
AcDbEntity
  8
0
  6
CONTINUOUS
100
AcDbLine
 10
13.66663434263929
 20
1.335999977867529
 30
0.0
 11
15.67604797733754
 21
3.345413612565779
 31
0.0
  0
LINE
  5
E72D
330
E715
100
AcDbEntity
  8
0
  6
CONTINUOUS
100
AcDbLine
 10
13.86621509341442
 20
0.8620615195624723
 30
0.0
 11
15.27016212913838
 21
2.26600855528643
 31
0.0
  0
LINE
  5
E72E
330
E715
100
AcDbEntity
  8
0
  6
CONTINUOUS
100
AcDbLine
 10
16.81682257348267
 20
4.486188208710908
 30
0.0
 11
17.79152830642806
 21
5.460893941656299
 31
0.0
  0
LINE
  5
E72F
330
E715
100
AcDbEntity
  8
0
  6
CONTINUOUS
100
AcDbLine
 10
17.00081260457561
 20
3.996659030723667
 30
0.0
 11
17.97555747749151
 21
4.971403903639565
 31
0.0
  0
LINE
  5
E730
330
E715
100
AcDbEntity
  8
0
  6
CONTINUOUS
100
AcDbLine
 10
20.74362343514722
 20
8.412989070375462
 30
0.0
 11
21.09373436476302
 21
8.763099999991256
 31
0.0
  0
LINE
  5
E731
330
E715
100
AcDbEntity
  8
0
  6
CONTINUOUS
100
AcDbLine
 10
20.25401257174777
 20
7.249858997895826
 30
0.0
 11
21.7672535738432
 21
8.763099999991255
 31
0.0
  0
LINE
  5
E732
330
E715
100
AcDbEntity
  8
0
  6
CONTINUOUS
100
AcDbLine
 10
14.06579584418955
 20
0.3881230612574149
 30
0.0
 11
14.86427628093921
 21
1.186603498007082
 31
0.0
  0
LINE
  5
E733
330
E715
100
AcDbEntity
  8
0
  6
CONTINUOUS
100
AcDbLine
 10
14.26537659496467
 20
-0.0858153970476412
 30
0.0
 11
14.45839043274005
 21
0.1071984407277329
 31
0.0
  0
LINE
  5
E734
330
E715
100
AcDbEntity
  8
0
  6
CONTINUOUS
100
AcDbLine
 10
17.18480263566856
 20
3.507129852736426
 30
0.0
 11
18.15958664855496
 21
4.481913865622833
 31
0.0
  0
LINE
  5
E735
330
E715
100
AcDbEntity
  8
0
  6
CONTINUOUS
100
AcDbLine
 10
17.3687926667615
 20
3.017600674749186
 30
0.0
 11
18.34361581961842
 21
3.9924238276061
 31
0.0
  0
LINE
  5
E736
330
E715
100
AcDbEntity
  8
0
  6
CONTINUOUS
100
AcDbLine
 10
19.76440170834832
 20
6.086728925416191
 30
0.0
 11
22.33924590259489
 21
8.661573119662755
 31
0.0
  0
LINE
  5
E737
330
E715
100
AcDbEntity
  8
0
  6
CONTINUOUS
100
AcDbLine
 10
19.27479084494887
 20
4.923598852936555
 30
0.0
 11
21.84929622842713
 21
7.498104236414807
 31
0.0
  0
LINE
  5
E738
330
E715
100
AcDbEntity
  8
0
  6
CONTINUOUS
100
AcDbLine
 10
17.55278269785445
 20
2.528071496761945
 30
0.0
 11
18.52764499068187
 21
3.502933789589366
 31
0.0
  0
LINE
  5
E739
330
E715
100
AcDbEntity
  8
0
  6
CONTINUOUS
100
AcDbLine
 10
18.78517998154942
 20
3.760468780456919
 30
0.0
 11
21.35934655425936
 21
6.33463535316686
 31
0.0
  0
LINE
  5
E73A
330
E715
100
AcDbEntity
  8
0
  6
CONTINUOUS
100
AcDbLine
 10
17.73677272894739
 20
2.038542318774704
 30
0.0
 11
20.8693968800916
 21
5.171166469918914
 31
0.0
  0
LINE
  5
E73B
330
E715
100
AcDbEntity
  8
0
  6
CONTINUOUS
100
AcDbLine
 10
17.92076276004034
 20
1.549013140787464
 30
0.0
 11
20.37944720592384
 21
4.007697586670968
 31
0.0
  0
LINE
  5
E73C
330
E715
100
AcDbEntity
  8
0
  6
CONTINUOUS
100
AcDbLine
 10
18.10475279113329
 20
1.059483962800223
 30
0.0
 11
19.88949753175608
 21
2.84422870342302
 31
0.0
  0
LINE
  5
E73D
330
E715
100
AcDbEntity
  8
0
  6
CONTINUOUS
100
AcDbLine
 10
18.28874282222623
 20
0.5699547848129822
 30
0.0
 11
19.39954785758832
 21
1.680759820175074
 31
0.0
  0
LINE
  5
E73E
330
E715
100
AcDbEntity
  8
0
  6
CONTINUOUS
100
AcDbLine
 10
18.47273285331918
 20
0.0804256068257416
 30
0.0
 11
18.90959818342056
 21
0.517290936927127
 31
0.0
  0
LINE
  5
E73F
330
E715
100
AcDbEntity
  8
0
  6
CONTINUOUS
100
AcDbLine
 10
14.3590401358224
 20
-0.1570118376323384
 30
0.0
 11
14.24903296539946
 21
-0.0470046672093929
 31
0.0
  0
LINE
  5
E740
330
E715
100
AcDbEntity
  8
0
  6
CONTINUOUS
100
AcDbLine
 10
14.54309291258661
 20
0.332454594683643
 30
0.0
 11
13.75908329123172
 21
1.116464216038529
 31
0.0
  0
LINE
  5
E741
330
E715
100
AcDbEntity
  8
0
  6
CONTINUOUS
100
AcDbLine
 10
14.72714568935081
 20
0.8219210269996244
 30
0.0
 11
13.26913361706399
 21
2.27993309928645
 31
0.0
  0
LINE
  5
E742
330
E715
100
AcDbEntity
  8
0
  6
CONTINUOUS
100
AcDbLine
 10
14.91119846611502
 20
1.311387459315606
 30
0.0
 11
12.77918394289625
 21
3.443401982534371
 31
0.0
  0
LINE
  5
E743
330
E715
100
AcDbEntity
  8
0
  6
CONTINUOUS
100
AcDbLine
 10
15.09525124287922
 20
1.800853891631587
 30
0.0
 11
12.28923426872852
 21
4.606870865782293
 31
0.0
  0
LINE
  5
E744
330
E715
100
AcDbEntity
  8
0
  6
CONTINUOUS
100
AcDbLine
 10
15.27930401964343
 20
2.290320323947569
 30
0.0
 11
11.79928459456078
 21
5.770339749030213
 31
0.0
  0
LINE
  5
E745
330
E715
100
AcDbEntity
  8
0
  6
CONTINUOUS
100
AcDbLine
 10
15.46335679640763
 20
2.77978675626355
 30
0.0
 11
14.48885470994921
 21
3.754288842721972
 31
0.0
  0
LINE
  5
E746
330
E715
100
AcDbEntity
  8
0
  6
CONTINUOUS
100
AcDbLine
 10
13.88507249233704
 20
4.358071060334137
 30
0.0
 11
11.30933492039305
 21
6.933808632278135
 31
0.0
  0
LINE
  5
E747
330
E715
100
AcDbEntity
  8
0
  6
CONTINUOUS
100
AcDbLine
 10
18.75840522805855
 20
0.1582575336928151
 30
0.0
 11
18.25383727664818
 21
0.6628254851031863
 31
0.0
  0
LINE
  5
E748
330
E715
100
AcDbEntity
  8
0
  6
CONTINUOUS
100
AcDbLine
 10
15.64740957317184
 20
3.269253188579531
 30
0.0
 11
14.67288388101266
 21
4.243778880738705
 31
0.0
  0
LINE
  5
E749
330
E715
100
AcDbEntity
  8
0
  6
CONTINUOUS
100
AcDbLine
 10
13.39509276772158
 20
5.521569994029786
 30
0.0
 11
10.81938524622531
 21
8.097277515526056
 31
0.0
  0
LINE
  5
E74A
330
E715
100
AcDbEntity
  8
0
  6
CONTINUOUS
100
AcDbLine
 10
18.95798597883369
 20
0.6321959919978686
 30
0.0
 11
17.84825644852853
 21
1.741925522303024
 31
0.0
  0
LINE
  5
E74B
330
E715
100
AcDbEntity
  8
0
  6
CONTINUOUS
100
AcDbLine
 10
19.15756672960882
 20
1.106134450302922
 30
0.0
 11
17.44267562040888
 21
2.821025559502861
 31
0.0
  0
LINE
  5
E74C
330
E715
100
AcDbEntity
  8
0
  6
CONTINUOUS
100
AcDbLine
 10
15.83146234993604
 20
3.758719620895513
 30
0.0
 11
14.85691305207612
 21
4.733268918755439
 31
0.0
  0
LINE
  5
E74D
330
E715
100
AcDbEntity
  8
0
  6
CONTINUOUS
100
AcDbLine
 10
16.01551512670025
 20
4.248186053211494
 30
0.0
 11
15.04094222313957
 21
5.222758956772172
 31
0.0
  0
LINE
  5
E74E
330
E715
100
AcDbEntity
  8
0
  6
CONTINUOUS
100
AcDbLine
 10
12.90511304310612
 20
6.685068927725435
 30
0.0
 11
10.8270819708403
 21
8.763099999991255
 31
0.0
  0
LINE
  5
E74F
330
E715
100
AcDbEntity
  8
0
  6
CONTINUOUS
100
AcDbLine
 10
12.41513331849066
 20
7.848567861421083
 30
0.0
 11
11.50060117992049
 21
8.763099999991255
 31
0.0
  0
LINE
  5
E750
330
E715
100
AcDbEntity
  8
0
  6
CONTINUOUS
100
AcDbLine
 10
19.35714748038395
 20
1.580072908607975
 30
0.0
 11
17.03709479228923
 21
3.900125596702697
 31
0.0
  0
LINE
  5
E751
330
E715
100
AcDbEntity
  8
0
  6
CONTINUOUS
100
AcDbLine
 10
19.55672823115909
 20
2.054011366913028
 30
0.0
 11
16.63151396416958
 21
4.979225633902534
 31
0.0
  0
LINE
  5
E752
330
E715
100
AcDbEntity
  8
0
  6
CONTINUOUS
100
AcDbLine
 10
16.19956790346445
 20
4.737652485527476
 30
0.0
 11
15.22497139420302
 21
5.712248994788904
 31
0.0
  0
LINE
  5
E753
330
E715
100
AcDbEntity
  8
0
  6
CONTINUOUS
100
AcDbLine
 10
16.38362068022866
 20
5.227118917843457
 30
0.0
 11
15.40900056526648
 21
6.201739032805637
 31
0.0
  0
LINE
  5
E754
330
E715
100
AcDbEntity
  8
0
  6
CONTINUOUS
100
AcDbLine
 10
19.75630898193422
 20
2.527949825218081
 30
0.0
 11
18.70774536448286
 21
3.576513442669441
 31
0.0
  0
LINE
  5
E755
330
E715
100
AcDbEntity
  8
0
  6
CONTINUOUS
100
AcDbLine
 10
19.95588973270936
 20
3.001888283523134
 30
0.0
 11
18.90726987211446
 21
4.050508144118028
 31
0.0
  0
LINE
  5
E756
330
E715
100
AcDbEntity
  8
0
  6
CONTINUOUS
100
AcDbLine
 10
20.15547048348449
 20
3.475826741828186
 30
0.0
 11
19.10679437974606
 21
4.524502845566614
 31
0.0
  0
LINE
  5
E757
330
E715
100
AcDbEntity
  8
0
  6
CONTINUOUS
100
AcDbLine
 10
20.35505123425962
 20
3.94976520013324
 30
0.0
 11
19.30631888737766
 21
4.998497547015201
 31
0.0
  0
LINE
  5
E758
330
E715
100
AcDbEntity
  8
0
  6
CONTINUOUS
100
AcDbLine
 10
20.55463198503475
 20
4.423703658438292
 30
0.0
 11
19.50584339500926
 21
5.472492248463787
 31
0.0
  0
LINE
  5
E759
330
E715
100
AcDbEntity
  8
0
  6
CONTINUOUS
100
AcDbLine
 10
18.37481191085755
 20
3.909446896294752
 30
0.0
 11
15.59302973632993
 21
6.691229070822371
 31
0.0
  0
LINE
  5
E75A
330
E715
100
AcDbEntity
  8
0
  6
CONTINUOUS
100
AcDbLine
 10
17.96904084440766
 20
4.988737171824825
 30
0.0
 11
15.77705890739338
 21
7.180719108839104
 31
0.0
  0
LINE
  5
E75B
330
E715
100
AcDbEntity
  8
0
  6
CONTINUOUS
100
AcDbLine
 10
17.56326977795777
 20
6.068027447354899
 30
0.0
 11
15.96108807845684
 21
7.670209146855838
 31
0.0
  0
LINE
  5
E75C
330
E715
100
AcDbEntity
  8
0
  6
CONTINUOUS
100
AcDbLine
 10
17.15749871150789
 20
7.147317722884972
 30
0.0
 11
16.14511724952029
 21
8.15969918487257
 31
0.0
  0
LINE
  5
E75D
330
E715
100
AcDbEntity
  8
0
  6
CONTINUOUS
100
AcDbLine
 10
16.751727645058
 20
8.226607998415046
 30
0.0
 11
16.32914642058374
 21
8.649189222889303
 31
0.0
  0
LINE
  5
E75E
330
E715
100
AcDbEntity
  8
0
  6
CONTINUOUS
100
AcDbLine
 10
20.75421273580989
 20
4.897642116743345
 30
0.0
 11
19.70536790264086
 21
5.946486949912374
 31
0.0
  0
LINE
  5
E75F
330
E715
100
AcDbEntity
  8
0
  6
CONTINUOUS
100
AcDbLine
 10
20.95379348658502
 20
5.371580575048398
 30
0.0
 11
19.90489241027246
 21
6.42048165136096
 31
0.0
  0
LINE
  5
E760
330
E715
100
AcDbEntity
  8
0
  6
CONTINUOUS
100
AcDbLine
 10
21.15337423736015
 20
5.845519033353452
 30
0.0
 11
20.10441691790406
 21
6.894476352809547
 31
0.0
  0
LINE
  5
E761
330
E715
100
AcDbEntity
  8
0
  6
CONTINUOUS
100
AcDbLine
 10
21.35295498813529
 20
6.319457491658505
 30
0.0
 11
20.30394142553566
 21
7.368471054258134
 31
0.0
  0
LINE
  5
E762
330
E715
100
AcDbEntity
  8
0
  6
CONTINUOUS
100
AcDbLine
 10
21.55253573891042
 20
6.793395949963558
 30
0.0
 11
20.50346593316726
 21
7.842465755706721
 31
0.0
  0
LINE
  5
E763
330
E715
100
AcDbEntity
  8
0
  6
CONTINUOUS
100
AcDbLine
 10
21.75211648968556
 20
7.267334408268612
 30
0.0
 11
20.70299044079886
 21
8.316460457155308
 31
0.0
  0
LINE
  5
E764
330
E715
100
AcDbEntity
  8
0
  6
CONTINUOUS
100
AcDbLine
 10
21.95169724046069
 20
7.741272866573663
 30
0.0
 11
20.9298701070431
 21
8.763099999991256
 31
0.0
  0
LINE
  5
E765
330
E715
100
AcDbEntity
  8
0
  6
CONTINUOUS
100
AcDbLine
 10
22.15127799123582
 20
8.215211324878716
 30
0.0
 11
21.60338931612328
 21
8.763099999991256
 31
0.0
  0
LINE
  5
E766
330
E715
100
AcDbEntity
  8
0
  6
CONTINUOUS
100
AcDbLine
 10
22.35085874201096
 20
8.689149783183769
 30
0.0
 11
22.27690852520347
 21
8.763099999991255
 31
0.0
  0
ENDBLK
  5
E858
330
E715
100
AcDbEntity
  8
0
100
AcDbBlockEnd
  0
BLOCK
  5
E859
330
E767
100
AcDbEntity
  8
0
100
AcDbBlockBegin
  2
*X14
 70
     1
 10
0.0
 20
0.0
 30
0.0
  3
*X14
  1

  0
LINE
  5
E768
330
E767
100
AcDbEntity
  8
0
  6
CONTINUOUS
100
AcDbLine
 10
23.19462913593892
 20
8.169917934846424
 30
0.0
 11
23.70775465517246
 21
8.683043454079957
 31
0.0
  0
LINE
  5
E769
330
E767
100
AcDbEntity
  8
0
  6
CONTINUOUS
100
AcDbLine
 10
22.64923161835078
 20
6.951001208178088
 30
0.0
 11
23.9159364069932
 21
8.217705996820516
 31
0.0
  0
LINE
  5
E76A
330
E767
100
AcDbEntity
  8
0
  6
CONTINUOUS
100
AcDbLine
 10
22.10383410076263
 20
5.732084481509751
 30
0.0
 11
24.12411815881395
 21
7.752368539561078
 31
0.0
  0
LINE
  5
E76B
330
E767
100
AcDbEntity
  8
0
  6
CONTINUOUS
100
AcDbLine
 10
21.55843658317447
 20
4.513167754841414
 30
0.0
 11
24.3322999106347
 21
7.287031082301639
 31
0.0
  0
LINE
  5
E76C
330
E767
100
AcDbEntity
  8
0
  6
CONTINUOUS
100
AcDbLine
 10
21.01303906558632
 20
3.294251028173077
 30
0.0
 11
24.54048166245544
 21
6.821693625042199
 31
0.0
  0
LINE
  5
E76D
330
E767
100
AcDbEntity
  8
0
  6
CONTINUOUS
100
AcDbLine
 10
20.46764154799817
 20
2.075334301504738
 30
0.0
 11
23.28571549467848
 21
4.89340824818505
 31
0.0
  0
LINE
  5
E76E
330
E767
100
AcDbEntity
  8
0
  6
CONTINUOUS
100
AcDbLine
 10
19.92224403041002
 20
0.8564175748364002
 30
0.0
 11
22.74075865492779
 21
3.674932199354171
 31
0.0
  0
LINE
  5
E76F
330
E767
100
AcDbEntity
  8
0
  6
CONTINUOUS
100
AcDbLine
 10
23.67305085490148
 20
5.280743608408048
 30
0.0
 11
24.74866341427619
 21
6.356356167782759
 31
0.0
  0
LINE
  5
E770
330
E767
100
AcDbEntity
  8
0
  6
CONTINUOUS
100
AcDbLine
 10
23.88118970842314
 20
4.815363252849522
 30
0.0
 11
24.95684516609694
 21
5.89101871052332
 31
0.0
  0
LINE
  5
E771
330
E767
100
AcDbEntity
  8
0
  6
CONTINUOUS
100
AcDbLine
 10
19.73925852647308
 20
-0.0000871381807288
 30
0.0
 11
23.4103456646501
 21
3.670999999996297
 31
0.0
  0
LINE
  5
E772
330
E767
100
AcDbEntity
  8
0
  6
CONTINUOUS
100
AcDbLine
 10
24.0893285619448
 20
4.349982897290997
 30
0.0
 11
25.16502691791769
 21
5.42568125326388
 31
0.0
  0
LINE
  5
E773
330
E767
100
AcDbEntity
  8
0
  6
CONTINUOUS
100
AcDbLine
 10
20.41282099582748
 20
-0.0000438779065108
 30
0.0
 11
21.64944178675636
 21
1.236576913022366
 31
0.0
  0
LINE
  5
E774
330
E767
100
AcDbEntity
  8
0
  6
CONTINUOUS
100
AcDbLine
 10
22.78126487373161
 20
2.36839999999762
 30
0.0
 11
24.08386487373029
 21
3.670999999996297
 31
0.0
  0
LINE
  5
E775
330
E767
100
AcDbEntity
  8
0
  6
CONTINUOUS
100
AcDbLine
 10
24.29746741546646
 20
3.884602541732471
 30
0.0
 11
25.37320866973843
 21
4.960343796004441
 31
0.0
  0
LINE
  5
E776
330
E767
100
AcDbEntity
  8
0
  6
CONTINUOUS
100
AcDbLine
 10
21.08638346518189
 20
-0.0000006176322938
 30
0.0
 11
21.10379033335899
 21
0.0174062505448083
 31
0.0
  0
LINE
  5
E777
330
E767
100
AcDbEntity
  8
0
  6
CONTINUOUS
100
AcDbLine
 10
23.4547840828118
 20
2.36839999999762
 30
0.0
 11
25.58139042155918
 21
4.495006338745002
 31
0.0
  0
LINE
  5
E778
330
E767
100
AcDbEntity
  8
0
  6
CONTINUOUS
100
AcDbLine
 10
29.30199999996933
 20
8.215615917155148
 30
0.0
 11
29.84948408280543
 21
8.763099999991255
 31
0.0
  0
LINE
  5
E779
330
E767
100
AcDbEntity
  8
0
  6
CONTINUOUS
100
AcDbLine
 10
24.12830329189199
 20
2.36839999999762
 30
0.0
 11
25.78957217337993
 21
4.029668881485562
 31
0.0
  0
LINE
  5
E77A
330
E767
100
AcDbEntity
  8
0
  6
CONTINUOUS
100
AcDbLine
 10
29.30199999996933
 20
7.54209670807496
 30
0.0
 11
30.52300329188562
 21
8.763099999991255
 31
0.0
  0
LINE
  5
E77B
330
E767
100
AcDbEntity
  8
0
  6
CONTINUOUS
100
AcDbLine
 10
24.80182250097217
 20
2.36839999999762
 30
0.0
 11
25.99775392520067
 21
3.564331424226122
 31
0.0
  0
LINE
  5
E77C
330
E767
100
AcDbEntity
  8
0
  6
CONTINUOUS
100
AcDbLine
 10
29.30199999996933
 20
6.868577498994774
 30
0.0
 11
30.74199999996926
 21
8.308577498994712
 31
0.0
  0
LINE
  5
E77D
330
E767
100
AcDbEntity
  8
0
  6
CONTINUOUS
100
AcDbLine
 10
25.13028238392013
 20
2.023340673865392
 30
0.0
 11
26.20593567702142
 21
3.098993966966683
 31
0.0
  0
LINE
  5
E77E
330
E767
100
AcDbEntity
  8
0
  6
CONTINUOUS
100
AcDbLine
 10
25.33838066033617
 20
1.557919741201244
 30
0.0
 11
26.41411742884217
 21
2.633656509707244
 31
0.0
  0
LINE
  5
E77F
330
E767
100
AcDbEntity
  8
0
  6
CONTINUOUS
100
AcDbLine
 10
25.54647893675221
 20
1.092498808537098
 30
0.0
 11
26.62229918066291
 21
2.168319052447804
 31
0.0
  0
LINE
  5
E780
330
E767
100
AcDbEntity
  8
0
  6
CONTINUOUS
100
AcDbLine
 10
25.75457721316825
 20
0.62707787587295
 30
0.0
 11
26.83048093248366
 21
1.702981595188365
 31
0.0
  0
LINE
  5
E781
330
E767
100
AcDbEntity
  8
0
  6
CONTINUOUS
100
AcDbLine
 10
29.30199999996933
 20
6.195058289914587
 30
0.0
 11
30.74199999996926
 21
7.635058289914522
 31
0.0
  0
LINE
  5
E782
330
E767
100
AcDbEntity
  8
0
  6
CONTINUOUS
100
AcDbLine
 10
29.30199999996933
 20
5.521539080834401
 30
0.0
 11
30.74199999996926
 21
6.961539080834331
 31
0.0
  0
LINE
  5
E783
330
E767
100
AcDbEntity
  8
0
  6
CONTINUOUS
100
AcDbLine
 10
29.30199999996933
 20
4.848019871754214
 30
0.0
 11
30.74199999996925
 21
6.288019871754143
 31
0.0
  0
LINE
  5
E784
330
E767
100
AcDbEntity
  8
0
  6
CONTINUOUS
100
AcDbLine
 10
29.30199999996933
 20
4.174500662674028
 30
0.0
 11
30.74199999996925
 21
5.614500662673953
 31
0.0
  0
LINE
  5
E785
330
E767
100
AcDbEntity
  8
0
  6
CONTINUOUS
100
AcDbLine
 10
25.96267548958429
 20
0.1616569432088024
 30
0.0
 11
27.18411854636669
 21
1.383099999991207
 31
0.0
  0
LINE
  5
E786
330
E767
100
AcDbEntity
  8
0
  6
CONTINUOUS
100
AcDbLine
 10
29.30199999996933
 20
3.500981453593841
 30
0.0
 11
30.74199999996925
 21
4.940981453593762
 31
0.0
  0
LINE
  5
E787
330
E767
100
AcDbEntity
  8
0
  6
CONTINUOUS
100
AcDbLine
 10
26.50763775544691
 20
0.0330999999912356
 30
0.0
 11
27.85763775544689
 21
1.383099999991223
 31
0.0
  0
LINE
  5
E788
330
E767
100
AcDbEntity
  8
0
  6
CONTINUOUS
100
AcDbLine
 10
29.30199999996933
 20
2.827462244513656
 30
0.0
 11
30.74199999996925
 21
4.267462244513574
 31
0.0
  0
LINE
  5
E789
330
E767
100
AcDbEntity
  8
0
  6
CONTINUOUS
100
AcDbLine
 10
27.18115696452709
 20
0.0330999999912356
 30
0.0
 11
28.55073879889363
 21
1.402681834357775
 31
0.0
  0
LINE
  5
E78A
330
E767
100
AcDbEntity
  8
0
  6
CONTINUOUS
100
AcDbLine
 10
29.28241816560272
 20
2.134361201066866
 30
0.0
 11
30.74199999996924
 21
3.593943035433383
 31
0.0
  0
LINE
  5
E78B
330
E767
100
AcDbEntity
  8
0
  6
CONTINUOUS
100
AcDbLine
 10
27.85467617360728
 20
0.0330999999912356
 30
0.0
 11
30.74199999996924
 21
2.920423826353195
 31
0.0
  0
LINE
  5
E78C
330
E767
100
AcDbEntity
  8
0
  6
CONTINUOUS
100
AcDbLine
 10
28.53897559587887
 20
0.0438802131826428
 30
0.0
 11
30.73121978677781
 21
2.236124404081585
 31
0.0
  0
LINE
  5
E78D
330
E767
100
AcDbEntity
  8
0
  6
CONTINUOUS
100
AcDbLine
 10
29.45140055588722
 20
0.2827859641107988
 30
0.0
 11
30.49231403584965
 21
1.323699444073236
 31
0.0
  0
LINE
  5
E78E
330
E767
100
AcDbEntity
  8
0
  6
CONTINUOUS
100
AcDbLine
 10
19.59027867740337
 20
-0.0000967065718083
 30
0.0
 11
19.55485265190471
 21
0.035329318926844
 31
0.0
  0
LINE
  5
E78F
330
E767
100
AcDbEntity
  8
0
  6
CONTINUOUS
100
AcDbLine
 10
20.26375463176586
 20
-0.0000534518541091
 30
0.0
 11
19.76305575737534
 21
0.5006454225364014
 31
0.0
  0
LINE
  5
E790
330
E767
100
AcDbEntity
  8
0
  6
CONTINUOUS
100
AcDbLine
 10
20.93723058612834
 20
-0.0000101971364099
 30
0.0
 11
19.97125886284597
 21
0.965961526145958
 31
0.0
  0
LINE
  5
E791
330
E767
100
AcDbEntity
  8
0
  6
CONTINUOUS
100
AcDbLine
 10
21.25514828313686
 20
0.355591314935257
 30
0.0
 11
20.1794619683166
 21
1.431277629755512
 31
0.0
  0
LINE
  5
E792
330
E767
100
AcDbEntity
  8
0
  6
CONTINUOUS
100
AcDbLine
 10
21.46338838394921
 20
0.8208704232030986
 30
0.0
 11
20.38766507378723
 21
1.896593733365069
 31
0.0
  0
LINE
  5
E793
330
E767
100
AcDbEntity
  8
0
  6
CONTINUOUS
100
AcDbLine
 10
21.67162848476155
 20
1.28614953147094
 30
0.0
 11
20.59586817925786
 21
2.361909836974626
 31
0.0
  0
LINE
  5
E794
330
E767
100
AcDbEntity
  8
0
  6
CONTINUOUS
100
AcDbLine
 10
21.8798685855739
 20
1.751428639738782
 30
0.0
 11
20.80407128472849
 21
2.827225940584183
 31
0.0
  0
LINE
  5
E795
330
E767
100
AcDbEntity
  8
0
  6
CONTINUOUS
100
AcDbLine
 10
22.08810868638624
 20
2.216707748006623
 30
0.0
 11
21.01227439019912
 21
3.292542044193739
 31
0.0
  0
LINE
  5
E796
330
E767
100
AcDbEntity
  8
0
  6
CONTINUOUS
100
AcDbLine
 10
22.60993564347543
 20
2.36839999999762
 30
0.0
 11
21.22047749566975
 21
3.757858147803296
 31
0.0
  0
LINE
  5
E797
330
E767
100
AcDbEntity
  8
0
  6
CONTINUOUS
100
AcDbLine
 10
23.28345485255561
 20
2.36839999999762
 30
0.0
 11
21.42868060114038
 21
4.223174251412853
 31
0.0
  0
LINE
  5
E798
330
E767
100
AcDbEntity
  8
0
  6
CONTINUOUS
100
AcDbLine
 10
26.29227406164219
 20
0.0330999999912356
 30
0.0
 11
25.80009199592872
 21
0.5252820657046957
 31
0.0
  0
LINE
  5
E799
330
E767
100
AcDbEntity
  8
0
  6
CONTINUOUS
100
AcDbLine
 10
23.9569740616358
 20
2.36839999999762
 30
0.0
 11
21.63688370661101
 21
4.688490355022409
 31
0.0
  0
LINE
  5
E79A
330
E767
100
AcDbEntity
  8
0
  6
CONTINUOUS
100
AcDbLine
 10
26.96579327072237
 20
0.0330999999912356
 30
0.0
 11
25.2554132311971
 21
1.743480039516508
 31
0.0
  0
LINE
  5
E79B
330
E767
100
AcDbEntity
  8
0
  6
CONTINUOUS
100
AcDbLine
 10
24.63049327071599
 20
2.36839999999762
 30
0.0
 11
23.32789327071731
 21
3.670999999996297
 31
0.0
  0
LINE
  5
E79C
330
E767
100
AcDbEntity
  8
0
  6
CONTINUOUS
100
AcDbLine
 10
22.92098674744635
 20
4.077906523267254
 30
0.0
 11
21.84508681208164
 21
5.153806458631966
 31
0.0
  0
LINE
  5
E79D
330
E767
100
AcDbEntity
  8
0
  6
CONTINUOUS
100
AcDbLine
 10
27.63931247980256
 20
0.0330999999912356
 30
0.0
 11
24.0014124797975
 21
3.670999999996297
 31
0.0
  0
LINE
  5
E79E
330
E767
100
AcDbEntity
  8
0
  6
CONTINUOUS
100
AcDbLine
 10
23.129125600968
 20
4.5432868788258
 30
0.0
 11
22.05328991755227
 21
5.619122562241522
 31
0.0
  0
LINE
  5
E79F
330
E767
100
AcDbEntity
  8
0
  6
CONTINUOUS
100
AcDbLine
 10
28.31283168888275
 20
0.0330999999912356
 30
0.0
 11
24.16488385994816
 21
4.181047828925828
 31
0.0
  0
LINE
  5
E7A0
330
E767
100
AcDbEntity
  8
0
  6
CONTINUOUS
100
AcDbLine
 10
23.33726445448964
 20
5.008667234384345
 30
0.0
 11
22.2614930230229
 21
6.084438665851079
 31
0.0
  0
LINE
  5
E7A1
330
E767
100
AcDbEntity
  8
0
  6
CONTINUOUS
100
AcDbLine
 10
28.92085740005492
 20
0.0985934978992438
 30
0.0
 11
27.63635089796295
 21
1.383099999991217
 31
0.0
  0
LINE
  5
E7A2
330
E767
100
AcDbEntity
  8
0
  6
CONTINUOUS
100
AcDbLine
 10
26.43704649509776
 20
2.582404402856405
 30
0.0
 11
23.61992702019732
 21
5.399523877756844
 31
0.0
  0
LINE
  5
E7A3
330
E767
100
AcDbEntity
  8
0
  6
CONTINUOUS
100
AcDbLine
 10
23.54540330801128
 20
5.47404758994289
 30
0.0
 11
22.46969612849353
 21
6.549754769460635
 31
0.0
  0
LINE
  5
E7A4
330
E767
100
AcDbEntity
  8
0
  6
CONTINUOUS
100
AcDbLine
 10
29.42225615078443
 20
0.2707139562499279
 30
0.0
 11
28.30987010704312
 21
1.383099999991234
 31
0.0
  0
LINE
  5
E7A5
330
E767
100
AcDbEntity
  8
0
  6
CONTINUOUS
100
AcDbLine
 10
25.89179548232307
 20
3.801174624711282
 30
0.0
 11
22.67789923396416
 21
7.015070873070191
 31
0.0
  0
LINE
  5
E7A6
330
E767
100
AcDbEntity
  8
0
  6
CONTINUOUS
100
AcDbLine
 10
29.83624534690007
 20
0.5302439692144705
 30
0.0
 11
28.85811781497101
 21
1.508371501143527
 31
0.0
  0
LINE
  5
E7A7
330
E767
100
AcDbEntity
  8
0
  6
CONTINUOUS
100
AcDbLine
 10
25.34654446954838
 20
5.01994484656616
 30
0.0
 11
22.88610233943479
 21
7.480386976679748
 31
0.0
  0
LINE
  5
E7A8
330
E767
100
AcDbEntity
  8
0
  6
CONTINUOUS
100
AcDbLine
 10
30.17865975401872
 20
0.8613487711760022
 30
0.0
 11
29.18888744090175
 21
1.851121084292977
 31
0.0
  0
LINE
  5
E7A9
330
E767
100
AcDbEntity
  8
0
  6
CONTINUOUS
100
AcDbLine
 10
24.80129345677369
 20
6.238715068421037
 30
0.0
 11
23.09430544490542
 21
7.945703080289305
 31
0.0
  0
LINE
  5
E7AA
330
E767
100
AcDbEntity
  8
0
  6
CONTINUOUS
100
AcDbLine
 10
30.45496647202376
 20
1.258561262251155
 30
0.0
 11
29.30199999996933
 21
2.411527734305588
 31
0.0
  0
LINE
  5
E7AB
330
E767
100
AcDbEntity
  8
0
  6
CONTINUOUS
100
AcDbLine
 10
24.256042443999
 20
7.457485290275915
 30
0.0
 11
23.30250855037605
 21
8.411019183898862
 31
0.0
  0
LINE
  5
E7AC
330
E767
100
AcDbEntity
  8
0
  6
CONTINUOUS
100
AcDbLine
 10
30.64868582078271
 20
1.738361122572387
 30
0.0
 11
29.30199999996933
 21
3.085046943385775
 31
0.0
  0
LINE
  5
E7AD
330
E767
100
AcDbEntity
  8
0
  6
CONTINUOUS
100
AcDbLine
 10
23.71079143122431
 20
8.676255512130794
 30
0.0
 11
23.51071165584668
 21
8.876335287508416
 31
0.0
  0
LINE
  5
E7AE
330
E767
100
AcDbEntity
  8
0
  6
CONTINUOUS
100
AcDbLine
 10
30.73802122914428
 20
2.322544923291007
 30
0.0
 11
29.30199999996933
 21
3.758566152465961
 31
0.0
  0
LINE
  5
E7AF
330
E767
100
AcDbEntity
  8
0
  6
CONTINUOUS
100
AcDbLine
 10
30.74199999996924
 20
2.992085361546236
 30
0.0
 11
29.30199999996933
 21
4.432085361546148
 31
0.0
  0
LINE
  5
E7B0
330
E767
100
AcDbEntity
  8
0
  6
CONTINUOUS
100
AcDbLine
 10
30.74199999996924
 20
3.665604570626419
 30
0.0
 11
29.30199999996933
 21
5.105604570626333
 31
0.0
  0
LINE
  5
E7B1
330
E767
100
AcDbEntity
  8
0
  6
CONTINUOUS
100
AcDbLine
 10
30.74199999996925
 20
4.339123779706602
 30
0.0
 11
29.30199999996933
 21
5.77912377970652
 31
0.0
  0
LINE
  5
E7B2
330
E767
100
AcDbEntity
  8
0
  6
CONTINUOUS
100
AcDbLine
 10
30.74199999996925
 20
5.012642988786785
 30
0.0
 11
29.30199999996933
 21
6.452642988786707
 31
0.0
  0
LINE
  5
E7B3
330
E767
100
AcDbEntity
  8
0
  6
CONTINUOUS
100
AcDbLine
 10
30.74199999996925
 20
5.68616219786697
 30
0.0
 11
29.30199999996933
 21
7.126162197866894
 31
0.0
  0
LINE
  5
E7B4
330
E767
100
AcDbEntity
  8
0
  6
CONTINUOUS
100
AcDbLine
 10
30.74199999996925
 20
6.359681406947153
 30
0.0
 11
29.30199999996933
 21
7.799681406947081
 31
0.0
  0
LINE
  5
E7B5
330
E767
100
AcDbEntity
  8
0
  6
CONTINUOUS
100
AcDbLine
 10
30.74199999996926
 20
7.033200616027337
 30
0.0
 11
29.30199999996933
 21
8.473200616027269
 31
0.0
  0
LINE
  5
E7B6
330
E767
100
AcDbEntity
  8
0
  6
CONTINUOUS
100
AcDbLine
 10
30.74199999996926
 20
7.706719825107518
 30
0.0
 11
29.68561982508552
 21
8.763099999991255
 31
0.0
  0
LINE
  5
E7B7
330
E767
100
AcDbEntity
  8
0
  6
CONTINUOUS
100
AcDbLine
 10
30.74199999996926
 20
8.380239034187703
 30
0.0
 11
30.35913903416571
 21
8.763099999991255
 31
0.0
  0
ENDBLK
  5
E85A
330
E767
100
AcDbEntity
  8
0
100
AcDbBlockEnd
  0
BLOCK
  5
E85B
330
E7B8
100
AcDbEntity
  8
0
100
AcDbBlockBegin
  2
*X15
 70
     1
 10
0.0
 20
0.0
 30
0.0
  3
*X15
  1

  0
LINE
  5
E7B9
330
E7B8
100
AcDbEntity
  8
0
  6
CONTINUOUS
100
AcDbLine
 10
31.64199999996833
 20
8.535058289913598
 30
0.0
 11
31.87004171004599
 21
8.763099999991255
 31
0.0
  0
LINE
  5
E7BA
330
E7B8
100
AcDbEntity
  8
0
  6
CONTINUOUS
100
AcDbLine
 10
31.64199999996833
 20
7.861539080833412
 30
0.0
 11
32.54356091912618
 21
8.763099999991255
 31
0.0
  0
LINE
  5
E7BB
330
E7B8
100
AcDbEntity
  8
0
  6
CONTINUOUS
100
AcDbLine
 10
31.64199999996833
 20
7.188019871753226
 30
0.0
 11
33.08199999996839
 21
8.628019871753281
 31
0.0
  0
LINE
  5
E7BC
330
E7B8
100
AcDbEntity
  8
0
  6
CONTINUOUS
100
AcDbLine
 10
31.64199999996833
 20
6.51450066267304
 30
0.0
 11
33.08199999996839
 21
7.954500662673095
 31
0.0
  0
LINE
  5
E7BD
330
E7B8
100
AcDbEntity
  8
0
  6
CONTINUOUS
100
AcDbLine
 10
31.64199999996833
 20
5.840981453592853
 30
0.0
 11
33.08199999996839
 21
7.280981453592908
 31
0.0
  0
LINE
  5
E7BE
330
E7B8
100
AcDbEntity
  8
0
  6
CONTINUOUS
100
AcDbLine
 10
31.64199999996833
 20
5.167462244512667
 30
0.0
 11
33.08199999996839
 21
6.607462244512721
 31
0.0
  0
LINE
  5
E7BF
330
E7B8
100
AcDbEntity
  8
0
  6
CONTINUOUS
100
AcDbLine
 10
31.64199999996833
 20
4.493943035432481
 30
0.0
 11
33.08199999996839
 21
5.933943035432535
 31
0.0
  0
LINE
  5
E7C0
330
E7B8
100
AcDbEntity
  8
0
  6
CONTINUOUS
100
AcDbLine
 10
31.64199999996833
 20
3.820423826352293
 30
0.0
 11
33.08199999996839
 21
5.260423826352348
 31
0.0
  0
LINE
  5
E7C1
330
E7B8
100
AcDbEntity
  8
0
  6
CONTINUOUS
100
AcDbLine
 10
31.64199999996833
 20
3.146904617272106
 30
0.0
 11
33.08199999996839
 21
4.586904617272161
 31
0.0
  0
LINE
  5
E7C2
330
E7B8
100
AcDbEntity
  8
0
  6
CONTINUOUS
100
AcDbLine
 10
36.23199999996837
 20
8.410423826352325
 30
0.0
 11
36.5846761736073
 21
8.763099999991255
 31
0.0
  0
LINE
  5
E7C3
330
E7B8
100
AcDbEntity
  8
0
  6
CONTINUOUS
100
AcDbLine
 10
36.23199999996837
 20
7.73690461727214
 30
0.0
 11
37.25819538268748
 21
8.763099999991255
 31
0.0
  0
LINE
  5
E7C4
330
E7B8
100
AcDbEntity
  8
0
  6
CONTINUOUS
100
AcDbLine
 10
31.64257403601376
 20
2.473959444237348
 30
0.0
 11
33.08199999996839
 21
3.913385408191974
 31
0.0
  0
LINE
  5
E7C5
330
E7B8
100
AcDbEntity
  8
0
  6
CONTINUOUS
100
AcDbLine
 10
36.23199999996837
 20
7.063385408191953
 30
0.0
 11
37.67199999996831
 21
8.503385408191894
 31
0.0
  0
LINE
  5
E7C6
330
E7B8
100
AcDbEntity
  8
0
  6
CONTINUOUS
100
AcDbLine
 10
31.72013636841932
 20
1.87800256756272
 30
0.0
 11
33.08199999996839
 21
3.239866199111788
 31
0.0
  0
LINE
  5
E7C7
330
E7B8
100
AcDbEntity
  8
0
  6
CONTINUOUS
100
AcDbLine
 10
36.23199999996837
 20
6.389866199111767
 30
0.0
 11
37.67199999996831
 21
7.829866199111708
 31
0.0
  0
LINE
  5
E7C8
330
E7B8
100
AcDbEntity
  8
0
  6
CONTINUOUS
100
AcDbLine
 10
31.89042734314753
 20
1.374774333210744
 30
0.0
 11
33.08199999996839
 21
2.566346990031601
 31
0.0
  0
LINE
  5
E7C9
330
E7B8
100
AcDbEntity
  8
0
  6
CONTINUOUS
100
AcDbLine
 10
36.23199999996837
 20
5.71634699003158
 30
0.0
 11
37.67199999996831
 21
7.156346990031521
 31
0.0
  0
LINE
  5
E7CA
330
E7B8
100
AcDbEntity
  8
0
  6
CONTINUOUS
100
AcDbLine
 10
32.14210568064475
 20
0.952933461627778
 30
0.0
 11
33.18745552475986
 21
1.998283305742888
 31
0.0
  0
LINE
  5
E7CB
330
E7B8
100
AcDbEntity
  8
0
  6
CONTINUOUS
100
AcDbLine
 10
36.23199999996837
 20
5.042827780951393
 30
0.0
 11
37.67199999996831
 21
6.482827780951334
 31
0.0
  0
LINE
  5
E7CC
330
E7B8
100
AcDbEntity
  8
0
  6
CONTINUOUS
100
AcDbLine
 10
32.45820639400955
 20
0.5955149659123915
 30
0.0
 11
33.47242681921943
 21
1.60973539112227
 31
0.0
  0
LINE
  5
E7CD
330
E7B8
100
AcDbEntity
  8
0
  6
CONTINUOUS
100
AcDbLine
 10
36.23199999996837
 20
4.369308571871207
 30
0.0
 11
37.67199999996831
 21
5.809308571871147
 31
0.0
  0
LINE
  5
E7CE
330
E7B8
100
AcDbEntity
  8
0
  6
CONTINUOUS
100
AcDbLine
 10
32.83432456621412
 20
0.2981139290367771
 30
0.0
 11
33.89722476612215
 21
1.361014128944803
 31
0.0
  0
LINE
  5
E7CF
330
E7B8
100
AcDbEntity
  8
0
  6
CONTINUOUS
100
AcDbLine
 10
36.23199999996837
 20
3.69578936279102
 30
0.0
 11
37.67199999996831
 21
5.135789362790962
 31
0.0
  0
LINE
  5
E7D0
330
E7B8
100
AcDbEntity
  8
0
  6
CONTINUOUS
100
AcDbLine
 10
33.2711633111245
 20
0.0614334648669672
 30
0.0
 11
34.43247338014423
 21
1.222743533886696
 31
0.0
  0
LINE
  5
E7D1
330
E7B8
100
AcDbEntity
  8
0
  6
CONTINUOUS
100
AcDbLine
 10
36.23199999996837
 20
3.022270153710834
 30
0.0
 11
37.67199999996831
 21
4.462270153710775
 31
0.0
  0
LINE
  5
E7D2
330
E7B8
100
AcDbEntity
  8
0
  6
CONTINUOUS
100
AcDbLine
 10
33.76515245874577
 20
-0.1180965965919523
 30
0.0
 11
35.1587445516215
 21
1.27549549628378
 31
0.0
  0
LINE
  5
E7D3
330
E7B8
100
AcDbEntity
  8
0
  6
CONTINUOUS
100
AcDbLine
 10
36.21639478609585
 20
2.333145730758136
 30
0.0
 11
37.67199999996831
 21
3.788750944630588
 31
0.0
  0
LINE
  5
E7D4
330
E7B8
100
AcDbEntity
  8
0
  6
CONTINUOUS
100
AcDbLine
 10
34.34060583368432
 20
-0.2161624307335863
 30
0.0
 11
37.67199999996831
 21
3.115231735550401
 31
0.0
  0
LINE
  5
E7D5
330
E7B8
100
AcDbEntity
  8
0
  6
CONTINUOUS
100
AcDbLine
 10
35.01698193613905
 20
-0.2133055373590427
 30
0.0
 11
37.66876712070525
 21
2.438479647207154
 31
0.0
  0
LINE
  5
E7D6
330
E7B8
100
AcDbEntity
  8
0
  6
CONTINUOUS
100
AcDbLine
 10
35.90743367693304
 20
0.0036269943547609
 30
0.0
 11
37.51723902192366
 21
1.613432339345381
 31
0.0
  0
LINE
  5
E7D7
330
E7B8
100
AcDbEntity
  8
0
  6
CONTINUOUS
100
AcDbLine
 10
32.55309425579761
 20
0.5074718966376706
 30
0.0
 11
32.27784730925847
 21
0.7827188431768102
 31
0.0
  0
LINE
  5
E7D8
330
E7B8
100
AcDbEntity
  8
0
  6
CONTINUOUS
100
AcDbLine
 10
33.87496468909684
 20
-0.1408793275813673
 30
0.0
 11
31.67993083278052
 21
2.054154528734943
 31
0.0
  0
LINE
  5
E7D9
330
E7B8
100
AcDbEntity
  8
0
  6
CONTINUOUS
100
AcDbLine
 10
34.64362813207632
 20
-0.2360235614806649
 30
0.0
 11
31.64199999996833
 21
2.765604570627322
 31
0.0
  0
LINE
  5
E7DA
330
E7B8
100
AcDbEntity
  8
0
  6
CONTINUOUS
100
AcDbLine
 10
35.25801106796118
 20
-0.1768872882853429
 30
0.0
 11
31.64199999996833
 21
3.439123779707508
 31
0.0
  0
LINE
  5
E7DB
330
E7B8
100
AcDbEntity
  8
0
  6
CONTINUOUS
100
AcDbLine
 10
35.79065650332146
 20
-0.0360135145654361
 30
0.0
 11
34.54143210838231
 21
1.213210880373721
 31
0.0
  0
LINE
  5
E7DC
330
E7B8
100
AcDbEntity
  8
0
  6
CONTINUOUS
100
AcDbLine
 10
33.08199999996839
 20
2.67264298878764
 30
0.0
 11
31.64199999996833
 21
4.112642988787695
 31
0.0
  0
LINE
  5
E7DD
330
E7B8
100
AcDbEntity
  8
0
  6
CONTINUOUS
100
AcDbLine
 10
36.25975597779143
 20
0.1684062200447833
 30
0.0
 11
35.15395110240023
 21
1.274211095435983
 31
0.0
  0
LINE
  5
E7DE
330
E7B8
100
AcDbEntity
  8
0
  6
CONTINUOUS
100
AcDbLine
 10
33.08199999996839
 20
3.346162197867826
 30
0.0
 11
31.64199999996833
 21
4.786162197867881
 31
0.0
  0
LINE
  5
E7DF
330
E7B8
100
AcDbEntity
  8
0
  6
CONTINUOUS
100
AcDbLine
 10
36.67226329638774
 20
0.4294181105286579
 30
0.0
 11
35.63766478748767
 21
1.464016619428737
 31
0.0
  0
LINE
  5
E7E0
330
E7B8
100
AcDbEntity
  8
0
  6
CONTINUOUS
100
AcDbLine
 10
33.08199999996839
 20
4.019681406948012
 30
0.0
 11
31.64199999996833
 21
5.459681406948068
 31
0.0
  0
LINE
  5
E7E1
330
E7B8
100
AcDbEntity
  8
0
  6
CONTINUOUS
100
AcDbLine
 10
37.01677749710036
 20
0.7584231188962329
 30
0.0
 11
35.99563422741351
 21
1.779566388583076
 31
0.0
  0
LINE
  5
E7E2
330
E7B8
100
AcDbEntity
  8
0
  6
CONTINUOUS
100
AcDbLine
 10
33.08199999996839
 20
4.693200616028199
 30
0.0
 11
31.64199999996833
 21
6.133200616028255
 31
0.0
  0
LINE
  5
E7E3
330
E7B8
100
AcDbEntity
  8
0
  6
CONTINUOUS
100
AcDbLine
 10
37.29859977568887
 20
1.1501200493879
 30
0.0
 11
36.20680593341555
 21
2.241913891661226
 31
0.0
  0
LINE
  5
E7E4
330
E7B8
100
AcDbEntity
  8
0
  6
CONTINUOUS
100
AcDbLine
 10
33.08199999996839
 20
5.366719825108386
 30
0.0
 11
31.64199999996833
 21
6.80671982510844
 31
0.0
  0
LINE
  5
E7E5
330
E7B8
100
AcDbEntity
  8
0
  6
CONTINUOUS
100
AcDbLine
 10
37.5148623517228
 20
1.607376682434161
 30
0.0
 11
36.23199999996837
 21
2.890239034188594
 31
0.0
  0
LINE
  5
E7E6
330
E7B8
100
AcDbEntity
  8
0
  6
CONTINUOUS
100
AcDbLine
 10
33.08199999996839
 20
6.040239034188573
 30
0.0
 11
31.64199999996833
 21
7.480239034188627
 31
0.0
  0
LINE
  5
E7E7
330
E7B8
100
AcDbEntity
  8
0
  6
CONTINUOUS
100
AcDbLine
 10
37.64705163358367
 20
2.148706609653477
 30
0.0
 11
36.23199999996837
 21
3.56375824326878
 31
0.0
  0
LINE
  5
E7E8
330
E7B8
100
AcDbEntity
  8
0
  6
CONTINUOUS
100
AcDbLine
 10
33.08199999996839
 20
6.713758243268758
 30
0.0
 11
31.64199999996833
 21
8.153758243268815
 31
0.0
  0
LINE
  5
E7E9
330
E7B8
100
AcDbEntity
  8
0
  6
CONTINUOUS
100
AcDbLine
 10
37.67199999996831
 20
2.797277452349026
 30
0.0
 11
36.23199999996837
 21
4.237277452348967
 31
0.0
  0
LINE
  5
E7EA
330
E7B8
100
AcDbEntity
  8
0
  6
CONTINUOUS
100
AcDbLine
 10
37.67199999996831
 20
3.470796661429213
 30
0.0
 11
36.23199999996837
 21
4.910796661429154
 31
0.0
  0
LINE
  5
E7EB
330
E7B8
100
AcDbEntity
  8
0
  6
CONTINUOUS
100
AcDbLine
 10
37.67199999996831
 20
4.144315870509399
 30
0.0
 11
36.23199999996837
 21
5.58431587050934
 31
0.0
  0
LINE
  5
E7EC
330
E7B8
100
AcDbEntity
  8
0
  6
CONTINUOUS
100
AcDbLine
 10
33.08199999996839
 20
7.387277452348945
 30
0.0
 11
31.70617745232608
 21
8.763099999991255
 31
0.0
  0
LINE
  5
E7ED
330
E7B8
100
AcDbEntity
  8
0
  6
CONTINUOUS
100
AcDbLine
 10
33.08199999996839
 20
8.060796661429132
 30
0.0
 11
32.37969666140626
 21
8.763099999991255
 31
0.0
  0
LINE
  5
E7EE
330
E7B8
100
AcDbEntity
  8
0
  6
CONTINUOUS
100
AcDbLine
 10
33.08199999996839
 20
8.734315870509318
 30
0.0
 11
33.05321587048645
 21
8.763099999991255
 31
0.0
  0
LINE
  5
E7EF
330
E7B8
100
AcDbEntity
  8
0
  6
CONTINUOUS
100
AcDbLine
 10
37.67199999996831
 20
4.817835079589585
 30
0.0
 11
36.23199999996837
 21
6.257835079589526
 31
0.0
  0
LINE
  5
E7F0
330
E7B8
100
AcDbEntity
  8
0
  6
CONTINUOUS
100
AcDbLine
 10
37.67199999996831
 20
5.491354288669771
 30
0.0
 11
36.23199999996837
 21
6.931354288669713
 31
0.0
  0
LINE
  5
E7F1
330
E7B8
100
AcDbEntity
  8
0
  6
CONTINUOUS
100
AcDbLine
 10
37.67199999996831
 20
6.164873497749958
 30
0.0
 11
36.23199999996837
 21
7.6048734977499
 31
0.0
  0
LINE
  5
E7F2
330
E7B8
100
AcDbEntity
  8
0
  6
CONTINUOUS
100
AcDbLine
 10
37.67199999996831
 20
6.838392706830144
 30
0.0
 11
36.23199999996837
 21
8.278392706830086
 31
0.0
  0
LINE
  5
E7F3
330
E7B8
100
AcDbEntity
  8
0
  6
CONTINUOUS
100
AcDbLine
 10
37.67199999996831
 20
7.511911915910332
 30
0.0
 11
36.42081191588738
 21
8.763099999991255
 31
0.0
  0
LINE
  5
E7F4
330
E7B8
100
AcDbEntity
  8
0
  6
CONTINUOUS
100
AcDbLine
 10
37.67199999996831
 20
8.185431124990519
 30
0.0
 11
37.09433112496757
 21
8.763099999991255
 31
0.0
  0
ENDBLK
  5
E85C
330
E7B8
100
AcDbEntity
  8
0
100
AcDbBlockEnd
  0
BLOCK
  5
E85D
330
E7F5
100
AcDbEntity
  8
0
100
AcDbBlockBegin
  2
*X16
 70
     1
 10
0.0
 20
0.0
 30
0.0
  3
*X16
  1

  0
LINE
  5
E7F6
330
E7F5
100
AcDbEntity
  8
0
  6
CONTINUOUS
100
AcDbLine
 10
38.60499999996136
 20
8.762866199104765
 30
0.0
 11
38.71672554182345
 21
8.874591740966855
 31
0.0
  0
LINE
  5
E7F7
330
E7F5
100
AcDbEntity
  8
0
  6
CONTINUOUS
100
AcDbLine
 10
38.60499999996136
 20
8.089346990024577
 30
0.0
 11
39.03418785440363
 21
8.518534844466847
 31
0.0
  0
LINE
  5
E7F8
330
E7F5
100
AcDbEntity
  8
0
  6
CONTINUOUS
100
AcDbLine
 10
38.60499999996136
 20
7.41582778094439
 30
0.0
 11
39.35165016698382
 21
8.16247794796684
 31
0.0
  0
LINE
  5
E7F9
330
E7F5
100
AcDbEntity
  8
0
  6
CONTINUOUS
100
AcDbLine
 10
38.60499999996136
 20
6.742308571864204
 30
0.0
 11
39.66911247956399
 21
7.806421051466834
 31
0.0
  0
LINE
  5
E7FA
330
E7F5
100
AcDbEntity
  8
0
  6
CONTINUOUS
100
AcDbLine
 10
38.60499999996136
 20
6.068789362784018
 30
0.0
 11
39.98657479214418
 21
7.450364154966827
 31
0.0
  0
LINE
  5
E7FB
330
E7F5
100
AcDbEntity
  8
0
  6
CONTINUOUS
100
AcDbLine
 10
38.60499999996136
 20
5.395270153703832
 30
0.0
 11
40.30403710472435
 21
7.09430725846682
 31
0.0
  0
LINE
  5
E7FC
330
E7F5
100
AcDbEntity
  8
0
  6
CONTINUOUS
100
AcDbLine
 10
38.60499999996136
 20
4.721750944623645
 30
0.0
 11
40.62149941730453
 21
6.738250361966813
 31
0.0
  0
LINE
  5
E7FD
330
E7F5
100
AcDbEntity
  8
0
  6
CONTINUOUS
100
AcDbLine
 10
38.60499999996136
 20
4.048231735543458
 30
0.0
 11
40.93896172988471
 21
6.382193465466806
 31
0.0
  0
LINE
  5
E7FE
330
E7F5
100
AcDbEntity
  8
0
  6
CONTINUOUS
100
AcDbLine
 10
38.60499999996136
 20
3.374712526463272
 30
0.0
 11
40.02599999995994
 21
4.795712526461843
 31
0.0
  0
LINE
  5
E7FF
330
E7F5
100
AcDbEntity
  8
0
  6
CONTINUOUS
100
AcDbLine
 10
38.60499999996136
 20
2.701193317383085
 30
0.0
 11
40.02599999995994
 21
4.122193317381657
 31
0.0
  0
LINE
  5
E800
330
E7F5
100
AcDbEntity
  8
0
  6
CONTINUOUS
100
AcDbLine
 10
40.28339754687704
 20
5.053110073378947
 30
0.0
 11
41.25642404246489
 21
6.026136568966799
 31
0.0
  0
LINE
  5
E801
330
E7F5
100
AcDbEntity
  8
0
  6
CONTINUOUS
100
AcDbLine
 10
40.60085985945722
 20
4.697053176878939
 30
0.0
 11
41.57388635504507
 21
5.670079672466793
 31
0.0
  0
LINE
  5
E802
330
E7F5
100
AcDbEntity
  8
0
  6
CONTINUOUS
100
AcDbLine
 10
43.57899999995641
 20
8.348712526458318
 30
0.0
 11
43.99338747348935
 21
8.763099999991255
 31
0.0
  0
LINE
  5
E803
330
E7F5
100
AcDbEntity
  8
0
  6
CONTINUOUS
100
AcDbLine
 10
43.57899999995641
 20
7.675193317378131
 30
0.0
 11
44.66690668256953
 21
8.763099999991255
 31
0.0
  0
LINE
  5
E804
330
E7F5
100
AcDbEntity
  8
0
  6
CONTINUOUS
100
AcDbLine
 10
38.60499999996136
 20
2.027674108302898
 30
0.0
 11
40.02599999995994
 21
3.44867410830147
 31
0.0
  0
LINE
  5
E805
330
E7F5
100
AcDbEntity
  8
0
  6
CONTINUOUS
100
AcDbLine
 10
38.60499999996136
 20
1.354154899222712
 30
0.0
 11
40.02599999995994
 21
2.775154899221284
 31
0.0
  0
LINE
  5
E806
330
E7F5
100
AcDbEntity
  8
0
  6
CONTINUOUS
100
AcDbLine
 10
38.60499999996136
 20
0.6806356901425255
 30
0.0
 11
40.02599999995994
 21
2.101635690141098
 31
0.0
  0
LINE
  5
E807
330
E7F5
100
AcDbEntity
  8
0
  6
CONTINUOUS
100
AcDbLine
 10
38.60499999996136
 20
0.0071164810623383
 30
0.0
 11
40.02599999995994
 21
1.428116481060911
 31
0.0
  0
LINE
  5
E808
330
E7F5
100
AcDbEntity
  8
0
  6
CONTINUOUS
100
AcDbLine
 10
40.9183221720374
 20
4.340996280378933
 30
0.0
 11
41.89134866762525
 21
5.314022775966786
 31
0.0
  0
LINE
  5
E809
330
E7F5
100
AcDbEntity
  8
0
  6
CONTINUOUS
100
AcDbLine
 10
41.23578448461758
 20
3.984939383878926
 30
0.0
 11
42.20881098020543
 21
4.957965879466778
 31
0.0
  0
LINE
  5
E80A
330
E7F5
100
AcDbEntity
  8
0
  6
CONTINUOUS
100
AcDbLine
 10
41.55324679719776
 20
3.628882487378919
 30
0.0
 11
42.52627329278561
 21
4.601908982966772
 31
0.0
  0
LINE
  5
E80B
330
E7F5
100
AcDbEntity
  8
0
  6
CONTINUOUS
100
AcDbLine
 10
41.87070910977793
 20
3.272825590878912
 30
0.0
 11
42.84373560536579
 21
4.245852086466765
 31
0.0
  0
LINE
  5
E80C
330
E7F5
100
AcDbEntity
  8
0
  6
CONTINUOUS
100
AcDbLine
 10
43.57899999995641
 20
7.001674108297943
 30
0.0
 11
44.99999999995498
 21
8.422674108296516
 31
0.0
  0
LINE
  5
E80D
330
E7F5
100
AcDbEntity
  8
0
  6
CONTINUOUS
100
AcDbLine
 10
43.57899999995641
 20
6.328154899217758
 30
0.0
 11
44.99999999995498
 21
7.749154899216329
 31
0.0
  0
LINE
  5
E80E
330
E7F5
100
AcDbEntity
  8
0
  6
CONTINUOUS
100
AcDbLine
 10
43.57899999995641
 20
5.654635690137571
 30
0.0
 11
44.99999999995498
 21
7.075635690136142
 31
0.0
  0
LINE
  5
E80F
330
E7F5
100
AcDbEntity
  8
0
  6
CONTINUOUS
100
AcDbLine
 10
43.57899999995641
 20
4.981116481057384
 30
0.0
 11
44.99999999995498
 21
6.402116481055955
 31
0.0
  0
LINE
  5
E810
330
E7F5
100
AcDbEntity
  8
0
  6
CONTINUOUS
100
AcDbLine
 10
39.27140272797921
 20
-0.0000000000000009
 30
0.0
 11
40.02599999995994
 21
0.7545972719807246
 31
0.0
  0
LINE
  5
E811
330
E7F5
100
AcDbEntity
  8
0
  6
CONTINUOUS
100
AcDbLine
 10
39.9449219370594
 20
-0.0000000000000009
 30
0.0
 11
40.02599999995994
 21
0.0810780629005379
 31
0.0
  0
LINE
  5
E812
330
E7F5
100
AcDbEntity
  8
0
  6
CONTINUOUS
100
AcDbLine
 10
42.18817142235812
 20
2.916768694378905
 30
0.0
 11
43.16119791794597
 21
3.889795189966758
 31
0.0
  0
LINE
  5
E813
330
E7F5
100
AcDbEntity
  8
0
  6
CONTINUOUS
100
AcDbLine
 10
42.50563373493829
 20
2.560711797878898
 30
0.0
 11
43.47866023052615
 21
3.533738293466751
 31
0.0
  0
LINE
  5
E814
330
E7F5
100
AcDbEntity
  8
0
  6
CONTINUOUS
100
AcDbLine
 10
43.57899999995641
 20
4.307597271977198
 30
0.0
 11
44.99999999995498
 21
5.728597271975769
 31
0.0
  0
LINE
  5
E815
330
E7F5
100
AcDbEntity
  8
0
  6
CONTINUOUS
100
AcDbLine
 10
43.57899999995641
 20
3.634078062897011
 30
0.0
 11
44.99999999995498
 21
5.055078062895582
 31
0.0
  0
LINE
  5
E816
330
E7F5
100
AcDbEntity
  8
0
  6
CONTINUOUS
100
AcDbLine
 10
42.82309604751848
 20
2.204654901378891
 30
0.0
 11
44.99999999995498
 21
4.381558853815395
 31
0.0
  0
LINE
  5
E817
330
E7F5
100
AcDbEntity
  8
0
  6
CONTINUOUS
100
AcDbLine
 10
43.14055836009865
 20
1.848598004878885
 30
0.0
 11
44.99999999995498
 21
3.70803964473521
 31
0.0
  0
LINE
  5
E818
330
E7F5
100
AcDbEntity
  8
0
  6
CONTINUOUS
100
AcDbLine
 10
43.45802067267883
 20
1.492541108378878
 30
0.0
 11
44.99999999995498
 21
3.034520435655023
 31
0.0
  0
LINE
  5
E819
330
E7F5
100
AcDbEntity
  8
0
  6
CONTINUOUS
100
AcDbLine
 10
43.77548298525902
 20
1.136484211878871
 30
0.0
 11
44.99999999995498
 21
2.361001226574837
 31
0.0
  0
LINE
  5
E81A
330
E7F5
100
AcDbEntity
  8
0
  6
CONTINUOUS
100
AcDbLine
 10
44.09294529783919
 20
0.7804273153788639
 30
0.0
 11
44.99999999995498
 21
1.687482017494649
 31
0.0
  0
LINE
  5
E81B
330
E7F5
100
AcDbEntity
  8
0
  6
CONTINUOUS
100
AcDbLine
 10
44.41040761041938
 20
0.4243704188788566
 30
0.0
 11
44.99999999995498
 21
1.013962808414463
 31
0.0
  0
LINE
  5
E81C
330
E7F5
100
AcDbEntity
  8
0
  6
CONTINUOUS
100
AcDbLine
 10
44.72786992299955
 20
0.0683135223788494
 30
0.0
 11
44.99999999995498
 21
0.340443599334276
 31
0.0
  0
LINE
  5
E81D
330
E7F5
100
AcDbEntity
  8
0
  6
CONTINUOUS
100
AcDbLine
 10
39.12223903415696
 20
-0.0000000000000009
 30
0.0
 11
38.60499999996136
 21
0.5172390341955961
 31
0.0
  0
LINE
  5
E81E
330
E7F5
100
AcDbEntity
  8
0
  6
CONTINUOUS
100
AcDbLine
 10
39.79575824323715
 20
-0.0000000000000009
 30
0.0
 11
38.60499999996136
 21
1.190758243275783
 31
0.0
  0
LINE
  5
E81F
330
E7F5
100
AcDbEntity
  8
0
  6
CONTINUOUS
100
AcDbLine
 10
40.02599999995994
 20
0.443277452357397
 30
0.0
 11
38.60499999996136
 21
1.864277452355969
 31
0.0
  0
LINE
  5
E820
330
E7F5
100
AcDbEntity
  8
0
  6
CONTINUOUS
100
AcDbLine
 10
40.02599999995994
 20
1.116796661437583
 30
0.0
 11
38.60499999996136
 21
2.537796661436155
 31
0.0
  0
LINE
  5
E821
330
E7F5
100
AcDbEntity
  8
0
  6
CONTINUOUS
100
AcDbLine
 10
40.02599999995994
 20
1.79031587051777
 30
0.0
 11
38.60499999996136
 21
3.211315870516341
 31
0.0
  0
LINE
  5
E822
330
E7F5
100
AcDbEntity
  8
0
  6
CONTINUOUS
100
AcDbLine
 10
40.02599999995994
 20
2.463835079597956
 30
0.0
 11
38.60499999996136
 21
3.884835079596527
 31
0.0
  0
LINE
  5
E823
330
E7F5
100
AcDbEntity
  8
0
  6
CONTINUOUS
100
AcDbLine
 10
40.02599999995994
 20
3.137354288678143
 30
0.0
 11
38.60499999996136
 21
4.558354288676714
 31
0.0
  0
LINE
  5
E824
330
E7F5
100
AcDbEntity
  8
0
  6
CONTINUOUS
100
AcDbLine
 10
40.02599999995994
 20
3.810873497758329
 30
0.0
 11
38.60499999996136
 21
5.2318734977569
 31
0.0
  0
LINE
  5
E825
330
E7F5
100
AcDbEntity
  8
0
  6
CONTINUOUS
100
AcDbLine
 10
40.02599999995994
 20
4.484392706838515
 30
0.0
 11
38.60499999996136
 21
5.905392706837086
 31
0.0
  0
LINE
  5
E826
330
E7F5
100
AcDbEntity
  8
0
  6
CONTINUOUS
100
AcDbLine
 10
44.99999999995498
 20
0.183911915923658
 30
0.0
 11
41.53858364506288
 21
3.64532827081576
 31
0.0
  0
LINE
  5
E827
330
E7F5
100
AcDbEntity
  8
0
  6
CONTINUOUS
100
AcDbLine
 10
40.02599999995994
 20
5.157911915918703
 30
0.0
 11
38.60499999996136
 21
6.578911915917274
 31
0.0
  0
LINE
  5
E828
330
E7F5
100
AcDbEntity
  8
0
  6
CONTINUOUS
100
AcDbLine
 10
44.99999999995498
 20
0.8574311250038447
 30
0.0
 11
38.60499999996136
 21
7.25243112499746
 31
0.0
  0
LINE
  5
E829
330
E7F5
100
AcDbEntity
  8
0
  6
CONTINUOUS
100
AcDbLine
 10
44.99999999995498
 20
1.530950334084031
 30
0.0
 11
38.60499999996136
 21
7.925950334077647
 31
0.0
  0
LINE
  5
E82A
330
E7F5
100
AcDbEntity
  8
0
  6
CONTINUOUS
100
AcDbLine
 10
44.99999999995498
 20
2.204469543164218
 30
0.0
 11
43.57899999995641
 21
3.625469543162789
 31
0.0
  0
LINE
  5
E82B
330
E7F5
100
AcDbEntity
  8
0
  6
CONTINUOUS
100
AcDbLine
 10
41.89876730984767
 20
5.305702233271528
 30
0.0
 11
38.60499999996136
 21
8.599469543157834
 31
0.0
  0
LINE
  5
E82C
330
E7F5
100
AcDbEntity
  8
0
  6
CONTINUOUS
100
AcDbLine
 10
44.99999999995498
 20
2.877988752244405
 30
0.0
 11
43.57899999995641
 21
4.298988752242975
 31
0.0
  0
LINE
  5
E82D
330
E7F5
100
AcDbEntity
  8
0
  6
CONTINUOUS
100
AcDbLine
 10
44.99999999995498
 20
3.551507961324591
 30
0.0
 11
43.57899999995641
 21
4.972507961323163
 31
0.0
  0
LINE
  5
E82E
330
E7F5
100
AcDbEntity
  8
0
  6
CONTINUOUS
100
AcDbLine
 10
44.99999999995498
 20
4.225027170404777
 30
0.0
 11
43.57899999995641
 21
5.646027170403348
 31
0.0
  0
LINE
  5
E82F
330
E7F5
100
AcDbEntity
  8
0
  6
CONTINUOUS
100
AcDbLine
 10
44.99999999995498
 20
4.898546379484964
 30
0.0
 11
43.57899999995641
 21
6.319546379483535
 31
0.0
  0
LINE
  5
E830
330
E7F5
100
AcDbEntity
  8
0
  6
CONTINUOUS
100
AcDbLine
 10
44.99999999995498
 20
5.572065588565151
 30
0.0
 11
43.57899999995641
 21
6.993065588563722
 31
0.0
  0
LINE
  5
E831
330
E7F5
100
AcDbEntity
  8
0
  6
CONTINUOUS
100
AcDbLine
 10
44.99999999995498
 20
6.245584797645336
 30
0.0
 11
43.57899999995641
 21
7.666584797643908
 31
0.0
  0
LINE
  5
E832
330
E7F5
100
AcDbEntity
  8
0
  6
CONTINUOUS
100
AcDbLine
 10
44.99999999995498
 20
6.919104006725522
 30
0.0
 11
43.57899999995641
 21
8.340104006724093
 31
0.0
  0
LINE
  5
E833
330
E7F5
100
AcDbEntity
  8
0
  6
CONTINUOUS
100
AcDbLine
 10
44.99999999995498
 20
7.592623215805709
 30
0.0
 11
43.82952321576943
 21
8.763099999991255
 31
0.0
  0
LINE
  5
E834
330
E7F5
100
AcDbEntity
  8
0
  6
CONTINUOUS
100
AcDbLine
 10
44.99999999995498
 20
8.266142424885896
 30
0.0
 11
44.50304242484962
 21
8.763099999991255
 31
0.0
  0
ENDBLK
  5
E85E
330
E7F5
100
AcDbEntity
  8
0
100
AcDbBlockEnd
  0
BLOCK
  5
E85F
330
E835
100
AcDbEntity
  8
0
100
AcDbBlockBegin
  2
*X17
 70
     1
 10
0.0
 20
0.0
 30
0.0
  3
*X17
  1

  0
LINE
  5
E836
330
E835
100
AcDbEntity
  8
0
  6
CONTINUOUS
100
AcDbLine
 10
0.0
 20
8.548461116714023
 30
0.0
 11
0.2146388832772324
 21
8.763099999991255
 31
0.0
  0
LINE
  5
E837
330
E835
100
AcDbEntity
  8
0
  6
CONTINUOUS
100
AcDbLine
 10
-0.0000000000000002
 20
7.874941907633837
 30
0.0
 11
0.8881580923574184
 21
8.763099999991255
 31
0.0
  0
LINE
  5
E838
330
E835
100
AcDbEntity
  8
0
  6
CONTINUOUS
100
AcDbLine
 10
0.0
 20
7.20142269855365
 30
0.0
 11
1.420999999998572
 21
8.622422698552223
 31
0.0
  0
LINE
  5
E839
330
E835
100
AcDbEntity
  8
0
  6
CONTINUOUS
100
AcDbLine
 10
-0.0000000000000001
 20
6.527903489473465
 30
0.0
 11
1.420999999998571
 21
7.948903489472036
 31
0.0
  0
LINE
  5
E83A
330
E835
100
AcDbEntity
  8
0
  6
CONTINUOUS
100
AcDbLine
 10
-0.0000000000000002
 20
5.854384280393278
 30
0.0
 11
1.420999999998571
 21
7.275384280391849
 31
0.0
  0
LINE
  5
E83B
330
E835
100
AcDbEntity
  8
0
  6
CONTINUOUS
100
AcDbLine
 10
-0.0000000000000002
 20
5.180865071313091
 30
0.0
 11
1.420999999998571
 21
6.601865071311663
 31
0.0
  0
LINE
  5
E83C
330
E835
100
AcDbEntity
  8
0
  6
CONTINUOUS
100
AcDbLine
 10
0.0
 20
4.507345862232905
 30
0.0
 11
1.420999999998571
 21
5.928345862231477
 31
0.0
  0
LINE
  5
E83D
330
E835
100
AcDbEntity
  8
0
  6
CONTINUOUS
100
AcDbLine
 10
-0.0000000000000003
 20
3.833826653152718
 30
0.0
 11
1.420999999998571
 21
5.25482665315129
 31
0.0
  0
LINE
  5
E83E
330
E835
100
AcDbEntity
  8
0
  6
CONTINUOUS
100
AcDbLine
 10
-0.0000000000000002
 20
3.160307444072532
 30
0.0
 11
1.420999999998571
 21
4.581307444071103
 31
0.0
  0
LINE
  5
E83F
330
E835
100
AcDbEntity
  8
0
  6
CONTINUOUS
100
AcDbLine
 10
-0.0000000000000001
 20
2.486788234992345
 30
0.0
 11
1.420999999998571
 21
3.907788234990917
 31
0.0
  0
LINE
  5
E840
330
E835
100
AcDbEntity
  8
0
  6
CONTINUOUS
100
AcDbLine
 10
-0.0000000000000006
 20
1.813269025912159
 30
0.0
 11
1.420999999998571
 21
3.234269025910731
 31
0.0
  0
LINE
  5
E841
330
E835
100
AcDbEntity
  8
0
  6
CONTINUOUS
100
AcDbLine
 10
0.0
 20
1.139749816831973
 30
0.0
 11
1.420999999998571
 21
2.560749816830544
 31
0.0
  0
LINE
  5
E842
330
E835
100
AcDbEntity
  8
0
  6
CONTINUOUS
100
AcDbLine
 10
0.0000000000000002
 20
0.466230607751787
 30
0.0
 11
1.420999999998571
 21
1.887230607750358
 31
0.0
  0
LINE
  5
E843
330
E835
100
AcDbEntity
  8
0
  6
CONTINUOUS
100
AcDbLine
 10
0.2072886013284003
 20
-0.0000000000000009
 30
0.0
 11
1.420999999998571
 21
1.213711398670171
 31
0.0
  0
LINE
  5
E844
330
E835
100
AcDbEntity
  8
0
  6
CONTINUOUS
100
AcDbLine
 10
0.8808078104085864
 20
-0.0000000000000009
 30
0.0
 11
1.420999999998571
 21
0.5401921895899839
 31
0.0
  0
LINE
  5
E845
330
E835
100
AcDbEntity
  8
0
  6
CONTINUOUS
100
AcDbLine
 10
0.0581249075061505
 20
-0.0000000000000009
 30
0.0
 11
-0.0000000000000002
 21
0.0581249075061496
 31
0.0
  0
LINE
  5
E846
330
E835
100
AcDbEntity
  8
0
  6
CONTINUOUS
100
AcDbLine
 10
0.7316441165863372
 20
-0.0000000000000009
 30
0.0
 11
-0.0000000000000002
 21
0.7316441165863363
 31
0.0
  0
LINE
  5
E847
330
E835
100
AcDbEntity
  8
0
  6
CONTINUOUS
100
AcDbLine
 10
1.405163325666523
 20
-0.0000000000000009
 30
0.0
 11
-0.0000000000000002
 21
1.405163325666523
 31
0.0
  0
LINE
  5
E848
330
E835
100
AcDbEntity
  8
0
  6
CONTINUOUS
100
AcDbLine
 10
1.420999999998572
 20
0.6576825347481381
 30
0.0
 11
-0.0000000000000001
 21
2.07868253474671
 31
0.0
  0
LINE
  5
E849
330
E835
100
AcDbEntity
  8
0
  6
CONTINUOUS
100
AcDbLine
 10
1.420999999998571
 20
1.331201743828324
 30
0.0
 11
-0.0000000000000001
 21
2.752201743826896
 31
0.0
  0
LINE
  5
E84A
330
E835
100
AcDbEntity
  8
0
  6
CONTINUOUS
100
AcDbLine
 10
1.420999999998571
 20
2.004720952908511
 30
0.0
 11
-0.0000000000000002
 21
3.425720952907082
 31
0.0
  0
LINE
  5
E84B
330
E835
100
AcDbEntity
  8
0
  6
CONTINUOUS
100
AcDbLine
 10
1.420999999998571
 20
2.678240161988697
 30
0.0
 11
-0.0000000000000001
 21
4.099240161987269
 31
0.0
  0
LINE
  5
E84C
330
E835
100
AcDbEntity
  8
0
  6
CONTINUOUS
100
AcDbLine
 10
1.420999999998572
 20
3.351759371068884
 30
0.0
 11
0.0
 21
4.772759371067455
 31
0.0
  0
LINE
  5
E84D
330
E835
100
AcDbEntity
  8
0
  6
CONTINUOUS
100
AcDbLine
 10
1.420999999998571
 20
4.02527858014907
 30
0.0
 11
-0.0000000000000003
 21
5.446278580147642
 31
0.0
  0
LINE
  5
E84E
330
E835
100
AcDbEntity
  8
0
  6
CONTINUOUS
100
AcDbLine
 10
1.420999999998571
 20
4.698797789229257
 30
0.0
 11
0.0
 21
6.119797789227828
 31
0.0
  0
LINE
  5
E84F
330
E835
100
AcDbEntity
  8
0
  6
CONTINUOUS
100
AcDbLine
 10
1.420999999998571
 20
5.372316998309444
 30
0.0
 11
-0.0000000000000001
 21
6.793316998308015
 31
0.0
  0
LINE
  5
E850
330
E835
100
AcDbEntity
  8
0
  6
CONTINUOUS
100
AcDbLine
 10
1.420999999998572
 20
6.045836207389629
 30
0.0
 11
-0.0000000000000004
 21
7.466836207388202
 31
0.0
  0
LINE
  5
E851
330
E835
100
AcDbEntity
  8
0
  6
CONTINUOUS
100
AcDbLine
 10
1.420999999998571
 20
6.719355416469816
 30
0.0
 11
0.0
 21
8.140355416468388
 31
0.0
  0
LINE
  5
E852
330
E835
100
AcDbEntity
  8
0
  6
CONTINUOUS
100
AcDbLine
 10
1.420999999998571
 20
7.392874625550003
 30
0.0
 11
0.0507746255573185
 21
8.763099999991255
 31
0.0
  0
LINE
  5
E853
330
E835
100
AcDbEntity
  8
0
  6
CONTINUOUS
100
AcDbLine
 10
1.420999999998571
 20
8.06639383463019
 30
0.0
 11
0.7242938346375052
 21
8.763099999991255
 31
0.0
  0
LINE
  5
E854
330
E835
100
AcDbEntity
  8
0
  6
CONTINUOUS
100
AcDbLine
 10
1.420999999998571
 20
8.739913043710375
 30
0.0
 11
1.397813043717691
 21
8.763099999991255
 31
0.0
  0
ENDBLK
  5
E860
330
E835
100
AcDbEntity
  8
0
100
AcDbBlockEnd
  0
ENDSEC
  0
SECTION
  2
ENTITIES
  0
LINE
  5
E2C2
330
18
100
AcDbEntity
  8
01
100
AcDbLine
 10
4628.724163440167
 20
535.0088116253919
 30
0.0000000001127424
 11
4651.352448822598
 21
535.0088116253919
 31
0.0000000001127424
  0
LINE
  5
E2C3
330
18
100
AcDbEntity
  8
01
  6
BYBLOCK
100
AcDbLine
 10
4729.853216664915
 20
695.0074933122892
 30
0.0000000001127424
 11
4883.607596819946
 21
695.0074933122892
 31
0.0000000001127424
  0
LINE
  5
E2C4
330
18
100
AcDbEntity
  8
01
100
AcDbLine
 10
4780.852448822598
 20
700.0074933122892
 30
0.0000000001127424
 11
4780.852448822598
 21
673.5074933122892
 31
0.0000000001127424
  0
LINE
  5
E2C7
330
18
100
AcDbEntity
  8
01
100
AcDbLine
 10
4630.852448822598
 20
655.0088116253919
 30
0.0000000001127424
 11
4630.852448822598
 21
465.0088116253919
 31
0.0000000001127424
  0
LINE
  5
E2C8
330
18
100
AcDbEntity
  8
01
100
AcDbLine
 10
4750.852448822598
 20
535.0088116253919
 30
0.0000000001127424
 11
4810.852448822598
 21
535.0088116253919
 31
0.0000000001127424
  0
LINE
  5
E2C9
330
18
100
AcDbEntity
  8
01
100
AcDbLine
 10
4780.852448822598
 20
565.0088116253919
 30
0.0000000001127424
 11
4780.852448822598
 21
505.0088116253919
 31
0.0000000001127424
  0
TEXT
  5
E2CA
330
18
100
AcDbEntity
  8
1TEXT
100
AcDbText
 10
4630.852448822598
 20
695.0074933122892
 30
0.0000000001127424
 40
10.0
  1
GNC
 41
1.0171875
100
AcDbText
  0
LINE
  5
E2CB
330
18
100
AcDbEntity
  8
1CENTER
100
AcDbLine
 10
4645.053739619481
 20
508.8457327634273
 30
0.0000000001057481
 11
4645.053739619481
 21
518.8448652800876
 31
0.0000000001057481
  0
LINE
  5
E2CC
330
18
100
AcDbEntity
  8
1DIM
100
AcDbLine
 10
4632.052448822597
 20
512.5088116253919
 30
0.0000000001127424
 11
4630.852448822598
 21
512.5088116253919
 31
0.0000000001127424
  0
LINE
  5
E2CD
330
18
100
AcDbEntity
  8
1DIM
100
AcDbLine
 10
4632.052448822597
 20
557.5088116253919
 30
0.0000000001127424
 11
4630.852448822598
 21
557.5088116253919
 31
0.0000000001127424
  0
LINE
  5
E2CE
330
18
100
AcDbEntity
  8
01
100
AcDbLine
 10
4632.052449915383
 20
560.0087367264987
 30
0.0000000001127424
 11
4632.052447729813
 21
510.0087367264991
 31
0.0000000001127424
  0
ARC
  5
E2D5
330
18
100
AcDbEntity
  8
01
100
AcDbCircle
 10
4634.792542405481
 20
514.8358961497861
 30
0.0000000001127424
 40
4.827593823689782
100
AcDbArc
 50
269.2314676217082
 51
276.9501769577783
  0
LINE
  5
E2D7
330
18
100
AcDbEntity
  8
01
100
AcDbLine
 10
4632.052449915383
 20
560.0087367264987
 30
0.0000000001127424
 11
4633.374014760377
 21
560.0087366687312
 31
0.0000000001127424
  0
LINE
  5
E2D8
330
18
100
AcDbEntity
  8
01
100
AcDbLine
 10
4632.052447729813
 20
510.0087367264991
 30
0.0000000001127424
 11
4634.72778980271
 21
510.0087366095559
 31
0.0000000001127424
  0
LINE
  5
E2D9
330
18
100
AcDbEntity
  8
1CENTER
100
AcDbLine
 10
4780.852448822598
 20
545.0088116253919
 30
0.0000000001127424
 11
4780.852448822598
 21
525.0088116253919
 31
0.0000000001127424
  0
LINE
  5
E2DA
330
18
100
AcDbEntity
  8
1CENTER
100
AcDbLine
 10
4770.852448822598
 20
535.0088116253919
 30
0.0000000001127424
 11
4790.852448822598
 21
535.0088116253919
 31
0.0000000001127424
  0
ARC
  5
E2DB
330
18
100
AcDbEntity
  8
01
100
AcDbCircle
 10
4780.852406949695
 20
535.0087109910437
 30
0.0000000001127424
 40
24.99994656322019
100
AcDbArc
 50
38.71310516334434
 51
356.790870745355
  0
LINE
  5
E2E0
330
18
100
AcDbEntity
  8
1CENTER
100
AcDbLine
 10
4780.852448822598
 20
702.1662975465829
 30
0.0000000001127424
 11
4780.852448822598
 21
663.5266702817239
 31
0.0000000001127424
  0
LINE
  5
E2E1
330
18
100
AcDbEntity
  8
01
100
AcDbLine
 10
4803.352448822598
 20
695.0074933122892
 30
0.0000000001127424
 11
4803.352448822598
 21
693.8074933122894
 31
0.0000000001127424
  0
LINE
  5
E2E2
330
18
100
AcDbEntity
  8
01
100
AcDbLine
 10
4758.352448822598
 20
695.0074933122892
 30
0.0000000001127424
 11
4758.352448822598
 21
693.8074933122894
 31
0.0000000001127424
  0
LINE
  5
E2E4
330
18
100
AcDbEntity
  8
01
100
AcDbLine
 10
4805.852448822598
 20
693.8074933122894
 30
0.0000000001127424
 11
4755.852448822598
 21
693.8074933122894
 31
0.0000000001127424
  0
LINE
  5
E2E5
330
18
100
AcDbEntity
  8
01
100
AcDbLine
 10
4805.852448822598
 20
693.8074933122894
 30
0.0000000001127424
 11
4805.852448822598
 21
692.7591601639883
 31
0.0000000001127424
  0
LINE
  5
E2E6
330
18
100
AcDbEntity
  8
01
100
AcDbLine
 10
4804.870292958697
 20
689.4567449561205
 30
0.0000000001127424
 11
4804.787770415606
 21
689.3368279452093
 31
0.0000000001127424
  0
ARC
  5
E2E7
330
18
100
AcDbEntity
  8
01
100
AcDbCircle
 10
4804.766347326792
 20
689.3558666886488
 30
0.0000000001127424
 40
0.0286604690480878
100
AcDbArc
 50
282.833875440766
 51
318.3724405598841
  0
ARC
  5
E2EE
330
18
100
AcDbEntity
  8
01
100
AcDbCircle
 10
4760.712733943331
 20
691.0869931816842
 30
0.0000000001127424
 40
4.860755075200151
100
AcDbArc
 50
179.2032590280531
 51
187.49043131523
  0
LINE
  5
E2EF
330
18
100
AcDbEntity
  8
01
100
AcDbLine
 10
4755.852448822598
 20
693.8074933122894
 30
0.0000000001127424
 11
4755.852448822598
 21
691.1545834637768
 31
0.0000000001127424
  0
ARC
  5
E2F1
330
18
100
AcDbEntity
  8
01
100
AcDbCircle
 10
4836.174753547344
 20
541.9263400090335
 30
0.0000000001127424
 40
115.5489465882393
100
AcDbArc
 50
89.93603218411792
 51
92.64091592599013
  0
LINE
  5
E422
330
18
100
AcDbEntity
  8
01
100
AcDbLine
 10
4780.852448822598
 20
560.0088116253919
 30
0.0000000001127424
 11
4744.552448822597
 21
560.0088116253919
 31
0.0000000001127424
1001
ACAD
1000
DSTYLE
1002
{
1070
     3
1000
φ<>
1070
    40
1040
1.3
1070
    45
1040
0.5
1002
}
  0
LINE
  5
E423
330
18
100
AcDbEntity
  8
01
100
AcDbLine
 10
4780.852448822598
 20
510.0088116253928
 30
0.0000000001127424
 11
4744.552448822597
 21
510.0088116253928
 31
0.0000000001127424
1001
ACAD
1000
DSTYLE
1002
{
1070
     3
1000
φ<>
1070
    40
1040
1.3
1070
    45
1040
0.5
1002
}
  0
LINE
  5
E424
330
18
100
AcDbEntity
  8
01
100
AcDbLine
 10
4745.852448822598
 20
557.4088116253919
 30
0.0000000001127424
 11
4745.852448822598
 21
512.6088116253928
 31
0.0000000001127424
1001
ACAD
1000
DSTYLE
1002
{
1070
     3
1000
φ<>
1070
    40
1040
1.3
1070
    45
1040
0.5
1002
}
  0
LINE
  5
E428
330
18
100
AcDbEntity
  8
01
100
AcDbLine
 10
4641.702622009853
 20
510.7980262009864
 30
0.0000000001057481
 11
4642.068131043056
 21
510.8595114915138
 31
0.0000000001057481
  0
LINE
  5
E429
330
18
100
AcDbEntity
  8
01
100
AcDbLine
 10
4642.068131043056
 20
510.8595114915138
 30
0.0000000001057481
 11
4642.554237915615
 21
510.9561911790138
 31
0.0000000001057481
  0
LINE
  5
E42A
330
18
100
AcDbEntity
  8
01
100
AcDbLine
 10
4642.554237915615
 20
510.9561911790138
 30
0.0000000001057481
 11
4643.170921875576
 21
511.0793677537208
 31
0.0000000001057481
  0
LINE
  5
E42B
330
18
100
AcDbEntity
  8
01
100
AcDbLine
 10
4643.170921875576
 20
511.0793677537208
 30
0.0000000001057481
 11
4643.894630982021
 21
511.215758439756
 31
0.0000000001057481
  0
LINE
  5
E42C
330
18
100
AcDbEntity
  8
01
100
AcDbLine
 10
4643.894630982021
 20
511.215758439756
 30
0.0000000001057481
 11
4644.695305420498
 21
511.3525229661232
 31
0.0000000001057481
  0
LINE
  5
E42D
330
18
100
AcDbEntity
  8
01
100
AcDbLine
 10
4644.695305420498
 20
511.3525229661232
 30
0.0000000001057481
 11
4645.538345886806
 21
511.4795676438575
 31
0.0000000001057481
  0
LINE
  5
E42E
330
18
100
AcDbEntity
  8
01
100
AcDbLine
 10
4645.538345886806
 20
511.4795676438575
 30
0.0000000001057481
 11
4646.386231018642
 21
511.5901786057716
 31
0.0000000001057481
  0
LINE
  5
E42F
330
18
100
AcDbEntity
  8
01
100
AcDbLine
 10
4646.386231018642
 20
511.5901786057716
 30
0.0000000001057481
 11
4647.199852539638
 21
511.6827536790138
 31
0.0000000001057481
  0
LINE
  5
E430
330
18
100
AcDbEntity
  8
01
100
AcDbLine
 10
4647.199852539638
 20
511.6827536790138
 30
0.0000000001057481
 11
4647.942078186611
 21
511.7605048386818
 31
0.0000000001057481
  0
LINE
  5
E431
330
18
100
AcDbEntity
  8
01
100
AcDbLine
 10
4647.942078186611
 20
511.7605048386818
 30
0.0000000001057481
 11
4648.581696106533
 21
511.8303290574318
 31
0.0000000001057481
  0
LINE
  5
E432
330
18
100
AcDbEntity
  8
01
100
AcDbLine
 10
4648.581696106533
 20
511.8303290574318
 30
0.0000000001057481
 11
4649.133926941494
 21
511.9074622361427
 31
0.0000000001057481
  0
LINE
  5
E433
330
18
100
AcDbEntity
  8
01
100
AcDbLine
 10
4690.129860474209
 20
537.6531974045993
 30
0.0000000001057481
 11
4690.549141480068
 21
538.3792334763766
 31
0.0000000001057481
  0
LINE
  5
E434
330
18
100
AcDbEntity
  8
01
100
AcDbLine
 10
4690.549141480068
 20
538.3792334763766
 30
0.0000000001057481
 11
4690.899017883877
 21
539.0567542283297
 31
0.0000000001057481
  0
LINE
  5
E435
330
18
100
AcDbEntity
  8
01
100
AcDbLine
 10
4690.899017883877
 20
539.0567542283297
 30
0.0000000001057481
 11
4691.190811707119
 21
539.6805411545993
 31
0.0000000001057481
  0
LINE
  5
E436
330
18
100
AcDbEntity
  8
01
100
AcDbLine
 10
4691.190811707119
 20
539.6805411545993
 30
0.0000000001057481
 11
4691.434792114834
 21
540.2489234177829
 31
0.0000000001057481
  0
LINE
  5
E437
330
18
100
AcDbEntity
  8
01
100
AcDbLine
 10
4691.434792114834
 20
540.2489234177829
 30
0.0000000001057481
 11
4691.639961792568
 21
540.7633429734469
 31
0.0000000001057481
  0
LINE
  5
E438
330
18
100
AcDbEntity
  8
01
100
AcDbLine
 10
4691.639961792568
 20
540.7633429734469
 30
0.0000000001057481
 11
4691.814125610927
 21
541.2276984421969
 31
0.0000000001057481
  0
LINE
  5
E439
330
18
100
AcDbEntity
  8
01
100
AcDbLine
 10
4691.814125610927
 20
541.2276984421969
 30
0.0000000001057481
 11
4691.964050842861
 21
541.6477805344821
 31
0.0000000001057481
  0
LINE
  5
E43A
330
18
100
AcDbEntity
  8
01
100
AcDbLine
 10
4691.964050842861
 20
541.6477805344821
 30
0.0000000001057481
 11
4692.095215393642
 21
542.0318213670016
 31
0.0000000001057481
  0
LINE
  5
E43B
330
18
100
AcDbEntity
  8
01
100
AcDbLine
 10
4692.095215393642
 20
542.0318213670016
 30
0.0000000001057481
 11
4692.212624146084
 21
542.388960954404
 31
0.0000000001057481
  0
LINE
  5
E43C
330
18
100
AcDbEntity
  8
01
100
AcDbLine
 10
4692.212624146084
 20
542.388960954404
 30
0.0000000001057481
 11
4692.320938660244
 21
542.7293845383888
 31
0.0000000001057481
  0
LINE
  5
E43D
330
18
100
AcDbEntity
  8
01
100
AcDbLine
 10
4692.320938660244
 20
542.7293845383888
 30
0.0000000001057481
 11
4692.424149109463
 21
543.0654746262794
 31
0.0000000001057481
  0
LINE
  5
E43E
330
18
100
AcDbEntity
  8
01
100
AcDbLine
 10
4692.424149109463
 20
543.0654746262794
 30
0.0000000001057481
 11
4692.526222778896
 21
543.4125739304786
 31
0.0000000001057481
  0
LINE
  5
E43F
330
18
100
AcDbEntity
  8
01
100
AcDbLine
 10
4692.526222778896
 20
543.4125739304786
 30
0.0000000001057481
 11
4692.631004883388
 21
543.7883368699318
 31
0.0000000001057481
  0
LINE
  5
E440
330
18
100
AcDbEntity
  8
01
100
AcDbLine
 10
4692.631004883388
 20
543.7883368699318
 30
0.0000000001057481
 11
4692.741180969814
 21
544.2166892258888
 31
0.0000000001057481
  0
LINE
  5
E441
330
18
100
AcDbEntity
  8
01
100
AcDbLine
 10
4692.741180969814
 20
544.2166892258888
 30
0.0000000001057481
 11
4692.858048035244
 21
544.7253791062599
 31
0.0000000001057481
  0
LINE
  5
E442
330
18
100
AcDbEntity
  8
01
100
AcDbLine
 10
4692.858048035244
 20
544.7253791062599
 30
0.0000000001057481
 11
4692.976776672939
 21
545.3451834885841
 31
0.0000000001057481
  0
LINE
  5
E443
330
18
100
AcDbEntity
  8
01
100
AcDbLine
 10
4692.976776672939
 20
545.3451834885841
 30
0.0000000001057481
 11
4693.085037781338
 21
546.1046591965919
 31
0.0000000001057481
  0
LINE
  5
E444
330
18
100
AcDbEntity
  8
01
100
AcDbLine
 10
4693.085037781338
 20
546.1046591965919
 30
0.0000000001057481
 11
4693.157967163662
 21
547.01435768292
 31
0.0000000001057481
  0
LINE
  5
E445
330
18
100
AcDbEntity
  8
01
100
AcDbLine
 10
4693.157967163662
 20
547.01435768292
 30
0.0000000001057481
 11
4693.163345886806
 21
548.0594168870216
 31
0.0000000001057481
  0
LINE
  5
E446
330
18
100
AcDbEntity
  8
01
100
AcDbLine
 10
4693.163345886806
 20
548.0594168870216
 30
0.0000000001057481
 11
4693.071022583584
 21
549.2008353440528
 31
0.0000000001057481
  0
LINE
  5
E447
330
18
100
AcDbEntity
  8
01
100
AcDbLine
 10
4693.071022583584
 20
549.2008353440528
 30
0.0000000001057481
 11
4692.860596253017
 21
550.3940879075294
 31
0.0000000001057481
  0
LINE
  5
E448
330
18
100
AcDbEntity
  8
01
100
AcDbLine
 10
4692.860596253017
 20
550.3940879075294
 30
0.0000000001057481
 11
4692.522903992275
 21
551.6013327805763
 31
0.0000000001057481
  0
LINE
  5
E449
330
18
100
AcDbEntity
  8
01
100
AcDbLine
 10
4692.522903992275
 20
551.6013327805763
 30
0.0000000001057481
 11
4692.05603082333
 21
552.7911826340915
 31
0.0000000001057481
  0
LINE
  5
E44A
330
18
100
AcDbEntity
  8
01
100
AcDbLine
 10
4692.05603082333
 20
552.7911826340915
 30
0.0000000001057481
 11
4691.463669373135
 21
553.9406882493258
 31
0.0000000001057481
  0
LINE
  5
E44B
330
18
100
AcDbEntity
  8
01
100
AcDbLine
 10
4691.463669373135
 20
553.9406882493258
 30
0.0000000001057481
 11
4690.752136780361
 21
555.0315238206149
 31
0.0000000001057481
  0
LINE
  5
E44C
330
18
100
AcDbEntity
  8
01
100
AcDbLine
 10
4690.752136780361
 20
555.0315238206149
 30
0.0000000001057481
 11
4689.929596497158
 21
556.0489188401461
 31
0.0000000001057481
  0
LINE
  5
E44D
330
18
100
AcDbEntity
  8
01
100
AcDbLine
 10
4689.929596497158
 20
556.0489188401461
 30
0.0000000001057481
 11
4689.004684998135
 21
556.9792166917086
 31
0.0000000001057481
  0
LINE
  5
E44E
330
18
100
AcDbEntity
  8
01
100
AcDbLine
 10
4689.004684998135
 20
556.9792166917086
 30
0.0000000001057481
 11
4687.986588074306
 21
557.8102866379977
 31
0.0000000001057481
  0
LINE
  5
E44F
330
18
100
AcDbEntity
  8
01
100
AcDbLine
 10
4687.986588074306
 20
557.8102866379977
 30
0.0000000001057481
 11
4686.882973267177
 21
558.5259543626071
 31
0.0000000001057481
  0
LINE
  5
E450
330
18
100
AcDbEntity
  8
01
100
AcDbLine
 10
4686.882973267177
 20
558.5259543626071
 30
0.0000000001057481
 11
4685.703537537197
 21
559.1121817795993
 31
0.0000000001057481
  0
LINE
  5
E451
330
18
100
AcDbEntity
  8
01
100
AcDbLine
 10
4685.703537537197
 20
559.1121817795993
 30
0.0000000001057481
 11
4684.466438843349
 21
559.5678549973727
 31
0.0000000001057481
  0
LINE
  5
E452
330
18
100
AcDbEntity
  8
01
100
AcDbLine
 10
4684.466438843349
 20
559.5678549973727
 30
0.0000000001057481
 11
4683.187988831142
 21
559.8923178879977
 31
0.0000000001057481
  0
LINE
  5
E453
330
18
100
AcDbEntity
  8
01
100
AcDbLine
 10
4683.187988831142
 20
559.8923178879977
 30
0.0000000001057481
 11
4681.882278992275
 21
560.0815116135836
 31
0.0000000001057481
  0
LINE
  5
E454
330
18
100
AcDbEntity
  8
01
100
AcDbLine
 10
4681.882278992275
 20
560.0815116135836
 30
0.0000000001057481
 11
4680.563690735439
 21
560.1286612717868
 31
0.0000000001057481
  0
LINE
  5
E455
330
18
100
AcDbEntity
  8
01
100
AcDbLine
 10
4680.563690735439
 20
560.1286612717868
 30
0.0000000001057481
 11
4679.247803284267
 21
560.0300437180758
 31
0.0000000001057481
  0
LINE
  5
E456
330
18
100
AcDbEntity
  8
01
100
AcDbLine
 10
4679.247803284267
 20
560.0300437180758
 30
0.0000000001057481
 11
4677.950050903896
 21
559.7909842698336
 31
0.0000000001057481
  0
LINE
  5
E457
330
18
100
AcDbEntity
  8
01
100
AcDbLine
 10
4677.950050903896
 20
559.7909842698336
 30
0.0000000001057481
 11
4676.684586121181
 21
559.4175559251071
 31
0.0000000001057481
  0
LINE
  5
E458
330
18
100
AcDbEntity
  8
01
100
AcDbLine
 10
4676.684586121181
 20
559.4175559251071
 30
0.0000000001057481
 11
4675.46537835751
 21
558.9142600266696
 31
0.0000000001057481
  0
LINE
  5
E459
330
18
100
AcDbEntity
  8
01
100
AcDbLine
 10
4675.46537835751
 20
558.9142600266696
 30
0.0000000001057481
 11
4674.306297852138
 21
558.2860099045993
 31
0.0000000001057481
  0
LINE
  5
E45A
330
18
100
AcDbEntity
  8
01
100
AcDbLine
 10
4674.306297852138
 20
558.2860099045993
 30
0.0000000001057481
 11
4673.220810486416
 21
557.5395652024508
 31
0.0000000001057481
  0
LINE
  5
E45B
330
18
100
AcDbEntity
  8
01
100
AcDbLine
 10
4673.220810486416
 20
557.5395652024508
 30
0.0000000001057481
 11
4672.221939636806
 21
556.6829367844821
 31
0.0000000001057481
  0
LINE
  5
E45C
330
18
100
AcDbEntity
  8
01
100
AcDbLine
 10
4672.221939636806
 20
556.6829367844821
 30
0.0000000001057481
 11
4671.321465088467
 21
555.7265311448336
 31
0.0000000001057481
  0
LINE
  5
E45D
330
18
100
AcDbEntity
  8
01
100
AcDbLine
 10
4671.321465088467
 20
555.7265311448336
 30
0.0000000001057481
 11
4670.529884888271
 21
554.6825858323336
 31
0.0000000001057481
  0
LINE
  5
E45E
330
18
100
AcDbEntity
  8
01
100
AcDbLine
 10
4670.529884888271
 20
554.6825858323336
 30
0.0000000001057481
 11
4669.855690552334
 21
553.5657950608493
 31
0.0000000001057481
  0
LINE
  5
E45F
330
18
100
AcDbEntity
  8
01
100
AcDbLine
 10
4669.855690552334
 20
553.5657950608493
 30
0.0000000001057481
 11
4669.30619867001
 21
552.3925620286227
 31
0.0000000001057481
  0
LINE
  5
E460
330
18
100
AcDbEntity
  8
01
100
AcDbLine
 10
4669.30619867001
 20
552.3925620286227
 30
0.0000000001057481
 11
4668.885887695888
 21
551.1834708420993
 31
0.0000000001057481
  0
LINE
  5
E461
330
18
100
AcDbEntity
  8
01
100
AcDbLine
 10
4668.885887695888
 20
551.1834708420993
 30
0.0000000001057481
 11
4668.596291138271
 21
549.964400407529
 31
0.0000000001057481
  0
LINE
  5
E462
330
18
100
AcDbEntity
  8
01
100
AcDbLine
 10
4668.596291138271
 20
549.964400407529
 30
0.0000000001057481
 11
4668.433441712002
 21
548.7711783616305
 31
0.0000000001057481
  0
LINE
  5
E463
330
18
100
AcDbEntity
  8
01
100
AcDbLine
 10
4668.433441712002
 20
548.7711783616305
 30
0.0000000001057481
 11
4668.383698059658
 21
547.6383506028415
 31
0.0000000001057481
  0
LINE
  5
E464
330
18
100
AcDbEntity
  8
01
100
AcDbLine
 10
4668.383698059658
 20
547.6383353440524
 30
0.0000000001057481
 11
4668.413361145595
 21
546.7590323655368
 31
0.0000000001057481
  0
LINE
  5
E465
330
18
100
AcDbEntity
  8
01
100
AcDbLine
 10
4668.413361145595
 20
546.7590323655368
 30
0.0000000001057481
 11
4668.483139587978
 21
546.0211020676852
 31
0.0000000001057481
  0
LINE
  5
E466
330
18
100
AcDbEntity
  8
01
100
AcDbLine
 10
4668.483139587978
 20
546.0211020676852
 30
0.0000000001057481
 11
4668.567146851162
 21
545.4315406052829
 31
0.0000000001057481
  0
LINE
  5
E467
330
18
100
AcDbEntity
  8
01
100
AcDbLine
 10
4668.567146851162
 20
545.4315406052829
 30
0.0000000001057481
 11
4668.649956299404
 21
544.9689856736422
 31
0.0000000001057481
  0
LINE
  5
E468
330
18
100
AcDbEntity
  8
01
100
AcDbLine
 10
4668.649956299404
 20
544.9689856736422
 30
0.0000000001057481
 11
4668.724793030361
 21
544.6022101609469
 31
0.0000000001057481
  0
LINE
  5
E469
330
18
100
AcDbEntity
  8
01
100
AcDbLine
 10
4668.724793030361
 20
544.6022101609469
 30
0.0000000001057481
 11
4668.79178674374
 21
544.2997428147555
 31
0.0000000001057481
  0
LINE
  5
E46A
330
18
100
AcDbEntity
  8
01
100
AcDbLine
 10
4668.79178674374
 20
544.2997428147555
 30
0.0000000001057481
 11
4668.853134705166
 21
544.036810991025
 31
0.0000000001057481
  0
LINE
  5
E46B
330
18
100
AcDbEntity
  8
01
100
AcDbLine
 10
4668.853134705166
 20
544.036810991025
 30
0.0000000001057481
 11
4668.91165216122
 21
543.7938605515719
 31
0.0000000001057481
  0
LINE
  5
E46C
330
18
100
AcDbEntity
  8
01
100
AcDbLine
 10
4668.91165216122
 20
543.7938605515719
 30
0.0000000001057481
 11
4668.970070435146
 21
543.5572425095797
 31
0.0000000001057481
  0
LINE
  5
E46D
330
18
100
AcDbEntity
  8
01
100
AcDbLine
 10
4668.970070435146
 20
543.5572425095797
 30
0.0000000001057481
 11
4669.031059815029
 21
543.3144751755954
 31
0.0000000001057481
  0
LINE
  5
E46E
330
18
100
AcDbEntity
  8
01
100
AcDbLine
 10
4669.031059815029
 20
543.3144751755954
 30
0.0000000001057481
 11
4669.097023560146
 21
543.0562964646579
 31
0.0000000001057481
  0
LINE
  5
E46F
330
18
100
AcDbEntity
  8
01
100
AcDbLine
 10
4669.097023560146
 20
543.0562964646579
 30
0.0000000001057481
 11
4669.170143677334
 21
542.7759619920016
 31
0.0000000001057481
  0
LINE
  5
E470
330
18
100
AcDbEntity
  8
01
100
AcDbLine
 10
4669.170143677334
 20
542.7759619920016
 30
0.0000000001057481
 11
4669.254517151455
 21
542.460494157529
 31
0.0000000001057481
  0
LINE
  5
E471
330
18
100
AcDbEntity
  8
01
100
AcDbLine
 10
4691.083450867275
 20
542.1903067795993
 30
0.0000000001057481
 11
4691.060120178799
 21
542.1017066209079
 31
0.0000000001057481
  0
LINE
  5
E472
330
18
100
AcDbEntity
  8
01
100
AcDbLine
 10
4691.060120178799
 20
542.1017066209079
 30
0.0000000001057481
 11
4691.001595093349
 21
541.8524771897555
 31
0.0000000001057481
  0
LINE
  5
E473
330
18
100
AcDbEntity
  8
01
100
AcDbLine
 10
4691.001595093349
 20
541.8524771897555
 30
0.0000000001057481
 11
4690.920342041592
 21
541.4697104661227
 31
0.0000000001057481
  0
LINE
  5
E474
330
18
100
AcDbEntity
  8
01
100
AcDbLine
 10
4690.920342041592
 20
541.4697104661227
 30
0.0000000001057481
 11
4690.822418762783
 21
540.9767829148532
 31
0.0000000001057481
  0
LINE
  5
E475
330
18
100
AcDbEntity
  8
01
100
AcDbLine
 10
4690.822418762783
 20
540.9767829148532
 30
0.0000000001057481
 11
4690.709793640713
 21
540.3921424119235
 31
0.0000000001057481
  0
LINE
  5
E476
330
18
100
AcDbEntity
  8
01
100
AcDbLine
 10
4690.709793640713
 20
540.3921424119235
 30
0.0000000001057481
 11
4690.581055237392
 21
539.7283774583102
 31
0.0000000001057481
  0
LINE
  5
E477
330
18
100
AcDbEntity
  8
01
100
AcDbLine
 10
4690.581055237392
 20
539.7283774583102
 30
0.0000000001057481
 11
4690.43249566708
 21
538.9942847459079
 31
0.0000000001057481
  0
LINE
  5
E478
330
18
100
AcDbEntity
  8
01
100
AcDbLine
 10
4690.43249566708
 20
538.9942847459079
 30
0.0000000001057481
 11
4690.258148743252
 21
538.195242997861
 31
0.0000000001057481
  0
LINE
  5
E479
330
18
100
AcDbEntity
  8
01
100
AcDbLine
 10
4690.258148743252
 20
538.195242997861
 30
0.0000000001057481
 11
4690.049927307705
 21
537.3345404832125
 31
0.0000000001057481
  0
LINE
  5
E47A
330
18
100
AcDbEntity
  8
01
100
AcDbLine
 10
4690.049927307705
 20
537.3345404832125
 30
0.0000000001057481
 11
4689.797615601162
 21
536.4140692918063
 31
0.0000000001057481
  0
LINE
  5
E47B
330
18
100
AcDbEntity
  8
01
100
AcDbLine
 10
4689.797615601162
 20
536.4140692918063
 30
0.0000000001057481
 11
4689.489250732998
 21
535.4364615647555
 31
0.0000000001057481
  0
LINE
  5
E47C
330
18
100
AcDbEntity
  8
01
100
AcDbLine
 10
4689.489250732998
 20
535.4364615647555
 30
0.0000000001057481
 11
4689.111702515224
 21
534.4065467087989
 31
0.0000000001057481
  0
LINE
  5
E47D
330
18
100
AcDbEntity
  8
01
100
AcDbLine
 10
4689.111702515224
 20
534.4065467087989
 30
0.0000000001057481
 11
4688.653717590908
 21
533.3347769944435
 31
0.0000000001057481
  0
LINE
  5
E47E
330
18
100
AcDbEntity
  8
01
100
AcDbLine
 10
4688.653717590908
 20
533.3347769944435
 30
0.0000000001057481
 11
4688.108421875576
 21
532.2372885911232
 31
0.0000000001057481
  0
LINE
  5
E47F
330
18
100
AcDbEntity
  8
01
100
AcDbLine
 10
4688.108421875576
 20
532.2372885911232
 30
0.0000000001057481
 11
4687.472694946865
 21
531.1279059617286
 31
0.0000000001057481
  0
LINE
  5
E480
330
18
100
AcDbEntity
  8
01
100
AcDbLine
 10
4687.472694946865
 20
531.1279059617286
 30
0.0000000001057481
 11
4686.745529724697
 21
530.0177375046974
 31
0.0000000001057481
  0
LINE
  5
E481
330
18
100
AcDbEntity
  8
01
100
AcDbLine
 10
4686.745529724697
 20
530.0177375046974
 30
0.0000000001057481
 11
4685.927864624599
 21
528.9143515794044
 31
0.0000000001057481
  0
LINE
  5
E482
330
18
100
AcDbEntity
  8
01
100
AcDbLine
 10
4685.927864624599
 20
528.9143515794044
 30
0.0000000001057481
 11
4685.020607544521
 21
527.8220664231544
 31
0.0000000001057481
  0
LINE
  5
E483
330
18
100
AcDbEntity
  8
01
100
AcDbLine
 10
4685.020607544521
 20
527.8220664231544
 30
0.0000000001057481
 11
4684.028961731533
 21
526.7483741013771
 31
0.0000000001057481
  0
LINE
  5
E484
330
18
100
AcDbEntity
  8
01
100
AcDbLine
 10
4684.028961731533
 20
526.7483741013771
 30
0.0000000001057481
 11
4682.951531006435
 21
525.6930762498146
 31
0.0000000001057481
  0
LINE
  5
E485
330
18
100
AcDbEntity
  8
01
100
AcDbLine
 10
4682.951531006435
 20
525.6930762498146
 30
0.0000000001057481
 11
4681.783417297939
 21
524.6514960496193
 31
0.0000000001057481
  0
LINE
  5
E486
330
18
100
AcDbEntity
  8
01
100
AcDbLine
 10
4681.783417297939
 20
524.6514960496193
 30
0.0000000001057481
 11
4680.528061462978
 21
523.6273261277443
 31
0.0000000001057481
  0
LINE
  5
E487
330
18
100
AcDbEntity
  8
01
100
AcDbLine
 10
4680.528061462978
 20
523.6273261277443
 30
0.0000000001057481
 11
4679.192726685146
 21
522.6278296677833
 31
0.0000000001057481
  0
LINE
  5
E488
330
18
100
AcDbEntity
  8
01
100
AcDbLine
 10
4679.192726685146
 20
522.6278296677833
 30
0.0000000001057481
 11
4677.786133362392
 21
521.6613761155372
 31
0.0000000001057481
  0
LINE
  5
E489
330
18
100
AcDbEntity
  8
01
100
AcDbLine
 10
4677.786133362392
 20
521.6613761155372
 30
0.0000000001057481
 11
4676.317116333584
 21
520.7356711594825
 31
0.0000000001057481
  0
LINE
  5
E48A
330
18
100
AcDbEntity
  8
01
100
AcDbLine
 10
4676.317116333584
 20
520.7356711594825
 30
0.0000000001057481
 11
4674.794220520595
 21
519.8569632737403
 31
0.0000000001057481
  0
LINE
  5
E48B
330
18
100
AcDbEntity
  8
01
100
AcDbLine
 10
4674.794220520595
 20
519.8569632737403
 30
0.0000000001057481
 11
4673.225227905849
 21
519.02900612042
 31
0.0000000001057481
  0
LINE
  5
E48C
330
18
100
AcDbEntity
  8
01
100
AcDbLine
 10
4673.225227905849
 20
519.02900612042
 30
0.0000000001057481
 11
4671.617256714443
 21
518.2534400193458
 31
0.0000000001057481
  0
LINE
  5
E48D
330
18
100
AcDbEntity
  8
01
100
AcDbLine
 10
4671.617256714443
 20
518.2534400193458
 30
0.0000000001057481
 11
4669.976616455654
 21
517.529608842588
 31
0.0000000001057481
  0
LINE
  5
E48E
330
18
100
AcDbEntity
  8
01
100
AcDbLine
 10
4669.976616455654
 20
517.529608842588
 30
0.0000000001057481
 11
4668.309074951748
 21
516.8558570115333
 31
0.0000000001057481
  0
LINE
  5
E48F
330
18
100
AcDbEntity
  8
01
100
AcDbLine
 10
4668.309074951748
 20
516.8558570115333
 30
0.0000000001057481
 11
4666.619560791592
 21
516.2293997971778
 31
0.0000000001057481
  0
LINE
  5
E490
330
18
100
AcDbEntity
  8
01
100
AcDbLine
 10
4666.619560791592
 20
516.2293997971778
 30
0.0000000001057481
 11
4664.912338806728
 21
515.6471167771583
 31
0.0000000001057481
  0
LINE
  5
E491
330
18
100
AcDbEntity
  8
01
100
AcDbLine
 10
4664.912338806728
 20
515.6471167771583
 30
0.0000000001057481
 11
4663.191002441982
 21
515.105780717588
 31
0.0000000001057481
  0
LINE
  5
E492
330
18
100
AcDbEntity
  8
01
100
AcDbLine
 10
4663.191002441982
 20
515.105780717588
 30
0.0000000001057481
 11
4661.458252503017
 21
514.6022788254982
 31
0.0000000001057481
  0
LINE
  5
E493
330
18
100
AcDbEntity
  8
01
100
AcDbLine
 10
4661.458252503017
 20
514.6022788254982
 30
0.0000000001057481
 11
4659.716545654873
 21
514.1335746018653
 31
0.0000000001057481
  0
LINE
  5
E494
330
18
100
AcDbEntity
  8
01
100
AcDbLine
 10
4659.716545654873
 20
514.1335746018653
 30
0.0000000001057481
 11
4657.967697693447
 21
513.6969062058693
 31
0.0000000001057481
  0
LINE
  5
E495
330
18
100
AcDbEntity
  8
01
100
AcDbLine
 10
4657.967697693447
 20
513.6969062058693
 30
0.0000000001057481
 11
4656.213066650967
 21
513.2896872727638
 31
0.0000000001057481
  0
LINE
  5
E496
330
18
100
AcDbEntity
  8
01
100
AcDbLine
 10
4656.213066650967
 20
513.2896872727638
 30
0.0000000001057481
 11
4654.453758789638
 21
512.9095984666114
 31
0.0000000001057481
  0
LINE
  5
E497
330
18
100
AcDbEntity
  8
01
100
AcDbLine
 10
4654.453758789638
 20
512.9095984666114
 30
0.0000000001057481
 11
4652.690590454677
 21
512.5543738572364
 31
0.0000000001057481
  0
LINE
  5
E498
330
18
100
AcDbEntity
  8
01
100
AcDbLine
 10
4652.690590454677
 20
512.5543738572364
 30
0.0000000001057481
 11
4650.924217774013
 21
512.2218848435646
 31
0.0000000001057481
  0
LINE
  5
E499
330
18
100
AcDbEntity
  8
01
100
AcDbLine
 10
4650.924217774013
 20
512.2218848435646
 30
0.0000000001057481
 11
4649.133926941494
 21
511.9074622361427
 31
0.0000000001057481
  0
LINE
  5
E49A
330
18
100
AcDbEntity
  8
01
100
AcDbLine
 10
4635.376709534267
 20
510.0437766282325
 30
0.0000000001057481
 11
4636.267723633388
 21
510.1415930955177
 31
0.0000000001057481
  0
LINE
  5
E49B
330
18
100
AcDbEntity
  8
01
100
AcDbLine
 10
4636.267723633388
 20
510.1415930955177
 30
0.0000000001057481
 11
4637.161129547695
 21
510.2422171799903
 31
0.0000000001057481
  0
LINE
  5
E49C
330
18
100
AcDbEntity
  8
01
100
AcDbLine
 10
4637.161129547695
 20
510.2422171799903
 30
0.0000000001057481
 11
4638.056458069424
 21
510.3459616868263
 31
0.0000000001057481
  0
LINE
  5
E49D
330
18
100
AcDbEntity
  8
01
100
AcDbLine
 10
4638.056458069424
 20
510.3459616868263
 30
0.0000000001057481
 11
4638.953327728847
 21
510.4527503220802
 31
0.0000000001057481
  0
LINE
  5
E49E
330
18
100
AcDbEntity
  8
01
100
AcDbLine
 10
4638.953327728847
 20
510.4527503220802
 30
0.0000000001057481
 11
4639.851463867763
 21
510.5614997117286
 31
0.0000000001057481
  0
LINE
  5
E49F
330
18
100
AcDbEntity
  8
01
100
AcDbLine
 10
4639.851463867763
 20
510.5614997117286
 30
0.0000000001057481
 11
4640.75019891415
 21
510.6766196458107
 31
0.0000000001057481
  0
LINE
  5
E4A0
330
18
100
AcDbEntity
  8
01
100
AcDbLine
 10
4640.75019891415
 20
510.6766196458107
 30
0.0000000001057481
 11
4641.702622009853
 21
510.7980262009864
 31
0.0000000001057481
  0
LINE
  5
E4A1
330
18
100
AcDbEntity
  8
01
100
AcDbLine
 10
4636.495850159267
 20
559.1399985520602
 30
0.0000000001057481
 11
4637.329651428799
 21
558.6364127366305
 31
0.0000000001057481
  0
LINE
  5
E4A2
330
18
100
AcDbEntity
  8
01
100
AcDbLine
 10
4637.329651428799
 20
558.6364127366305
 30
0.0000000001057481
 11
4638.166809631924
 21
558.1284934251071
 31
0.0000000001057481
  0
LINE
  5
E4A3
330
18
100
AcDbEntity
  8
01
100
AcDbLine
 10
4638.166809631924
 20
558.1284934251071
 30
0.0000000001057481
 11
4639.006432129482
 21
557.6163016526461
 31
0.0000000001057481
  0
LINE
  5
E4A4
330
18
100
AcDbEntity
  8
01
100
AcDbLine
 10
4639.006432129482
 20
557.6163016526461
 30
0.0000000001057481
 11
4639.84761865292
 21
557.0998831956149
 31
0.0000000001057481
  0
LINE
  5
E4A5
330
18
100
AcDbEntity
  8
01
100
AcDbLine
 10
4639.84761865292
 20
557.0998831956149
 30
0.0000000001057481
 11
4640.689522339443
 21
556.5793143479586
 31
0.0000000001057481
  0
LINE
  5
E4A6
330
18
100
AcDbEntity
  8
01
100
AcDbLine
 10
4640.689522339443
 20
556.5793143479586
 30
0.0000000001057481
 11
4641.531822754482
 21
556.0549613206149
 31
0.0000000001057481
  0
LINE
  5
E4A7
330
18
100
AcDbEntity
  8
01
100
AcDbLine
 10
4641.531822754482
 20
556.0549613206149
 30
0.0000000001057481
 11
4642.374497009853
 21
555.5273734299899
 31
0.0000000001057481
  0
LINE
  5
E4A8
330
18
100
AcDbEntity
  8
01
100
AcDbLine
 10
4642.374497009853
 20
555.5273734299899
 30
0.0000000001057481
 11
4643.217537476162
 21
554.9970999924899
 31
0.0000000001057481
  0
LINE
  5
E4A9
330
18
100
AcDbEntity
  8
01
100
AcDbLine
 10
4643.217537476162
 20
554.9970999924899
 30
0.0000000001057481
 11
4644.060936524013
 21
554.4646903245211
 31
0.0000000001057481
  0
LINE
  5
E4AA
330
18
100
AcDbEntity
  8
01
100
AcDbLine
 10
4644.060936524013
 20
554.4646903245211
 30
0.0000000001057481
 11
4644.904862000088
 21
553.9308005540133
 31
0.0000000001057481
  0
LINE
  5
E4AB
330
18
100
AcDbEntity
  8
01
100
AcDbLine
 10
4644.904862000088
 20
553.9308005540133
 30
0.0000000001057481
 11
4645.749695374111
 21
553.3962393967868
 31
0.0000000001057481
  0
LINE
  5
E4AC
330
18
100
AcDbEntity
  8
01
100
AcDbLine
 10
4645.749695374111
 20
553.3962393967868
 30
0.0000000001057481
 11
4646.595825745205
 21
552.8618155686618
 31
0.0000000001057481
  0
LINE
  5
E4AD
330
18
100
AcDbEntity
  8
01
100
AcDbLine
 10
4646.595825745205
 20
552.8618155686618
 30
0.0000000001057481
 11
4647.443649841885
 21
552.3283530442477
 31
0.0000000001057481
  0
LINE
  5
E4AE
330
18
100
AcDbEntity
  8
01
100
AcDbLine
 10
4647.443649841885
 20
552.3283530442477
 30
0.0000000001057481
 11
4648.29357202206
 21
551.796675798154
 31
0.0000000001057481
  0
LINE
  5
E4AF
330
18
100
AcDbEntity
  8
01
100
AcDbLine
 10
4648.29357202206
 20
551.796675798154
 30
0.0000000001057481
 11
4649.146072937588
 21
551.2676078049899
 31
0.0000000001057481
  0
LINE
  5
E4B0
330
18
100
AcDbEntity
  8
01
100
AcDbLine
 10
4649.146072937588
 20
551.2676078049899
 30
0.0000000001057481
 11
4650.001640869717
 21
550.7419730393649
 31
0.0000000001057481
  0
LINE
  5
E4B1
330
18
100
AcDbEntity
  8
01
100
AcDbLine
 10
4650.001640869717
 20
550.7419730393649
 30
0.0000000001057481
 11
4650.860748840908
 21
550.2206107346774
 31
0.0000000001057481
  0
LINE
  5
E4B2
330
18
100
AcDbEntity
  8
01
100
AcDbLine
 10
4650.860748840908
 20
550.2206107346774
 30
0.0000000001057481
 11
4651.723892761806
 21
549.7043601243258
 31
0.0000000001057481
  0
LINE
  5
E4B3
330
18
100
AcDbEntity
  8
01
100
AcDbLine
 10
4651.723892761806
 20
549.7043601243258
 30
0.0000000001057481
 11
4652.591553284267
 21
549.1941214768649
 31
0.0000000001057481
  0
LINE
  5
E4B4
330
18
100
AcDbEntity
  8
01
100
AcDbLine
 10
4652.591553284267
 20
549.1941214768649
 30
0.0000000001057481
 11
4653.464241577724
 21
548.6907645432711
 31
0.0000000001057481
  0
LINE
  5
E4B5
330
18
100
AcDbEntity
  8
01
100
AcDbLine
 10
4653.464241577724
 20
548.6907645432711
 30
0.0000000001057481
 11
4654.342430664638
 21
548.1952201096774
 31
0.0000000001057481
  0
LINE
  5
E4B6
330
18
100
AcDbEntity
  8
01
100
AcDbLine
 10
4654.342430664638
 20
548.1952201096774
 30
0.0000000001057481
 11
4655.226563049892
 21
547.7085105149508
 31
0.0000000001057481
  0
LINE
  5
E4B7
330
18
100
AcDbEntity
  8
01
100
AcDbLine
 10
4655.226563049892
 20
547.7085105149508
 30
0.0000000001057481
 11
4656.117050720791
 21
547.2316733567477
 31
0.0000000001057481
  0
LINE
  5
E4B8
330
18
100
AcDbEntity
  8
01
100
AcDbLine
 10
4656.117050720791
 20
547.2316733567477
 30
0.0000000001057481
 11
4657.014290405849
 21
546.7657767503024
 31
0.0000000001057481
  0
LINE
  5
E4B9
330
18
100
AcDbEntity
  8
01
100
AcDbLine
 10
4657.014290405849
 20
546.7657767503024
 30
0.0000000001057481
 11
4657.918579651455
 21
546.312071916318
 31
0.0000000001057481
  0
LINE
  5
E4BA
330
18
100
AcDbEntity
  8
01
100
AcDbLine
 10
4657.918579651455
 20
546.312071916318
 30
0.0000000001057481
 11
4658.830177857021
 21
545.8718253342868
 31
0.0000000001057481
  0
LINE
  5
E4BB
330
18
100
AcDbEntity
  8
01
100
AcDbLine
 10
4658.830177857021
 20
545.8718253342868
 30
0.0000000001057481
 11
4659.749168945888
 21
545.4465247361422
 31
0.0000000001057481
  0
LINE
  5
E4BC
330
18
100
AcDbEntity
  8
01
100
AcDbLine
 10
4659.749168945888
 20
545.4465247361422
 30
0.0000000001057481
 11
4660.675308777431
 21
545.0379096238375
 31
0.0000000001057481
  0
LINE
  5
E4BD
330
18
100
AcDbEntity
  8
01
100
AcDbLine
 10
4660.675308777431
 20
545.0379096238375
 30
0.0000000001057481
 11
4661.608322693447
 21
544.6477957932711
 31
0.0000000001057481
  0
LINE
  5
E4BE
330
18
100
AcDbEntity
  8
01
100
AcDbLine
 10
4661.608322693447
 20
544.6477957932711
 30
0.0000000001057481
 11
4662.547600342373
 21
544.2781516282321
 31
0.0000000001057481
  0
LINE
  5
E4BF
330
18
100
AcDbEntity
  8
01
100
AcDbLine
 10
4662.547600342373
 20
544.2781516282321
 30
0.0000000001057481
 11
4663.491737915615
 21
543.9314109055758
 31
0.0000000001057481
  0
LINE
  5
E4C0
330
18
100
AcDbEntity
  8
01
100
AcDbLine
 10
4663.491737915615
 20
543.9314109055758
 30
0.0000000001057481
 11
4664.439148499111
 21
543.6100760667086
 31
0.0000000001057481
  0
LINE
  5
E4C1
330
18
100
AcDbEntity
  8
01
100
AcDbLine
 10
4664.439148499111
 20
543.6100760667086
 30
0.0000000001057481
 11
4665.387009216885
 21
543.3168936936618
 31
0.0000000001057481
  0
LINE
  5
E4C2
330
18
100
AcDbEntity
  8
01
100
AcDbLine
 10
4665.387009216885
 20
543.3168936936618
 30
0.0000000001057481
 11
4666.33158929501
 21
543.0548316209079
 31
0.0000000001057481
  0
LINE
  5
E4C3
330
18
100
AcDbEntity
  8
01
100
AcDbLine
 10
4666.33158929501
 20
543.0548316209079
 30
0.0000000001057481
 11
4667.268189026455
 21
542.8268424241305
 31
0.0000000001057481
  0
LINE
  5
E4C4
330
18
100
AcDbEntity
  8
01
100
AcDbLine
 10
4667.268189026455
 20
542.8268424241305
 30
0.0000000001057481
 11
4668.190361572842
 21
542.6358329026461
 31
0.0000000001057481
  0
LINE
  5
E4C5
330
18
100
AcDbEntity
  8
01
100
AcDbLine
 10
4668.190361572842
 20
542.6358329026461
 30
0.0000000001057481
 11
4669.08980615292
 21
542.4842520920993
 31
0.0000000001057481
  0
LINE
  5
E4C6
330
18
100
AcDbEntity
  8
01
100
AcDbLine
 10
4669.08980615292
 20
542.4842520920993
 30
0.0000000001057481
 11
4669.95690972958
 21
542.3740454880954
 31
0.0000000001057481
  0
LINE
  5
E4C7
330
18
100
AcDbEntity
  8
01
100
AcDbLine
 10
4669.95690972958
 20
542.3740454880954
 30
0.0000000001057481
 11
4670.779846741299
 21
542.3055869309665
 31
0.0000000001057481
  0
LINE
  5
E4C8
330
18
100
AcDbEntity
  8
01
100
AcDbLine
 10
4670.779846741299
 20
542.3055869309665
 30
0.0000000001057481
 11
4671.545540405849
 21
542.2780905930758
 31
0.0000000001057481
  0
LINE
  5
E4C9
330
18
100
AcDbEntity
  8
01
100
AcDbLine
 10
4671.545540405849
 20
542.2780905930758
 30
0.0000000001057481
 11
4672.239212586025
 21
542.2883292405368
 31
0.0000000001057481
  0
LINE
  5
E4CA
330
18
100
AcDbEntity
  8
01
100
AcDbLine
 10
4672.239212586025
 20
542.2883292405368
 30
0.0000000001057481
 11
4672.845085693935
 21
542.3305121629
 31
0.0000000001057481
  0
LINE
  5
E4CB
330
18
100
AcDbEntity
  8
01
100
AcDbLine
 10
4672.845085693935
 20
542.3305121629
 30
0.0000000001057481
 11
4673.346825195888
 21
542.3953162400485
 31
0.0000000001057481
  0
LINE
  5
E4CC
330
18
100
AcDbEntity
  8
01
100
AcDbLine
 10
4673.346825195888
 20
542.3953162400485
 30
0.0000000001057481
 11
4673.72758538876
 21
542.4695731370211
 31
0.0000000001057481
  0
LINE
  5
E4CD
330
18
100
AcDbEntity
  8
01
100
AcDbLine
 10
4673.72758538876
 20
542.4695731370211
 30
0.0000000001057481
 11
4673.967842651943
 21
542.533881303525
 31
0.0000000001057481
  0
LINE
  5
E4CE
330
18
100
AcDbEntity
  8
01
100
AcDbLine
 10
4673.967842651943
 20
542.533881303525
 30
0.0000000001057481
 11
4674.046570374111
 21
542.5607596604586
 31
0.0000000001057481
  0
LINE
  5
E4CF
330
18
100
AcDbEntity
  8
01
100
AcDbLine
 10
4636.495850159267
 20
559.1399985520602
 30
0.0000000001057481
 11
4635.965164734463
 21
559.4468833176852
 31
0.0000000001057481
  0
LINE
  5
E4D0
330
18
100
AcDbEntity
  8
01
100
AcDbLine
 10
4635.965164734463
 20
559.4468833176852
 30
0.0000000001057481
 11
4635.401829315761
 21
559.7075949876071
 31
0.0000000001057481
  0
LINE
  5
E4D1
330
18
100
AcDbEntity
  8
01
100
AcDbLine
 10
4635.401829315761
 20
559.7075949876071
 30
0.0000000001057481
 11
4634.805828644375
 21
559.8896628587008
 31
0.0000000001057481
  0
LINE
  5
E4D2
330
18
100
AcDbEntity
  8
01
100
AcDbLine
 10
4634.805828644375
 20
559.8896628587008
 30
0.0000000001057481
 11
4634.188107086758
 21
559.9837790696383
 31
0.0000000001057481
  0
LINE
  5
E4D3
330
18
100
AcDbEntity
  8
01
100
AcDbLine
 10
4634.188107086758
 20
559.9837790696383
 30
0.0000000001057481
 11
4633.374016357998
 21
560.0087424485446
 31
0.0000000001057481
  0
LINE
  5
E4D4
330
18
100
AcDbEntity
  8
01
100
AcDbLine
 10
4780.867475438802
 20
510.8058524774196
 30
0.0000000001127424
 11
4781.649389196126
 21
510.8704658197048
 31
0.0000000001127424
  0
LINE
  5
E4D5
330
18
100
AcDbEntity
  8
01
100
AcDbLine
 10
4781.649389196126
 20
510.8704658197048
 30
0.0000000001127424
 11
4782.398275304525
 21
510.9815040277126
 31
0.0000000001127424
  0
LINE
  5
E4D6
330
18
100
AcDbEntity
  8
01
100
AcDbLine
 10
4782.398275304525
 20
510.9815040277126
 30
0.0000000001127424
 11
4783.086271215169
 21
511.1330466912868
 31
0.0000000001127424
  0
LINE
  5
E4D7
330
18
100
AcDbEntity
  8
01
100
AcDbLine
 10
4783.086271215169
 20
511.1330466912868
 30
0.0000000001127424
 11
4783.691228795736
 21
511.3154426263454
 31
0.0000000001127424
  0
LINE
  5
E4D8
330
18
100
AcDbEntity
  8
01
100
AcDbLine
 10
4783.691228795736
 20
511.3154426263454
 30
0.0000000001127424
 11
4784.195783544271
 21
511.5168739007595
 31
0.0000000001127424
  0
LINE
  5
E4D9
330
18
100
AcDbEntity
  8
01
100
AcDbLine
 10
4784.195783544271
 20
511.5168739007595
 30
0.0000000001127424
 11
4784.584997106283
 21
511.7248511956814
 31
0.0000000001127424
  0
LINE
  5
E4DA
330
18
100
AcDbEntity
  8
01
100
AcDbLine
 10
4784.584997106283
 20
511.7248511956814
 30
0.0000000001127424
 11
4784.847860265462
 21
511.9258475946071
 31
0.0000000001127424
  0
LINE
  5
E4DB
330
18
100
AcDbEntity
  8
01
100
AcDbLine
 10
4784.847860265462
 20
511.9258475946071
 30
0.0000000001127424
 11
4784.974309850423
 21
512.1063895867946
 31
0.0000000001127424
  0
LINE
  5
E4DC
330
18
100
AcDbEntity
  8
01
100
AcDbLine
 10
4784.974309850423
 20
512.1063895867946
 30
0.0000000001127424
 11
4784.956930089681
 21
512.2541022943142
 31
0.0000000001127424
  0
LINE
  5
E4DD
330
18
100
AcDbEntity
  8
01
100
AcDbLine
 10
4784.956930089681
 20
512.2541022943142
 30
0.0000000001127424
 11
4784.792379308431
 21
512.3591285394314
 31
0.0000000001127424
  0
LINE
  5
E4DE
330
18
100
AcDbEntity
  8
01
100
AcDbLine
 10
4784.792379308431
 20
512.3591285394314
 30
0.0000000001127424
 11
4784.483610082357
 21
512.4160972283962
 31
0.0000000001127424
  0
LINE
  5
E4DF
330
18
100
AcDbEntity
  8
01
100
AcDbLine
 10
4784.483610082357
 20
512.4160972283962
 30
0.0000000001127424
 11
4784.041089940755
 21
512.4255881951931
 31
0.0000000001127424
  0
LINE
  5
E4E0
330
18
100
AcDbEntity
  8
01
100
AcDbLine
 10
4784.041089940755
 20
512.4255881951931
 30
0.0000000001127424
 11
4783.48209946224
 21
512.3939262078884
 31
0.0000000001127424
  0
LINE
  5
E4E1
330
18
100
AcDbEntity
  8
01
100
AcDbLine
 10
4783.48209946224
 20
512.3939262078884
 30
0.0000000001127424
 11
4782.828382421224
 21
512.3316093133571
 31
0.0000000001127424
  0
LINE
  5
E4E2
330
18
100
AcDbEntity
  8
01
100
AcDbLine
 10
4782.828382421224
 20
512.3316093133571
 30
0.0000000001127424
 11
4782.104619909017
 21
512.2504325555446
 31
0.0000000001127424
  0
LINE
  5
E4E3
330
18
100
AcDbEntity
  8
01
100
AcDbLine
 10
4782.104619909017
 20
512.2504325555446
 30
0.0000000001127424
 11
4781.336645055501
 21
512.1620002435329
 31
0.0000000001127424
  0
LINE
  5
E4E4
330
18
100
AcDbEntity
  8
01
100
AcDbLine
 10
4781.336645055501
 20
512.1620002435329
 30
0.0000000001127424
 11
4780.551641393392
 21
512.0748801873806
 31
0.0000000001127424
  0
LINE
  5
E4E5
330
18
100
AcDbEntity
  8
01
100
AcDbLine
 10
4780.551641393392
 20
512.0748801873806
 30
0.0000000001127424
 11
4779.777929235189
 21
511.9948859857204
 31
0.0000000001127424
  0
LINE
  5
E4E6
330
18
100
AcDbEntity
  8
01
100
AcDbLine
 10
4779.777929235189
 20
511.9948859857204
 30
0.0000000001127424
 11
4779.043500829427
 21
511.924222533572
 31
0.0000000001127424
  0
LINE
  5
E4E7
330
18
100
AcDbEntity
  8
01
100
AcDbLine
 10
4779.043500829427
 20
511.924222533572
 30
0.0000000001127424
 11
4778.375783849447
 21
511.8603492425564
 31
0.0000000001127424
  0
LINE
  5
E4E8
330
18
100
AcDbEntity
  8
01
100
AcDbLine
 10
4778.375783849447
 20
511.8603492425564
 30
0.0000000001127424
 11
4777.800023961751
 21
511.7992301629665
 31
0.0000000001127424
  0
LINE
  5
E4E9
330
18
100
AcDbEntity
  8
01
100
AcDbLine
 10
4777.800023961751
 20
511.7992301629665
 30
0.0000000001127424
 11
4777.337003637044
 21
511.7344260858181
 31
0.0000000001127424
  0
LINE
  5
E4EA
330
18
100
AcDbEntity
  8
01
100
AcDbLine
 10
4777.337003637044
 20
511.7344260858181
 30
0.0000000001127424
 11
4777.004636693685
 21
511.6599403070095
 31
0.0000000001127424
  0
LINE
  5
E4EB
330
18
100
AcDbEntity
  8
01
100
AcDbLine
 10
4777.004636693685
 20
511.6599403070095
 30
0.0000000001127424
 11
4776.813283849447
 21
511.5722327874782
 31
0.0000000001127424
  0
LINE
  5
E4EC
330
18
100
AcDbEntity
  8
01
100
AcDbLine
 10
4776.813283849447
 20
511.5722327874782
 30
0.0000000001127424
 11
4776.770292211263
 21
511.4691367791775
 31
0.0000000001127424
  0
LINE
  5
E4ED
330
18
100
AcDbEntity
  8
01
100
AcDbLine
 10
4776.770292211263
 20
511.4691367791775
 30
0.0000000001127424
 11
4776.875135350911
 21
511.3530555413845
 31
0.0000000001127424
  0
LINE
  5
E4EE
330
18
100
AcDbEntity
  8
01
100
AcDbLine
 10
4776.875135350911
 20
511.3530555413845
 30
0.0000000001127424
 11
4777.123838353841
 21
511.2284370111111
 31
0.0000000001127424
  0
LINE
  5
E4EF
330
18
100
AcDbEntity
  8
01
100
AcDbLine
 10
4777.123838353841
 20
511.2284370111111
 30
0.0000000001127424
 11
4777.506841588704
 21
511.1031394647243
 31
0.0000000001127424
  0
LINE
  5
E4F0
330
18
100
AcDbEntity
  8
01
100
AcDbLine
 10
4777.506841588704
 20
511.1031394647243
 30
0.0000000001127424
 11
4778.011960912435
 21
510.9864478753689
 31
0.0000000001127424
  0
LINE
  5
E4F1
330
18
100
AcDbEntity
  8
01
100
AcDbLine
 10
4778.011960912435
 20
510.9864478753689
 30
0.0000000001127424
 11
4778.622014928548
 21
510.8884711907986
 31
0.0000000001127424
  0
LINE
  5
E4F2
330
18
100
AcDbEntity
  8
01
100
AcDbLine
 10
4778.622014928548
 20
510.8884711907986
 30
0.0000000001127424
 11
4779.316282201497
 21
510.8197761224392
 31
0.0000000001127424
  0
LINE
  5
E4F3
330
18
100
AcDbEntity
  8
01
100
AcDbLine
 10
4779.316282201497
 20
510.8197761224392
 30
0.0000000001127424
 11
4780.070173192708
 21
510.7897926019314
 31
0.0000000001127424
  0
LINE
  5
E4F4
330
18
100
AcDbEntity
  8
01
100
AcDbLine
 10
4780.070173192708
 20
510.7897926019314
 30
0.0000000001127424
 11
4780.867475438802
 21
510.8058524774196
 31
0.0000000001127424
  0
LINE
  5
E4F5
330
18
100
AcDbEntity
  8
01
100
AcDbLine
 10
4876.603979039876
 20
541.698506896365
 30
0.0000000001127424
 11
4876.194036412923
 21
542.7907767938259
 31
0.0000000001127424
  0
LINE
  5
E4F6
330
18
100
AcDbEntity
  8
01
100
AcDbLine
 10
4876.194036412923
 20
542.7907767938259
 30
0.0000000001127424
 11
4875.696874547689
 21
543.8464103387478
 31
0.0000000001127424
  0
LINE
  5
E4F7
330
18
100
AcDbEntity
  8
01
100
AcDbLine
 10
4875.696874547689
 20
543.8464103387478
 30
0.0000000001127424
 11
4875.115880895345
 21
544.8582893060329
 31
0.0000000001127424
  0
LINE
  5
E4F8
330
18
100
AcDbEntity
  8
01
100
AcDbLine
 10
4875.115880895345
 20
544.8582893060329
 30
0.0000000001127424
 11
4874.456472326009
 21
545.8210197137478
 31
0.0000000001127424
  0
LINE
  5
E4F9
330
18
100
AcDbEntity
  8
01
100
AcDbLine
 10
4874.456472326009
 20
545.8210197137478
 30
0.0000000001127424
 11
4873.726415563314
 21
546.7314201043728
 31
0.0000000001127424
  0
LINE
  5
E4FA
330
18
100
AcDbEntity
  8
01
100
AcDbLine
 10
4873.726415563314
 20
546.7314201043728
 30
0.0000000001127424
 11
4872.934301305501
 21
547.5882392572048
 31
0.0000000001127424
  0
LINE
  5
E4FB
330
18
100
AcDbEntity
  8
01
100
AcDbLine
 10
4872.934301305501
 20
547.5882392572048
 30
0.0000000001127424
 11
4872.088811803548
 21
548.3923011468532
 31
0.0000000001127424
  0
LINE
  5
E4FC
330
18
100
AcDbEntity
  8
01
100
AcDbLine
 10
4872.088811803548
 20
548.3923011468532
 30
0.0000000001127424
 11
4871.197820592611
 21
549.1461921380642
 31
0.0000000001127424
  0
LINE
  5
E4FD
330
18
100
AcDbEntity
  8
01
100
AcDbLine
 10
4871.197820592611
 20
549.1461921380642
 30
0.0000000001127424
 11
4870.26895706722
 21
549.8527656243923
 31
0.0000000001127424
  0
LINE
  5
E4FE
330
18
100
AcDbEntity
  8
01
100
AcDbLine
 10
4870.26895706722
 20
549.8527656243923
 30
0.0000000001127424
 11
4869.30850784847
 21
550.5156226800564
 31
0.0000000001127424
  0
LINE
  5
E4FF
330
18
100
AcDbEntity
  8
01
100
AcDbLine
 10
4869.30850784847
 20
550.5156226800564
 30
0.0000000001127424
 11
4868.321721959798
 21
551.1386542962673
 31
0.0000000001127424
  0
LINE
  5
E500
330
18
100
AcDbEntity
  8
01
100
AcDbLine
 10
4868.321721959798
 20
551.1386542962673
 30
0.0000000001127424
 11
4867.312948156087
 21
551.7255683587673
 31
0.0000000001127424
  0
LINE
  5
E501
330
18
100
AcDbEntity
  8
01
100
AcDbLine
 10
4867.312948156087
 20
551.7255683587673
 30
0.0000000001127424
 11
4866.285955358236
 21
552.2798515008571
 31
0.0000000001127424
  0
LINE
  5
E502
330
18
100
AcDbEntity
  8
01
100
AcDbLine
 10
4866.285955358236
 20
552.2798515008571
 30
0.0000000001127424
 11
4865.243444371908
 21
552.8045859979275
 31
0.0000000001127424
  0
LINE
  5
E503
330
18
100
AcDbEntity
  8
01
100
AcDbLine
 10
4865.243444371908
 20
552.8045859979275
 30
0.0000000001127424
 11
4864.187978673665
 21
553.3027244256618
 31
0.0000000001127424
  0
LINE
  5
E504
330
18
100
AcDbEntity
  8
01
100
AcDbLine
 10
4864.187978673665
 20
553.3027244256618
 30
0.0000000001127424
 11
4863.121465612142
 21
553.776761596072
 31
0.0000000001127424
  0
LINE
  5
E505
330
18
100
AcDbEntity
  8
01
100
AcDbLine
 10
4863.121465612142
 20
553.776761596072
 30
0.0000000001127424
 11
4862.045476842611
 21
554.2288642572048
 31
0.0000000001127424
  0
LINE
  5
E506
330
18
100
AcDbEntity
  8
01
100
AcDbLine
 10
4862.045476842611
 20
554.2288642572048
 30
0.0000000001127424
 11
4860.961263585775
 21
554.6608634637478
 31
0.0000000001127424
  0
LINE
  5
E507
330
18
100
AcDbEntity
  8
01
100
AcDbLine
 10
4860.961263585775
 20
554.6608634637478
 30
0.0000000001127424
 11
4859.869787145345
 21
555.0742622064236
 31
0.0000000001127424
  0
LINE
  5
E508
330
18
100
AcDbEntity
  8
01
100
AcDbLine
 10
4859.869787145345
 20
555.0742622064236
 30
0.0000000001127424
 11
4858.771947789876
 21
555.4704490350368
 31
0.0000000001127424
  0
LINE
  5
E509
330
18
100
AcDbEntity
  8
01
100
AcDbLine
 10
4858.771947789876
 20
555.4704490350368
 30
0.0000000001127424
 11
4857.668401647298
 21
555.8504310296657
 31
0.0000000001127424
  0
LINE
  5
E50A
330
18
100
AcDbEntity
  8
01
100
AcDbLine
 10
4857.668401647298
 20
555.8504310296657
 30
0.0000000001127424
 11
4856.559682775228
 21
556.2150550531032
 31
0.0000000001127424
  0
LINE
  5
E50B
330
18
100
AcDbEntity
  8
01
100
AcDbLine
 10
4856.559682775228
 20
556.2150550531032
 30
0.0000000001127424
 11
4855.446218419759
 21
556.5649238275173
 31
0.0000000001127424
  0
LINE
  5
E50C
330
18
100
AcDbEntity
  8
01
100
AcDbLine
 10
4855.446218419759
 20
556.5649238275173
 30
0.0000000001127424
 11
4854.328298497884
 21
556.9003043817165
 31
0.0000000001127424
  0
LINE
  5
E50D
330
18
100
AcDbEntity
  8
01
100
AcDbLine
 10
4854.328298497884
 20
556.9003043817165
 30
0.0000000001127424
 11
4853.206182409017
 21
557.2214179681423
 31
0.0000000001127424
  0
LINE
  5
E50E
330
18
100
AcDbEntity
  8
01
100
AcDbLine
 10
4853.206182409017
 20
557.2214179681423
 30
0.0000000001127424
 11
4852.080144811361
 21
557.5284629510525
 31
0.0000000001127424
  0
LINE
  5
E50F
330
18
100
AcDbEntity
  8
01
100
AcDbLine
 10
4852.080144811361
 20
557.5284629510525
 30
0.0000000001127424
 11
4850.950323034017
 21
557.8212791131618
 31
0.0000000001127424
  0
LINE
  5
E510
330
18
100
AcDbEntity
  8
01
100
AcDbLine
 10
4850.950323034017
 20
557.8212791131618
 30
0.0000000001127424
 11
4849.816839147298
 21
558.0995994256618
 31
0.0000000001127424
  0
LINE
  5
E511
330
18
100
AcDbEntity
  8
01
100
AcDbLine
 10
4849.816839147298
 20
558.0995994256618
 30
0.0000000001127424
 11
4848.679799962728
 21
558.3631263421657
 31
0.0000000001127424
  0
LINE
  5
E512
330
18
100
AcDbEntity
  8
01
100
AcDbLine
 10
4848.679799962728
 20
558.3631263421657
 30
0.0000000001127424
 11
4847.53929703304
 21
558.611363952029
 31
0.0000000001127424
  0
LINE
  5
E513
330
18
100
AcDbEntity
  8
01
100
AcDbLine
 10
4847.53929703304
 20
558.611363952029
 30
0.0000000001127424
 11
4846.395467687337
 21
558.8436103509548
 31
0.0000000001127424
  0
LINE
  5
E514
330
18
100
AcDbEntity
  8
01
100
AcDbLine
 10
4846.395467687337
 20
558.8436103509548
 30
0.0000000001127424
 11
4845.248388219564
 21
559.0591407464626
 31
0.0000000001127424
  0
LINE
  5
E515
330
18
100
AcDbEntity
  8
01
100
AcDbLine
 10
4845.248388219564
 20
559.0591407464626
 30
0.0000000001127424
 11
4844.098180700033
 21
559.2572379754665
 31
0.0000000001127424
  0
LINE
  5
E516
330
18
100
AcDbEntity
  8
01
100
AcDbLine
 10
4844.098180700033
 20
559.2572379754665
 30
0.0000000001127424
 11
4842.944936681478
 21
559.4371696160915
 31
0.0000000001127424
  0
LINE
  5
E517
330
18
100
AcDbEntity
  8
01
100
AcDbLine
 10
4842.944936681478
 20
559.4371696160915
 30
0.0000000001127424
 11
4841.788854528158
 21
559.5981879876736
 31
0.0000000001127424
  0
LINE
  5
E518
330
18
100
AcDbEntity
  8
01
100
AcDbLine
 10
4841.788854528158
 20
559.5981879876736
 30
0.0000000001127424
 11
4840.630208898275
 21
559.7395148919704
 31
0.0000000001127424
  0
LINE
  5
E519
330
18
100
AcDbEntity
  8
01
100
AcDbLine
 10
4840.630208898275
 20
559.7395148919704
 30
0.0000000001127424
 11
4839.469304967611
 21
559.8603416131618
 31
0.0000000001127424
  0
LINE
  5
E51A
330
18
100
AcDbEntity
  8
01
100
AcDbLine
 10
4839.469304967611
 20
559.8603416131618
 30
0.0000000001127424
 11
4838.306463170736
 21
559.9598899530056
 31
0.0000000001127424
  0
LINE
  5
E51B
330
18
100
AcDbEntity
  8
01
100
AcDbLine
 10
4838.306463170736
 20
559.9598899530056
 30
0.0000000001127424
 11
4837.141942907064
 21
560.0373588250759
 31
0.0000000001127424
  0
LINE
  5
E51C
330
18
100
AcDbEntity
  8
01
100
AcDbLine
 10
4837.141942907064
 20
560.0373588250759
 30
0.0000000001127424
 11
4835.976095128744
 21
560.0919852899196
 31
0.0000000001127424
  0
LINE
  5
E51D
330
18
100
AcDbEntity
  8
01
100
AcDbLine
 10
4835.976095128744
 20
560.0919852899196
 30
0.0000000001127424
 11
4834.809331823079
 21
560.1232276605251
 31
0.0000000001127424
  0
LINE
  5
E51E
330
18
100
AcDbEntity
  8
01
100
AcDbLine
 10
4834.809331823079
 20
560.1232276605251
 30
0.0000000001127424
 11
4833.6421717889
 21
560.130651061404
 31
0.0000000001127424
  0
LINE
  5
E51F
330
18
100
AcDbEntity
  8
01
100
AcDbLine
 10
4833.6421717889
 20
560.130651061404
 30
0.0000000001127424
 11
4832.475118566244
 21
560.1138740228298
 31
0.0000000001127424
  0
LINE
  5
E520
330
18
100
AcDbEntity
  8
01
100
AcDbLine
 10
4832.475118566244
 20
560.1138740228298
 30
0.0000000001127424
 11
4831.30867569515
 21
560.0726981805446
 31
0.0000000001127424
  0
LINE
  5
E521
330
18
100
AcDbEntity
  8
01
100
AcDbLine
 10
4831.30867569515
 20
560.0726981805446
 30
0.0000000001127424
 11
4830.143377233236
 21
560.007001464236
 31
0.0000000001127424
  0
LINE
  5
E522
330
18
100
AcDbEntity
  8
01
100
AcDbLine
 10
4830.143377233236
 20
560.007001464236
 30
0.0000000001127424
 11
4828.97972672054
 21
559.9166923211696
 31
0.0000000001127424
  0
LINE
  5
E523
330
18
100
AcDbEntity
  8
01
100
AcDbLine
 10
4828.97972672054
 20
559.9166923211696
 30
0.0000000001127424
 11
4827.818212438314
 21
559.8020072625759
 31
0.0000000001127424
  0
LINE
  5
E524
330
18
100
AcDbEntity
  8
01
100
AcDbLine
 10
4827.818212438314
 20
559.8020072625759
 30
0.0000000001127424
 11
4826.659307409017
 21
559.6633124993923
 31
0.0000000001127424
  0
LINE
  5
E525
330
18
100
AcDbEntity
  8
01
100
AcDbLine
 10
4826.659307409017
 20
559.6633124993923
 30
0.0000000001127424
 11
4825.503484655111
 21
559.5009360955837
 31
0.0000000001127424
  0
LINE
  5
E526
330
18
100
AcDbEntity
  8
01
100
AcDbLine
 10
4825.503484655111
 20
559.5009360955837
 30
0.0000000001127424
 11
4824.351186681478
 21
559.3152900384548
 31
0.0000000001127424
  0
LINE
  5
E527
330
18
100
AcDbEntity
  8
01
100
AcDbLine
 10
4824.351186681478
 20
559.3152900384548
 30
0.0000000001127424
 11
4823.202764440267
 21
559.1070075677517
 31
0.0000000001127424
  0
LINE
  5
E528
330
18
100
AcDbEntity
  8
01
100
AcDbLine
 10
4823.202764440267
 20
559.1070075677517
 30
0.0000000001127424
 11
4822.058523107259
 21
558.8768058465603
 31
0.0000000001127424
  0
LINE
  5
E529
330
18
100
AcDbEntity
  8
01
100
AcDbLine
 10
4822.058523107259
 20
558.8768058465603
 30
0.0000000001127424
 11
4820.918767858236
 21
558.6254020379665
 31
0.0000000001127424
  0
LINE
  5
E52A
330
18
100
AcDbEntity
  8
01
100
AcDbLine
 10
4820.918767858236
 20
558.6254020379665
 30
0.0000000001127424
 11
4819.7837733514
 21
558.3534141229275
 31
0.0000000001127424
  0
LINE
  5
E52B
330
18
100
AcDbEntity
  8
01
100
AcDbLine
 10
4819.7837733514
 20
558.3534141229275
 30
0.0000000001127424
 11
4818.653829503744
 21
558.0613761590603
 31
0.0000000001127424
  0
LINE
  5
E52C
330
18
100
AcDbEntity
  8
01
100
AcDbLine
 10
4818.653829503744
 20
558.0613761590603
 30
0.0000000001127424
 11
4817.529180455892
 21
557.7497993157986
 31
0.0000000001127424
  0
LINE
  5
E52D
330
18
100
AcDbEntity
  8
01
100
AcDbLine
 10
4817.529180455892
 20
557.7497993157986
 30
0.0000000001127424
 11
4816.410055089681
 21
557.4191871331814
 31
0.0000000001127424
  0
LINE
  5
E52E
330
18
100
AcDbEntity
  8
01
100
AcDbLine
 10
4816.410055089681
 20
557.4191871331814
 30
0.0000000001127424
 11
4815.296636510579
 21
557.0700584100368
 31
0.0000000001127424
  0
LINE
  5
E52F
330
18
100
AcDbEntity
  8
01
100
AcDbLine
 10
4815.296636510579
 20
557.0700584100368
 30
0.0000000001127424
 11
4814.189138341634
 21
556.7028937982204
 31
0.0000000001127424
  0
LINE
  5
E530
330
18
100
AcDbEntity
  8
01
100
AcDbLine
 10
4814.189138341634
 20
556.7028937982204
 30
0.0000000001127424
 11
4813.087713170736
 21
556.3182273553493
 31
0.0000000001127424
  0
LINE
  5
E531
330
18
100
AcDbEntity
  8
01
100
AcDbLine
 10
4813.087713170736
 20
556.3182273553493
 30
0.0000000001127424
 11
4811.992406774251
 21
555.9166923211696
 31
0.0000000001127424
  0
LINE
  5
E532
330
18
100
AcDbEntity
  8
01
100
AcDbLine
 10
4811.992406774251
 20
555.9166923211696
 30
0.0000000001127424
 11
4810.903226781576
 21
555.4989829705837
 31
0.0000000001127424
  0
LINE
  5
E533
330
18
100
AcDbEntity
  8
01
100
AcDbLine
 10
4810.903226781576
 20
555.4989829705837
 30
0.0000000001127424
 11
4809.820150304525
 21
555.0657859490993
 31
0.0000000001127424
  0
LINE
  5
E534
330
18
100
AcDbEntity
  8
01
100
AcDbLine
 10
4809.820150304525
 20
555.0657859490993
 30
0.0000000001127424
 11
4808.743154454915
 21
554.6178184198025
 31
0.0000000001127424
  0
LINE
  5
E535
330
18
100
AcDbEntity
  8
01
100
AcDbLine
 10
4808.743154454915
 20
554.6178184198025
 30
0.0000000001127424
 11
4807.672063756673
 21
554.155911986697
 31
0.0000000001127424
  0
LINE
  5
E536
330
18
100
AcDbEntity
  8
01
100
AcDbLine
 10
4807.672063756673
 20
554.155911986697
 30
0.0000000001127424
 11
4806.606672216146
 21
553.6809745477321
 31
0.0000000001127424
  0
LINE
  5
E537
330
18
100
AcDbEntity
  8
01
100
AcDbLine
 10
4806.606672216146
 20
553.6809745477321
 30
0.0000000001127424
 11
4805.546728063314
 21
553.1939292596462
 31
0.0000000001127424
  0
LINE
  5
E538
330
18
100
AcDbEntity
  8
01
100
AcDbLine
 10
4805.546728063314
 20
553.1939292596462
 30
0.0000000001127424
 11
4804.491765905111
 21
552.695966307986
 31
0.0000000001127424
  0
LINE
  5
E539
330
18
100
AcDbEntity
  8
01
100
AcDbLine
 10
4804.491765905111
 20
552.695966307986
 30
0.0000000001127424
 11
4803.441289830892
 21
552.1882987664821
 31
0.0000000001127424
  0
LINE
  5
E53A
330
18
100
AcDbEntity
  8
01
100
AcDbLine
 10
4803.441289830892
 20
552.1882987664821
 30
0.0000000001127424
 11
4802.394796300619
 21
551.6721778558376
 31
0.0000000001127424
  0
LINE
  5
E53B
330
18
100
AcDbEntity
  8
01
100
AcDbLine
 10
4802.394796300619
 20
551.6721778558376
 30
0.0000000001127424
 11
4801.351774144857
 21
551.1488242791775
 31
0.0000000001127424
  0
LINE
  5
E53C
330
18
100
AcDbEntity
  8
01
100
AcDbLine
 10
4801.351774144857
 20
551.1488242791775
 30
0.0000000001127424
 11
4800.311590123861
 21
550.6196723626736
 31
0.0000000001127424
  0
LINE
  5
E53D
330
18
100
AcDbEntity
  8
01
100
AcDbLine
 10
4800.311590123861
 20
550.6196723626736
 30
0.0000000001127424
 11
4799.273397374837
 21
550.0864539788845
 31
0.0000000001127424
  0
LINE
  5
E53E
330
18
100
AcDbEntity
  8
01
100
AcDbLine
 10
4799.273397374837
 20
550.0864539788845
 30
0.0000000001127424
 11
4798.23632614681
 21
549.5509391473415
 31
0.0000000001127424
  0
LINE
  5
E53F
330
18
100
AcDbEntity
  8
01
100
AcDbLine
 10
4798.23632614681
 20
549.5509391473415
 30
0.0000000001127424
 11
4797.199407506673
 21
549.0151496575954
 31
0.0000000001127424
  0
LINE
  5
E540
330
18
100
AcDbEntity
  8
01
100
AcDbLine
 10
4797.199407506673
 20
549.0151496575954
 30
0.0000000001127424
 11
4796.161573339193
 21
548.4812598870876
 31
0.0000000001127424
  0
LINE
  5
E541
330
18
100
AcDbEntity
  8
01
100
AcDbLine
 10
4796.161573339193
 20
548.4812598870876
 30
0.0000000001127424
 11
4795.121801305501
 21
547.951581542361
 31
0.0000000001127424
  0
LINE
  5
E542
330
18
100
AcDbEntity
  8
01
100
AcDbLine
 10
4795.121801305501
 20
547.951581542361
 30
0.0000000001127424
 11
4794.079160619466
 21
547.4288154290798
 31
0.0000000001127424
  0
LINE
  5
E543
330
18
100
AcDbEntity
  8
01
100
AcDbLine
 10
4794.079160619466
 20
547.4288154290798
 30
0.0000000001127424
 11
4793.032758641927
 21
546.9157539056423
 31
0.0000000001127424
  0
LINE
  5
E544
330
18
100
AcDbEntity
  8
01
100
AcDbLine
 10
4793.032758641927
 20
546.9157539056423
 30
0.0000000001127424
 11
4791.982152868001
 21
546.4151435540798
 31
0.0000000001127424
  0
LINE
  5
E545
330
18
100
AcDbEntity
  8
01
100
AcDbLine
 10
4791.982152868001
 20
546.4151435540798
 30
0.0000000001127424
 11
4790.928426671712
 21
545.9296012567165
 31
0.0000000001127424
  0
LINE
  5
E546
330
18
100
AcDbEntity
  8
01
100
AcDbLine
 10
4790.928426671712
 20
545.9296012567165
 30
0.0000000001127424
 11
4789.873067784994
 21
545.4616828607204
 31
0.0000000001127424
  0
LINE
  5
E547
330
18
100
AcDbEntity
  8
01
100
AcDbLine
 10
4789.873067784994
 20
545.4616828607204
 30
0.0000000001127424
 11
4788.818975377767
 21
545.01369244324
 31
0.0000000001127424
  0
LINE
  5
E548
330
18
100
AcDbEntity
  8
01
100
AcDbLine
 10
4788.818975377767
 20
545.01369244324
 30
0.0000000001127424
 11
4787.770772863119
 21
544.5876365350368
 31
0.0000000001127424
  0
LINE
  5
E549
330
18
100
AcDbEntity
  8
01
100
AcDbLine
 10
4787.770772863119
 20
544.5876365350368
 30
0.0000000001127424
 11
4786.734250951497
 21
544.1855292962673
 31
0.0000000001127424
  0
LINE
  5
E54A
330
18
100
AcDbEntity
  8
01
100
AcDbLine
 10
4786.734250951497
 20
544.1855292962673
 30
0.0000000001127424
 11
4785.716688085286
 21
543.809735839236
 31
0.0000000001127424
  0
LINE
  5
E54B
330
18
100
AcDbEntity
  8
01
100
AcDbLine
 10
4785.716688085286
 20
543.809735839236
 30
0.0000000001127424
 11
4784.72802536556
 21
543.4636817620876
 31
0.0000000001127424
  0
LINE
  5
E54C
330
18
100
AcDbEntity
  8
01
100
AcDbLine
 10
4784.72802536556
 20
543.4636817620876
 30
0.0000000001127424
 11
4783.779272008626
 21
543.151143615115
 31
0.0000000001127424
  0
LINE
  5
E54D
330
18
100
AcDbEntity
  8
01
100
AcDbLine
 10
4783.779272008626
 20
543.151143615115
 30
0.0000000001127424
 11
4782.887052465169
 21
542.8773704217556
 31
0.0000000001127424
  0
LINE
  5
E54E
330
18
100
AcDbEntity
  8
01
100
AcDbLine
 10
4782.887052465169
 20
542.8773704217556
 30
0.0000000001127424
 11
4782.071767736165
 21
542.6485114740017
 31
0.0000000001127424
  0
LINE
  5
E54F
330
18
100
AcDbEntity
  8
01
100
AcDbLine
 10
4782.071767736165
 20
542.6485114740017
 30
0.0000000001127424
 11
4781.361677098958
 21
542.4713340448025
 31
0.0000000001127424
  0
LINE
  5
E550
330
18
100
AcDbEntity
  8
01
100
AcDbLine
 10
4781.361677098958
 20
542.4713340448025
 30
0.0000000001127424
 11
4780.79598038265
 21
542.3516364740017
 31
0.0000000001127424
  0
LINE
  5
E551
330
18
100
AcDbEntity
  8
01
100
AcDbLine
 10
4780.79598038265
 20
542.3516364740017
 30
0.0000000001127424
 11
4780.42268173763
 21
542.2899528192165
 31
0.0000000001127424
  0
LINE
  5
E552
330
18
100
AcDbEntity
  8
01
100
AcDbLine
 10
4780.42268173763
 20
542.2899528192165
 30
0.0000000001127424
 11
4780.289129186361
 21
542.2746864007595
 31
0.0000000001127424
  0
LINE
  5
E553
330
18
100
AcDbEntity
  8
01
100
AcDbLine
 10
4872.407720494954
 20
533.318509642947
 30
0.0000000001127424
 11
4871.456106115072
 21
532.900540892947
 31
0.0000000001127424
  0
LINE
  5
E554
330
18
100
AcDbEntity
  8
01
100
AcDbLine
 10
4871.456106115072
 20
532.900540892947
 30
0.0000000001127424
 11
4870.475027013509
 21
532.5554633782986
 31
0.0000000001127424
  0
LINE
  5
E555
330
18
100
AcDbEntity
  8
01
100
AcDbLine
 10
4870.475027013509
 20
532.5554633782986
 30
0.0000000001127424
 11
4869.471792150228
 21
532.2813697503689
 31
0.0000000001127424
  0
LINE
  5
E556
330
18
100
AcDbEntity
  8
01
100
AcDbLine
 10
4869.471792150228
 20
532.2813697503689
 30
0.0000000001127424
 11
4868.452688146322
 21
532.074010436404
 31
0.0000000001127424
  0
LINE
  5
E557
330
18
100
AcDbEntity
  8
01
100
AcDbLine
 10
4868.452688146322
 20
532.074010436404
 30
0.0000000001127424
 11
4867.422918248861
 21
531.9277320550564
 31
0.0000000001127424
  0
LINE
  5
E558
330
18
100
AcDbEntity
  8
01
100
AcDbLine
 10
4867.422918248861
 20
531.9277320550564
 30
0.0000000001127424
 11
4866.38695328304
 21
531.8362403558376
 31
0.0000000001127424
  0
LINE
  5
E559
330
18
100
AcDbEntity
  8
01
100
AcDbLine
 10
4866.38695328304
 20
531.8362403558376
 30
0.0000000001127424
 11
4865.347875524251
 21
531.7929969476345
 31
0.0000000001127424
  0
LINE
  5
E55A
330
18
100
AcDbEntity
  8
01
100
AcDbLine
 10
4865.347875524251
 20
531.7929969476345
 30
0.0000000001127424
 11
4864.307790685384
 21
531.7917457269314
 31
0.0000000001127424
  0
LINE
  5
E55B
330
18
100
AcDbEntity
  8
01
100
AcDbLine
 10
4864.307790685384
 20
531.7917457269314
 30
0.0000000001127424
 11
4863.268331456869
 21
531.8264747308376
 31
0.0000000001127424
  0
LINE
  5
E55C
330
18
100
AcDbEntity
  8
01
100
AcDbLine
 10
4863.268331456869
 20
531.8264747308376
 30
0.0000000001127424
 11
4862.230352330892
 21
531.8915992425564
 31
0.0000000001127424
  0
LINE
  5
E55D
330
18
100
AcDbEntity
  8
01
100
AcDbLine
 10
4862.230352330892
 20
531.8915992425564
 30
0.0000000001127424
 11
4861.194387365072
 21
531.9821143792751
 31
0.0000000001127424
  0
LINE
  5
E55E
330
18
100
AcDbEntity
  8
01
100
AcDbLine
 10
4861.194387365072
 20
531.9821143792751
 30
0.0000000001127424
 11
4860.160375524251
 21
532.0940757440212
 31
0.0000000001127424
  0
LINE
  5
E55F
330
18
100
AcDbEntity
  8
01
100
AcDbLine
 10
4860.160375524251
 20
532.0940757440212
 30
0.0000000001127424
 11
4859.128271032064
 21
532.2236304925564
 31
0.0000000001127424
  0
LINE
  5
E560
330
18
100
AcDbEntity
  8
01
100
AcDbLine
 10
4859.128271032064
 20
532.2236304925564
 30
0.0000000001127424
 11
4858.097982335775
 21
532.3669715570095
 31
0.0000000001127424
  0
LINE
  5
E561
330
18
100
AcDbEntity
  8
01
100
AcDbLine
 10
4858.097982335775
 20
532.3669715570095
 30
0.0000000001127424
 11
4857.069295812337
 21
532.5207343743923
 31
0.0000000001127424
  0
LINE
  5
E562
330
18
100
AcDbEntity
  8
01
100
AcDbLine
 10
4857.069295812337
 20
532.5207343743923
 30
0.0000000001127424
 11
4856.041814733236
 21
532.6823325799587
 31
0.0000000001127424
  0
LINE
  5
E563
330
18
100
AcDbEntity
  8
01
100
AcDbLine
 10
4856.041814733236
 20
532.6823325799587
 30
0.0000000001127424
 11
4855.015203405111
 21
532.8494163201931
 31
0.0000000001127424
  0
LINE
  5
E564
330
18
100
AcDbEntity
  8
01
100
AcDbLine
 10
4855.015203405111
 20
532.8494163201931
 30
0.0000000001127424
 11
4853.989095617025
 21
533.0198875115993
 31
0.0000000001127424
  0
LINE
  5
E565
330
18
100
AcDbEntity
  8
01
100
AcDbLine
 10
4853.989095617025
 20
533.0198875115993
 30
0.0000000001127424
 11
4852.963201451986
 21
533.1916557000759
 31
0.0000000001127424
  0
LINE
  5
E566
330
18
100
AcDbEntity
  8
01
100
AcDbLine
 10
4852.963201451986
 20
533.1916557000759
 30
0.0000000001127424
 11
4851.937230993001
 21
533.3629890130642
 31
0.0000000001127424
  0
LINE
  5
E567
330
18
100
AcDbEntity
  8
01
100
AcDbLine
 10
4851.937230993001
 20
533.3629890130642
 30
0.0000000001127424
 11
4850.910985875814
 21
533.5325294183376
 31
0.0000000001127424
  0
LINE
  5
E568
330
18
100
AcDbEntity
  8
01
100
AcDbLine
 10
4850.910985875814
 20
533.5325294183376
 30
0.0000000001127424
 11
4849.884206701009
 21
533.6989265130642
 31
0.0000000001127424
  0
LINE
  5
E569
330
18
100
AcDbEntity
  8
01
100
AcDbLine
 10
4849.884206701009
 20
533.6989265130642
 30
0.0000000001127424
 11
4848.856710363119
 21
533.8609061883571
 31
0.0000000001127424
  0
LINE
  5
E56A
330
18
100
AcDbEntity
  8
01
100
AcDbLine
 10
4848.856710363119
 20
533.8609061883571
 30
0.0000000001127424
 11
4847.828374791829
 21
534.0175300286892
 31
0.0000000001127424
  0
LINE
  5
E56B
330
18
100
AcDbEntity
  8
01
100
AcDbLine
 10
4847.828374791829
 20
534.0175300286892
 30
0.0000000001127424
 11
4846.799123693197
 21
534.1680427240017
 31
0.0000000001127424
  0
LINE
  5
E56C
330
18
100
AcDbEntity
  8
01
100
AcDbLine
 10
4846.799123693197
 20
534.1680427240017
 30
0.0000000001127424
 11
4845.768896032064
 21
534.3117194818142
 31
0.0000000001127424
  0
LINE
  5
E56D
330
18
100
AcDbEntity
  8
01
100
AcDbLine
 10
4845.768896032064
 20
534.3117194818142
 30
0.0000000001127424
 11
4844.737646032064
 21
534.4480491326931
 31
0.0000000001127424
  0
LINE
  5
E56E
330
18
100
AcDbEntity
  8
01
100
AcDbLine
 10
4844.737646032064
 20
534.4480491326931
 30
0.0000000001127424
 11
4843.705419469564
 21
534.5765968011501
 31
0.0000000001127424
  0
LINE
  5
E56F
330
18
100
AcDbEntity
  8
01
100
AcDbLine
 10
4843.705419469564
 20
534.5765968011501
 30
0.0000000001127424
 11
4842.672185826986
 21
534.696942870486
 31
0.0000000001127424
  0
LINE
  5
E570
330
18
100
AcDbEntity
  8
01
100
AcDbLine
 10
4842.672185826986
 20
534.696942870486
 30
0.0000000001127424
 11
4841.638036657064
 21
534.8090110467556
 31
0.0000000001127424
  0
LINE
  5
E571
330
18
100
AcDbEntity
  8
01
100
AcDbLine
 10
4841.638036657064
 20
534.8090110467556
 30
0.0000000001127424
 11
4840.603017736165
 21
534.9128852532986
 31
0.0000000001127424
  0
LINE
  5
E572
330
18
100
AcDbEntity
  8
01
100
AcDbLine
 10
4840.603017736165
 20
534.9128852532986
 30
0.0000000001127424
 11
4839.567205358236
 21
535.0086494134548
 31
0.0000000001127424
  0
LINE
  5
E573
330
18
100
AcDbEntity
  8
01
100
AcDbLine
 10
4839.567205358236
 20
535.0086494134548
 30
0.0000000001127424
 11
4838.530691076009
 21
535.0963798211696
 31
0.0000000001127424
  0
LINE
  5
E574
330
18
100
AcDbEntity
  8
01
100
AcDbLine
 10
4838.530691076009
 20
535.0963798211696
 30
0.0000000001127424
 11
4837.493535924642
 21
535.1761680291775
 31
0.0000000001127424
  0
LINE
  5
E575
330
18
100
AcDbEntity
  8
01
100
AcDbLine
 10
4837.493535924642
 20
535.1761680291775
 30
0.0000000001127424
 11
4836.455816198079
 21
535.2481055902126
 31
0.0000000001127424
  0
LINE
  5
E576
330
18
100
AcDbEntity
  8
01
100
AcDbLine
 10
4836.455816198079
 20
535.2481055902126
 30
0.0000000001127424
 11
4835.417592931478
 21
535.3123908685329
 31
0.0000000001127424
  0
LINE
  5
E577
330
18
100
AcDbEntity
  8
01
100
AcDbLine
 10
4835.417592931478
 20
535.3123908685329
 30
0.0000000001127424
 11
4834.378942418783
 21
535.3693519281032
 31
0.0000000001127424
  0
LINE
  5
E578
330
18
100
AcDbEntity
  8
01
100
AcDbLine
 10
4834.378942418783
 20
535.3693519281032
 30
0.0000000001127424
 11
4833.33992569515
 21
535.4192939447048
 31
0.0000000001127424
  0
LINE
  5
E579
330
18
100
AcDbEntity
  8
01
100
AcDbLine
 10
4833.33992569515
 20
535.4192939447048
 30
0.0000000001127424
 11
4832.300588536947
 21
535.4625220941189
 31
0.0000000001127424
  0
LINE
  5
E57A
330
18
100
AcDbEntity
  8
01
100
AcDbLine
 10
4832.300588536947
 20
535.4625220941189
 30
0.0000000001127424
 11
4831.261007238119
 21
535.4993568109157
 31
0.0000000001127424
  0
LINE
  5
E57B
330
18
100
AcDbEntity
  8
01
100
AcDbLine
 10
4831.261007238119
 20
535.4993568109157
 30
0.0000000001127424
 11
4830.221227575033
 21
535.5299583123806
 31
0.0000000001127424
  0
LINE
  5
E57C
330
18
100
AcDbEntity
  8
01
100
AcDbLine
 10
4830.221227575033
 20
535.5299583123806
 30
0.0000000001127424
 11
4829.181295324056
 21
535.5543571160915
 31
0.0000000001127424
  0
LINE
  5
E57D
330
18
100
AcDbEntity
  8
01
100
AcDbLine
 10
4829.181295324056
 20
535.5543571160915
 30
0.0000000001127424
 11
4828.141225743978
 21
535.5725532220486
 31
0.0000000001127424
  0
LINE
  5
E57E
330
18
100
AcDbEntity
  8
01
100
AcDbLine
 10
4828.141225743978
 20
535.5725532220486
 30
0.0000000001127424
 11
4827.101095128744
 21
535.5845618890407
 31
0.0000000001127424
  0
LINE
  5
E57F
330
18
100
AcDbEntity
  8
01
100
AcDbLine
 10
4827.101095128744
 20
535.5845618890407
 30
0.0000000001127424
 11
4826.060918737142
 21
535.5903907464626
 31
0.0000000001127424
  0
LINE
  5
E580
330
18
100
AcDbEntity
  8
01
100
AcDbLine
 10
4826.060918737142
 20
535.5903907464626
 30
0.0000000001127424
 11
4825.02074234554
 21
535.5898872064236
 31
0.0000000001127424
  0
LINE
  5
E581
330
18
100
AcDbEntity
  8
01
100
AcDbLine
 10
4825.02074234554
 20
535.5898872064236
 30
0.0000000001127424
 11
4823.980642247884
 21
535.582669799197
 31
0.0000000001127424
  0
LINE
  5
E582
330
18
100
AcDbEntity
  8
01
100
AcDbLine
 10
4823.980642247884
 20
535.582669799197
 30
0.0000000001127424
 11
4822.940694738119
 21
535.5682349847439
 31
0.0000000001127424
  0
LINE
  5
E583
330
18
100
AcDbEntity
  8
01
100
AcDbLine
 10
4822.940694738119
 20
535.5682349847439
 30
0.0000000001127424
 11
4821.901021886556
 21
535.5459571527126
 31
0.0000000001127424
  0
LINE
  5
E584
330
18
100
AcDbEntity
  8
01
100
AcDbLine
 10
4821.901021886556
 20
535.5459571527126
 30
0.0000000001127424
 11
4820.861776281087
 21
535.5151878045681
 31
0.0000000001127424
  0
LINE
  5
E585
330
18
100
AcDbEntity
  8
01
100
AcDbLine
 10
4820.861776281087
 20
535.5151878045681
 30
0.0000000001127424
 11
4819.823079992025
 21
535.4752708123806
 31
0.0000000001127424
  0
LINE
  5
E586
330
18
100
AcDbEntity
  8
01
100
AcDbLine
 10
4819.823079992025
 20
535.4752708123806
 30
0.0000000001127424
 11
4818.78507034847
 21
535.4255042718532
 31
0.0000000001127424
  0
LINE
  5
E587
330
18
100
AcDbEntity
  8
01
100
AcDbLine
 10
4818.78507034847
 20
535.4255042718532
 30
0.0000000001127424
 11
4817.747976232259
 21
535.3650718377712
 31
0.0000000001127424
  0
LINE
  5
E588
330
18
100
AcDbEntity
  8
01
100
AcDbLine
 10
4817.747976232259
 20
535.3650718377712
 30
0.0000000001127424
 11
4816.711965490072
 21
535.293119017947
 31
0.0000000001127424
  0
LINE
  5
E589
330
18
100
AcDbEntity
  8
01
100
AcDbLine
 10
4816.711965490072
 20
535.293119017947
 30
0.0000000001127424
 11
4815.677251744954
 21
535.2087836907986
 31
0.0000000001127424
  0
LINE
  5
E58A
330
18
100
AcDbEntity
  8
01
100
AcDbLine
 10
4815.677251744954
 20
535.2087836907986
 30
0.0000000001127424
 11
4814.644048619954
 21
535.111249511111
 31
0.0000000001127424
  0
LINE
  5
E58B
330
18
100
AcDbEntity
  8
01
100
AcDbLine
 10
4814.644048619954
 20
535.111249511111
 30
0.0000000001127424
 11
4813.612569738119
 21
534.9997001336696
 31
0.0000000001127424
  0
LINE
  5
E58C
330
18
100
AcDbEntity
  8
01
100
AcDbLine
 10
4813.612569738119
 20
534.9997001336696
 30
0.0000000001127424
 11
4812.583051610677
 21
534.873326842654
 31
0.0000000001127424
  0
LINE
  5
E58D
330
18
100
AcDbEntity
  8
01
100
AcDbLine
 10
4812.583051610677
 20
534.873326842654
 30
0.0000000001127424
 11
4811.555700231283
 21
534.7313438104275
 31
0.0000000001127424
  0
LINE
  5
E58E
330
18
100
AcDbEntity
  8
01
100
AcDbLine
 10
4811.555700231283
 20
534.7313438104275
 30
0.0000000001127424
 11
4810.53075974056
 21
534.5730872796657
 31
0.0000000001127424
  0
LINE
  5
E58F
330
18
100
AcDbEntity
  8
01
100
AcDbLine
 10
4810.53075974056
 20
534.5730872796657
 30
0.0000000001127424
 11
4809.50846664974
 21
534.3979468988064
 31
0.0000000001127424
  0
LINE
  5
E590
330
18
100
AcDbEntity
  8
01
100
AcDbLine
 10
4809.50846664974
 20
534.3979468988064
 30
0.0000000001127424
 11
4808.489080358236
 21
534.2053199456814
 31
0.0000000001127424
  0
LINE
  5
E591
330
18
100
AcDbEntity
  8
01
100
AcDbLine
 10
4808.489080358236
 20
534.2053199456814
 30
0.0000000001127424
 11
4807.472860265462
 21
533.9947181390407
 31
0.0000000001127424
  0
LINE
  5
E592
330
18
100
AcDbEntity
  8
01
100
AcDbLine
 10
4807.472860265462
 20
533.9947181390407
 30
0.0000000001127424
 11
4806.460111547201
 21
533.7657294915798
 31
0.0000000001127424
  0
LINE
  5
E593
330
18
100
AcDbEntity
  8
01
100
AcDbLine
 10
4806.460111547201
 20
533.7657294915798
 30
0.0000000001127424
 11
4805.451223302572
 21
533.5180717157009
 31
0.0000000001127424
  0
LINE
  5
E594
330
18
100
AcDbEntity
  8
01
100
AcDbLine
 10
4805.451223302572
 20
533.5180717157009
 30
0.0000000001127424
 11
4804.446645665853
 21
533.2515464471462
 31
0.0000000001127424
  0
LINE
  5
E595
330
18
100
AcDbEntity
  8
01
100
AcDbLine
 10
4804.446645665853
 20
533.2515464471462
 30
0.0000000001127424
 11
4803.446798253744
 21
532.9659248040798
 31
0.0000000001127424
  0
LINE
  5
E596
330
18
100
AcDbEntity
  8
01
100
AcDbLine
 10
4803.446798253744
 20
532.9659248040798
 30
0.0000000001127424
 11
4802.452260900228
 21
532.6610770867946
 31
0.0000000001127424
  0
LINE
  5
E597
330
18
100
AcDbEntity
  8
01
100
AcDbLine
 10
4802.452260900228
 20
532.6610770867946
 30
0.0000000001127424
 11
4801.463857579915
 21
532.3370490716579
 31
0.0000000001127424
  0
LINE
  5
E598
330
18
100
AcDbEntity
  8
01
100
AcDbLine
 10
4801.463857579915
 20
532.3370490716579
 30
0.0000000001127424
 11
4800.482458043783
 21
531.9939017938259
 31
0.0000000001127424
  0
LINE
  5
E599
330
18
100
AcDbEntity
  8
01
100
AcDbLine
 10
4800.482458043783
 20
531.9939017938259
 30
0.0000000001127424
 11
4799.508970189779
 21
531.6317268060329
 31
0.0000000001127424
  0
LINE
  5
E59A
330
18
100
AcDbEntity
  8
01
100
AcDbLine
 10
4799.508970189779
 20
531.6317268060329
 30
0.0000000001127424
 11
4798.544805455892
 21
531.250752990115
 31
0.0000000001127424
  0
LINE
  5
E59B
330
18
100
AcDbEntity
  8
01
100
AcDbLine
 10
4798.544805455892
 20
531.250752990115
 30
0.0000000001127424
 11
4797.591749120443
 21
530.8513618157986
 31
0.0000000001127424
  0
LINE
  5
E59C
330
18
100
AcDbEntity
  8
01
100
AcDbLine
 10
4797.591749120443
 20
530.8513618157986
 30
0.0000000001127424
 11
4796.651739049642
 21
530.4339500115993
 31
0.0000000001127424
  0
LINE
  5
E59D
330
18
100
AcDbEntity
  8
01
100
AcDbLine
 10
4796.651739049642
 20
530.4339500115993
 30
0.0000000001127424
 11
4795.72770493099
 21
529.999288146365
 31
0.0000000001127424
  0
LINE
  5
E59E
330
18
100
AcDbEntity
  8
01
100
AcDbLine
 10
4795.72770493099
 20
529.999288146365
 30
0.0000000001127424
 11
4794.823438573568
 21
529.5484748529079
 31
0.0000000001127424
  0
LINE
  5
E59F
330
18
100
AcDbEntity
  8
01
100
AcDbLine
 10
4794.823438573568
 20
529.5484748529079
 30
0.0000000001127424
 11
4793.944288182943
 21
529.083287780154
 31
0.0000000001127424
  0
LINE
  5
E5A0
330
18
100
AcDbEntity
  8
01
100
AcDbLine
 10
4793.944288182943
 20
529.083287780154
 30
0.0000000001127424
 11
4793.096334386556
 21
528.605878417361
 31
0.0000000001127424
  0
LINE
  5
E5A1
330
18
100
AcDbEntity
  8
01
100
AcDbLine
 10
4793.096334386556
 20
528.605878417361
 30
0.0000000001127424
 11
4792.28800003597
 21
528.1198707269314
 31
0.0000000001127424
  0
LINE
  5
E5A2
330
18
100
AcDbEntity
  8
01
100
AcDbLine
 10
4792.28800003597
 20
528.1198707269314
 30
0.0000000001127424
 11
4791.530424047201
 21
527.6311546014431
 31
0.0000000001127424
  0
LINE
  5
E5A3
330
18
100
AcDbEntity
  8
01
100
AcDbLine
 10
4791.530424047201
 20
527.6311546014431
 30
0.0000000001127424
 11
4790.837377477376
 21
527.1483283685329
 31
0.0000000001127424
  0
LINE
  5
E5A4
330
18
100
AcDbEntity
  8
01
100
AcDbLine
 10
4790.837377477376
 20
527.1483283685329
 30
0.0000000001127424
 11
4790.226598668783
 21
526.6850257562282
 31
0.0000000001127424
  0
LINE
  5
E5A5
330
18
100
AcDbEntity
  8
01
100
AcDbLine
 10
4790.226598668783
 20
526.6850257562282
 30
0.0000000001127424
 11
4789.719449926107
 21
526.261869017947
 31
0.0000000001127424
  0
LINE
  5
E5A6
330
18
100
AcDbEntity
  8
01
100
AcDbLine
 10
4789.719449926107
 20
526.261869017947
 30
0.0000000001127424
 11
4789.339483190267
 21
525.9088721917751
 31
0.0000000001127424
  0
LINE
  5
E5A7
330
18
100
AcDbEntity
  8
01
100
AcDbLine
 10
4789.339483190267
 20
525.9088721917751
 30
0.0000000001127424
 11
4789.107534337728
 21
525.6657310174587
 31
0.0000000001127424
  0
LINE
  5
E5A8
330
18
100
AcDbEntity
  8
01
100
AcDbLine
 10
4789.107534337728
 20
525.6657310174587
 30
0.0000000001127424
 11
4789.03148453304
 21
525.5754981683376
 31
0.0000000001127424
  0
LINE
  5
E5A9
330
18
100
AcDbEntity
  8
01
100
AcDbLine
 10
4872.407720494954
 20
533.318509642947
 30
0.0000000001127424
 11
4873.118474889486
 21
533.690335814822
 31
0.0000000001127424
  0
LINE
  5
E5AA
330
18
100
AcDbEntity
  8
01
100
AcDbLine
 10
4873.118474889486
 20
533.690335814822
 30
0.0000000001127424
 11
4873.805639196126
 21
534.1044059442165
 31
0.0000000001127424
  0
LINE
  5
E5AB
330
18
100
AcDbEntity
  8
01
100
AcDbLine
 10
4873.805639196126
 20
534.1044059442165
 30
0.0000000001127424
 11
4874.464513707845
 21
534.5625281976345
 31
0.0000000001127424
  0
LINE
  5
E5AC
330
18
100
AcDbEntity
  8
01
100
AcDbLine
 10
4874.464513707845
 20
534.5625281976345
 30
0.0000000001127424
 11
4875.085592199056
 21
535.0706153558376
 31
0.0000000001127424
  0
LINE
  5
E5AD
330
18
100
AcDbEntity
  8
01
100
AcDbLine
 10
4875.085592199056
 20
535.0706153558376
 30
0.0000000001127424
 11
4875.656698156087
 21
535.6350989984157
 31
0.0000000001127424
  0
LINE
  5
E5AE
330
18
100
AcDbEntity
  8
01
100
AcDbLine
 10
4875.656698156087
 20
535.6350989984157
 30
0.0000000001127424
 11
4876.159322667806
 21
536.2611137078884
 31
0.0000000001127424
  0
LINE
  5
E5AF
330
18
100
AcDbEntity
  8
01
100
AcDbLine
 10
4876.159322667806
 20
536.2611137078884
 30
0.0000000001127424
 11
4876.571248937337
 21
536.9501090692165
 31
0.0000000001127424
  0
LINE
  5
E5B0
330
18
100
AcDbEntity
  8
01
100
AcDbLine
 10
4876.571248937337
 20
536.9501090692165
 30
0.0000000001127424
 11
4876.870183873861
 21
537.6943946527126
 31
0.0000000001127424
  0
LINE
  5
E5B1
330
18
100
AcDbEntity
  8
01
100
AcDbLine
 10
4876.870183873861
 20
537.6943946527126
 30
0.0000000001127424
 11
4877.040685582845
 21
538.4781165765407
 31
0.0000000001127424
  0
LINE
  5
E5B2
330
18
100
AcDbEntity
  8
01
100
AcDbLine
 10
4877.040685582845
 20
538.4781165765407
 30
0.0000000001127424
 11
4877.082387853353
 21
539.278958861697
 31
0.0000000001127424
  0
LINE
  5
E5B3
330
18
100
AcDbEntity
  8
01
100
AcDbLine
 10
4877.082387853353
 20
539.278958861697
 30
0.0000000001127424
 11
4877.010351110189
 21
540.0782218621853
 31
0.0000000001127424
  0
LINE
  5
E5B4
330
18
100
AcDbEntity
  8
01
100
AcDbLine
 10
4877.010351110189
 20
540.0782218621853
 30
0.0000000001127424
 11
4876.849248815267
 21
540.864652221072
 31
0.0000000001127424
  0
LINE
  5
E5B5
330
18
100
AcDbEntity
  8
01
100
AcDbLine
 10
4876.849248815267
 20
540.864652221072
 30
0.0000000001127424
 11
4876.603979039876
 21
541.698506896365
 31
0.0000000001127424
  0
LINE
  5
E5B6
330
18
100
AcDbEntity
  8
01
100
AcDbLine
 10
4875.652345062832
 20
649.2320810388824
 30
0.0000000001127424
 11
4874.817674042324
 21
650.3159586023589
 31
0.0000000001127424
  0
LINE
  5
E5B7
330
18
100
AcDbEntity
  8
01
100
AcDbLine
 10
4874.817674042324
 20
650.3159586023589
 30
0.0000000001127424
 11
4873.858842255215
 21
651.3116556238433
 31
0.0000000001127424
  0
LINE
  5
E5B8
330
18
100
AcDbEntity
  8
01
100
AcDbLine
 10
4873.858842255215
 20
651.3116556238433
 30
0.0000000001127424
 11
4872.79429757748
 21
652.2009988855621
 31
0.0000000001127424
  0
LINE
  5
E5B9
330
18
100
AcDbEntity
  8
01
100
AcDbLine
 10
4872.79429757748
 20
652.2009988855621
 30
0.0000000001127424
 11
4871.644456268887
 21
652.9771982263824
 31
0.0000000001127424
  0
LINE
  5
E5BA
330
18
100
AcDbEntity
  8
01
100
AcDbLine
 10
4871.644456268887
 20
652.9771982263824
 30
0.0000000001127424
 11
4870.429810883144
 21
653.6434885095855
 31
0.0000000001127424
  0
LINE
  5
E5BB
330
18
100
AcDbEntity
  8
01
100
AcDbLine
 10
4870.429810883144
 20
653.6434885095855
 30
0.0000000001127424
 11
4869.168595673184
 21
654.2084909509917
 31
0.0000000001127424
  0
LINE
  5
E5BC
330
18
100
AcDbEntity
  8
01
100
AcDbLine
 10
4869.168595673184
 20
654.2084909509917
 30
0.0000000001127424
 11
4867.875001312832
 21
654.6845193933746
 31
0.0000000001127424
  0
LINE
  5
E5BD
330
18
100
AcDbEntity
  8
01
100
AcDbLine
 10
4867.875001312832
 20
654.6845193933746
 30
0.0000000001127424
 11
4866.559663178066
 21
655.0844675134917
 31
0.0000000001127424
  0
LINE
  5
E5BE
330
18
100
AcDbEntity
  8
01
100
AcDbLine
 10
4866.559663178066
 20
655.0844675134917
 30
0.0000000001127424
 11
4865.229859711269
 21
655.4205270838042
 31
0.0000000001127424
  0
LINE
  5
E5BF
330
18
100
AcDbEntity
  8
01
100
AcDbLine
 10
4865.229859711269
 20
655.4205270838042
 30
0.0000000001127424
 11
4863.889954926113
 21
655.7031961511871
 31
0.0000000001127424
  0
LINE
  5
E5C0
330
18
100
AcDbEntity
  8
01
100
AcDbLine
 10
4863.889954926113
 20
655.7031961511871
 30
0.0000000001127424
 11
4862.543610931973
 21
655.9423776697417
 31
0.0000000001127424
  0
LINE
  5
E5C1
330
18
100
AcDbEntity
  8
01
100
AcDbLine
 10
4862.543610931973
 20
655.9423776697417
 30
0.0000000001127424
 11
4861.192506195644
 21
656.1456552576324
 31
0.0000000001127424
  0
LINE
  5
E5C2
330
18
100
AcDbEntity
  8
01
100
AcDbLine
 10
4861.192506195644
 20
656.1456552576324
 30
0.0000000001127424
 11
4859.83775460873
 21
656.3199411463042
 31
0.0000000001127424
  0
LINE
  5
E5C3
330
18
100
AcDbEntity
  8
01
100
AcDbLine
 10
4859.83775460873
 20
656.3199411463042
 30
0.0000000001127424
 11
4858.479920746426
 21
656.4704538416167
 31
0.0000000001127424
  0
LINE
  5
E5C4
330
18
100
AcDbEntity
  8
01
100
AcDbLine
 10
4858.479920746426
 20
656.4704538416167
 30
0.0000000001127424
 11
4857.119126679043
 21
656.6013132166167
 31
0.0000000001127424
  0
LINE
  5
E5C5
330
18
100
AcDbEntity
  8
01
100
AcDbLine
 10
4857.119126679043
 20
656.6013132166167
 30
0.0000000001127424
 11
4855.755509735684
 21
656.7165323328277
 31
0.0000000001127424
  0
LINE
  5
E5C6
330
18
100
AcDbEntity
  8
01
100
AcDbLine
 10
4855.755509735684
 20
656.7165323328277
 30
0.0000000001127424
 11
4854.389085175137
 21
656.8193460535308
 31
0.0000000001127424
  0
LINE
  5
E5C7
330
18
100
AcDbEntity
  8
01
100
AcDbLine
 10
4854.389085175137
 20
656.8193460535308
 30
0.0000000001127424
 11
4853.019669891934
 21
656.9118600916167
 31
0.0000000001127424
  0
LINE
  5
E5C8
330
18
100
AcDbEntity
  8
01
100
AcDbLine
 10
4853.019669891934
 20
656.9118600916167
 30
0.0000000001127424
 11
4851.647096039394
 21
656.9958902429839
 31
0.0000000001127424
  0
LINE
  5
E5C9
330
18
100
AcDbEntity
  8
01
100
AcDbLine
 10
4851.647096039394
 20
656.9958902429839
 30
0.0000000001127424
 11
4850.271211029629
 21
657.0727335047027
 31
0.0000000001127424
  0
LINE
  5
E5CA
330
18
100
AcDbEntity
  8
01
100
AcDbLine
 10
4850.271211029629
 20
657.0727335047027
 30
0.0000000001127424
 11
4848.891892792324
 21
657.1435037683746
 31
0.0000000001127424
  0
LINE
  5
E5CB
330
18
100
AcDbEntity
  8
01
100
AcDbLine
 10
4848.891892792324
 20
657.1435037683746
 30
0.0000000001127424
 11
4847.509126068691
 21
657.2085214685699
 31
0.0000000001127424
  0
LINE
  5
E5CC
330
18
100
AcDbEntity
  8
01
100
AcDbLine
 10
4847.509126068691
 20
657.2085214685699
 30
0.0000000001127424
 11
4846.122941376309
 21
657.2675882410308
 31
0.0000000001127424
  0
LINE
  5
E5CD
330
18
100
AcDbEntity
  8
01
100
AcDbLine
 10
4846.122941376309
 20
657.2675882410308
 30
0.0000000001127424
 11
4844.733415009121
 21
657.3205667566558
 31
0.0000000001127424
  0
LINE
  5
E5CE
330
18
100
AcDbEntity
  8
01
100
AcDbLine
 10
4844.733415009121
 20
657.3205667566558
 30
0.0000000001127424
 11
4843.340592743496
 21
657.367243392398
 31
0.0000000001127424
  0
LINE
  5
E5CF
330
18
100
AcDbEntity
  8
01
100
AcDbLine
 10
4843.340592743496
 20
657.367243392398
 30
0.0000000001127424
 11
4841.944642426113
 21
657.4069925379058
 31
0.0000000001127424
  0
LINE
  5
E5D0
330
18
100
AcDbEntity
  8
01
100
AcDbLine
 10
4841.944642426113
 20
657.4069925379058
 30
0.0000000001127424
 11
4840.545899750332
 21
657.438776595523
 31
0.0000000001127424
  0
LINE
  5
E5D1
330
18
100
AcDbEntity
  8
01
100
AcDbLine
 10
4840.545899750332
 20
657.438776595523
 30
0.0000000001127424
 11
4839.144685150723
 21
657.4615274500152
 31
0.0000000001127424
  0
LINE
  5
E5D2
330
18
100
AcDbEntity
  8
01
100
AcDbLine
 10
4839.144685150723
 20
657.4615274500152
 30
0.0000000001127424
 11
4837.741349579434
 21
657.4740701746246
 31
0.0000000001127424
  0
LINE
  5
E5D3
330
18
100
AcDbEntity
  8
01
100
AcDbLine
 10
4837.741349579434
 20
657.4740701746246
 30
0.0000000001127424
 11
4836.303758026699
 21
657.4752145838042
 31
0.0000000001127424
  0
LINE
  5
E5D4
330
18
100
AcDbEntity
  8
01
100
AcDbLine
 10
4875.586472870449
 20
641.290583236148
 30
0.0000000001127424
 11
4874.574296356777
 21
640.0913339685699
 31
0.0000000001127424
  0
LINE
  5
E5D5
330
18
100
AcDbEntity
  8
01
100
AcDbLine
 10
4874.574296356777
 20
640.0913339685699
 30
0.0000000001127424
 11
4873.413941742519
 21
639.0030008386871
 31
0.0000000001127424
  0
LINE
  5
E5D6
330
18
100
AcDbEntity
  8
01
100
AcDbLine
 10
4873.413941742519
 20
639.0030008386871
 30
0.0000000001127424
 11
4872.13496530209
 21
638.0428720545074
 31
0.0000000001127424
  0
LINE
  5
E5D7
330
18
100
AcDbEntity
  8
01
100
AcDbLine
 10
4872.13496530209
 20
638.0428720545074
 30
0.0000000001127424
 11
4870.764817597012
 21
637.2138010095855
 31
0.0000000001127424
  0
LINE
  5
E5D8
330
18
100
AcDbEntity
  8
01
100
AcDbLine
 10
4870.764817597012
 20
637.2138010095855
 30
0.0000000001127424
 11
4869.327760101894
 21
636.5092416834136
 31
0.0000000001127424
  0
LINE
  5
E5D9
330
18
100
AcDbEntity
  8
01
100
AcDbLine
 10
4869.327760101894
 20
636.5092416834136
 30
0.0000000001127424
 11
4867.843675018887
 21
635.9167886804839
 31
0.0000000001127424
  0
LINE
  5
E5DA
330
18
100
AcDbEntity
  8
01
100
AcDbLine
 10
4867.843675018887
 20
635.9167886804839
 30
0.0000000001127424
 11
4866.327821137051
 21
635.421442611148
 31
0.0000000001127424
  0
LINE
  5
E5DB
330
18
100
AcDbEntity
  8
01
100
AcDbLine
 10
4866.327821137051
 20
635.421442611148
 30
0.0000000001127424
 11
4864.790757538418
 21
635.0079141687652
 31
0.0000000001127424
  0
LINE
  5
E5DC
330
18
100
AcDbEntity
  8
01
100
AcDbLine
 10
4864.790757538418
 20
635.0079141687652
 30
0.0000000001127424
 11
4863.239854218105
 21
634.6618600916167
 31
0.0000000001127424
  0
LINE
  5
E5DD
330
18
100
AcDbEntity
  8
01
100
AcDbLine
 10
4863.239854218105
 20
634.6618600916167
 30
0.0000000001127424
 11
4861.679765106777
 21
634.3705545496246
 31
0.0000000001127424
  0
LINE
  5
E5DE
330
18
100
AcDbEntity
  8
01
100
AcDbLine
 10
4861.679765106777
 20
634.3705545496246
 30
0.0000000001127424
 11
4860.112870575527
 21
634.1237436365386
 31
0.0000000001127424
  0
LINE
  5
E5DF
330
18
100
AcDbEntity
  8
01
100
AcDbLine
 10
4860.112870575527
 20
634.1237436365386
 30
0.0000000001127424
 11
4858.540971161465
 21
633.9120737146636
 31
0.0000000001127424
  0
LINE
  5
E5E0
330
18
100
AcDbEntity
  8
01
100
AcDbLine
 10
4858.540971161465
 20
633.9120737146636
 30
0.0000000001127424
 11
4856.96470773373
 21
633.7286783289214
 31
0.0000000001127424
  0
LINE
  5
E5E1
330
18
100
AcDbEntity
  8
01
100
AcDbLine
 10
4856.96470773373
 20
633.7286783289214
 30
0.0000000001127424
 11
4855.384293915371
 21
633.5677743982574
 31
0.0000000001127424
  0
LINE
  5
E5E2
330
18
100
AcDbEntity
  8
01
100
AcDbLine
 10
4855.384293915371
 20
633.5677743982574
 30
0.0000000001127424
 11
4853.799714447598
 21
633.4250131677886
 31
0.0000000001127424
  0
LINE
  5
E5E3
330
18
100
AcDbEntity
  8
01
100
AcDbLine
 10
4853.799714447598
 20
633.4250131677886
 30
0.0000000001127424
 11
4852.210832001309
 21
633.2971292566558
 31
0.0000000001127424
  0
LINE
  5
E5E4
330
18
100
AcDbEntity
  8
01
100
AcDbLine
 10
4852.210832001309
 20
633.2971292566558
 30
0.0000000001127424
 11
4850.617478729824
 21
633.1820779871246
 31
0.0000000001127424
  0
LINE
  5
E5E5
330
18
100
AcDbEntity
  8
01
100
AcDbLine
 10
4850.617478729824
 20
633.1820779871246
 30
0.0000000001127424
 11
4849.019456268887
 21
633.0783639978667
 31
0.0000000001127424
  0
LINE
  5
E5E6
330
18
100
AcDbEntity
  8
01
100
AcDbLine
 10
4849.019456268887
 20
633.0783639978667
 30
0.0000000001127424
 11
4847.416734100918
 21
632.9855142664214
 31
0.0000000001127424
  0
LINE
  5
E5E7
330
18
100
AcDbEntity
  8
01
100
AcDbLine
 10
4847.416734100918
 20
632.9855142664214
 30
0.0000000001127424
 11
4845.809312225918
 21
632.9036356043121
 31
0.0000000001127424
  0
LINE
  5
E5E8
330
18
100
AcDbEntity
  8
01
100
AcDbLine
 10
4845.809312225918
 20
632.9036356043121
 30
0.0000000001127424
 11
4844.197312714199
 21
632.8331552576324
 31
0.0000000001127424
  0
LINE
  5
E5E9
330
18
100
AcDbEntity
  8
01
100
AcDbLine
 10
4844.197312714199
 20
632.8331552576324
 30
0.0000000001127424
 11
4842.581010223965
 21
632.7751566004058
 31
0.0000000001127424
  0
LINE
  5
E5EA
330
18
100
AcDbEntity
  8
01
100
AcDbLine
 10
4842.581010223965
 20
632.7751566004058
 30
0.0000000001127424
 11
4840.960709930996
 21
632.7309213709136
 31
0.0000000001127424
  0
LINE
  5
E5EB
330
18
100
AcDbEntity
  8
01
100
AcDbLine
 10
4840.960709930996
 20
632.7309213709136
 30
0.0000000001127424
 11
4839.336930634121
 21
632.7017313074371
 31
0.0000000001127424
  0
LINE
  5
E5EC
330
18
100
AcDbEntity
  8
01
100
AcDbLine
 10
4839.336930634121
 20
632.7017313074371
 30
0.0000000001127424
 11
4837.710297943691
 21
632.6889597009917
 31
0.0000000001127424
  0
LINE
  5
E5ED
330
18
100
AcDbEntity
  8
01
100
AcDbLine
 10
4837.710297943691
 20
632.6889597009917
 30
0.0000000001127424
 11
4836.081483246426
 21
632.6939645838042
 31
0.0000000001127424
  0
LINE
  5
E5EE
330
18
100
AcDbEntity
  8
01
100
AcDbLine
 10
4836.081483246426
 20
632.6939645838042
 30
0.0000000001127424
 11
4834.45120370541
 21
632.717829329898
 31
0.0000000001127424
  0
LINE
  5
E5EF
330
18
100
AcDbEntity
  8
01
100
AcDbLine
 10
4834.45120370541
 20
632.717829329898
 30
0.0000000001127424
 11
4832.82034433041
 21
632.7612253259917
 31
0.0000000001127424
  0
LINE
  5
E5F0
330
18
100
AcDbEntity
  8
01
100
AcDbLine
 10
4832.82034433041
 20
632.7612253259917
 30
0.0000000001127424
 11
4831.189744354824
 21
632.8244272302886
 31
0.0000000001127424
  0
LINE
  5
E5F1
330
18
100
AcDbEntity
  8
01
100
AcDbLine
 10
4831.189744354824
 20
632.8244272302886
 30
0.0000000001127424
 11
4829.560273529629
 21
632.9070840906402
 31
0.0000000001127424
  0
LINE
  5
E5F2
330
18
100
AcDbEntity
  8
01
100
AcDbLine
 10
4829.560273529629
 20
632.9070840906402
 30
0.0000000001127424
 11
4827.932786347012
 21
633.0083719324371
 31
0.0000000001127424
  0
LINE
  5
E5F3
330
18
100
AcDbEntity
  8
01
100
AcDbLine
 10
4827.932786347012
 20
633.0083719324371
 30
0.0000000001127424
 11
4826.308076264004
 21
633.1264597009917
 31
0.0000000001127424
  0
LINE
  5
E5F4
330
18
100
AcDbEntity
  8
01
100
AcDbLine
 10
4826.308076264004
 20
633.1264597009917
 30
0.0000000001127424
 11
4824.686921478848
 21
633.2587839197417
 31
0.0000000001127424
  0
LINE
  5
E5F5
330
18
100
AcDbEntity
  8
01
100
AcDbLine
 10
4824.686921478848
 20
633.2587839197417
 30
0.0000000001127424
 11
4823.069901825527
 21
633.4010568689605
 31
0.0000000001127424
  0
LINE
  5
E5F6
330
18
100
AcDbEntity
  8
01
100
AcDbLine
 10
4823.069901825527
 20
633.4010568689605
 30
0.0000000001127424
 11
4821.457597138027
 21
633.5486093591949
 31
0.0000000001127424
  0
LINE
  5
E5F7
330
18
100
AcDbEntity
  8
01
100
AcDbLine
 10
4821.457597138027
 20
633.5486093591949
 30
0.0000000001127424
 11
4819.850541473965
 21
633.6971536707183
 31
0.0000000001127424
  0
LINE
  5
E5F8
330
18
100
AcDbEntity
  8
01
100
AcDbLine
 10
4819.850541473965
 20
633.6971536707183
 30
0.0000000001127424
 11
4818.249421478848
 21
633.8435464929839
 31
0.0000000001127424
  0
LINE
  5
E5F9
330
18
100
AcDbEntity
  8
01
100
AcDbLine
 10
4818.249421478848
 20
633.8435464929839
 30
0.0000000001127424
 11
4816.654923798184
 21
633.9853769373199
 31
0.0000000001127424
  0
LINE
  5
E5FA
330
18
100
AcDbEntity
  8
01
100
AcDbLine
 10
4816.654923798184
 20
633.9853769373199
 30
0.0000000001127424
 11
4815.067780853848
 21
634.1213480066558
 31
0.0000000001127424
  0
LINE
  5
E5FB
330
18
100
AcDbEntity
  8
01
100
AcDbLine
 10
4815.067780853848
 20
634.1213480066558
 30
0.0000000001127424
 11
4813.488664032559
 21
634.2505746912261
 31
0.0000000001127424
  0
LINE
  5
E5FC
330
18
100
AcDbEntity
  8
01
100
AcDbLine
 10
4813.488664032559
 20
634.2505746912261
 30
0.0000000001127424
 11
4811.918076874355
 21
634.3730569910308
 31
0.0000000001127424
  0
LINE
  5
E5FD
330
18
100
AcDbEntity
  8
01
100
AcDbLine
 10
4811.918076874355
 20
634.3730569910308
 30
0.0000000001127424
 11
4810.356377960781
 21
634.4893442224761
 31
0.0000000001127424
  0
LINE
  5
E5FE
330
18
100
AcDbEntity
  8
01
100
AcDbLine
 10
4810.356377960781
 20
634.4893442224761
 30
0.0000000001127424
 11
4808.803567291836
 21
634.6006570886871
 31
0.0000000001127424
  0
LINE
  5
E5FF
330
18
100
AcDbEntity
  8
01
100
AcDbLine
 10
4808.803567291836
 20
634.6006570886871
 30
0.0000000001127424
 11
4807.259530426601
 21
634.7084756922027
 31
0.0000000001127424
  0
LINE
  5
E600
330
18
100
AcDbEntity
  8
01
100
AcDbLine
 10
4807.259530426601
 20
634.7084756922027
 30
0.0000000001127424
 11
4805.723855377773
 21
634.8144937586089
 31
0.0000000001127424
  0
LINE
  5
E601
330
18
100
AcDbEntity
  8
01
100
AcDbLine
 10
4805.723855377773
 20
634.8144937586089
 30
0.0000000001127424
 11
4804.195741058926
 21
634.9208780359527
 31
0.0000000001127424
  0
LINE
  5
E602
330
18
100
AcDbEntity
  8
01
100
AcDbLine
 10
4804.195741058926
 20
634.9208780359527
 30
0.0000000001127424
 11
4802.674340607266
 21
635.0297800134917
 31
0.0000000001127424
  0
LINE
  5
E603
330
18
100
AcDbEntity
  8
01
100
AcDbLine
 10
4802.674340607266
 20
635.0297800134917
 30
0.0000000001127424
 11
4801.15855538998
 21
635.1438394617339
 31
0.0000000001127424
  0
LINE
  5
E604
330
18
100
AcDbEntity
  8
01
100
AcDbLine
 10
4801.15855538998
 20
635.1438394617339
 30
0.0000000001127424
 11
4799.64717233334
 21
635.2659555506011
 31
0.0000000001127424
  0
LINE
  5
E605
330
18
100
AcDbEntity
  8
01
100
AcDbLine
 10
4799.64717233334
 20
635.2659555506011
 30
0.0000000001127424
 11
4798.139008881191
 21
635.3996378015777
 31
0.0000000001127424
  0
LINE
  5
E606
330
18
100
AcDbEntity
  8
01
100
AcDbLine
 10
4798.139008881191
 20
635.3996378015777
 30
0.0000000001127424
 11
4796.632951141934
 21
635.5488687586089
 31
0.0000000001127424
  0
LINE
  5
E607
330
18
100
AcDbEntity
  8
01
100
AcDbLine
 10
4796.632951141934
 20
635.5488687586089
 30
0.0000000001127424
 11
4795.12812936459
 21
635.7182870935699
 31
0.0000000001127424
  0
LINE
  5
E608
330
18
100
AcDbEntity
  8
01
100
AcDbLine
 10
4795.12812936459
 20
635.7182870935699
 30
0.0000000001127424
 11
4793.624047638516
 21
635.913385970523
 31
0.0000000001127424
  0
LINE
  5
E609
330
18
100
AcDbEntity
  8
01
100
AcDbLine
 10
4793.624047638516
 20
635.913385970523
 30
0.0000000001127424
 11
4792.120667816738
 21
636.1405588220855
 31
0.0000000001127424
  0
LINE
  5
E60A
330
18
100
AcDbEntity
  8
01
100
AcDbLine
 10
4792.120667816738
 20
636.1405588220855
 30
0.0000000001127424
 11
4790.618722321133
 21
636.4070077966949
 31
0.0000000001127424
  0
LINE
  5
E60B
330
18
100
AcDbEntity
  8
01
100
AcDbLine
 10
4790.618722321133
 20
636.4070077966949
 30
0.0000000001127424
 11
4789.120583893398
 21
636.7202554773589
 31
0.0000000001127424
  0
LINE
  5
E60C
330
18
100
AcDbEntity
  8
01
100
AcDbLine
 10
4789.120583893398
 20
636.7202554773589
 30
0.0000000001127424
 11
4787.62925851498
 21
637.0877634119292
 31
0.0000000001127424
  0
LINE
  5
E60D
330
18
100
AcDbEntity
  8
01
100
AcDbLine
 10
4787.62925851498
 20
637.0877634119292
 30
0.0000000001127424
 11
4786.14863717709
 21
637.5158639978667
 31
0.0000000001127424
  0
LINE
  5
E60E
330
18
100
AcDbEntity
  8
01
100
AcDbLine
 10
4786.14863717709
 20
637.5158639978667
 30
0.0000000001127424
 11
4784.683038117031
 21
638.0102335047027
 31
0.0000000001127424
  0
LINE
  5
E60F
330
18
100
AcDbEntity
  8
01
100
AcDbLine
 10
4784.683038117031
 20
638.0102335047027
 30
0.0000000001127424
 11
4783.237290741543
 21
638.5752664636871
 31
0.0000000001127424
  0
LINE
  5
E610
330
18
100
AcDbEntity
  8
01
100
AcDbLine
 10
4783.237290741543
 20
638.5752664636871
 30
0.0000000001127424
 11
4781.816445709805
 21
639.2141824793121
 31
0.0000000001127424
  0
LINE
  5
E611
330
18
100
AcDbEntity
  8
01
100
AcDbLine
 10
4781.816445709805
 20
639.2141824793121
 30
0.0000000001127424
 11
4780.425668121914
 21
639.9288736414214
 31
0.0000000001127424
  0
LINE
  5
E612
330
18
100
AcDbEntity
  8
01
100
AcDbLine
 10
4780.425668121914
 20
639.9288736414214
 30
0.0000000001127424
 11
4779.069733978848
 21
640.7195230554839
 31
0.0000000001127424
  0
LINE
  5
E613
330
18
100
AcDbEntity
  8
01
100
AcDbLine
 10
4779.069733978848
 20
640.7195230554839
 30
0.0000000001127424
 11
4777.753190399746
 21
641.5853372644683
 31
0.0000000001127424
  0
LINE
  5
E614
330
18
100
AcDbEntity
  8
01
100
AcDbLine
 10
4777.753190399746
 20
641.5853372644683
 30
0.0000000001127424
 11
4776.480073334316
 21
642.5243478845855
 31
0.0000000001127424
  0
LINE
  5
E615
330
18
100
AcDbEntity
  8
01
100
AcDbLine
 10
4776.480073334316
 20
642.5243478845855
 30
0.0000000001127424
 11
4775.253518463711
 21
643.5334573816558
 31
0.0000000001127424
  0
LINE
  5
E616
330
18
100
AcDbEntity
  8
01
100
AcDbLine
 10
4775.253518463711
 20
643.5334573816558
 30
0.0000000001127424
 11
4774.075654389004
 21
644.6085458826324
 31
0.0000000001127424
  0
LINE
  5
E617
330
18
100
AcDbEntity
  8
01
100
AcDbLine
 10
4774.075654389004
 20
644.6085458826324
 30
0.0000000001127424
 11
4772.948495270351
 21
645.7454324793121
 31
0.0000000001127424
  0
LINE
  5
E618
330
18
100
AcDbEntity
  8
01
100
AcDbLine
 10
4772.948495270351
 20
645.7454324793121
 30
0.0000000001127424
 11
4771.873238922695
 21
646.9395853113433
 31
0.0000000001127424
  0
LINE
  5
E619
330
18
100
AcDbEntity
  8
01
100
AcDbLine
 10
4771.873238922695
 20
646.9395853113433
 30
0.0000000001127424
 11
4770.849786163906
 21
648.1859079431792
 31
0.0000000001127424
  0
LINE
  5
E61A
330
18
100
AcDbEntity
  8
01
100
AcDbLine
 10
4770.849786163906
 20
648.1859079431792
 30
0.0000000001127424
 11
4769.87796151791
 21
649.479303939273
 31
0.0000000001127424
  0
LINE
  5
E61B
330
18
100
AcDbEntity
  8
01
100
AcDbLine
 10
4769.87796151791
 20
649.479303939273
 30
0.0000000001127424
 11
4768.957398773769
 21
650.8147226404449
 31
0.0000000001127424
  0
LINE
  5
E61C
330
18
100
AcDbEntity
  8
01
100
AcDbLine
 10
4768.957398773769
 20
650.8147226404449
 30
0.0000000001127424
 11
4768.086587311367
 21
652.1873727869292
 31
0.0000000001127424
  0
LINE
  5
E61D
330
18
100
AcDbEntity
  8
01
100
AcDbLine
 10
4768.086587311367
 20
652.1873727869292
 30
0.0000000001127424
 11
4767.263512970547
 21
653.5926462244292
 31
0.0000000001127424
  0
LINE
  5
E61E
330
18
100
AcDbEntity
  8
01
100
AcDbLine
 10
4767.263512970547
 20
653.5926462244292
 30
0.0000000001127424
 11
4766.486169220547
 21
655.0259042810699
 31
0.0000000001127424
  0
LINE
  5
E61F
330
18
100
AcDbEntity
  8
01
100
AcDbLine
 10
4766.486169220547
 20
655.0259042810699
 30
0.0000000001127424
 11
4765.752259613613
 21
656.4828439783355
 31
0.0000000001127424
  0
LINE
  5
E620
330
18
100
AcDbEntity
  8
01
100
AcDbLine
 10
4765.752259613613
 20
656.4828439783355
 30
0.0000000001127424
 11
4765.05887735043
 21
657.9599557947417
 31
0.0000000001127424
  0
LINE
  5
E621
330
18
100
AcDbEntity
  8
01
100
AcDbLine
 10
4765.05887735043
 20
657.9599557947417
 30
0.0000000001127424
 11
4764.402993561367
 21
659.4538522791167
 31
0.0000000001127424
  0
LINE
  5
E622
330
18
100
AcDbEntity
  8
01
100
AcDbLine
 10
4764.402993561367
 20
659.4538522791167
 30
0.0000000001127424
 11
4763.781594635586
 21
660.9611917566558
 31
0.0000000001127424
  0
LINE
  5
E623
330
18
100
AcDbEntity
  8
01
100
AcDbLine
 10
4763.781594635586
 20
660.9611917566558
 30
0.0000000001127424
 11
4763.191613556484
 21
662.4793497156402
 31
0.0000000001127424
  0
LINE
  5
E624
330
18
100
AcDbEntity
  8
01
100
AcDbLine
 10
4763.191613556484
 20
662.4793497156402
 30
0.0000000001127424
 11
4762.629975678066
 21
664.0060983728667
 31
0.0000000001127424
  0
LINE
  5
E625
330
18
100
AcDbEntity
  8
01
100
AcDbLine
 10
4762.629975678066
 20
664.0060983728667
 30
0.0000000001127424
 11
4762.093636871914
 21
665.5392557214996
 31
0.0000000001127424
  0
LINE
  5
E626
330
18
100
AcDbEntity
  8
01
100
AcDbLine
 10
4762.093636871914
 20
665.5392557214996
 30
0.0000000001127424
 11
4761.579812409023
 21
667.077204329898
 31
0.0000000001127424
  0
LINE
  5
E627
330
18
100
AcDbEntity
  8
01
100
AcDbLine
 10
4761.579812409023
 20
667.077204329898
 30
0.0000000001127424
 11
4761.085824371914
 21
668.6185251306792
 31
0.0000000001127424
  0
LINE
  5
E628
330
18
100
AcDbEntity
  8
01
100
AcDbLine
 10
4761.085824371914
 20
668.6185251306792
 30
0.0000000001127424
 11
4760.609292389492
 21
670.1620889734527
 31
0.0000000001127424
  0
LINE
  5
E629
330
18
100
AcDbEntity
  8
01
100
AcDbLine
 10
4760.609292389492
 20
670.1620889734527
 30
0.0000000001127424
 11
4760.148171784023
 21
671.7071329187652
 31
0.0000000001127424
  0
LINE
  5
E62A
330
18
100
AcDbEntity
  8
01
100
AcDbLine
 10
4760.148171784023
 20
671.7071329187652
 30
0.0000000001127424
 11
4759.700776459316
 21
673.2531381677886
 31
0.0000000001127424
  0
LINE
  5
E62B
330
18
100
AcDbEntity
  8
01
100
AcDbLine
 10
4759.700776459316
 20
673.2531381677886
 30
0.0000000001127424
 11
4759.265832306484
 21
674.7998758386871
 31
0.0000000001127424
  0
LINE
  5
E62C
330
18
100
AcDbEntity
  8
01
100
AcDbLine
 10
4759.265832306484
 20
674.7998758386871
 30
0.0000000001127424
 11
4758.84288919125
 21
676.3475595545074
 31
0.0000000001127424
  0
LINE
  5
E62D
330
18
100
AcDbEntity
  8
01
100
AcDbLine
 10
4758.84288919125
 20
676.3475595545074
 30
0.0000000001127424
 11
4758.432237030605
 21
677.8966623377105
 31
0.0000000001127424
  0
LINE
  5
E62E
330
18
100
AcDbEntity
  8
01
100
AcDbLine
 10
4758.432237030605
 20
677.8966623377105
 30
0.0000000001127424
 11
4758.03453195248
 21
679.4478555750152
 31
0.0000000001127424
  0
LINE
  5
E62F
330
18
100
AcDbEntity
  8
01
100
AcDbLine
 10
4758.03453195248
 20
679.4478555750152
 30
0.0000000001127424
 11
4757.652215363125
 21
681.0021921228667
 31
0.0000000001127424
  0
LINE
  5
E630
330
18
100
AcDbEntity
  8
01
100
AcDbLine
 10
4757.652215363125
 20
681.0021921228667
 30
0.0000000001127424
 11
4757.288300873379
 21
682.5609232019683
 31
0.0000000001127424
  0
LINE
  5
E631
330
18
100
AcDbEntity
  8
01
100
AcDbLine
 10
4757.288300873379
 20
682.5609232019683
 30
0.0000000001127424
 11
4756.946679474453
 21
684.1251321863433
 31
0.0000000001127424
  0
LINE
  5
E632
330
18
100
AcDbEntity
  8
01
100
AcDbLine
 10
4756.946679474453
 20
684.1251321863433
 30
0.0000000001127424
 11
4756.631997467617
 21
685.6958108972808
 31
0.0000000001127424
  0
LINE
  5
E633
330
18
100
AcDbEntity
  8
01
100
AcDbLine
 10
4756.631997467617
 20
685.6958108972808
 30
0.0000000001127424
 11
4756.348878265957
 21
687.2736002039214
 31
0.0000000001127424
  0
LINE
  5
E634
330
18
100
AcDbEntity
  8
01
100
AcDbLine
 10
4756.348878265957
 20
687.2736002039214
 30
0.0000000001127424
 11
4756.101624847988
 21
688.8585306238433
 31
0.0000000001127424
  0
LINE
  5
E635
330
18
100
AcDbEntity
  8
01
100
AcDbLine
 10
4756.101624847988
 20
688.8585306238433
 30
0.0000000001127424
 11
4755.893456818203
 21
690.4533487390777
 31
0.0000000001127424
  0
LINE
  5
E636
330
18
100
AcDbEntity
  8
01
100
AcDbLine
 10
4790.275246979336
 20
657.5176187586089
 30
0.0000000001127424
 11
4790.256410004238
 21
658.228327376773
 31
0.0000000001127424
  0
LINE
  5
E637
330
18
100
AcDbEntity
  8
01
100
AcDbLine
 10
4790.256410004238
 20
658.228327376773
 30
0.0000000001127424
 11
4790.322533966641
 21
659.0653787683746
 31
0.0000000001127424
  0
LINE
  5
E638
330
18
100
AcDbEntity
  8
01
100
AcDbLine
 10
4790.322533966641
 20
659.0653787683746
 30
0.0000000001127424
 11
4790.475541473965
 21
660.001276595523
 31
0.0000000001127424
  0
LINE
  5
E639
330
18
100
AcDbEntity
  8
01
100
AcDbLine
 10
4790.475541473965
 20
660.001276595523
 30
0.0000000001127424
 11
4790.702813507656
 21
660.9892526697417
 31
0.0000000001127424
  0
LINE
  5
E63A
330
18
100
AcDbEntity
  8
01
100
AcDbLine
 10
4790.702813507656
 20
660.9892526697417
 30
0.0000000001127424
 11
4790.986703278164
 21
661.9957529138824
 31
0.0000000001127424
  0
LINE
  5
E63B
330
18
100
AcDbEntity
  8
01
100
AcDbLine
 10
4790.986703278164
 20
661.9957529138824
 30
0.0000000001127424
 11
4791.311951996426
 21
663.0029092859527
 31
0.0000000001127424
  0
LINE
  5
E63C
330
18
100
AcDbEntity
  8
01
100
AcDbLine
 10
4791.311951996426
 20
663.0029092859527
 30
0.0000000001127424
 11
4791.667893768887
 21
664.0038400720855
 31
0.0000000001127424
  0
LINE
  5
E63D
330
18
100
AcDbEntity
  8
01
100
AcDbLine
 10
4791.667893768887
 20
664.0038400720855
 30
0.0000000001127424
 11
4792.047326447109
 21
664.996149642398
 31
0.0000000001127424
  0
LINE
  5
E63E
330
18
100
AcDbEntity
  8
01
100
AcDbLine
 10
4792.047326447109
 20
664.996149642398
 30
0.0000000001127424
 11
4792.445016266445
 21
665.9794107507964
 31
0.0000000001127424
  0
LINE
  5
E63F
330
18
100
AcDbEntity
  8
01
100
AcDbLine
 10
4792.445016266445
 20
665.9794107507964
 30
0.0000000001127424
 11
4792.85728585873
 21
666.9539896082183
 31
0.0000000001127424
  0
LINE
  5
E640
330
18
100
AcDbEntity
  8
01
100
AcDbLine
 10
4792.85728585873
 20
666.9539896082183
 30
0.0000000001127424
 11
4793.281747223476
 21
667.9205881189605
 31
0.0000000001127424
  0
LINE
  5
E641
330
18
100
AcDbEntity
  8
01
100
AcDbLine
 10
4793.281747223476
 20
667.9205881189605
 30
0.0000000001127424
 11
4793.716187836269
 21
668.8798929285308
 31
0.0000000001127424
  0
LINE
  5
E642
330
18
100
AcDbEntity
  8
01
100
AcDbLine
 10
4793.716187836269
 20
668.8798929285308
 30
0.0000000001127424
 11
4794.158921600918
 21
669.8325601648589
 31
0.0000000001127424
  0
LINE
  5
E643
330
18
100
AcDbEntity
  8
01
100
AcDbLine
 10
4794.158921600918
 20
669.8325601648589
 30
0.0000000001127424
 11
4794.608781220059
 21
670.7792306970855
 31
0.0000000001127424
  0
LINE
  5
E644
330
18
100
AcDbEntity
  8
01
100
AcDbLine
 10
4794.608781220059
 20
670.7792306970855
 30
0.0000000001127424
 11
4795.064683319668
 21
671.7204843591949
 31
0.0000000001127424
  0
LINE
  5
E645
330
18
100
AcDbEntity
  8
01
100
AcDbLine
 10
4795.064683319668
 20
671.7204843591949
 30
0.0000000001127424
 11
4795.525819183926
 21
672.6568246912261
 31
0.0000000001127424
  0
LINE
  5
E646
330
18
100
AcDbEntity
  8
01
100
AcDbLine
 10
4795.525819183926
 20
672.6568246912261
 30
0.0000000001127424
 11
4795.991517426113
 21
673.5887094568511
 31
0.0000000001127424
  0
LINE
  5
E647
330
18
100
AcDbEntity
  8
01
100
AcDbLine
 10
4795.991517426113
 20
673.5887094568511
 30
0.0000000001127424
 11
4796.461083771328
 21
674.5165964197417
 31
0.0000000001127424
  0
LINE
  5
E648
330
18
100
AcDbEntity
  8
01
100
AcDbLine
 10
4796.461083771328
 20
674.5165964197417
 30
0.0000000001127424
 11
4796.934037567715
 21
675.4408212732574
 31
0.0000000001127424
  0
LINE
  5
E649
330
18
100
AcDbEntity
  8
01
100
AcDbLine
 10
4796.934037567715
 20
675.4408212732574
 30
0.0000000001127424
 11
4797.410096527676
 21
676.3616739343902
 31
0.0000000001127424
  0
LINE
  5
E64A
330
18
100
AcDbEntity
  8
01
100
AcDbLine
 10
4797.410096527676
 20
676.3616739343902
 30
0.0000000001127424
 11
4797.889001251797
 21
677.2793832849761
 31
0.0000000001127424
  0
LINE
  5
E64B
330
18
100
AcDbEntity
  8
01
100
AcDbLine
 10
4797.889001251797
 20
677.2793832849761
 30
0.0000000001127424
 11
4798.377625824551
 21
678.2077890466949
 31
0.0000000001127424
  0
LINE
  5
E64C
330
18
100
AcDbEntity
  8
01
100
AcDbLine
 10
4804.787476898769
 20
689.3363748621246
 30
0.0000000001127424
 11
4803.405000092129
 21
687.2064157556792
 31
0.0000000001127424
  0
LINE
  5
E64D
330
18
100
AcDbEntity
  8
01
100
AcDbLine
 10
4803.405000092129
 20
687.2064157556792
 30
0.0000000001127424
 11
4802.105622650723
 21
685.018122298648
 31
0.0000000001127424
  0
LINE
  5
E64E
330
18
100
AcDbEntity
  8
01
100
AcDbLine
 10
4802.105622650723
 20
685.018122298648
 30
0.0000000001127424
 11
4800.85477578793
 21
682.7971597742339
 31
0.0000000001127424
  0
LINE
  5
E64F
330
18
100
AcDbEntity
  8
01
100
AcDbLine
 10
4800.85477578793
 20
682.7971597742339
 30
0.0000000001127424
 11
4799.631219269375
 21
680.5559946131011
 31
0.0000000001127424
  0
LINE
  5
E650
330
18
100
AcDbEntity
  8
01
100
AcDbLine
 10
4799.631219269375
 20
680.5559946131011
 30
0.0000000001127424
 11
4798.377892853359
 21
678.2082925867339
 31
0.0000000001127424
  0
LINE
  5
E651
330
18
100
AcDbEntity
  8
01
100
AcDbLine
 10
4790.275246979336
 20
657.5176187586089
 30
0.0000000001127424
 11
4790.387139679531
 21
656.8428751062652
 31
0.0000000001127424
  0
LINE
  5
E652
330
18
100
AcDbEntity
  8
01
100
AcDbLine
 10
4790.387139679531
 20
656.8428751062652
 30
0.0000000001127424
 11
4790.598283173184
 21
656.2419382166167
 31
0.0000000001127424
  0
LINE
  5
E653
330
18
100
AcDbEntity
  8
01
100
AcDbLine
 10
4790.598283173184
 20
656.2419382166167
 30
0.0000000001127424
 11
4790.931519867519
 21
655.6722360681792
 31
0.0000000001127424
  0
LINE
  5
E654
330
18
100
AcDbEntity
  8
01
100
AcDbLine
 10
4790.931519867519
 20
655.6722360681792
 30
0.0000000001127424
 11
4791.407754303555
 21
655.1296182703277
 31
0.0000000001127424
  0
LINE
  5
E655
330
18
100
AcDbEntity
  8
01
100
AcDbLine
 10
4791.407754303555
 20
655.1296182703277
 30
0.0000000001127424
 11
4792.026856781582
 21
654.6330972742339
 31
0.0000000001127424
  0
LINE
  5
E656
330
18
100
AcDbEntity
  8
01
100
AcDbLine
 10
4792.026856781582
 20
654.6330972742339
 30
0.0000000001127424
 11
4792.770921112637
 21
654.2030283045074
 31
0.0000000001127424
  0
LINE
  5
E657
330
18
100
AcDbEntity
  8
01
100
AcDbLine
 10
4792.770921112637
 20
654.2030283045074
 30
0.0000000001127424
 11
4793.614098908047
 21
653.8497720789214
 31
0.0000000001127424
  0
LINE
  5
E658
330
18
100
AcDbEntity
  8
01
100
AcDbLine
 10
4793.614098908047
 20
653.8497720789214
 30
0.0000000001127424
 11
4794.531663300137
 21
653.5748239588042
 31
0.0000000001127424
  0
LINE
  5
E659
330
18
100
AcDbEntity
  8
01
100
AcDbLine
 10
4794.531663300137
 20
653.5748239588042
 30
0.0000000001127424
 11
4795.502053619961
 21
653.373346908023
 31
0.0000000001127424
  0
LINE
  5
E65A
330
18
100
AcDbEntity
  8
01
100
AcDbLine
 10
4795.502053619961
 20
653.373346908023
 30
0.0000000001127424
 11
4796.509667755703
 21
653.2385355066558
 31
0.0000000001127424
  0
LINE
  5
E65B
330
18
100
AcDbEntity
  8
01
100
AcDbLine
 10
4796.509667755703
 20
653.2385355066558
 30
0.0000000001127424
 11
4797.544320465664
 21
653.1632333826324
 31
0.0000000001127424
  0
LINE
  5
E65C
330
18
100
AcDbEntity
  8
01
100
AcDbLine
 10
4797.544320465664
 20
653.1632333826324
 30
0.0000000001127424
 11
4798.599389435391
 21
653.1406045984527
 31
0.0000000001127424
  0
LINE
  5
E65D
330
18
100
AcDbEntity
  8
01
100
AcDbLine
 10
4798.599389435391
 20
653.1406045984527
 30
0.0000000001127424
 11
4799.669564606289
 21
653.1640878748199
 31
0.0000000001127424
  0
LINE
  5
E65E
330
18
100
AcDbEntity
  8
01
100
AcDbLine
 10
4799.669564606289
 20
653.1640878748199
 30
0.0000000001127424
 11
4800.751733185391
 21
653.2276559900542
 31
0.0000000001127424
  0
LINE
  5
E65F
330
18
100
AcDbEntity
  8
01
100
AcDbLine
 10
4800.751733185391
 20
653.2276559900542
 30
0.0000000001127424
 11
4801.843392731289
 21
653.3255868982574
 31
0.0000000001127424
  0
LINE
  5
E660
330
18
100
AcDbEntity
  8
01
100
AcDbLine
 10
4801.843392731289
 20
653.3255868982574
 30
0.0000000001127424
 11
4802.943261505703
 21
653.4529977869292
 31
0.0000000001127424
  0
LINE
  5
E661
330
18
100
AcDbEntity
  8
01
100
AcDbLine
 10
4802.943261505703
 20
653.4529977869292
 30
0.0000000001127424
 11
4804.050347687344
 21
653.6052499841949
 31
0.0000000001127424
  0
LINE
  5
E662
330
18
100
AcDbEntity
  8
01
100
AcDbLine
 10
4804.050347687344
 20
653.6052499841949
 30
0.0000000001127424
 11
4805.163697601894
 21
653.7776895593902
 31
0.0000000001127424
  0
LINE
  5
E663
330
18
100
AcDbEntity
  8
01
100
AcDbLine
 10
4805.163697601894
 20
653.7776895593902
 30
0.0000000001127424
 11
4806.282777191738
 21
653.9661966394683
 31
0.0000000001127424
  0
LINE
  5
E664
330
18
100
AcDbEntity
  8
01
100
AcDbLine
 10
4806.282777191738
 20
653.9661966394683
 30
0.0000000001127424
 11
4807.407410980801
 21
654.1670175623199
 31
0.0000000001127424
  0
LINE
  5
E665
330
18
100
AcDbEntity
  8
01
100
AcDbLine
 10
4807.407410980801
 20
654.1670175623199
 30
0.0000000001127424
 11
4808.537446381191
 21
654.3765359949371
 31
0.0000000001127424
  0
LINE
  5
E666
330
18
100
AcDbEntity
  8
01
100
AcDbLine
 10
4808.537446381191
 20
654.3765359949371
 30
0.0000000001127424
 11
4809.672768951992
 21
654.5917917322417
 31
0.0000000001127424
  0
LINE
  5
E667
330
18
100
AcDbEntity
  8
01
100
AcDbLine
 10
4809.672768951992
 20
654.5917917322417
 30
0.0000000001127424
 11
4810.813294769863
 21
654.810114486148
 31
0.0000000001127424
  0
LINE
  5
E668
330
18
100
AcDbEntity
  8
01
100
AcDbLine
 10
4810.813294769863
 20
654.810114486148
 30
0.0000000001127424
 11
4811.958924652676
 21
655.0287576746246
 31
0.0000000001127424
  0
LINE
  5
E669
330
18
100
AcDbEntity
  8
01
100
AcDbLine
 10
4811.958924652676
 20
655.0287576746246
 30
0.0000000001127424
 11
4813.109559418301
 21
655.2450662683746
 31
0.0000000001127424
  0
LINE
  5
E66A
330
18
100
AcDbEntity
  8
01
100
AcDbLine
 10
4813.109559418301
 20
655.2450662683746
 30
0.0000000001127424
 11
4814.265092255215
 21
655.4567209314605
 31
0.0000000001127424
  0
LINE
  5
E66B
330
18
100
AcDbEntity
  8
01
100
AcDbLine
 10
4814.265092255215
 20
655.4567209314605
 30
0.0000000001127424
 11
4815.425294281582
 21
655.6622415613433
 31
0.0000000001127424
  0
LINE
  5
E66C
330
18
100
AcDbEntity
  8
01
100
AcDbLine
 10
4815.425294281582
 20
655.6622415613433
 30
0.0000000001127424
 11
4816.589997650723
 21
655.8602243494292
 31
0.0000000001127424
  0
LINE
  5
E66D
330
18
100
AcDbEntity
  8
01
100
AcDbLine
 10
4816.589997650723
 20
655.8602243494292
 30
0.0000000001127424
 11
4817.759003998379
 21
656.0492807459136
 31
0.0000000001127424
  0
LINE
  5
E66E
330
18
100
AcDbEntity
  8
01
100
AcDbLine
 10
4817.759003998379
 20
656.0492807459136
 30
0.0000000001127424
 11
4818.932099701504
 21
656.2280069422027
 31
0.0000000001127424
  0
LINE
  5
E66F
330
18
100
AcDbEntity
  8
01
100
AcDbLine
 10
4818.932099701504
 20
656.2280069422027
 30
0.0000000001127424
 11
4820.109040619473
 21
656.3954416345855
 31
0.0000000001127424
  0
LINE
  5
E670
330
18
100
AcDbEntity
  8
01
100
AcDbLine
 10
4820.109040619473
 20
656.3954416345855
 30
0.0000000001127424
 11
4821.289506317715
 21
656.5510965418121
 31
0.0000000001127424
  0
LINE
  5
E671
330
18
100
AcDbEntity
  8
01
100
AcDbLine
 10
4821.289506317715
 20
656.5510965418121
 30
0.0000000001127424
 11
4822.473191620449
 21
656.6945139002105
 31
0.0000000001127424
  0
LINE
  5
E672
330
18
100
AcDbEntity
  8
01
100
AcDbLine
 10
4822.473191620449
 20
656.6945139002105
 30
0.0000000001127424
 11
4823.659821869473
 21
656.8254648279449
 31
0.0000000001127424
  0
LINE
  5
E673
330
18
100
AcDbEntity
  8
01
100
AcDbLine
 10
4823.659821869473
 20
656.8254648279449
 30
0.0000000001127424
 11
4824.84915292416
 21
656.9438425134917
 31
0.0000000001127424
  0
LINE
  5
E674
330
18
100
AcDbEntity
  8
01
100
AcDbLine
 10
4824.84915292416
 20
656.9438425134917
 30
0.0000000001127424
 11
4826.04087960873
 21
657.0496927332183
 31
0.0000000001127424
  0
LINE
  5
E675
330
18
100
AcDbEntity
  8
01
100
AcDbLine
 10
4826.04087960873
 20
657.0496927332183
 30
0.0000000001127424
 11
4827.234605194668
 21
657.1431985925933
 31
0.0000000001127424
  0
LINE
  5
E676
330
18
100
AcDbEntity
  8
01
100
AcDbLine
 10
4827.234605194668
 20
657.1431985925933
 30
0.0000000001127424
 11
4828.429932953457
 21
657.2245279382964
 31
0.0000000001127424
  0
LINE
  5
E677
330
18
100
AcDbEntity
  8
01
100
AcDbLine
 10
4828.429932953457
 20
657.2245279382964
 30
0.0000000001127424
 11
4829.626481415371
 21
657.2938791345855
 31
0.0000000001127424
  0
LINE
  5
E678
330
18
100
AcDbEntity
  8
01
100
AcDbLine
 10
4829.626481415371
 20
657.2938791345855
 30
0.0000000001127424
 11
4830.850678803066
 21
657.3525644373199
 31
0.0000000001127424
  0
LINE
  5
E679
330
18
100
AcDbEntity
  8
01
100
AcDbLine
 10
4805.852448822598
 20
692.7591653894683
 30
0.0000000001127424
 11
4805.836800934414
 21
692.0375925134917
 31
0.0000000001127424
  0
LINE
  5
E67A
330
18
100
AcDbEntity
  8
01
100
AcDbLine
 10
4805.836800934414
 20
692.0375925134917
 30
0.0000000001127424
 11
4805.74434030209
 21
691.3260751795074
 31
0.0000000001127424
  0
LINE
  5
E67B
330
18
100
AcDbEntity
  8
01
100
AcDbLine
 10
4805.74434030209
 20
691.3260751795074
 30
0.0000000001127424
 11
4805.539246918301
 21
690.6408029627105
 31
0.0000000001127424
  0
LINE
  5
E67C
330
18
100
AcDbEntity
  8
01
100
AcDbLine
 10
4805.539246918301
 20
690.6408029627105
 30
0.0000000001127424
 11
4805.223603607754
 21
690.0014139246246
 31
0.0000000001127424
  0
LINE
  5
E67D
330
18
100
AcDbEntity
  8
01
100
AcDbLine
 10
4805.223603607754
 20
690.0014139246246
 30
0.0000000001127424
 11
4804.787476898769
 21
689.3363748621246
 31
0.0000000001127424
  0
LINE
  5
E67E
330
18
100
AcDbEntity
  8
01
100
AcDbLine
 10
4875.586472870449
 20
641.290583236148
 30
0.0000000001127424
 11
4876.059739472012
 21
641.975885970523
 31
0.0000000001127424
  0
LINE
  5
E67F
330
18
100
AcDbEntity
  8
01
100
AcDbLine
 10
4876.059739472012
 20
641.975885970523
 30
0.0000000001127424
 11
4876.476441742519
 21
642.717829329898
 31
0.0000000001127424
  0
LINE
  5
E680
330
18
100
AcDbEntity
  8
01
100
AcDbLine
 10
4876.476441742519
 20
642.717829329898
 30
0.0000000001127424
 11
4876.803590180019
 21
643.514460189273
 31
0.0000000001127424
  0
LINE
  5
E681
330
18
100
AcDbEntity
  8
01
100
AcDbLine
 10
4876.803590180019
 20
643.514460189273
 30
0.0000000001127424
 11
4877.011933685879
 21
644.3545175623199
 31
0.0000000001127424
  0
LINE
  5
E682
330
18
100
AcDbEntity
  8
01
100
AcDbLine
 10
4877.011933685879
 20
644.3545175623199
 30
0.0000000001127424
 11
4877.084031464199
 21
645.2174783777496
 31
0.0000000001127424
  0
LINE
  5
E683
330
18
100
AcDbEntity
  8
01
100
AcDbLine
 10
4877.084031464199
 20
645.2174783777496
 30
0.0000000001127424
 11
4877.016526581387
 21
646.0795236658355
 31
0.0000000001127424
  0
LINE
  5
E684
330
18
100
AcDbEntity
  8
01
100
AcDbLine
 10
4877.016526581387
 20
646.0795236658355
 30
0.0000000001127424
 11
4876.820481659512
 21
646.9190927576324
 31
0.0000000001127424
  0
LINE
  5
E685
330
18
100
AcDbEntity
  8
01
100
AcDbLine
 10
4876.820481659512
 20
646.9190927576324
 30
0.0000000001127424
 11
4876.516068817715
 21
647.7213541101714
 31
0.0000000001127424
  0
LINE
  5
E686
330
18
100
AcDbEntity
  8
01
100
AcDbLine
 10
4876.516068817715
 20
647.7213541101714
 30
0.0000000001127424
 11
4876.127900482754
 21
648.4786630701324
 31
0.0000000001127424
  0
LINE
  5
E687
330
18
100
AcDbEntity
  8
01
100
AcDbLine
 10
4876.127900482754
 20
648.4786630701324
 30
0.0000000001127424
 11
4875.652146698574
 21
649.2323709558746
 31
0.0000000001127424
  0
LINE
  5
E688
330
18
100
AcDbEntity
  8
01
  6
BYBLOCK
100
AcDbLine
 10
4745.155780928598
 20
557.4088116253919
 30
0.0000000001127424
 11
4745.852448822598
 21
560.0088116253919
 31
0.0000000001127424
  0
LINE
  5
E689
330
18
100
AcDbEntity
  8
01
  6
BYBLOCK
100
AcDbLine
 10
4745.852448822598
 20
560.0088116253919
 30
0.0000000001127424
 11
4746.549116716597
 21
557.4088116253919
 31
0.0000000001127424
  0
LINE
  5
E68A
330
18
100
AcDbEntity
  8
01
  6
BYBLOCK
100
AcDbLine
 10
4745.852448822598
 20
560.0088116253919
 30
0.0000000001127424
 11
4745.852448822598
 21
557.4088116253919
 31
0.0000000001127424
  0
LINE
  5
E68B
330
18
100
AcDbEntity
  8
01
  6
BYBLOCK
100
AcDbLine
 10
4746.549116716597
 20
512.6088116253928
 30
0.0000000001127424
 11
4745.852448822598
 21
510.0088116253928
 31
0.0000000001127424
  0
LINE
  5
E68C
330
18
100
AcDbEntity
  8
01
  6
BYBLOCK
100
AcDbLine
 10
4745.852448822598
 20
510.0088116253928
 30
0.0000000001127424
 11
4745.155780928598
 21
512.6088116253928
 31
0.0000000001127424
  0
LINE
  5
E68D
330
18
100
AcDbEntity
  8
01
  6
BYBLOCK
100
AcDbLine
 10
4745.852448822598
 20
510.0088116253928
 30
0.0000000001127424
 11
4745.852448822598
 21
512.6088116253928
 31
0.0000000001127424
  0
TEXT
  5
E68E
330
18
100
AcDbEntity
  8
01
  6
CONTINUOUS
100
AcDbText
 10
4744.942448822598
 20
526.8093087187926
 30
0.0000000001127424
 40
4.55
  1
φ50
 50
90.0
100
AcDbText
1001
ACAD
1000
DSTYLE
1002
{
1070
     3
1000
φ<>
1070
    40
1040
1.3
1070
    45
1040
0.5
1002
}
  0
LINE
  5
E68F
330
18
100
AcDbEntity
  8
1DIM
100
AcDbLine
 10
4843.340592743496
 20
657.367243392398
 30
0.0000000001127424
 11
4937.152448822598
 21
657.3672433923979
 31
0.0000000001127424
1001
ACAD
1000
DSTYLE
1002
{
1070
    40
1040
1.3
1070
    45
1040
0.5
1002
}
  0
LINE
  5
E690
330
18
100
AcDbEntity
  8
1DIM
100
AcDbLine
 10
4883.607596819946
 20
695.0074933122892
 30
0.0000000001127424
 11
4937.152448822598
 21
695.0074933122892
 31
0.0000000001127424
1001
ACAD
1000
DSTYLE
1002
{
1070
    40
1040
1.3
1070
    45
1040
0.5
1002
}
  0
LINE
  5
E691
330
18
100
AcDbEntity
  8
1DIM
100
AcDbLine
 10
4935.852448822598
 20
659.9672433923979
 30
0.0000000001127424
 11
4935.852448822598
 21
692.4074933122891
 31
0.0000000001127424
1001
ACAD
1000
DSTYLE
1002
{
1070
    40
1040
1.3
1070
    45
1040
0.5
1002
}
  0
LINE
  5
E695
330
18
100
AcDbEntity
  8
1DIM
100
AcDbLine
 10
4840.960709930996
 20
632.7309213709136
 30
0.0000000001127424
 11
4947.152448822598
 21
632.7309213709135
 31
0.0000000001127424
1001
ACAD
1000
DSTYLE
1002
{
1070
    40
1040
1.3
1070
    45
1040
0.5
1002
}
  0
LINE
  5
E696
330
18
100
AcDbEntity
  8
1DIM
100
AcDbLine
 10
4883.607596819946
 20
695.0074933122892
 30
0.0000000001127424
 11
4947.152448822598
 21
695.0074933122892
 31
0.0000000001127424
1001
ACAD
1000
DSTYLE
1002
{
1070
    40
1040
1.3
1070
    45
1040
0.5
1002
}
  0
LINE
  5
E697
330
18
100
AcDbEntity
  8
1DIM
100
AcDbLine
 10
4945.852448822598
 20
635.3309213709135
 30
0.0000000001127424
 11
4945.852448822598
 21
692.4074933122891
 31
0.0000000001127424
1001
ACAD
1000
DSTYLE
1002
{
1070
    40
1040
1.3
1070
    45
1040
0.5
1002
}
  0
LINE
  5
E69B
330
18
100
AcDbEntity
  8
1DIM
100
AcDbLine
 10
4780.852448822598
 20
663.5266702817239
 30
0.0000000001127424
 11
4780.852448822598
 21
608.7074933122892
 31
0.0000000001127424
1001
ACAD
1000
DSTYLE
1002
{
1070
    40
1040
1.3
1070
   271
1070
     0
1002
}
  0
LINE
  5
E69C
330
18
100
AcDbEntity
  8
1DIM
100
AcDbLine
 10
4877.084031464199
 20
645.2174783777496
 30
0.0000000001127424
 11
4877.084031464199
 21
608.7074933122892
 31
0.0000000001127424
1001
ACAD
1000
DSTYLE
1002
{
1070
    40
1040
1.3
1070
   271
1070
     0
1002
}
  0
LINE
  5
E69D
330
18
100
AcDbEntity
  8
1DIM
100
AcDbLine
 10
4783.452448822598
 20
610.0074933122892
 30
0.0000000001127424
 11
4874.484031464199
 21
610.0074933122892
 31
0.0000000001127424
1001
ACAD
1000
DSTYLE
1002
{
1070
    40
1040
1.3
1070
   271
1070
     0
1002
}
  0
LINE
  5
E6A1
330
18
100
AcDbEntity
  8
1DIM
100
AcDbLine
 10
4755.852464317094
 20
693.8074933122894
 30
0.0000000001127424
 11
4755.852464317094
 21
598.7074933122892
 31
0.0000000001127424
1001
ACAD
1000
DSTYLE
1002
{
1070
    40
1040
1.3
1070
   271
1070
     0
1002
}
  0
LINE
  5
E6A2
330
18
100
AcDbEntity
  8
1DIM
100
AcDbLine
 10
4877.084031464199
 20
645.2174783777496
 30
0.0000000001127424
 11
4877.084031464199
 21
598.7074933122892
 31
0.0000000001127424
1001
ACAD
1000
DSTYLE
1002
{
1070
    40
1040
1.3
1070
   271
1070
     0
1002
}
  0
LINE
  5
E6A3
330
18
100
AcDbEntity
  8
1DIM
100
AcDbLine
 10
4758.452464317094
 20
600.0074933122892
 30
0.0000000001127424
 11
4874.484031464199
 21
600.0074933122892
 31
0.0000000001127424
1001
ACAD
1000
DSTYLE
1002
{
1070
    40
1040
1.3
1070
   271
1070
     0
1002
}
  0
LINE
  5
E6A7
330
18
100
AcDbEntity
  8
0
  6
BYBLOCK
100
AcDbLine
 10
4936.549116716597
 20
659.9672433923979
 30
0.0000000001127424
 11
4935.852448822598
 21
657.3672433923979
 31
0.0000000001127424
  0
LINE
  5
E6A8
330
18
100
AcDbEntity
  8
0
  6
BYBLOCK
100
AcDbLine
 10
4935.852448822598
 20
657.3672433923979
 30
0.0000000001127424
 11
4935.155780928598
 21
659.9672433923979
 31
0.0000000001127424
  0
LINE
  5
E6A9
330
18
100
AcDbEntity
  8
0
  6
BYBLOCK
100
AcDbLine
 10
4935.852448822598
 20
657.3672433923979
 30
0.0000000001127424
 11
4935.852448822598
 21
659.9672433923979
 31
0.0000000001127424
  0
LINE
  5
E6AA
330
18
100
AcDbEntity
  8
0
  6
BYBLOCK
100
AcDbLine
 10
4935.155780928598
 20
692.4074933122891
 30
0.0000000001127424
 11
4935.852448822598
 21
695.0074933122892
 31
0.0000000001127424
  0
LINE
  5
E6AB
330
18
100
AcDbEntity
  8
0
  6
BYBLOCK
100
AcDbLine
 10
4935.852448822598
 20
695.0074933122892
 30
0.0000000001127424
 11
4936.549116716597
 21
692.4074933122891
 31
0.0000000001127424
  0
LINE
  5
E6AC
330
18
100
AcDbEntity
  8
0
  6
BYBLOCK
100
AcDbLine
 10
4935.852448822598
 20
695.0074933122892
 30
0.0000000001127424
 11
4935.852448822598
 21
692.4074933122891
 31
0.0000000001127424
  0
TEXT
  5
E6AD
330
18
100
AcDbEntity
  8
1DIM
  6
CONTINUOUS
100
AcDbText
 10
4934.942448822597
 20
669.3623683523447
 30
0.0000000001127424
 40
4.55
  1
37.5
 50
90.0
100
AcDbText
1001
ACAD
1000
DSTYLE
1002
{
1070
    40
1040
1.3
1070
    45
1040
0.5
1002
}
  0
LINE
  5
E6AE
330
18
100
AcDbEntity
  8
0
  6
BYBLOCK
100
AcDbLine
 10
4946.549116716597
 20
635.3309213709135
 30
0.0000000001127424
 11
4945.852448822598
 21
632.7309213709135
 31
0.0000000001127424
  0
LINE
  5
E6AF
330
18
100
AcDbEntity
  8
0
  6
BYBLOCK
100
AcDbLine
 10
4945.852448822598
 20
632.7309213709135
 30
0.0000000001127424
 11
4945.155780928598
 21
635.3309213709135
 31
0.0000000001127424
  0
LINE
  5
E6B0
330
18
100
AcDbEntity
  8
0
  6
BYBLOCK
100
AcDbLine
 10
4945.852448822598
 20
632.7309213709135
 30
0.0000000001127424
 11
4945.852448822598
 21
635.3309213709135
 31
0.0000000001127424
  0
LINE
  5
E6B1
330
18
100
AcDbEntity
  8
0
  6
BYBLOCK
100
AcDbLine
 10
4945.155780928598
 20
692.4074933122891
 30
0.0000000001127424
 11
4945.852448822598
 21
695.0074933122892
 31
0.0000000001127424
  0
LINE
  5
E6B2
330
18
100
AcDbEntity
  8
0
  6
BYBLOCK
100
AcDbLine
 10
4945.852448822598
 20
695.0074933122892
 30
0.0000000001127424
 11
4946.549116716597
 21
692.4074933122891
 31
0.0000000001127424
  0
LINE
  5
E6B3
330
18
100
AcDbEntity
  8
0
  6
BYBLOCK
100
AcDbLine
 10
4945.852448822598
 20
695.0074933122892
 30
0.0000000001127424
 11
4945.852448822598
 21
692.4074933122891
 31
0.0000000001127424
  0
TEXT
  5
E6B4
330
18
100
AcDbEntity
  8
1DIM
  6
CONTINUOUS
100
AcDbText
 10
4944.942448822597
 20
657.0284087304908
 30
0.0000000001127424
 40
4.55
  1
62.5
 50
90.0
100
AcDbText
1001
ACAD
1000
DSTYLE
1002
{
1070
    40
1040
1.3
1070
    45
1040
0.5
1002
}
  0
LINE
  5
E6B5
330
18
100
AcDbEntity
  8
0
  6
BYBLOCK
100
AcDbLine
 10
4783.452448822598
 20
609.3108254182891
 30
0.0000000001127424
 11
4780.852448822598
 21
610.0074933122892
 31
0.0000000001127424
  0
LINE
  5
E6B6
330
18
100
AcDbEntity
  8
0
  6
BYBLOCK
100
AcDbLine
 10
4780.852448822598
 20
610.0074933122892
 30
0.0000000001127424
 11
4783.452448822598
 21
610.7041612062892
 31
0.0000000001127424
  0
LINE
  5
E6B7
330
18
100
AcDbEntity
  8
0
  6
BYBLOCK
100
AcDbLine
 10
4780.852448822598
 20
610.0074933122892
 30
0.0000000001127424
 11
4783.452448822598
 21
610.0074933122892
 31
0.0000000001127424
  0
LINE
  5
E6B8
330
18
100
AcDbEntity
  8
0
  6
BYBLOCK
100
AcDbLine
 10
4874.484031464199
 20
610.7041612062892
 30
0.0000000001127424
 11
4877.084031464199
 21
610.0074933122892
 31
0.0000000001127424
  0
LINE
  5
E6B9
330
18
100
AcDbEntity
  8
0
  6
BYBLOCK
100
AcDbLine
 10
4877.084031464199
 20
610.0074933122892
 30
0.0000000001127424
 11
4874.484031464199
 21
609.3108254182891
 31
0.0000000001127424
  0
LINE
  5
E6BA
330
18
100
AcDbEntity
  8
0
  6
BYBLOCK
100
AcDbLine
 10
4877.084031464199
 20
610.0074933122892
 30
0.0000000001127424
 11
4874.484031464199
 21
610.0074933122892
 31
0.0000000001127424
  0
TEXT
  5
E6BB
330
18
100
AcDbEntity
  8
1DIM
  6
CONTINUOUS
100
AcDbText
 10
4822.125335050805
 20
610.9174933122891
 30
0.0000000001127424
 40
4.55
  1
96.5
100
AcDbText
1001
ACAD
1000
DSTYLE
1002
{
1070
    40
1040
1.3
1070
   271
1070
     0
1002
}
  0
LINE
  5
E6BC
330
18
100
AcDbEntity
  8
0
  6
BYBLOCK
100
AcDbLine
 10
4758.452464317094
 20
599.3108254182891
 30
0.0000000001127424
 11
4755.852464317094
 21
600.0074933122892
 31
0.0000000001127424
  0
LINE
  5
E6BD
330
18
100
AcDbEntity
  8
0
  6
BYBLOCK
100
AcDbLine
 10
4755.852464317094
 20
600.0074933122892
 30
0.0000000001127424
 11
4758.452464317094
 21
600.7041612062892
 31
0.0000000001127424
  0
LINE
  5
E6BE
330
18
100
AcDbEntity
  8
0
  6
BYBLOCK
100
AcDbLine
 10
4755.852464317094
 20
600.0074933122892
 30
0.0000000001127424
 11
4758.452464317094
 21
600.0074933122892
 31
0.0000000001127424
  0
LINE
  5
E6BF
330
18
100
AcDbEntity
  8
0
  6
BYBLOCK
100
AcDbLine
 10
4874.484031464199
 20
600.7041612062892
 30
0.0000000001127424
 11
4877.084031464199
 21
600.0074933122892
 31
0.0000000001127424
  0
LINE
  5
E6C0
330
18
100
AcDbEntity
  8
0
  6
BYBLOCK
100
AcDbLine
 10
4877.084031464199
 20
600.0074933122892
 30
0.0000000001127424
 11
4874.484031464199
 21
599.3108254182891
 31
0.0000000001127424
  0
LINE
  5
E6C1
330
18
100
AcDbEntity
  8
0
  6
BYBLOCK
100
AcDbLine
 10
4877.084031464199
 20
600.0074933122892
 30
0.0000000001127424
 11
4874.484031464199
 21
600.0074933122892
 31
0.0000000001127424
  0
TEXT
  5
E6C2
330
18
100
AcDbEntity
  8
1DIM
  6
CONTINUOUS
100
AcDbText
 10
4808.884914557314
 20
600.9174933122891
 30
0.0000000001127424
 40
4.55
  1
121.5
100
AcDbText
1001
ACAD
1000
DSTYLE
1002
{
1070
    40
1040
1.3
1070
   271
1070
     0
1002
}
  0
VIEWPORT
  5
57
330
15
100
AcDbEntity
 67
     1
  8
0
100
AcDbViewport
 68
     1
 10
0.0
 20
0.0
 30
0.0
 40
555.8298653610772
 41
297.0
 68
     1
 69
     1
1001
ACAD
1000
MVIEW
1002
{
1070
    16
1010
0.0
1020
0.0
1030
0.0
1010
0.0
1020
0.0
1030
1.0
1040
0.0
1040
297.0
1040
5.728000000000009
1040
25.339
1040
50.0
1040
0.0
1040
0.0
1070
    16
1070
   100
1070
     0
1070
     1
1070
     0
1070
     0
1070
     0
1070
     0
1040
0.0
1040
0.0
1040
0.0
1040
10.0
1040
10.0
1040
10.0
1040
10.0
1070
     0
1002
{
1002
}
1002
}
  0
ENDSEC
  0
SECTION
  2
OBJECTS
  0
DICTIONARY
  5
C
330
0
100
AcDbDictionary
  3
ACAD_CIP_PREVIOUS_PRODUCT_INFO
350
AEA8
  3
ACAD_COLOR
350
18D
  3
ACAD_GROUP
350
D
  3
ACAD_LAYOUT
350
18E
  3
ACAD_MATERIAL
350
18C
  3
ACAD_MLEADERSTYLE
350
9583
  3
ACAD_MLINESTYLE
350
1B
  3
ACAD_PLOTSETTINGS
350
18F
  3
ACAD_SCALELIST
350
9561
  3
ACAD_VISUALSTYLE
350
9550
  3
ACDBHEADERROUNDTRIPXREC
350
E6C3
  3
ACDBVARIABLEDICTIONARY
350
37
  3
CONTENTDICTIONARY
350
D8
  3
DRAWINGVARIABLESDICT
350
20
  3
DWGPROPS
350
E6C6
1001
ACAD
1000
TREAT_AS_HARD
1070
     0
  0
DICTIONARY
  5
96D9
330
2
100
AcDbDictionary
  3
ACAD_LAYERSTATES
360
96DA
1001
ACAD
1000
TREAT_AS_HARD
1070
     1
  0
DICTIONARY
  5
9593
330
E
100
AcDbDictionary
  3
ADSK_XREC_LAYER_RECONCILED
360
9594
1001
ACAD
1000
TREAT_AS_HARD
1070
     1
  0
DICTIONARY
  5
9595
330
29
100
AcDbDictionary
  3
ADSK_XREC_LAYER_RECONCILED
360
9596
1001
ACAD
1000
TREAT_AS_HARD
1070
     1
  0
DICTIONARY
  5
9597
330
31
100
AcDbDictionary
  3
ADSK_XREC_LAYER_RECONCILED
360
9598
1001
ACAD
1000
TREAT_AS_HARD
1070
     1
  0
DICTIONARY
  5
959D
330
243
100
AcDbDictionary
  3
ADSK_XREC_LAYER_RECONCILED
360
959E
1001
ACAD
1000
TREAT_AS_HARD
1070
     1
  0
DICTIONARY
  5
95A3
330
24E
100
AcDbDictionary
  3
ADSK_XREC_LAYER_RECONCILED
360
95A4
1001
ACAD
1000
TREAT_AS_HARD
1070
     1
  0
DICTIONARY
  5
88F
330
18
100
AcDbDictionary
  3
ACAD_SORTENTS
360
890
1001
ACAD
1000
TREAT_AS_HARD
1070
     1
  0
XRECORD
  5
AEA8
102
{ACAD_REACTORS
330
C
102
}
330
C
100
AcDbXrecord
300
ACDLT
300
2012
300
ACDLT_F_S
  0
DICTIONARY
  5
18D
102
{ACAD_REACTORS
330
C
102
}
330
C
100
AcDbDictionary
1001
ACAD
1000
TREAT_AS_HARD
1070
     0
  0
DICTIONARY
  5
D
102
{ACAD_REACTORS
330
C
102
}
330
C
100
AcDbDictionary
1001
ACAD
1000
TREAT_AS_HARD
1070
     0
  0
DICTIONARY
  5
18E
102
{ACAD_REACTORS
330
C
102
}
330
C
100
AcDbDictionary
1001
ACAD
1000
TREAT_AS_HARD
1070
     0
  0
DICTIONARY
  5
18C
102
{ACAD_REACTORS
330
C
102
}
330
C
100
AcDbDictionary
  3
BYBLOCK
350
9540
  3
BYLAYER
350
9538
  3
GLOBAL
350
9548
1001
ACAD
1000
TREAT_AS_HARD
1070
     0
  0
DICTIONARY
  5
9583
102
{ACAD_REACTORS
330
C
102
}
330
C
100
AcDbDictionary
  3
STANDARD
350
9584
1001
ACAD
1000
TREAT_AS_HARD
1070
     0
  0
DICTIONARY
  5
1B
102
{ACAD_REACTORS
330
C
102
}
330
C
100
AcDbDictionary
  3
STANDARD
350
1C
1001
ACAD
1000
TREAT_AS_HARD
1070
     0
  0
DICTIONARY
  5
18F
102
{ACAD_REACTORS
330
C
102
}
330
C
100
AcDbDictionary
1001
ACAD
1000
TREAT_AS_HARD
1070
     0
  0
DICTIONARY
  5
9561
102
{ACAD_REACTORS
330
C
102
}
330
C
100
AcDbDictionary
  3
A0
350
9562
  3
A1
350
9563
  3
A2
350
9564
  3
A3
350
9565
  3
A4
350
9566
  3
A5
350
9567
  3
A6
350
9568
  3
A7
350
9569
  3
A8
350
956A
  3
A9
350
956B
  3
B0
350
956C
  3
B1
350
956D
  3
B2
350
956E
  3
B3
350
956F
  3
B4
350
9570
  3
B5
350
9571
  3
B6
350
9572
  3
B7
350
9573
  3
B8
350
9574
  3
B9
350
9575
  3
C0
350
9576
  3
C1
350
9577
  3
C2
350
9578
  3
C3
350
9579
  3
C4
350
957A
  3
C5
350
957B
  3
C6
350
957C
  3
C7
350
957D
  3
C8
350
957E
  3
C9
350
957F
  3
D0
350
9580
  3
D1
350
9581
  3
D2
350
9582
1001
ACAD
1000
TREAT_AS_HARD
1070
     0
  0
DICTIONARY
  5
9550
102
{ACAD_REACTORS
330
C
102
}
330
C
100
AcDbDictionary
  3
2DWIREFRAME
350
9556
  3
3D_HIDDEN
350
9558
  3
3DWIREFRAME
350
9557
  3
BASIC
350
9555
  3
BRIGHTEN
350
955C
  3
COLORCHANGE
350
9560
  3
CONCEPTUAL
350
9559
  3
DIM
350
955B
  3
EDGECOLOROFF
350
A211
  3
FACEPATTERN
350
955F
  3
FLAT
350
9551
  3
FLATWITHEDGES
350
9552
  3
GOURAUD
350
9553
  3
GOURAUDWITHEDGES
350
9554
  3
HIDDEN
350
A260
  3
JITTEROFF
350
A20F
  3
LINEPATTERN
350
955E
  3
MODELING
350
A266
  3
OVERHANGOFF
350
A210
  3
REALISTIC
350
955A
  3
SHADED
350
A265
  3
SHADED_WITH_EDGES
350
A264
  3
SHADES_OF_GRAY
350
A261
  3
SKETCHY
350
A262
  3
THICKEN
350
955D
  3
WIREFRAME
350
A25F
  3
X-RAY
350
A263
1001
ACAD
1000
TREAT_AS_HARD
1070
     0
  0
DICTIONARY
  5
E6C3
102
{ACAD_REACTORS
330
C
102
}
330
C
100
AcDbDictionary
  3
COLORDICT
350
E6C4
  3
MATERIALDICT
350
E6C5
1001
ACAD
1000
TREAT_AS_HARD
1070
     0
  0
DICTIONARY
  5
37
102
{ACAD_REACTORS
330
C
102
}
330
C
100
AcDbDictionary
  3
CANNOSCALE
350
AAE0
  3
CMLEADERSTYLE
350
9627
  3
CTABLESTYLE
350
29E
  3
DIMADEC
350
38
  3
DIMASSOC
350
1CE
  3
HIDETEXT
350
704E
  3
INDEXCTL
350
962A
  3
INTERSECTIONCOLOR
350
7052
  3
INTERSECTIONDISPLAY
350
7051
  3
MSLTSCALE
350
AB30
  3
OBSCOLOR
350
704F
  3
OBSLTYPE
350
7050
  3
PROJECTNAME
350
1CF
  3
SORTENTS
350
9629
  3
XCLIPFRAME
350
E38B
1001
ACAD
1000
TREAT_AS_HARD
1070
     0
  0
DICTIONARY
  5
D8
102
{ACAD_REACTORS
330
C
102
}
330
C
100
AcDbDictionary
1001
ACAD
1000
TREAT_AS_HARD
1070
     0
  0
DICTIONARY
  5
20
102
{ACAD_REACTORS
330
C
102
}
330
C
100
AcDbDictionary
1001
DRAWINGVARIABLESXDATA
1000
POLARANG
1000
0.261799387799149410000000
1000
POLARMODE
1000
1
1000
POLARSTYLE
1000
1
1001
ACAD
1000
TREAT_AS_HARD
1070
     0
  0
XRECORD
  5
E6C6
102
{ACAD_REACTORS
330
C
102
}
330
C
100
AcDbXrecord
  1
DWGPROPS COOKIE
  2

  3

  4

  6

  7

  8
3684
  9

300
=
301
=
302
=
303
=
304
=
305
=
306
=
307
=
308
=
309
=
 40
0.0
 41
2451318.246352917
 42
2458159.06165882
  1

 90
        0
  0
DICTIONARY
  5
96DA
102
{ACAD_REACTORS
330
96D9
102
}
330
96D9
100
AcDbDictionary
1001
ACAD
1000
TREAT_AS_HARD
1070
     0
  0
ACAD_PROXY_OBJECT
  5
9594
102
{ACAD_REACTORS
330
9593
102
}
330
9593
100
AcDbZombieObject
 90
      499
 91
      514
 93
       34
310
40C8804040
  0
ACAD_PROXY_OBJECT
  5
9596
102
{ACAD_REACTORS
330
9595
102
}
330
9595
100
AcDbZombieObject
 90
      499
 91
      514
 93
       34
310
40C8804040
  0
ACAD_PROXY_OBJECT
  5
9598
102
{ACAD_REACTORS
330
9597
102
}
330
9597
100
AcDbZombieObject
 90
      499
 91
      514
 93
       34
310
40C8804040
  0
ACAD_PROXY_OBJECT
  5
959E
102
{ACAD_REACTORS
330
959D
102
}
330
959D
100
AcDbZombieObject
 90
      499
 91
      514
 93
       34
310
40C8804040
  0
ACAD_PROXY_OBJECT
  5
95A4
102
{ACAD_REACTORS
330
95A3
102
}
330
95A3
100
AcDbZombieObject
 90
      499
 91
      514
 93
       34
310
40C8804040
  0
SORTENTSTABLE
  5
890
102
{ACAD_REACTORS
330
88F
102
}
330
88F
100
AcDbSortentsTable
330
18
331
E2C2
  5
E2D5
331
E2C3
  5
E2D7
331
E2C4
  5
E2D8
331
0
  5
E2D9
331
0
  5
E2DA
331
E2C7
  5
E42F
331
E2C8
  5
E430
331
E2C9
  5
E431
331
E2CA
  5
E432
331
E2CB
  5
E433
331
E2CC
  5
E434
331
E2CD
  5
E435
331
E2CE
  5
E436
331
E2D5
  5
E4DE
331
E2D7
  5
E4E4
331
E2D8
  5
E4E5
331
E2D9
  5
E4E6
331
E2DA
  5
E4E7
331
E2DB
  5
E4E8
331
E2E0
  5
E5CF
331
E2E1
  5
E5D0
331
E2E2
  5
E5D1
331
0
  5
E5B4
331
E2E4
  5
E5DC
331
E2E5
  5
E5DD
331
E2E6
  5
E5DE
331
E2E7
  5
E5DF
331
E2EE
  5
E6AC
331
E2EF
  5
E6AD
331
E2F1
  5
E6B8
331
0
  5
E68E
331
E422
  5
E2C2
331
E423
  5
E2C3
331
E424
  5
E2C4
331
0
  5
E2C5
331
0
  5
E2C6
331
0
  5
E2C7
331
E428
  5
E437
331
E429
  5
E438
331
E42A
  5
E439
331
E42B
  5
E43A
331
E42C
  5
E43B
331
E42D
  5
E43C
331
E42E
  5
E43D
331
E42F
  5
E43E
331
E430
  5
E43F
331
E431
  5
E440
331
E432
  5
E441
331
E433
  5
E442
331
E434
  5
E443
331
E435
  5
E444
331
E436
  5
E445
331
E437
  5
E446
331
E438
  5
E447
331
E439
  5
E448
331
E43A
  5
E449
331
E43B
  5
E44A
331
E43C
  5
E44B
331
E43D
  5
E44C
331
E43E
  5
E44D
331
E43F
  5
E44E
331
E440
  5
E44F
331
E441
  5
E450
331
E442
  5
E451
331
E443
  5
E452
331
E444
  5
E453
331
E445
  5
E454
331
E446
  5
E455
331
E447
  5
E456
331
E448
  5
E457
331
E449
  5
E458
331
E44A
  5
E459
331
E44B
  5
E45A
331
E44C
  5
E45B
331
E44D
  5
E45C
331
E44E
  5
E45D
331
E44F
  5
E45E
331
E450
  5
E45F
331
E451
  5
E460
331
E452
  5
E461
331
E453
  5
E462
331
E454
  5
E463
331
E455
  5
E464
331
E456
  5
E465
331
E457
  5
E466
331
E458
  5
E467
331
E459
  5
E468
331
E45A
  5
E469
331
E45B
  5
E46A
331
E45C
  5
E46B
331
E45D
  5
E46C
331
E45E
  5
E46D
331
E45F
  5
E46E
331
E460
  5
E46F
331
E461
  5
E470
331
E462
  5
E471
331
E463
  5
E472
331
E464
  5
E473
331
E465
  5
E474
331
E466
  5
E475
331
E467
  5
E476
331
E468
  5
E477
331
E469
  5
E478
331
E46A
  5
E479
331
E46B
  5
E47A
331
E46C
  5
E47B
331
E46D
  5
E47C
331
E46E
  5
E47D
331
E46F
  5
E47E
331
E470
  5
E47F
331
E471
  5
E480
331
E472
  5
E481
331
E473
  5
E482
331
E474
  5
E483
331
E475
  5
E484
331
E476
  5
E485
331
E477
  5
E486
331
E478
  5
E487
331
E479
  5
E488
331
E47A
  5
E489
331
E47B
  5
E48A
331
E47C
  5
E48B
331
E47D
  5
E48C
331
E47E
  5
E48D
331
E47F
  5
E48E
331
E480
  5
E48F
331
E481
  5
E490
331
E482
  5
E491
331
E483
  5
E492
331
E484
  5
E493
331
E485
  5
E494
331
E486
  5
E495
331
E487
  5
E496
331
E488
  5
E497
331
E489
  5
E498
331
E48A
  5
E499
331
E48B
  5
E49A
331
E48C
  5
E49B
331
E48D
  5
E49C
331
E48E
  5
E49D
331
E48F
  5
E49E
331
E490
  5
E49F
331
E491
  5
E4A0
331
E492
  5
E4A1
331
E493
  5
E4A2
331
E494
  5
E4A3
331
E495
  5
E4A4
331
E496
  5
E4A5
331
E497
  5
E4A6
331
E498
  5
E4A7
331
E499
  5
E4A8
331
E49A
  5
E4A9
331
E49B
  5
E4AA
331
E49C
  5
E4AB
331
E49D
  5
E4AC
331
E49E
  5
E4AD
331
E49F
  5
E4AE
331
E4A0
  5
E4AF
331
E4A1
  5
E4B0
331
E4A2
  5
E4B1
331
E4A3
  5
E4B2
331
E4A4
  5
E4B3
331
E4A5
  5
E4B4
331
E4A6
  5
E4B5
331
E4A7
  5
E4B6
331
E4A8
  5
E4B7
331
E4A9
  5
E4B8
331
E4AA
  5
E4B9
331
E4AB
  5
E4BA
331
E4AC
  5
E4BB
331
E4AD
  5
E4BC
331
E4AE
  5
E4BD
331
E4AF
  5
E4BE
331
E4B0
  5
E4BF
331
E4B1
  5
E4C0
331
E4B2
  5
E4C1
331
E4B3
  5
E4C2
331
E4B4
  5
E4C3
331
E4B5
  5
E4C4
331
E4B6
  5
E4C5
331
E4B7
  5
E4C6
331
E4B8
  5
E4C7
331
E4B9
  5
E4C8
331
E4BA
  5
E4C9
331
E4BB
  5
E4CA
331
E4BC
  5
E4CB
331
E4BD
  5
E4CC
331
E4BE
  5
E4CD
331
E4BF
  5
E4CE
331
E4C0
  5
E4CF
331
E4C1
  5
E4D0
331
E4C2
  5
E4D1
331
E4C3
  5
E4D2
331
E4C4
  5
E4D3
331
E4C5
  5
E4D4
331
E4C6
  5
E4D5
331
E4C7
  5
E4D6
331
E4C8
  5
E4D7
331
E4C9
  5
E4D8
331
E4CA
  5
E4D9
331
E4CB
  5
E4DA
331
E4CC
  5
E4DB
331
E4CD
  5
E4DC
331
E4CE
  5
E4DD
331
E4CF
  5
E4DF
331
E4D0
  5
E4E0
331
E4D1
  5
E4E1
331
E4D2
  5
E4E2
331
E4D3
  5
E4E3
331
E4D4
  5
E4E9
331
E4D5
  5
E4EA
331
E4D6
  5
E4EB
331
E4D7
  5
E4EC
331
E4D8
  5
E4ED
331
E4D9
  5
E4EE
331
E4DA
  5
E4EF
331
E4DB
  5
E4F0
331
E4DC
  5
E4F1
331
E4DD
  5
E4F2
331
E4DE
  5
E4F3
331
E4DF
  5
E4F4
331
E4E0
  5
E4F5
331
E4E1
  5
E4F6
331
E4E2
  5
E4F7
331
E4E3
  5
E4F8
331
E4E4
  5
E4F9
331
E4E5
  5
E4FA
331
E4E6
  5
E4FB
331
E4E7
  5
E4FC
331
E4E8
  5
E4FD
331
E4E9
  5
E4FE
331
E4EA
  5
E4FF
331
E4EB
  5
E500
331
E4EC
  5
E501
331
E4ED
  5
E502
331
E4EE
  5
E503
331
E4EF
  5
E504
331
E4F0
  5
E505
331
E4F1
  5
E506
331
E4F2
  5
E507
331
E4F3
  5
E508
331
E4F4
  5
E509
331
E4F5
  5
E50A
331
E4F6
  5
E50B
331
E4F7
  5
E50C
331
E4F8
  5
E50D
331
E4F9
  5
E50E
331
E4FA
  5
E50F
331
E4FB
  5
E510
331
E4FC
  5
E511
331
E4FD
  5
E512
331
E4FE
  5
E513
331
E4FF
  5
E514
331
E500
  5
E515
331
E501
  5
E516
331
E502
  5
E517
331
E503
  5
E518
331
E504
  5
E519
331
E505
  5
E51A
331
E506
  5
E51B
331
E507
  5
E51C
331
E508
  5
E51D
331
E509
  5
E51E
331
E50A
  5
E51F
331
E50B
  5
E520
331
E50C
  5
E521
331
E50D
  5
E522
331
E50E
  5
E523
331
E50F
  5
E524
331
E510
  5
E525
331
E511
  5
E526
331
E512
  5
E527
331
E513
  5
E528
331
E514
  5
E529
331
E515
  5
E52A
331
E516
  5
E52B
331
E517
  5
E52C
331
E518
  5
E52D
331
E519
  5
E52E
331
E51A
  5
E52F
331
E51B
  5
E530
331
E51C
  5
E531
331
E51D
  5
E532
331
E51E
  5
E533
331
E51F
  5
E534
331
E520
  5
E535
331
E521
  5
E536
331
E522
  5
E537
331
E523
  5
E538
331
E524
  5
E539
331
E525
  5
E53A
331
E526
  5
E53B
331
E527
  5
E53C
331
E528
  5
E53D
331
E529
  5
E53E
331
E52A
  5
E53F
331
E52B
  5
E540
331
E52C
  5
E541
331
E52D
  5
E542
331
E52E
  5
E543
331
E52F
  5
E544
331
E530
  5
E545
331
E531
  5
E546
331
E532
  5
E547
331
E533
  5
E548
331
E534
  5
E549
331
E535
  5
E54A
331
E536
  5
E54B
331
E537
  5
E54C
331
E538
  5
E54D
331
E539
  5
E54E
331
E53A
  5
E54F
331
E53B
  5
E550
331
E53C
  5
E551
331
E53D
  5
E552
331
E53E
  5
E553
331
E53F
  5
E554
331
E540
  5
E555
331
E541
  5
E556
331
E542
  5
E557
331
E543
  5
E558
331
E544
  5
E559
331
E545
  5
E55A
331
E546
  5
E55B
331
E547
  5
E55C
331
E548
  5
E55D
331
E549
  5
E55E
331
E54A
  5
E55F
331
E54B
  5
E560
331
E54C
  5
E561
331
E54D
  5
E562
331
E54E
  5
E563
331
E54F
  5
E564
331
E550
  5
E565
331
E551
  5
E566
331
E552
  5
E567
331
E553
  5
E568
331
E554
  5
E569
331
E555
  5
E56A
331
E556
  5
E56B
331
E557
  5
E56C
331
E558
  5
E56D
331
E559
  5
E56E
331
E55A
  5
E56F
331
E55B
  5
E570
331
E55C
  5
E571
331
E55D
  5
E572
331
E55E
  5
E573
331
E55F
  5
E574
331
E560
  5
E575
331
E561
  5
E576
331
E562
  5
E577
331
E563
  5
E578
331
E564
  5
E579
331
E565
  5
E57A
331
E566
  5
E57B
331
E567
  5
E57C
331
E568
  5
E57D
331
E569
  5
E57E
331
E56A
  5
E57F
331
E56B
  5
E580
331
E56C
  5
E581
331
E56D
  5
E582
331
E56E
  5
E583
331
E56F
  5
E584
331
E570
  5
E585
331
E571
  5
E586
331
E572
  5
E587
331
E573
  5
E588
331
E574
  5
E589
331
E575
  5
E58A
331
E576
  5
E58B
331
E577
  5
E58C
331
E578
  5
E58D
331
E579
  5
E58E
331
E57A
  5
E58F
331
E57B
  5
E590
331
E57C
  5
E591
331
E57D
  5
E592
331
E57E
  5
E593
331
E57F
  5
E594
331
E580
  5
E595
331
E581
  5
E596
331
E582
  5
E597
331
E583
  5
E598
331
E584
  5
E599
331
E585
  5
E59A
331
E586
  5
E59B
331
E587
  5
E59C
331
E588
  5
E59D
331
E589
  5
E59E
331
E58A
  5
E59F
331
E58B
  5
E5A0
331
E58C
  5
E5A1
331
E58D
  5
E5A2
331
E58E
  5
E5A3
331
E58F
  5
E5A4
331
E590
  5
E5A5
331
E591
  5
E5A6
331
E592
  5
E5A7
331
E593
  5
E5A8
331
E594
  5
E5A9
331
E595
  5
E5AA
331
E596
  5
E5AB
331
E597
  5
E5AC
331
E598
  5
E5AD
331
E599
  5
E5AE
331
E59A
  5
E5AF
331
E59B
  5
E5B0
331
E59C
  5
E5B1
331
E59D
  5
E5B2
331
E59E
  5
E5B3
331
E59F
  5
E5B5
331
E5A0
  5
E5B6
331
E5A1
  5
E5B7
331
E5A2
  5
E5B8
331
E5A3
  5
E5B9
331
E5A4
  5
E5BA
331
E5A5
  5
E5BB
331
E5A6
  5
E5BC
331
E5A7
  5
E5BD
331
E5A8
  5
E5BE
331
E5A9
  5
E5BF
331
E5AA
  5
E5C0
331
E5AB
  5
E5C1
331
E5AC
  5
E5C2
331
E5AD
  5
E5C3
331
E5AE
  5
E5C7
331
E5AF
  5
E5C8
331
E5B0
  5
E5C9
331
E5B1
  5
E5CA
331
E5B2
  5
E5CB
331
E5B3
  5
E5CC
331
E5B4
  5
E5CD
331
E5B5
  5
E5CE
331
E5B6
  5
E5E0
331
E5B7
  5
E5E1
331
E5B8
  5
E5E2
331
E5B9
  5
E5E3
331
E5BA
  5
E5E4
331
E5BB
  5
E5E5
331
E5BC
  5
E5E6
331
E5BD
  5
E5E7
331
E5BE
  5
E5E8
331
E5BF
  5
E5E9
331
E5C0
  5
E5EA
331
E5C1
  5
E5EB
331
E5C2
  5
E5EC
331
E5C3
  5
E5ED
331
E5C4
  5
E5EE
331
E5C5
  5
E5EF
331
E5C6
  5
E5F0
331
E5C7
  5
E5F1
331
E5C8
  5
E5F2
331
E5C9
  5
E5F3
331
E5CA
  5
E5F4
331
E5CB
  5
E5F5
331
E5CC
  5
E5F6
331
E5CD
  5
E5F7
331
E5CE
  5
E5F8
331
E5CF
  5
E5F9
331
E5D0
  5
E5FA
331
E5D1
  5
E5FB
331
E5D2
  5
E5FC
331
E5D3
  5
E5FD
331
E5D4
  5
E5FE
331
E5D5
  5
E5FF
331
E5D6
  5
E600
331
E5D7
  5
E601
331
E5D8
  5
E602
331
E5D9
  5
E603
331
E5DA
  5
E604
331
E5DB
  5
E605
331
E5DC
  5
E606
331
E5DD
  5
E607
331
E5DE
  5
E608
331
E5DF
  5
E609
331
E5E0
  5
E60A
331
E5E1
  5
E60B
331
E5E2
  5
E60C
331
E5E3
  5
E60D
331
E5E4
  5
E60E
331
E5E5
  5
E60F
331
E5E6
  5
E610
331
E5E7
  5
E611
331
E5E8
  5
E612
331
E5E9
  5
E613
331
E5EA
  5
E614
331
E5EB
  5
E615
331
E5EC
  5
E616
331
E5ED
  5
E617
331
E5EE
  5
E618
331
E5EF
  5
E619
331
E5F0
  5
E61A
331
E5F1
  5
E61B
331
E5F2
  5
E61C
331
E5F3
  5
E61D
331
E5F4
  5
E61E
331
E5F5
  5
E61F
331
E5F6
  5
E620
331
E5F7
  5
E621
331
E5F8
  5
E622
331
E5F9
  5
E623
331
E5FA
  5
E624
331
E5FB
  5
E625
331
E5FC
  5
E626
331
E5FD
  5
E627
331
E5FE
  5
E628
331
E5FF
  5
E629
331
E600
  5
E62A
331
E601
  5
E62B
331
E602
  5
E62C
331
E603
  5
E62D
331
E604
  5
E62E
331
E605
  5
E62F
331
E606
  5
E630
331
E607
  5
E631
331
E608
  5
E632
331
E609
  5
E633
331
E60A
  5
E634
331
E60B
  5
E635
331
E60C
  5
E636
331
E60D
  5
E637
331
E60E
  5
E638
331
E60F
  5
E639
331
E610
  5
E63A
331
E611
  5
E63B
331
E612
  5
E63C
331
E613
  5
E63D
331
E614
  5
E63E
331
E615
  5
E63F
331
E616
  5
E640
331
E617
  5
E641
331
E618
  5
E642
331
E619
  5
E643
331
E61A
  5
E644
331
E61B
  5
E645
331
E61C
  5
E646
331
E61D
  5
E647
331
E61E
  5
E648
331
E61F
  5
E649
331
E620
  5
E64A
331
E621
  5
E64B
331
E622
  5
E64C
331
E623
  5
E64D
331
E624
  5
E64E
331
E625
  5
E64F
331
E626
  5
E650
331
E627
  5
E651
331
E628
  5
E652
331
E629
  5
E653
331
E62A
  5
E654
331
E62B
  5
E655
331
E62C
  5
E656
331
E62D
  5
E657
331
E62E
  5
E658
331
E62F
  5
E659
331
E630
  5
E65A
331
E631
  5
E65B
331
E632
  5
E65C
331
E633
  5
E65D
331
E634
  5
E65E
331
E635
  5
E65F
331
E636
  5
E660
331
E637
  5
E661
331
E638
  5
E662
331
E639
  5
E663
331
E63A
  5
E664
331
E63B
  5
E665
331
E63C
  5
E666
331
E63D
  5
E667
331
E63E
  5
E668
331
E63F
  5
E669
331
E640
  5
E66A
331
E641
  5
E66B
331
E642
  5
E66C
331
E643
  5
E66D
331
E644
  5
E66E
331
E645
  5
E66F
331
E646
  5
E670
331
E647
  5
E671
331
E648
  5
E672
331
E649
  5
E673
331
E64A
  5
E674
331
E64B
  5
E675
331
E64C
  5
E676
331
E64D
  5
E677
331
E64E
  5
E678
331
E64F
  5
E679
331
E650
  5
E67A
331
E651
  5
E67B
331
E652
  5
E67C
331
E653
  5
E67D
331
E654
  5
E67E
331
E655
  5
E67F
331
E656
  5
E680
331
E657
  5
E681
331
E658
  5
E682
331
E659
  5
E683
331
E65A
  5
E684
331
E65B
  5
E685
331
E65C
  5
E686
331
E65D
  5
E687
331
E65E
  5
E688
331
E65F
  5
E689
331
E660
  5
E68A
331
E661
  5
E68B
331
E662
  5
E68C
331
E663
  5
E68D
331
E664
  5
E68F
331
E665
  5
E690
331
E666
  5
E691
331
E667
  5
E692
331
E668
  5
E693
331
E669
  5
E694
331
E66A
  5
E695
331
E66B
  5
E696
331
E66C
  5
E697
331
E66D
  5
E698
331
E66E
  5
E699
331
E66F
  5
E69A
331
E670
  5
E69B
331
E671
  5
E69C
331
E672
  5
E69D
331
E673
  5
E69E
331
E674
  5
E69F
331
E675
  5
E6A0
331
E676
  5
E6A1
331
E677
  5
E6A2
331
E678
  5
E6A3
331
E679
  5
E6A7
331
E67A
  5
E6A8
331
E67B
  5
E6A9
331
E67C
  5
E6AA
331
E67D
  5
E6AB
331
E67E
  5
E6AE
331
E67F
  5
E6AF
331
E680
  5
E6B0
331
E681
  5
E6B1
331
E682
  5
E6B2
331
E683
  5
E6B3
331
E684
  5
E6B4
331
E685
  5
E6B5
331
E686
  5
E6B6
331
E687
  5
E6B7
331
E688
  5
E2C8
331
E689
  5
E2C9
331
E68A
  5
E2CA
331
E68B
  5
E2CB
331
E68C
  5
E2CC
331
E68D
  5
E2CD
331
E68E
  5
E2CE
331
E68F
  5
E2DB
331
E690
  5
E2E0
331
E691
  5
E2E1
331
0
  5
E2E2
331
0
  5
E2E3
331
0
  5
E2E4
331
E695
  5
E425
331
E696
  5
E426
331
E697
  5
E427
331
0
  5
E2EE
331
0
  5
E2EF
331
0
  5
E2F1
331
E69B
  5
E5D2
331
E69C
  5
E5D3
331
E69D
  5
E5D4
331
0
  5
E5C4
331
0
  5
E5C5
331
0
  5
E5C6
331
E6A1
  5
E6B9
331
E6A2
  5
E6BA
331
E6A3
  5
E6BB
331
E6A7
  5
E2E5
331
E6A8
  5
E2E6
331
E6A9
  5
E2E7
331
E6AA
  5
E2F2
331
E6AB
  5
E422
331
E6AC
  5
E423
331
E6AD
  5
E424
331
E6AE
  5
E428
331
E6AF
  5
E429
331
E6B0
  5
E42A
331
E6B1
  5
E42B
331
E6B2
  5
E42C
331
E6B3
  5
E42D
331
E6B4
  5
E42E
331
E6B5
  5
E5D5
331
E6B6
  5
E5D6
331
E6B7
  5
E5D7
331
E6B8
  5
E5D8
331
E6B9
  5
E5D9
331
E6BA
  5
E5DA
331
E6BB
  5
E5DB
  0
MATERIAL
  5
9540
102
{ACAD_REACTORS
330
18C
102
}
102
{ACAD_XDICTIONARY
360
E861
102
}
330
18C
100
AcDbMaterial
  1
BYBLOCK
 72
     0
 73
     2
 43
0.0208333333333333
 43
0.0
 43
0.0
 43
0.0
 43
0.0
 43
0.0208333333333333
 43
0.0
 43
0.0
 43
0.0
 43
0.0
 43
1.0
 43
0.0
 43
0.0
 43
0.0
 43
0.0
 43
1.0
 77
     0
 78
     2
 47
0.0208333333333333
 47
0.0
 47
0.0
 47
0.0
 47
0.0
 47
0.0208333333333333
 47
0.0
 47
0.0
 47
0.0
 47
0.0
 47
1.0
 47
0.0
 47
0.0
 47
0.0
 47
0.0
 47
1.0
171
     0
172
     2
 49
0.0208333333333333
 49
0.0
 49
0.0
 49
0.0
 49
0.0
 49
0.0208333333333333
 49
0.0
 49
0.0
 49
0.0
 49
0.0
 49
1.0
 49
0.0
 49
0.0
 49
0.0
 49
0.0
 49
1.0
175
     0
176
     2
142
0.0208333333333333
142
0.0
142
0.0
142
0.0
142
0.0
142
0.0208333333333333
142
0.0
142
0.0
142
0.0
142
0.0
142
1.0
142
0.0
142
0.0
142
0.0
142
0.0
142
1.0
179
     0
270
     2
144
0.0208333333333333
144
0.0
144
0.0
144
0.0
144
0.0
144
0.0208333333333333
144
0.0
144
0.0
144
0.0
144
0.0
144
1.0
144
0.0
144
0.0
144
0.0
144
0.0
144
1.0
274
     2
147
0.0208333333333333
147
0.0
147
0.0
147
0.0
147
0.0
147
0.0208333333333333
147
0.0
147
0.0
147
0.0
147
0.0
147
1.0
147
0.0
147
0.0
147
0.0
147
0.0
147
1.0
  0
MATERIAL
  5
9538
102
{ACAD_REACTORS
330
18C
102
}
102
{ACAD_XDICTIONARY
360
E863
102
}
330
18C
100
AcDbMaterial
  1
BYLAYER
 72
     0
 73
     2
 43
0.0208333333333333
 43
0.0
 43
0.0
 43
0.0
 43
0.0
 43
0.0208333333333333
 43
0.0
 43
0.0
 43
0.0
 43
0.0
 43
1.0
 43
0.0
 43
0.0
 43
0.0
 43
0.0
 43
1.0
 77
     0
 78
     2
 47
0.0208333333333333
 47
0.0
 47
0.0
 47
0.0
 47
0.0
 47
0.0208333333333333
 47
0.0
 47
0.0
 47
0.0
 47
0.0
 47
1.0
 47
0.0
 47
0.0
 47
0.0
 47
0.0
 47
1.0
171
     0
172
     2
 49
0.0208333333333333
 49
0.0
 49
0.0
 49
0.0
 49
0.0
 49
0.0208333333333333
 49
0.0
 49
0.0
 49
0.0
 49
0.0
 49
1.0
 49
0.0
 49
0.0
 49
0.0
 49
0.0
 49
1.0
175
     0
176
     2
142
0.0208333333333333
142
0.0
142
0.0
142
0.0
142
0.0
142
0.0208333333333333
142
0.0
142
0.0
142
0.0
142
0.0
142
1.0
142
0.0
142
0.0
142
0.0
142
0.0
142
1.0
179
     0
270
     2
144
0.0208333333333333
144
0.0
144
0.0
144
0.0
144
0.0
144
0.0208333333333333
144
0.0
144
0.0
144
0.0
144
0.0
144
1.0
144
0.0
144
0.0
144
0.0
144
0.0
144
1.0
274
     2
147
0.0208333333333333
147
0.0
147
0.0
147
0.0
147
0.0
147
0.0208333333333333
147
0.0
147
0.0
147
0.0
147
0.0
147
1.0
147
0.0
147
0.0
147
0.0
147
0.0
147
1.0
  0
MATERIAL
  5
9548
102
{ACAD_REACTORS
330
18C
102
}
102
{ACAD_XDICTIONARY
360
E865
102
}
330
18C
100
AcDbMaterial
  1
GLOBAL
 72
     0
 73
     2
 43
0.0208333333333333
 43
0.0
 43
0.0
 43
0.0
 43
0.0
 43
0.0208333333333333
 43
0.0
 43
0.0
 43
0.0
 43
0.0
 43
1.0
 43
0.0
 43
0.0
 43
0.0
 43
0.0
 43
1.0
 77
     0
 78
     2
 47
0.0208333333333333
 47
0.0
 47
0.0
 47
0.0
 47
0.0
 47
0.0208333333333333
 47
0.0
 47
0.0
 47
0.0
 47
0.0
 47
1.0
 47
0.0
 47
0.0
 47
0.0
 47
0.0
 47
1.0
171
     0
172
     2
 49
0.0208333333333333
 49
0.0
 49
0.0
 49
0.0
 49
0.0
 49
0.0208333333333333
 49
0.0
 49
0.0
 49
0.0
 49
0.0
 49
1.0
 49
0.0
 49
0.0
 49
0.0
 49
0.0
 49
1.0
175
     0
176
     2
142
0.0208333333333333
142
0.0
142
0.0
142
0.0
142
0.0
142
0.0208333333333333
142
0.0
142
0.0
142
0.0
142
0.0
142
1.0
142
0.0
142
0.0
142
0.0
142
0.0
142
1.0
179
     0
270
     2
144
0.0208333333333333
144
0.0
144
0.0
144
0.0
144
0.0
144
0.0208333333333333
144
0.0
144
0.0
144
0.0
144
0.0
144
1.0
144
0.0
144
0.0
144
0.0
144
0.0
144
1.0
274
     2
147
0.0208333333333333
147
0.0
147
0.0
147
0.0
147
0.0
147
0.0208333333333333
147
0.0
147
0.0
147
0.0
147
0.0
147
1.0
147
0.0
147
0.0
147
0.0
147
0.0
147
1.0
  0
ACAD_PROXY_OBJECT
  5
9584
102
{ACAD_REACTORS
330
9583
102
}
330
9583
100
AcDbZombieObject
 90
      499
 91
      511
 93
      610
310
40901902A4063FBFFFFFE000000000000002040AD7A3703D0AD73F4214DD185B99185C990000000000000104090141901A00000000000004100000000000000041025764000000000000300FC0
340
12
340
0
340
F
340
0
 94
        0
1001
ACAD_MLEADERVER
1070
     2
  0
MLINESTYLE
  5
1C
102
{ACAD_REACTORS
330
1B
102
}
330
1B
100
AcDbMlineStyle
  2
STANDARD
 70
     0
  3

 62
   256
 51
90.0
 52
90.0
 71
     2
 49
0.5
 62
   256
  6
BYLAYER
 49
-0.5
 62
   256
  6
BYLAYER
  0
ACAD_PROXY_OBJECT
  5
9562
102
{ACAD_REACTORS
330
9561
102
}
330
9561
100
AcDbZombieObject
 90
      499
 91
      510
 93
       41
310
903313A31580
  0
ACAD_PROXY_OBJECT
  5
9563
102
{ACAD_REACTORS
330
9561
102
}
330
9561
100
AcDbZombieObject
 90
      499
 91
      510
 93
      105
310
903313A324000000000000004000
  0
ACAD_PROXY_OBJECT
  5
9564
102
{ACAD_REACTORS
330
9561
102
}
330
9561
100
AcDbZombieObject
 90
      499
 91
      510
 93
      105
310
903313A344000000000000104000
  0
ACAD_PROXY_OBJECT
  5
9565
102
{ACAD_REACTORS
330
9561
102
}
330
9561
100
AcDbZombieObject
 90
      499
 91
      510
 93
      105
310
903313A354000000000000144000
  0
ACAD_PROXY_OBJECT
  5
9566
102
{ACAD_REACTORS
330
9561
102
}
330
9561
100
AcDbZombieObject
 90
      499
 91
      510
 93
      105
310
903313A384000000000000204000
  0
ACAD_PROXY_OBJECT
  5
9567
102
{ACAD_REACTORS
330
9561
102
}
330
9561
100
AcDbZombieObject
 90
      499
 91
      510
 93
      113
310
904313A31304000000000000244000
  0
ACAD_PROXY_OBJECT
  5
9568
102
{ACAD_REACTORS
330
9561
102
}
330
9561
100
AcDbZombieObject
 90
      499
 91
      510
 93
      113
310
904313A31364000000000000304000
  0
ACAD_PROXY_OBJECT
  5
9569
102
{ACAD_REACTORS
330
9561
102
}
330
9561
100
AcDbZombieObject
 90
      499
 91
      510
 93
      113
310
904313A32304000000000000344000
  0
ACAD_PROXY_OBJECT
  5
956A
102
{ACAD_REACTORS
330
9561
102
}
330
9561
100
AcDbZombieObject
 90
      499
 91
      510
 93
      113
310
904313A333040000000000003E4000
  0
ACAD_PROXY_OBJECT
  5
956B
102
{ACAD_REACTORS
330
9561
102
}
330
9561
100
AcDbZombieObject
 90
      499
 91
      510
 93
      113
310
904313A34304000000000000444000
  0
ACAD_PROXY_OBJECT
  5
956C
102
{ACAD_REACTORS
330
9561
102
}
330
9561
100
AcDbZombieObject
 90
      499
 91
      510
 93
      113
310
904313A35304000000000000494000
  0
ACAD_PROXY_OBJECT
  5
956D
102
{ACAD_REACTORS
330
9561
102
}
330
9561
100
AcDbZombieObject
 90
      499
 91
      510
 93
      121
310
905313A3130304000000000000594000
  0
ACAD_PROXY_OBJECT
  5
956E
102
{ACAD_REACTORS
330
9561
102
}
330
9561
100
AcDbZombieObject
 90
      499
 91
      510
 93
      105
310
903323A310000000000000010100
  0
ACAD_PROXY_OBJECT
  5
956F
102
{ACAD_REACTORS
330
9561
102
}
330
9561
100
AcDbZombieObject
 90
      499
 91
      510
 93
      105
310
903343A310000000000000410100
  0
ACAD_PROXY_OBJECT
  5
9570
102
{ACAD_REACTORS
330
9561
102
}
330
9561
100
AcDbZombieObject
 90
      499
 91
      510
 93
      105
310
903383A310000000000000810100
  0
ACAD_PROXY_OBJECT
  5
9571
102
{ACAD_REACTORS
330
9561
102
}
330
9561
100
AcDbZombieObject
 90
      499
 91
      510
 93
      113
310
90431303A310000000000000910100
  0
ACAD_PROXY_OBJECT
  5
9572
102
{ACAD_REACTORS
330
9561
102
}
330
9561
100
AcDbZombieObject
 90
      499
 91
      510
 93
      121
310
9053130303A310000000000001650100
  0
ACAD_PROXY_OBJECT
  5
9573
102
{ACAD_REACTORS
330
9561
102
}
330
9561
100
AcDbZombieObject
 90
      499
 91
      510
 93
      257
310
90E312F31323822203D2031272D3022000000000000200FC000000000000284000
  0
ACAD_PROXY_OBJECT
  5
9574
102
{ACAD_REACTORS
330
9561
102
}
330
9561
100
AcDbZombieObject
 90
      499
 91
      510
 93
      249
310
90D312F363422203D2031272D3022000000000000240FC000000000000284000
  0
ACAD_PROXY_OBJECT
  5
9575
102
{ACAD_REACTORS
330
9561
102
}
330
9561
100
AcDbZombieObject
 90
      499
 91
      510
 93
      249
310
90D312F333222203D2031272D3022000000000000280FC000000000000284000
  0
ACAD_PROXY_OBJECT
  5
9576
102
{ACAD_REACTORS
330
9561
102
}
330
9561
100
AcDbZombieObject
 90
      499
 91
      510
 93
      249
310
90D312F313622203D2031272D30220000000000002C0FC000000000000284000
  0
ACAD_PROXY_OBJECT
  5
9577
102
{ACAD_REACTORS
330
9561
102
}
330
9561
100
AcDbZombieObject
 90
      499
 91
      510
 93
      249
310
90D332F333222203D2031272D30220000000000002E0FC000000000000284000
  0
ACAD_PROXY_OBJECT
  5
9578
102
{ACAD_REACTORS
330
9561
102
}
330
9561
100
AcDbZombieObject
 90
      499
 91
      510
 93
      241
310
90C312F3822203D2031272D3022000000000000300FC000000000000284000
  0
ACAD_PROXY_OBJECT
  5
9579
102
{ACAD_REACTORS
330
9561
102
}
330
9561
100
AcDbZombieObject
 90
      499
 91
      510
 93
      249
310
90D332F313622203D2031272D3022000000000000320FC000000000000284000
  0
ACAD_PROXY_OBJECT
  5
957A
102
{ACAD_REACTORS
330
9561
102
}
330
9561
100
AcDbZombieObject
 90
      499
 91
      510
 93
      241
310
90C312F3422203D2031272D3022000000000000340FC000000000000284000
  0
ACAD_PROXY_OBJECT
  5
957B
102
{ACAD_REACTORS
330
9561
102
}
330
9561
100
AcDbZombieObject
 90
      499
 91
      510
 93
      241
310
90C332F3822203D2031272D3022000000000000360FC000000000000284000
  0
ACAD_PROXY_OBJECT
  5
957C
102
{ACAD_REACTORS
330
9561
102
}
330
9561
100
AcDbZombieObject
 90
      499
 91
      510
 93
      241
310
90C312F3222203D2031272D3022000000000000380FC000000000000284000
  0
ACAD_PROXY_OBJECT
  5
957D
102
{ACAD_REACTORS
330
9561
102
}
330
9561
100
AcDbZombieObject
 90
      499
 91
      510
 93
      241
310
90C332F3422203D2031272D30220000000000003A0FC000000000000284000
  0
ACAD_PROXY_OBJECT
  5
957E
102
{ACAD_REACTORS
330
9561
102
}
330
9561
100
AcDbZombieObject
 90
      499
 91
      510
 93
      161
310
90A3122203D2031272D30224000000000000284000
  0
ACAD_PROXY_OBJECT
  5
957F
102
{ACAD_REACTORS
330
9561
102
}
330
9561
100
AcDbZombieObject
 90
      499
 91
      510
 93
      257
310
90E312D312F3222203D2031272D30220000000000003E0FC000000000000284000
  0
ACAD_PROXY_OBJECT
  5
9580
102
{ACAD_REACTORS
330
9561
102
}
330
9561
100
AcDbZombieObject
 90
      499
 91
      510
 93
      225
310
90A3322203D2031272D302200000000000002100000000000000284000
  0
ACAD_PROXY_OBJECT
  5
9581
102
{ACAD_REACTORS
330
9561
102
}
330
9561
100
AcDbZombieObject
 90
      499
 91
      510
 93
      225
310
90A3622203D2031272D302200000000000006100000000000000284000
  0
ACAD_PROXY_OBJECT
  5
9582
102
{ACAD_REACTORS
330
9561
102
}
330
9561
100
AcDbZombieObject
 90
      499
 91
      510
 93
      249
310
90D31272D3022203D2031272D30220000000000000A100000000000000284000
  0
ACAD_PROXY_OBJECT
  5
9556
102
{ACAD_REACTORS
330
9550
102
}
330
9550
100
AcDbZombieObject
 90
      499
 91
      509
 93
      436
310
42CC9915DA5C99599C985B595049028333333333333E3BF0000000000000FB0107901411070040501600405405064090741402480A0340
1001
ACAD
1000
AcDbSavedByObjectVersion
1070
     0
  0
ACAD_PROXY_OBJECT
  5
9558
102
{ACAD_REACTORS
330
9550
102
}
330
9550
100
AcDbZombieObject
 90
      499
 91
      509
 93
      500
310
424CD108121A5919195B90640502408333333333333E3BF0000000000000FB01079024090700405020000000000001110200405405064090740C02480A0340
1001
ACAD
1000
AcDbSavedByObjectVersion
1070
     0
  0
ACAD_PROXY_OBJECT
  5
9557
102
{ACAD_REACTORS
330
9550
102
}
330
9550
100
AcDbZombieObject
 90
      499
 91
      509
 93
      436
310
42CCD915DA5C99599C985B595059028333333333333E3BF0000000000000FB0107901411070040501600405405064090741402480A0340
1001
ACAD
1000
AcDbSavedByObjectVersion
1070
     0
  0
ACAD_PROXY_OBJECT
  5
9555
102
{ACAD_REACTORS
330
9550
102
}
330
9550
100
AcDbZombieObject
 90
      499
 91
      509
 93
      388
310
4150985CDA58D07406404333333333333E3BF0000000000000FB0107A41107004050150841D405064090741402480A0350
1001
ACAD
1000
AcDbSavedByObjectVersion
1070
     0
  0
ACAD_PROXY_OBJECT
  5
955C
102
{ACAD_REACTORS
330
9550
102
}
330
9550
100
AcDbZombieObject
 90
      499
 91
      509
 93
      428
310
42109C9A59DA1D195B90C409028333333333333E3BF0000000000000FB010790141107004050150841D405064090741402480A029950
1001
ACAD
1000
AcDbSavedByObjectVersion
1070
     0
  0
ACAD_PROXY_OBJECT
  5
9560
102
{ACAD_REACTORS
330
9550
102
}
330
9550
100
AcDbZombieObject
 90
      499
 91
      509
 93
      452
310
42D0DBDB1BDC90DA185B99D95104090240C333333333333E3BF0000000000000FB0108901411070040501508421405064090741402480A0350
1001
ACAD
1000
AcDbSavedByObjectVersion
1070
     0
  0
ACAD_PROXY_OBJECT
  5
9559
102
{ACAD_REACTORS
330
9550
102
}
330
9550
100
AcDbZombieObject
 90
      499
 91
      509
 93
      500
310
4290DBDB98D95C1D1D585B10940D028333333333333E3BF0000000000000FB0107902409070040501000000000000111010841D405064090740C02480A0340
1001
ACAD
1000
AcDbSavedByObjectVersion
1070
     0
  0
ACAD_PROXY_OBJECT
  5
955B
102
{ACAD_REACTORS
330
9550
102
}
330
9550
100
AcDbZombieObject
 90
      499
 91
      509
 93
      412
310
40D11A5B50B409028333333333333E3BF0000000000000FB010790141107004050150841D405064090741402480A02677FFFFFD0
1001
ACAD
1000
AcDbSavedByObjectVersion
1070
     0
  0
ACAD_PROXY_OBJECT
  5
A211
102
{ACAD_REACTORS
330
9550
102
}
330
9550
100
AcDbZombieObject
 90
      499
 91
      509
 93
      452
310
43115919D950DBDB1BDC93D999916409028333333333333E3BF0000000000000FB010790141107004050150841D405064090741402480A0350
1001
ACAD
1000
AcDbSavedByObjectVersion
1070
     0
  0
ACAD_PROXY_OBJECT
  5
955F
102
{ACAD_REACTORS
330
9550
102
}
330
9550
100
AcDbZombieObject
 90
      499
 91
      509
 93
      444
310
42D19858D95C185D1D195C9B90F409028333333333333E3BF0000000000000FB010790141107004050150841D405064090741402480A0350
1001
ACAD
1000
AcDbSavedByObjectVersion
1070
     0
  0
ACAD_PROXY_OBJECT
  5
9551
102
{ACAD_REACTORS
330
9550
102
}
330
9550
100
AcDbZombieObject
 90
      499
 91
      509
 93
      388
310
41119B185D240901404333333333333E3BF0000000000000F9010740A41107004050150841D405064090741402480A1B50
1001
ACAD
1000
AcDbSavedByObjectVersion
1070
     0
  0
ACAD_PROXY_OBJECT
  5
9552
102
{ACAD_REACTORS
330
9550
102
}
330
9550
100
AcDbZombieObject
 90
      499
 91
      509
 93
      476
310
43519B185D15DA5D1A115919D95CD0140901404333333333333E3BF0000000000000F9010740901411070040501600405405064090741402480A1B50
1001
ACAD
1000
AcDbSavedByObjectVersion
1070
     0
  0
ACAD_PROXY_OBJECT
  5
9553
102
{ACAD_REACTORS
330
9550
102
}
330
9550
100
AcDbZombieObject
 90
      499
 91
      509
 93
      412
310
41D1DBDD5C985D5910240902404333333333333E3BF0000000000000F9010740A411070040501641D405064090741402480A1B50
1001
ACAD
1000
AcDbSavedByObjectVersion
1070
     0
  0
ACAD_PROXY_OBJECT
  5
9554
102
{ACAD_REACTORS
330
9550
102
}
330
9550
100
AcDbZombieObject
 90
      499
 91
      509
 93
      500
310
4411DBDD5C985D5915DA5D1A115919D95CD0340902404333333333333E3BF0000000000000F9010740901411070040501600405405064090741402480A1B50
1001
ACAD
1000
AcDbSavedByObjectVersion
1070
     0
  0
ACAD_PROXY_OBJECT
  5
A260
102
{ACAD_REACTORS
330
9550
102
}
330
9550
100
AcDbZombieObject
 90
      499
 91
      509
 93
      476
310
41921A5919195B90640502408333333333333E3BF0000000000000FB01079024090700405020000000000001110200405405064090740C02480A0340
1001
ACAD
1000
AcDbSavedByObjectVersion
1070
     0
  0
ACAD_PROXY_OBJECT
  5
A20F
102
{ACAD_REACTORS
330
9550
102
}
330
9550
100
AcDbZombieObject
 90
      499
 91
      509
 93
      428
310
42529A5D1D195C93D999914409028333333333333E3BF0000000000000FB010790141107004050150A41D405064090741402480A0350
1001
ACAD
1000
AcDbSavedByObjectVersion
1070
     0
  0
ACAD_PROXY_OBJECT
  5
955E
102
{ACAD_REACTORS
330
9550
102
}
330
9550
100
AcDbZombieObject
 90
      499
 91
      509
 93
      444
310
42D31A5B995C185D1D195C9B90E409028333333333333E3BF0000000000000FB010790141107004050750841D405064090741402483A0350
1001
ACAD
1000
AcDbSavedByObjectVersion
1070
     0
  0
ACAD_PROXY_OBJECT
  5
A266
102
{ACAD_REACTORS
330
9550
102
}
330
9550
100
AcDbZombieObject
 90
      499
 91
      509
 93
      484
310
42135BD9195B1A5B99D0A409028333333333333E3BF0000000000000F901074090290700405010000000000201990108421405064090741402480A1B40
1001
ACAD
1000
AcDbSavedByObjectVersion
1070
     0
  0
ACAD_PROXY_OBJECT
  5
A210
102
{ACAD_REACTORS
330
9550
102
}
330
9550
100
AcDbZombieObject
 90
      499
 91
      509
 93
      444
310
42D3DD995C9A185B99D3D999915409028333333333333E3BF0000000000000FB010790141107004050150941D405064090741402480A0350
1001
ACAD
1000
AcDbSavedByObjectVersion
1070
     0
  0
ACAD_PROXY_OBJECT
  5
955A
102
{ACAD_REACTORS
330
9550
102
}
330
9550
100
AcDbZombieObject
 90
      499
 91
      509
 93
      420
310
425499585B1A5CDD1A58D08409028333333333333E3BF0000000000000FB01079019070040501508421405064090741402480A1B40
1001
ACAD
1000
AcDbSavedByObjectVersion
1070
     0
  0
ACAD_PROXY_OBJECT
  5
A265
102
{ACAD_REACTORS
330
9550
102
}
330
9550
100
AcDbZombieObject
 90
      499
 91
      509
 93
      420
310
4194DA1859195911B40902404333333333333E3BF0000000000000F9010740A41107004050150800405405064090840C02480A0B40
1001
ACAD
1000
AcDbSavedByObjectVersion
1070
     0
  0
ACAD_PROXY_OBJECT
  5
A264
102
{ACAD_REACTORS
330
9550
102
}
330
9550
100
AcDbZombieObject
 90
      499
 91
      509
 93
      516
310
4454DA18591959081DDA5D1A08195919D95CD1A40902404333333333333E3BF0000000000000F901074090142907004050250800405405064090740C02480A0B40
1001
ACAD
1000
AcDbSavedByObjectVersion
1070
     0
  0
ACAD_PROXY_OBJECT
  5
A261
102
{ACAD_REACTORS
330
9550
102
}
330
9550
100
AcDbZombieObject
 90
      499
 91
      509
 93
      532
310
4394DA1859195CC81BD98811DC985E5174090240C333333333333E3BF0000000000000FB01079024090741D01000000000000111010841D405064090740C02480A0340
1001
ACAD
1000
AcDbSavedByObjectVersion
1070
     0
  0
ACAD_PROXY_OBJECT
  5
A262
102
{ACAD_REACTORS
330
9550
102
}
330
9550
100
AcDbZombieObject
 90
      499
 91
      509
 93
      476
310
41D4DAD95D18DA1E51840502408333333333333E3BF0000000000000FB01079024090741D01000000000000111010B41D405064090741802480A0340
1001
ACAD
1000
AcDbSavedByObjectVersion
1070
     0
  0
ACAD_PROXY_OBJECT
  5
955D
102
{ACAD_REACTORS
330
9550
102
}
330
9550
100
AcDbZombieObject
 90
      499
 91
      509
 93
      412
310
41D51A1A58DAD95B90D409028333333333333E3BF0000000000000FB010790141107004050150C41D405064090741402480A0350
1001
ACAD
1000
AcDbSavedByObjectVersion
1070
     0
  0
ACAD_PROXY_OBJECT
  5
A25F
102
{ACAD_REACTORS
330
9550
102
}
330
9550
100
AcDbZombieObject
 90
      499
 91
      509
 93
      420
310
4255DA5C99599C985B595059028333333333333E3BF0000000000000FB0107901411070040501600405405064090740C02480A0340
1001
ACAD
1000
AcDbSavedByObjectVersion
1070
     0
  0
ACAD_PROXY_OBJECT
  5
A263
102
{ACAD_REACTORS
330
9550
102
}
330
9550
100
AcDbZombieObject
 90
      499
 91
      509
 93
      404
310
41560B54985E51940902404000000000000E03F0000000000000FB010740501907004050150841D405064090740C02480A1B40
1001
ACAD
1000
AcDbSavedByObjectVersion
1070
     0
  0
XRECORD
  5
E6C4
102
{ACAD_REACTORS
330
E6C3
102
}
330
E6C3
100
AcDbXrecord
340
18D
  0
XRECORD
  5
E6C5
102
{ACAD_REACTORS
330
E6C3
102
}
330
E6C3
100
AcDbXrecord
340
18C
  0
DICTIONARYVAR
  5
AAE0
102
{ACAD_REACTORS
330
37
102
}
330
37
100
DictionaryVariables
280
     0
  1
1:1
  0
DICTIONARYVAR
  5
9627
102
{ACAD_REACTORS
330
37
102
}
330
37
100
DictionaryVariables
280
     0
  1
Standard
  0
DICTIONARYVAR
  5
29E
102
{ACAD_REACTORS
330
37
102
}
330
37
100
DictionaryVariables
280
     0
  1
Standard
  0
DICTIONARYVAR
  5
38
102
{ACAD_REACTORS
330
37
102
}
330
37
100
DictionaryVariables
280
     0
  1
-1
  0
DICTIONARYVAR
  5
1CE
102
{ACAD_REACTORS
330
37
102
}
330
37
100
DictionaryVariables
280
     0
  1
2
  0
DICTIONARYVAR
  5
704E
102
{ACAD_REACTORS
330
37
102
}
330
37
100
DictionaryVariables
280
     0
  1
1
  0
DICTIONARYVAR
  5
962A
102
{ACAD_REACTORS
330
37
102
}
330
37
100
DictionaryVariables
280
     0
  1
0
  0
DICTIONARYVAR
  5
7052
102
{ACAD_REACTORS
330
37
102
}
330
37
100
DictionaryVariables
280
     0
  1
8
  0
DICTIONARYVAR
  5
7051
102
{ACAD_REACTORS
330
37
102
}
330
37
100
DictionaryVariables
280
     0
  1
1
  0
DICTIONARYVAR
  5
AB30
102
{ACAD_REACTORS
330
37
102
}
330
37
100
DictionaryVariables
280
     0
  1
0
  0
DICTIONARYVAR
  5
704F
102
{ACAD_REACTORS
330
37
102
}
330
37
100
DictionaryVariables
280
     0
  1
8
  0
DICTIONARYVAR
  5
7050
102
{ACAD_REACTORS
330
37
102
}
330
37
100
DictionaryVariables
280
     0
  1
2
  0
DICTIONARYVAR
  5
1CF
102
{ACAD_REACTORS
330
37
102
}
330
37
100
DictionaryVariables
280
     0
  1

  0
DICTIONARYVAR
  5
9629
102
{ACAD_REACTORS
330
37
102
}
330
37
100
DictionaryVariables
280
     0
  1
127
  0
DICTIONARYVAR
  5
E38B
102
{ACAD_REACTORS
330
37
102
}
330
37
100
DictionaryVariables
280
     0
  1
2
  0
DICTIONARY
  5
E861
330
9540
100
AcDbDictionary
  3
ACAD_XREC_ROUNDTRIP
360
E862
1001
ACAD
1000
TREAT_AS_HARD
1070
     1
  0
DICTIONARY
  5
E863
330
9538
100
AcDbDictionary
  3
ACAD_XREC_ROUNDTRIP
360
E864
1001
ACAD
1000
TREAT_AS_HARD
1070
     1
  0
DICTIONARY
  5
E865
330
9548
100
AcDbDictionary
  3
ACAD_XREC_ROUNDTRIP
360
E866
1001
ACAD
1000
TREAT_AS_HARD
1070
     1
  0
XRECORD
  5
E862
102
{ACAD_REACTORS
330
E861
102
}
330
E861
100
AcDbXrecord
102
MATERIAL
148
0.0
149
0.0
149
0.0
 93
        0
 94
      127
282
     0
 72
     0
 77
     0
171
     0
175
     0
179
     0
273
     0
  0
XRECORD
  5
E864
102
{ACAD_REACTORS
330
E863
102
}
330
E863
100
AcDbXrecord
102
MATERIAL
148
0.0
149
0.0
149
0.0
 93
        0
 94
      127
282
     0
 72
     0
 77
     0
171
     0
175
     0
179
     0
273
     0
  0
XRECORD
  5
E866
102
{ACAD_REACTORS
330
E865
102
}
330
E865
100
AcDbXrecord
102
MATERIAL
148
0.0
149
0.0
149
0.0
 93
        0
 94
      127
282
     0
 72
     0
 77
     0
171
     0
175
     0
179
     0
273
     0
  0
ENDSEC
  0
EOF
