  0
SECTION
  2
HEADER
  9
$ACADVER
  1
AC1009
  9
$INSBASE
 10
0.0
 20
0.0
 30
0.0
  9
$EXTMIN
 10
3700.783418779823
 20
-2238.462693432728
 30
0.0
  9
$EXTMAX
 10
4285.9339142735307
 20
-1334.0539535831181
 30
0.0
  9
$LIMMIN
 10
0.0
 20
0.0
  9
$LIMMAX
 10
420.0
 20
297.0
  9
$ORTHOMODE
 70
     0
  9
$REGENMODE
 70
     1
  9
$FILLMODE
 70
     1
  9
$QTEXTMODE
 70
     0
  9
$MIRRTEXT
 70
     0
  9
$DRAGMODE
 70
     2
  9
$LTSCALE
 40
0.5
  9
$OSMODE
 70
    63
  9
$ATTMODE
 70
     1
  9
$TEXTSIZE
 40
4.0
  9
$TRACEWID
 40
1.0
  9
$TEXTSTYLE
  7
STANDARD
  9
$CLAYER
  8
1TEXT
  9
$CELTYPE
  6
BYLAYER
  9
$CECOLOR
 62
   256
  9
$DIMSCALE
 40
3.0
  9
$DIMASZ
 40
2.0
  9
$DIMEXO
 40
0.0
  9
$DIMDLI
 40
7.0
  9
$DIMRND
 40
0.0
  9
$DIMDLE
 40
0.0
  9
$DIMEXE
 40
1.0
  9
$DIMTP
 40
0.0
  9
$DIMTM
 40
0.0
  9
$DIMTXT
 40
3.5
  9
$DIMCEN
 40
0.0
  9
$DIMTSZ
 40
0.0
  9
$DIMTOL
 70
     0
  9
$DIMLIM
 70
     0
  9
$DIMTIH
 70
     0
  9
$DIMTOH
 70
     0
  9
$DIMSE1
 70
     0
  9
$DIMSE2
 70
     0
  9
$DIMTAD
 70
     1
  9
$DIMZIN
 70
     8
  9
$DIMBLK
  1

  9
$DIMASO
 70
     1
  9
$DIMSHO
 70
     1
  9
$DIMPOST
  1
 
  9
$DIMAPOST
  1

  9
$DIMALT
 70
     0
  9
$DIMALTD
 70
     2
  9
$DIMALTF
 40
25.399999999999999
  9
$DIMLFAC
 40
1.0
  9
$DIMTOFL
 70
     1
  9
$DIMTVP
 40
0.0
  9
$DIMTIX
 70
     0
  9
$DIMSOXD
 70
     0
  9
$DIMSAH
 70
     1
  9
$DIMBLK1
  1
OPEN30
  9
$DIMBLK2
  1
OPEN30
  9
$DIMSTYLE
  2
NEWX10
  9
$DIMCLRD
 70
   256
  9
$DIMCLRE
 70
   256
  9
$DIMCLRT
 70
   201
  9
$DIMTFAC
 40
0.7
  9
$DIMGAP
 40
0.7
  9
$LUNITS
 70
     2
  9
$LUPREC
 70
     4
  9
$SKETCHINC
 40
1.0
  9
$FILLETRAD
 40
5.0
  9
$AUNITS
 70
     0
  9
$AUPREC
 70
     2
  9
$MENU
  1
acad
  9
$ELEVATION
 40
0.0
  9
$PELEVATION
 40
0.0
  9
$THICKNESS
 40
0.0
  9
$LIMCHECK
 70
     0
  9
$BLIPMODE
 70
     0
  9
$CHAMFERA
 40
10.0
  9
$CHAMFERB
 40
10.0
  9
$SKPOLY
 70
     0
  9
$TDCREATE
 40
2453033.7326634838
  9
$TDUPDATE
 40
2454775.8222668869
  9
$TDINDWG
 40
2.2400088309999999
  9
$TDUSRTIMER
 40
2.2400088309999999
  9
$USRTIMER
 70
     1
  9
$ANGBASE
 50
0.0
  9
$ANGDIR
 70
     0
  9
$PDMODE
 70
     0
  9
$PDSIZE
 40
0.0
  9
$PLINEWID
 40
0.0
  9
$COORDS
 70
     2
  9
$SPLFRAME
 70
     0
  9
$SPLINETYPE
 70
     6
  9
$SPLINESEGS
 70
     8
  9
$ATTDIA
 70
     0
  9
$ATTREQ
 70
     1
  9
$HANDLING
 70
     1
  9
$HANDSEED
  5
1AB77
  9
$SURFTAB1
 70
     6
  9
$SURFTAB2
 70
     6
  9
$SURFTYPE
 70
     6
  9
$SURFU
 70
     6
  9
$SURFV
 70
     6
  9
$UCSNAME
  2

  9
$UCSORG
 10
0.0
 20
0.0
 30
0.0
  9
$UCSXDIR
 10
1.0
 20
0.0
 30
0.0
  9
$UCSYDIR
 10
0.0
 20
1.0
 30
0.0
  9
$PUCSNAME
  2

  9
$PUCSORG
 10
0.0
 20
0.0
 30
0.0
  9
$PUCSXDIR
 10
1.0
 20
0.0
 30
0.0
  9
$PUCSYDIR
 10
0.0
 20
1.0
 30
0.0
  9
$USERI1
 70
     0
  9
$USERI2
 70
     0
  9
$USERI3
 70
     0
  9
$USERI4
 70
     0
  9
$USERI5
 70
     0
  9
$USERR1
 40
0.0
  9
$USERR2
 40
0.0
  9
$USERR3
 40
0.0
  9
$USERR4
 40
0.0
  9
$USERR5
 40
0.0
  9
$WORLDVIEW
 70
     1
  9
$SHADEDGE
 70
     3
  9
$SHADEDIF
 70
    70
  9
$TILEMODE
 70
     1
  9
$MAXACTVP
 70
    48
  9
$PLIMCHECK
 70
     0
  9
$PEXTMIN
 10
1.0000000000000000E+020
 20
1.0000000000000000E+020
 30
1.0000000000000000E+020
  9
$PEXTMAX
 10
-1.0000000000000000E+020
 20
-1.0000000000000000E+020
 30
-1.0000000000000000E+020
  9
$PLIMMIN
 10
0.0
 20
0.0
  9
$PLIMMAX
 10
420.0
 20
297.0
  9
$UNITMODE
 70
     0
  9
$VISRETAIN
 70
     1
  9
$PLINEGEN
 70
     0
  9
$PSLTSCALE
 70
     1
  0
ENDSEC
  0
SECTION
  2
TABLES
  0
TABLE
  2
VPORT
 70
     4
  0
VPORT
  2
*ACTIVE
 70
     0
 10
0.0
 20
0.0
 11
1.0
 21
1.0
 12
3993.2963947625849
 22
-1786.2762877091341
 13
0.0
 23
0.0
 14
10.0
 24
10.0
 15
10.0
 25
10.0
 16
0.0
 26
0.0
 36
1.0
 17
0.0
 27
0.0
 37
0.0
 40
959.82310186267352
 41
1.508086253369272
 42
50.0
 43
0.0
 44
0.0
 50
0.0
 51
0.0
 71
     0
 72
   100
 73
     1
 74
     1
 75
     0
 76
     0
 77
     0
 78
     0
  0
ENDTAB
  0
TABLE
  2
LTYPE
 70
    15
  0
LTYPE
  2
CONTINUOUS
 70
     0
  3
Solid line
 72
    65
 73
     0
 40
0.0
  0
LTYPE
  2
CENTER2
 70
     0
  3
Center (.5x) ___ _ ___ _ ___ _ ___ _ ___ _ ___
 72
    65
 73
     4
 40
28.574999999999999
 49
19.050000000000001
 49
-3.1749999999999989
 49
3.1749999999999989
 49
-3.1749999999999989
  0
LTYPE
  2
XREF1|CENTER2
 70
    48
  3
Center (.5x) ___ _ ___ _ ___ _ ___ _ ___ _ ___
 72
    65
 73
     4
 40
28.574999999999999
 49
19.050000000000001
 49
-3.1749999999999989
 49
3.1749999999999989
 49
-3.1749999999999989
  0
LTYPE
  2
HIDDEN
 70
     0
  3
Hidden __ __ __ __ __ __ __ __ __ __ __ __ __ _
 72
    65
 73
     2
 40
9.5249999999999986
 49
6.3499999999999988
 49
-3.1749999999999989
  0
LTYPE
  2
PHANTOM2
 70
     0
  3
Phantom (.5x) ___ _ _ ___ _ _ ___ _ _ ___ _ _
 72
    65
 73
     6
 40
31.75
 49
15.875
 49
-3.1749999999999989
 49
3.1749999999999989
 49
-3.1749999999999989
 49
3.1749999999999989
 49
-3.1749999999999989
  0
LTYPE
  2
A3WAKUDAKE|CENTER2
 70
    48
  3
Center (.5x) ___ _ ___ _ ___ _ ___ _ ___ _ ___
 72
    65
 73
     4
 40
28.574999999999999
 49
19.050000000000001
 49
-3.1749999999999989
 49
3.1749999999999989
 49
-3.1749999999999989
  0
ENDTAB
  0
TABLE
  2
LAYER
 70
    44
  0
LAYER
  2
0
 70
     0
 62
     7
  6
CONTINUOUS
  0
LAYER
  2
1CENTER
 70
     0
 62
     7
  6
CENTER2
  0
LAYER
  2
1TEXT
 70
     0
 62
     7
  6
CONTINUOUS
  0
LAYER
  2
1DIM
 70
     0
 62
     7
  6
CONTINUOUS
  0
LAYER
  2
1HIDDEN
 70
     0
 62
     7
  6
HIDDEN
  0
LAYER
  2
1PHANTOM
 70
     0
 62
     7
  6
PHANTOM2
  0
LAYER
  2
01
 70
     0
 62
     1
  6
CONTINUOUS
  0
LAYER
  2
1HATCH
 70
     0
 62
     7
  6
CONTINUOUS
  0
LAYER
  2
XREF1|1CENTER
 70
    48
 62
     7
  6
XREF1|CENTER2
  0
LAYER
  2
A3WAKUDAKE|THICK
 70
    48
 62
     7
  6
CONTINUOUS
  0
LAYER
  2
A3WAKUDAKE|POINT
 70
    48
 62
     7
  6
CONTINUOUS
  0
LAYER
  2
A3WAKUDAKE|1CENTER
 70
    48
 62
     7
  6
A3WAKUDAKE|CENTER2
  0
LAYER
  2
A3WAKUDAKE|0-6
 70
    48
 62
     7
  6
CONTINUOUS
  0
LAYER
  2
A3WAKUDAKE|1DIM
 70
    48
 62
     7
  6
CONTINUOUS
  0
ENDTAB
  0
TABLE
  2
STYLE
 70
    22
  0
STYLE
  2
STANDARD
 70
     0
 40
0.0
 41
1.0
 50
0.0
 71
     0
 42
4.0
  3
txt.shx
  4
extfont.shx
  0
ENDTAB
  0
TABLE
  2
VIEW
 70
     0
  0
ENDTAB
  0
TABLE
  2
UCS
 70
     0
  0
ENDTAB
  0
TABLE
  2
APPID
 70
    10
  0
APPID
  2
ACAD
 70
     0
  0
APPID
  2
DRAWINGVARIABLESXDATA
 70
     0
  0
APPID
  2
CONTENTTABDATA
 70
     0
  0
APPID
  2
CONTENTCURRENTTAB
 70
     0
  0
APPID
  2
CONTENTBLOCKDESCRIPTION
 70
     0
  0
APPID
  2
CONTENTBLOCKICON
 70
     0
  0
APPID
  2
CONTENTLONGBLOCKNAME
 70
     0
  0
APPID
  2
ACAD_PSEXT
 70
     0
  0
APPID
  2
ACAD_DSTYLE_DIMTEXT_FILL
 70
     0
  0
APPID
  2
ACAD_MLEADERVER
 70
     0
  0
ENDTAB
  0
TABLE
  2
DIMSTYLE
 70
     9
  0
DIMSTYLE
  2
NEWX10
 70
     0
  3
 
  4

  5

  6
OPEN30
  7
OPEN30
 40
1.0
 41
2.0
 42
0.0
 43
7.0
 44
1.0
 45
0.0
 46
0.0
 47
0.0
 48
0.0
140
3.5
141
0.0
142
0.0
143
25.399999999999999
144
1.0
145
0.0
146
0.7
147
0.7
 71
     0
 72
     0
 73
     0
 74
     0
 75
     0
 76
     0
 77
     1
 78
     8
170
     0
171
     2
172
     1
173
     1
174
     0
175
     0
176
   256
177
   256
178
   201
  0
ENDTAB
  0
ENDSEC
  0
SECTION
  2
BLOCKS
  0
BLOCK
  8
0
  2
$MODEL_SPACE
 70
     0
 10
0.0
 20
0.0
 30
0.0
  3
$MODEL_SPACE
  1

  0
ENDBLK
  5
1A
  8
0
  0
BLOCK
 67
     1
  8
0
  2
$PAPER_SPACE
 70
     0
 10
0.0
 20
0.0
 30
0.0
  3
$PAPER_SPACE
  1

  0
ENDBLK
  5
17
 67
     1
  8
0
  0
BLOCK
  8
0
  2
_OPEN30
 70
     0
 10
0.0
 20
0.0
 30
0.0
  3
_OPEN30
  1

  0
LINE
  5
44
  8
0
  6
BYBLOCK
 62
     0
 10
-1.0
 20
0.26794919
 30
0.0
 11
0.0
 21
0.0
 31
0.0
  0
LINE
  5
45
  8
0
  6
BYBLOCK
 62
     0
 10
0.0
 20
0.0
 30
0.0
 11
-1.0
 21
-0.26794919
 31
0.0
  0
LINE
  5
46
  8
0
  6
BYBLOCK
 62
     0
 10
0.0
 20
0.0
 30
0.0
 11
-1.0
 21
0.0
 31
0.0
  0
ENDBLK
  5
47
  8
0
  0
BLOCK
  8
0
  2
XREF1
 70
    36
 10
0.0
 20
0.0
 30
0.0
  3
XREF1
  1
D:\ACLT\FORMAT\KAWAJUN(9)図面用.dwg
  0
ENDBLK
  5
5D
  8
0
  0
BLOCK
  8
0
  2
A3WAKUDAKE
 70
    36
 10
0.0
 20
0.0
 30
0.0
  3
A3WAKUDAKE
  1
D:\ACLT\FORMAT\A3WAKUdake.dwg
  0
ENDBLK
  5
6DC
  8
0
  0
BLOCK
  8
0
  2
*U80
 70
     1
 10
0.0
 20
0.0
 30
0.0
  3
*U80
  1

  0
TEXT
  5
1A6F0
  8
0
 62
   201
 10
-63.717024855154058
 20
-3.810911908990481
 30
0.0
 40
3.5
  1
φ5
 50
48.83031736650419
  0
ENDBLK
  5
1A6F2
  8
0
  0
BLOCK
  8
0
  2
*U81
 70
     1
 10
0.0
 20
0.0
 30
0.0
  3
*U81
  1

  0
TEXT
  5
1A6F4
  8
1TEXT
 62
   201
 10
21.614708555164611
 20
22.401236958861659
 30
0.0
 40
2.0
  1
二文字
  0
TEXT
  5
1A6F5
  8
1TEXT
 62
   201
 10
21.614708555164611
 20
19.067903625528331
 30
0.0
 40
2.0
  1
(別途指定)
  0
TEXT
  5
1A6F6
  8
1TEXT
 62
   201
 10
21.614708555164611
 20
15.73457029219499
 30
0.0
 40
2.0
  1
天地 約1.8
  0
TEXT
  5
1A6F7
  8
1TEXT
 62
   201
 10
21.614708555164611
 20
12.401236958861659
 30
0.0
 40
2.0
  1
凸0.2
  0
ENDBLK
  5
1A6F9
  8
0
  0
BLOCK
  8
0
  2
*U82
 70
     1
 10
0.0
 20
0.0
 30
0.0
  3
*U82
  1

  0
SOLID
  5
1A6FB
  8
1DIM
 10
17.769912945885331
 20
22.805130681268722
 30
0.0
 11
17.678379796037799
 21
23.814783819854821
 31
0.0
 12
18.0924202800296
 22
22.889392953575271
 32
0.0
 13
18.0924202800296
 23
22.889392953575271
 33
0.0
  0
POLYLINE
  5
1A6FC
  8
1DIM
 66
     1
 10
0.0
 20
0.0
 30
0.0
  0
VERTEX
  5
1A6FD
  8
1DIM
 10
17.931166612957469
 20
22.847261817422002
 30
0.0
  0
VERTEX
  5
1A6FE
  8
1DIM
 10
20.91703607932029
 20
11.41907722970881
 30
0.0
  0
VERTEX
  5
1A6FF
  8
1DIM
 10
35.143226555510758
 20
11.41907722970881
 30
0.0
  0
SEQEND
  5
1A700
  8
1DIM
  0
ENDBLK
  5
1A702
  8
0
  0
BLOCK
  8
0
  2
*U83
 70
     1
 10
0.0
 20
0.0
 30
0.0
  3
*U83
  1

  0
TEXT
  5
1A704
  8
1DIM
 62
   201
 10
8.9421530727463576
 20
19.285028579396069
 30
0.0
 40
2.0
  1
枠
  0
TEXT
  5
1A705
  8
1DIM
 62
   201
 10
7.0754864060796914
 20
15.951695246062741
 30
0.0
 40
2.0
  1
φ5
  0
TEXT
  5
1A706
  8
1DIM
 62
   201
 10
4.7421530727463583
 20
12.61836191272941
 30
0.0
 40
2.0
  1
凹0.3
  0
ENDBLK
  5
1A708
  8
0
  0
BLOCK
  8
0
  2
*U84
 70
     1
 10
0.0
 20
0.0
 30
0.0
  3
*U84
  1

  0
SOLID
  5
1A70A
  8
1DIM
 10
14.77538895849114
 20
20.894651819020488
 30
0.0
 11
15.75963814806016
 21
22.667323431007279
 31
0.0
 12
15.403512140193291
 22
20.67125595278117
 32
0.0
 13
15.403512140193291
 23
20.67125595278117
 33
0.0
  0
POLYLINE
  5
1A70B
  8
1DIM
 66
     1
 10
0.0
 20
0.0
 30
0.0
  0
VERTEX
  5
1A70C
  8
1DIM
 10
15.089450549342221
 20
20.782953885900831
 30
0.0
  0
VERTEX
  5
1A70D
  8
1DIM
 10
11.821762131327951
 20
11.59517937383526
 30
0.0
  0
VERTEX
  5
1A70E
  8
1DIM
 10
2.3789049884708091
 20
11.59517937383526
 30
0.0
  0
SEQEND
  5
1A70F
  8
1DIM
  0
ENDBLK
  5
1A711
  8
0
  0
BLOCK
  8
0
  2
*U85
 70
     1
 10
0.0
 20
0.0
 30
0.0
  3
*U85
  1

  0
TEXT
  5
1A714
  8
1TEXT
 10
14.9745471932972
 20
24.09947430071913
 30
0.0
 40
1.8
  1
XY
  0
ENDBLK
  5
1A716
  8
0
  0
BLOCK
  8
0
  2
*U86
 70
     1
 10
0.0
 20
0.0
 30
0.0
  3
*U86
  1

  0
LINE
  5
1A718
  8
0
 10
-4.1999999999999877
 20
-1.9999999999999849
 30
0.0
 11
-0.3500000000000227
 21
-2.0
 31
0.0
  0
LINE
  5
1A719
  8
0
 10
0.0
 20
-1.6499999999998629
 30
0.0
 11
-0.3500000000000227
 21
-2.0
 31
0.0
  0
LINE
  5
1A71A
  8
0
 10
-6.0
 20
-0.200000000000017
 30
0.0
 11
-4.1999999999999877
 21
-1.9999999999999849
 31
0.0
  0
LINE
  5
1A71B
  8
0
 10
0.0
 20
1.649999999999977
 30
0.0
 11
0.0
 21
-1.6499999999998629
 31
0.0
  0
LINE
  5
1A71C
  8
0
 10
-6.0
 20
0.2000000000000028
 30
0.0
 11
-6.0
 21
-0.200000000000017
 31
0.0
  0
LINE
  5
1A71D
  8
0
 10
-0.3500000000000227
 20
2.0
 30
0.0
 11
0.0
 21
1.649999999999977
 31
0.0
  0
LINE
  5
1A71E
  8
0
 10
-6.0
 20
0.2000000000000028
 30
0.0
 11
-4.2000000000000446
 21
2.0
 31
0.0
  0
LINE
  5
1A71F
  8
0
 10
-4.2000000000000446
 20
2.0
 30
0.0
 11
-0.3500000000000227
 21
2.0
 31
0.0
  0
ENDBLK
  5
1A721
  8
0
  0
BLOCK
  8
0
  2
*U87
 70
     1
 10
0.0
 20
0.0
 30
0.0
  3
*U87
  1

  0
LINE
  5
1A723
  8
0
 10
-5.6499999999999773
 20
2.0000000000000142
 30
0.0
 11
-0.3500000000000227
 21
2.0
 31
0.0
  0
LINE
  5
1A724
  8
0
 10
-5.6499999999999773
 20
2.0000000000000142
 30
0.0
 11
-6.0
 21
1.6499999999999631
 31
0.0
  0
LINE
  5
1A725
  8
0
 10
-0.3500000000000227
 20
2.0
 30
0.0
 11
0.0
 21
1.649999999999977
 31
0.0
  0
LINE
  5
1A726
  8
0
 10
-6.0
 20
1.6499999999999631
 30
0.0
 11
-6.0
 21
-1.6499999999998629
 31
0.0
  0
LINE
  5
1A727
  8
0
 10
0.0
 20
1.649999999999977
 30
0.0
 11
0.0
 21
-1.6499999999998629
 31
0.0
  0
LINE
  5
1A728
  8
0
 10
-6.0
 20
-1.6499999999998629
 30
0.0
 11
-5.6499999999999773
 21
-1.9999999999999849
 31
0.0
  0
LINE
  5
1A729
  8
0
 10
0.0
 20
-1.6499999999998629
 30
0.0
 11
-0.3500000000000227
 21
-2.0
 31
0.0
  0
LINE
  5
1A72A
  8
0
 10
-5.6499999999999773
 20
-1.9999999999999849
 30
0.0
 11
-0.3500000000000227
 21
-2.0
 31
0.0
  0
ENDBLK
  5
1A72C
  8
0
  0
BLOCK
  8
0
  2
*X88
 70
     1
 10
0.0
 20
0.0
 30
0.0
  3
*X88
  1

  0
LINE
  5
1A72E
  8
0
 62
     0
 10
10.35561001165331
 20
1.7353216665921991
 30
0.0
 11
1.735321666592085
 21
10.35561001165342
 31
0.0
  0
LINE
  5
1A72F
  8
0
 62
     0
 10
0.0000000000001137
 20
8.4988292298177157
 30
0.0
 11
-1.838891835213303
 21
10.337721065031021
 31
0.0
  0
LINE
  5
1A730
  8
0
 62
     0
 10
8.4988292298179431
 20
-0.0000000000001137
 30
0.0
 11
0.0000000000001137
 21
8.4988292298177157
 31
0.0
  0
LINE
  5
1A731
  8
0
 62
     0
 10
10.337721065031131
 20
-1.838891835213303
 30
0.0
 11
8.4988292298179431
 21
-0.0000000000001137
 31
0.0
  0
LINE
  5
1A732
  8
0
 62
     0
 10
-0.2377810848388435
 20
5.1445078662289907
 30
0.0
 11
-4.5542045235814612
 21
9.4609313049716093
 31
0.0
  0
LINE
  5
1A733
  8
0
 62
     0
 10
9.4609313049714956
 20
-4.5542045235813466
 30
0.0
 11
5.1445078662289907
 21
-0.2377810848388435
 31
0.0
  0
LINE
  5
1A734
  8
0
 62
     0
 10
-2.9244738727450108
 20
4.2390982057073643
 30
0.0
 11
-6.7381554127728123
 21
8.0527797457351653
 31
0.0
  0
LINE
  5
1A735
  8
0
 62
     0
 10
8.0527797457350516
 20
-6.7381554127726977
 30
0.0
 11
4.2390982057073643
 21
-2.9244738727450108
 31
0.0
  0
LINE
  5
1A736
  8
0
 62
     0
 10
-4.5977163449367699
 20
2.3202382294715558
 30
0.0
 11
-8.4755144637537114
 21
6.1980363482883831
 31
0.0
  0
LINE
  5
1A737
  8
0
 62
     0
 10
6.1980363482882694
 20
-8.4755144637535977
 30
0.0
 11
2.3202382294715558
 21
-4.5977163449367699
 31
0.0
  0
LINE
  5
1A738
  8
0
 62
     0
 10
-5.0907718486563454
 20
-0.7788087152364369
 30
0.0
 11
-5.8695805638927823
 21
0.0
 31
0.0
  0
LINE
  5
1A739
  8
0
 62
     0
 10
-5.8695805638928951
 20
0.0
 30
0.0
 11
-9.9540062277598054
 21
4.0844256638669094
 31
0.0
  0
LINE
  5
1A73A
  8
0
 62
     0
 10
3.8851808324346839
 20
-9.7547613963275808
 30
0.0
 11
2.0
 21
-7.8695805638928951
 31
0.0
  0
LINE
  5
1A73B
  8
0
 62
     0
 10
-9.4616830123206892
 20
0.0
 30
0.0
 11
-18.103896804350711
 21
8.6422137920301338
 31
0.0
  0
LINE
  5
1A73C
  8
0
 62
     0
 10
-2.0000000000001128
 20
-7.4616830123204627
 30
0.0
 11
-9.4616830123204636
 21
-0.0000000000001137
 31
0.0
  0
LINE
  5
1A73D
  8
0
 62
     0
 10
-13.05378546074826
 20
0.0000000000001137
 30
0.0
 11
-15.175214195387071
 21
2.1214287346389251
 31
0.0
  0
LINE
  5
1A73E
  8
0
 62
     0
 10
-16.603785460748661
 20
3.5500000000005221
 30
0.0
 11
-23.851266556543241
 21
10.79748109579509
 31
0.0
  0
LINE
  5
1A73F
  8
0
 62
     0
 10
-2.9878714975766338
 20
-10.065913963171511
 30
0.0
 11
-13.053785460748029
 21
-0.0000000000001137
 31
0.0
  0
LINE
  5
1A740
  8
0
 62
     0
 10
-20.195887909176118
 20
3.5500000000002951
 30
0.0
 11
-28.659515684223379
 21
12.013627775047439
 31
0.0
  0
LINE
  5
1A741
  8
0
 62
     0
 10
-29.100013291500659
 20
12.454125382324831
 30
0.0
 11
-29.745874817675372
 21
13.09998690849943
 31
0.0
  0
LINE
  5
1A742
  8
0
 62
     0
 10
-12.628969351714661
 20
-4.0169185574611674
 30
0.0
 11
-14.93702132611565
 21
-1.7088665830602841
 31
0.0
  0
LINE
  5
1A743
  8
0
 62
     0
 10
-23.78799035760369
 20
3.550000000000181
 30
0.0
 11
-27.799999599999751
 21
7.5620092423962433
 31
0.0
  0
LINE
  5
1A744
  8
0
 62
     0
 10
-31.237990357603621
 20
11.00000000000011
 30
0.0
 11
-33.000000200000052
 21
12.762009842396539
 31
0.0
  0
LINE
  5
1A745
  8
0
 62
     0
 10
-13.78316865624026
 20
-6.454821701363243
 30
0.0
 11
-16.687990357603208
 21
-3.5500000000002951
 31
0.0
  0
LINE
  5
1A746
  8
0
 62
     0
 10
-16.124704244214509
 20
-7.7053885618167888
 30
0.0
 11
-20.280092806031231
 21
-3.5500000000000682
 31
0.0
  0
LINE
  5
1A747
  8
0
 62
     0
 10
-18.57318348346837
 20
-8.849011770990387
 30
0.0
 11
-20.133604742031139
 21
-7.2885905124276169
 31
0.0
  0
LINE
  5
1A748
  8
0
 62
     0
 10
-24.295840827822978
 20
-6.7184568750635663
 30
0.0
 11
-27.132148651443231
 21
-3.8821490514432071
 31
0.0
  0
LINE
  5
1A749
  8
0
 62
     0
 10
-23.818861225215301
 20
-10.787538926098931
 30
0.0
 11
-27.799999599999872
 21
-6.8064005513143684
 31
0.0
  0
LINE
  5
1A74A
  8
0
 62
     0
 10
-26.63513577162314
 20
-11.56336682811866
 30
0.0
 11
-28.117386294735979
 21
-10.081116305005819
 31
0.0
  0
LINE
  5
1A74B
  8
0
 62
     0
 10
-29.133782390785999
 20
-12.656822657383479
 30
0.0
 11
-30.790605048169478
 21
-11.00000000000011
 31
0.0
  0
LINE
  5
1A74C
  8
0
 62
     0
 10
-31.632707496597501
 20
-13.749999999999661
 30
0.0
 11
-33.000000200000159
 21
-12.38270729659712
 31
0.0
  0
ENDBLK
  5
1A74E
  8
0
  0
BLOCK
  8
0
  2
*X89
 70
     1
 10
0.0
 20
0.0
 30
0.0
  3
*X89
  1

  0
LINE
  5
1A750
  8
0
 62
     0
 10
-0.0000000000000284
 20
-9.5063084520140251
 30
0.0
 11
1.2436915465089271
 21
-10.749999998522981
 31
0.0
  0
LINE
  5
1A751
  8
0
 62
     0
 10
1.3407299661463119
 20
-9.5
 30
0.0
 11
1.8000087437750381
 21
-9.9592787776287253
 31
0.0
  0
LINE
  5
1A752
  8
0
 62
     0
 10
-0.0000000000000568
 20
-4.118154779372559
 30
0.0
 11
0.8818452206275254
 21
-5.0000000000001128
 31
0.0
  0
LINE
  5
1A753
  8
0
 62
     0
 10
0.0
 20
-2.7711163612121932
 30
0.0
 11
1.8000087437751511
 21
-4.5711251049873454
 31
0.0
  0
LINE
  5
1A754
  8
0
 62
     0
 10
0.0
 20
-1.4240779430518271
 30
0.0
 11
2.125922055471249
 21
-3.5499999985230768
 31
0.0
  0
LINE
  5
1A755
  8
0
 62
     0
 10
-0.0000000000000284
 20
-0.0770395248914611
 30
0.0
 11
3.222960475108493
 21
-3.2999999999999821
 31
0.0
  0
LINE
  5
1A756
  8
0
 62
     0
 10
1.269998893268933
 20
0.0
 30
0.0
 11
4.5699988932688882
 21
-3.2999999999999541
 31
0.0
  0
LINE
  5
1A757
  8
0
 62
     0
 10
-0.0000000000000284
 20
1.2699988932689621
 30
0.0
 11
1.269998893268905
 21
0.0000000000000284
 31
0.0
  0
LINE
  5
1A758
  8
0
 62
     0
 10
2.6170373114292711
 20
0.0
 30
0.0
 11
5.9170373114292261
 21
-3.2999999999999541
 31
0.0
  0
LINE
  5
1A759
  8
0
 62
     0
 10
-0.0000000000000568
 20
2.6170373114293279
 30
0.0
 11
2.6170373114292711
 21
0.0
 31
0.0
  0
LINE
  5
1A75A
  8
0
 62
     0
 10
3.9640757295896658
 20
0.0
 30
0.0
 11
7.2640757295896199
 21
-3.2999999999999541
 31
0.0
  0
LINE
  5
1A75B
  8
0
 62
     0
 10
-0.0000000000000284
 20
3.9640757295896938
 30
0.0
 11
3.9640757295896369
 21
0.0
 31
0.0
  0
LINE
  5
1A75C
  8
0
 62
     0
 10
5.3111141477500894
 20
-0.0000000000000568
 30
0.0
 11
8.6111141477499871
 21
-3.2999999999999821
 31
0.0
  0
LINE
  5
1A75D
  8
0
 62
     0
 10
0.3111141477501178
 20
4.9999999999998863
 30
0.0
 11
5.3111141477500317
 21
0.0
 31
0.0
  0
LINE
  5
1A75E
  8
0
 62
     0
 10
3.3581525659104439
 20
3.2999999999999541
 30
0.0
 11
6.6581525659103704
 21
0.0
 31
0.0
  0
LINE
  5
1A75F
  8
0
 62
     0
 10
6.6581525659104548
 20
-0.0000000000000568
 30
0.0
 11
9.5072519243349518
 21
-2.8490993584245521
 31
0.0
  0
LINE
  5
1A760
  8
0
 62
     0
 10
1.65815256591037
 20
5.0
 30
0.0
 11
1.8000087437750381
 21
4.8581438221353599
 31
0.0
  0
LINE
  5
1A761
  8
0
 62
     0
 10
8.0051909840708202
 20
-0.0000000000000853
 30
0.0
 11
11.167075174998409
 21
-3.1618841909276512
 31
0.0
  0
LINE
  5
1A762
  8
0
 62
     0
 10
4.7051909840708097
 20
3.2999999999999541
 30
0.0
 11
8.0051909840707651
 21
0.0
 31
0.0
  0
LINE
  5
1A763
  8
0
 62
     0
 10
9.3522294022312167
 20
-0.0000000000000853
 30
0.0
 11
12.652229402231111
 21
-3.2999999999999541
 31
0.0
  0
LINE
  5
1A764
  8
0
 62
     0
 10
6.0522294022312053
 20
3.2999999999999261
 30
0.0
 11
9.3522294022311598
 21
0.0
 31
0.0
  0
LINE
  5
1A765
  8
0
 62
     0
 10
7.3992678203915707
 20
3.2999999999999261
 30
0.0
 11
10.699267820391499
 21
0.0
 31
0.0
  0
LINE
  5
1A766
  8
0
 62
     0
 10
10.699267820391579
 20
-0.0000000000000853
 30
0.0
 11
12.90000019999991
 21
-2.2007323796084099
 31
0.0
  0
LINE
  5
1A767
  8
0
 62
     0
 10
-0.0000000000000284
 20
10.699267820391521
 30
0.0
 11
1.1992678203915259
 21
9.5
 31
0.0
  0
LINE
  5
1A768
  8
0
 62
     0
 10
9.2443367211198222
 20
2.8019695174320409
 30
0.0
 11
12.046306238551891
 21
0.0
 31
0.0
  0
LINE
  5
1A769
  8
0
 62
     0
 10
12.046306238551979
 20
-0.0000000000000853
 30
0.0
 11
14.046306238551949
 21
-2.000000000000056
 31
0.0
  0
LINE
  5
1A76A
  8
0
 62
     0
 10
1.2963062400290251
 20
10.74999999852287
 30
0.0
 11
1.8000087437750381
 21
10.246297494776851
 31
0.0
  0
LINE
  5
1A76B
  8
0
 62
     0
 10
13.393344656712371
 20
-0.0000000000001137
 30
0.0
 11
15.393344656712291
 21
-2.000000000000056
 31
0.0
  0
LINE
  5
1A76C
  8
0
 62
     0
 10
15.90000020000002
 20
-2.5066555432877911
 30
0.0
 11
16.143344656712259
 21
-2.750000000000028
 31
0.0
  0
LINE
  5
1A76D
  8
0
 62
     0
 10
10.379815373485821
 20
3.0135292832264038
 30
0.0
 11
13.39334465671226
 21
0.0
 31
0.0
  0
LINE
  5
1A76E
  8
0
 62
     0
 10
14.74038307487274
 20
-0.0000000000000853
 30
0.0
 11
16.995191537436309
 21
-2.2548084625636871
 31
0.0
  0
LINE
  5
1A76F
  8
0
 62
     0
 10
11.513261852327391
 20
3.227121222545235
 30
0.0
 11
14.74038307487262
 21
0.0
 31
0.0
  0
LINE
  5
1A770
  8
0
 62
     0
 10
14.0874214930331
 20
1.9999999999998861
 30
0.0
 11
16.087421493032991
 21
0.0
 31
0.0
  0
LINE
  5
1A771
  8
0
 62
     0
 10
16.087421493033101
 20
-0.0000000000001137
 30
0.0
 11
17.00000000000005
 21
-0.9125785069670656
 31
0.0
  0
LINE
  5
1A772
  8
0
 62
     0
 10
12.78742149303284
 20
3.300000000000181
 30
0.0
 11
12.90000019999988
 21
3.1874212930331391
 31
0.0
  0
LINE
  5
1A773
  8
0
 62
     0
 10
15.43445991119358
 20
1.999999999999801
 30
0.0
 11
17.000000000000082
 21
0.4344599111932724
 31
0.0
  0
LINE
  5
1A774
  8
0
 62
     0
 10
16.031498329353749
 20
2.75
 30
0.0
 11
17.000000000000082
 21
1.7814983293536379
 31
0.0
  0
ENDBLK
  5
1A776
  8
0
  0
BLOCK
  8
0
  2
*X90
 70
     1
 10
0.0
 20
0.0
 30
0.0
  3
*X90
  1

  0
LINE
  5
1A778
  8
0
 62
     0
 10
13.41339771754258
 20
-3.163142703204584
 30
0.0
 11
14.23685749679546
 21
-3.986602482457442
 31
0.0
  0
LINE
  5
1A779
  8
0
 62
     0
 10
13.43543246913447
 20
-2.7361646487429989
 30
0.0
 11
14.66383555125705
 21
-3.9645677308655531
 31
0.0
  0
LINE
  5
1A77A
  8
0
 62
     0
 10
13.57832483846698
 20
-2.4300442120220671
 30
0.0
 11
14.969955987978009
 21
-3.821675361533067
 31
0.0
  0
LINE
  5
1A77B
  8
0
 62
     0
 10
13.79845481036614
 20
-2.2011613778677481
 30
0.0
 11
15.198838822132331
 21
-3.601545389633912
 31
0.0
  0
LINE
  5
1A77C
  8
0
 62
     0
 10
14.09420797036085
 20
-2.04790173180902
 30
0.0
 11
15.352098468191031
 21
-3.3057922296391662
 31
0.0
  0
LINE
  5
1A77D
  8
0
 62
     0
 10
14.50036871342669
 20
-2.005049668821413
 30
0.0
 11
15.39495053117866
 21
-2.8996314865733832
 31
0.0
  0
LINE
  5
1A77E
  8
0
 62
     0
 10
13.48049176570316
 20
2.6069297273297991
 30
0.0
 11
14.00692992732988
 21
2.0804915657031131
 31
0.0
  0
LINE
  5
1A77F
  8
0
 62
     0
 10
13.408249854336271
 20
3.1281844447501612
 30
0.0
 11
14.52818464475018
 21
2.0082496543362529
 31
0.0
  0
LINE
  5
1A780
  8
0
 62
     0
 10
13.51667895516789
 20
3.468768149971992
 30
0.0
 11
14.86876834997204
 21
2.1166787551678108
 31
0.0
  0
LINE
  5
1A781
  8
0
 62
     0
 10
13.71033322290037
 20
3.7241266882929831
 30
0.0
 11
15.124126888293031
 21
2.3103330229002941
 31
0.0
  0
LINE
  5
1A782
  8
0
 62
     0
 10
13.977233952031639
 20
3.9062387652151642
 30
0.0
 11
15.306238965215179
 21
2.5772337520315882
 31
0.0
  0
LINE
  5
1A783
  8
0
 62
     0
 10
14.334624784025429
 20
3.9978607392748131
 30
0.0
 11
15.39786093927486
 21
2.9346245840254142
 31
0.0
  0
LINE
  5
1A784
  8
0
 62
     0
 10
14.93953507999831
 20
3.8419632493554161
 30
0.0
 11
15.24196344935546
 21
3.5395348799982278
 31
0.0
  0
ENDBLK
  5
1A786
  8
0
  0
BLOCK
  8
0
  2
*X91
 70
     1
 10
0.0
 20
0.0
 30
0.0
  3
*X91
  1

  0
LINE
  5
1A788
  8
0
 62
     0
 10
6.8579485945102761
 20
5.150000099999942
 30
0.0
 11
1.636218397399261
 21
10.37173029711095
 31
0.0
  0
LINE
  5
1A789
  8
0
 62
     0
 10
0.0000000000001137
 20
8.4158462460825376
 30
0.0
 11
-1.909133603078998
 21
10.32497984916165
 31
0.0
  0
LINE
  5
1A78A
  8
0
 62
     0
 10
3.2658461460825938
 20
5.150000099999942
 30
0.0
 11
0.0000000000001137
 21
8.4158462460825376
 31
0.0
  0
LINE
  5
1A78B
  8
0
 62
     0
 10
-0.3262563023448592
 20
5.150000099999942
 30
0.0
 11
-4.6100846621066012
 21
9.4338284597616848
 31
0.0
  0
LINE
  5
1A78C
  8
0
 62
     0
 10
-3.9183587507726538
 20
5.150000099999942
 30
0.0
 11
-6.7832174315673219
 21
8.0148587807946114
 31
0.0
  0
LINE
  5
1A78D
  8
0
 62
     0
 10
8.0148587807946114
 20
-6.7832174315674356
 30
0.0
 11
6.3816414492273452
 21
-5.1500001000001703
 31
0.0
  0
LINE
  5
1A78E
  8
0
 62
     0
 10
-7.5104611992003347
 20
5.150000099999942
 30
0.0
 11
-8.5000000000001137
 21
6.1395389007996073
 31
0.0
  0
LINE
  5
1A78F
  8
0
 62
     0
 10
6.1499847166651298
 20
-8.5104458158656371
 30
0.0
 11
2.789539000799663
 21
-5.1500001000000557
 31
0.0
  0
LINE
  5
1A790
  8
0
 62
     0
 10
0.0
 20
-5.9525635476279604
 30
0.0
 11
-0.8025634476280174
 21
-5.1500001000000557
 31
0.0
  0
LINE
  5
1A791
  8
0
 62
     0
 10
4.0606450332290933
 20
-10.01320858085716
 30
0.0
 11
0.0000000000002274
 21
-5.9525635476283014
 31
0.0
  0
LINE
  5
1A792
  8
0
 62
     0
 10
0.0
 20
-9.5446659960557554
 30
0.0
 11
-4.3946658960555851
 21
-5.1500001000000557
 31
0.0
  0
LINE
  5
1A793
  8
0
 62
     0
 10
8.7087069959245582
 20
-18.2533729919802
 30
0.0
 11
0.0000000000003411
 21
-9.5446659960559828
 31
0.0
  0
LINE
  5
1A794
  8
0
 62
     0
 10
1.925088887040374
 20
-15.061857331523809
 30
0.0
 11
0.0
 21
-13.13676844448343
 31
0.0
  0
LINE
  5
1A795
  8
0
 62
     0
 10
0.0
 20
-13.13676844448343
 30
0.0
 11
-7.9867683444833801
 21
-5.1500001000000557
 31
0.0
  0
LINE
  5
1A796
  8
0
 62
     0
 10
10.833910220719069
 20
-23.97067866520263
 30
0.0
 11
3.54999999999984
 21
-16.686768444483391
 31
0.0
  0
LINE
  5
1A797
  8
0
 62
     0
 10
12.03432820925218
 20
-28.763199102163071
 30
0.0
 11
3.5499999999999541
 21
-20.278870892910842
 31
0.0
  0
LINE
  5
1A798
  8
0
 62
     0
 10
-1.761475686666472
 20
-14.96739520624442
 30
0.0
 11
-4.0379039399838339
 21
-12.69096695292717
 31
0.0
  0
LINE
  5
1A799
  8
0
 62
     0
 10
13.099999999999911
 20
-29.8288708929108
 30
0.0
 11
12.37112930708906
 21
-29.100000199999961
 31
0.0
  0
LINE
  5
1A79A
  8
0
 62
     0
 10
7.4790262586612917
 20
-27.799999599999872
 30
0.0
 11
3.54999999999984
 21
-23.870973341338409
 31
0.0
  0
LINE
  5
1A79B
  8
0
 62
     0
 10
-3.5500000000000682
 20
-16.7709733413385
 30
0.0
 11
-6.4848783247022084
 21
-13.83609501663636
 31
0.0
  0
LINE
  5
1A79C
  8
0
 62
     0
 10
12.67902685866159
 20
-33.000000200000159
 30
0.0
 11
11.00000000000011
 21
-31.320973341338689
 31
0.0
  0
LINE
  5
1A79D
  8
0
 62
     0
 10
-3.5499999999999541
 20
-20.363075789766409
 30
0.0
 11
-7.7330368020898268
 21
-16.180038987676539
 31
0.0
  0
LINE
  5
1A79E
  8
0
 62
     0
 10
-3.5499999999999541
 20
-23.95517823819409
 30
0.0
 11
-8.8741186659308369
 21
-18.631059572263212
 31
0.0
  0
LINE
  5
1A79F
  8
0
 62
     0
 10
-3.9236405433106252
 20
-27.173640143311101
 30
0.0
 11
-9.901571718252967
 21
-21.195708968368759
 31
0.0
  0
LINE
  5
1A7A0
  8
0
 62
     0
 10
-6.8893835350494319
 20
-27.799999599999872
 30
0.0
 11
-10.8070040231338
 21
-23.882379111915501
 31
0.0
  0
LINE
  5
1A7A1
  8
0
 62
     0
 10
-10.130989661818029
 20
-28.150495921658951
 30
0.0
 11
-11.57961971301688
 21
-26.7018658704601
 31
0.0
  0
LINE
  5
1A7A2
  8
0
 62
     0
 10
-10.999999999999771
 20
-30.873588031904781
 30
0.0
 11
-12.716460966271249
 21
-29.15712706563329
 31
0.0
  0
LINE
  5
1A7A3
  8
0
 62
     0
 10
-12.465690280332071
 20
-33.000000200000159
 30
0.0
 11
-13.76550531945383
 21
-31.700185160878501
 31
0.0
  0
ENDBLK
  5
1A7A5
  8
0
  0
BLOCK
  8
0
  2
*X92
 70
     1
 10
0.0
 20
0.0
 30
0.0
  3
*X92
  1

  0
LINE
  5
1A7A7
  8
0
 62
     0
 10
17.749270850893371
 20
-61.46873075173783
 30
0.0
 11
18.00000000000006
 21
-61.218001602631091
 31
0.0
  0
LINE
  5
1A7A8
  8
0
 62
     0
 10
15.504206820626109
 20
-61.46873075173783
 30
0.0
 11
18.00000000000011
 21
-58.972937572363769
 31
0.0
  0
LINE
  5
1A7A9
  8
0
 62
     0
 10
13.259142790358849
 20
-61.46873075173783
 30
0.0
 11
18.00000000000011
 21
-56.727873542096518
 31
0.0
  0
LINE
  5
1A7AA
  8
0
 62
     0
 10
11.014078760091589
 20
-61.46873075173778
 30
0.0
 11
18.00000000000011
 21
-54.482809511829259
 31
0.0
  0
LINE
  5
1A7AB
  8
0
 62
     0
 10
9.0000000000000568
 20
-61.237745481561952
 30
0.0
 11
18.00000000000006
 21
-52.237745481561937
 31
0.0
  0
LINE
  5
1A7AC
  8
0
 62
     0
 10
9.0000000000000568
 20
-58.992681451294679
 30
0.0
 11
18.00000000000011
 21
-49.992681451294622
 31
0.0
  0
LINE
  5
1A7AD
  8
0
 62
     0
 10
9.0000000000001137
 20
-56.747617421027421
 30
0.0
 11
18.00000000000011
 21
-47.747617421027371
 31
0.0
  0
LINE
  5
1A7AE
  8
0
 62
     0
 10
9.0000000000001137
 20
-54.50255339076012
 30
0.0
 11
18.000000000000171
 21
-45.502553390759999
 31
0.0
  0
LINE
  5
1A7AF
  8
0
 62
     0
 10
9.0
 20
-52.257489360492848
 30
0.0
 11
18.00000000000011
 21
-43.257489360492741
 31
0.0
  0
LINE
  5
1A7B0
  8
0
 62
     0
 10
9.0000000000000568
 20
-50.01242533022554
 30
0.0
 11
18.00000000000011
 21
-41.012425330225483
 31
0.0
  0
LINE
  5
1A7B1
  8
0
 62
     0
 10
9.0000000000000568
 20
-47.767361299958267
 30
0.0
 11
18.00000000000011
 21
-38.767361299958232
 31
0.0
  0
LINE
  5
1A7B2
  8
0
 62
     0
 10
9.0000000000000568
 20
-45.522297269690966
 30
0.0
 11
18.00000000000011
 21
-36.52229726969091
 31
0.0
  0
LINE
  5
1A7B3
  8
0
 62
     0
 10
9.0000000000000568
 20
-43.277233239423651
 30
0.0
 11
18.000000000000171
 21
-34.277233239423538
 31
0.0
  0
LINE
  5
1A7B4
  8
0
 62
     0
 10
9.0000000000000568
 20
-41.032169209156393
 30
0.0
 11
18.000000000000171
 21
-32.03216920915628
 31
0.0
  0
LINE
  5
1A7B5
  8
0
 62
     0
 10
9.0000000000000568
 20
-38.787105178889142
 30
0.0
 11
18.000000000000231
 21
-29.787105178889021
 31
0.0
  0
LINE
  5
1A7B6
  8
0
 62
     0
 10
9.0000000000000568
 20
-36.54204114862182
 30
0.0
 11
18.000000000000171
 21
-27.54204114862171
 31
0.0
  0
LINE
  5
1A7B7
  8
0
 62
     0
 10
8.9999999999999432
 20
-34.296977118354619
 30
0.0
 11
18.000000000000171
 21
-25.296977118354391
 31
0.0
  0
LINE
  5
1A7B8
  8
0
 62
     0
 10
9.0
 20
-32.051913088087311
 30
0.0
 11
18.000000000000171
 21
-23.051913088087129
 31
0.0
  0
LINE
  5
1A7B9
  8
0
 62
     0
 10
9.0
 20
-29.806849057820049
 30
0.0
 11
18.000000000000231
 21
-20.806849057819822
 31
0.0
  0
LINE
  5
1A7BA
  8
0
 62
     0
 10
9.0
 20
-27.56178502755273
 30
0.0
 11
18.000000000000231
 21
-18.561785027552499
 31
0.0
  0
LINE
  5
1A7BB
  8
0
 62
     0
 10
8.9999999999999432
 20
-25.316720997285479
 30
0.0
 11
18.000000000000231
 21
-16.316720997285241
 31
0.0
  0
LINE
  5
1A7BC
  8
0
 62
     0
 10
8.9999999999999432
 20
-23.07165696701821
 30
0.0
 11
18.000000000000231
 21
-14.071656967017979
 31
0.0
  0
LINE
  5
1A7BD
  8
0
 62
     0
 10
8.9999999999999432
 20
-20.826592936750899
 30
0.0
 11
18.000000000000231
 21
-11.826592936750609
 31
0.0
  0
LINE
  5
1A7BE
  8
0
 62
     0
 10
8.9999999999999432
 20
-18.58152890648358
 30
0.0
 11
18.000000000000171
 21
-9.5815289064833564
 31
0.0
  0
LINE
  5
1A7BF
  8
0
 62
     0
 10
16.353366242229299
 20
-8.9830986339870265
 30
0.0
 11
16.58651145322483
 21
-8.7499534229914389
 31
0.0
  0
LINE
  5
1A7C0
  8
0
 62
     0
 10
8.9999999999999432
 20
-16.336464876216318
 30
0.0
 11
16.264414818379521
 21
-9.0720500578367478
 31
0.0
  0
LINE
  5
1A7C1
  8
0
 62
     0
 10
17.341447422598829
 20
-5.7499534233501768
 30
0.0
 11
18.00000000000011
 21
-5.091400845948896
 31
0.0
  0
LINE
  5
1A7C2
  8
0
 62
     0
 10
8.9999999999999432
 20
-14.091400845949069
 30
0.0
 11
14.34144742402435
 21
-8.7499534219246584
 31
0.0
  0
LINE
  5
1A7C3
  8
0
 62
     0
 10
15.09638339339835
 20
-5.7499534222833404
 30
0.0
 11
15.475887752038769
 21
-5.3704490636429218
 31
0.0
  0
LINE
  5
1A7C4
  8
0
 62
     0
 10
15.516052887897841
 20
-5.3302839277838521
 30
0.0
 11
18.00000000000011
 21
-2.8463368156815809
 31
0.0
  0
LINE
  5
1A7C5
  8
0
 62
     0
 10
9.0
 20
-11.84633681568169
 30
0.0
 11
12.096383394823871
 21
-8.7499534208578211
 31
0.0
  0
LINE
  5
1A7C6
  8
0
 62
     0
 10
12.85131936419776
 20
-5.7499534212166159
 30
0.0
 11
18.00000000000006
 21
-0.6012727854143236
 31
0.0
  0
LINE
  5
1A7C7
  8
0
 62
     0
 10
8.9999999999999432
 20
-9.6012727854144373
 30
0.0
 11
9.8085489289221073
 21
-8.7927238564922732
 31
0.0
  0
LINE
  5
1A7C8
  8
0
 62
     0
 10
10.76769871211496
 20
-5.5885100430321577
 30
0.0
 11
18.00000000000006
 21
1.6437912448529339
 31
0.0
  0
LINE
  5
1A7C9
  8
0
 62
     0
 10
8.9999999999999432
 20
-5.11114472487992
 30
0.0
 11
18.00000000000006
 21
3.8888552751201919
 31
0.0
  0
LINE
  5
1A7CA
  8
0
 62
     0
 10
8.9999999999999432
 20
-2.866080694612605
 30
0.0
 11
17.61612726817793
 21
5.7500465735653838
 31
0.0
  0
LINE
  5
1A7CB
  8
0
 62
     0
 10
8.9999999999999432
 20
-0.6210166643452908
 30
0.0
 11
15.37106323897728
 21
5.7500465746320506
 31
0.0
  0
LINE
  5
1A7CC
  8
0
 62
     0
 10
16.125999208351288
 20
8.7500465742733127
 30
0.0
 11
18.00000000000011
 21
10.62404736592214
 31
0.0
  0
LINE
  5
1A7CD
  8
0
 62
     0
 10
8.9999999999999432
 20
1.624047365921967
 30
0.0
 11
13.02099569600597
 21
5.645043061927935
 31
0.0
  0
LINE
  5
1A7CE
  8
0
 62
     0
 10
13.98014547919882
 20
8.8492568753880505
 30
0.0
 11
18.00000000000011
 21
12.869111396189391
 31
0.0
  0
LINE
  5
1A7CF
  8
0
 62
     0
 10
9.0
 20
3.869111396189282
 30
0.0
 11
10.88093518057638
 21
5.7500465767656124
 31
0.0
  0
LINE
  5
1A7D0
  8
0
 62
     0
 10
11.635871149950271
 20
8.7500465764068736
 30
0.0
 11
18.00000000000011
 21
15.114175426456709
 31
0.0
  0
LINE
  5
1A7D1
  8
0
 62
     0
 10
9.3908071207497414
 20
8.7500465774735972
 30
0.0
 11
18.00000000000006
 21
17.359239456723969
 31
0.0
  0
LINE
  5
1A7D2
  8
0
 62
     0
 10
9.0000000000001137
 20
10.604303486991229
 30
0.0
 11
18.00000000000006
 21
19.604303486991231
 31
0.0
  0
LINE
  5
1A7D3
  8
0
 62
     0
 10
9.0000000000001137
 20
12.849367517258541
 30
0.0
 11
18.00000000000011
 21
21.849367517258599
 31
0.0
  0
LINE
  5
1A7D4
  8
0
 62
     0
 10
9.0000000000001137
 20
15.094431547525859
 30
0.0
 11
18.00000000000011
 21
24.094431547525861
 31
0.0
  0
LINE
  5
1A7D5
  8
0
 62
     0
 10
9.0000000000000568
 20
17.339495577793109
 30
0.0
 11
18.00000000000011
 21
26.339495577793169
 31
0.0
  0
LINE
  5
1A7D6
  8
0
 62
     0
 10
9.0000000000000568
 20
19.584559608060371
 30
0.0
 11
18.00000000000011
 21
28.584559608060431
 31
0.0
  0
LINE
  5
1A7D7
  8
0
 62
     0
 10
9.0000000000001137
 20
21.82962363832775
 30
0.0
 11
18.00000000000011
 21
30.82962363832775
 31
0.0
  0
LINE
  5
1A7D8
  8
0
 62
     0
 10
9.0000000000000568
 20
24.074687668595001
 30
0.0
 11
18.00000000000006
 21
33.074687668594997
 31
0.0
  0
LINE
  5
1A7D9
  8
0
 62
     0
 10
9.0000000000000568
 20
26.31975169886227
 30
0.0
 11
18.00000000000006
 21
35.319751698862262
 31
0.0
  0
LINE
  5
1A7DA
  8
0
 62
     0
 10
9.0000000000001137
 20
28.564815729129521
 30
0.0
 11
18.00000000000011
 21
37.564815729129577
 31
0.0
  0
LINE
  5
1A7DB
  8
0
 62
     0
 10
9.0000000000001137
 20
30.809879759396839
 30
0.0
 11
18.00000000000011
 21
39.809879759396892
 31
0.0
  0
LINE
  5
1A7DC
  8
0
 62
     0
 10
9.0000000000000568
 20
33.054943789664151
 30
0.0
 11
18.00000000000011
 21
42.0549437896642
 31
0.0
  0
LINE
  5
1A7DD
  8
0
 62
     0
 10
9.0000000000000568
 20
35.300007819931409
 30
0.0
 11
18.00000000000011
 21
44.300007819931459
 31
0.0
  0
LINE
  5
1A7DE
  8
0
 62
     0
 10
9.0000000000000568
 20
37.545071850198667
 30
0.0
 11
16.07742504976892
 21
44.622496899967523
 31
0.0
  0
LINE
  5
1A7DF
  8
0
 62
     0
 10
9.0000000000001137
 20
39.790135880466039
 30
0.0
 11
13.83236101950166
 21
44.622496899967587
 31
0.0
  0
LINE
  5
1A7E0
  8
0
 62
     0
 10
9.0000000000000568
 20
42.035199910733297
 30
0.0
 11
11.587296989234339
 21
44.622496899967587
 31
0.0
  0
LINE
  5
1A7E1
  8
0
 62
     0
 10
9.0000000000001137
 20
44.280263941000548
 30
0.0
 11
9.3422329589670881
 21
44.622496899967587
 31
0.0
  0
ENDBLK
  5
1A7E3
  8
0
  0
BLOCK
  8
0
  2
*X93
 70
     1
 10
0.0
 20
0.0
 30
0.0
  3
*X93
  1

  0
LINE
  5
1A7E5
  8
0
 62
     0
 10
4.01579819129564
 20
-61.431188349899848
 30
0.0
 11
4.01579819129564
 21
-61.431188349899848
 31
0.0
  0
LINE
  5
1A7E6
  8
0
 62
     0
 10
3.5476270824212111
 20
-61.002188568063907
 30
0.0
 11
3.5476270824212111
 21
-61.002188568063907
 31
0.0
  0
LINE
  5
1A7E7
  8
0
 62
     0
 10
1.0195030944992971
 20
-58.685589746149809
 30
0.0
 11
1.0195030944992971
 21
-58.685589746149809
 31
0.0
  0
LINE
  5
1A7E8
  8
0
 62
     0
 10
8.6550676192222316
 20
-56.456296513577612
 30
0.0
 11
8.6550676192222316
 21
-56.456296513577612
 31
0.0
  0
LINE
  5
1A7E9
  8
0
 62
     0
 10
6.4452999853349269
 20
-54.431417543311952
 30
0.0
 11
6.4452999853349269
 21
-54.431417543311952
 31
0.0
  0
LINE
  5
1A7EA
  8
0
 62
     0
 10
5.9771288764604993
 20
-54.002417761476011
 30
0.0
 11
5.9771288764604993
 21
-54.002417761476011
 31
0.0
  0
LINE
  5
1A7EB
  8
0
 62
     0
 10
3.449004888538584
 20
-51.685818939561912
 30
0.0
 11
3.449004888538584
 21
-51.685818939561912
 31
0.0
  0
LINE
  5
1A7EC
  8
0
 62
     0
 10
1.23923725465128
 20
-49.660939969296251
 30
0.0
 11
1.23923725465128
 21
-49.660939969296251
 31
0.0
  0
LINE
  5
1A7ED
  8
0
 62
     0
 10
0.7710661457768521
 20
-49.23194018746031
 30
0.0
 11
0.7710661457768521
 21
-49.23194018746031
 31
0.0
  0
LINE
  5
1A7EE
  8
0
 62
     0
 10
8.8748017793742875
 20
-47.431646736724133
 30
0.0
 11
8.8748017793742875
 21
-47.431646736724133
 31
0.0
  0
LINE
  5
1A7EF
  8
0
 62
     0
 10
8.4066306704998581
 20
-47.002646954888192
 30
0.0
 11
8.4066306704998581
 21
-47.002646954888192
 31
0.0
  0
LINE
  5
1A7F0
  8
0
 62
     0
 10
5.8785066825779433
 20
-44.686048132974094
 30
0.0
 11
5.8785066825779433
 21
-44.686048132974094
 31
0.0
  0
LINE
  5
1A7F1
  8
0
 62
     0
 10
3.668739048690639
 20
-42.661169162708433
 30
0.0
 11
3.668739048690639
 21
-42.661169162708433
 31
0.0
  0
LINE
  5
1A7F2
  8
0
 62
     0
 10
3.200567939816211
 20
-42.232169380872492
 30
0.0
 11
3.200567939816211
 21
-42.232169380872492
 31
0.0
  0
LINE
  5
1A7F3
  8
0
 62
     0
 10
0.6724439518942967
 20
-39.915570558958393
 30
0.0
 11
0.6724439518942967
 21
-39.915570558958393
 31
0.0
  0
LINE
  5
1A7F4
  8
0
 62
     0
 10
8.3080084766172941
 20
-37.68627732638619
 30
0.0
 11
8.3080084766172941
 21
-37.68627732638619
 31
0.0
  0
LINE
  5
1A7F5
  8
0
 62
     0
 10
6.0982408427299903
 20
-35.661398356120543
 30
0.0
 11
6.0982408427299903
 21
-35.661398356120543
 31
0.0
  0
LINE
  5
1A7F6
  8
0
 62
     0
 10
5.630069733855561
 20
-35.232398574284602
 30
0.0
 11
5.630069733855561
 21
-35.232398574284602
 31
0.0
  0
LINE
  5
1A7F7
  8
0
 62
     0
 10
3.1019457459336461
 20
-32.915799752370503
 30
0.0
 11
3.1019457459336461
 21
-32.915799752370503
 31
0.0
  0
LINE
  5
1A7F8
  8
0
 62
     0
 10
0.8921781120463432
 20
-30.890920782104839
 30
0.0
 11
0.8921781120463432
 21
-30.890920782104839
 31
0.0
  0
LINE
  5
1A7F9
  8
0
 62
     0
 10
0.4240070031719147
 20
-30.461921000268891
 30
0.0
 11
0.4240070031719147
 21
-30.461921000268891
 31
0.0
  0
LINE
  5
1A7FA
  8
0
 62
     0
 10
8.5277426367693003
 20
-28.661627549532721
 30
0.0
 11
8.5277426367693003
 21
-28.661627549532721
 31
0.0
  0
LINE
  5
1A7FB
  8
0
 62
     0
 10
8.0595715278948692
 20
-28.232627767696769
 30
0.0
 11
8.0595715278948692
 21
-28.232627767696769
 31
0.0
  0
LINE
  5
1A7FC
  8
0
 62
     0
 10
5.5314475399729552
 20
-25.916028945782671
 30
0.0
 11
5.5314475399729552
 21
-25.916028945782671
 31
0.0
  0
LINE
  5
1A7FD
  8
0
 62
     0
 10
3.321679906085651
 20
-23.89114997551701
 30
0.0
 11
3.321679906085651
 21
-23.89114997551701
 31
0.0
  0
LINE
  5
1A7FE
  8
0
 62
     0
 10
2.853508797211223
 20
-23.462150193681069
 30
0.0
 11
2.853508797211223
 21
-23.462150193681069
 31
0.0
  0
LINE
  5
1A7FF
  8
0
 62
     0
 10
0.3253848092893086
 20
-21.14555137176697
 30
0.0
 11
0.3253848092893086
 21
-21.14555137176697
 31
0.0
  0
LINE
  5
1A800
  8
0
 62
     0
 10
7.960949334012235
 20
-18.916258139194781
 30
0.0
 11
7.960949334012235
 21
-18.916258139194781
 31
0.0
  0
LINE
  5
1A801
  8
0
 62
     0
 10
5.751181700124933
 20
-16.89137916892912
 30
0.0
 11
5.751181700124933
 21
-16.89137916892912
 31
0.0
  0
LINE
  5
1A802
  8
0
 62
     0
 10
5.2830105912505037
 20
-16.462379387093169
 30
0.0
 11
5.2830105912505037
 21
-16.462379387093169
 31
0.0
  0
LINE
  5
1A803
  8
0
 62
     0
 10
2.7548866033285888
 20
-14.14578056517907
 30
0.0
 11
2.7548866033285888
 21
-14.14578056517907
 31
0.0
  0
LINE
  5
1A804
  8
0
 62
     0
 10
0.5451189694412864
 20
-12.12090159491342
 30
0.0
 11
0.5451189694412864
 21
-12.12090159491342
 31
0.0
  0
LINE
  5
1A805
  8
0
 62
     0
 10
0.0769478605668576
 20
-11.69190181307747
 30
0.0
 11
0.0769478605668576
 21
-11.69190181307747
 31
0.0
  0
LINE
  5
1A806
  8
0
 62
     0
 10
8.1806834941643185
 20
-9.8916083623412607
 30
0.0
 11
8.1806834941643185
 21
-9.8916083623412607
 31
0.0
  0
LINE
  5
1A807
  8
0
 62
     0
 10
7.71251238528989
 20
-9.4626085805053162
 30
0.0
 11
7.71251238528989
 21
-9.4626085805053162
 31
0.0
  0
LINE
  5
1A808
  8
0
 62
     0
 10
2.9746207634806661
 20
-5.1211307883256101
 30
0.0
 11
2.9746207634806661
 21
-5.1211307883256101
 31
0.0
  0
LINE
  5
1A809
  8
0
 62
     0
 10
2.506449654606238
 20
-4.6921310064896664
 30
0.0
 11
2.506449654606238
 21
-4.6921310064896664
 31
0.0
  0
LINE
  5
1A80A
  8
0
 62
     0
 10
7.6138901914073207
 20
-0.1462389520033798
 30
0.0
 11
7.6138901914073207
 21
-0.1462389520033798
 31
0.0
  0
LINE
  5
1A80B
  8
0
 62
     0
 10
5.4041225575200169
 20
1.8786400182622769
 30
0.0
 11
5.4041225575200169
 21
1.8786400182622769
 31
0.0
  0
LINE
  5
1A80C
  8
0
 62
     0
 10
4.9359514486455893
 20
2.307639800098221
 30
0.0
 11
4.9359514486455893
 21
2.307639800098221
 31
0.0
  0
LINE
  5
1A80D
  8
0
 62
     0
 10
2.407827460723674
 20
4.6242386220123208
 30
0.0
 11
2.407827460723674
 21
4.6242386220123208
 31
0.0
  0
LINE
  5
1A80E
  8
0
 62
     0
 10
7.8336243515593544
 20
8.8784108248501266
 30
0.0
 11
7.8336243515593544
 21
8.8784108248501266
 31
0.0
  0
LINE
  5
1A80F
  8
0
 62
     0
 10
7.3654532426849251
 20
9.3074106066860711
 30
0.0
 11
7.3654532426849251
 21
9.3074106066860711
 31
0.0
  0
LINE
  5
1A810
  8
0
 62
     0
 10
4.8373292547630111
 20
11.62400942860017
 30
0.0
 11
4.8373292547630111
 21
11.62400942860017
 31
0.0
  0
LINE
  5
1A811
  8
0
 62
     0
 10
2.6275616208757082
 20
13.64888839886583
 30
0.0
 11
2.6275616208757082
 21
13.64888839886583
 31
0.0
  0
LINE
  5
1A812
  8
0
 62
     0
 10
2.1593905120012789
 20
14.07788818070177
 30
0.0
 11
2.1593905120012789
 21
14.07788818070177
 31
0.0
  0
LINE
  5
1A813
  8
0
 62
     0
 10
7.2668310488023229
 20
18.623780235188089
 30
0.0
 11
7.2668310488023229
 21
18.623780235188089
 31
0.0
  0
LINE
  5
1A814
  8
0
 62
     0
 10
5.0570634149150191
 20
20.648659205453761
 30
0.0
 11
5.0570634149150191
 21
20.648659205453761
 31
0.0
  0
LINE
  5
1A815
  8
0
 62
     0
 10
4.5888923060405906
 20
21.077658987289698
 30
0.0
 11
4.5888923060405906
 21
21.077658987289698
 31
0.0
  0
LINE
  5
1A816
  8
0
 62
     0
 10
2.0607683181186771
 20
23.3942578092038
 30
0.0
 11
2.0607683181186771
 21
23.3942578092038
 31
0.0
  0
LINE
  5
1A817
  8
0
 62
     0
 10
7.4865652089542847
 20
27.648430012041619
 30
0.0
 11
7.4865652089542847
 21
27.648430012041619
 31
0.0
  0
LINE
  5
1A818
  8
0
 62
     0
 10
7.0183941000798571
 20
28.07742979387756
 30
0.0
 11
7.0183941000798571
 21
28.07742979387756
 31
0.0
  0
LINE
  5
1A819
  8
0
 62
     0
 10
4.4902701121579423
 20
30.394028615791662
 30
0.0
 11
4.4902701121579423
 21
30.394028615791662
 31
0.0
  0
LINE
  5
1A81A
  8
0
 62
     0
 10
2.2805024782706389
 20
32.418907586057323
 30
0.0
 11
2.2805024782706389
 21
32.418907586057323
 31
0.0
  0
LINE
  5
1A81B
  8
0
 62
     0
 10
1.81233136939621
 20
32.847907367893256
 30
0.0
 11
1.81233136939621
 21
32.847907367893256
 31
0.0
  0
LINE
  5
1A81C
  8
0
 62
     0
 10
6.9197719061972807
 20
37.393799422379502
 30
0.0
 11
6.9197719061972807
 21
37.393799422379502
 31
0.0
  0
LINE
  5
1A81D
  8
0
 62
     0
 10
4.7100042723099769
 20
39.418678392645162
 30
0.0
 11
4.7100042723099769
 21
39.418678392645162
 31
0.0
  0
LINE
  5
1A81E
  8
0
 62
     0
 10
4.2418331634355493
 20
39.847678174481111
 30
0.0
 11
4.2418331634355493
 21
39.847678174481111
 31
0.0
  0
LINE
  5
1A81F
  8
0
 62
     0
 10
1.713709175513634
 20
42.164276996395202
 30
0.0
 11
1.713709175513634
 21
42.164276996395202
 31
0.0
  0
LINE
  5
1A820
  8
0
 62
     0
 10
7.6039294291079393
 20
-61.37093519581228
 30
0.0
 11
7.6039294291079393
 21
-61.37093519581228
 31
0.0
  0
LINE
  5
1A821
  8
0
 62
     0
 10
2.569725889050825
 20
-58.163793833590091
 30
0.0
 11
2.569725889050825
 21
-58.163793833590091
 31
0.0
  0
LINE
  5
1A822
  8
0
 62
     0
 10
6.62366390120894
 20
-55.692888177442953
 30
0.0
 11
6.62366390120894
 21
-55.692888177442953
 31
0.0
  0
LINE
  5
1A823
  8
0
 62
     0
 10
5.5525567650265764
 20
-55.010517674842482
 30
0.0
 11
5.5525567650265764
 21
-55.010517674842482
 31
0.0
  0
LINE
  5
1A824
  8
0
 62
     0
 10
0.5183532249694629
 20
-51.803376312620287
 30
0.0
 11
0.5183532249694629
 21
-51.803376312620287
 31
0.0
  0
LINE
  5
1A825
  8
0
 62
     0
 10
8.4282769273839921
 20
-51.789004465834807
 30
0.0
 11
8.4282769273839921
 21
-51.789004465834807
 31
0.0
  0
LINE
  5
1A826
  8
0
 62
     0
 10
4.5722912371274811
 20
-49.332470656473127
 30
0.0
 11
4.5722912371274811
 21
-49.332470656473127
 31
0.0
  0
LINE
  5
1A827
  8
0
 62
     0
 10
3.501184100945117
 20
-48.650100153872657
 30
0.0
 11
3.501184100945117
 21
-48.650100153872657
 31
0.0
  0
LINE
  5
1A828
  8
0
 62
     0
 10
6.3769042633026087
 20
-45.428586944865053
 30
0.0
 11
6.3769042633026087
 21
-45.428586944865053
 31
0.0
  0
LINE
  5
1A829
  8
0
 62
     0
 10
2.5209185730460968
 20
-42.972053135503373
 30
0.0
 11
2.5209185730460968
 21
-42.972053135503373
 31
0.0
  0
LINE
  5
1A82A
  8
0
 62
     0
 10
1.4498114368637329
 20
-42.289682632902903
 30
0.0
 11
1.4498114368637329
 21
-42.289682632902903
 31
0.0
  0
LINE
  5
1A82B
  8
0
 62
     0
 10
4.3255315992211782
 20
-39.068169423895192
 30
0.0
 11
4.3255315992211782
 21
-39.068169423895192
 31
0.0
  0
LINE
  5
1A82C
  8
0
 62
     0
 10
0.4695459089646658
 20
-36.611635614533512
 30
0.0
 11
0.4695459089646658
 21
-36.611635614533512
 31
0.0
  0
LINE
  5
1A82D
  8
0
 62
     0
 10
8.3794696113792817
 20
-36.597263767748082
 30
0.0
 11
8.3794696113792817
 21
-36.597263767748082
 31
0.0
  0
LINE
  5
1A82E
  8
0
 62
     0
 10
7.3083624751969172
 20
-35.914893265147612
 30
0.0
 11
7.3083624751969172
 21
-35.914893265147612
 31
0.0
  0
LINE
  5
1A82F
  8
0
 62
     0
 10
2.2741589351398028
 20
-32.707751902925423
 30
0.0
 11
2.2741589351398028
 21
-32.707751902925423
 31
0.0
  0
LINE
  5
1A830
  8
0
 62
     0
 10
6.328096947297821
 20
-30.236846246778288
 30
0.0
 11
6.328096947297821
 21
-30.236846246778288
 31
0.0
  0
LINE
  5
1A831
  8
0
 62
     0
 10
5.2569898111154574
 20
-29.554475744177829
 30
0.0
 11
5.2569898111154574
 21
-29.554475744177829
 31
0.0
  0
LINE
  5
1A832
  8
0
 62
     0
 10
0.2227862710583442
 20
-26.34733438195563
 30
0.0
 11
0.2227862710583442
 21
-26.34733438195563
 31
0.0
  0
LINE
  5
1A833
  8
0
 62
     0
 10
8.1327099734729629
 20
-26.332962535170171
 30
0.0
 11
8.1327099734729629
 21
-26.332962535170171
 31
0.0
  0
LINE
  5
1A834
  8
0
 62
     0
 10
4.27672428321645
 20
-23.876428725808481
 30
0.0
 11
4.27672428321645
 21
-23.876428725808481
 31
0.0
  0
LINE
  5
1A835
  8
0
 62
     0
 10
3.2056171470340851
 20
-23.194058223208021
 30
0.0
 11
3.2056171470340851
 21
-23.194058223208021
 31
0.0
  0
LINE
  5
1A836
  8
0
 62
     0
 10
6.08133730939148
 20
-19.97254501420036
 30
0.0
 11
6.08133730939148
 21
-19.97254501420036
 31
0.0
  0
LINE
  5
1A837
  8
0
 62
     0
 10
2.225351619134968
 20
-17.51601120483868
 30
0.0
 11
2.225351619134968
 21
-17.51601120483868
 31
0.0
  0
LINE
  5
1A838
  8
0
 62
     0
 10
1.1542444829526031
 20
-16.83364070223821
 30
0.0
 11
1.1542444829526031
 21
-16.83364070223821
 31
0.0
  0
LINE
  5
1A839
  8
0
 62
     0
 10
4.0299646453101081
 20
-13.61212749323059
 30
0.0
 11
4.0299646453101081
 21
-13.61212749323059
 31
0.0
  0
LINE
  5
1A83A
  8
0
 62
     0
 10
0.1739789550535956
 20
-11.15559368386891
 30
0.0
 11
0.1739789550535956
 21
-11.15559368386891
 31
0.0
  0
LINE
  5
1A83B
  8
0
 62
     0
 10
8.0839026574682151
 20
-11.14122183708349
 30
0.0
 11
8.0839026574682151
 21
-11.14122183708349
 31
0.0
  0
LINE
  5
1A83C
  8
0
 62
     0
 10
7.0127955212858497
 20
-10.45885133448302
 30
0.0
 11
7.0127955212858497
 21
-10.45885133448302
 31
0.0
  0
LINE
  5
1A83D
  8
0
 62
     0
 10
6.0325299933867882
 20
-4.7808043161136462
 30
0.0
 11
6.0325299933867882
 21
-4.7808043161136462
 31
0.0
  0
LINE
  5
1A83E
  8
0
 62
     0
 10
4.9614228572044228
 20
-4.0984338135131786
 30
0.0
 11
4.9614228572044228
 21
-4.0984338135131786
 31
0.0
  0
LINE
  5
1A83F
  8
0
 62
     0
 10
7.8371430195619052
 20
-0.8769206045055604
 30
0.0
 11
7.8371430195619052
 21
-0.8769206045055604
 31
0.0
  0
LINE
  5
1A840
  8
0
 62
     0
 10
3.9811573293053919
 20
1.5796132048561189
 30
0.0
 11
3.9811573293053919
 21
1.5796132048561189
 31
0.0
  0
LINE
  5
1A841
  8
0
 62
     0
 10
2.9100501931230269
 20
2.2619837074565861
 30
0.0
 11
2.9100501931230269
 21
2.2619837074565861
 31
0.0
  0
LINE
  5
1A842
  8
0
 62
     0
 10
5.7857703554804303
 20
5.4834969164642349
 30
0.0
 11
5.7857703554804303
 21
5.4834969164642349
 31
0.0
  0
LINE
  5
1A843
  8
0
 62
     0
 10
3.734397691399074
 20
11.84391443743405
 30
0.0
 11
3.734397691399074
 21
11.84391443743405
 31
0.0
  0
LINE
  5
1A844
  8
0
 62
     0
 10
7.7883357035571521
 20
14.31482009358125
 30
0.0
 11
7.7883357035571521
 21
14.31482009358125
 31
0.0
  0
LINE
  5
1A845
  8
0
 62
     0
 10
6.7172285673747876
 20
14.997190596181721
 30
0.0
 11
6.7172285673747876
 21
14.997190596181721
 31
0.0
  0
LINE
  5
1A846
  8
0
 62
     0
 10
1.6830250273176739
 20
18.204331958403909
 30
0.0
 11
1.6830250273176739
 21
18.204331958403909
 31
0.0
  0
LINE
  5
1A847
  8
0
 62
     0
 10
5.7369630394757527
 20
20.675237614551001
 30
0.0
 11
5.7369630394757527
 21
20.675237614551001
 31
0.0
  0
LINE
  5
1A848
  8
0
 62
     0
 10
4.6658559032933891
 20
21.357608117151461
 30
0.0
 11
4.6658559032933891
 21
21.357608117151461
 31
0.0
  0
LINE
  5
1A849
  8
0
 62
     0
 10
7.5415760656507649
 20
24.57912132615909
 30
0.0
 11
7.5415760656507649
 21
24.57912132615909
 31
0.0
  0
LINE
  5
1A84A
  8
0
 62
     0
 10
3.685590375394252
 20
27.03565513552077
 30
0.0
 11
3.685590375394252
 21
27.03565513552077
 31
0.0
  0
LINE
  5
1A84B
  8
0
 62
     0
 10
2.614483239211888
 20
27.71802563812124
 30
0.0
 11
2.614483239211888
 21
27.71802563812124
 31
0.0
  0
LINE
  5
1A84C
  8
0
 62
     0
 10
5.4902034015693664
 20
30.939538847128901
 30
0.0
 11
5.4902034015693664
 21
30.939538847128901
 31
0.0
  0
LINE
  5
1A84D
  8
0
 62
     0
 10
1.6342177113128531
 20
33.396072656490567
 30
0.0
 11
1.6342177113128531
 21
33.396072656490567
 31
0.0
  0
LINE
  5
1A84E
  8
0
 62
     0
 10
0.5631105751304892
 20
34.078443159091037
 30
0.0
 11
0.5631105751304892
 21
34.078443159091037
 31
0.0
  0
LINE
  5
1A84F
  8
0
 62
     0
 10
8.4730342775450875
 20
34.092815005876503
 30
0.0
 11
8.4730342775450875
 21
34.092815005876503
 31
0.0
  0
LINE
  5
1A850
  8
0
 62
     0
 10
3.4388307374879732
 20
37.299956368098691
 30
0.0
 11
3.4388307374879732
 21
37.299956368098691
 31
0.0
  0
LINE
  5
1A851
  8
0
 62
     0
 10
7.492768749646034
 20
39.77086202424583
 30
0.0
 11
7.492768749646034
 21
39.77086202424583
 31
0.0
  0
LINE
  5
1A852
  8
0
 62
     0
 10
6.4216616134636686
 20
40.4532325268463
 30
0.0
 11
6.4216616134636686
 21
40.4532325268463
 31
0.0
  0
LINE
  5
1A853
  8
0
 62
     0
 10
1.387458073406556
 20
43.660373889068488
 30
0.0
 11
1.387458073406556
 21
43.660373889068488
 31
0.0
  0
LINE
  5
1A854
  8
0
 62
     0
 10
8.2994528038308442
 20
-55.941633358613942
 30
0.0
 11
8.2994528038308442
 21
-55.941633358613942
 31
0.0
  0
LINE
  5
1A855
  8
0
 62
     0
 10
6.2344714465614741
 20
-56.213493311769859
 30
0.0
 11
6.2344714465614741
 21
-56.213493311769859
 31
0.0
  0
LINE
  5
1A856
  8
0
 62
     0
 10
4.9123797239194982
 20
-56.387549989095298
 30
0.0
 11
4.9123797239194982
 21
-56.387549989095298
 31
0.0
  0
LINE
  5
1A857
  8
0
 62
     0
 10
1.462349895310912
 20
-56.84175503278265
 30
0.0
 11
1.462349895310912
 21
-56.84175503278265
 31
0.0
  0
LINE
  5
1A858
  8
0
 62
     0
 10
5.957582726691057
 20
-49.673504027099071
 30
0.0
 11
5.957582726691057
 21
-49.673504027099071
 31
0.0
  0
LINE
  5
1A859
  8
0
 62
     0
 10
3.8926013694216861
 20
-49.945363980255003
 30
0.0
 11
3.8926013694216861
 21
-49.945363980255003
 31
0.0
  0
LINE
  5
1A85A
  8
0
 62
     0
 10
2.5705096467797102
 20
-50.119420657580442
 30
0.0
 11
2.5705096467797102
 21
-50.119420657580442
 31
0.0
  0
LINE
  5
1A85B
  8
0
 62
     0
 10
8.3878342008016062
 20
-42.777112974571473
 30
0.0
 11
8.3878342008016062
 21
-42.777112974571473
 31
0.0
  0
LINE
  5
1A85C
  8
0
 62
     0
 10
7.0657424781596294
 20
-42.951169651896898
 30
0.0
 11
7.0657424781596294
 21
-42.951169651896898
 31
0.0
  0
LINE
  5
1A85D
  8
0
 62
     0
 10
3.615712649551043
 20
-43.40537469558425
 30
0.0
 11
3.615712649551043
 21
-43.40537469558425
 31
0.0
  0
LINE
  5
1A85E
  8
0
 62
     0
 10
1.5507312922816709
 20
-43.677234648740168
 30
0.0
 11
1.5507312922816709
 21
-43.677234648740168
 31
0.0
  0
LINE
  5
1A85F
  8
0
 62
     0
 10
0.2286395696396954
 20
-43.851291326065613
 30
0.0
 11
0.2286395696396954
 21
-43.851291326065613
 31
0.0
  0
LINE
  5
1A860
  8
0
 62
     0
 10
8.1109454809310098
 20
-36.23712368990072
 30
0.0
 11
8.1109454809310098
 21
-36.23712368990072
 31
0.0
  0
LINE
  5
1A861
  8
0
 62
     0
 10
6.045964123661637
 20
-36.508983643056638
 30
0.0
 11
6.045964123661637
 21
-36.508983643056638
 31
0.0
  0
LINE
  5
1A862
  8
0
 62
     0
 10
4.7238724010196611
 20
-36.683040320382077
 30
0.0
 11
4.7238724010196611
 21
-36.683040320382077
 31
0.0
  0
LINE
  5
1A863
  8
0
 62
     0
 10
1.2738425724110749
 20
-37.137245364069422
 30
0.0
 11
1.2738425724110749
 21
-37.137245364069422
 31
0.0
  0
LINE
  5
1A864
  8
0
 62
     0
 10
5.7690754037913328
 20
-29.96899435838586
 30
0.0
 11
5.7690754037913328
 21
-29.96899435838586
 31
0.0
  0
LINE
  5
1A865
  8
0
 62
     0
 10
3.7040940465219601
 20
-30.240854311541781
 30
0.0
 11
3.7040940465219601
 21
-30.240854311541781
 31
0.0
  0
LINE
  5
1A866
  8
0
 62
     0
 10
2.382002323879985
 20
-30.41491098886722
 30
0.0
 11
2.382002323879985
 21
-30.41491098886722
 31
0.0
  0
LINE
  5
1A867
  8
0
 62
     0
 10
8.1993268779017701
 20
-23.07260330585823
 30
0.0
 11
8.1993268779017701
 21
-23.07260330585823
 31
0.0
  0
LINE
  5
1A868
  8
0
 62
     0
 10
6.8772351552597932
 20
-23.246659983183669
 30
0.0
 11
6.8772351552597932
 21
-23.246659983183669
 31
0.0
  0
LINE
  5
1A869
  8
0
 62
     0
 10
3.4272053266512059
 20
-23.700865026871011
 30
0.0
 11
3.4272053266512059
 21
-23.700865026871011
 31
0.0
  0
LINE
  5
1A86A
  8
0
 62
     0
 10
1.3622239693818341
 20
-23.972724980026928
 30
0.0
 11
1.3622239693818341
 21
-23.972724980026928
 31
0.0
  0
LINE
  5
1A86B
  8
0
 62
     0
 10
0.0401322467398583
 20
-24.146781657352371
 30
0.0
 11
0.0401322467398583
 21
-24.146781657352371
 31
0.0
  0
LINE
  5
1A86C
  8
0
 62
     0
 10
7.9224381580313974
 20
-16.532614021187449
 30
0.0
 11
7.9224381580313974
 21
-16.532614021187449
 31
0.0
  0
LINE
  5
1A86D
  8
0
 62
     0
 10
5.8574568007620247
 20
-16.804473974343381
 30
0.0
 11
5.8574568007620247
 21
-16.804473974343381
 31
0.0
  0
LINE
  5
1A86E
  8
0
 62
     0
 10
4.5353650781200487
 20
-16.978530651668819
 30
0.0
 11
4.5353650781200487
 21
-16.978530651668819
 31
0.0
  0
LINE
  5
1A86F
  8
0
 62
     0
 10
1.0853352495114641
 20
-17.432735695356151
 30
0.0
 11
1.0853352495114641
 21
-17.432735695356151
 31
0.0
  0
LINE
  5
1A870
  8
0
 62
     0
 10
5.5805680808913829
 20
-10.26448468967264
 30
0.0
 11
5.5805680808913829
 21
-10.26448468967264
 31
0.0
  0
LINE
  5
1A871
  8
0
 62
     0
 10
3.5155867236220111
 20
-10.53634464282856
 30
0.0
 11
3.5155867236220111
 21
-10.53634464282856
 31
0.0
  0
LINE
  5
1A872
  8
0
 62
     0
 10
2.193495000980036
 20
-10.710401320154
 30
0.0
 11
2.193495000980036
 21
-10.710401320154
 31
0.0
  0
LINE
  5
1A873
  8
0
 62
     0
 10
8.0108195550021595
 20
-3.3680936371449901
 30
0.0
 11
8.0108195550021595
 21
-3.3680936371449901
 31
0.0
  0
LINE
  5
1A874
  8
0
 62
     0
 10
6.6887278323601818
 20
-3.5421503144704292
 30
0.0
 11
6.6887278323601818
 21
-3.5421503144704292
 31
0.0
  0
LINE
  5
1A875
  8
0
 62
     0
 10
3.2386980037515962
 20
-3.9963553581577642
 30
0.0
 11
3.2386980037515962
 21
-3.9963553581577642
 31
0.0
  0
LINE
  5
1A876
  8
0
 62
     0
 10
1.1737166464822231
 20
-4.2682153113136883
 30
0.0
 11
1.1737166464822231
 21
-4.2682153113136883
 31
0.0
  0
LINE
  5
1A877
  8
0
 62
     0
 10
7.7339308351315621
 20
3.1718956475257549
 30
0.0
 11
7.7339308351315621
 21
3.1718956475257549
 31
0.0
  0
LINE
  5
1A878
  8
0
 62
     0
 10
5.6689494778621903
 20
2.9000356943698322
 30
0.0
 11
5.6689494778621903
 21
2.9000356943698322
 31
0.0
  0
LINE
  5
1A879
  8
0
 62
     0
 10
4.3468577552202143
 20
2.7259790170443932
 30
0.0
 11
4.3468577552202143
 21
2.7259790170443932
 31
0.0
  0
LINE
  5
1A87A
  8
0
 62
     0
 10
0.896827926611628
 20
2.2717739733570581
 30
0.0
 11
0.896827926611628
 21
2.2717739733570581
 31
0.0
  0
LINE
  5
1A87B
  8
0
 62
     0
 10
2.0049876780801821
 20
8.9941083485592426
 30
0.0
 11
2.0049876780801821
 21
8.9941083485592426
 31
0.0
  0
LINE
  5
1A87C
  8
0
 62
     0
 10
8.8420905866000723
 20
9.8942300227279318
 30
0.0
 11
8.8420905866000723
 21
9.8942300227279318
 31
0.0
  0
LINE
  5
1A87D
  8
0
 62
     0
 10
5.3920607579914854
 20
9.4400249790405972
 30
0.0
 11
5.3920607579914854
 21
9.4400249790405972
 31
0.0
  0
LINE
  5
1A87E
  8
0
 62
     0
 10
3.3270794007221132
 20
9.1681650258846741
 30
0.0
 11
3.3270794007221132
 21
9.1681650258846741
 31
0.0
  0
LINE
  5
1A87F
  8
0
 62
     0
 10
7.8223122321023224
 20
16.336416031568241
 30
0.0
 11
7.8223122321023224
 21
16.336416031568241
 31
0.0
  0
LINE
  5
1A880
  8
0
 62
     0
 10
6.5002205094603456
 20
16.162359354242799
 30
0.0
 11
6.5002205094603456
 21
16.162359354242799
 31
0.0
  0
LINE
  5
1A881
  8
0
 62
     0
 10
3.05019068085176
 20
15.708154310555461
 30
0.0
 11
3.05019068085176
 21
15.708154310555461
 31
0.0
  0
LINE
  5
1A882
  8
0
 62
     0
 10
0.9852093235823877
 20
15.436294357399539
 30
0.0
 11
0.9852093235823877
 21
15.436294357399539
 31
0.0
  0
LINE
  5
1A883
  8
0
 62
     0
 10
7.5454235122316131
 20
22.87640531623898
 30
0.0
 11
7.5454235122316131
 21
22.87640531623898
 31
0.0
  0
LINE
  5
1A884
  8
0
 62
     0
 10
5.4804421549622413
 20
22.604545363083059
 30
0.0
 11
5.4804421549622413
 21
22.604545363083059
 31
0.0
  0
LINE
  5
1A885
  8
0
 62
     0
 10
4.1583504323202654
 20
22.43048868575762
 30
0.0
 11
4.1583504323202654
 21
22.43048868575762
 31
0.0
  0
LINE
  5
1A886
  8
0
 62
     0
 10
0.7083206037116793
 20
21.976283642070278
 30
0.0
 11
0.7083206037116793
 21
21.976283642070278
 31
0.0
  0
LINE
  5
1A887
  8
0
 62
     0
 10
8.6535832637005257
 20
29.598739691441182
 30
0.0
 11
8.6535832637005257
 21
29.598739691441182
 31
0.0
  0
LINE
  5
1A888
  8
0
 62
     0
 10
5.2035534350919379
 20
29.14453464775384
 30
0.0
 11
5.2035534350919379
 21
29.14453464775384
 31
0.0
  0
LINE
  5
1A889
  8
0
 62
     0
 10
3.1385720778225661
 20
28.872674694597919
 30
0.0
 11
3.1385720778225661
 21
28.872674694597919
 31
0.0
  0
LINE
  5
1A88A
  8
0
 62
     0
 10
1.8164803551805899
 20
28.69861801727248
 30
0.0
 11
1.8164803551805899
 21
28.69861801727248
 31
0.0
  0
LINE
  5
1A88B
  8
0
 62
     0
 10
7.6338049092024871
 20
36.040925700281463
 30
0.0
 11
7.6338049092024871
 21
36.040925700281463
 31
0.0
  0
LINE
  5
1A88C
  8
0
 62
     0
 10
6.3117131865605112
 20
35.866869022956017
 30
0.0
 11
6.3117131865605112
 21
35.866869022956017
 31
0.0
  0
LINE
  5
1A88D
  8
0
 62
     0
 10
2.8616833579519252
 20
35.412663979268679
 30
0.0
 11
2.8616833579519252
 21
35.412663979268679
 31
0.0
  0
LINE
  5
1A88E
  8
0
 62
     0
 10
0.7967020006825532
 20
35.140804026112761
 30
0.0
 11
0.7967020006825532
 21
35.140804026112761
 31
0.0
  0
LINE
  5
1A88F
  8
0
 62
     0
 10
7.3569161893318897
 20
42.580914984952237
 30
0.0
 11
7.3569161893318897
 21
42.580914984952237
 31
0.0
  0
LINE
  5
1A890
  8
0
 62
     0
 10
5.2919348320625179
 20
42.309055031796319
 30
0.0
 11
5.2919348320625179
 21
42.309055031796319
 31
0.0
  0
LINE
  5
1A891
  8
0
 62
     0
 10
3.969843109420542
 20
42.134998354470881
 30
0.0
 11
3.969843109420542
 21
42.134998354470881
 31
0.0
  0
LINE
  5
1A892
  8
0
 62
     0
 10
0.5198132808119568
 20
41.680793310783542
 30
0.0
 11
0.5198132808119568
 21
41.680793310783542
 31
0.0
  0
LINE
  5
1A893
  8
0
 62
     0
 10
6.4354054388360371
 20
-59.471602609558943
 30
0.0
 11
6.4354054388360371
 21
-59.471602609558943
 31
0.0
  0
LINE
  5
1A894
  8
0
 62
     0
 10
6.275402309237827
 20
-54.577470236265448
 30
0.0
 11
6.275402309237827
 21
-54.577470236265448
 31
0.0
  0
LINE
  5
1A895
  8
0
 62
     0
 10
3.0008363971857528
 20
-57.09013303449894
 30
0.0
 11
3.0008363971857528
 21
-57.09013303449894
 31
0.0
  0
LINE
  5
1A896
  8
0
 62
     0
 10
6.1153991796394154
 20
-49.683337862972039
 30
0.0
 11
6.1153991796394154
 21
-49.683337862972039
 31
0.0
  0
LINE
  5
1A897
  8
0
 62
     0
 10
2.840833267587342
 20
-52.196000661205531
 30
0.0
 11
2.840833267587342
 21
-52.196000661205531
 31
0.0
  0
LINE
  5
1A898
  8
0
 62
     0
 10
5.9553960500409788
 20
-44.789205489678679
 30
0.0
 11
5.9553960500409788
 21
-44.789205489678679
 31
0.0
  0
LINE
  5
1A899
  8
0
 62
     0
 10
2.6808301379889059
 20
-47.301868287912171
 30
0.0
 11
2.6808301379889059
 21
-47.301868287912171
 31
0.0
  0
LINE
  5
1A89A
  8
0
 62
     0
 10
8.8583714966390943
 20
-37.544766991268268
 30
0.0
 11
8.8583714966390943
 21
-37.544766991268268
 31
0.0
  0
LINE
  5
1A89B
  8
0
 62
     0
 10
5.7953929204426924
 20
-39.895073116385142
 30
0.0
 11
5.7953929204426924
 21
-39.895073116385142
 31
0.0
  0
LINE
  5
1A89C
  8
0
 62
     0
 10
2.520827008390619
 20
-42.40773591461862
 30
0.0
 11
2.520827008390619
 21
-42.40773591461862
 31
0.0
  0
LINE
  5
1A89D
  8
0
 62
     0
 10
8.6983683670406258
 20
-32.650634617974859
 30
0.0
 11
8.6983683670406258
 21
-32.650634617974859
 31
0.0
  0
LINE
  5
1A89E
  8
0
 62
     0
 10
5.635389790844223
 20
-35.000940743091732
 30
0.0
 11
5.635389790844223
 21
-35.000940743091732
 31
0.0
  0
LINE
  5
1A89F
  8
0
 62
     0
 10
2.3608238787921501
 20
-37.513603541325217
 30
0.0
 11
2.3608238787921501
 21
-37.513603541325217
 31
0.0
  0
LINE
  5
1A8A0
  8
0
 62
     0
 10
8.5383652374421573
 20
-27.756502244681499
 30
0.0
 11
8.5383652374421573
 21
-27.756502244681499
 31
0.0
  0
LINE
  5
1A8A1
  8
0
 62
     0
 10
5.4753866612457553
 20
-30.106808369798369
 30
0.0
 11
5.4753866612457553
 21
-30.106808369798369
 31
0.0
  0
LINE
  5
1A8A2
  8
0
 62
     0
 10
2.2008207491936811
 20
-32.619471168031872
 30
0.0
 11
2.2008207491936811
 21
-32.619471168031872
 31
0.0
  0
LINE
  5
1A8A3
  8
0
 62
     0
 10
8.3783621078436887
 20
-22.862369871388101
 30
0.0
 11
8.3783621078436887
 21
-22.862369871388101
 31
0.0
  0
LINE
  5
1A8A4
  8
0
 62
     0
 10
5.3153835316472859
 20
-25.21267599650497
 30
0.0
 11
5.3153835316472859
 21
-25.21267599650497
 31
0.0
  0
LINE
  5
1A8A5
  8
0
 62
     0
 10
2.040817619595213
 20
-27.725338794738459
 30
0.0
 11
2.040817619595213
 21
-27.725338794738459
 31
0.0
  0
LINE
  5
1A8A6
  8
0
 62
     0
 10
8.2183589782453996
 20
-17.968237498094609
 30
0.0
 11
8.2183589782453996
 21
-17.968237498094609
 31
0.0
  0
LINE
  5
1A8A7
  8
0
 62
     0
 10
5.1553804020489977
 20
-20.318543623211479
 30
0.0
 11
5.1553804020489977
 21
-20.318543623211479
 31
0.0
  0
LINE
  5
1A8A8
  8
0
 62
     0
 10
1.880814489996925
 20
-22.831206421444971
 30
0.0
 11
1.880814489996925
 21
-22.831206421444971
 31
0.0
  0
LINE
  5
1A8A9
  8
0
 62
     0
 10
8.0583558486470217
 20
-13.074105124801131
 30
0.0
 11
8.0583558486470217
 21
-13.074105124801131
 31
0.0
  0
LINE
  5
1A8AA
  8
0
 62
     0
 10
4.9953772724506189
 20
-15.424411249918
 30
0.0
 11
4.9953772724506189
 21
-15.424411249918
 31
0.0
  0
LINE
  5
1A8AB
  8
0
 62
     0
 10
1.720811360398546
 20
-17.937074048151491
 30
0.0
 11
1.720811360398546
 21
-17.937074048151491
 31
0.0
  0
LINE
  5
1A8AC
  8
0
 62
     0
 10
4.835374142852241
 20
-10.53027887662458
 30
0.0
 11
4.835374142852241
 21
-10.53027887662458
 31
0.0
  0
LINE
  5
1A8AD
  8
0
 62
     0
 10
1.5608082308001681
 20
-13.04294167485808
 30
0.0
 11
1.5608082308001681
 21
-13.04294167485808
 31
0.0
  0
LINE
  5
1A8AE
  8
0
 62
     0
 10
4.6753710132538711
 20
-5.6361465033311111
 30
0.0
 11
4.6753710132538711
 21
-5.6361465033311111
 31
0.0
  0
LINE
  5
1A8AF
  8
0
 62
     0
 10
7.7383495894502312
 20
-3.2858403782142722
 30
0.0
 11
7.7383495894502312
 21
-3.2858403782142722
 31
0.0
  0
LINE
  5
1A8B0
  8
0
 62
     0
 10
7.5783464598517973
 20
1.608291995079111
 30
0.0
 11
7.5783464598517973
 21
1.608291995079111
 31
0.0
  0
LINE
  5
1A8B1
  8
0
 62
     0
 10
4.5153678836553954
 20
-0.7420141300377581
 30
0.0
 11
4.5153678836553954
 21
-0.7420141300377581
 31
0.0
  0
LINE
  5
1A8B2
  8
0
 62
     0
 10
1.240801971603321
 20
-3.2546769282712522
 30
0.0
 11
1.240801971603321
 21
-3.2546769282712522
 31
0.0
  0
LINE
  5
1A8B3
  8
0
 62
     0
 10
4.3553647540568701
 20
4.1521182432556483
 30
0.0
 11
4.3553647540568701
 21
4.1521182432556483
 31
0.0
  0
LINE
  5
1A8B4
  8
0
 62
     0
 10
1.080798842004796
 20
1.6394554450221539
 30
0.0
 11
1.080798842004796
 21
1.6394554450221539
 31
0.0
  0
LINE
  5
1A8B5
  8
0
 62
     0
 10
7.2583402006548212
 20
11.39655674166589
 30
0.0
 11
7.2583402006548212
 21
11.39655674166589
 31
0.0
  0
LINE
  5
1A8B6
  8
0
 62
     0
 10
4.1953616244584193
 20
9.0462506165490275
 30
0.0
 11
4.1953616244584193
 21
9.0462506165490275
 31
0.0
  0
LINE
  5
1A8B7
  8
0
 62
     0
 10
7.0983370710565712
 20
16.290689114959349
 30
0.0
 11
7.0983370710565712
 21
16.290689114959349
 31
0.0
  0
LINE
  5
1A8B8
  8
0
 62
     0
 10
4.0353584948601702
 20
13.94038298984249
 30
0.0
 11
4.0353584948601702
 21
13.94038298984249
 31
0.0
  0
LINE
  5
1A8B9
  8
0
 62
     0
 10
0.7607925828080968
 20
11.427720191608991
 30
0.0
 11
0.7607925828080968
 21
11.427720191608991
 31
0.0
  0
LINE
  5
1A8BA
  8
0
 62
     0
 10
6.9383339414581933
 20
21.18482148825278
 30
0.0
 11
6.9383339414581933
 21
21.18482148825278
 31
0.0
  0
LINE
  5
1A8BB
  8
0
 62
     0
 10
3.8753553652617909
 20
18.83451536313591
 30
0.0
 11
3.8753553652617909
 21
18.83451536313591
 31
0.0
  0
LINE
  5
1A8BC
  8
0
 62
     0
 10
0.6007894532097184
 20
16.321852564902411
 30
0.0
 11
0.6007894532097184
 21
16.321852564902411
 31
0.0
  0
LINE
  5
1A8BD
  8
0
 62
     0
 10
6.7783308118597239
 20
26.078953861546189
 30
0.0
 11
6.7783308118597239
 21
26.078953861546189
 31
0.0
  0
LINE
  5
1A8BE
  8
0
 62
     0
 10
3.7153522356633228
 20
23.728647736429309
 30
0.0
 11
3.7153522356633228
 21
23.728647736429309
 31
0.0
  0
LINE
  5
1A8BF
  8
0
 62
     0
 10
0.4407863236112499
 20
21.21598493819582
 30
0.0
 11
0.4407863236112499
 21
21.21598493819582
 31
0.0
  0
LINE
  5
1A8C0
  8
0
 62
     0
 10
6.6183276822614934
 20
30.97308623483967
 30
0.0
 11
6.6183276822614934
 21
30.97308623483967
 31
0.0
  0
LINE
  5
1A8C1
  8
0
 62
     0
 10
3.555349106065091
 20
28.6227801097228
 30
0.0
 11
3.555349106065091
 21
28.6227801097228
 31
0.0
  0
LINE
  5
1A8C2
  8
0
 62
     0
 10
0.2807831940130185
 20
26.110117311489311
 30
0.0
 11
0.2807831940130185
 21
26.110117311489311
 31
0.0
  0
LINE
  5
1A8C3
  8
0
 62
     0
 10
6.458324552662968
 20
35.867218608133022
 30
0.0
 11
6.458324552662968
 21
35.867218608133022
 31
0.0
  0
LINE
  5
1A8C4
  8
0
 62
     0
 10
3.3953459764665661
 20
33.516912483016149
 30
0.0
 11
3.3953459764665661
 21
33.516912483016149
 31
0.0
  0
LINE
  5
1A8C5
  8
0
 62
     0
 10
0.1207800644144936
 20
31.004249684782661
 30
0.0
 11
0.1207800644144936
 21
31.004249684782661
 31
0.0
  0
LINE
  5
1A8C6
  8
0
 62
     0
 10
6.2983214230645901
 20
40.761350981426489
 30
0.0
 11
6.2983214230645901
 21
40.761350981426489
 31
0.0
  0
LINE
  5
1A8C7
  8
0
 62
     0
 10
3.2353428468681882
 20
38.41104485630963
 30
0.0
 11
3.2353428468681882
 21
38.41104485630963
 31
0.0
  0
LINE
  5
1A8C8
  8
0
 62
     0
 10
3.0753397172696291
 20
43.305177229602961
 30
0.0
 11
3.0753397172696291
 21
43.305177229602961
 31
0.0
  0
ENDBLK
  5
1A8CA
  8
0
  0
BLOCK
  8
0
  2
*U94
 70
     1
 10
0.0
 20
0.0
 30
0.0
  3
*U94
  1

  0
SOLID
  5
1A8CC
  8
1DIM
 10
12.044443127533439
 20
38.649918419518762
 30
0.0
 11
13.168864624287609
 21
36.962675873603018
 31
0.0
 12
11.55800886922316
 22
38.194038877548998
 32
0.0
 13
11.55800886922316
 23
38.194038877548998
 33
0.0
  0
POLYLINE
  5
1A8CD
  8
1DIM
 66
     1
 10
0.0
 20
0.0
 30
0.0
  0
VERTEX
  5
1A8CE
  8
1DIM
 10
11.8012259983783
 20
38.42197864853388
 30
0.0
  0
VERTEX
  5
1A8CF
  8
1DIM
 10
-2.0871988093631928
 20
53.241256546509689
 30
0.0
  0
VERTEX
  5
1A8D0
  8
1DIM
 10
-33.987198809363193
 20
53.241256546509689
 30
0.0
  0
SEQEND
  5
1A8D1
  8
1DIM
  0
ENDBLK
  5
1A8D3
  8
0
  0
BLOCK
  8
0
  2
*U95
 70
     1
 10
0.0
 20
0.0
 30
0.0
  3
*U95
  1

  0
TEXT
  5
1A8D5
  8
1DIM
 62
   201
 10
-31.153865476029861
 20
53.941256546509692
 30
0.0
 40
3.5
  1
裏板9mm以上
  0
ENDBLK
  5
1A8D7
  8
0
  0
BLOCK
  8
0
  2
*U96
 70
     1
 10
0.0
 20
0.0
 30
0.0
  3
*U96
  1

  0
LINE
  5
1A8D9
  8
0
 10
-29.999999999837598
 20
0.0000465358979227
 30
0.0
 11
-24.700003489975941
 21
-1.4999534641020771
 31
0.0
  0
LINE
  5
1A8DA
  8
0
 10
-24.700003489975941
 20
-1.4999534641020771
 30
0.0
 11
-0.0000034900840618
 21
-1.499953464101849
 31
0.0
  0
LINE
  5
1A8DB
  8
0
 10
-29.999999999837598
 20
0.0000465358979227
 30
0.0
 11
-24.6999965095923
 21
1.5000465358980359
 31
0.0
  0
LINE
  5
1A8DC
  8
0
 10
-0.0000081437821464
 20
-3.4999999999998859
 30
0.0
 11
-0.0000034900840618
 21
-1.499953464101849
 31
0.0
  0
LINE
  5
1A8DD
  8
0
 10
-24.6999965095923
 20
1.5000465358980359
 30
0.0
 11
0.0000034903006139
 21
1.500046535897922
 31
0.0
  0
LINE
  5
1A8DE
  8
0
 10
-0.0000081437821464
 20
-3.4999999999998859
 30
0.0
 11
1.0999953464131731
 21
-3.5
 31
0.0
  0
LINE
  5
1A8DF
  8
0
 10
0.0000034903006139
 20
1.500046535897922
 30
0.0
 11
0.0000081437821322
 21
3.5
 31
0.0
  0
ARC
  5
1A8E0
  8
0
 10
1.0999953464131731
 20
-2.0
 30
0.0
 40
1.5
 50
270.0
 51
359.99986668447059
  0
LINE
  5
1A8E1
  8
0
 10
0.0000081437821322
 20
3.5
 30
0.0
 11
1.100004653592769
 21
3.5
 31
0.0
  0
LINE
  5
1A8E2
  8
0
 10
2.5999953464091159
 20
-2.0000034901923982
 30
0.0
 11
2.6000046535887051
 21
1.9999965098076009
 31
0.0
  0
ARC
  5
1A8E3
  8
0
 10
1.100004653592769
 20
2.0
 30
0.0
 40
1.5
 50
359.99986668447059
 51
90.0
  0
ENDBLK
  5
1A8E5
  8
0
  0
BLOCK
  8
0
  2
*U97
 70
     1
 10
0.0
 20
0.0
 30
0.0
  3
*U97
  1

  0
LINE
  5
1A8E7
  8
0
 10
-9.6499999999999773
 20
2.0
 30
0.0
 11
-0.0000000000000284
 21
2.0
 31
0.0
  0
LINE
  5
1A8E8
  8
0
 10
-9.6499999999999773
 20
2.0
 30
0.0
 11
-10.0
 21
1.649999999999977
 31
0.0
  0
LINE
  5
1A8E9
  8
0
 10
0.0
 20
3.4999999999999432
 30
0.0
 11
-0.0000000000000284
 21
2.0
 31
0.0
  0
LINE
  5
1A8EA
  8
0
 10
-10.0
 20
1.649999999999977
 30
0.0
 11
-10.0
 21
-1.6499999999998629
 31
0.0
  0
LINE
  5
1A8EB
  8
0
 10
0.0
 20
3.4999999999999432
 30
0.0
 11
0.5999999999999375
 21
3.4999999999999432
 31
0.0
  0
LINE
  5
1A8EC
  8
0
 10
-10.0
 20
-1.6499999999998629
 30
0.0
 11
-9.6499999999999773
 21
-2.0
 31
0.0
  0
ARC
  5
1A8ED
  8
0
 10
0.5999999999999944
 20
1.4999999999999429
 30
0.0
 40
2.0
 50
0.0
 51
90.000000000001606
  0
LINE
  5
1A8EE
  8
0
 10
-9.6499999999999773
 20
-2.0
 30
0.0
 11
0.0000000000000568
 21
-2.0
 31
0.0
  0
LINE
  5
1A8EF
  8
0
 10
2.5999999999999939
 20
1.4999999999999429
 30
0.0
 11
2.5999999999999939
 21
-1.5
 31
0.0
  0
LINE
  5
1A8F0
  8
0
 10
0.0000000000000568
 20
-2.0
 30
0.0
 11
0.0
 21
-3.5
 31
0.0
  0
ARC
  5
1A8F1
  8
0
 10
0.5999999999999944
 20
-1.5
 30
0.0
 40
2.0
 50
270.0
 51
0.0
  0
LINE
  5
1A8F2
  8
0
 10
0.0
 20
-3.5
 30
0.0
 11
0.5999999999999944
 21
-3.5
 31
0.0
  0
ENDBLK
  5
1A8F4
  8
0
  0
BLOCK
  8
0
  2
*U98
 70
     1
 10
0.0
 20
0.0
 30
0.0
  3
*U98
  1

  0
LINE
  5
1A91A
  8
0
 10
-24.650013959859319
 20
-1.9997699899806769
 30
0.0
 11
-2.3000325751651469
 21
-1.999978593270384
 31
0.0
  0
LINE
  5
1A91B
  8
0
 10
-0.3000279215265778
 20
-3.9999972077595198
 30
0.0
 11
-2.3000325751651469
 21
-1.999978593270384
 31
0.0
  0
LINE
  5
1A91C
  8
0
 10
-25.000011516714508
 20
-1.649767320475461
 30
0.0
 11
-24.650013959859319
 21
-1.9997699899806769
 31
0.0
  0
LINE
  5
1A91D
  8
0
 10
-0.3000279215265778
 20
-3.9999972077595198
 30
0.0
 11
-0.0000279215387877
 21
-3.9999999999133702
 31
0.0
  0
LINE
  5
1A91E
  8
0
 10
-24.999988481445051
 20
1.650232679454916
 30
0.0
 11
-25.000011516714508
 21
-1.649767320475461
 31
0.0
  0
LINE
  5
1A91F
  8
0
 10
0.0000279215387877
 20
3.9999999999134839
 30
0.0
 11
-0.0000279215387877
 21
-3.9999999999133702
 31
0.0
  0
LINE
  5
1A920
  8
0
 10
-24.999988481445051
 20
1.650232679454916
 30
0.0
 11
-24.649986038320591
 21
2.0002300099321242
 31
0.0
  0
LINE
  5
1A921
  8
0
 10
-0.299972078449116
 20
4.0000027920673338
 30
0.0
 11
0.0000279215387877
 21
3.9999999999134839
 31
0.0
  0
LINE
  5
1A922
  8
0
 10
-24.649986038320591
 20
2.0002300099321242
 30
0.0
 11
-2.299976732000899
 21
2.0000214063830981
 31
0.0
  0
LINE
  5
1A923
  8
0
 10
-0.299972078449116
 20
4.0000027920673338
 30
0.0
 11
-2.299976732000899
 21
2.0000214063830981
 31
0.0
  0
ENDBLK
  5
1A925
  8
0
  0
BLOCK
  8
0
  2
*X99
 70
     1
 10
0.0
 20
0.0
 30
0.0
  3
*X99
  1

  0
LINE
  5
1A927
  8
0
 62
     0
 10
16.671990294007681
 20
-61.391691274362131
 30
0.0
 11
18.0
 21
-60.063681568369759
 31
0.0
  0
LINE
  5
1A928
  8
0
 62
     0
 10
14.42692626374037
 20
-61.391691274362131
 30
0.0
 11
17.99999999999994
 21
-57.818617538102501
 31
0.0
  0
LINE
  5
1A929
  8
0
 62
     0
 10
12.18186223347311
 20
-61.391691274362131
 30
0.0
 11
18.0
 21
-55.573553507835179
 31
0.0
  0
LINE
  5
1A92A
  8
0
 62
     0
 10
9.9367982032057398
 20
-61.391691274362181
 30
0.0
 11
18.0
 21
-53.328489477567928
 31
0.0
  0
LINE
  5
1A92B
  8
0
 62
     0
 10
9.0000000000001137
 20
-60.083425447300549
 30
0.0
 11
18.0
 21
-51.083425447300669
 31
0.0
  0
LINE
  5
1A92C
  8
0
 62
     0
 10
9.0000000000000568
 20
-57.83836141703329
 30
0.0
 11
17.99999999999994
 21
-48.838361417033411
 31
0.0
  0
LINE
  5
1A92D
  8
0
 62
     0
 10
9.0000000000000568
 20
-55.593297386765919
 30
0.0
 11
17.99999999999994
 21
-46.593297386766032
 31
0.0
  0
LINE
  5
1A92E
  8
0
 62
     0
 10
9.0000000000000568
 20
-53.348233356498667
 30
0.0
 11
17.99999999999994
 21
-44.348233356498781
 31
0.0
  0
LINE
  5
1A92F
  8
0
 62
     0
 10
9.0000000000000568
 20
-51.103169326231409
 30
0.0
 11
18.00000000000006
 21
-42.103169326231459
 31
0.0
  0
LINE
  5
1A930
  8
0
 62
     0
 10
9.0000000000000568
 20
-48.858105295964087
 30
0.0
 11
18.0
 21
-39.858105295964208
 31
0.0
  0
LINE
  5
1A931
  8
0
 62
     0
 10
9.0000000000000568
 20
-46.613041265696722
 30
0.0
 11
18.0
 21
-37.613041265696843
 31
0.0
  0
LINE
  5
1A932
  8
0
 62
     0
 10
9.0000000000000568
 20
-44.367977235429457
 30
0.0
 11
18.0
 21
-35.367977235429578
 31
0.0
  0
LINE
  5
1A933
  8
0
 62
     0
 10
9.0000000000000568
 20
-42.122913205162213
 30
0.0
 11
18.0
 21
-33.12291320516232
 31
0.0
  0
LINE
  5
1A934
  8
0
 62
     0
 10
9.0
 20
-39.877849174894948
 30
0.0
 11
17.99999999999994
 21
-30.877849174895061
 31
0.0
  0
LINE
  5
1A935
  8
0
 62
     0
 10
9.0
 20
-37.63278514462769
 30
0.0
 11
18.0
 21
-28.63278514462769
 31
0.0
  0
LINE
  5
1A936
  8
0
 62
     0
 10
9.0
 20
-35.387721114360431
 30
0.0
 11
18.0
 21
-26.387721114360431
 31
0.0
  0
LINE
  5
1A937
  8
0
 62
     0
 10
8.9999999999999432
 20
-33.14265708409318
 30
0.0
 11
17.99999999999994
 21
-24.14265708409317
 31
0.0
  0
LINE
  5
1A938
  8
0
 62
     0
 10
8.9999999999999432
 20
-30.897593053825918
 30
0.0
 11
17.99999999999994
 21
-21.897593053825918
 31
0.0
  0
LINE
  5
1A939
  8
0
 62
     0
 10
8.9999999999999432
 20
-28.65252902355866
 30
0.0
 11
17.99999999999994
 21
-19.65252902355866
 31
0.0
  0
LINE
  5
1A93A
  8
0
 62
     0
 10
8.9999999999999432
 20
-26.407464993291399
 30
0.0
 11
18.0
 21
-17.407464993291342
 31
0.0
  0
LINE
  5
1A93B
  8
0
 62
     0
 10
9.0
 20
-24.16240096302403
 30
0.0
 11
17.99999999999994
 21
-15.16240096302403
 31
0.0
  0
LINE
  5
1A93C
  8
0
 62
     0
 10
8.9999999999999432
 20
-21.917336932756712
 30
0.0
 11
17.99999999999994
 21
-12.91733693275671
 31
0.0
  0
LINE
  5
1A93D
  8
0
 62
     0
 10
8.9999999999999432
 20
-19.67227290248945
 30
0.0
 11
17.99999999999994
 21
-10.67227290248945
 31
0.0
  0
LINE
  5
1A93E
  8
0
 62
     0
 10
8.9999999999999432
 20
-17.427208872222192
 30
0.0
 11
15.821190608570189
 21
-10.606018263652
 31
0.0
  0
LINE
  5
1A93F
  8
0
 62
     0
 10
16.78433035397688
 20
-7.3978144879779393
 30
0.0
 11
18.0
 21
-6.1821448419548801
 31
0.0
  0
LINE
  5
1A940
  8
0
 62
     0
 10
8.9999999999998863
 20
-15.182144841954941
 30
0.0
 11
13.682098306056441
 21
-10.500046535898431
 31
0.0
  0
LINE
  5
1A941
  8
0
 62
     0
 10
11.14073620626419
 20
-10.796344605423309
 30
0.0
 11
11.437034275789189
 21
-10.50004653589837
 31
0.0
  0
LINE
  5
1A942
  8
0
 62
     0
 10
14.437034275789189
 20
-7.5000465358983197
 30
0.0
 11
18.00000000000006
 21
-3.9370808116874509
 31
0.0
  0
LINE
  5
1A943
  8
0
 62
     0
 10
8.9999999999998863
 20
-12.93708081168762
 30
0.0
 11
11.072835431113271
 21
-10.86424538057423
 31
0.0
  0
LINE
  5
1A944
  8
0
 62
     0
 10
12.191970245521761
 20
-7.5000465358984911
 30
0.0
 11
18.00000000000006
 21
-1.692016781420193
 31
0.0
  0
LINE
  5
1A945
  8
0
 62
     0
 10
9.0
 20
-10.69201678142031
 30
0.0
 11
9.1919702455219294
 21
-10.50004653589837
 31
0.0
  0
LINE
  5
1A946
  8
0
 62
     0
 10
10.32448800965261
 20
-7.1224647415003801
 30
0.0
 11
18.00000000000006
 21
0.5530472488470651
 31
0.0
  0
LINE
  5
1A947
  8
0
 62
     0
 10
9.9469062152545007
 20
-7.5000465358984911
 30
0.0
 11
10.26327872882478
 21
-7.1836740223282041
 31
0.0
  0
LINE
  5
1A948
  8
0
 62
     0
 10
8.9999999999999432
 20
-6.2018887208857896
 30
0.0
 11
18.0
 21
2.7981112791143228
 31
0.0
  0
LINE
  5
1A949
  8
0
 62
     0
 10
8.9999999999999432
 20
-3.956824690618475
 30
0.0
 11
18.00000000000006
 21
5.0431753093816951
 31
0.0
  0
LINE
  5
1A94A
  8
0
 62
     0
 10
8.9999999999999432
 20
-1.711760660351217
 30
0.0
 11
18.00000000000006
 21
7.2882393396489533
 31
0.0
  0
LINE
  5
1A94B
  8
0
 62
     0
 10
8.9999999999999432
 20
0.533303369916041
 30
0.0
 11
15.827771837741579
 21
7.3610752076577342
 31
0.0
  0
LINE
  5
1A94C
  8
0
 62
     0
 10
16.79123737884305
 20
10.56960477902652
 30
0.0
 11
18.0
 21
11.778367400183519
 31
0.0
  0
LINE
  5
1A94D
  8
0
 62
     0
 10
8.9999999999999432
 20
2.7783674001834688
 30
0.0
 11
13.721586063918149
 21
7.4999534641016794
 31
0.0
  0
LINE
  5
1A94E
  8
0
 62
     0
 10
11.13086412323616
 20
7.154295553686949
 30
0.0
 11
11.47652203365084
 21
7.4999534641015648
 31
0.0
  0
LINE
  5
1A94F
  8
0
 62
     0
 10
14.47652203365084
 20
10.499953464101621
 30
0.0
 11
18.00000000000011
 21
14.02343143045084
 31
0.0
  0
LINE
  5
1A950
  8
0
 62
     0
 10
8.9999999999999432
 20
5.023431430450727
 30
0.0
 11
11.079416660284719
 21
7.102848090735506
 31
0.0
  0
LINE
  5
1A951
  8
0
 62
     0
 10
12.231458003383411
 20
10.49995346410145
 30
0.0
 11
18.00000000000006
 21
16.26849546071816
 31
0.0
  0
LINE
  5
1A952
  8
0
 62
     0
 10
8.9999999999999432
 20
7.2684954607179861
 30
0.0
 11
9.2314580033835796
 21
7.4999534641015648
 31
0.0
  0
LINE
  5
1A953
  8
0
 62
     0
 10
10.33106923882394
 20
10.844628729809241
 30
0.0
 11
18.00000000000006
 21
18.513559490985411
 31
0.0
  0
LINE
  5
1A954
  8
0
 62
     0
 10
9.9863939731161508
 20
10.49995346410145
 30
0.0
 11
10.25340664579676
 21
10.766966136782059
 31
0.0
  0
LINE
  5
1A955
  8
0
 62
     0
 10
9.0000000000000568
 20
11.75862352125273
 30
0.0
 11
18.0
 21
20.75862352125273
 31
0.0
  0
LINE
  5
1A956
  8
0
 62
     0
 10
9.0000000000001137
 20
14.00368755152004
 30
0.0
 11
18.0
 21
23.003687551519992
 31
0.0
  0
LINE
  5
1A957
  8
0
 62
     0
 10
9.0000000000001137
 20
16.2487515817873
 30
0.0
 11
18.00000000000011
 21
25.24875158178725
 31
0.0
  0
LINE
  5
1A958
  8
0
 62
     0
 10
9.0000000000000568
 20
18.493815612054561
 30
0.0
 11
18.00000000000006
 21
27.493815612054512
 31
0.0
  0
LINE
  5
1A959
  8
0
 62
     0
 10
9.0000000000000568
 20
20.73887964232188
 30
0.0
 11
18.00000000000006
 21
29.73887964232182
 31
0.0
  0
LINE
  5
1A95A
  8
0
 62
     0
 10
9.0000000000000568
 20
22.983943672589131
 30
0.0
 11
18.00000000000006
 21
31.983943672589081
 31
0.0
  0
LINE
  5
1A95B
  8
0
 62
     0
 10
9.0000000000001705
 20
25.22900770285645
 30
0.0
 11
18.00000000000006
 21
34.229007702856343
 31
0.0
  0
LINE
  5
1A95C
  8
0
 62
     0
 10
9.0000000000001137
 20
27.474071733123711
 30
0.0
 11
18.00000000000011
 21
36.474071733123708
 31
0.0
  0
LINE
  5
1A95D
  8
0
 62
     0
 10
9.0000000000001137
 20
29.71913576339103
 30
0.0
 11
18.00000000000011
 21
38.719135763391023
 31
0.0
  0
LINE
  5
1A95E
  8
0
 62
     0
 10
9.0000000000001137
 20
31.964199793658281
 30
0.0
 11
18.00000000000011
 21
40.964199793658281
 31
0.0
  0
LINE
  5
1A95F
  8
0
 62
     0
 10
9.0000000000001137
 20
34.209263823925539
 30
0.0
 11
18.00000000000011
 21
43.209263823925539
 31
0.0
  0
LINE
  5
1A960
  8
0
 62
     0
 10
9.0000000000000568
 20
36.454327854192968
 30
0.0
 11
17.245208523150438
 21
44.699536377343229
 31
0.0
  0
LINE
  5
1A961
  8
0
 62
     0
 10
9.0000000000000568
 20
38.699391884460113
 30
0.0
 11
15.00014449288318
 21
44.699536377343229
 31
0.0
  0
LINE
  5
1A962
  8
0
 62
     0
 10
9.0000000000000568
 20
40.944455914727477
 30
0.0
 11
12.75508046261592
 21
44.699536377343229
 31
0.0
  0
LINE
  5
1A963
  8
0
 62
     0
 10
9.0000000000001137
 20
43.189519944994743
 30
0.0
 11
10.510016432348721
 21
44.699536377343229
 31
0.0
  0
ENDBLK
  5
1A965
  8
0
  0
BLOCK
  8
0
  2
*X100
 70
     1
 10
0.0
 20
0.0
 30
0.0
  3
*X100
  1

  0
LINE
  5
1A967
  8
0
 62
     0
 10
4.719668856187476
 20
-60.905108537765202
 30
0.0
 11
4.719668856187476
 21
-60.905108537765202
 31
0.0
  0
LINE
  5
1A968
  8
0
 62
     0
 10
2.5099012223001722
 20
-58.880229567499541
 30
0.0
 11
2.5099012223001722
 21
-58.880229567499541
 31
0.0
  0
LINE
  5
1A969
  8
0
 62
     0
 10
2.0417301134257442
 20
-58.4512297856636
 30
0.0
 11
2.0417301134257442
 21
-58.4512297856636
 31
0.0
  0
LINE
  5
1A96A
  8
0
 62
     0
 10
7.1491706502268144
 20
-53.905337731177347
 30
0.0
 11
7.1491706502268144
 21
-53.905337731177347
 31
0.0
  0
LINE
  5
1A96B
  8
0
 62
     0
 10
4.9394030163395106
 20
-51.880458760911701
 30
0.0
 11
4.9394030163395106
 21
-51.880458760911701
 31
0.0
  0
LINE
  5
1A96C
  8
0
 62
     0
 10
4.471231907465083
 20
-51.451458979075753
 30
0.0
 11
4.471231907465083
 21
-51.451458979075753
 31
0.0
  0
LINE
  5
1A96D
  8
0
 62
     0
 10
1.943107919543168
 20
-49.134860157161647
 30
0.0
 11
1.943107919543168
 21
-49.134860157161647
 31
0.0
  0
LINE
  5
1A96E
  8
0
 62
     0
 10
7.3689048103787469
 20
-44.880687954323847
 30
0.0
 11
7.3689048103787469
 21
-44.880687954323847
 31
0.0
  0
LINE
  5
1A96F
  8
0
 62
     0
 10
6.9007337015043193
 20
-44.451688172487913
 30
0.0
 11
6.9007337015043193
 21
-44.451688172487913
 31
0.0
  0
LINE
  5
1A970
  8
0
 62
     0
 10
4.3726097135824036
 20
-42.135089350573821
 30
0.0
 11
4.3726097135824036
 21
-42.135089350573821
 31
0.0
  0
LINE
  5
1A971
  8
0
 62
     0
 10
2.1628420796950998
 20
-40.11021038030816
 30
0.0
 11
2.1628420796950998
 21
-40.11021038030816
 31
0.0
  0
LINE
  5
1A972
  8
0
 62
     0
 10
1.694670970820672
 20
-39.681210598472219
 30
0.0
 11
1.694670970820672
 21
-39.681210598472219
 31
0.0
  0
LINE
  5
1A973
  8
0
 62
     0
 10
6.8021115076217677
 20
-35.135318543985953
 30
0.0
 11
6.8021115076217677
 21
-35.135318543985953
 31
0.0
  0
LINE
  5
1A974
  8
0
 62
     0
 10
4.592343873734464
 20
-33.110439573720278
 30
0.0
 11
4.592343873734464
 21
-33.110439573720278
 31
0.0
  0
LINE
  5
1A975
  8
0
 62
     0
 10
4.1241727648600364
 20
-32.681439791884351
 30
0.0
 11
4.1241727648600364
 21
-32.681439791884351
 31
0.0
  0
LINE
  5
1A976
  8
0
 62
     0
 10
1.5960487769381211
 20
-30.364840969970238
 30
0.0
 11
1.5960487769381211
 21
-30.364840969970238
 31
0.0
  0
LINE
  5
1A977
  8
0
 62
     0
 10
7.0218456677738237
 20
-26.110668767132399
 30
0.0
 11
7.0218456677738237
 21
-26.110668767132399
 31
0.0
  0
LINE
  5
1A978
  8
0
 62
     0
 10
6.5536745588993961
 20
-25.681668985296461
 30
0.0
 11
6.5536745588993961
 21
-25.681668985296461
 31
0.0
  0
LINE
  5
1A979
  8
0
 62
     0
 10
4.0255505709774813
 20
-23.365070163382359
 30
0.0
 11
4.0255505709774813
 21
-23.365070163382359
 31
0.0
  0
LINE
  5
1A97A
  8
0
 62
     0
 10
1.8157829370901779
 20
-21.340191193116699
 30
0.0
 11
1.8157829370901779
 21
-21.340191193116699
 31
0.0
  0
LINE
  5
1A97B
  8
0
 62
     0
 10
1.347611828215749
 20
-20.911191411280761
 30
0.0
 11
1.347611828215749
 21
-20.911191411280761
 31
0.0
  0
LINE
  5
1A97C
  8
0
 62
     0
 10
8.9831763529386919
 20
-18.681898178708529
 30
0.0
 11
8.9831763529386919
 21
-18.681898178708529
 31
0.0
  0
LINE
  5
1A97D
  8
0
 62
     0
 10
6.4550523650167762
 20
-16.365299356794441
 30
0.0
 11
6.4550523650167762
 21
-16.365299356794441
 31
0.0
  0
LINE
  5
1A97E
  8
0
 62
     0
 10
4.2452847311294732
 20
-14.34042038652878
 30
0.0
 11
4.2452847311294732
 21
-14.34042038652878
 31
0.0
  0
LINE
  5
1A97F
  8
0
 62
     0
 10
3.7771136222550439
 20
-13.911420604692839
 30
0.0
 11
3.7771136222550439
 21
-13.911420604692839
 31
0.0
  0
LINE
  5
1A980
  8
0
 62
     0
 10
1.248989634333129
 20
-11.59482178277873
 30
0.0
 11
1.248989634333129
 21
-11.59482178277873
 31
0.0
  0
LINE
  5
1A981
  8
0
 62
     0
 10
6.6747865251688028
 20
-7.340649579940961
 30
0.0
 11
6.6747865251688028
 21
-7.340649579940961
 31
0.0
  0
LINE
  5
1A982
  8
0
 62
     0
 10
6.2066154162943752
 20
-6.9116497981050173
 30
0.0
 11
6.2066154162943752
 21
-6.9116497981050173
 31
0.0
  0
LINE
  5
1A983
  8
0
 62
     0
 10
3.6784914283724599
 20
-4.5950509761909171
 30
0.0
 11
3.6784914283724599
 21
-4.5950509761909171
 31
0.0
  0
LINE
  5
1A984
  8
0
 62
     0
 10
1.468723794485157
 20
-2.5701720059252589
 30
0.0
 11
1.468723794485157
 21
-2.5701720059252589
 31
0.0
  0
LINE
  5
1A985
  8
0
 62
     0
 10
1.0005526856107281
 20
-2.1411722240893152
 30
0.0
 11
1.0005526856107281
 21
-2.1411722240893152
 31
0.0
  0
LINE
  5
1A986
  8
0
 62
     0
 10
8.6361172103337154
 20
0.0881210084828284
 30
0.0
 11
8.6361172103337154
 21
0.0881210084828284
 31
0.0
  0
LINE
  5
1A987
  8
0
 62
     0
 10
6.1079932224118014
 20
2.4047198303969282
 30
0.0
 11
6.1079932224118014
 21
2.4047198303969282
 31
0.0
  0
LINE
  5
1A988
  8
0
 62
     0
 10
3.8982255885244972
 20
4.4295988006625846
 30
0.0
 11
3.8982255885244972
 21
4.4295988006625846
 31
0.0
  0
LINE
  5
1A989
  8
0
 62
     0
 10
3.4300544796500692
 20
4.85859858249853
 30
0.0
 11
3.4300544796500692
 21
4.85859858249853
 31
0.0
  0
LINE
  5
1A98A
  8
0
 62
     0
 10
0.9019304917281541
 20
7.1751974044126294
 30
0.0
 11
0.9019304917281541
 21
7.1751974044126294
 31
0.0
  0
LINE
  5
1A98B
  8
0
 62
     0
 10
6.3277273825637756
 20
11.42936960725048
 30
0.0
 11
6.3277273825637756
 21
11.42936960725048
 31
0.0
  0
LINE
  5
1A98C
  8
0
 62
     0
 10
5.8595562736893481
 20
11.85836938908642
 30
0.0
 11
5.8595562736893481
 21
11.85836938908642
 31
0.0
  0
LINE
  5
1A98D
  8
0
 62
     0
 10
3.3314322857674332
 20
14.17496821100052
 30
0.0
 11
3.3314322857674332
 21
14.17496821100052
 31
0.0
  0
LINE
  5
1A98E
  8
0
 62
     0
 10
1.121664651880129
 20
16.199847181266179
 30
0.0
 11
1.121664651880129
 21
16.199847181266179
 31
0.0
  0
LINE
  5
1A98F
  8
0
 62
     0
 10
0.6534935430057013
 20
16.628846963102131
 30
0.0
 11
0.6534935430057013
 21
16.628846963102131
 31
0.0
  0
LINE
  5
1A990
  8
0
 62
     0
 10
8.757229176603154
 20
18.429140413838351
 30
0.0
 11
8.757229176603154
 21
18.429140413838351
 31
0.0
  0
LINE
  5
1A991
  8
0
 62
     0
 10
8.2890580677287247
 20
18.858140195674299
 30
0.0
 11
8.2890580677287247
 21
18.858140195674299
 31
0.0
  0
LINE
  5
1A992
  8
0
 62
     0
 10
5.7609340798068081
 20
21.174739017588401
 30
0.0
 11
5.7609340798068081
 21
21.174739017588401
 31
0.0
  0
LINE
  5
1A993
  8
0
 62
     0
 10
3.5511664459195051
 20
23.199617987854051
 30
0.0
 11
3.5511664459195051
 21
23.199617987854051
 31
0.0
  0
LINE
  5
1A994
  8
0
 62
     0
 10
3.0829953370450758
 20
23.628617769689999
 30
0.0
 11
3.0829953370450758
 21
23.628617769689999
 31
0.0
  0
LINE
  5
1A995
  8
0
 62
     0
 10
0.5548713491231618
 20
25.945216591604101
 30
0.0
 11
0.5548713491231618
 21
25.945216591604101
 31
0.0
  0
LINE
  5
1A996
  8
0
 62
     0
 10
8.1904358738460896
 20
28.17450982417618
 30
0.0
 11
8.1904358738460896
 21
28.17450982417618
 31
0.0
  0
LINE
  5
1A997
  8
0
 62
     0
 10
5.9806682399587858
 20
30.199388794441841
 30
0.0
 11
5.9806682399587858
 21
30.199388794441841
 31
0.0
  0
LINE
  5
1A998
  8
0
 62
     0
 10
5.5124971310843582
 20
30.628388576277789
 30
0.0
 11
5.5124971310843582
 21
30.628388576277789
 31
0.0
  0
LINE
  5
1A999
  8
0
 62
     0
 10
2.984373143162443
 20
32.944987398191877
 30
0.0
 11
2.984373143162443
 21
32.944987398191877
 31
0.0
  0
LINE
  5
1A99A
  8
0
 62
     0
 10
0.7746055092751402
 20
34.969866368457538
 30
0.0
 11
0.7746055092751402
 21
34.969866368457538
 31
0.0
  0
LINE
  5
1A99B
  8
0
 62
     0
 10
0.3064344004007115
 20
35.398866150293493
 30
0.0
 11
0.3064344004007115
 21
35.398866150293493
 31
0.0
  0
LINE
  5
1A99C
  8
0
 62
     0
 10
8.41017003399811
 20
37.199159601029763
 30
0.0
 11
8.41017003399811
 21
37.199159601029763
 31
0.0
  0
LINE
  5
1A99D
  8
0
 62
     0
 10
7.9419989251236807
 20
37.628159382865697
 30
0.0
 11
7.9419989251236807
 21
37.628159382865697
 31
0.0
  0
LINE
  5
1A99E
  8
0
 62
     0
 10
5.4138749372017658
 20
39.944758204779802
 30
0.0
 11
5.4138749372017658
 21
39.944758204779802
 31
0.0
  0
LINE
  5
1A99F
  8
0
 62
     0
 10
3.204107303314462
 20
41.969637175045463
 30
0.0
 11
3.204107303314462
 21
41.969637175045463
 31
0.0
  0
LINE
  5
1A9A0
  8
0
 62
     0
 10
2.735936194440034
 20
42.398636956881397
 30
0.0
 11
2.735936194440034
 21
42.398636956881397
 31
0.0
  0
LINE
  5
1A9A1
  8
0
 62
     0
 10
3.8802392881250851
 20
-61.296643484138428
 30
0.0
 11
3.8802392881250851
 21
-61.296643484138428
 31
0.0
  0
LINE
  5
1A9A2
  8
0
 62
     0
 10
6.7559594504826217
 20
-58.075130275130718
 30
0.0
 11
6.7559594504826217
 21
-58.075130275130718
 31
0.0
  0
LINE
  5
1A9A3
  8
0
 62
     0
 10
2.8999737602261102
 20
-55.618596465769052
 30
0.0
 11
2.8999737602261102
 21
-55.618596465769052
 31
0.0
  0
LINE
  5
1A9A4
  8
0
 62
     0
 10
1.8288666240437459
 20
-54.936225963168582
 30
0.0
 11
1.8288666240437459
 21
-54.936225963168582
 31
0.0
  0
LINE
  5
1A9A5
  8
0
 62
     0
 10
4.7045867864011877
 20
-51.714712754160921
 30
0.0
 11
4.7045867864011877
 21
-51.714712754160921
 31
0.0
  0
LINE
  5
1A9A6
  8
0
 62
     0
 10
0.8486010961446758
 20
-49.258178944799241
 30
0.0
 11
0.8486010961446758
 21
-49.258178944799241
 31
0.0
  0
LINE
  5
1A9A7
  8
0
 62
     0
 10
8.7585247985592201
 20
-49.243807098013797
 30
0.0
 11
8.7585247985592201
 21
-49.243807098013797
 31
0.0
  0
LINE
  5
1A9A8
  8
0
 62
     0
 10
7.6874176623768546
 20
-48.561436595413333
 30
0.0
 11
7.6874176623768546
 21
-48.561436595413333
 31
0.0
  0
LINE
  5
1A9A9
  8
0
 62
     0
 10
2.6532141223197412
 20
-45.354295233191131
 30
0.0
 11
2.6532141223197412
 21
-45.354295233191131
 31
0.0
  0
LINE
  5
1A9AA
  8
0
 62
     0
 10
6.7071521344778677
 20
-42.883389577044078
 30
0.0
 11
6.7071521344778677
 21
-42.883389577044078
 31
0.0
  0
LINE
  5
1A9AB
  8
0
 62
     0
 10
5.6360449982955041
 20
-42.201019074443607
 30
0.0
 11
5.6360449982955041
 21
-42.201019074443607
 31
0.0
  0
LINE
  5
1A9AC
  8
0
 62
     0
 10
0.6018414582383905
 20
-38.993877712221433
 30
0.0
 11
0.6018414582383905
 21
-38.993877712221433
 31
0.0
  0
LINE
  5
1A9AD
  8
0
 62
     0
 10
8.5117651606529581
 20
-38.97950586543589
 30
0.0
 11
8.5117651606529581
 21
-38.97950586543589
 31
0.0
  0
LINE
  5
1A9AE
  8
0
 62
     0
 10
4.6557794703964452
 20
-36.522972056074209
 30
0.0
 11
4.6557794703964452
 21
-36.522972056074209
 31
0.0
  0
LINE
  5
1A9AF
  8
0
 62
     0
 10
3.5846723342140798
 20
-35.840601553473739
 30
0.0
 11
3.5846723342140798
 21
-35.840601553473739
 31
0.0
  0
LINE
  5
1A9B0
  8
0
 62
     0
 10
6.4603924965714628
 20
-32.619088344466078
 30
0.0
 11
6.4603924965714628
 21
-32.619088344466078
 31
0.0
  0
LINE
  5
1A9B1
  8
0
 62
     0
 10
2.6044068063149499
 20
-30.162554535104402
 30
0.0
 11
2.6044068063149499
 21
-30.162554535104402
 31
0.0
  0
LINE
  5
1A9B2
  8
0
 62
     0
 10
1.5332996701325861
 20
-29.480184032503931
 30
0.0
 11
1.5332996701325861
 21
-29.480184032503931
 31
0.0
  0
LINE
  5
1A9B3
  8
0
 62
     0
 10
4.4090198324901886
 20
-26.258670823496349
 30
0.0
 11
4.4090198324901886
 21
-26.258670823496349
 31
0.0
  0
LINE
  5
1A9B4
  8
0
 62
     0
 10
0.5530341422336775
 20
-23.802137014134669
 30
0.0
 11
0.5530341422336775
 21
-23.802137014134669
 31
0.0
  0
LINE
  5
1A9B5
  8
0
 62
     0
 10
8.4629578446482672
 20
-23.78776516734921
 30
0.0
 11
8.4629578446482672
 21
-23.78776516734921
 31
0.0
  0
LINE
  5
1A9B6
  8
0
 62
     0
 10
7.3918507084659044
 20
-23.105394664748751
 30
0.0
 11
7.3918507084659044
 21
-23.105394664748751
 31
0.0
  0
LINE
  5
1A9B7
  8
0
 62
     0
 10
2.3576471684087901
 20
-19.898253302526548
 30
0.0
 11
2.3576471684087901
 21
-19.898253302526548
 31
0.0
  0
LINE
  5
1A9B8
  8
0
 62
     0
 10
6.4115851805667248
 20
-17.427347646379371
 30
0.0
 11
6.4115851805667248
 21
-17.427347646379371
 31
0.0
  0
LINE
  5
1A9B9
  8
0
 62
     0
 10
5.3404780443843611
 20
-16.7449771437789
 30
0.0
 11
5.3404780443843611
 21
-16.7449771437789
 31
0.0
  0
LINE
  5
1A9BA
  8
0
 62
     0
 10
0.3062745043272478
 20
-13.53783578155671
 30
0.0
 11
0.3062745043272478
 21
-13.53783578155671
 31
0.0
  0
LINE
  5
1A9BB
  8
0
 62
     0
 10
8.2161982067418311
 20
-13.52346393477128
 30
0.0
 11
8.2161982067418311
 21
-13.52346393477128
 31
0.0
  0
LINE
  5
1A9BC
  8
0
 62
     0
 10
4.3602125164853183
 20
-11.0669301254096
 30
0.0
 11
4.3602125164853183
 21
-11.0669301254096
 31
0.0
  0
LINE
  5
1A9BD
  8
0
 62
     0
 10
6.1648255426604877
 20
-7.1630464138015846
 30
0.0
 11
6.1648255426604877
 21
-7.1630464138015846
 31
0.0
  0
LINE
  5
1A9BE
  8
0
 62
     0
 10
2.3088398524039762
 20
-4.7065126044399053
 30
0.0
 11
2.3088398524039762
 21
-4.7065126044399053
 31
0.0
  0
LINE
  5
1A9BF
  8
0
 62
     0
 10
1.237732716221611
 20
-4.0241421018394377
 30
0.0
 11
1.237732716221611
 21
-4.0241421018394377
 31
0.0
  0
LINE
  5
1A9C0
  8
0
 62
     0
 10
4.1134528785791007
 20
-0.802628892831747
 30
0.0
 11
4.1134528785791007
 21
-0.802628892831747
 31
0.0
  0
LINE
  5
1A9C1
  8
0
 62
     0
 10
0.2574671883225893
 20
1.6539049165299331
 30
0.0
 11
0.2574671883225893
 21
1.6539049165299331
 31
0.0
  0
LINE
  5
1A9C2
  8
0
 62
     0
 10
8.1673908907370851
 20
1.6682767633154569
 30
0.0
 11
8.1673908907370851
 21
1.6682767633154569
 31
0.0
  0
LINE
  5
1A9C3
  8
0
 62
     0
 10
7.0962837545547197
 20
2.350647265915923
 30
0.0
 11
7.0962837545547197
 21
2.350647265915923
 31
0.0
  0
LINE
  5
1A9C4
  8
0
 62
     0
 10
2.0620802144976071
 20
5.557788628138117
 30
0.0
 11
2.0620802144976071
 21
5.557788628138117
 31
0.0
  0
LINE
  5
1A9C5
  8
0
 62
     0
 10
0.0107075504163213
 20
11.91820614910781
 30
0.0
 11
0.0107075504163213
 21
11.91820614910781
 31
0.0
  0
LINE
  5
1A9C6
  8
0
 62
     0
 10
7.9206312528308631
 20
11.932577995893361
 30
0.0
 11
7.9206312528308631
 21
11.932577995893361
 31
0.0
  0
LINE
  5
1A9C7
  8
0
 62
     0
 10
4.0646455625743521
 20
14.389111805255039
 30
0.0
 11
4.0646455625743521
 21
14.389111805255039
 31
0.0
  0
LINE
  5
1A9C8
  8
0
 62
     0
 10
2.9935384263919871
 20
15.07148230785551
 30
0.0
 11
2.9935384263919871
 21
15.07148230785551
 31
0.0
  0
LINE
  5
1A9C9
  8
0
 62
     0
 10
5.8692585887494468
 20
18.292995516863161
 30
0.0
 11
5.8692585887494468
 21
18.292995516863161
 31
0.0
  0
LINE
  5
1A9CA
  8
0
 62
     0
 10
2.0132728984929349
 20
20.749529326224842
 30
0.0
 11
2.0132728984929349
 21
20.749529326224842
 31
0.0
  0
LINE
  5
1A9CB
  8
0
 62
     0
 10
0.9421657623105714
 20
21.431899828825308
 30
0.0
 11
0.9421657623105714
 21
21.431899828825308
 31
0.0
  0
LINE
  5
1A9CC
  8
0
 62
     0
 10
8.8520894647250579
 20
21.44627167561082
 30
0.0
 11
8.8520894647250579
 21
21.44627167561082
 31
0.0
  0
LINE
  5
1A9CD
  8
0
 62
     0
 10
3.817885924667944
 20
24.653413037833008
 30
0.0
 11
3.817885924667944
 21
24.653413037833008
 31
0.0
  0
LINE
  5
1A9CE
  8
0
 62
     0
 10
7.8718239368261278
 20
27.124318693980069
 30
0.0
 11
7.8718239368261278
 21
27.124318693980069
 31
0.0
  0
LINE
  5
1A9CF
  8
0
 62
     0
 10
6.8007168006437642
 20
27.806689196580539
 30
0.0
 11
6.8007168006437642
 21
27.806689196580539
 31
0.0
  0
LINE
  5
1A9D0
  8
0
 62
     0
 10
1.76651326058665
 20
31.013830558802731
 30
0.0
 11
1.76651326058665
 21
31.013830558802731
 31
0.0
  0
LINE
  5
1A9D1
  8
0
 62
     0
 10
5.8204512727446627
 20
33.484736214949912
 30
0.0
 11
5.8204512727446627
 21
33.484736214949912
 31
0.0
  0
LINE
  5
1A9D2
  8
0
 62
     0
 10
4.749344136562299
 20
34.167106717550368
 30
0.0
 11
4.749344136562299
 21
34.167106717550368
 31
0.0
  0
LINE
  5
1A9D3
  8
0
 62
     0
 10
7.6250642989196979
 20
37.388619926558029
 30
0.0
 11
7.6250642989196979
 21
37.388619926558029
 31
0.0
  0
LINE
  5
1A9D4
  8
0
 62
     0
 10
3.769078608663186
 20
39.845153735919709
 30
0.0
 11
3.769078608663186
 21
39.845153735919709
 31
0.0
  0
LINE
  5
1A9D5
  8
0
 62
     0
 10
2.697971472480821
 20
40.527524238520179
 30
0.0
 11
2.697971472480821
 21
40.527524238520179
 31
0.0
  0
LINE
  5
1A9D6
  8
0
 62
     0
 10
5.5736916348382826
 20
43.749037447527833
 30
0.0
 11
5.5736916348382826
 21
43.749037447527833
 31
0.0
  0
LINE
  5
1A9D7
  8
0
 62
     0
 10
8.5586983347236547
 20
-60.733363906378372
 30
0.0
 11
8.5586983347236547
 21
-60.733363906378372
 31
0.0
  0
LINE
  5
1A9D8
  8
0
 62
     0
 10
6.493716977454282
 20
-61.00522385953429
 30
0.0
 11
6.493716977454282
 21
-61.00522385953429
 31
0.0
  0
LINE
  5
1A9D9
  8
0
 62
     0
 10
5.1716252548123061
 20
-61.179280536859729
 30
0.0
 11
5.1716252548123061
 21
-61.179280536859729
 31
0.0
  0
LINE
  5
1A9DA
  8
0
 62
     0
 10
6.2168282575837468
 20
-54.465234574863508
 30
0.0
 11
6.2168282575837468
 21
-54.465234574863508
 31
0.0
  0
LINE
  5
1A9DB
  8
0
 62
     0
 10
4.151846900314375
 20
-54.737094528019441
 30
0.0
 11
4.151846900314375
 21
-54.737094528019441
 31
0.0
  0
LINE
  5
1A9DC
  8
0
 62
     0
 10
2.829755177672399
 20
-54.911151205344872
 30
0.0
 11
2.829755177672399
 21
-54.911151205344872
 31
0.0
  0
LINE
  5
1A9DD
  8
0
 62
     0
 10
8.6470797316944097
 20
-47.568843522335911
 30
0.0
 11
8.6470797316944097
 21
-47.568843522335911
 31
0.0
  0
LINE
  5
1A9DE
  8
0
 62
     0
 10
7.324988009052432
 20
-47.742900199661349
 30
0.0
 11
7.324988009052432
 21
-47.742900199661349
 31
0.0
  0
LINE
  5
1A9DF
  8
0
 62
     0
 10
3.8749581804438469
 20
-48.197105243348688
 30
0.0
 11
3.8749581804438469
 21
-48.197105243348688
 31
0.0
  0
LINE
  5
1A9E0
  8
0
 62
     0
 10
1.8099768231744751
 20
-48.468965196504612
 30
0.0
 11
1.8099768231744751
 21
-48.468965196504612
 31
0.0
  0
LINE
  5
1A9E1
  8
0
 62
     0
 10
0.4878851005324989
 20
-48.643021873830051
 30
0.0
 11
0.4878851005324989
 21
-48.643021873830051
 31
0.0
  0
LINE
  5
1A9E2
  8
0
 62
     0
 10
8.3701910118238132
 20
-41.028854237665151
 30
0.0
 11
8.3701910118238132
 21
-41.028854237665151
 31
0.0
  0
LINE
  5
1A9E3
  8
0
 62
     0
 10
6.3052096545544423
 20
-41.300714190821083
 30
0.0
 11
6.3052096545544423
 21
-41.300714190821083
 31
0.0
  0
LINE
  5
1A9E4
  8
0
 62
     0
 10
4.9831179319124663
 20
-41.474770868146521
 30
0.0
 11
4.9831179319124663
 21
-41.474770868146521
 31
0.0
  0
LINE
  5
1A9E5
  8
0
 62
     0
 10
1.5330881033038799
 20
-41.928975911833859
 30
0.0
 11
1.5330881033038799
 21
-41.928975911833859
 31
0.0
  0
LINE
  5
1A9E6
  8
0
 62
     0
 10
6.0283209346837987
 20
-34.76072490615033
 30
0.0
 11
6.0283209346837987
 21
-34.76072490615033
 31
0.0
  0
LINE
  5
1A9E7
  8
0
 62
     0
 10
3.9633395774144269
 20
-35.032584859306262
 30
0.0
 11
3.9633395774144269
 21
-35.032584859306262
 31
0.0
  0
LINE
  5
1A9E8
  8
0
 62
     0
 10
2.6412478547724509
 20
-35.206641536631693
 30
0.0
 11
2.6412478547724509
 21
-35.206641536631693
 31
0.0
  0
LINE
  5
1A9E9
  8
0
 62
     0
 10
8.4585724087945735
 20
-27.8643338536227
 30
0.0
 11
8.4585724087945735
 21
-27.8643338536227
 31
0.0
  0
LINE
  5
1A9EA
  8
0
 62
     0
 10
7.1364806861525958
 20
-28.038390530948138
 30
0.0
 11
7.1364806861525958
 21
-28.038390530948138
 31
0.0
  0
LINE
  5
1A9EB
  8
0
 62
     0
 10
3.6864508575440111
 20
-28.49259557463547
 30
0.0
 11
3.6864508575440111
 21
-28.49259557463547
 31
0.0
  0
LINE
  5
1A9EC
  8
0
 62
     0
 10
1.621469500274638
 20
-28.764455527791402
 30
0.0
 11
1.621469500274638
 21
-28.764455527791402
 31
0.0
  0
LINE
  5
1A9ED
  8
0
 62
     0
 10
0.2993777776326627
 20
-28.93851220511683
 30
0.0
 11
0.2993777776326627
 21
-28.93851220511683
 31
0.0
  0
LINE
  5
1A9EE
  8
0
 62
     0
 10
8.1816836889240907
 20
-21.324344568951911
 30
0.0
 11
8.1816836889240907
 21
-21.324344568951911
 31
0.0
  0
LINE
  5
1A9EF
  8
0
 62
     0
 10
6.116702331654718
 20
-21.596204522107829
 30
0.0
 11
6.116702331654718
 21
-21.596204522107829
 31
0.0
  0
LINE
  5
1A9F0
  8
0
 62
     0
 10
4.7946106090127421
 20
-21.770261199433271
 30
0.0
 11
4.7946106090127421
 21
-21.770261199433271
 31
0.0
  0
LINE
  5
1A9F1
  8
0
 62
     0
 10
1.3445807804041561
 20
-22.224466243120609
 30
0.0
 11
1.3445807804041561
 21
-22.224466243120609
 31
0.0
  0
LINE
  5
1A9F2
  8
0
 62
     0
 10
5.8398136117840771
 20
-15.05621523743708
 30
0.0
 11
5.8398136117840771
 21
-15.05621523743708
 31
0.0
  0
LINE
  5
1A9F3
  8
0
 62
     0
 10
3.7748322545147039
 20
-15.328075190592999
 30
0.0
 11
3.7748322545147039
 21
-15.328075190592999
 31
0.0
  0
LINE
  5
1A9F4
  8
0
 62
     0
 10
2.452740531872728
 20
-15.50213186791844
 30
0.0
 11
2.452740531872728
 21
-15.50213186791844
 31
0.0
  0
LINE
  5
1A9F5
  8
0
 62
     0
 10
7.9931763660241417
 20
-1.61983490023871
 30
0.0
 11
7.9931763660241417
 21
-1.61983490023871
 31
0.0
  0
LINE
  5
1A9F6
  8
0
 62
     0
 10
5.9281950087547699
 20
-1.8916948533946341
 30
0.0
 11
5.9281950087547699
 21
-1.8916948533946341
 31
0.0
  0
LINE
  5
1A9F7
  8
0
 62
     0
 10
4.606103286112794
 20
-2.065751530720072
 30
0.0
 11
4.606103286112794
 21
-2.065751530720072
 31
0.0
  0
LINE
  5
1A9F8
  8
0
 62
     0
 10
1.1560734575042091
 20
-2.5199565744074079
 30
0.0
 11
1.1560734575042091
 21
-2.5199565744074079
 31
0.0
  0
LINE
  5
1A9F9
  8
0
 62
     0
 10
5.6513062888843519
 20
4.648294431276164
 30
0.0
 11
5.6513062888843519
 21
4.648294431276164
 31
0.0
  0
LINE
  5
1A9FA
  8
0
 62
     0
 10
3.586324931614981
 20
4.3764344781202409
 30
0.0
 11
3.586324931614981
 21
4.3764344781202409
 31
0.0
  0
LINE
  5
1A9FB
  8
0
 62
     0
 10
2.2642332089730042
 20
4.2023778007948032
 30
0.0
 11
2.2642332089730042
 21
4.2023778007948032
 31
0.0
  0
LINE
  5
1A9FC
  8
0
 62
     0
 10
3.3094362117444769
 20
10.916423762791
 30
0.0
 11
3.3094362117444769
 21
10.916423762791
 31
0.0
  0
LINE
  5
1A9FD
  8
0
 62
     0
 10
1.2444548544750369
 20
10.644563809635081
 30
0.0
 11
1.2444548544750369
 21
10.644563809635081
 31
0.0
  0
LINE
  5
1A9FE
  8
0
 62
     0
 10
8.081557762995029
 20
11.54468548380378
 30
0.0
 11
8.081557762995029
 21
11.54468548380378
 31
0.0
  0
LINE
  5
1A9FF
  8
0
 62
     0
 10
6.7594660403530522
 20
11.37062880647834
 30
0.0
 11
6.7594660403530522
 21
11.37062880647834
 31
0.0
  0
LINE
  5
1AA00
  8
0
 62
     0
 10
7.8046690431244183
 20
18.084674768474539
 30
0.0
 11
7.8046690431244183
 21
18.084674768474539
 31
0.0
  0
LINE
  5
1AA01
  8
0
 62
     0
 10
5.7396876858550456
 20
17.812814815318621
 30
0.0
 11
5.7396876858550456
 21
17.812814815318621
 31
0.0
  0
LINE
  5
1AA02
  8
0
 62
     0
 10
4.4175959632130697
 20
17.638758137993179
 30
0.0
 11
4.4175959632130697
 21
17.638758137993179
 31
0.0
  0
LINE
  5
1AA03
  8
0
 62
     0
 10
0.9675661346044847
 20
17.184553094305841
 30
0.0
 11
0.9675661346044847
 21
17.184553094305841
 31
0.0
  0
LINE
  5
1AA04
  8
0
 62
     0
 10
8.9128287945932172
 20
24.807009143676751
 30
0.0
 11
8.9128287945932172
 21
24.807009143676751
 31
0.0
  0
LINE
  5
1AA05
  8
0
 62
     0
 10
5.4627989659846303
 20
24.35280409998941
 30
0.0
 11
5.4627989659846303
 21
24.35280409998941
 31
0.0
  0
LINE
  5
1AA06
  8
0
 62
     0
 10
3.3978176087152572
 20
24.080944146833492
 30
0.0
 11
3.3978176087152572
 21
24.080944146833492
 31
0.0
  0
LINE
  5
1AA07
  8
0
 62
     0
 10
2.0757258860732808
 20
23.90688746950805
 30
0.0
 11
2.0757258860732808
 21
23.90688746950805
 31
0.0
  0
LINE
  5
1AA08
  8
0
 62
     0
 10
7.8930504400952897
 20
31.249195152517011
 30
0.0
 11
7.8930504400952897
 21
31.249195152517011
 31
0.0
  0
LINE
  5
1AA09
  8
0
 62
     0
 10
6.5709587174533137
 20
31.075138475191579
 30
0.0
 11
6.5709587174533137
 21
31.075138475191579
 31
0.0
  0
LINE
  5
1AA0A
  8
0
 62
     0
 10
3.1209288888447282
 20
30.620933431504241
 30
0.0
 11
3.1209288888447282
 21
30.620933431504241
 31
0.0
  0
LINE
  5
1AA0B
  8
0
 62
     0
 10
1.0559475315753559
 20
30.34907347834832
 30
0.0
 11
1.0559475315753559
 21
30.34907347834832
 31
0.0
  0
LINE
  5
1AA0C
  8
0
 62
     0
 10
7.6161617202245822
 20
37.789184437187778
 30
0.0
 11
7.6161617202245822
 21
37.789184437187778
 31
0.0
  0
LINE
  5
1AA0D
  8
0
 62
     0
 10
5.5511803629552086
 20
37.517324484031853
 30
0.0
 11
5.5511803629552086
 21
37.517324484031853
 31
0.0
  0
LINE
  5
1AA0E
  8
0
 62
     0
 10
4.2290886403132326
 20
37.343267806706422
 30
0.0
 11
4.2290886403132326
 21
37.343267806706422
 31
0.0
  0
LINE
  5
1AA0F
  8
0
 62
     0
 10
0.7790588117046476
 20
36.889062763019083
 30
0.0
 11
0.7790588117046476
 21
36.889062763019083
 31
0.0
  0
LINE
  5
1AA10
  8
0
 62
     0
 10
8.7243214716932656
 20
44.511518812389951
 30
0.0
 11
8.7243214716932656
 21
44.511518812389951
 31
0.0
  0
LINE
  5
1AA11
  8
0
 62
     0
 10
5.2742916430846796
 20
44.05731376870262
 30
0.0
 11
5.2742916430846796
 21
44.05731376870262
 31
0.0
  0
LINE
  5
1AA12
  8
0
 62
     0
 10
3.2093102858153082
 20
43.785453815546688
 30
0.0
 11
3.2093102858153082
 21
43.785453815546688
 31
0.0
  0
LINE
  5
1AA13
  8
0
 62
     0
 10
1.887218563173332
 20
43.61139713822125
 30
0.0
 11
1.887218563173332
 21
43.61139713822125
 31
0.0
  0
LINE
  5
1AA14
  8
0
 62
     0
 10
8.2992554627512423
 20
-60.099467008910388
 30
0.0
 11
8.2992554627512423
 21
-60.099467008910388
 31
0.0
  0
LINE
  5
1AA15
  8
0
 62
     0
 10
8.1392523331528608
 20
-55.205334635616929
 30
0.0
 11
8.1392523331528608
 21
-55.205334635616929
 31
0.0
  0
LINE
  5
1AA16
  8
0
 62
     0
 10
5.076273756956458
 20
-57.555640760733802
 30
0.0
 11
5.076273756956458
 21
-57.555640760733802
 31
0.0
  0
LINE
  5
1AA17
  8
0
 62
     0
 10
1.8017078449043851
 20
-60.06830355896728
 30
0.0
 11
1.8017078449043851
 21
-60.06830355896728
 31
0.0
  0
LINE
  5
1AA18
  8
0
 62
     0
 10
7.9792492035542066
 20
-50.311202262323569
 30
0.0
 11
7.9792492035542066
 21
-50.311202262323569
 31
0.0
  0
LINE
  5
1AA19
  8
0
 62
     0
 10
4.9162706273578047
 20
-52.661508387440442
 30
0.0
 11
4.9162706273578047
 21
-52.661508387440442
 31
0.0
  0
LINE
  5
1AA1A
  8
0
 62
     0
 10
1.6417047153057309
 20
-55.174171185673941
 30
0.0
 11
1.6417047153057309
 21
-55.174171185673941
 31
0.0
  0
LINE
  5
1AA1B
  8
0
 62
     0
 10
7.8192460739558518
 20
-45.41706988903023
 30
0.0
 11
7.8192460739558518
 21
-45.41706988903023
 31
0.0
  0
LINE
  5
1AA1C
  8
0
 62
     0
 10
4.7562674977594499
 20
-47.767376014147089
 30
0.0
 11
4.7562674977594499
 21
-47.767376014147089
 31
0.0
  0
LINE
  5
1AA1D
  8
0
 62
     0
 10
1.4817015857073761
 20
-50.280038812380589
 30
0.0
 11
1.4817015857073761
 21
-50.280038812380589
 31
0.0
  0
LINE
  5
1AA1E
  8
0
 62
     0
 10
7.6592429443577439
 20
-40.522937515736587
 30
0.0
 11
7.6592429443577439
 21
-40.522937515736587
 31
0.0
  0
LINE
  5
1AA1F
  8
0
 62
     0
 10
4.596264368161342
 20
-42.87324364085346
 30
0.0
 11
4.596264368161342
 21
-42.87324364085346
 31
0.0
  0
LINE
  5
1AA20
  8
0
 62
     0
 10
1.3216984561092691
 20
-45.385906439086959
 30
0.0
 11
1.3216984561092691
 21
-45.385906439086959
 31
0.0
  0
LINE
  5
1AA21
  8
0
 62
     0
 10
7.4992398147591617
 20
-35.628805142443262
 30
0.0
 11
7.4992398147591617
 21
-35.628805142443262
 31
0.0
  0
LINE
  5
1AA22
  8
0
 62
     0
 10
4.4362612385627598
 20
-37.979111267560121
 30
0.0
 11
4.4362612385627598
 21
-37.979111267560121
 31
0.0
  0
LINE
  5
1AA23
  8
0
 62
     0
 10
1.1616953265106871
 20
-40.491774065793606
 30
0.0
 11
1.1616953265106871
 21
-40.491774065793606
 31
0.0
  0
LINE
  5
1AA24
  8
0
 62
     0
 10
7.3392366851608069
 20
-30.734672769149899
 30
0.0
 11
7.3392366851608069
 21
-30.734672769149899
 31
0.0
  0
LINE
  5
1AA25
  8
0
 62
     0
 10
4.2762581089644049
 20
-33.084978894266769
 30
0.0
 11
4.2762581089644049
 21
-33.084978894266769
 31
0.0
  0
LINE
  5
1AA26
  8
0
 62
     0
 10
1.001692196912332
 20
-35.597641692500261
 30
0.0
 11
1.001692196912332
 21
-35.597641692500261
 31
0.0
  0
LINE
  5
1AA27
  8
0
 62
     0
 10
7.1792335555623392
 20
-25.84054039585649
 30
0.0
 11
7.1792335555623392
 21
-25.84054039585649
 31
0.0
  0
LINE
  5
1AA28
  8
0
 62
     0
 10
4.1162549793659373
 20
-28.190846520973359
 30
0.0
 11
4.1162549793659373
 21
-28.190846520973359
 31
0.0
  0
LINE
  5
1AA29
  8
0
 62
     0
 10
0.8416890673138636
 20
-30.703509319206859
 30
0.0
 11
0.8416890673138636
 21
-30.703509319206859
 31
0.0
  0
LINE
  5
1AA2A
  8
0
 62
     0
 10
7.0192304259640501
 20
-20.946408022562949
 30
0.0
 11
7.0192304259640501
 21
-20.946408022562949
 31
0.0
  0
LINE
  5
1AA2B
  8
0
 62
     0
 10
3.9562518497676491
 20
-23.296714147679818
 30
0.0
 11
3.9562518497676491
 21
-23.296714147679818
 31
0.0
  0
LINE
  5
1AA2C
  8
0
 62
     0
 10
0.6816859377155757
 20
-25.809376945913311
 30
0.0
 11
0.6816859377155757
 21
-25.809376945913311
 31
0.0
  0
LINE
  5
1AA2D
  8
0
 62
     0
 10
6.8592272963655807
 20
-16.052275649269589
 30
0.0
 11
6.8592272963655807
 21
-16.052275649269589
 31
0.0
  0
LINE
  5
1AA2E
  8
0
 62
     0
 10
3.7962487201691801
 20
-18.402581774386459
 30
0.0
 11
3.7962487201691801
 21
-18.402581774386459
 31
0.0
  0
LINE
  5
1AA2F
  8
0
 62
     0
 10
0.5216828081171072
 20
-20.915244572619962
 30
0.0
 11
0.5216828081171072
 21
-20.915244572619962
 31
0.0
  0
LINE
  5
1AA30
  8
0
 62
     0
 10
6.6992241667671131
 20
-11.15814327597619
 30
0.0
 11
6.6992241667671131
 21
-11.15814327597619
 31
0.0
  0
LINE
  5
1AA31
  8
0
 62
     0
 10
3.6362455905707121
 20
-13.50844940109306
 30
0.0
 11
3.6362455905707121
 21
-13.50844940109306
 31
0.0
  0
LINE
  5
1AA32
  8
0
 62
     0
 10
0.3616796785186386
 20
-16.021112199326549
 30
0.0
 11
0.3616796785186386
 21
-16.021112199326549
 31
0.0
  0
LINE
  5
1AA33
  8
0
 62
     0
 10
6.5392210371686241
 20
-6.2640109026828332
 30
0.0
 11
6.5392210371686241
 21
-6.2640109026828332
 31
0.0
  0
LINE
  5
1AA34
  8
0
 62
     0
 10
0.2016765489201704
 20
-11.126979826033139
 30
0.0
 11
0.2016765489201704
 21
-11.126979826033139
 31
0.0
  0
LINE
  5
1AA35
  8
0
 62
     0
 10
6.37921790757047
 20
-1.3698785293892941
 30
0.0
 11
6.37921790757047
 21
-1.3698785293892941
 31
0.0
  0
LINE
  5
1AA36
  8
0
 62
     0
 10
3.316239331374069
 20
-3.7201846545061632
 30
0.0
 11
3.316239331374069
 21
-3.7201846545061632
 31
0.0
  0
LINE
  5
1AA37
  8
0
 62
     0
 10
0.041673419321996
 20
-6.2328474527396569
 30
0.0
 11
0.041673419321996
 21
-6.2328474527396569
 31
0.0
  0
LINE
  5
1AA38
  8
0
 62
     0
 10
6.2192147779718221
 20
3.5242538439039741
 30
0.0
 11
6.2192147779718221
 21
3.5242538439039741
 31
0.0
  0
LINE
  5
1AA39
  8
0
 62
     0
 10
3.1562362017754202
 20
1.173947718787105
 30
0.0
 11
3.1562362017754202
 21
1.173947718787105
 31
0.0
  0
LINE
  5
1AA3A
  8
0
 62
     0
 10
2.9962330721770178
 20
6.0680800920805931
 30
0.0
 11
2.9962330721770178
 21
6.0680800920805931
 31
0.0
  0
LINE
  5
1AA3B
  8
0
 62
     0
 10
5.8992085187751311
 20
13.31251859049098
 30
0.0
 11
5.8992085187751311
 21
13.31251859049098
 31
0.0
  0
LINE
  5
1AA3C
  8
0
 62
     0
 10
2.8362299425787301
 20
10.96221246537411
 30
0.0
 11
2.8362299425787301
 21
10.96221246537411
 31
0.0
  0
LINE
  5
1AA3D
  8
0
 62
     0
 10
5.7392053891766626
 20
18.206650963784352
 30
0.0
 11
5.7392053891766626
 21
18.206650963784352
 31
0.0
  0
LINE
  5
1AA3E
  8
0
 62
     0
 10
2.6762268129802611
 20
15.856344838667489
 30
0.0
 11
2.6762268129802611
 21
15.856344838667489
 31
0.0
  0
LINE
  5
1AA3F
  8
0
 62
     0
 10
5.5792022595783752
 20
23.10078333707779
 30
0.0
 11
5.5792022595783752
 21
23.10078333707779
 31
0.0
  0
LINE
  5
1AA40
  8
0
 62
     0
 10
2.5162236833819742
 20
20.75047721196092
 30
0.0
 11
2.5162236833819742
 21
20.75047721196092
 31
0.0
  0
LINE
  5
1AA41
  8
0
 62
     0
 10
8.8448988533574582
 20
30.623547560830851
 30
0.0
 11
8.8448988533574582
 21
30.623547560830851
 31
0.0
  0
LINE
  5
1AA42
  8
0
 62
     0
 10
5.4191991299799058
 20
27.994915710371188
 30
0.0
 11
5.4191991299799058
 21
27.994915710371188
 31
0.0
  0
LINE
  5
1AA43
  8
0
 62
     0
 10
2.3562205537835048
 20
25.644609585254329
 30
0.0
 11
2.3562205537835048
 21
25.644609585254329
 31
0.0
  0
LINE
  5
1AA44
  8
0
 62
     0
 10
8.6848957237588778
 20
35.517679934124253
 30
0.0
 11
8.6848957237588778
 21
35.517679934124253
 31
0.0
  0
LINE
  5
1AA45
  8
0
 62
     0
 10
5.2591960003813236
 20
32.889048083664598
 30
0.0
 11
5.2591960003813236
 21
32.889048083664598
 31
0.0
  0
LINE
  5
1AA46
  8
0
 62
     0
 10
2.1962174241849231
 20
30.538741958547732
 30
0.0
 11
2.1962174241849231
 21
30.538741958547732
 31
0.0
  0
LINE
  5
1AA47
  8
0
 62
     0
 10
8.5248925941605211
 20
40.411812307417598
 30
0.0
 11
8.5248925941605211
 21
40.411812307417598
 31
0.0
  0
LINE
  5
1AA48
  8
0
 62
     0
 10
5.0991928707829688
 20
37.78318045695795
 30
0.0
 11
5.0991928707829688
 21
37.78318045695795
 31
0.0
  0
LINE
  5
1AA49
  8
0
 62
     0
 10
2.0362142945865682
 20
35.432874331841077
 30
0.0
 11
2.0362142945865682
 21
35.432874331841077
 31
0.0
  0
LINE
  5
1AA4A
  8
0
 62
     0
 10
4.9391897411846823
 20
42.677312830251488
 30
0.0
 11
4.9391897411846823
 21
42.677312830251488
 31
0.0
  0
LINE
  5
1AA4B
  8
0
 62
     0
 10
1.87621116498828
 20
40.327006705134622
 30
0.0
 11
1.87621116498828
 21
40.327006705134622
 31
0.0
  0
ENDBLK
  5
1AA4D
  8
0
  0
BLOCK
  8
0
  2
*U101
 70
     1
 10
0.0
 20
0.0
 30
0.0
  3
*U101
  1

  0
TEXT
  5
1AA4F
  8
1DIM
 62
   201
 10
-31.153865476029861
 20
54.018296023885341
 30
0.0
 40
3.5
  1
裏板9mm以上
  0
ENDBLK
  5
1AA51
  8
0
  0
BLOCK
  8
0
  2
*U102
 70
     1
 10
0.0
 20
0.0
 30
0.0
  3
*U102
  1

  0
SOLID
  5
1AA53
  8
1DIM
 10
12.044443127533439
 20
38.726957896894412
 30
0.0
 11
13.168864624287609
 21
37.039715350978668
 31
0.0
 12
11.55800886922316
 22
38.271078354924647
 32
0.0
 13
11.55800886922316
 23
38.271078354924647
 33
0.0
  0
POLYLINE
  5
1AA54
  8
1DIM
 66
     1
 10
0.0
 20
0.0
 30
0.0
  0
VERTEX
  5
1AA55
  8
1DIM
 10
11.8012259983783
 20
38.499018125909529
 30
0.0
  0
VERTEX
  5
1AA56
  8
1DIM
 10
-2.0871988093631928
 20
53.318296023885338
 30
0.0
  0
VERTEX
  5
1AA57
  8
1DIM
 10
-33.987198809363193
 20
53.318296023885338
 30
0.0
  0
SEQEND
  5
1AA58
  8
1DIM
  0
ENDBLK
  5
1AA5A
  8
0
  0
BLOCK
  8
0
  2
*U103
 70
     1
 10
0.0
 20
0.0
 30
0.0
  3
*U103
  1

  0
LINE
  5
1AA5C
  8
0
 10
-0.3500000000000227
 20
2.0
 30
0.0
 11
0.0
 21
1.649999999999977
 31
0.0
  0
LINE
  5
1AA5D
  8
0
 10
-10.20000000000004
 20
2.0
 30
0.0
 11
-0.3500000000000227
 21
2.0
 31
0.0
  0
LINE
  5
1AA5E
  8
0
 10
0.0
 20
1.649999999999977
 30
0.0
 11
0.0
 21
-1.6499999999998629
 31
0.0
  0
LINE
  5
1AA5F
  8
0
 10
-12.0
 20
0.2000000000000028
 30
0.0
 11
-10.20000000000004
 21
2.0
 31
0.0
  0
LINE
  5
1AA60
  8
0
 10
0.0
 20
-1.6499999999998629
 30
0.0
 11
-0.3500000000000227
 21
-2.0
 31
0.0
  0
LINE
  5
1AA61
  8
0
 10
-12.0
 20
0.2000000000000028
 30
0.0
 11
-12.0
 21
-0.200000000000017
 31
0.0
  0
LINE
  5
1AA62
  8
0
 10
-10.19999999999999
 20
-1.9999999999999849
 30
0.0
 11
-0.3500000000000227
 21
-2.0
 31
0.0
  0
LINE
  5
1AA63
  8
0
 10
-12.0
 20
-0.200000000000017
 30
0.0
 11
-10.19999999999999
 21
-1.9999999999999849
 31
0.0
  0
ENDBLK
  5
1AA65
  8
0
  0
BLOCK
  8
0
  2
*U104
 70
     1
 10
0.0
 20
0.0
 30
0.0
  3
*U104
  1

  0
LINE
  5
1AA67
  8
0
 10
-7.9999999999999991
 20
2.5
 30
0.0
 11
-7.9999978000002088
 21
2.4999999999999432
 31
0.0
  0
LINE
  5
1AA68
  8
0
 10
-7.9999999999999991
 20
-2.4999999999999432
 30
0.0
 11
-7.9999999999999991
 21
2.5
 31
0.0
  0
LINE
  5
1AA69
  8
0
 10
-7.9999978000002088
 20
2.4999999999999432
 30
0.0
 11
-7.4999979000001629
 21
3.0
 31
0.0
  0
LINE
  5
1AA6A
  8
0
 10
-8.0000021000010921
 20
-2.4999999999999432
 30
0.0
 11
-7.9999999999999991
 21
-2.4999999999999432
 31
0.0
  0
LINE
  5
1AA6B
  8
0
 10
-7.4999979000001629
 20
3.0
 30
0.0
 11
-1.999998199999983
 21
3.0
 31
0.0
  0
LINE
  5
1AA6C
  8
0
 10
-7.5000018999986429
 20
-3.000000000000056
 30
0.0
 11
-8.0000021000010921
 21
-2.4999999999999432
 31
0.0
  0
LINE
  5
1AA6D
  8
0
 10
-1.999998199999983
 20
3.0
 30
0.0
 11
-1.49999999999998
 21
2.0
 31
0.0
  0
LINE
  5
1AA6E
  8
0
 10
-1.999998199999959
 20
-2.9999999999999432
 30
0.0
 11
-7.5000018999986429
 21
-3.000000000000056
 31
0.0
  0
LINE
  5
1AA6F
  8
0
 10
-1.49999999999998
 20
2.0
 30
0.0
 11
-0.5000000000000004
 21
2.0
 31
0.0
  0
LINE
  5
1AA70
  8
0
 10
-1.50000000000001
 20
-2.0
 30
0.0
 11
-1.999998199999959
 21
-2.9999999999999432
 31
0.0
  0
ARC
  5
1AA71
  8
0
 10
-0.5000000000000006
 20
1.5
 30
0.0
 40
0.5000000000000004
 50
0.0
 51
90.0
  0
LINE
  5
1AA72
  8
0
 10
-0.5
 20
-2.0
 30
0.0
 11
-1.50000000000001
 21
-2.0
 31
0.0
  0
LINE
  5
1AA73
  8
0
 10
-0.0000000000000001
 20
1.5
 30
0.0
 11
-0.0000000000000001
 21
-1.5
 31
0.0
  0
ARC
  5
1AA74
  8
0
 10
-0.5
 20
-1.5
 30
0.0
 40
0.5
 50
270.0
 51
0.0
  0
ENDBLK
  5
1AA76
  8
0
  0
BLOCK
  8
0
  2
*U105
 70
     1
 10
0.0
 20
0.0
 30
0.0
  3
*U105
  1

  0
LINE
  5
1AA78
  8
1HATCH
 10
-1.5
 20
2.000000000000056
 30
0.0
 11
-1.7499990999999879
 21
2.5
 31
0.0
  0
LINE
  5
1AA79
  8
1HATCH
 10
-1.7499990999999879
 20
2.5
 30
0.0
 11
-7.999997800000223
 21
2.5
 31
0.0
  0
LINE
  5
1AA7A
  8
1HATCH
 10
-1.5
 20
-2.000000000000056
 30
0.0
 11
-1.5
 21
2.000000000000056
 31
0.0
  0
LINE
  5
1AA7B
  8
1HATCH
 10
-7.999997800000223
 20
2.5
 30
0.0
 11
-7.9999999999999991
 21
2.4999977999997318
 31
0.0
  0
LINE
  5
1AA7C
  8
1HATCH
 10
-1.749999099999981
 20
-2.5
 30
0.0
 11
-1.5
 21
-2.000000000000056
 31
0.0
  0
LINE
  5
1AA7D
  8
1HATCH
 10
-7.9999999999999991
 20
2.4999977999997318
 30
0.0
 11
-7.9999999999999991
 21
-2.5
 31
0.0
  0
LINE
  5
1AA7E
  8
1HATCH
 10
-7.9999999999999991
 20
-2.5
 30
0.0
 11
-1.749999099999981
 21
-2.5
 31
0.0
  0
ENDBLK
  5
1AA80
  8
0
  0
BLOCK
  8
0
  2
*U106
 70
     1
 10
0.0
 20
0.0
 30
0.0
  3
*U106
  1

  0
LINE
  5
1AA82
  8
1HATCH
 10
-1.9999981999999989
 20
3.000000000000056
 30
0.0
 11
-7.4999979000001362
 21
3.0
 31
0.0
  0
LINE
  5
1AA83
  8
1HATCH
 10
-7.4999979000001362
 20
3.0
 30
0.0
 11
-7.999997800000143
 21
2.5
 31
0.0
  0
LINE
  5
1AA84
  8
1HATCH
 10
-1.749999099999983
 20
2.5
 30
0.0
 11
-1.9999981999999989
 21
3.000000000000056
 31
0.0
  0
LINE
  5
1AA85
  8
1HATCH
 10
-7.999997800000143
 20
2.5
 30
0.0
 11
-1.749999099999983
 21
2.5
 31
0.0
  0
ENDBLK
  5
1AA87
  8
0
  0
BLOCK
  8
0
  2
*U107
 70
     1
 10
0.0
 20
0.0
 30
0.0
  3
*U107
  1

  0
ARC
  5
1AA89
  8
1HATCH
 10
-0.5000000000000002
 20
1.5
 30
0.0
 40
0.5000000000000002
 50
0.0
 51
90.000000000000028
  0
LINE
  5
1AA8A
  8
1HATCH
 10
-0.5000000000000004
 20
2.0
 30
0.0
 11
-1.5
 21
2.0
 31
0.0
  0
LINE
  5
1AA8B
  8
1HATCH
 10
0.0
 20
-1.5
 30
0.0
 11
0.0
 21
1.5
 31
0.0
  0
LINE
  5
1AA8C
  8
1HATCH
 10
-1.5
 20
2.0
 30
0.0
 11
-1.5
 21
-2.0
 31
0.0
  0
ARC
  5
1AA8D
  8
1HATCH
 10
-0.5
 20
-1.5
 30
0.0
 40
0.5
 50
270.0
 51
0.0
  0
LINE
  5
1AA8E
  8
1HATCH
 10
-1.5
 20
-2.0
 30
0.0
 11
-0.5
 21
-2.0
 31
0.0
  0
ENDBLK
  5
1AA90
  8
0
  0
BLOCK
  8
0
  2
*U108
 70
     1
 10
0.0
 20
0.0
 30
0.0
  3
*U108
  1

  0
LINE
  5
1AA92
  8
0
 10
-14.649999999999981
 20
2.0
 30
0.0
 11
-0.0000000000000284
 21
2.0
 31
0.0
  0
LINE
  5
1AA93
  8
0
 10
-14.649999999999981
 20
2.0
 30
0.0
 11
-15.0
 21
1.649999999999977
 31
0.0
  0
LINE
  5
1AA94
  8
0
 10
0.0
 20
3.4999999999999432
 30
0.0
 11
-0.0000000000000284
 21
2.0
 31
0.0
  0
LINE
  5
1AA95
  8
0
 10
-15.0
 20
1.649999999999977
 30
0.0
 11
-15.0
 21
-1.6499999999998629
 31
0.0
  0
LINE
  5
1AA96
  8
0
 10
0.0
 20
3.4999999999999432
 30
0.0
 11
0.5999999999999375
 21
3.4999999999999432
 31
0.0
  0
LINE
  5
1AA97
  8
0
 10
-15.0
 20
-1.6499999999998629
 30
0.0
 11
-14.649999999999981
 21
-2.0
 31
0.0
  0
ARC
  5
1AA98
  8
0
 10
0.5999999999999944
 20
1.4999999999999429
 30
0.0
 40
2.0
 50
0.0
 51
90.000000000001606
  0
LINE
  5
1AA99
  8
0
 10
-14.649999999999981
 20
-2.0
 30
0.0
 11
0.0000000000000568
 21
-2.0
 31
0.0
  0
LINE
  5
1AA9A
  8
0
 10
2.5999999999999939
 20
1.4999999999999429
 30
0.0
 11
2.5999999999999939
 21
-1.5
 31
0.0
  0
LINE
  5
1AA9B
  8
0
 10
0.0000000000000568
 20
-2.0
 30
0.0
 11
0.0
 21
-3.5
 31
0.0
  0
ARC
  5
1AA9C
  8
0
 10
0.5999999999999944
 20
-1.5
 30
0.0
 40
2.0
 50
270.0
 51
0.0
  0
LINE
  5
1AA9D
  8
0
 10
0.0
 20
-3.5
 30
0.0
 11
0.5999999999999944
 21
-3.5
 31
0.0
  0
ENDBLK
  5
1AA9F
  8
0
  0
BLOCK
  8
0
  2
*U109
 70
     1
 10
0.0
 20
0.0
 30
0.0
  3
*U109
  1

  0
LINE
  5
1AAA1
  8
0
 10
-7.6499860385006002
 20
2.0002042217355429
 30
0.0
 11
-2.2999767321809079
 21
1.9999956181865171
 31
0.0
  0
LINE
  5
1AAA2
  8
0
 10
-7.9999884816250519
 20
1.650206891258335
 30
0.0
 11
-7.6499860385006002
 21
2.0002042217355429
 31
0.0
  0
LINE
  5
1AAA3
  8
0
 10
-0.2999720786291249
 20
3.9999770038707529
 30
0.0
 11
-2.2999767321809079
 21
1.9999956181865171
 31
0.0
  0
LINE
  5
1AAA4
  8
0
 10
-7.9999884816250519
 20
1.650206891258335
 30
0.0
 11
-8.0000115168945172
 21
-1.6497931086720421
 31
0.0
  0
LINE
  5
1AAA5
  8
0
 10
-0.2999720786291249
 20
3.9999770038707529
 30
0.0
 11
0.0000279213587788
 21
3.999974211716903
 31
0.0
  0
LINE
  5
1AAA6
  8
0
 10
-8.0000115168945172
 20
-1.6497931086720421
 30
0.0
 11
-7.6500139600393311
 21
-1.999795778177258
 31
0.0
  0
LINE
  5
1AAA7
  8
0
 10
0.0000279213587788
 20
3.999974211716903
 30
0.0
 11
-0.0000279217187966
 21
-4.0000257881099506
 31
0.0
  0
LINE
  5
1AAA8
  8
0
 10
-7.6500139600393311
 20
-1.999795778177258
 30
0.0
 11
-2.3000325753451558
 21
-2.0000043814669648
 31
0.0
  0
LINE
  5
1AAA9
  8
0
 10
-0.3000279217065866
 20
-4.0000229959561011
 30
0.0
 11
-0.0000279217187966
 21
-4.0000257881099506
 31
0.0
  0
LINE
  5
1AAAA
  8
0
 10
-0.3000279217065866
 20
-4.0000229959561011
 30
0.0
 11
-2.3000325753451558
 21
-2.0000043814669648
 31
0.0
  0
ENDBLK
  5
1AAAC
  8
0
  0
BLOCK
  8
0
  2
*U110
 70
     1
 10
0.0
 20
0.0
 30
0.0
  3
*U110
  1

  0
LINE
  5
1AAAE
  8
0
 10
-14.749994182695669
 20
1.500059404776948
 30
0.0
 11
-1.6999825489606331
 21
1.5000217105915681
 31
0.0
  0
LINE
  5
1AAAF
  8
0
 10
-14.9999912742303
 20
1.25006231324221
 30
0.0
 11
-14.749994182695669
 21
1.500059404776948
 31
0.0
  0
LINE
  5
1AAB0
  8
0
 10
-0.1999790587966572
 20
3.000007749854376
 30
0.0
 11
-1.6999825489606331
 21
1.5000217105915681
 31
0.0
  0
LINE
  5
1AAB1
  8
0
 10
-14.9999912742303
 20
1.25006231324221
 30
0.0
 11
-15.00000872519206
 21
-1.2499376867226599
 31
0.0
  0
LINE
  5
1AAB2
  8
0
 10
-0.1999790587966572
 20
3.000007749854376
 30
0.0
 11
0.0000209411952028
 21
3.0000058884183991
 31
0.0
  0
LINE
  5
1AAB3
  8
0
 10
-15.00000872519206
 20
-1.2499376867226599
 30
0.0
 11
-14.75000581667007
 21
-1.4999405952445379
 31
0.0
  0
LINE
  5
1AAB4
  8
0
 10
0.0000209411952028
 20
3.0000058884183991
 30
0.0
 11
-0.0000209411130072
 21
-2.9999941114515418
 31
0.0
  0
LINE
  5
1AAB5
  8
0
 10
-14.75000581667007
 20
-1.4999405952445379
 30
0.0
 11
-1.7000244313339861
 21
-1.4999782891485429
 31
0.0
  0
LINE
  5
1AAB6
  8
0
 10
-0.2000209411048672
 20
-2.999992250015679
 30
0.0
 11
-0.0000209411130072
 21
-2.9999941114515418
 31
0.0
  0
LINE
  5
1AAB7
  8
0
 10
-0.2000209411048672
 20
-2.999992250015679
 30
0.0
 11
-1.7000244313339861
 21
-1.4999782891485429
 31
0.0
  0
ENDBLK
  5
1AAB9
  8
0
  0
BLOCK
  8
0
  2
*U111
 70
     1
 10
0.0
 20
0.0
 30
0.0
  3
*U111
  1

  0
LINE
  5
1AABB
  8
0
 10
-5.6499999999999773
 20
-2.0
 30
0.0
 11
-1.3000001740739999
 21
-2.0
 31
0.0
  0
LINE
  5
1AABC
  8
0
 10
-1.3000001740739999
 20
-2.0
 30
0.0
 11
-0.300000099999977
 21
-3.0
 31
0.0
  0
LINE
  5
1AABD
  8
0
 10
-6.0
 20
-1.6499999999998629
 30
0.0
 11
-5.6499999999999773
 21
-2.0
 31
0.0
  0
LINE
  5
1AABE
  8
0
 10
-0.300000099999977
 20
-3.0
 30
0.0
 11
0.0
 21
-3.0
 31
0.0
  0
LINE
  5
1AABF
  8
0
 10
-6.0
 20
1.649999999999977
 30
0.0
 11
-6.0
 21
-1.6499999999998629
 31
0.0
  0
LINE
  5
1AAC0
  8
0
 10
0.0
 20
3.0
 30
0.0
 11
0.0
 21
-3.0
 31
0.0
  0
LINE
  5
1AAC1
  8
0
 10
-5.6499999999999773
 20
2.0
 30
0.0
 11
-6.0
 21
1.649999999999977
 31
0.0
  0
LINE
  5
1AAC2
  8
0
 10
-0.3000000099999625
 20
3.0
 30
0.0
 11
0.0
 21
3.0
 31
0.0
  0
LINE
  5
1AAC3
  8
0
 10
-5.6499999999999773
 20
2.0
 30
0.0
 11
-1.3000001740739999
 21
2.0
 31
0.0
  0
LINE
  5
1AAC4
  8
0
 10
-1.3000001740739999
 20
2.0
 30
0.0
 11
-0.3000000099999625
 21
3.0
 31
0.0
  0
ENDBLK
  5
1AAC6
  8
0
  0
BLOCK
  8
0
  2
*U112
 70
     1
 10
0.0
 20
0.0
 30
0.0
  3
*U112
  1

  0
LINE
  5
1AAC8
  8
0
 10
-0.3000279217684181
 20
-4.0000318517813858
 30
0.0
 11
-2.3000325754069868
 21
-2.0000132372922499
 31
0.0
  0
LINE
  5
1AAC9
  8
0
 10
-0.3000279217684181
 20
-4.0000318517813858
 30
0.0
 11
-0.000027921780628
 21
-4.0000346439352361
 31
0.0
  0
LINE
  5
1AACA
  8
0
 10
-5.6500139601011758
 20
-1.999804634002543
 30
0.0
 11
-2.3000325754069868
 21
-2.0000132372922499
 31
0.0
  0
LINE
  5
1AACB
  8
0
 10
0.0000279212969474
 20
3.9999653558916171
 30
0.0
 11
-0.000027921780628
 21
-4.0000346439352361
 31
0.0
  0
LINE
  5
1AACC
  8
0
 10
-6.0000115169563344
 20
-1.6498019644973281
 30
0.0
 11
-5.6500139601011758
 21
-1.999804634002543
 31
0.0
  0
LINE
  5
1AACD
  8
0
 10
-0.2999720786909563
 20
3.9999681480454679
 30
0.0
 11
0.0000279212969474
 21
3.9999653558916171
 31
0.0
  0
LINE
  5
1AACE
  8
0
 10
-5.99998848168687
 20
1.650198035433049
 30
0.0
 11
-6.0000115169563344
 21
-1.6498019644973281
 31
0.0
  0
LINE
  5
1AACF
  8
0
 10
-0.2999720786909563
 20
3.9999681480454679
 30
0.0
 11
-2.299976732242754
 21
1.9999867623612311
 31
0.0
  0
LINE
  5
1AAD0
  8
0
 10
-5.99998848168687
 20
1.650198035433049
 30
0.0
 11
-5.649986038562445
 21
2.0001953659102578
 31
0.0
  0
LINE
  5
1AAD1
  8
0
 10
-5.649986038562445
 20
2.0001953659102578
 30
0.0
 11
-2.299976732242754
 21
1.9999867623612311
 31
0.0
  0
ENDBLK
  5
1AAD3
  8
0
  0
BLOCK
  8
0
  2
*U113
 70
     1
 10
0.0
 20
0.0
 30
0.0
  3
*U113
  1

  0
CIRCLE
  5
1AAD5
  8
0
 10
0.0
 20
0.0
 30
0.0
 40
4.0
  0
ENDBLK
  5
1AAD7
  8
0
  0
BLOCK
  8
0
  2
*U114
 70
     1
 10
0.0
 20
0.0
 30
0.0
  3
*U114
  1

  0
CIRCLE
  5
1AAD9
  8
0
 10
0.0
 20
0.0
 30
0.0
 40
3.0
  0
ENDBLK
  5
1AADB
  8
0
  0
BLOCK
  8
0
  2
*U115
 70
     1
 10
0.0
 20
0.0
 30
0.0
  3
*U115
  1

  0
LINE
  5
1AADD
  8
0
 10
0.0000279214028041
 20
3.999980519329938
 30
0.0
 11
-0.0000279216747714
 21
-4.000019480496916
 31
0.0
  0
LINE
  5
1AADE
  8
0
 10
-0.2999720785850997
 20
3.9999833114837879
 30
0.0
 11
0.0000279214028041
 21
3.999980519329938
 31
0.0
  0
LINE
  5
1AADF
  8
0
 10
-0.3000279216625614
 20
-4.0000166883430657
 30
0.0
 11
-0.0000279216747714
 21
-4.000019480496916
 31
0.0
  0
LINE
  5
1AAE0
  8
0
 10
-0.2999720785850997
 20
3.9999833114837879
 30
0.0
 11
-2.2999767321368831
 21
2.0000019257995509
 31
0.0
  0
LINE
  5
1AAE1
  8
0
 10
-0.3000279216625614
 20
-4.0000166883430657
 30
0.0
 11
-2.300032575301131
 21
-1.99999807385393
 31
0.0
  0
LINE
  5
1AAE2
  8
0
 10
-9.6499860384565732
 20
2.0002105293485779
 30
0.0
 11
-2.2999767321368831
 21
2.0000019257995509
 31
0.0
  0
LINE
  5
1AAE3
  8
0
 10
-9.6500139599953059
 20
-1.999789470564223
 30
0.0
 11
-2.300032575301131
 21
-1.99999807385393
 31
0.0
  0
LINE
  5
1AAE4
  8
0
 10
-9.9999884815810276
 20
1.6502131988713691
 30
0.0
 11
-9.6499860384565732
 21
2.0002105293485779
 31
0.0
  0
LINE
  5
1AAE5
  8
0
 10
-10.00001151685049
 20
-1.649786801059008
 30
0.0
 11
-9.6500139599953059
 21
-1.999789470564223
 31
0.0
  0
LINE
  5
1AAE6
  8
0
 10
-9.9999884815810276
 20
1.6502131988713691
 30
0.0
 11
-10.00001151685049
 21
-1.649786801059008
 31
0.0
  0
ENDBLK
  5
1AAE8
  8
0
  0
BLOCK
  8
0
  2
*U116
 70
     1
 10
0.0
 20
0.0
 30
0.0
  3
*U116
  1

  0
LINE
  5
1AAEA
  8
0
 10
3.0
 20
2.7525227000002128
 30
0.0
 11
3.9999999999999432
 21
5.5000000000001128
 31
0.0
  0
LINE
  5
1AAEB
  8
0
 10
3.9999999999999432
 20
5.5000000000001128
 30
0.0
 11
-4.0
 21
5.5
 31
0.0
  0
LINE
  5
1AAEC
  8
0
 10
3.0
 20
-1.9999999999998861
 30
0.0
 11
3.0
 21
2.7525227000002128
 31
0.0
  0
LINE
  5
1AAED
  8
0
 10
-4.0
 20
5.5
 30
0.0
 11
-3.0
 21
2.752522699999985
 31
0.0
  0
LINE
  5
1AAEE
  8
0
 10
2.25
 20
-1.9999999999998861
 30
0.0
 11
3.0
 21
-1.9999999999998861
 31
0.0
  0
LINE
  5
1AAEF
  8
0
 10
-3.0
 20
2.752522699999985
 30
0.0
 11
-3.0
 21
-1.9999999999998861
 31
0.0
  0
LINE
  5
1AAF0
  8
0
 10
2.25
 20
-9.2990375137529782
 30
0.0
 11
2.25
 21
-1.9999999999998861
 31
0.0
  0
LINE
  5
1AAF1
  8
0
 10
-3.0
 20
-1.9999999999998861
 30
0.0
 11
-2.25
 21
-2.0
 31
0.0
  0
LINE
  5
1AAF2
  8
0
 10
5.8839740999999322
 20
-3.0048093999998851
 30
0.0
 11
2.25
 21
-9.2990375137529782
 31
0.0
  0
LINE
  5
1AAF3
  8
0
 10
-2.25
 20
-2.0
 30
0.0
 11
-2.2499999999999432
 21
-9.2990375137529782
 31
0.0
  0
LINE
  5
1AAF4
  8
0
 10
6.7499994999998867
 20
-3.0048093999998851
 30
0.0
 11
5.8839740999999322
 21
-3.0048093999998851
 31
0.0
  0
LINE
  5
1AAF5
  8
0
 10
-2.2499999999999432
 20
-9.2990375137529782
 30
0.0
 11
-5.8839741000000449
 21
-3.0048093999997709
 31
0.0
  0
LINE
  5
1AAF6
  8
0
 10
3.0
 20
-9.4999991339743701
 30
0.0
 11
6.7499994999998867
 21
-3.0048093999998851
 31
0.0
  0
LINE
  5
1AAF7
  8
0
 10
-5.8839741000000449
 20
-3.0048093999997709
 30
0.0
 11
-6.7499995000000581
 21
-3.0048093999998851
 31
0.0
  0
LINE
  5
1AAF8
  8
0
 10
3.0
 20
-22.99999930000002
 30
0.0
 11
3.0
 21
-9.4999991339743701
 31
0.0
  0
LINE
  5
1AAF9
  8
0
 10
-6.7499995000000581
 20
-3.0048093999998851
 30
0.0
 11
-3.0
 21
-9.4999991339744838
 31
0.0
  0
LINE
  5
1AAFA
  8
0
 10
1.4999989000000931
 20
-24.49999999999989
 30
0.0
 11
3.0
 21
-22.99999930000002
 31
0.0
  0
LINE
  5
1AAFB
  8
0
 10
-3.0
 20
-9.4999991339744838
 30
0.0
 11
-3.0
 21
-22.99999930000002
 31
0.0
  0
LINE
  5
1AAFC
  8
0
 10
-1.49999889999998
 20
-24.49999999999989
 30
0.0
 11
1.4999989000000931
 21
-24.49999999999989
 31
0.0
  0
LINE
  5
1AAFD
  8
0
 10
-3.0
 20
-22.99999930000002
 30
0.0
 11
-1.49999889999998
 21
-24.49999999999989
 31
0.0
  0
ENDBLK
  5
1AAFF
  8
0
  0
BLOCK
  8
0
  2
*U117
 70
     1
 10
0.0
 20
0.0
 30
0.0
  3
*U117
  1

  0
LINE
  5
1AB01
  8
0
 10
-34.650000000000027
 20
-2.0
 30
0.0
 11
-0.0000000000000568
 21
-1.9999999999999429
 31
0.0
  0
LINE
  5
1AB02
  8
0
 10
-0.0000000000000568
 20
-1.9999999999999429
 30
0.0
 11
0.0
 21
-4.750000000000056
 31
0.0
  0
LINE
  5
1AB03
  8
0
 10
-35.000000000000057
 20
-1.6499999999998629
 30
0.0
 11
-34.650000000000027
 21
-2.0
 31
0.0
  0
LINE
  5
1AB04
  8
0
 10
0.0
 20
-4.750000000000056
 30
0.0
 11
1.0
 21
-4.75
 31
0.0
  0
LINE
  5
1AB05
  8
0
 10
-35.000000000000057
 20
1.649999999999977
 30
0.0
 11
-35.000000000000057
 21
-1.6499999999998629
 31
0.0
  0
ARC
  5
1AB06
  8
0
 10
-5.7708333333335409
 20
-0.0000000000001137
 30
0.0
 40
8.2708333333334387
 50
324.94886325255573
 51
35.051136747446222
  0
LINE
  5
1AB07
  8
0
 10
-34.650000000000027
 20
2.0
 30
0.0
 11
-35.000000000000057
 21
1.649999999999977
 31
0.0
  0
LINE
  5
1AB08
  8
0
 10
-0.0000000000001137
 20
4.750000000000056
 30
0.0
 11
0.9999999999998294
 21
4.75
 31
0.0
  0
LINE
  5
1AB09
  8
0
 10
-34.650000000000027
 20
2.0
 30
0.0
 11
-0.0000000000000568
 21
2.0000000000001128
 31
0.0
  0
LINE
  5
1AB0A
  8
0
 10
-0.0000000000001137
 20
4.750000000000056
 30
0.0
 11
-0.0000000000000568
 21
2.0000000000001128
 31
0.0
  0
ENDBLK
  5
1AB0C
  8
0
  0
BLOCK
  8
0
  2
*U118
 70
     1
 10
0.0
 20
0.0
 30
0.0
  3
*U118
  1

  0
LINE
  5
1AB0E
  8
0
 10
-20.0
 20
-2.5
 30
0.0
 11
-19.5
 21
-3.0
 31
0.0
  0
LINE
  5
1AB0F
  8
0
 10
-19.5
 20
-3.0
 30
0.0
 11
0.0
 21
-3.0
 31
0.0
  0
LINE
  5
1AB10
  8
0
 10
-20.0
 20
-2.5
 30
0.0
 11
-20.0
 21
2.5
 31
0.0
  0
LINE
  5
1AB11
  8
0
 10
0.0
 20
-5.2500000000001128
 30
0.0
 11
0.0
 21
-3.0
 31
0.0
  0
LINE
  5
1AB12
  8
0
 10
-19.5
 20
3.0
 30
0.0
 11
-20.0
 21
2.5
 31
0.0
  0
LINE
  5
1AB13
  8
0
 10
0.0
 20
-5.2500000000001128
 30
0.0
 11
0.9000000000005456
 21
-5.25
 31
0.0
  0
LINE
  5
1AB14
  8
0
 10
-19.5
 20
3.0
 30
0.0
 11
0.0
 21
2.9999999999998859
 31
0.0
  0
ARC
  5
1AB15
  8
0
 10
0.9000000000003183
 20
-2.25
 30
0.0
 40
3.0
 50
270.00000000000432
 51
0.0
  0
LINE
  5
1AB16
  8
0
 10
0.0
 20
2.9999999999998859
 30
0.0
 11
0.0
 21
5.2499999999998863
 31
0.0
  0
LINE
  5
1AB17
  8
0
 10
3.9000000000003179
 20
-2.25
 30
0.0
 11
3.9000000000003179
 21
2.25
 31
0.0
  0
LINE
  5
1AB18
  8
0
 10
0.0
 20
5.2499999999998863
 30
0.0
 11
0.900000000000091
 21
5.25
 31
0.0
  0
ARC
  5
1AB19
  8
0
 10
0.9000000000003183
 20
2.25
 30
0.0
 40
3.0
 50
0.0
 51
90.000000000004349
  0
ENDBLK
  5
1AB1B
  8
0
  0
BLOCK
  8
0
  2
*U119
 70
     1
 10
0.0
 20
0.0
 30
0.0
  3
*U119
  1

  0
LINE
  5
1AB1D
  8
0
 10
-26.025125937694501
 20
-1.124965098076472
 30
0.0
 11
-2.100028793889805
 21
-1.124965098076472
 31
0.0
  0
LINE
  5
1AB1E
  8
0
 10
-0.2250069803853876
 20
-3.0
 30
0.0
 11
-2.100028793889805
 21
-1.124965098076472
 31
0.0
  0
LINE
  5
1AB1F
  8
0
 10
-30.000123320090101
 20
0.0000349019235273
 30
0.0
 11
-26.025125937694501
 21
-1.124965098076472
 31
0.0
  0
LINE
  5
1AB20
  8
0
 10
-0.2250069803853876
 20
-3.0
 30
0.0
 11
-0.0000069803846827
 21
-3.0
 31
0.0
  0
LINE
  5
1AB21
  8
0
 10
-30.000123320090101
 20
0.0000349019235273
 30
0.0
 11
-26.02512070240596
 21
1.1250349019235271
 31
0.0
  0
LINE
  5
1AB22
  8
0
 10
-0.0000069803846827
 20
-3.0
 30
0.0
 11
0.0000069803846827
 21
3.0
 31
0.0
  0
LINE
  5
1AB23
  8
0
 10
-26.02512070240596
 20
1.1250349019235271
 30
0.0
 11
-2.0999799311153988
 21
1.1250349019235271
 31
0.0
  0
LINE
  5
1AB24
  8
0
 10
-0.2249930196161358
 20
2.9999999999997722
 30
0.0
 11
0.0000069803846827
 21
3.0
 31
0.0
  0
LINE
  5
1AB25
  8
0
 10
-0.2249930196161358
 20
2.9999999999997722
 30
0.0
 11
-2.0999799311153988
 21
1.1250349019235271
 31
0.0
  0
ENDBLK
  5
1AB27
  8
0
  0
BLOCK
  8
0
  2
*U120
 70
     1
 10
0.0
 20
0.0
 30
0.0
  3
*U120
  1

  0
TEXT
  5
1AB2C
  8
1DIM
 62
   201
 10
3804.7071922276759
 20
-1552.7595912593249
 30
0.0
 40
7.0
  1
225 
  0
ENDBLK
  5
1AB2E
  8
0
  0
BLOCK
  8
0
  2
*U121
 70
     1
 10
0.0
 20
0.0
 30
0.0
  3
*U121
  1

  0
TEXT
  5
1AB30
  8
1DIM
 62
   201
 10
3980.3738588943429
 20
-1552.7595912593249
 30
0.0
 40
7.0
  1
125 
  0
ENDBLK
  5
1AB32
  8
0
  0
BLOCK
  8
0
  2
*U122
 70
     1
 10
0.0
 20
0.0
 30
0.0
  3
*U122
  1

  0
TEXT
  5
1AB34
  8
1DIM
 62
   201
 10
3866.9571922276759
 20
-1532.7595912593249
 30
0.0
 40
7.0
  1
349 
  0
ENDBLK
  5
1AB36
  8
0
  0
BLOCK
  8
0
  2
*U123
 70
     1
 10
0.0
 20
0.0
 30
0.0
  3
*U123
  1

  0
TEXT
  5
1AB38
  8
1DIM
 62
   201
 10
4069.3905255610148
 20
-1715.792924592658
 30
0.0
 40
7.0
  1
225 
 50
90.0
  0
ENDBLK
  5
1AB3A
  8
0
  0
BLOCK
  8
0
  2
*U124
 70
     1
 10
0.0
 20
0.0
 30
0.0
  3
*U124
  1

  0
TEXT
  5
1AB3C
  8
1DIM
 62
   201
 10
4148.8871888406729
 20
-1572.8095912593251
 30
0.0
 40
7.0
  1
21 
  0
ENDBLK
  5
1AB3E
  8
0
  0
BLOCK
  8
0
  2
*U125
 70
     1
 10
0.0
 20
0.0
 30
0.0
  3
*U125
  1

  0
TEXT
  5
1AB40
  8
1DIM
 62
   201
 10
4148.8871888406729
 20
-1837.359591259325
 30
0.0
 40
7.0
  1
21 
  0
ENDBLK
  5
1AB42
  8
0
  0
BLOCK
  8
0
  2
*U126
 70
     1
 10
0.0
 20
0.0
 30
0.0
  3
*U126
  1

  0
TEXT
  5
1AB44
  8
1DIM
 62
   201
 10
4163.6942209373756
 20
-2111.962693432728
 30
0.0
 40
10.5
  1
P200 
 50
90.0
  0
ENDBLK
  5
1AB46
  8
0
  0
BLOCK
  8
0
  2
*U127
 70
     1
 10
0.0
 20
0.0
 30
0.0
  3
*U127
  1

  0
TEXT
  5
1AB48
  8
1DIM
 62
   201
 10
3714.6942209373742
 20
-2112.9626934327271
 30
0.0
 40
10.5
  1
P191.5 
 50
90.0
  0
ENDBLK
  5
1AB4A
  8
0
  0
BLOCK
  8
0
  2
*U128
 70
     1
 10
0.0
 20
0.0
 30
0.0
  3
*U128
  1

  0
TEXT
  5
1AB4C
  8
1DIM
 62
   201
 10
4138.6942209373756
 20
-2138.1626934327269
 30
0.0
 40
10.5
  1
逃げ穴寸法148 
 50
90.0
  0
ENDBLK
  5
1AB4E
  8
0
  0
BLOCK
  8
0
  2
*U129
 70
     1
 10
0.0
 20
0.0
 30
0.0
  3
*U129
  1

  0
TEXT
  5
1AB50
  8
1DIM
 62
   201
 10
3930.3192209373742
 20
-1955.0626934327281
 30
0.0
 40
10.5
  1
逃げ穴寸法70 
  0
ENDBLK
  5
1AB52
  8
0
  0
BLOCK
  8
0
  2
*U130
 70
     1
 10
0.0
 20
0.0
 30
0.0
  3
*U130
  1

  0
TEXT
  5
1AB54
  8
1DIM
 62
   201
 10
3996.1679457612108
 20
-2187.4183606277711
 30
0.0
 40
10.5
  1
R5 
 50
44.553224571375118
  0
ENDBLK
  5
1AB56
  8
0
  0
BLOCK
  8
0
  2
*U131
 70
     1
 10
0.0
 20
0.0
 30
0.0
  3
*U131
  1

  0
TEXT
  5
1AB58
  8
1DIM
 62
   201
 10
4069.3905255610148
 20
-1451.457735192093
 30
0.0
 40
7.0
  1
34 
 50
90.0
  0
ENDBLK
  5
1AB5A
  8
0
  0
BLOCK
  8
0
  2
*U132
 70
     1
 10
0.0
 20
0.0
 30
0.0
  3
*U132
  1

  0
TEXT
  5
1AB5C
  8
1DIM
 62
   201
 10
4089.3905255610148
 20
-1460.457735192093
 30
0.0
 40
7.0
  1
52 
 50
90.0
  0
ENDBLK
  5
1AB5E
  8
0
  0
BLOCK
  8
0
  2
*U133
 70
     1
 10
0.0
 20
0.0
 30
0.0
  3
*U133
  1

  0
TEXT
  5
1AB60
  8
1DIM
 62
   201
 10
4163.6942209373756
 20
-2235.6126934327272
 30
0.0
 40
10.5
  1
12 
 50
90.0
  0
ENDBLK
  5
1AB62
  8
0
  0
BLOCK
  8
0
  2
*U134
 70
     1
 10
0.0
 20
0.0
 30
0.0
  3
*U134
  1

  0
TEXT
  5
1AB64
  8
1DIM
 62
   201
 10
3714.6942209373742
 20
-2203.3626934327272
 30
0.0
 40
10.5
  1
21 
 50
90.0
  0
ENDBLK
  5
1AB66
  8
0
  0
BLOCK
  8
0
  2
*U135
 70
     1
 10
0.0
 20
0.0
 30
0.0
  3
*U135
  1

  0
TEXT
  5
1AB68
  8
1DIM
 62
   201
 10
3914.2942209373741
 20
-2229.6626934327278
 30
0.0
 40
10.5
  1
P300 
  0
ENDBLK
  5
1AB6A
  8
0
  0
BLOCK
  8
0
  2
*U136
 70
     1
 10
0.0
 20
0.0
 30
0.0
  3
*U136
  1

  0
TEXT
  5
1AB6C
  8
1DIM
 62
   201
 10
4090.0442209373741
 20
-2229.6626934327278
 30
0.0
 40
10.5
  1
34 
  0
ENDBLK
  5
1AB6E
  8
0
  0
BLOCK
  8
0
  2
*U137
 70
     1
 10
0.0
 20
0.0
 30
0.0
  3
*U137
  1

  0
TEXT
  5
1AB70
  8
1DIM
 62
   201
 10
4075.919220937375
 20
-1936.279071252678
 30
0.0
 40
10.5
  1
62 
  0
ENDBLK
  5
1AB72
  8
0
  0
BLOCK
  8
0
  2
*U138
 70
     1
 10
0.0
 20
0.0
 30
0.0
  3
*U138
  1

  0
TEXT
  5
1AB74
  8
1DIM
 62
   201
 10
3739.6942209373742
 20
-2161.1126934327281
 30
0.0
 40
10.5
  1
112 
 50
90.0
  0
ENDBLK
  5
1AB76
  8
0
  0
ENDSEC
  0
SECTION
  2
ENTITIES
  0
LINE
  5
17A0D
  8
01
 10
4163.4038555073448
 20
-1594.159591259325
 30
0.0
 11
4163.4038555073448
 21
-1602.159591259325
 31
0.0
  0
LINE
  5
17A0F
  8
01
 10
4163.4038555073448
 20
-1610.7595912593249
 30
0.0
 11
4163.403855507343
 21
-1802.159591259325
 31
0.0
  0
LINE
  5
17A11
  8
01
 10
4163.4038555073448
 20
-1810.7595912593249
 30
0.0
 11
4163.4038555073412
 21
-1818.7595912593249
 31
0.0
  0
LINE
  5
17A12
  8
01
 10
4164.2038555073414
 20
-1802.159591259325
 30
0.0
 11
4164.2038555073414
 21
-1810.7595912593249
 31
0.0
  0
LINE
  5
17A13
  8
01
 10
4160.4038555073448
 20
-1802.159591259325
 30
0.0
 11
4160.4038555073448
 21
-1803.334591259325
 31
0.0
  0
LINE
  5
17A14
  8
01
 10
4160.4038555073412
 20
-1809.584591259325
 30
0.0
 11
4160.4038555073412
 21
-1810.7595912593249
 31
0.0
  0
LINE
  5
17A15
  8
01
 10
4161.4038555073439
 20
-1803.334591259325
 30
0.0
 11
4161.4038555073366
 21
-1809.584591259325
 31
0.0
  0
LINE
  5
17A16
  8
01
 10
4155.4038555073366
 20
-1811.2595912593249
 30
0.0
 11
4155.4038555073412
 21
-1818.2595912593249
 31
0.0
  0
LINE
  5
17A17
  8
01
 10
4155.9038555073384
 20
-1810.7595912593249
 30
0.0
 11
4155.4038555073366
 21
-1811.2595912593249
 31
0.0
  0
LINE
  5
17A18
  8
01
 10
4163.4038555073412
 20
-1818.7595912593249
 30
0.0
 11
4155.9038555073412
 21
-1818.7595912593249
 31
0.0
  0
LINE
  5
17A19
  8
01
 10
4155.4038555073412
 20
-1818.2595912593249
 30
0.0
 11
4155.9038555073412
 21
-1818.7595912593249
 31
0.0
  0
LINE
  5
17A1A
  8
01
 10
4160.4038555073412
 20
-1810.7595912593249
 30
0.0
 11
4155.9038555073384
 21
-1810.7595912593249
 31
0.0
  0
LINE
  5
17A1B
  8
01
 10
4160.4038555073448
 20
-1802.159591259325
 30
0.0
 11
4155.9038555073384
 21
-1802.159591259325
 31
0.0
  0
LINE
  5
17A1C
  8
01
 10
4155.4038555073366
 20
-1801.659591259325
 30
0.0
 11
4155.9038555073384
 21
-1802.159591259325
 31
0.0
  0
LINE
  5
17A1D
  8
01
 10
4160.4038555073494
 20
-1782.159591259325
 30
0.0
 11
4160.4038555073412
 21
-1793.7595912593249
 31
0.0
  0
LINE
  5
17A1F
  8
01
 10
4155.4038555073412
 20
-1794.2595912593249
 30
0.0
 11
4155.4038555073366
 21
-1801.659591259325
 31
0.0
  0
LINE
  5
17A20
  8
01
 10
4155.9038555073412
 20
-1793.7595912593249
 30
0.0
 11
4155.4038555073412
 21
-1794.2595912593249
 31
0.0
  0
LINE
  5
17A21
  8
01
 10
4160.4038555073412
 20
-1793.7595912593249
 30
0.0
 11
4155.9038555073412
 21
-1793.7595912593249
 31
0.0
  0
LINE
  5
17A22
  8
01
 10
4158.4038555073439
 20
-1785.159591259325
 30
0.0
 11
4155.9038555073384
 21
-1785.159591259325
 31
0.0
  0
LINE
  5
17A23
  8
01
 10
4155.4038555073366
 20
-1784.659591259325
 30
0.0
 11
4155.9038555073384
 21
-1785.159591259325
 31
0.0
  0
LINE
  5
17A24
  8
01
 10
4160.4038555073494
 20
-1782.159591259325
 30
0.0
 11
4159.2077030846367
 21
-1782.159591259325
 31
0.0
  0
LINE
  5
17A25
  8
01
 10
4160.4038555073448
 20
-1768.5595912593251
 30
0.0
 11
4160.4038555073412
 21
-1777.159591259325
 31
0.0
  0
LINE
  5
17A26
  8
01
 10
4155.4038555073439
 20
-1777.659591259325
 30
0.0
 11
4155.4038555073366
 21
-1784.659591259325
 31
0.0
  0
LINE
  5
17A27
  8
01
 10
4155.9038555073448
 20
-1777.159591259325
 30
0.0
 11
4155.4038555073439
 21
-1777.659591259325
 31
0.0
  0
LINE
  5
17A28
  8
01
 10
4160.4038555073412
 20
-1777.159591259325
 30
0.0
 11
4155.9038555073448
 21
-1777.159591259325
 31
0.0
  0
LINE
  5
17A29
  8
01
 10
4160.4038555073448
 20
-1768.5595912593251
 30
0.0
 11
4155.9038555073384
 21
-1768.5595912593251
 31
0.0
  0
LINE
  5
17A2A
  8
01
 10
4155.4038555073366
 20
-1768.0595912593251
 30
0.0
 11
4155.9038555073384
 21
-1768.5595912593251
 31
0.0
  0
LINE
  5
17A2B
  8
01
 10
4160.4038555073448
 20
-1751.959591259325
 30
0.0
 11
4160.4038555073412
 21
-1760.5595912593251
 31
0.0
  0
LINE
  5
17A2C
  8
01
 10
4155.4038555073412
 20
-1761.0595912593251
 30
0.0
 11
4155.4038555073366
 21
-1768.0595912593251
 31
0.0
  0
LINE
  5
17A2D
  8
01
 10
4155.9038555073412
 20
-1760.5595912593251
 30
0.0
 11
4155.4038555073412
 21
-1761.0595912593251
 31
0.0
  0
LINE
  5
17A2E
  8
01
 10
4160.4038555073412
 20
-1760.5595912593251
 30
0.0
 11
4155.9038555073412
 21
-1760.5595912593251
 31
0.0
  0
LINE
  5
17A2F
  8
01
 10
4160.4038555073448
 20
-1751.959591259325
 30
0.0
 11
4155.9038555073384
 21
-1751.959591259325
 31
0.0
  0
LINE
  5
17A30
  8
01
 10
4155.4038555073366
 20
-1751.459591259325
 30
0.0
 11
4155.9038555073384
 21
-1751.959591259325
 31
0.0
  0
LINE
  5
17A31
  8
01
 10
4160.4038555073448
 20
-1735.359591259325
 30
0.0
 11
4160.4038555073412
 21
-1743.959591259325
 31
0.0
  0
LINE
  5
17A32
  8
01
 10
4155.4038555073412
 20
-1744.459591259325
 30
0.0
 11
4155.4038555073366
 21
-1751.459591259325
 31
0.0
  0
LINE
  5
17A33
  8
01
 10
4155.9038555073412
 20
-1743.959591259325
 30
0.0
 11
4155.4038555073412
 21
-1744.459591259325
 31
0.0
  0
LINE
  5
17A34
  8
01
 10
4160.4038555073412
 20
-1743.959591259325
 30
0.0
 11
4155.9038555073412
 21
-1743.959591259325
 31
0.0
  0
LINE
  5
17A35
  8
01
 10
4160.4038555073448
 20
-1735.359591259325
 30
0.0
 11
4155.9038555073384
 21
-1735.359591259325
 31
0.0
  0
LINE
  5
17A36
  8
01
 10
4155.4038555073366
 20
-1734.859591259325
 30
0.0
 11
4155.9038555073384
 21
-1735.359591259325
 31
0.0
  0
LINE
  5
17A37
  8
01
 10
4160.4038555073448
 20
-1718.7595912593249
 30
0.0
 11
4160.4038555073412
 21
-1727.359591259325
 31
0.0
  0
LINE
  5
17A38
  8
01
 10
4155.4038555073412
 20
-1727.859591259325
 30
0.0
 11
4155.4038555073366
 21
-1734.859591259325
 31
0.0
  0
LINE
  5
17A39
  8
01
 10
4155.9038555073412
 20
-1727.359591259325
 30
0.0
 11
4155.4038555073412
 21
-1727.859591259325
 31
0.0
  0
LINE
  5
17A3A
  8
01
 10
4160.4038555073412
 20
-1727.359591259325
 30
0.0
 11
4155.9038555073412
 21
-1727.359591259325
 31
0.0
  0
LINE
  5
17A3B
  8
01
 10
4160.4038555073448
 20
-1718.7595912593249
 30
0.0
 11
4155.9038555073384
 21
-1718.7595912593249
 31
0.0
  0
LINE
  5
17A3C
  8
01
 10
4155.4038555073366
 20
-1718.2595912593249
 30
0.0
 11
4155.9038555073384
 21
-1718.7595912593249
 31
0.0
  0
LINE
  5
17A3D
  8
01
 10
4160.4038555073448
 20
-1702.159591259325
 30
0.0
 11
4160.4038555073412
 21
-1710.7595912593249
 31
0.0
  0
LINE
  5
17A3E
  8
01
 10
4155.4038555073439
 20
-1711.2595912593249
 30
0.0
 11
4155.4038555073366
 21
-1718.2595912593249
 31
0.0
  0
LINE
  5
17A3F
  8
01
 10
4155.9038555073448
 20
-1710.7595912593249
 30
0.0
 11
4155.4038555073439
 21
-1711.2595912593249
 31
0.0
  0
LINE
  5
17A40
  8
01
 10
4160.4038555073412
 20
-1710.7595912593249
 30
0.0
 11
4155.9038555073448
 21
-1710.7595912593249
 31
0.0
  0
LINE
  5
17A41
  8
01
 10
4160.4038555073448
 20
-1702.159591259325
 30
0.0
 11
4155.9038555073384
 21
-1702.159591259325
 31
0.0
  0
LINE
  5
17A42
  8
01
 10
4155.4038555073366
 20
-1701.659591259325
 30
0.0
 11
4155.9038555073384
 21
-1702.159591259325
 31
0.0
  0
LINE
  5
17A43
  8
01
 10
4160.4038555073448
 20
-1685.5595912593251
 30
0.0
 11
4160.4038555073412
 21
-1694.159591259325
 31
0.0
  0
LINE
  5
17A44
  8
01
 10
4155.4038555073412
 20
-1694.659591259325
 30
0.0
 11
4155.4038555073366
 21
-1701.659591259325
 31
0.0
  0
LINE
  5
17A45
  8
01
 10
4155.9038555073412
 20
-1694.159591259325
 30
0.0
 11
4155.4038555073412
 21
-1694.659591259325
 31
0.0
  0
LINE
  5
17A46
  8
01
 10
4160.4038555073412
 20
-1694.159591259325
 30
0.0
 11
4155.9038555073412
 21
-1694.159591259325
 31
0.0
  0
LINE
  5
17A47
  8
01
 10
4160.4038555073448
 20
-1685.5595912593251
 30
0.0
 11
4155.9038555073384
 21
-1685.5595912593251
 31
0.0
  0
LINE
  5
17A48
  8
01
 10
4155.4038555073366
 20
-1685.0595912593251
 30
0.0
 11
4155.9038555073384
 21
-1685.5595912593251
 31
0.0
  0
LINE
  5
17A49
  8
01
 10
4160.4038555073448
 20
-1668.959591259325
 30
0.0
 11
4160.4038555073412
 21
-1677.5595912593251
 31
0.0
  0
LINE
  5
17A4A
  8
01
 10
4155.4038555073412
 20
-1678.0595912593251
 30
0.0
 11
4155.4038555073366
 21
-1685.0595912593251
 31
0.0
  0
LINE
  5
17A4B
  8
01
 10
4155.9038555073412
 20
-1677.5595912593251
 30
0.0
 11
4155.4038555073412
 21
-1678.0595912593251
 31
0.0
  0
LINE
  5
17A4C
  8
01
 10
4160.4038555073412
 20
-1677.5595912593251
 30
0.0
 11
4155.9038555073412
 21
-1677.5595912593251
 31
0.0
  0
LINE
  5
17A4D
  8
01
 10
4160.4038555073448
 20
-1668.959591259325
 30
0.0
 11
4155.9038555073384
 21
-1668.959591259325
 31
0.0
  0
LINE
  5
17A4E
  8
01
 10
4155.4038555073366
 20
-1668.459591259325
 30
0.0
 11
4155.9038555073384
 21
-1668.959591259325
 31
0.0
  0
LINE
  5
17A4F
  8
01
 10
4160.4038555073448
 20
-1652.359591259325
 30
0.0
 11
4160.4038555073412
 21
-1660.959591259325
 31
0.0
  0
LINE
  5
17A50
  8
01
 10
4155.4038555073412
 20
-1661.459591259325
 30
0.0
 11
4155.4038555073366
 21
-1668.459591259325
 31
0.0
  0
LINE
  5
17A51
  8
01
 10
4155.9038555073412
 20
-1660.959591259325
 30
0.0
 11
4155.4038555073412
 21
-1661.459591259325
 31
0.0
  0
LINE
  5
17A52
  8
01
 10
4160.4038555073412
 20
-1660.959591259325
 30
0.0
 11
4155.9038555073412
 21
-1660.959591259325
 31
0.0
  0
LINE
  5
17A53
  8
01
 10
4160.4038555073448
 20
-1652.359591259325
 30
0.0
 11
4155.9038555073384
 21
-1652.359591259325
 31
0.0
  0
LINE
  5
17A54
  8
01
 10
4155.4038555073366
 20
-1651.859591259325
 30
0.0
 11
4155.9038555073384
 21
-1652.359591259325
 31
0.0
  0
LINE
  5
17A55
  8
01
 10
4160.4038555073448
 20
-1635.7595912593249
 30
0.0
 11
4160.4038555073412
 21
-1644.359591259325
 31
0.0
  0
LINE
  5
17A56
  8
01
 10
4155.4038555073366
 20
-1644.859591259325
 30
0.0
 11
4155.4038555073366
 21
-1651.859591259325
 31
0.0
  0
LINE
  5
17A57
  8
01
 10
4155.9038555073384
 20
-1644.359591259325
 30
0.0
 11
4155.4038555073366
 21
-1644.859591259325
 31
0.0
  0
LINE
  5
17A58
  8
01
 10
4160.4038555073412
 20
-1644.359591259325
 30
0.0
 11
4155.9038555073384
 21
-1644.359591259325
 31
0.0
  0
LINE
  5
17A59
  8
01
 10
4160.4038555073448
 20
-1635.7595912593249
 30
0.0
 11
4155.9038555073384
 21
-1635.7595912593249
 31
0.0
  0
LINE
  5
17A5A
  8
01
 10
4155.4038555073366
 20
-1635.2595912593249
 30
0.0
 11
4155.9038555073384
 21
-1635.7595912593249
 31
0.0
  0
LINE
  5
17A5C
  8
01
 10
4160.4038555073485
 20
-1619.159591259325
 30
0.0
 11
4160.4038555073412
 21
-1630.7595912593249
 31
0.0
  0
LINE
  5
17A5D
  8
01
 10
4155.4038555073412
 20
-1628.2595912593249
 30
0.0
 11
4155.4038555073366
 21
-1635.2595912593249
 31
0.0
  0
LINE
  5
17A5E
  8
01
 10
4155.9038555073412
 20
-1627.7595912593249
 30
0.0
 11
4155.4038555073412
 21
-1628.2595912593249
 31
0.0
  0
LINE
  5
17A5F
  8
01
 10
4158.4038555073485
 20
-1627.7595912593249
 30
0.0
 11
4155.9038555073412
 21
-1627.7595912593249
 31
0.0
  0
LINE
  5
17A60
  8
01
 10
4160.4038555073448
 20
-1619.159591259325
 30
0.0
 11
4155.9038555073339
 21
-1619.159591259325
 31
0.0
  0
LINE
  5
17A61
  8
01
 10
4155.4038555073339
 20
-1618.659591259325
 30
0.0
 11
4155.9038555073339
 21
-1619.159591259325
 31
0.0
  0
LINE
  5
17A62
  8
01
 10
4160.4038555073448
 20
-1602.159591259325
 30
0.0
 11
4160.4038555073448
 21
-1603.334591259325
 31
0.0
  0
LINE
  5
17A63
  8
01
 10
4160.4038555073412
 20
-1609.584591259325
 30
0.0
 11
4160.4038555073412
 21
-1610.7595912593249
 31
0.0
  0
LINE
  5
17A64
  8
01
 10
4155.4038555073439
 20
-1611.2595912593249
 30
0.0
 11
4155.4038555073339
 21
-1618.659591259325
 31
0.0
  0
LINE
  5
17A65
  8
01
 10
4155.9038555073448
 20
-1610.7595912593249
 30
0.0
 11
4155.4038555073439
 21
-1611.2595912593249
 31
0.0
  0
LINE
  5
17A66
  8
01
 10
4160.4038555073412
 20
-1610.7595912593249
 30
0.0
 11
4155.9038555073448
 21
-1610.7595912593249
 31
0.0
  0
LINE
  5
17A67
  8
01
 10
4160.4038555073448
 20
-1602.159591259325
 30
0.0
 11
4155.9038555073384
 21
-1602.159591259325
 31
0.0
  0
LINE
  5
17A68
  8
01
 10
4155.4038555073366
 20
-1601.659591259325
 30
0.0
 11
4155.9038555073384
 21
-1602.159591259325
 31
0.0
  0
LINE
  5
17A69
  8
01
 10
4155.4038555073412
 20
-1594.659591259325
 30
0.0
 11
4155.4038555073366
 21
-1601.659591259325
 31
0.0
  0
LINE
  5
17A6A
  8
01
 10
4155.9038555073412
 20
-1594.159591259325
 30
0.0
 11
4155.4038555073412
 21
-1594.659591259325
 31
0.0
  0
LINE
  5
17A6B
  8
01
 10
4163.4038555073412
 20
-1594.159591259325
 30
0.0
 11
4155.9038555073412
 21
-1594.159591259325
 31
0.0
  0
LINE
  5
17A6C
  8
01
 10
4050.2905255610108
 20
-1594.159591259325
 30
0.0
 11
3702.290525561009
 21
-1594.159591259325
 31
0.0
  0
LINE
  5
17A6D
  8
01
 10
3701.7905255610081
 20
-1594.659591259325
 30
0.0
 11
3702.290525561009
 21
-1594.159591259325
 31
0.0
  0
LINE
  5
17A6E
  8
01
 10
4050.7905255610108
 20
-1594.659591259325
 30
0.0
 11
4050.7905255610081
 21
-1818.2595912593249
 31
0.0
  0
LINE
  5
17A6F
  8
01
 10
3926.2905255610121
 20
-1594.159591259325
 30
0.0
 11
3926.2905255610081
 21
-1818.2595912593231
 31
0.0
  0
LINE
  5
17A70
  8
01
 10
4050.2905255610108
 20
-1594.159591259325
 30
0.0
 11
4050.7905255610108
 21
-1594.659591259325
 31
0.0
  0
LINE
  5
17A71
  8
01
 10
3701.7905255610081
 20
-1594.659591259325
 30
0.0
 11
3701.7905255610081
 21
-1818.2595912593249
 31
0.0
  0
LINE
  5
17A72
  8
01
 10
3702.290525561009
 20
-1818.7595912593249
 30
0.0
 11
3701.7905255610081
 21
-1818.2595912593249
 31
0.0
  0
LINE
  5
17A73
  8
01
 10
4050.2905255610081
 20
-1818.7595912593249
 30
0.0
 11
3702.290525561009
 21
-1818.7595912593249
 31
0.0
  0
LINE
  5
17A74
  8
01
 10
4050.7905255610081
 20
-1818.2595912593249
 30
0.0
 11
4050.2905255610081
 21
-1818.7595912593249
 31
0.0
  0
LINE
  5
17A75
  8
01
 10
3701.7905255610081
 20
-1810.7595912593249
 30
0.0
 11
3926.2905255610081
 21
-1810.7595912593249
 31
0.0
  0
LINE
  5
17A76
  8
01
 10
3768.2905255610121
 20
-1802.159591259325
 30
0.0
 11
3926.290525561004
 21
-1802.159591259325
 31
0.0
  0
LINE
  5
17A77
  8
01
 10
4161.4038555073366
 20
-1809.584591259325
 30
0.0
 11
4160.4038555073412
 21
-1809.584591259325
 31
0.0
  0
LINE
  5
17A78
  8
01
 10
4161.4038555073439
 20
-1803.334591259325
 30
0.0
 11
4160.4038555073448
 21
-1803.334591259325
 31
0.0
  0
LINE
  5
17A79
  8
01
 10
4163.4038555073412
 20
-1802.159591259325
 30
0.0
 11
4164.2038555073414
 21
-1802.159591259325
 31
0.0
  0
LINE
  5
17A7A
  8
01
 10
4163.4038555073448
 20
-1810.7595912593249
 30
0.0
 11
4164.2038555073414
 21
-1810.7595912593249
 31
0.0
  0
LINE
  5
17A7B
  8
01
 10
4164.2038555073414
 20
-1602.159591259325
 30
0.0
 11
4164.2038555073414
 21
-1610.7595912593249
 31
0.0
  0
LINE
  5
17A7C
  8
01
 10
4161.4038555073439
 20
-1603.334591259325
 30
0.0
 11
4161.4038555073366
 21
-1609.584591259325
 31
0.0
  0
LINE
  5
17A7D
  8
01
 10
4161.4038555073366
 20
-1609.584591259325
 30
0.0
 11
4160.4038555073412
 21
-1609.584591259325
 31
0.0
  0
LINE
  5
17A7E
  8
01
 10
4161.4038555073439
 20
-1603.334591259325
 30
0.0
 11
4160.4038555073448
 21
-1603.334591259325
 31
0.0
  0
LINE
  5
17A7F
  8
01
 10
4163.4038555073412
 20
-1602.159591259325
 30
0.0
 11
4164.2038555073414
 21
-1602.159591259325
 31
0.0
  0
LINE
  5
17A80
  8
01
 10
4163.4038555073448
 20
-1610.7595912593249
 30
0.0
 11
4164.2038555073414
 21
-1610.7595912593249
 31
0.0
  0
LINE
  5
17A81
  8
01
 10
3768.2905255610081
 20
-1793.7595912593249
 30
0.0
 11
3926.2905255610081
 21
-1793.7595912593249
 31
0.0
  0
LINE
  5
17A82
  8
01
 10
3768.2905255610049
 20
-1785.159591259325
 30
0.0
 11
3926.2905255610081
 21
-1785.159591259325
 31
0.0
  0
LINE
  5
17A83
  8
01
 10
3768.2905255610008
 20
-1777.159591259325
 30
0.0
 11
3926.2905255610081
 21
-1777.159591259325
 31
0.0
  0
LINE
  5
17A84
  8
01
 10
3768.290525560998
 20
-1768.5595912593251
 30
0.0
 11
3926.2905255610108
 21
-1768.5595912593251
 31
0.0
  0
LINE
  5
17A85
  8
01
 10
3768.290525560994
 20
-1760.5595912593251
 30
0.0
 11
3926.2905255610108
 21
-1760.5595912593251
 31
0.0
  0
LINE
  5
17A86
  8
01
 10
3768.290525560994
 20
-1751.959591259325
 30
0.0
 11
3926.2905255610081
 21
-1751.959591259325
 31
0.0
  0
LINE
  5
17A87
  8
01
 10
3701.7905255610149
 20
-1743.959591259325
 30
0.0
 11
3926.2905255610081
 21
-1743.959591259325
 31
0.0
  0
LINE
  5
17A88
  8
01
 10
3701.7905255610121
 20
-1735.359591259325
 30
0.0
 11
3926.2905255610081
 21
-1735.359591259325
 31
0.0
  0
LINE
  5
17A89
  8
01
 10
3701.7905255610149
 20
-1727.359591259325
 30
0.0
 11
3926.2905255610081
 21
-1727.359591259325
 31
0.0
  0
LINE
  5
17A8A
  8
01
 10
3701.7905255610121
 20
-1718.7595912593249
 30
0.0
 11
3926.2905255610081
 21
-1718.7595912593249
 31
0.0
  0
LINE
  5
17A8B
  8
01
 10
3701.7905255610121
 20
-1644.359591259325
 30
0.0
 11
3926.2905255610081
 21
-1644.359591259325
 31
0.0
  0
LINE
  5
17A8C
  8
01
 10
3701.7905255610149
 20
-1652.359591259325
 30
0.0
 11
3926.2905255610081
 21
-1652.359591259325
 31
0.0
  0
LINE
  5
17A8D
  8
01
 10
3701.7905255610121
 20
-1660.959591259325
 30
0.0
 11
3926.2905255610108
 21
-1660.959591259325
 31
0.0
  0
LINE
  5
17A8E
  8
01
 10
3701.7905255610149
 20
-1668.959591259325
 30
0.0
 11
3926.2905255610081
 21
-1668.959591259325
 31
0.0
  0
LINE
  5
17A8F
  8
01
 10
3701.7905255610121
 20
-1677.5595912593251
 30
0.0
 11
3926.2905255610081
 21
-1677.5595912593251
 31
0.0
  0
LINE
  5
17A90
  8
01
 10
3701.7905255610149
 20
-1685.5595912593251
 30
0.0
 11
3926.2905255610081
 21
-1685.5595912593251
 31
0.0
  0
LINE
  5
17A91
  8
01
 10
3701.7905255610121
 20
-1694.159591259325
 30
0.0
 11
3926.2905255610081
 21
-1694.159591259325
 31
0.0
  0
LINE
  5
17A92
  8
01
 10
3701.7905255610081
 20
-1702.159591259325
 30
0.0
 11
3926.2905255610081
 21
-1702.159591259325
 31
0.0
  0
LINE
  5
17A93
  8
01
 10
3701.7905255610121
 20
-1710.7595912593249
 30
0.0
 11
3926.2905255610081
 21
-1710.7595912593249
 31
0.0
  0
LINE
  5
17A94
  8
01
 10
3768.2905255610121
 20
-1803.334591259325
 30
0.0
 11
3926.290525561004
 21
-1803.334591259325
 31
0.0
  0
LINE
  5
17A95
  8
01
 10
3768.2905255610149
 20
-1809.584591259325
 30
0.0
 11
3926.2905255610081
 21
-1809.584591259325
 31
0.0
  0
LINE
  5
17A96
  8
01
 10
4158.4038555073439
 20
-1785.159591259325
 30
0.0
 11
4159.2077030846367
 21
-1782.159591259325
 31
0.0
  0
LINE
  5
17A97
  8
01
 10
4160.4038555073412
 20
-1630.7595912593249
 30
0.0
 11
4159.2077030846367
 21
-1630.7595912593249
 31
0.0
  0
LINE
  5
17A98
  8
01
 10
4158.4038555073485
 20
-1627.7595912593249
 30
0.0
 11
4159.2077030846367
 21
-1630.7595912593249
 31
0.0
  0
LINE
  5
17A9A
  8
01
 10
4131.4038555073448
 20
-1818.709591259325
 30
0.0
 11
4130.4038555073448
 21
-1817.709591259325
 31
0.0
  0
LINE
  5
17A9B
  8
01
 10
4138.4038555073403
 20
-1818.209591259325
 30
0.0
 11
4138.4038555073366
 21
-1814.209591259325
 31
0.0
  0
LINE
  5
17A9C
  8
01
 10
4137.9038555073412
 20
-1818.709591259325
 30
0.0
 11
4138.4038555073403
 21
-1818.209591259325
 31
0.0
  0
LINE
  5
17A9D
  8
01
 10
4155.4038555073412
 20
-1818.709591259325
 30
0.0
 11
4155.4038555073412
 21
-1810.709591259325
 31
0.0
  0
LINE
  5
17A9E
  8
01
 10
4147.4038555073412
 20
-1818.209591259325
 30
0.0
 11
4147.4038555073366
 21
-1814.209591259325
 31
0.0
  0
LINE
  5
17A9F
  8
01
 10
4146.9038555073366
 20
-1813.709591259325
 30
0.0
 11
4147.4038555073366
 21
-1814.209591259325
 31
0.0
  0
LINE
  5
17AA0
  8
01
 10
4131.4038555073448
 20
-1818.709591259325
 30
0.0
 11
4137.9038555073412
 21
-1818.709591259325
 31
0.0
  0
LINE
  5
17AA1
  8
01
 10
4147.9038555073412
 20
-1818.709591259325
 30
0.0
 11
4155.4038555073412
 21
-1818.709591259325
 31
0.0
  0
LINE
  5
17AA2
  8
01
 10
4147.4038555073412
 20
-1818.209591259325
 30
0.0
 11
4147.9038555073412
 21
-1818.709591259325
 31
0.0
  0
LINE
  5
17AA3
  8
01
 10
4138.9038555073366
 20
-1813.709591259325
 30
0.0
 11
4146.9038555073366
 21
-1813.709591259325
 31
0.0
  0
LINE
  5
17AA4
  8
01
 10
4138.4038555073366
 20
-1814.209591259325
 30
0.0
 11
4138.9038555073366
 21
-1813.709591259325
 31
0.0
  0
LINE
  5
17AA5
  8
01
 10
4133.9038555073448
 20
-1810.709591259325
 30
0.0
 11
4155.4038555073412
 21
-1810.709591259324
 31
0.0
  0
LINE
  5
17AA6
  8
01
 10
4133.4038555073448
 20
-1810.209591259325
 30
0.0
 11
4133.9038555073448
 21
-1810.709591259325
 31
0.0
  0
LINE
  5
17AA7
  8
01
 10
4130.4038555073412
 20
-1595.209591259324
 30
0.0
 11
4130.4038555073448
 21
-1817.709591259325
 31
0.0
  0
LINE
  5
17AA8
  8
01
 10
4138.4038555073403
 20
-1594.709591259325
 30
0.0
 11
4138.4038555073403
 21
-1598.709591259325
 31
0.0
  0
LINE
  5
17AA9
  8
01
 10
4138.9038555073412
 20
-1599.209591259325
 30
0.0
 11
4138.4038555073403
 21
-1598.709591259325
 31
0.0
  0
LINE
  5
17AAA
  8
01
 10
4133.4038555073448
 20
-1602.709591259325
 30
0.0
 11
4133.4038555073448
 21
-1810.209591259325
 31
0.0
  0
LINE
  5
17AAB
  8
01
 10
4133.9038555073448
 20
-1602.209591259325
 30
0.0
 11
4133.4038555073448
 21
-1602.709591259325
 31
0.0
  0
LINE
  5
17AAC
  8
01
 10
4155.4038555073412
 20
-1594.209591259325
 30
0.0
 11
4155.4038555073412
 21
-1602.209591259325
 31
0.0
  0
LINE
  5
17AAE
  8
01
 10
4147.4038555073412
 20
-1594.709591259325
 30
0.0
 11
4147.4038555073412
 21
-1598.709591259325
 31
0.0
  0
LINE
  5
17AAF
  8
01
 10
4147.9038555073412
 20
-1594.209591259325
 30
0.0
 11
4147.4038555073412
 21
-1594.709591259325
 31
0.0
  0
LINE
  5
17AB0
  8
01
 10
4131.4038555073412
 20
-1594.209591259325
 30
0.0
 11
4137.9038555073412
 21
-1594.209591259325
 31
0.0
  0
LINE
  5
17AB1
  8
01
 10
4130.4038555073412
 20
-1595.209591259325
 30
0.0
 11
4131.4038555073412
 21
-1594.209591259325
 31
0.0
  0
LINE
  5
17AB2
  8
01
 10
4138.4038555073403
 20
-1594.709591259325
 30
0.0
 11
4137.9038555073412
 21
-1594.209591259325
 31
0.0
  0
LINE
  5
17AB3
  8
01
 10
4147.9038555073412
 20
-1594.209591259325
 30
0.0
 11
4155.4038555073412
 21
-1594.209591259325
 31
0.0
  0
LINE
  5
17AB4
  8
01
 10
4133.9038555073448
 20
-1602.209591259325
 30
0.0
 11
4155.4038555073412
 21
-1602.209591259325
 31
0.0
  0
LINE
  5
17AB5
  8
01
 10
4138.9038555073412
 20
-1599.209591259325
 30
0.0
 11
4146.9038555073412
 21
-1599.209591259325
 31
0.0
  0
LINE
  5
17AB6
  8
01
 10
4147.4038555073412
 20
-1598.709591259325
 30
0.0
 11
4146.9038555073412
 21
-1599.209591259325
 31
0.0
  0
LINE
  5
17AC9
  8
01
 10
4155.4038555073412
 20
-1810.709591259324
 30
0.0
 11
4134.6538555073412
 21
-1810.709591259324
 31
0.0
  0
ARC
  5
17ACA
  8
01
 10
4134.6538555073412
 20
-1809.709591259325
 30
0.0
 40
1.0
 50
180.0
 51
270.0
  0
LINE
  5
17ACD
  8
01
 10
4155.4038555073412
 20
-1602.209591259324
 30
0.0
 11
4134.6538555073412
 21
-1602.209591259324
 31
0.0
  0
LINE
  5
17AD0
  8
01
 10
4155.4038555073412
 20
-1602.209591259324
 30
0.0
 11
4155.4038555073412
 21
-1810.709591259324
 31
0.0
  0
LINE
  5
17AD2
  8
01
 10
4133.6538555073412
 20
-1603.209591259324
 30
0.0
 11
4133.6538555073412
 21
-1809.709591259325
 31
0.0
  0
ARC
  5
17AD3
  8
01
 10
4134.6538555073412
 20
-1603.209591259324
 30
0.0
 40
1.0
 50
90.0
 51
180.0
  0
LINE
  5
17B8D
  8
01
 10
3702.2905255610121
 20
-1744.209591259325
 30
0.0
 11
3701.7905255610121
 21
-1744.709591259325
 31
0.0
  0
LINE
  5
17B8E
  8
01
 10
3767.7905255610158
 20
-1810.709591259325
 30
0.0
 11
3702.290525561009
 21
-1810.709591259325
 31
0.0
  0
LINE
  5
17B8F
  8
01
 10
3701.7905255610081
 20
-1810.209591259325
 30
0.0
 11
3702.290525561009
 21
-1810.709591259325
 31
0.0
  0
LINE
  5
17B90
  8
01
 10
3767.7905255610158
 20
-1744.209591259325
 30
0.0
 11
3702.2905255610121
 21
-1744.209591259325
 31
0.0
  0
LINE
  5
17B91
  8
01
 10
3768.2905255609862
 20
-1744.7095912592949
 30
0.0
 11
3768.2905255610149
 21
-1810.209591259325
 31
0.0
  0
LINE
  5
17B92
  8
01
 10
3767.7905255610158
 20
-1810.709591259325
 30
0.0
 11
3768.2905255610149
 21
-1810.209591259325
 31
0.0
  0
LINE
  5
17B93
  8
01
 10
3767.7905255610158
 20
-1744.209591259325
 30
0.0
 11
3768.2905255610149
 21
-1744.709591259325
 31
0.0
  0
LINE
  5
17BEE
  8
01
 10
3926.2905255610081
 20
-1594.659591259323
 30
0.0
 11
3926.7905255610081
 21
-1594.159591259323
 31
0.0
  0
LINE
  5
17BEF
  8
01
 10
3926.7905255610081
 20
-1818.7595912593231
 30
0.0
 11
3926.2905255610081
 21
-1818.2595912593231
 31
0.0
  0
LINE
  5
17C13
  8
01
 10
3701.7905255610081
 20
-1644.209591259325
 30
0.0
 11
3926.2905255610108
 21
-1644.209591259325
 31
0.0
  0
LINE
  5
17C14
  8
01
 10
4112.4038555073439
 20
-1745.209591259325
 30
0.0
 11
4112.4038555073403
 21
-1809.709591259325
 31
0.0
  0
LINE
  5
17C15
  8
01
 10
4113.4038555073448
 20
-1744.209591259325
 30
0.0
 11
4112.4038555073439
 21
-1745.209591259325
 31
0.0
  0
LINE
  5
17C16
  8
01
 10
4119.4038555073485
 20
-1745.2095912593261
 30
0.0
 11
4119.4038555073485
 21
-1801.209591259325
 31
0.0
  0
LINE
  5
17C17
  8
01
 10
4120.4038555073494
 20
-1802.209591259325
 30
0.0
 11
4119.4038555073485
 21
-1801.209591259325
 31
0.0
  0
LINE
  5
17C18
  8
01
 10
4112.4038555073403
 20
-1809.709591259325
 30
0.0
 11
4113.4038555073412
 21
-1810.709591259325
 31
0.0
  0
LINE
  5
17C19
  8
01
 10
4113.4038555073448
 20
-1744.209591259325
 30
0.0
 11
4118.4038555073485
 21
-1744.209591259325
 31
0.0
  0
LINE
  5
17C1A
  8
01
 10
4119.4038555073485
 20
-1745.2095912593261
 30
0.0
 11
4118.4038555073485
 21
-1744.209591259325
 31
0.0
  0
LINE
  5
17C1B
  8
01
 10
4120.4038555073494
 20
-1802.209591259325
 30
0.0
 11
4130.4038555073448
 21
-1802.209591259325
 31
0.0
  0
LINE
  5
17C1C
  8
01
 10
4113.4038555073412
 20
-1810.709591259325
 30
0.0
 11
4130.4038555073448
 21
-1810.709591259325
 31
0.0
  0
LINE
  5
17CAC
  8
01
 10
3701.7905255610081
 20
-1480.0244018587609
 30
0.0
 11
3701.7905255610081
 21
-1429.5244018587609
 31
0.0
  0
LINE
  5
17CAD
  8
01
 10
3702.290525561009
 20
-1480.5244018587609
 30
0.0
 11
3701.7905255610081
 21
-1480.0244018587609
 31
0.0
  0
LINE
  5
17CAE
  8
01
 10
3726.7905255610081
 20
-1429.5244018587609
 30
0.0
 11
3726.7905255610081
 21
-1428.724401858761
 31
0.0
  0
LINE
  5
17CAF
  8
01
 10
3701.7905255610081
 20
-1429.5244018587609
 30
0.0
 11
4050.7905255610149
 21
-1429.5244018587609
 31
0.0
  0
LINE
  5
17CB0
  8
01
 10
3726.7905255610081
 20
-1428.724401858761
 30
0.0
 11
4050.7905255610149
 21
-1428.724401858761
 31
0.0
  0
LINE
  5
17CB1
  8
01
 10
3702.290525561009
 20
-1437.5244018587609
 30
0.0
 11
4050.2905255610149
 21
-1437.5244018587609
 31
0.0
  0
LINE
  5
17CB2
  8
01
 10
3701.7905255610071
 20
-1445.5244018587609
 30
0.0
 11
4050.7905255610149
 21
-1445.5244018587609
 31
0.0
  0
LINE
  5
17CB5
  8
01
 10
3702.290525561009
 20
-1480.5244018587609
 30
0.0
 11
3767.790525561019
 21
-1480.5244018587609
 31
0.0
  0
LINE
  5
17CB6
  8
01
 10
3768.290525561019
 20
-1480.0244018587609
 30
0.0
 11
3767.790525561019
 21
-1480.5244018587609
 31
0.0
  0
LINE
  5
17CB8
  8
01
 10
3701.7905255610071
 20
-1462.5244018587609
 30
0.0
 11
3926.2905255610158
 21
-1462.5244018587609
 31
0.0
  0
LINE
  5
17CB9
  8
01
 10
3927.2905255610049
 20
-1462.5244018587609
 30
0.0
 11
4050.2905255610149
 21
-1462.5244018587609
 31
0.0
  0
LINE
  5
17CBA
  8
01
 10
3701.7905255610071
 20
-1454.5244018587609
 30
0.0
 11
4050.7905255610181
 21
-1454.5244018587609
 31
0.0
  0
LINE
  5
17CBB
  8
01
 10
3701.7905255610081
 20
-1437.0244018587609
 30
0.0
 11
3702.290525561009
 21
-1437.5244018587609
 31
0.0
  0
LINE
  5
17CBC
  8
01
 10
4050.7905255610149
 20
-1462.0244018587609
 30
0.0
 11
4050.7905255610149
 21
-1428.724401858761
 31
0.0
  0
LINE
  5
17CBD
  8
01
 10
4050.2905255610149
 20
-1437.5244018587609
 30
0.0
 11
4050.7905255610149
 21
-1437.0244018587609
 31
0.0
  0
LINE
  5
17CBE
  8
01
 10
4050.2905255610149
 20
-1462.5244018587609
 30
0.0
 11
4050.7905255610149
 21
-1462.0244018587609
 31
0.0
  0
LINE
  5
17CBF
  8
01
 10
3926.7905255610121
 20
-1462.02440185876
 30
0.0
 11
3926.7905255610121
 21
-1437.5244018587609
 31
0.0
  0
LINE
  5
17CC0
  8
01
 10
3926.7905255610121
 20
-1462.0244018587609
 30
0.0
 11
3927.2905255610121
 21
-1462.5244018587609
 31
0.0
  0
LINE
  5
17CC1
  8
01
 10
3926.2905255610108
 20
-1462.5244018587609
 30
0.0
 11
3926.7905255610121
 21
-1462.0244018587609
 31
0.0
  0
LINE
  5
17CC2
  8
01
 10
3700.9905255610051
 20
-1431.5244018587621
 30
0.0
 11
3700.9905255610088
 21
-1429.724401858761
 31
0.0
  0
ARC
  5
17CC3
  8
01
 10
3701.9905255610088
 20
-1429.724401858761
 30
0.0
 40
1.0
 50
90.000000000000028
 51
180.0
  0
LINE
  5
17CC4
  8
01
 10
3701.7905255610081
 20
-1431.724401858761
 30
0.0
 11
3701.7905255610081
 21
-1429.5244018587609
 31
0.0
  0
LINE
  5
17CC6
  8
01
 10
3701.9905255610088
 20
-1428.724401858761
 30
0.0
 11
3715.2905720969061
 21
-1428.724401858761
 31
0.0
  0
LINE
  5
17CC7
  8
01
 10
3701.7905255610081
 20
-1429.5244018587609
 30
0.0
 11
3721.7905255610081
 21
-1429.5244018587609
 31
0.0
  0
ARC
  5
17CC8
  8
01
 10
3701.9905255610061
 20
-1431.5244018587609
 30
0.0
 40
1.0
 50
180.00000000003911
 51
258.4630409673556
  0
LINE
  5
17CC9
  8
01
 10
3721.7905255610081
 20
-1429.5244018587609
 30
0.0
 11
3721.7905255610081
 21
-1428.724401858761
 31
0.0
  0
LINE
  5
17CCD
  8
01
 10
3768.290525561019
 20
-1480.0244018587609
 30
0.0
 11
3768.290525561019
 21
-1462.5244018587609
 31
0.0
  0
CIRCLE
  5
17CD7
  8
01
 10
3814.2905255610108
 20
-1450.0244018587609
 30
0.0
 40
3.5
  0
POINT
  5
17CD8
  8
01
 10
3814.2905255610108
 20
-1450.0244018587609
 30
0.0
  0
LINE
  5
17CD9
  8
01
 10
3813.8905255510108
 20
-1451.7744018587609
 30
0.0
 11
3813.8905255510108
 21
-1450.924401838761
 31
0.0
  0
LINE
  5
17CDA
  8
01
 10
3814.6905255710121
 20
-1451.7744018587609
 30
0.0
 11
3814.6905255710121
 21
-1450.924401838761
 31
0.0
  0
LINE
  5
17CDB
  8
01
 10
3813.3905255810118
 20
-1450.4244018687609
 30
0.0
 11
3812.5405255610108
 21
-1450.4244018687609
 31
0.0
  0
LINE
  5
17CDC
  8
01
 10
3813.3905255810118
 20
-1449.624401848761
 30
0.0
 11
3812.5405255610108
 21
-1449.624401848761
 31
0.0
  0
LINE
  5
17CDD
  8
01
 10
3812.5405255610108
 20
-1450.4244018687609
 30
0.0
 11
3812.5405255610108
 21
-1449.624401848761
 31
0.0
  0
LINE
  5
17CDE
  8
01
 10
3814.6905255710121
 20
-1451.7744018587609
 30
0.0
 11
3813.8905255510108
 21
-1451.7744018587609
 31
0.0
  0
LINE
  5
17CDF
  8
01
 10
3814.6905255710121
 20
-1448.2744018587609
 30
0.0
 11
3814.6905255710121
 21
-1449.1244018787611
 31
0.0
  0
LINE
  5
17CE0
  8
01
 10
3813.8905255510108
 20
-1448.2744018587609
 30
0.0
 11
3813.8905255510108
 21
-1449.1244018787611
 31
0.0
  0
LINE
  5
17CE1
  8
01
 10
3815.1905255410111
 20
-1449.624401848761
 30
0.0
 11
3816.0405255610121
 21
-1449.624401848761
 31
0.0
  0
LINE
  5
17CE2
  8
01
 10
3815.1905255410111
 20
-1450.4244018687609
 30
0.0
 11
3816.0405255610121
 21
-1450.4244018687609
 31
0.0
  0
LINE
  5
17CE3
  8
01
 10
3816.0405255610121
 20
-1449.624401848761
 30
0.0
 11
3816.0405255610121
 21
-1450.4244018687609
 31
0.0
  0
LINE
  5
17CE4
  8
01
 10
3813.8905255510108
 20
-1448.2744018587609
 30
0.0
 11
3814.6905255710121
 21
-1448.2744018587609
 31
0.0
  0
ARC
  5
17CE5
  8
01
 10
3815.1905255410111
 20
-1449.1244018787611
 30
0.0
 40
0.5
 50
179.999989999999
 51
270.0
  0
ARC
  5
17CE6
  8
01
 10
3815.1905255410111
 20
-1450.924401838761
 30
0.0
 40
0.5
 50
90.000003000010722
 51
180.00001000000091
  0
ARC
  5
17CE7
  8
01
 10
3813.3905255810118
 20
-1450.924401838761
 30
0.0
 40
0.5
 50
0.0
 51
90.000003000010722
  0
ARC
  5
17CE8
  8
01
 10
3813.3905255810118
 20
-1449.1244018787611
 30
0.0
 40
0.5
 50
270.0
 51
0.0
  0
LINE
  5
17CEA
  8
1CENTER
 10
3819.6534694767402
 20
-1450.0244018587609
 30
0.0
 11
3808.9275816452832
 21
-1450.0244018587609
 31
0.0
  0
LINE
  5
17CEB
  8
1CENTER
 10
3814.2905255610108
 20
-1444.661457943032
 30
0.0
 11
3814.2905255610108
 21
-1455.3873457744889
 31
0.0
  0
CIRCLE
  5
17CEC
  8
01
 10
3988.7905255610158
 20
-1450.0244018587609
 30
0.0
 40
3.5
  0
POINT
  5
17CED
  8
01
 10
3988.7905255610158
 20
-1450.0244018587609
 30
0.0
  0
LINE
  5
17CEE
  8
01
 10
3988.3905255510158
 20
-1451.7744018587609
 30
0.0
 11
3988.3905255510158
 21
-1450.924401838761
 31
0.0
  0
LINE
  5
17CEF
  8
01
 10
3989.1905255710162
 20
-1451.7744018587609
 30
0.0
 11
3989.1905255710162
 21
-1450.924401838761
 31
0.0
  0
LINE
  5
17CF0
  8
01
 10
3987.890525581015
 20
-1450.4244018687609
 30
0.0
 11
3987.0405255610149
 21
-1450.4244018687609
 31
0.0
  0
LINE
  5
17CF1
  8
01
 10
3987.890525581015
 20
-1449.624401848761
 30
0.0
 11
3987.0405255610149
 21
-1449.624401848761
 31
0.0
  0
LINE
  5
17CF2
  8
01
 10
3987.0405255610149
 20
-1450.4244018687609
 30
0.0
 11
3987.0405255610149
 21
-1449.624401848761
 31
0.0
  0
LINE
  5
17CF3
  8
01
 10
3989.1905255710162
 20
-1451.7744018587609
 30
0.0
 11
3988.3905255510158
 21
-1451.7744018587609
 31
0.0
  0
LINE
  5
17CF4
  8
01
 10
3989.1905255710162
 20
-1448.2744018587609
 30
0.0
 11
3989.1905255710162
 21
-1449.1244018787611
 31
0.0
  0
LINE
  5
17CF5
  8
01
 10
3988.3905255510158
 20
-1448.2744018587609
 30
0.0
 11
3988.3905255510158
 21
-1449.1244018787611
 31
0.0
  0
LINE
  5
17CF6
  8
01
 10
3989.6905255410161
 20
-1449.624401848761
 30
0.0
 11
3990.5405255610158
 21
-1449.624401848761
 31
0.0
  0
LINE
  5
17CF7
  8
01
 10
3989.6905255410161
 20
-1450.4244018687609
 30
0.0
 11
3990.5405255610158
 21
-1450.4244018687609
 31
0.0
  0
LINE
  5
17CF8
  8
01
 10
3990.5405255610158
 20
-1449.624401848761
 30
0.0
 11
3990.5405255610158
 21
-1450.4244018687609
 31
0.0
  0
LINE
  5
17CF9
  8
01
 10
3988.3905255510158
 20
-1448.2744018587609
 30
0.0
 11
3989.1905255710162
 21
-1448.2744018587609
 31
0.0
  0
ARC
  5
17CFA
  8
01
 10
3989.6905255410161
 20
-1449.1244018787611
 30
0.0
 40
0.5
 50
179.999989999999
 51
270.0
  0
ARC
  5
17CFB
  8
01
 10
3989.6905255410161
 20
-1450.924401838761
 30
0.0
 40
0.5
 50
90.000003000010722
 51
180.00001000000091
  0
ARC
  5
17CFC
  8
01
 10
3987.890525581015
 20
-1450.924401838761
 30
0.0
 40
0.5
 50
0.0
 51
90.000003000010722
  0
ARC
  5
17CFD
  8
01
 10
3987.890525581015
 20
-1449.1244018787611
 30
0.0
 40
0.5
 50
270.0
 51
0.0
  0
LINE
  5
17CFF
  8
1CENTER
 10
3994.1534694767438
 20
-1450.0244018587609
 30
0.0
 11
3983.4275816452869
 21
-1450.0244018587609
 31
0.0
  0
LINE
  5
17D00
  8
1CENTER
 10
3988.7905255610158
 20
-1444.661457943032
 30
0.0
 11
3988.7905255610158
 21
-1455.3873457744889
 31
0.0
  0
LINE
  5
17D01
  8
01
 10
3702.290525561009
 20
-1473.5244018587609
 30
0.0
 11
3767.790525561019
 21
-1473.5244018587609
 31
0.0
  0
LINE
  5
17D02
  8
01
 10
3702.290525561009
 20
-1473.5244018587609
 30
0.0
 11
3701.7905255610081
 21
-1474.0244018587609
 31
0.0
  0
LINE
  5
17D03
  8
01
 10
3768.290525561019
 20
-1474.0244018587609
 30
0.0
 11
3767.790525561019
 21
-1473.5244018587609
 31
0.0
  0
LINE
  5
17DA4
  8
01
 10
4164.2038555073414
 20
-1820.9387385312041
 30
0.0
 11
4164.2038555073414
 21
-1592.013423369621
 31
0.0
  0
LINE
  5
17DA5
  8
01
 10
4179.2038555073404
 20
-1820.9387385312041
 30
0.0
 11
4179.2038555073404
 21
-1592.013423369621
 31
0.0
  0
LINE
  5
17F09
  8
01
 10
3700.9905255610129
 20
-1809.459591259325
 30
0.0
 11
3701.7905255610081
 21
-1809.459591259325
 31
0.0
  0
ARC
  5
17F0A
  8
1HIDDEN
 10
3704.7905255610121
 20
-1810.459591259325
 30
0.0
 40
1.0
 50
0.0
 51
90.0
  0
LINE
  5
17F0B
  8
01
 10
3700.9905255610111
 20
-1803.459591259325
 30
0.0
 11
3701.790525561009
 21
-1803.459591259325
 31
0.0
  0
ARC
  5
17F0C
  8
1HIDDEN
 10
3704.7905255610099
 20
-1804.459591259325
 30
0.0
 40
1.0
 50
0.0
 51
90.0
  0
ARC
  5
17F0D
  8
1HIDDEN
 10
3704.7905255610058
 20
-1802.459591259325
 30
0.0
 40
1.0
 50
270.0
 51
0.0
  0
LINE
  5
17F0E
  8
1HIDDEN
 10
3706.7905255610121
 20
-1818.459591259325
 30
0.0
 11
3720.7905255610081
 21
-1818.459591259325
 31
0.0
  0
ARC
  5
17F0F
  8
1HIDDEN
 10
3706.7905255610121
 20
-1817.459591259325
 30
0.0
 40
1.0
 50
179.99999999998701
 51
270.0
  0
ARC
  5
17F10
  8
1HIDDEN
 10
3720.7905255610081
 20
-1817.459591259325
 30
0.0
 40
1.0
 50
270.0
 51
0.0
  0
LINE
  5
17F11
  8
1HIDDEN
 10
3706.7905255610099
 20
-1794.459591259325
 30
0.0
 11
3720.7905255610081
 21
-1794.459591259325
 31
0.0
  0
CIRCLE
  5
17F12
  8
1HIDDEN
 10
3716.7905255610081
 20
-1797.959591259325
 30
0.0
 40
2.0
  0
CIRCLE
  5
17F13
  8
1HIDDEN
 10
3716.7905255610081
 20
-1814.959591259325
 30
0.0
 40
2.0
  0
LINE
  5
17F14
  8
1HIDDEN
 10
3721.7905255610081
 20
-1795.459591259325
 30
0.0
 11
3721.7905255610081
 21
-1817.459591259325
 31
0.0
  0
LINE
  5
17F15
  8
1HIDDEN
 10
3705.7905255610099
 20
-1795.459591259325
 30
0.0
 11
3705.7905255610071
 21
-1802.459591259325
 31
0.0
  0
LINE
  5
17F16
  8
1HIDDEN
 10
3705.7905255610121
 20
-1810.459591259325
 30
0.0
 11
3705.7905255610121
 21
-1817.459591259325
 31
0.0
  0
ARC
  5
17F17
  8
1HIDDEN
 10
3706.7905255610099
 20
-1795.459591259325
 30
0.0
 40
1.0
 50
90.0
 51
180.0
  0
ARC
  5
17F18
  8
1HIDDEN
 10
3720.7905255610081
 20
-1795.459591259325
 30
0.0
 40
1.0
 50
0.0
 51
90.0
  0
LINE
  5
17F19
  8
01
 10
3700.9905255610129
 20
-1809.459591259325
 30
0.0
 11
3700.9905255610111
 21
-1803.459591259325
 31
0.0
  0
LINE
  5
17F1A
  8
1HIDDEN
 10
3705.7905255610099
 20
-1808.459591259325
 30
0.0
 11
3705.7905255610099
 21
-1804.459591259325
 31
0.0
  0
ARC
  5
17F1B
  8
1HIDDEN
 10
3704.7905255610099
 20
-1808.459591259325
 30
0.0
 40
1.0
 50
270.0
 51
0.0000000000260551
  0
LINE
  5
17F1E
  8
1CENTER
 10
3720.0522626031839
 20
-1797.959591259325
 30
0.0
 11
3713.5287885188332
 21
-1797.959591259325
 31
0.0
  0
LINE
  5
17F1F
  8
1CENTER
 10
3716.7905255610081
 20
-1794.697854217148
 30
0.0
 11
3716.7905255610081
 21
-1801.2213283015019
 31
0.0
  0
ARC
  5
18210
  8
1PHANTOM
 10
4014.7905255610081
 20
-1806.459591259325
 30
0.0
 40
2.5
 50
90.0
 51
270.0
  0
LINE
  5
18211
  8
1CENTER
 10
4022.7887067448528
 20
-1806.459591259325
 30
0.0
 11
4010.7923443771642
 21
-1806.459591259325
 31
0.0
  0
LINE
  5
18212
  8
1CENTER
 10
4016.7905255610081
 20
-1800.4614100754809
 30
0.0
 11
4016.7905255610081
 21
-1812.457772443169
 31
0.0
  0
ARC
  5
18213
  8
1PHANTOM
 10
4018.7905255610081
 20
-1806.459591259325
 30
0.0
 40
2.5
 50
270.0
 51
90.0
  0
LINE
  5
18214
  8
1PHANTOM
 10
4014.7905255610081
 20
-1803.959591259325
 30
0.0
 11
4018.7905255610081
 21
-1803.959591259325
 31
0.0
  0
LINE
  5
18215
  8
1PHANTOM
 10
4014.7905255610081
 20
-1808.959591259325
 30
0.0
 11
4018.7905255610081
 21
-1808.959591259325
 31
0.0
  0
CIRCLE
  5
18216
  8
1PHANTOM
 10
3716.7905255610081
 20
-1606.459591259325
 30
0.0
 40
2.5
  0
LINE
  5
18217
  8
1CENTER
 10
3722.7887067448528
 20
-1606.459591259325
 30
0.0
 11
3710.7923443771642
 21
-1606.459591259325
 31
0.0
  0
LINE
  5
18218
  8
1CENTER
 10
3716.7905255610081
 20
-1612.457772443169
 30
0.0
 11
3716.7905255610081
 21
-1600.4614100754809
 31
0.0
  0
ARC
  5
1821C
  8
1PHANTOM
 10
4014.7905255610081
 20
-1606.459591259325
 30
0.0
 40
2.5
 50
90.0
 51
270.0
  0
LINE
  5
1821D
  8
1CENTER
 10
4022.7887067448528
 20
-1606.459591259325
 30
0.0
 11
4010.7923443771642
 21
-1606.459591259325
 31
0.0
  0
LINE
  5
1821E
  8
1CENTER
 10
4016.7905255610081
 20
-1612.457772443169
 30
0.0
 11
4016.7905255610081
 21
-1600.4614100754809
 31
0.0
  0
ARC
  5
1821F
  8
1PHANTOM
 10
4018.7905255610081
 20
-1606.459591259325
 30
0.0
 40
2.5
 50
270.0
 51
90.0
  0
LINE
  5
18220
  8
1PHANTOM
 10
4014.7905255610081
 20
-1608.959591259325
 30
0.0
 11
4018.7905255610081
 21
-1608.959591259325
 31
0.0
  0
LINE
  5
18221
  8
1PHANTOM
 10
4014.7905255610081
 20
-1603.959591259325
 30
0.0
 11
4018.7905255610081
 21
-1603.959591259325
 31
0.0
  0
LINE
  5
18439
  8
1HIDDEN
 10
3701.7905255610081
 20
-1803.459591259325
 30
0.0
 11
3704.7905255610058
 21
-1803.459591259325
 31
0.0
  0
LINE
  5
1843A
  8
1HIDDEN
 10
3701.7905255610081
 20
-1809.459591259325
 30
0.0
 11
3704.7905255610099
 21
-1809.459591259325
 31
0.0
  0
LINE
  5
184B2
  8
01
 10
4160.4038555073412
 20
-1610.4595447234269
 30
0.0
 11
4160.4038555073448
 21
-1602.4595447234269
 31
0.0
  0
LINE
  5
184B3
  8
1PHANTOM
 10
4159.4038555073412
 20
-1810.4595447234269
 30
0.0
 11
4160.4038555073412
 21
-1810.4595447234269
 31
0.0
  0
LINE
  5
184B4
  8
1PHANTOM
 10
4159.4038555073412
 20
-1802.4595447234269
 30
0.0
 11
4160.4038555073448
 21
-1802.4595447234269
 31
0.0
  0
LINE
  5
184B6
  8
1PHANTOM
 10
4159.4038555073412
 20
-1810.4595447234269
 30
0.0
 11
4159.4038555073412
 21
-1802.4595447234269
 31
0.0
  0
LINE
  5
184B7
  8
1PHANTOM
 10
4159.4038555073412
 20
-1806.6740028346439
 30
0.0
 11
4160.4038555073412
 21
-1806.096652565454
 31
0.0
  0
LINE
  5
184B8
  8
1PHANTOM
 10
4160.4038555073412
 20
-1810.4595447234269
 30
0.0
 11
4160.4038555073448
 21
-1802.4595447234269
 31
0.0
  0
LINE
  5
184BA
  8
1PHANTOM
 10
4164.2038555073414
 20
-1808.709591259325
 30
0.0
 11
4161.4038555073394
 21
-1808.709591259325
 31
0.0
  0
LINE
  5
184BC
  8
1PHANTOM
 10
4164.2038555073414
 20
-1804.209591259325
 30
0.0
 11
4161.4038555073394
 21
-1804.209591259325
 31
0.0
  0
LINE
  5
184BD
  8
1PHANTOM
 10
4164.2038555073414
 20
-1608.709591259325
 30
0.0
 11
4161.4038555073394
 21
-1608.709591259325
 31
0.0
  0
LINE
  5
184BE
  8
1PHANTOM
 10
4164.2038555073414
 20
-1604.209591259325
 30
0.0
 11
4161.4038555073394
 21
-1604.209591259325
 31
0.0
  0
LINE
  5
18513
  8
1PHANTOM
 10
4163.403855507343
 20
-1794.459591259325
 30
0.0
 11
4164.2038555073414
 21
-1794.459591259325
 31
0.0
  0
LINE
  5
18515
  8
1CENTER
 10
4194.3107952257014
 20
-1797.959591259325
 30
0.0
 11
4161.8111427006734
 21
-1797.959591259325
 31
0.0
  0
LINE
  5
18516
  8
01
 10
4165.1789656419496
 20
-1796.709706629985
 30
0.0
 11
4165.2289823175834
 21
-1796.4596261612489
 31
0.0
  0
LINE
  5
18517
  8
01
 10
4170.0289823175845
 20
-1796.4596261612489
 30
0.0
 11
4170.6289753372012
 21
-1799.459626161248
 31
0.0
  0
LINE
  5
18518
  8
01
 10
4171.2289823175834
 20
-1796.4596261612489
 30
0.0
 11
4171.8289753371992
 21
-1799.459626161248
 31
0.0
  0
LINE
  5
18519
  8
01
 10
4174.8289823175828
 20
-1796.4596261612489
 30
0.0
 11
4175.4289753372004
 21
-1799.459626161248
 31
0.0
  0
LINE
  5
1851A
  8
01
 10
4173.628982317583
 20
-1796.4596261612489
 30
0.0
 11
4174.2289753371988
 21
-1799.459626161248
 31
0.0
  0
LINE
  5
1851B
  8
01
 10
4172.4289823175823
 20
-1796.4596261612489
 30
0.0
 11
4173.028975337199
 21
-1799.459626161248
 31
0.0
  0
LINE
  5
1851C
  8
01
 10
4169.9539814450354
 20
-1796.8346261612489
 30
0.0
 11
4170.0289823175845
 21
-1796.4596261612489
 31
0.0
  0
LINE
  5
1851D
  8
01
 10
4171.1539814450352
 20
-1796.8346261612489
 30
0.0
 11
4171.2289823175834
 21
-1796.4596261612489
 31
0.0
  0
LINE
  5
1851E
  8
01
 10
4174.7539814450347
 20
-1796.8346261612489
 30
0.0
 11
4174.8289823175828
 21
-1796.4596261612489
 31
0.0
  0
LINE
  5
1851F
  8
01
 10
4173.5539814450349
 20
-1796.8346261612489
 30
0.0
 11
4173.628982317583
 21
-1796.4596261612489
 31
0.0
  0
LINE
  5
18520
  8
01
 10
4172.3539814450351
 20
-1796.8346261612489
 30
0.0
 11
4172.4289823175823
 21
-1796.4596261612489
 31
0.0
  0
LINE
  5
18521
  8
01
 10
4170.6289753372012
 20
-1799.459626161248
 30
0.0
 11
4170.7039762097475
 21
-1799.084626161248
 31
0.0
  0
LINE
  5
18522
  8
01
 10
4171.8289753371992
 20
-1799.459626161248
 30
0.0
 11
4171.9039762097482
 21
-1799.084626161248
 31
0.0
  0
LINE
  5
18523
  8
01
 10
4175.4289753372004
 20
-1799.459626161248
 30
0.0
 11
4175.5039762097467
 21
-1799.084626161248
 31
0.0
  0
LINE
  5
18524
  8
01
 10
4174.2289753371988
 20
-1799.459626161248
 30
0.0
 11
4174.3039762097478
 21
-1799.084626161248
 31
0.0
  0
LINE
  5
18525
  8
01
 10
4173.028975337199
 20
-1799.459626161248
 30
0.0
 11
4173.1039762097471
 21
-1799.084626161248
 31
0.0
  0
LINE
  5
18526
  8
01
 10
4167.028975337199
 20
-1799.459626161248
 30
0.0
 11
4167.1039762097471
 21
-1799.084626161248
 31
0.0
  0
LINE
  5
18527
  8
01
 10
4168.2289753371997
 20
-1799.459626161248
 30
0.0
 11
4168.3039762097478
 21
-1799.084626161248
 31
0.0
  0
LINE
  5
18528
  8
01
 10
4169.4289753372004
 20
-1799.459626161248
 30
0.0
 11
4169.5039762097495
 21
-1799.084626161248
 31
0.0
  0
LINE
  5
18529
  8
01
 10
4165.8289753372001
 20
-1799.459626161248
 30
0.0
 11
4165.9039762097482
 21
-1799.084626161248
 31
0.0
  0
LINE
  5
1852A
  8
01
 10
4166.3539814450351
 20
-1796.8346261612489
 30
0.0
 11
4166.4289823175832
 21
-1796.4596261612489
 31
0.0
  0
LINE
  5
1852B
  8
01
 10
4167.5539814450358
 20
-1796.8346261612489
 30
0.0
 11
4167.628982317583
 21
-1796.4596261612489
 31
0.0
  0
LINE
  5
1852C
  8
01
 10
4168.7539814450347
 20
-1796.8346261612489
 30
0.0
 11
4168.8289823175828
 21
-1796.4596261612489
 31
0.0
  0
LINE
  5
1852D
  8
01
 10
4166.4289823175832
 20
-1796.4596261612489
 30
0.0
 11
4167.028975337199
 21
-1799.459626161248
 31
0.0
  0
LINE
  5
1852E
  8
01
 10
4167.628982317583
 20
-1796.4596261612489
 30
0.0
 11
4168.2289753371997
 21
-1799.459626161248
 31
0.0
  0
LINE
  5
1852F
  8
01
 10
4168.8289823175828
 20
-1796.4596261612489
 30
0.0
 11
4169.4289753372004
 21
-1799.459626161248
 31
0.0
  0
LINE
  5
18530
  8
01
 10
4165.2289823175834
 20
-1796.4596261612489
 30
0.0
 11
4165.8289753372001
 21
-1799.459626161248
 31
0.0
  0
LINE
  5
18533
  8
01
 10
4176.0289823175845
 20
-1796.4596261612489
 30
0.0
 11
4176.6289753372002
 21
-1799.459626161248
 31
0.0
  0
LINE
  5
18534
  8
01
 10
4179.628982317583
 20
-1796.4596261612489
 30
0.0
 11
4180.2289753371988
 21
-1799.459626161248
 31
0.0
  0
LINE
  5
18535
  8
01
 10
4178.4289823175832
 20
-1796.4596261612489
 30
0.0
 11
4179.0289753371999
 21
-1799.459626161248
 31
0.0
  0
LINE
  5
18536
  8
01
 10
4177.2289823175834
 20
-1796.4596261612489
 30
0.0
 11
4177.8289753372001
 21
-1799.459626161248
 31
0.0
  0
LINE
  5
18537
  8
01
 10
4175.9539814450363
 20
-1796.8346261612489
 30
0.0
 11
4176.0289823175845
 21
-1796.4596261612489
 31
0.0
  0
LINE
  5
18538
  8
01
 10
4179.5539814450349
 20
-1796.8346261612489
 30
0.0
 11
4179.628982317583
 21
-1796.4596261612489
 31
0.0
  0
LINE
  5
18539
  8
01
 10
4178.3539814450351
 20
-1796.8346261612489
 30
0.0
 11
4178.4289823175832
 21
-1796.4596261612489
 31
0.0
  0
LINE
  5
1853A
  8
01
 10
4177.1539814450362
 20
-1796.8346261612489
 30
0.0
 11
4177.2289823175834
 21
-1796.4596261612489
 31
0.0
  0
LINE
  5
1853B
  8
01
 10
4176.6289753372002
 20
-1799.459626161248
 30
0.0
 11
4176.7039762097484
 21
-1799.084626161248
 31
0.0
  0
LINE
  5
1853C
  8
01
 10
4180.2289753371988
 20
-1799.459626161248
 30
0.0
 11
4180.3039762097478
 21
-1799.084626161248
 31
0.0
  0
LINE
  5
1853D
  8
01
 10
4179.0289753371999
 20
-1799.459626161248
 30
0.0
 11
4179.103976209748
 21
-1799.084626161248
 31
0.0
  0
LINE
  5
1853E
  8
01
 10
4177.8289753372001
 20
-1799.459626161248
 30
0.0
 11
4177.9039762097482
 21
-1799.084626161248
 31
0.0
  0
LINE
  5
1853F
  8
01
 10
4188.6289753372002
 20
-1799.459626161248
 30
0.0
 11
4188.7039762097475
 21
-1799.084626161248
 31
0.0
  0
LINE
  5
18540
  8
01
 10
4183.8289753372001
 20
-1799.459626161248
 30
0.0
 11
4183.9039762097482
 21
-1799.084626161248
 31
0.0
  0
LINE
  5
18541
  8
01
 10
4185.0289753371999
 20
-1799.459626161248
 30
0.0
 11
4185.103976209748
 21
-1799.084626161248
 31
0.0
  0
LINE
  5
18542
  8
01
 10
4187.4289753372004
 20
-1799.459626161248
 30
0.0
 11
4187.5039762097476
 21
-1799.084626161248
 31
0.0
  0
LINE
  5
18543
  8
01
 10
4186.2289753371997
 20
-1799.459626161248
 30
0.0
 11
4186.3039762097478
 21
-1799.084626161248
 31
0.0
  0
LINE
  5
18544
  8
01
 10
4182.6289753372002
 20
-1799.459626161248
 30
0.0
 11
4182.7039762097475
 21
-1799.084626161248
 31
0.0
  0
LINE
  5
18545
  8
01
 10
4181.4289753372004
 20
-1799.459626161248
 30
0.0
 11
4181.5039762097467
 21
-1799.084626161248
 31
0.0
  0
LINE
  5
18546
  8
01
 10
4183.1539814450352
 20
-1796.8346261612489
 30
0.0
 11
4183.2289823175834
 21
-1796.4596261612489
 31
0.0
  0
LINE
  5
18547
  8
01
 10
4190.3444043931131
 20
-1797.150312109155
 30
0.0
 11
4190.4289815273742
 21
-1796.799238267793
 31
0.0
  0
LINE
  5
18548
  8
01
 10
4189.1539814450352
 20
-1796.8346261612489
 30
0.0
 11
4189.2289823175834
 21
-1796.4596261612489
 31
0.0
  0
LINE
  5
18549
  8
01
 10
4191.5154038898418
 20
-1797.481727279302
 30
0.0
 11
4191.6289807371722
 21
-1797.1388483988289
 31
0.0
  0
LINE
  5
1854A
  8
01
 10
4191.0289765225052
 20
-1798.95021029379
 30
0.0
 11
4191.1660496294771
 21
-1798.5363981959381
 31
0.0
  0
LINE
  5
1854B
  8
01
 10
4190.4289815273742
 20
-1796.799238267793
 30
0.0
 11
4191.0289765225052
 21
-1798.95021029379
 31
0.0
  0
LINE
  5
1854C
  8
01
 10
4192.2289773127104
 20
-1798.610599715485
 30
0.0
 11
4192.4628047048991
 21
-1798.1693922842039
 31
0.0
  0
LINE
  5
1854D
  8
01
 10
4191.6289807371722
 20
-1797.1388483988289
 30
0.0
 11
4192.2289773127104
 21
-1798.610599715485
 31
0.0
  0
LINE
  5
1854E
  8
01
 10
4184.3539814450351
 20
-1796.8346261612489
 30
0.0
 11
4184.4289823175832
 21
-1796.4596261612489
 31
0.0
  0
LINE
  5
1854F
  8
01
 10
4186.7539814450338
 20
-1796.8346261612489
 30
0.0
 11
4186.8289823175828
 21
-1796.4596261612489
 31
0.0
  0
LINE
  5
18550
  8
01
 10
4187.9539814450354
 20
-1796.8346261612489
 30
0.0
 11
4188.0289823175826
 21
-1796.4596261612489
 31
0.0
  0
LINE
  5
18551
  8
01
 10
4185.5539814450349
 20
-1796.8346261612489
 30
0.0
 11
4185.628982317583
 21
-1796.4596261612489
 31
0.0
  0
LINE
  5
18552
  8
01
 10
4181.9539814450363
 20
-1796.8346261612489
 30
0.0
 11
4182.0289823175817
 21
-1796.4596261612489
 31
0.0
  0
LINE
  5
18553
  8
01
 10
4180.7539814450347
 20
-1796.8346261612489
 30
0.0
 11
4180.8289823175819
 21
-1796.4596261612489
 31
0.0
  0
LINE
  5
18554
  8
01
 10
4183.2289823175834
 20
-1796.4596261612489
 30
0.0
 11
4183.8289753372001
 21
-1799.459626161248
 31
0.0
  0
LINE
  5
18555
  8
01
 10
4188.0289823175826
 20
-1796.4596261612489
 30
0.0
 11
4188.6289753372002
 21
-1799.459626161248
 31
0.0
  0
LINE
  5
18556
  8
01
 10
4189.8289757323018
 20
-1799.289820872096
 30
0.0
 11
4189.9259287555242
 21
-1798.887375570642
 31
0.0
  0
LINE
  5
18557
  8
01
 10
4189.2289823175834
 20
-1796.4596261612489
 30
0.0
 11
4189.8289757323018
 21
-1799.289820872096
 31
0.0
  0
LINE
  5
18558
  8
01
 10
4184.4289823175832
 20
-1796.4596261612489
 30
0.0
 11
4185.0289753371999
 21
-1799.459626161248
 31
0.0
  0
LINE
  5
18559
  8
01
 10
4185.628982317583
 20
-1796.4596261612489
 30
0.0
 11
4186.2289753371997
 21
-1799.459626161248
 31
0.0
  0
LINE
  5
1855A
  8
01
 10
4186.8289823175828
 20
-1796.4596261612489
 30
0.0
 11
4187.4289753372004
 21
-1799.459626161248
 31
0.0
  0
LINE
  5
1855B
  8
01
 10
4182.0289823175817
 20
-1796.4596261612489
 30
0.0
 11
4182.6289753372002
 21
-1799.459626161248
 31
0.0
  0
LINE
  5
1855C
  8
01
 10
4180.8289823175819
 20
-1796.4596261612489
 30
0.0
 11
4181.4289753372004
 21
-1799.459626161248
 31
0.0
  0
LINE
  5
1855D
  8
01
 10
4189.2289814450351
 20
-1796.8346261612489
 30
0.0
 11
4164.2038555073414
 21
-1796.834626161248
 31
0.0
  0
LINE
  5
1855F
  8
01
 10
4193.2039788274305
 20
-1797.9596261612489
 30
0.0
 11
4189.2289814450351
 21
-1796.8346261612489
 31
0.0
  0
LINE
  5
18561
  8
01
 10
4193.2039788274305
 20
-1797.9596261612489
 30
0.0
 11
4189.2289762097462
 21
-1799.084626161248
 31
0.0
  0
LINE
  5
18563
  8
01
 10
4189.2289762097462
 20
-1799.084626161248
 30
0.0
 11
4164.2038555073414
 21
-1799.084626161248
 31
0.0
  0
LINE
  5
18567
  8
01
 10
4164.6289753372002
 20
-1799.459626161248
 30
0.0
 11
4164.7039762097484
 21
-1799.084626161248
 31
0.0
  0
LINE
  5
18568
  8
01
 10
4164.2038555073404
 20
-1797.3340022825021
 30
0.0
 11
4164.6289753372002
 21
-1799.459626161248
 31
0.0
  0
LINE
  5
1856A
  8
1CENTER
 10
4200.0962615658009
 20
-1806.4595447234269
 30
0.0
 11
4155.7335790980324
 21
-1806.4595447234269
 31
0.0
  0
LINE
  5
1856B
  8
1PHANTOM
 10
4197.3038580535003
 20
-1805.3652209094321
 30
0.0
 11
4198.1038534875506
 21
-1807.3275559983069
 31
0.0
  0
LINE
  5
1856C
  8
1PHANTOM
 10
4198.1038534875506
 20
-1807.3275559983069
 30
0.0
 11
4198.4156233438043
 21
-1806.7392794232651
 31
0.0
  0
LINE
  5
1856D
  8
1PHANTOM
 10
4164.9038601607108
 20
-1804.459591259325
 30
0.0
 11
4165.7038508535279
 21
-1808.459591259325
 31
0.0
  0
LINE
  5
1856E
  8
1PHANTOM
 10
4186.1038601607161
 20
-1804.459591259325
 30
0.0
 11
4186.9038508535368
 21
-1808.459591259325
 31
0.0
  0
LINE
  5
1856F
  8
1PHANTOM
 10
4189.303860160715
 20
-1804.459591259325
 30
0.0
 11
4190.1038508535376
 21
-1808.459591259325
 31
0.0
  0
LINE
  5
18570
  8
1PHANTOM
 10
4190.1038508535376
 20
-1808.459591259325
 30
0.0
 11
4190.2038520169353
 21
-1807.959591259325
 31
0.0
  0
LINE
  5
18571
  8
1PHANTOM
 10
4190.8038589973194
 20
-1804.959591259325
 30
0.0
 11
4190.9038601607153
 21
-1804.459591259325
 31
0.0
  0
LINE
  5
18572
  8
1PHANTOM
 10
4186.9038508535368
 20
-1808.459591259325
 30
0.0
 11
4187.0038520169346
 21
-1807.959591259325
 31
0.0
  0
LINE
  5
18573
  8
1PHANTOM
 10
4188.5038508535381
 20
-1808.459591259325
 30
0.0
 11
4188.6038520169341
 21
-1807.959591259325
 31
0.0
  0
LINE
  5
18574
  8
1PHANTOM
 10
4189.2038589973181
 20
-1804.959591259325
 30
0.0
 11
4189.303860160715
 21
-1804.459591259325
 31
0.0
  0
LINE
  5
18575
  8
1PHANTOM
 10
4187.6038589973177
 20
-1804.959591259325
 30
0.0
 11
4187.7038601607146
 21
-1804.459591259325
 31
0.0
  0
LINE
  5
18576
  8
1PHANTOM
 10
4187.7038601607146
 20
-1804.459591259325
 30
0.0
 11
4188.5038508535381
 21
-1808.459591259325
 31
0.0
  0
LINE
  5
18577
  8
1PHANTOM
 10
4196.5038524339461
 20
-1807.780370102714
 30
0.0
 11
4196.6866165765741
 21
-1807.228620638911
 31
0.0
  0
LINE
  5
18578
  8
1PHANTOM
 10
4193.3038508535383
 20
-1808.459591259325
 30
0.0
 11
4193.4038520169352
 21
-1807.959591259325
 31
0.0
  0
LINE
  5
18579
  8
1PHANTOM
 10
4191.7038508535379
 20
-1808.459591259325
 30
0.0
 11
4191.8038520169339
 21
-1807.959591259325
 31
0.0
  0
LINE
  5
1857A
  8
1PHANTOM
 10
4194.9038513803407
 20
-1808.233184207121
 30
0.0
 11
4195.0331220779708
 21
-1807.69659047185
 31
0.0
  0
LINE
  5
1857B
  8
1PHANTOM
 10
4195.5910895947554
 20
-1805.380505856534
 30
0.0
 11
4195.703859107105
 21
-1804.9124074013839
 31
0.0
  0
LINE
  5
1857C
  8
1PHANTOM
 10
4192.4038589973179
 20
-1804.959591259325
 30
0.0
 11
4192.5038601607148
 21
-1804.459591259325
 31
0.0
  0
LINE
  5
1857D
  8
1PHANTOM
 10
4194.0038589973183
 20
-1804.959591259325
 30
0.0
 11
4194.1038601607152
 21
-1804.459591259325
 31
0.0
  0
LINE
  5
1857E
  8
1PHANTOM
 10
4197.1524222570606
 20
-1805.822392750063
 30
0.0
 11
4197.3038580535003
 21
-1805.3652209094321
 31
0.0
  0
LINE
  5
1857F
  8
1PHANTOM
 10
4195.703859107105
 20
-1804.9124074013839
 30
0.0
 11
4196.5038524339461
 21
-1807.780370102714
 31
0.0
  0
LINE
  5
18580
  8
1PHANTOM
 10
4192.5038601607148
 20
-1804.459591259325
 30
0.0
 11
4193.3038508535383
 21
-1808.459591259325
 31
0.0
  0
LINE
  5
18581
  8
1PHANTOM
 10
4194.1038601607152
 20
-1804.459591259325
 30
0.0
 11
4194.9038513803407
 21
-1808.233184207121
 31
0.0
  0
LINE
  5
18582
  8
1PHANTOM
 10
4190.9038601607153
 20
-1804.459591259325
 30
0.0
 11
4191.7038508535379
 21
-1808.459591259325
 31
0.0
  0
LINE
  5
18583
  8
1PHANTOM
 10
4178.1038601607097
 20
-1804.459591259325
 30
0.0
 11
4178.9038508535286
 21
-1808.459591259325
 31
0.0
  0
LINE
  5
18584
  8
1PHANTOM
 10
4178.9038508535286
 20
-1808.459591259325
 30
0.0
 11
4179.0038520169273
 21
-1807.959591259325
 31
0.0
  0
LINE
  5
18585
  8
1PHANTOM
 10
4179.6038589973168
 20
-1804.959591259325
 30
0.0
 11
4179.7038601607146
 21
-1804.459591259325
 31
0.0
  0
LINE
  5
18586
  8
1PHANTOM
 10
4177.3038508535292
 20
-1808.459591259325
 30
0.0
 11
4177.403852016927
 21
-1807.959591259325
 31
0.0
  0
LINE
  5
18587
  8
1PHANTOM
 10
4165.7038508535279
 20
-1808.459591259325
 30
0.0
 11
4165.8038520169257
 21
-1807.959591259325
 31
0.0
  0
LINE
  5
18588
  8
1PHANTOM
 10
4178.0038589973128
 20
-1804.959591259325
 30
0.0
 11
4178.1038601607097
 21
-1804.459591259325
 31
0.0
  0
LINE
  5
18589
  8
1PHANTOM
 10
4176.4038589973134
 20
-1804.959591259325
 30
0.0
 11
4176.5038601607102
 21
-1804.459591259325
 31
0.0
  0
LINE
  5
1858A
  8
1PHANTOM
 10
4176.5038601607102
 20
-1804.459591259325
 30
0.0
 11
4177.3038508535292
 21
-1808.459591259325
 31
0.0
  0
LINE
  5
1858B
  8
1PHANTOM
 10
4183.7038508535334
 20
-1808.459591259325
 30
0.0
 11
4183.8038520169312
 21
-1807.959591259325
 31
0.0
  0
LINE
  5
1858C
  8
1PHANTOM
 10
4185.3038508535383
 20
-1808.459591259325
 30
0.0
 11
4185.4038520169352
 21
-1807.959591259325
 31
0.0
  0
LINE
  5
1858D
  8
1PHANTOM
 10
4180.5038508535335
 20
-1808.459591259325
 30
0.0
 11
4180.6038520169323
 21
-1807.959591259325
 31
0.0
  0
LINE
  5
1858E
  8
1PHANTOM
 10
4182.103850853533
 20
-1808.459591259325
 30
0.0
 11
4182.2038520169308
 21
-1807.959591259325
 31
0.0
  0
LINE
  5
1858F
  8
1PHANTOM
 10
4186.0038589973183
 20
-1804.959591259325
 30
0.0
 11
4186.1038601607161
 21
-1804.459591259325
 31
0.0
  0
LINE
  5
18590
  8
1PHANTOM
 10
4184.4038589973179
 20
-1804.959591259325
 30
0.0
 11
4184.5038601607157
 21
-1804.459591259325
 31
0.0
  0
LINE
  5
18591
  8
1PHANTOM
 10
4181.2038589973163
 20
-1804.959591259325
 30
0.0
 11
4181.303860160715
 21
-1804.459591259325
 31
0.0
  0
LINE
  5
18592
  8
1PHANTOM
 10
4182.8038589973166
 20
-1804.959591259325
 30
0.0
 11
4182.9038601607153
 21
-1804.459591259325
 31
0.0
  0
LINE
  5
18593
  8
1PHANTOM
 10
4182.9038601607153
 20
-1804.459591259325
 30
0.0
 11
4183.7038508535334
 21
-1808.459591259325
 31
0.0
  0
LINE
  5
18594
  8
1PHANTOM
 10
4184.5038601607157
 20
-1804.459591259325
 30
0.0
 11
4185.3038508535383
 21
-1808.459591259325
 31
0.0
  0
LINE
  5
18595
  8
1PHANTOM
 10
4181.303860160715
 20
-1804.459591259325
 30
0.0
 11
4182.103850853533
 21
-1808.459591259325
 31
0.0
  0
LINE
  5
18596
  8
1PHANTOM
 10
4179.7038601607146
 20
-1804.459591259325
 30
0.0
 11
4180.5038508535335
 21
-1808.459591259325
 31
0.0
  0
LINE
  5
18597
  8
1PHANTOM
 10
4159.4038520170407
 20
-1807.959591259325
 30
0.0
 11
4159.4038589974252
 21
-1804.959591259325
 31
0.0
  0
LINE
  5
18598
  8
1PHANTOM
 10
4160.0038589973092
 20
-1804.959591259325
 30
0.0
 11
4160.103860160707
 21
-1804.459591259325
 31
0.0
  0
LINE
  5
18599
  8
1PHANTOM
 10
4160.103860160707
 20
-1804.459591259325
 30
0.0
 11
4160.9038508535241
 21
-1808.459591259325
 31
0.0
  0
LINE
  5
1859A
  8
1PHANTOM
 10
4160.9038508535241
 20
-1808.459591259325
 30
0.0
 11
4161.0038520169219
 21
-1807.959591259325
 31
0.0
  0
LINE
  5
1859B
  8
1PHANTOM
 10
4161.6038589973086
 20
-1804.959591259325
 30
0.0
 11
4161.7038601607064
 21
-1804.459591259325
 31
0.0
  0
LINE
  5
1859C
  8
1PHANTOM
 10
4163.203858997309
 20
-1804.959591259325
 30
0.0
 11
4163.3038601607068
 21
-1804.459591259325
 31
0.0
  0
LINE
  5
1859D
  8
1PHANTOM
 10
4163.3038601607068
 20
-1804.459591259325
 30
0.0
 11
4164.1038508535239
 21
-1808.459591259325
 31
0.0
  0
LINE
  5
1859E
  8
1PHANTOM
 10
4162.5038508535254
 20
-1808.459591259325
 30
0.0
 11
4162.6038520169222
 21
-1807.959591259325
 31
0.0
  0
LINE
  5
1859F
  8
1PHANTOM
 10
4164.1038508535239
 20
-1808.459591259325
 30
0.0
 11
4164.2038520169226
 21
-1807.959591259325
 31
0.0
  0
LINE
  5
185A0
  8
1PHANTOM
 10
4161.7038601607064
 20
-1804.459591259325
 30
0.0
 11
4162.5038508535254
 21
-1808.459591259325
 31
0.0
  0
LINE
  5
185A1
  8
1PHANTOM
 10
4164.803858997313
 20
-1804.959591259325
 30
0.0
 11
4164.9038601607108
 21
-1804.459591259325
 31
0.0
  0
LINE
  5
185A2
  8
1PHANTOM
 10
4199.4038555071784
 20
-1806.459591259325
 30
0.0
 11
4194.1038589973159
 21
-1804.959591259325
 31
0.0
  0
LINE
  5
185A3
  8
1PHANTOM
 10
4194.1038589973159
 20
-1804.959591259325
 30
0.0
 11
4159.4038589974252
 21
-1804.959591259325
 31
0.0
  0
LINE
  5
185A4
  8
1PHANTOM
 10
4199.4038555071784
 20
-1806.459591259325
 30
0.0
 11
4194.1038520169332
 21
-1807.959591259325
 31
0.0
  0
LINE
  5
185A5
  8
1PHANTOM
 10
4159.4038636511241
 20
-1802.9595447234269
 30
0.0
 11
4159.4038589974252
 21
-1804.959591259325
 31
0.0
  0
LINE
  5
185A6
  8
1PHANTOM
 10
4194.1038520169332
 20
-1807.959591259325
 30
0.0
 11
4159.4038520170407
 21
-1807.959591259325
 31
0.0
  0
LINE
  5
185A7
  8
1PHANTOM
 10
4159.4038636511241
 20
-1802.9595447234269
 30
0.0
 11
4158.3038601609278
 21
-1802.9595447234269
 31
0.0
  0
LINE
  5
185A8
  8
1PHANTOM
 10
4159.4038520170407
 20
-1807.959591259325
 30
0.0
 11
4159.4038473635592
 21
-1809.9595447234269
 31
0.0
  0
ARC
  5
185A9
  8
1PHANTOM
 10
4158.3038601609278
 20
-1804.4595447234269
 30
0.0
 40
1.5
 50
90.0
 51
179.9998666844663
  0
LINE
  5
185AA
  8
1PHANTOM
 10
4159.4038473635592
 20
-1809.9595447234269
 30
0.0
 11
4158.3038508537484
 21
-1809.9595447234269
 31
0.0
  0
LINE
  5
185AB
  8
1PHANTOM
 10
4156.8038601609323
 20
-1804.4595412332339
 30
0.0
 11
4156.8038508537529
 21
-1808.4595412332351
 31
0.0
  0
ARC
  5
185AC
  8
1PHANTOM
 10
4158.3038508537484
 20
-1808.4595447234269
 30
0.0
 40
1.5
 50
179.9998666844663
 51
270.0
  0
LINE
  5
185AD
  8
1PHANTOM
 10
4170.1038601607061
 20
-1804.459591259325
 30
0.0
 11
4170.903850853525
 21
-1808.459591259325
 31
0.0
  0
LINE
  5
185AE
  8
1PHANTOM
 10
4170.903850853525
 20
-1808.459591259325
 30
0.0
 11
4171.0038520169219
 21
-1807.959591259325
 31
0.0
  0
LINE
  5
185AF
  8
1PHANTOM
 10
4171.6038589973132
 20
-1804.959591259325
 30
0.0
 11
4171.7038601607101
 21
-1804.459591259325
 31
0.0
  0
LINE
  5
185B0
  8
1PHANTOM
 10
4169.3038508535237
 20
-1808.459591259325
 30
0.0
 11
4169.4038520169224
 21
-1807.959591259325
 31
0.0
  0
LINE
  5
185B1
  8
1PHANTOM
 10
4170.0038589973092
 20
-1804.959591259325
 30
0.0
 11
4170.1038601607061
 21
-1804.459591259325
 31
0.0
  0
LINE
  5
185B2
  8
1PHANTOM
 10
4168.4038589973088
 20
-1804.959591259325
 30
0.0
 11
4168.5038601607066
 21
-1804.459591259325
 31
0.0
  0
LINE
  5
185B3
  8
1PHANTOM
 10
4168.5038601607066
 20
-1804.459591259325
 30
0.0
 11
4169.3038508535237
 21
-1808.459591259325
 31
0.0
  0
LINE
  5
185B4
  8
1PHANTOM
 10
4175.7038508535288
 20
-1808.459591259325
 30
0.0
 11
4175.8038520169257
 21
-1807.959591259325
 31
0.0
  0
LINE
  5
185B5
  8
1PHANTOM
 10
4172.503850853529
 20
-1808.459591259325
 30
0.0
 11
4172.6038520169259
 21
-1807.959591259325
 31
0.0
  0
LINE
  5
185B6
  8
1PHANTOM
 10
4174.1038508535294
 20
-1808.459591259325
 30
0.0
 11
4174.2038520169262
 21
-1807.959591259325
 31
0.0
  0
LINE
  5
185B7
  8
1PHANTOM
 10
4173.2038589973126
 20
-1804.959591259325
 30
0.0
 11
4173.3038601607104
 21
-1804.459591259325
 31
0.0
  0
LINE
  5
185B8
  8
1PHANTOM
 10
4174.803858997313
 20
-1804.959591259325
 30
0.0
 11
4174.9038601607108
 21
-1804.459591259325
 31
0.0
  0
LINE
  5
185B9
  8
1PHANTOM
 10
4174.9038601607108
 20
-1804.459591259325
 30
0.0
 11
4175.7038508535288
 21
-1808.459591259325
 31
0.0
  0
LINE
  5
185BA
  8
1PHANTOM
 10
4173.3038601607104
 20
-1804.459591259325
 30
0.0
 11
4174.1038508535294
 21
-1808.459591259325
 31
0.0
  0
LINE
  5
185BB
  8
1PHANTOM
 10
4171.7038601607101
 20
-1804.459591259325
 30
0.0
 11
4172.503850853529
 21
-1808.459591259325
 31
0.0
  0
LINE
  5
185BC
  8
1PHANTOM
 10
4167.7038508535252
 20
-1808.459591259325
 30
0.0
 11
4167.8038520169221
 21
-1807.959591259325
 31
0.0
  0
LINE
  5
185BD
  8
1PHANTOM
 10
4166.8038589973094
 20
-1804.959591259325
 30
0.0
 11
4166.9038601607072
 21
-1804.459591259325
 31
0.0
  0
LINE
  5
185BE
  8
1PHANTOM
 10
4166.9038601607072
 20
-1804.459591259325
 30
0.0
 11
4167.7038508535252
 21
-1808.459591259325
 31
0.0
  0
LINE
  5
185C3
  8
1PHANTOM
 10
4016.7905720969052
 20
-1393.5244018589251
 30
0.0
 11
4015.2905720969052
 21
-1398.8243983687869
 31
0.0
  0
LINE
  5
185C4
  8
1PHANTOM
 10
4015.2905720969052
 20
-1398.8243983687869
 30
0.0
 11
4015.2905720969061
 21
-1428.724401858761
 31
0.0
  0
LINE
  5
185C5
  8
1PHANTOM
 10
4016.7905720969052
 20
-1393.5244018589251
 30
0.0
 11
4018.2905720969052
 21
-1398.824405349171
 31
0.0
  0
LINE
  5
185C7
  8
1PHANTOM
 10
4018.2905720969052
 20
-1398.824405349171
 30
0.0
 11
4018.2905720969038
 21
-1428.724401858761
 31
0.0
  0
LINE
  5
185CE
  8
1CENTER
 10
4016.7905255610081
 20
-1392.831995800303
 30
0.0
 11
4016.7905255610081
 21
-1431.2162946325859
 31
0.0
  0
LINE
  5
185CF
  8
1PHANTOM
 10
4015.6962017470132
 20
-1395.624399312602
 30
0.0
 11
4017.6585368358869
 21
-1394.8244038785519
 31
0.0
  0
LINE
  5
185D0
  8
1PHANTOM
 10
4017.6585368358869
 20
-1394.8244038785519
 30
0.0
 11
4017.0702602608462
 21
-1394.5126340222989
 31
0.0
  0
LINE
  5
185D1
  8
1PHANTOM
 10
4014.7905720969052
 20
-1428.0243972053929
 30
0.0
 11
4018.7905720969052
 21
-1427.2244065125749
 31
0.0
  0
LINE
  5
185D2
  8
1PHANTOM
 10
4014.7905720969052
 20
-1406.824397205389
 30
0.0
 11
4018.7905720969052
 21
-1406.024406512566
 31
0.0
  0
LINE
  5
185D3
  8
1PHANTOM
 10
4014.7905720969052
 20
-1403.624397205389
 30
0.0
 11
4018.7905720969052
 21
-1402.8244065125659
 31
0.0
  0
LINE
  5
185D4
  8
1PHANTOM
 10
4018.7905720969052
 20
-1402.8244065125659
 30
0.0
 11
4018.2905720969052
 21
-1402.7244053491679
 31
0.0
  0
LINE
  5
185D5
  8
1PHANTOM
 10
4015.2905720969052
 20
-1402.124398368785
 30
0.0
 11
4014.7905720969052
 21
-1402.0243972053879
 31
0.0
  0
LINE
  5
185D6
  8
1PHANTOM
 10
4018.7905720969052
 20
-1406.024406512566
 30
0.0
 11
4018.2905720969052
 21
-1405.924405349168
 31
0.0
  0
LINE
  5
185D7
  8
1PHANTOM
 10
4018.7905720969052
 20
-1404.4244065125661
 30
0.0
 11
4018.2905720969052
 21
-1404.324405349169
 31
0.0
  0
LINE
  5
185D8
  8
1PHANTOM
 10
4015.2905720969052
 20
-1403.7243983687861
 30
0.0
 11
4014.7905720969052
 21
-1403.624397205389
 31
0.0
  0
LINE
  5
185D9
  8
1PHANTOM
 10
4015.2905720969052
 20
-1405.3243983687851
 30
0.0
 11
4014.7905720969052
 21
-1405.224397205388
 31
0.0
  0
LINE
  5
185DA
  8
1PHANTOM
 10
4014.7905720969052
 20
-1405.224397205388
 30
0.0
 11
4018.7905720969052
 21
-1404.4244065125661
 31
0.0
  0
LINE
  5
185DB
  8
1PHANTOM
 10
4018.1113509402949
 20
-1396.424404932158
 30
0.0
 11
4017.559601476491
 21
-1396.24164078953
 31
0.0
  0
LINE
  5
185DC
  8
1PHANTOM
 10
4018.7905720969052
 20
-1399.6244065125661
 30
0.0
 11
4018.2905720969052
 21
-1399.524405349169
 31
0.0
  0
LINE
  5
185DD
  8
1PHANTOM
 10
4018.7905720969052
 20
-1401.224406512566
 30
0.0
 11
4018.2905720969052
 21
-1401.1244053491689
 31
0.0
  0
LINE
  5
185DE
  8
1PHANTOM
 10
4018.564165044701
 20
-1398.024405985763
 30
0.0
 11
4018.0275713094302
 21
-1397.8951352881329
 31
0.0
  0
LINE
  5
185DF
  8
1PHANTOM
 10
4015.7114866941138
 20
-1397.337167771348
 30
0.0
 11
4015.2433882389641
 21
-1397.2243982589989
 31
0.0
  0
LINE
  5
185E0
  8
1PHANTOM
 10
4015.2905720969052
 20
-1400.524398368786
 30
0.0
 11
4014.7905720969052
 21
-1400.424397205388
 31
0.0
  0
LINE
  5
185E1
  8
1PHANTOM
 10
4015.2905720969052
 20
-1398.9243983687859
 30
0.0
 11
4014.7905720969052
 21
-1398.824397205389
 31
0.0
  0
LINE
  5
185E2
  8
1PHANTOM
 10
4016.1533735876442
 20
-1395.7758351090431
 30
0.0
 11
4015.6962017470132
 21
-1395.624399312602
 31
0.0
  0
LINE
  5
185E3
  8
1PHANTOM
 10
4015.2433882389641
 20
-1397.2243982589989
 30
0.0
 11
4018.1113509402949
 21
-1396.424404932158
 31
0.0
  0
LINE
  5
185E4
  8
1PHANTOM
 10
4014.7905720969052
 20
-1400.424397205388
 30
0.0
 11
4018.7905720969052
 21
-1399.6244065125661
 31
0.0
  0
LINE
  5
185E5
  8
1PHANTOM
 10
4014.7905720969052
 20
-1398.824397205389
 30
0.0
 11
4018.564165044701
 21
-1398.024405985763
 31
0.0
  0
LINE
  5
185E6
  8
1PHANTOM
 10
4014.7905720969052
 20
-1402.0243972053879
 30
0.0
 11
4018.7905720969052
 21
-1401.224406512566
 31
0.0
  0
LINE
  5
185E7
  8
1PHANTOM
 10
4014.7905720969052
 20
-1414.8243972053931
 30
0.0
 11
4018.7905720969052
 21
-1414.0244065125739
 31
0.0
  0
LINE
  5
185E8
  8
1PHANTOM
 10
4018.7905720969052
 20
-1414.0244065125739
 30
0.0
 11
4018.2905720969052
 21
-1413.9244053491759
 31
0.0
  0
LINE
  5
185E9
  8
1PHANTOM
 10
4015.2905720969052
 20
-1413.324398368786
 30
0.0
 11
4014.7905720969052
 21
-1413.224397205388
 31
0.0
  0
LINE
  5
185EA
  8
1PHANTOM
 10
4018.7905720969052
 20
-1415.624406512575
 30
0.0
 11
4018.2905720969052
 21
-1415.524405349177
 31
0.0
  0
LINE
  5
185EB
  8
1PHANTOM
 10
4018.7905720969052
 20
-1427.2244065125749
 30
0.0
 11
4018.2905720969052
 21
-1427.1244053491771
 31
0.0
  0
LINE
  5
185EC
  8
1PHANTOM
 10
4015.2905720969052
 20
-1414.92439836879
 30
0.0
 11
4014.7905720969052
 21
-1414.8243972053931
 31
0.0
  0
LINE
  5
185ED
  8
1PHANTOM
 10
4015.2905720969052
 20
-1416.524398368791
 30
0.0
 11
4014.7905720969052
 21
-1416.424397205393
 31
0.0
  0
LINE
  5
185EE
  8
1PHANTOM
 10
4014.7905720969052
 20
-1416.424397205393
 30
0.0
 11
4018.7905720969052
 21
-1415.624406512575
 31
0.0
  0
LINE
  5
185EF
  8
1PHANTOM
 10
4018.7905720969052
 20
-1409.224406512571
 30
0.0
 11
4018.2905720969052
 21
-1409.124405349173
 31
0.0
  0
LINE
  5
185F0
  8
1PHANTOM
 10
4018.7905720969052
 20
-1407.6244065125661
 30
0.0
 11
4018.2905720969052
 21
-1407.524405349169
 31
0.0
  0
LINE
  5
185F1
  8
1PHANTOM
 10
4018.7905720969052
 20
-1412.4244065125699
 30
0.0
 11
4018.2905720969052
 21
-1412.3244053491719
 31
0.0
  0
LINE
  5
185F2
  8
1PHANTOM
 10
4018.7905720969052
 20
-1410.82440651257
 30
0.0
 11
4018.2905720969052
 21
-1410.7244053491729
 31
0.0
  0
LINE
  5
185F3
  8
1PHANTOM
 10
4015.2905720969052
 20
-1406.9243983687859
 30
0.0
 11
4014.7905720969052
 21
-1406.824397205389
 31
0.0
  0
LINE
  5
185F4
  8
1PHANTOM
 10
4015.2905720969052
 20
-1408.524398368786
 30
0.0
 11
4014.7905720969052
 21
-1408.424397205388
 31
0.0
  0
LINE
  5
185F5
  8
1PHANTOM
 10
4015.2905720969052
 20
-1411.724398368787
 30
0.0
 11
4014.7905720969052
 21
-1411.624397205389
 31
0.0
  0
LINE
  5
185F6
  8
1PHANTOM
 10
4015.2905720969052
 20
-1410.1243983687859
 30
0.0
 11
4014.7905720969052
 21
-1410.0243972053879
 31
0.0
  0
LINE
  5
185F7
  8
1PHANTOM
 10
4014.7905720969052
 20
-1410.0243972053879
 30
0.0
 11
4018.7905720969052
 21
-1409.224406512571
 31
0.0
  0
LINE
  5
185F8
  8
1PHANTOM
 10
4014.7905720969052
 20
-1408.424397205388
 30
0.0
 11
4018.7905720969052
 21
-1407.6244065125661
 31
0.0
  0
LINE
  5
185F9
  8
1PHANTOM
 10
4014.7905720969052
 20
-1411.624397205389
 30
0.0
 11
4018.7905720969052
 21
-1410.82440651257
 31
0.0
  0
LINE
  5
185FA
  8
1PHANTOM
 10
4014.7905720969052
 20
-1413.224397205388
 30
0.0
 11
4018.7905720969052
 21
-1412.4244065125699
 31
0.0
  0
LINE
  5
18605
  8
1PHANTOM
 10
4015.2905720969052
 20
-1428.1243983687909
 30
0.0
 11
4014.7905720969052
 21
-1428.0243972053929
 31
0.0
  0
LINE
  5
18609
  8
1PHANTOM
 10
4014.7905720969052
 20
-1422.8243972053981
 30
0.0
 11
4018.7905720969052
 21
-1422.0244065125789
 31
0.0
  0
LINE
  5
1860A
  8
1PHANTOM
 10
4018.7905720969052
 20
-1422.0244065125789
 30
0.0
 11
4018.2905720969052
 21
-1421.9244053491809
 31
0.0
  0
LINE
  5
1860B
  8
1PHANTOM
 10
4015.2905720969052
 20
-1421.324398368791
 30
0.0
 11
4014.7905720969052
 21
-1421.224397205393
 31
0.0
  0
LINE
  5
1860C
  8
1PHANTOM
 10
4018.7905720969052
 20
-1423.6244065125791
 30
0.0
 11
4018.2905720969052
 21
-1423.5244053491811
 31
0.0
  0
LINE
  5
1860D
  8
1PHANTOM
 10
4015.2905720969052
 20
-1422.924398368795
 30
0.0
 11
4014.7905720969052
 21
-1422.8243972053981
 31
0.0
  0
LINE
  5
1860E
  8
1PHANTOM
 10
4015.2905720969052
 20
-1424.5243983687949
 30
0.0
 11
4014.7905720969052
 21
-1424.4243972053971
 31
0.0
  0
LINE
  5
1860F
  8
1PHANTOM
 10
4014.7905720969052
 20
-1424.4243972053971
 30
0.0
 11
4018.7905720969052
 21
-1423.6244065125791
 31
0.0
  0
LINE
  5
18610
  8
1PHANTOM
 10
4018.7905720969052
 20
-1417.2244065125749
 30
0.0
 11
4018.2905720969052
 21
-1417.1244053491771
 31
0.0
  0
LINE
  5
18611
  8
1PHANTOM
 10
4018.7905720969052
 20
-1420.4244065125749
 30
0.0
 11
4018.2905720969052
 21
-1420.3244053491769
 31
0.0
  0
LINE
  5
18612
  8
1PHANTOM
 10
4018.7905720969052
 20
-1418.8244065125739
 30
0.0
 11
4018.2905720969052
 21
-1418.7244053491779
 31
0.0
  0
LINE
  5
18613
  8
1PHANTOM
 10
4015.2905720969052
 20
-1419.7243983687911
 30
0.0
 11
4014.7905720969052
 21
-1419.6243972053931
 31
0.0
  0
LINE
  5
18614
  8
1PHANTOM
 10
4015.2905720969052
 20
-1418.1243983687909
 30
0.0
 11
4014.7905720969052
 21
-1418.0243972053929
 31
0.0
  0
LINE
  5
18615
  8
1PHANTOM
 10
4014.7905720969052
 20
-1418.0243972053929
 30
0.0
 11
4018.7905720969052
 21
-1417.2244065125749
 31
0.0
  0
LINE
  5
18616
  8
1PHANTOM
 10
4014.7905720969052
 20
-1419.6243972053931
 30
0.0
 11
4018.7905720969052
 21
-1418.8244065125739
 31
0.0
  0
LINE
  5
18617
  8
1PHANTOM
 10
4014.7905720969052
 20
-1421.224397205393
 30
0.0
 11
4018.7905720969052
 21
-1420.4244065125749
 31
0.0
  0
LINE
  5
18618
  8
1PHANTOM
 10
4018.7905720969052
 20
-1425.224406512579
 30
0.0
 11
4018.2905720969052
 21
-1425.124405349181
 31
0.0
  0
LINE
  5
18619
  8
1PHANTOM
 10
4015.2905720969052
 20
-1426.1243983687939
 30
0.0
 11
4014.7905720969052
 21
-1426.024397205397
 31
0.0
  0
LINE
  5
1861A
  8
1PHANTOM
 10
4014.7905720969052
 20
-1426.024397205397
 30
0.0
 11
4018.7905720969052
 21
-1425.224406512579
 31
0.0
  0
LINE
  5
1861E
  8
1PHANTOM
 10
4159.4038555073412
 20
-1610.4595447234269
 30
0.0
 11
4160.4038555073412
 21
-1610.4595447234269
 31
0.0
  0
LINE
  5
1861F
  8
1PHANTOM
 10
4159.4038555073412
 20
-1602.4595447234269
 30
0.0
 11
4160.4038555073448
 21
-1602.4595447234269
 31
0.0
  0
LINE
  5
18620
  8
1PHANTOM
 10
4199.4038555071784
 20
-1606.459591259325
 30
0.0
 11
4194.1038589973159
 21
-1604.959591259325
 31
0.0
  0
LINE
  5
18621
  8
1PHANTOM
 10
4194.1038589973159
 20
-1604.959591259325
 30
0.0
 11
4159.4038589974252
 21
-1604.959591259325
 31
0.0
  0
LINE
  5
18622
  8
1PHANTOM
 10
4199.4038555071784
 20
-1606.459591259325
 30
0.0
 11
4194.1038520169332
 21
-1607.959591259325
 31
0.0
  0
LINE
  5
18623
  8
1PHANTOM
 10
4159.4038636511241
 20
-1602.9595447234269
 30
0.0
 11
4159.4038589974252
 21
-1604.959591259325
 31
0.0
  0
LINE
  5
18624
  8
1PHANTOM
 10
4194.1038520169332
 20
-1607.959591259325
 30
0.0
 11
4159.4038520170407
 21
-1607.959591259325
 31
0.0
  0
LINE
  5
18625
  8
1PHANTOM
 10
4159.4038636511241
 20
-1602.9595447234269
 30
0.0
 11
4158.3038601609278
 21
-1602.9595447234269
 31
0.0
  0
LINE
  5
18626
  8
1PHANTOM
 10
4159.4038520170407
 20
-1607.959591259325
 30
0.0
 11
4159.4038473635592
 21
-1609.9595447234269
 31
0.0
  0
ARC
  5
18627
  8
1PHANTOM
 10
4158.3038601609278
 20
-1604.4595447234269
 30
0.0
 40
1.5
 50
90.0
 51
179.9998666844663
  0
LINE
  5
18628
  8
1PHANTOM
 10
4159.4038473635592
 20
-1609.9595447234269
 30
0.0
 11
4158.3038508537484
 21
-1609.9595447234269
 31
0.0
  0
LINE
  5
18629
  8
1PHANTOM
 10
4156.8038601609323
 20
-1604.4595412332339
 30
0.0
 11
4156.8038508537529
 21
-1608.4595412332351
 31
0.0
  0
ARC
  5
1862A
  8
1PHANTOM
 10
4158.3038508537484
 20
-1608.4595447234269
 30
0.0
 40
1.5
 50
179.9998666844663
 51
270.0
  0
LINE
  5
1862B
  8
1CENTER
 10
4200.0962615658009
 20
-1606.4595447234269
 30
0.0
 11
4155.7335790980324
 21
-1606.4595447234269
 31
0.0
  0
LINE
  5
1862C
  8
1PHANTOM
 10
4197.3038580535003
 20
-1605.3652209094321
 30
0.0
 11
4198.1038534875506
 21
-1607.3275559983081
 31
0.0
  0
LINE
  5
1862D
  8
1PHANTOM
 10
4198.1038534875506
 20
-1607.3275559983081
 30
0.0
 11
4198.4156233438043
 21
-1606.7392794232651
 31
0.0
  0
LINE
  5
1862E
  8
1PHANTOM
 10
4164.9038601607108
 20
-1604.459591259325
 30
0.0
 11
4165.7038508535279
 21
-1608.459591259325
 31
0.0
  0
LINE
  5
1862F
  8
1PHANTOM
 10
4186.1038601607161
 20
-1604.459591259325
 30
0.0
 11
4186.9038508535368
 21
-1608.459591259325
 31
0.0
  0
LINE
  5
18630
  8
1PHANTOM
 10
4189.303860160715
 20
-1604.459591259325
 30
0.0
 11
4190.1038508535376
 21
-1608.459591259325
 31
0.0
  0
LINE
  5
18631
  8
1PHANTOM
 10
4190.1038508535376
 20
-1608.459591259325
 30
0.0
 11
4190.2038520169353
 21
-1607.959591259325
 31
0.0
  0
LINE
  5
18632
  8
1PHANTOM
 10
4190.8038589973194
 20
-1604.959591259325
 30
0.0
 11
4190.9038601607153
 21
-1604.459591259325
 31
0.0
  0
LINE
  5
18633
  8
1PHANTOM
 10
4186.9038508535368
 20
-1608.459591259325
 30
0.0
 11
4187.0038520169346
 21
-1607.959591259325
 31
0.0
  0
LINE
  5
18634
  8
1PHANTOM
 10
4188.5038508535381
 20
-1608.459591259325
 30
0.0
 11
4188.6038520169341
 21
-1607.959591259325
 31
0.0
  0
LINE
  5
18635
  8
1PHANTOM
 10
4189.2038589973181
 20
-1604.959591259325
 30
0.0
 11
4189.303860160715
 21
-1604.459591259325
 31
0.0
  0
LINE
  5
18636
  8
1PHANTOM
 10
4187.6038589973177
 20
-1604.959591259325
 30
0.0
 11
4187.7038601607146
 21
-1604.459591259325
 31
0.0
  0
LINE
  5
18637
  8
1PHANTOM
 10
4187.7038601607146
 20
-1604.459591259325
 30
0.0
 11
4188.5038508535381
 21
-1608.459591259325
 31
0.0
  0
LINE
  5
18638
  8
1PHANTOM
 10
4196.5038524339461
 20
-1607.780370102714
 30
0.0
 11
4196.6866165765741
 21
-1607.228620638911
 31
0.0
  0
LINE
  5
18639
  8
1PHANTOM
 10
4193.3038508535383
 20
-1608.459591259325
 30
0.0
 11
4193.4038520169352
 21
-1607.959591259325
 31
0.0
  0
LINE
  5
1863A
  8
1PHANTOM
 10
4191.7038508535379
 20
-1608.459591259325
 30
0.0
 11
4191.8038520169339
 21
-1607.959591259325
 31
0.0
  0
LINE
  5
1863B
  8
1PHANTOM
 10
4194.9038513803407
 20
-1608.233184207121
 30
0.0
 11
4195.0331220779708
 21
-1607.69659047185
 31
0.0
  0
LINE
  5
1863C
  8
1PHANTOM
 10
4195.5910895947554
 20
-1605.3805058565331
 30
0.0
 11
4195.703859107105
 21
-1604.9124074013839
 31
0.0
  0
LINE
  5
1863D
  8
1PHANTOM
 10
4192.4038589973179
 20
-1604.959591259325
 30
0.0
 11
4192.5038601607148
 21
-1604.459591259325
 31
0.0
  0
LINE
  5
1863E
  8
1PHANTOM
 10
4194.0038589973183
 20
-1604.959591259325
 30
0.0
 11
4194.1038601607152
 21
-1604.459591259325
 31
0.0
  0
LINE
  5
1863F
  8
1PHANTOM
 10
4197.1524222570606
 20
-1605.822392750063
 30
0.0
 11
4197.3038580535003
 21
-1605.3652209094321
 31
0.0
  0
LINE
  5
18640
  8
1PHANTOM
 10
4195.703859107105
 20
-1604.9124074013839
 30
0.0
 11
4196.5038524339461
 21
-1607.780370102714
 31
0.0
  0
LINE
  5
18641
  8
1PHANTOM
 10
4192.5038601607148
 20
-1604.459591259325
 30
0.0
 11
4193.3038508535383
 21
-1608.459591259325
 31
0.0
  0
LINE
  5
18642
  8
1PHANTOM
 10
4194.1038601607152
 20
-1604.459591259325
 30
0.0
 11
4194.9038513803407
 21
-1608.233184207121
 31
0.0
  0
LINE
  5
18643
  8
1PHANTOM
 10
4190.9038601607153
 20
-1604.459591259325
 30
0.0
 11
4191.7038508535379
 21
-1608.459591259325
 31
0.0
  0
LINE
  5
18644
  8
1PHANTOM
 10
4178.1038601607097
 20
-1604.459591259325
 30
0.0
 11
4178.9038508535286
 21
-1608.459591259325
 31
0.0
  0
LINE
  5
18645
  8
1PHANTOM
 10
4178.9038508535286
 20
-1608.459591259325
 30
0.0
 11
4179.0038520169273
 21
-1607.959591259325
 31
0.0
  0
LINE
  5
18646
  8
1PHANTOM
 10
4179.6038589973168
 20
-1604.959591259325
 30
0.0
 11
4179.7038601607146
 21
-1604.459591259325
 31
0.0
  0
LINE
  5
18647
  8
1PHANTOM
 10
4177.3038508535292
 20
-1608.459591259325
 30
0.0
 11
4177.403852016927
 21
-1607.959591259325
 31
0.0
  0
LINE
  5
18648
  8
1PHANTOM
 10
4165.7038508535279
 20
-1608.459591259325
 30
0.0
 11
4165.8038520169257
 21
-1607.959591259325
 31
0.0
  0
LINE
  5
18649
  8
1PHANTOM
 10
4178.0038589973128
 20
-1604.959591259325
 30
0.0
 11
4178.1038601607097
 21
-1604.459591259325
 31
0.0
  0
LINE
  5
1864A
  8
1PHANTOM
 10
4176.4038589973134
 20
-1604.959591259325
 30
0.0
 11
4176.5038601607102
 21
-1604.459591259325
 31
0.0
  0
LINE
  5
1864B
  8
1PHANTOM
 10
4176.5038601607102
 20
-1604.459591259325
 30
0.0
 11
4177.3038508535292
 21
-1608.459591259325
 31
0.0
  0
LINE
  5
1864C
  8
1PHANTOM
 10
4183.7038508535334
 20
-1608.459591259325
 30
0.0
 11
4183.8038520169312
 21
-1607.959591259325
 31
0.0
  0
LINE
  5
1864D
  8
1PHANTOM
 10
4185.3038508535383
 20
-1608.459591259325
 30
0.0
 11
4185.4038520169352
 21
-1607.959591259325
 31
0.0
  0
LINE
  5
1864E
  8
1PHANTOM
 10
4180.5038508535335
 20
-1608.459591259325
 30
0.0
 11
4180.6038520169323
 21
-1607.959591259325
 31
0.0
  0
LINE
  5
1864F
  8
1PHANTOM
 10
4182.103850853533
 20
-1608.459591259325
 30
0.0
 11
4182.2038520169308
 21
-1607.959591259325
 31
0.0
  0
LINE
  5
18650
  8
1PHANTOM
 10
4186.0038589973183
 20
-1604.959591259325
 30
0.0
 11
4186.1038601607161
 21
-1604.459591259325
 31
0.0
  0
LINE
  5
18651
  8
1PHANTOM
 10
4184.4038589973179
 20
-1604.959591259325
 30
0.0
 11
4184.5038601607157
 21
-1604.459591259325
 31
0.0
  0
LINE
  5
18652
  8
1PHANTOM
 10
4181.2038589973163
 20
-1604.959591259325
 30
0.0
 11
4181.303860160715
 21
-1604.459591259325
 31
0.0
  0
LINE
  5
18653
  8
1PHANTOM
 10
4182.8038589973166
 20
-1604.959591259325
 30
0.0
 11
4182.9038601607153
 21
-1604.459591259325
 31
0.0
  0
LINE
  5
18654
  8
1PHANTOM
 10
4182.9038601607153
 20
-1604.459591259325
 30
0.0
 11
4183.7038508535334
 21
-1608.459591259325
 31
0.0
  0
LINE
  5
18655
  8
1PHANTOM
 10
4184.5038601607157
 20
-1604.459591259325
 30
0.0
 11
4185.3038508535383
 21
-1608.459591259325
 31
0.0
  0
LINE
  5
18656
  8
1PHANTOM
 10
4181.303860160715
 20
-1604.459591259325
 30
0.0
 11
4182.103850853533
 21
-1608.459591259325
 31
0.0
  0
LINE
  5
18657
  8
1PHANTOM
 10
4179.7038601607146
 20
-1604.459591259325
 30
0.0
 11
4180.5038508535335
 21
-1608.459591259325
 31
0.0
  0
LINE
  5
18658
  8
1PHANTOM
 10
4159.4038520170407
 20
-1607.959591259325
 30
0.0
 11
4159.4038589974252
 21
-1604.959591259325
 31
0.0
  0
LINE
  5
18659
  8
1PHANTOM
 10
4160.0038589973092
 20
-1604.959591259325
 30
0.0
 11
4160.103860160707
 21
-1604.459591259325
 31
0.0
  0
LINE
  5
1865A
  8
1PHANTOM
 10
4160.103860160707
 20
-1604.459591259325
 30
0.0
 11
4160.9038508535241
 21
-1608.459591259325
 31
0.0
  0
LINE
  5
1865B
  8
1PHANTOM
 10
4160.9038508535241
 20
-1608.459591259325
 30
0.0
 11
4161.0038520169219
 21
-1607.959591259325
 31
0.0
  0
LINE
  5
1865C
  8
1PHANTOM
 10
4161.6038589973086
 20
-1604.959591259325
 30
0.0
 11
4161.7038601607064
 21
-1604.459591259325
 31
0.0
  0
LINE
  5
1865D
  8
1PHANTOM
 10
4163.203858997309
 20
-1604.959591259325
 30
0.0
 11
4163.3038601607068
 21
-1604.459591259325
 31
0.0
  0
LINE
  5
1865E
  8
1PHANTOM
 10
4163.3038601607068
 20
-1604.459591259325
 30
0.0
 11
4164.1038508535239
 21
-1608.459591259325
 31
0.0
  0
LINE
  5
1865F
  8
1PHANTOM
 10
4162.5038508535254
 20
-1608.459591259325
 30
0.0
 11
4162.6038520169222
 21
-1607.959591259325
 31
0.0
  0
LINE
  5
18660
  8
1PHANTOM
 10
4164.1038508535239
 20
-1608.459591259325
 30
0.0
 11
4164.2038520169226
 21
-1607.959591259325
 31
0.0
  0
LINE
  5
18661
  8
1PHANTOM
 10
4161.7038601607064
 20
-1604.459591259325
 30
0.0
 11
4162.5038508535254
 21
-1608.459591259325
 31
0.0
  0
LINE
  5
18662
  8
1PHANTOM
 10
4164.803858997313
 20
-1604.959591259325
 30
0.0
 11
4164.9038601607108
 21
-1604.459591259325
 31
0.0
  0
LINE
  5
18663
  8
1PHANTOM
 10
4159.4038555073412
 20
-1610.4595447234269
 30
0.0
 11
4159.4038555073412
 21
-1602.4595447234269
 31
0.0
  0
LINE
  5
18664
  8
1PHANTOM
 10
4159.4038555073412
 20
-1606.6740028346439
 30
0.0
 11
4160.4038555073412
 21
-1606.096652565454
 31
0.0
  0
LINE
  5
18665
  8
1PHANTOM
 10
4160.4038555073412
 20
-1610.4595447234269
 30
0.0
 11
4160.4038555073448
 21
-1602.4595447234269
 31
0.0
  0
LINE
  5
18666
  8
1PHANTOM
 10
4170.1038601607061
 20
-1604.459591259325
 30
0.0
 11
4170.903850853525
 21
-1608.459591259325
 31
0.0
  0
LINE
  5
18667
  8
1PHANTOM
 10
4170.903850853525
 20
-1608.459591259325
 30
0.0
 11
4171.0038520169219
 21
-1607.959591259325
 31
0.0
  0
LINE
  5
18668
  8
1PHANTOM
 10
4171.6038589973132
 20
-1604.959591259325
 30
0.0
 11
4171.7038601607101
 21
-1604.459591259325
 31
0.0
  0
LINE
  5
18669
  8
1PHANTOM
 10
4169.3038508535237
 20
-1608.459591259325
 30
0.0
 11
4169.4038520169224
 21
-1607.959591259325
 31
0.0
  0
LINE
  5
1866A
  8
1PHANTOM
 10
4170.0038589973092
 20
-1604.959591259325
 30
0.0
 11
4170.1038601607061
 21
-1604.459591259325
 31
0.0
  0
LINE
  5
1866B
  8
1PHANTOM
 10
4168.4038589973088
 20
-1604.959591259325
 30
0.0
 11
4168.5038601607066
 21
-1604.459591259325
 31
0.0
  0
LINE
  5
1866C
  8
1PHANTOM
 10
4168.5038601607066
 20
-1604.459591259325
 30
0.0
 11
4169.3038508535237
 21
-1608.459591259325
 31
0.0
  0
LINE
  5
1866D
  8
1PHANTOM
 10
4175.7038508535288
 20
-1608.459591259325
 30
0.0
 11
4175.8038520169257
 21
-1607.959591259325
 31
0.0
  0
LINE
  5
1866E
  8
1PHANTOM
 10
4172.503850853529
 20
-1608.459591259325
 30
0.0
 11
4172.6038520169259
 21
-1607.959591259325
 31
0.0
  0
LINE
  5
1866F
  8
1PHANTOM
 10
4174.1038508535294
 20
-1608.459591259325
 30
0.0
 11
4174.2038520169262
 21
-1607.959591259325
 31
0.0
  0
LINE
  5
18670
  8
1PHANTOM
 10
4173.2038589973126
 20
-1604.959591259325
 30
0.0
 11
4173.3038601607104
 21
-1604.459591259325
 31
0.0
  0
LINE
  5
18671
  8
1PHANTOM
 10
4174.803858997313
 20
-1604.959591259325
 30
0.0
 11
4174.9038601607108
 21
-1604.459591259325
 31
0.0
  0
LINE
  5
18672
  8
1PHANTOM
 10
4174.9038601607108
 20
-1604.459591259325
 30
0.0
 11
4175.7038508535288
 21
-1608.459591259325
 31
0.0
  0
LINE
  5
18673
  8
1PHANTOM
 10
4173.3038601607104
 20
-1604.459591259325
 30
0.0
 11
4174.1038508535294
 21
-1608.459591259325
 31
0.0
  0
LINE
  5
18674
  8
1PHANTOM
 10
4171.7038601607101
 20
-1604.459591259325
 30
0.0
 11
4172.503850853529
 21
-1608.459591259325
 31
0.0
  0
LINE
  5
18675
  8
1PHANTOM
 10
4167.7038508535252
 20
-1608.459591259325
 30
0.0
 11
4167.8038520169221
 21
-1607.959591259325
 31
0.0
  0
LINE
  5
18676
  8
1PHANTOM
 10
4166.8038589973094
 20
-1604.959591259325
 30
0.0
 11
4166.9038601607072
 21
-1604.459591259325
 31
0.0
  0
LINE
  5
18677
  8
1PHANTOM
 10
4166.9038601607072
 20
-1604.459591259325
 30
0.0
 11
4167.7038508535252
 21
-1608.459591259325
 31
0.0
  0
LINE
  5
1867D
  8
1PHANTOM
 10
3716.7905720969052
 20
-1393.5244018589251
 30
0.0
 11
3715.2905720969052
 21
-1398.8243983687869
 31
0.0
  0
LINE
  5
1867E
  8
1PHANTOM
 10
3715.2905720969052
 20
-1398.8243983687869
 30
0.0
 11
3715.2905720969061
 21
-1429.5244018587609
 31
0.0
  0
LINE
  5
1867F
  8
1PHANTOM
 10
3716.7905720969052
 20
-1393.5244018589251
 30
0.0
 11
3718.2905720969052
 21
-1398.824405349171
 31
0.0
  0
LINE
  5
18680
  8
1PHANTOM
 10
3718.2905720969052
 20
-1398.824405349171
 30
0.0
 11
3718.2905720969052
 21
-1429.5244018587609
 31
0.0
  0
LINE
  5
18681
  8
1CENTER
 10
3716.7905255610081
 20
-1392.831995800303
 30
0.0
 11
3716.7905255610081
 21
-1431.2162946325859
 31
0.0
  0
LINE
  5
18682
  8
1PHANTOM
 10
3715.6962017470132
 20
-1395.624399312602
 30
0.0
 11
3717.6585368358878
 21
-1394.8244038785519
 31
0.0
  0
LINE
  5
18683
  8
1PHANTOM
 10
3717.6585368358878
 20
-1394.8244038785519
 30
0.0
 11
3717.0702602608462
 21
-1394.5126340222989
 31
0.0
  0
LINE
  5
18684
  8
1PHANTOM
 10
3714.7905720969052
 20
-1428.0243972053929
 30
0.0
 11
3718.7905720969061
 21
-1427.2244065125749
 31
0.0
  0
LINE
  5
18685
  8
1PHANTOM
 10
3714.7905720969052
 20
-1406.824397205389
 30
0.0
 11
3718.7905720969061
 21
-1406.024406512566
 31
0.0
  0
LINE
  5
18686
  8
1PHANTOM
 10
3714.7905720969052
 20
-1403.624397205389
 30
0.0
 11
3718.7905720969061
 21
-1402.8244065125659
 31
0.0
  0
LINE
  5
18687
  8
1PHANTOM
 10
3718.7905720969061
 20
-1402.8244065125659
 30
0.0
 11
3718.2905720969052
 21
-1402.7244053491679
 31
0.0
  0
LINE
  5
18688
  8
1PHANTOM
 10
3715.2905720969052
 20
-1402.124398368785
 30
0.0
 11
3714.7905720969052
 21
-1402.0243972053879
 31
0.0
  0
LINE
  5
18689
  8
1PHANTOM
 10
3718.7905720969061
 20
-1406.024406512566
 30
0.0
 11
3718.2905720969052
 21
-1405.924405349168
 31
0.0
  0
LINE
  5
1868A
  8
1PHANTOM
 10
3718.7905720969061
 20
-1404.4244065125661
 30
0.0
 11
3718.2905720969052
 21
-1404.324405349169
 31
0.0
  0
LINE
  5
1868B
  8
1PHANTOM
 10
3715.2905720969052
 20
-1403.7243983687861
 30
0.0
 11
3714.7905720969052
 21
-1403.624397205389
 31
0.0
  0
LINE
  5
1868C
  8
1PHANTOM
 10
3715.2905720969052
 20
-1405.3243983687851
 30
0.0
 11
3714.7905720969052
 21
-1405.224397205388
 31
0.0
  0
LINE
  5
1868D
  8
1PHANTOM
 10
3714.7905720969052
 20
-1405.224397205388
 30
0.0
 11
3718.7905720969061
 21
-1404.4244065125661
 31
0.0
  0
LINE
  5
1868E
  8
1PHANTOM
 10
3718.1113509402958
 20
-1396.424404932158
 30
0.0
 11
3717.559601476491
 21
-1396.24164078953
 31
0.0
  0
LINE
  5
1868F
  8
1PHANTOM
 10
3718.7905720969061
 20
-1399.6244065125661
 30
0.0
 11
3718.2905720969052
 21
-1399.524405349169
 31
0.0
  0
LINE
  5
18690
  8
1PHANTOM
 10
3718.7905720969061
 20
-1401.224406512566
 30
0.0
 11
3718.2905720969052
 21
-1401.1244053491689
 31
0.0
  0
LINE
  5
18691
  8
1PHANTOM
 10
3718.5641650447019
 20
-1398.024405985763
 30
0.0
 11
3718.0275713094311
 21
-1397.8951352881329
 31
0.0
  0
LINE
  5
18692
  8
1PHANTOM
 10
3715.7114866941138
 20
-1397.337167771348
 30
0.0
 11
3715.2433882389651
 21
-1397.2243982589989
 31
0.0
  0
LINE
  5
18693
  8
1PHANTOM
 10
3715.2905720969052
 20
-1400.524398368786
 30
0.0
 11
3714.7905720969052
 21
-1400.424397205388
 31
0.0
  0
LINE
  5
18694
  8
1PHANTOM
 10
3715.2905720969052
 20
-1398.9243983687859
 30
0.0
 11
3714.7905720969052
 21
-1398.824397205389
 31
0.0
  0
LINE
  5
18695
  8
1PHANTOM
 10
3716.1533735876442
 20
-1395.7758351090431
 30
0.0
 11
3715.6962017470132
 21
-1395.624399312602
 31
0.0
  0
LINE
  5
18696
  8
1PHANTOM
 10
3715.2433882389651
 20
-1397.2243982589989
 30
0.0
 11
3718.1113509402958
 21
-1396.424404932158
 31
0.0
  0
LINE
  5
18697
  8
1PHANTOM
 10
3714.7905720969052
 20
-1400.424397205388
 30
0.0
 11
3718.7905720969061
 21
-1399.6244065125661
 31
0.0
  0
LINE
  5
18698
  8
1PHANTOM
 10
3714.7905720969052
 20
-1398.824397205389
 30
0.0
 11
3718.5641650447019
 21
-1398.024405985763
 31
0.0
  0
LINE
  5
18699
  8
1PHANTOM
 10
3714.7905720969052
 20
-1402.0243972053879
 30
0.0
 11
3718.7905720969061
 21
-1401.224406512566
 31
0.0
  0
LINE
  5
1869A
  8
1PHANTOM
 10
3714.7905720969052
 20
-1414.8243972053931
 30
0.0
 11
3718.7905720969061
 21
-1414.0244065125739
 31
0.0
  0
LINE
  5
1869B
  8
1PHANTOM
 10
3718.7905720969061
 20
-1414.0244065125739
 30
0.0
 11
3718.2905720969052
 21
-1413.9244053491759
 31
0.0
  0
LINE
  5
1869C
  8
1PHANTOM
 10
3715.2905720969052
 20
-1413.324398368786
 30
0.0
 11
3714.7905720969052
 21
-1413.224397205388
 31
0.0
  0
LINE
  5
1869D
  8
1PHANTOM
 10
3718.7905720969061
 20
-1415.624406512575
 30
0.0
 11
3718.2905720969052
 21
-1415.524405349177
 31
0.0
  0
LINE
  5
1869E
  8
1PHANTOM
 10
3718.7905720969061
 20
-1427.2244065125749
 30
0.0
 11
3718.2905720969052
 21
-1427.1244053491771
 31
0.0
  0
LINE
  5
1869F
  8
1PHANTOM
 10
3715.2905720969052
 20
-1414.92439836879
 30
0.0
 11
3714.7905720969052
 21
-1414.8243972053931
 31
0.0
  0
LINE
  5
186A0
  8
1PHANTOM
 10
3715.2905720969052
 20
-1416.524398368791
 30
0.0
 11
3714.7905720969052
 21
-1416.424397205393
 31
0.0
  0
LINE
  5
186A1
  8
1PHANTOM
 10
3714.7905720969052
 20
-1416.424397205393
 30
0.0
 11
3718.7905720969061
 21
-1415.624406512575
 31
0.0
  0
LINE
  5
186A2
  8
1PHANTOM
 10
3718.7905720969061
 20
-1409.224406512571
 30
0.0
 11
3718.2905720969052
 21
-1409.124405349173
 31
0.0
  0
LINE
  5
186A3
  8
1PHANTOM
 10
3718.7905720969061
 20
-1407.6244065125661
 30
0.0
 11
3718.2905720969052
 21
-1407.524405349169
 31
0.0
  0
LINE
  5
186A4
  8
1PHANTOM
 10
3718.7905720969061
 20
-1412.4244065125699
 30
0.0
 11
3718.2905720969052
 21
-1412.3244053491719
 31
0.0
  0
LINE
  5
186A5
  8
1PHANTOM
 10
3718.7905720969061
 20
-1410.82440651257
 30
0.0
 11
3718.2905720969052
 21
-1410.7244053491729
 31
0.0
  0
LINE
  5
186A6
  8
1PHANTOM
 10
3715.2905720969052
 20
-1406.9243983687859
 30
0.0
 11
3714.7905720969052
 21
-1406.824397205389
 31
0.0
  0
LINE
  5
186A7
  8
1PHANTOM
 10
3715.2905720969052
 20
-1408.524398368786
 30
0.0
 11
3714.7905720969052
 21
-1408.424397205388
 31
0.0
  0
LINE
  5
186A8
  8
1PHANTOM
 10
3715.2905720969052
 20
-1411.724398368787
 30
0.0
 11
3714.7905720969052
 21
-1411.624397205389
 31
0.0
  0
LINE
  5
186A9
  8
1PHANTOM
 10
3715.2905720969052
 20
-1410.1243983687859
 30
0.0
 11
3714.7905720969052
 21
-1410.0243972053879
 31
0.0
  0
LINE
  5
186AA
  8
1PHANTOM
 10
3714.7905720969052
 20
-1410.0243972053879
 30
0.0
 11
3718.7905720969061
 21
-1409.224406512571
 31
0.0
  0
LINE
  5
186AB
  8
1PHANTOM
 10
3714.7905720969052
 20
-1408.424397205388
 30
0.0
 11
3718.7905720969061
 21
-1407.6244065125661
 31
0.0
  0
LINE
  5
186AC
  8
1PHANTOM
 10
3714.7905720969052
 20
-1411.624397205389
 30
0.0
 11
3718.7905720969061
 21
-1410.82440651257
 31
0.0
  0
LINE
  5
186AD
  8
1PHANTOM
 10
3714.7905720969052
 20
-1413.224397205388
 30
0.0
 11
3718.7905720969061
 21
-1412.4244065125699
 31
0.0
  0
LINE
  5
186AE
  8
1PHANTOM
 10
3715.2905720969052
 20
-1428.1243983687909
 30
0.0
 11
3714.7905720969052
 21
-1428.0243972053929
 31
0.0
  0
LINE
  5
186AF
  8
1PHANTOM
 10
3714.7905720969052
 20
-1422.8243972053981
 30
0.0
 11
3718.7905720969061
 21
-1422.0244065125789
 31
0.0
  0
LINE
  5
186B0
  8
1PHANTOM
 10
3718.7905720969061
 20
-1422.0244065125789
 30
0.0
 11
3718.2905720969052
 21
-1421.9244053491809
 31
0.0
  0
LINE
  5
186B1
  8
1PHANTOM
 10
3715.2905720969052
 20
-1421.324398368791
 30
0.0
 11
3714.7905720969052
 21
-1421.224397205393
 31
0.0
  0
LINE
  5
186B2
  8
1PHANTOM
 10
3718.7905720969061
 20
-1423.6244065125791
 30
0.0
 11
3718.2905720969052
 21
-1423.5244053491811
 31
0.0
  0
LINE
  5
186B3
  8
1PHANTOM
 10
3715.2905720969052
 20
-1422.924398368795
 30
0.0
 11
3714.7905720969052
 21
-1422.8243972053981
 31
0.0
  0
LINE
  5
186B4
  8
1PHANTOM
 10
3715.2905720969052
 20
-1424.5243983687949
 30
0.0
 11
3714.7905720969052
 21
-1424.4243972053971
 31
0.0
  0
LINE
  5
186B5
  8
1PHANTOM
 10
3714.7905720969052
 20
-1424.4243972053971
 30
0.0
 11
3718.7905720969061
 21
-1423.6244065125791
 31
0.0
  0
LINE
  5
186B6
  8
1PHANTOM
 10
3718.7905720969061
 20
-1417.2244065125749
 30
0.0
 11
3718.2905720969052
 21
-1417.1244053491771
 31
0.0
  0
LINE
  5
186B7
  8
1PHANTOM
 10
3718.7905720969061
 20
-1420.4244065125749
 30
0.0
 11
3718.2905720969052
 21
-1420.3244053491769
 31
0.0
  0
LINE
  5
186B8
  8
1PHANTOM
 10
3718.7905720969061
 20
-1418.8244065125739
 30
0.0
 11
3718.2905720969052
 21
-1418.7244053491779
 31
0.0
  0
LINE
  5
186B9
  8
1PHANTOM
 10
3715.2905720969052
 20
-1419.7243983687911
 30
0.0
 11
3714.7905720969052
 21
-1419.6243972053931
 31
0.0
  0
LINE
  5
186BA
  8
1PHANTOM
 10
3715.2905720969052
 20
-1418.1243983687909
 30
0.0
 11
3714.7905720969052
 21
-1418.0243972053929
 31
0.0
  0
LINE
  5
186BB
  8
1PHANTOM
 10
3714.7905720969052
 20
-1418.0243972053929
 30
0.0
 11
3718.7905720969061
 21
-1417.2244065125749
 31
0.0
  0
LINE
  5
186BC
  8
1PHANTOM
 10
3714.7905720969052
 20
-1419.6243972053931
 30
0.0
 11
3718.7905720969061
 21
-1418.8244065125739
 31
0.0
  0
LINE
  5
186BD
  8
1PHANTOM
 10
3714.7905720969052
 20
-1421.224397205393
 30
0.0
 11
3718.7905720969061
 21
-1420.4244065125749
 31
0.0
  0
LINE
  5
186BE
  8
1PHANTOM
 10
3718.7905720969061
 20
-1425.224406512579
 30
0.0
 11
3718.2905720969052
 21
-1425.124405349181
 31
0.0
  0
LINE
  5
186BF
  8
1PHANTOM
 10
3715.2905720969052
 20
-1426.1243983687939
 30
0.0
 11
3714.7905720969052
 21
-1426.024397205397
 31
0.0
  0
LINE
  5
186C0
  8
1PHANTOM
 10
3714.7905720969052
 20
-1426.024397205397
 30
0.0
 11
3718.7905720969061
 21
-1425.224406512579
 31
0.0
  0
LINE
  5
186C3
  8
1PHANTOM
 10
3718.7905720969061
 20
-1429.224406512571
 30
0.0
 11
3718.2905720969052
 21
-1429.1244053491739
 31
0.0
  0
LINE
  5
186C5
  8
1PHANTOM
 10
3717.2905779150601
 20
-1429.5244018587609
 30
0.0
 11
3718.7905720969061
 21
-1429.224406512571
 31
0.0
  0
LINE
  5
186C6
  8
01
 10
3718.2905720969052
 20
-1428.724401858761
 30
0.0
 11
3721.7905255610081
 21
-1428.724401858761
 31
0.0
  0
TEXT
  5
186C7
  8
1TEXT
 10
3813.9339183541979
 20
-1369.8028060917829
 30
0.0
 40
8.0
  1
表面処理：
 72
     1
 11
3835.2291564494349
 21
-1369.8028060917829
 31
0.0
  0
TEXT
  5
186C8
  8
1TEXT
 10
3801.735823116102
 20
-1383.473383410832
 30
0.0
 40
8.0
  1
ブラストアルマイト
 41
0.8
 72
     1
 11
3835.2291564494349
 21
-1383.473383410832
 31
0.0
  0
LINE
  5
186C9
  8
1DIM
 10
3730.4291564494351
 20
-1358.8028060917829
 30
0.0
 11
3940.4291564494361
 21
-1358.8028060917829
 31
0.0
  0
LINE
  5
186CA
  8
1DIM
 10
3730.4291564494351
 20
-1386.8028060917829
 30
0.0
 11
3940.4291564494361
 21
-1386.8028060917829
 31
0.0
  0
LINE
  5
186CB
  8
1DIM
 10
3730.4291564494351
 20
-1372.8028060917829
 30
0.0
 11
3940.4291564494361
 21
-1372.8028060917829
 31
0.0
  0
LINE
  5
186CC
  8
1DIM
 10
3800.4291564494351
 20
-1358.8028060917829
 30
0.0
 11
3800.4291564494351
 21
-1386.8028060917829
 31
0.0
  0
TEXT
  5
186CD
  8
1TEXT
 10
3736.4291564494361
 20
-1384.231520059082
 30
0.0
 40
8.0
  1
GP010XS24A
 41
0.8
 72
     1
 11
3765.2291564494358
 21
-1384.231520059082
 31
0.0
  0
TEXT
  5
186CE
  8
1TEXT
 10
3751.629156449435
 20
-1369.8028060917829
 30
0.0
 40
8.0
  1
コード
 72
     1
 11
3765.2291564494358
 21
-1369.8028060917829
 31
0.0
  0
LINE
  5
186CF
  8
1DIM
 10
3730.4291564494338
 20
-1386.8028060917829
 30
0.0
 11
3730.4291564494351
 21
-1358.8028060917829
 31
0.0
  0
LINE
  5
186D0
  8
1DIM
 10
3870.4291564494361
 20
-1386.8028060917829
 30
0.0
 11
3870.4291564494361
 21
-1358.8028060917829
 31
0.0
  0
TEXT
  5
186D1
  8
1TEXT
 10
3729.303596225046
 20
-1350.0539535831181
 30
0.0
 40
16.0
  1
GP010
  0
LINE
  5
18910
  8
1CENTER
 10
3988.540525561009
 20
-1590.494699550705
 30
0.0
 11
3988.540525561009
 21
-1825.4679216437451
 31
0.0
  0
LINE
  5
19271
  8
1PHANTOM
 10
4115.2942209373778
 20
-1982.162693432728
 30
0.0
 11
3767.2942209373741
 21
-1982.162693432728
 31
0.0
  0
LINE
  5
19272
  8
1PHANTOM
 10
3766.7942209373741
 20
-1982.662693432728
 30
0.0
 11
3767.2942209373741
 21
-1982.162693432728
 31
0.0
  0
LINE
  5
19273
  8
1PHANTOM
 10
4115.7942209373768
 20
-1982.662693432728
 30
0.0
 11
4115.7942209373741
 21
-2206.2626934327282
 31
0.0
  0
LINE
  5
19275
  8
1PHANTOM
 10
4115.2942209373778
 20
-1982.162693432728
 30
0.0
 11
4115.7942209373768
 21
-1982.662693432728
 31
0.0
  0
LINE
  5
19276
  8
1PHANTOM
 10
3766.7942209373741
 20
-1982.662693432728
 30
0.0
 11
3766.7942209373741
 21
-2206.2626934327282
 31
0.0
  0
LINE
  5
19277
  8
1PHANTOM
 10
3767.2942209373741
 20
-2206.7626934327282
 30
0.0
 11
3766.7942209373741
 21
-2206.2626934327282
 31
0.0
  0
LINE
  5
19278
  8
1PHANTOM
 10
4115.2942209373741
 20
-2206.7626934327282
 30
0.0
 11
3767.2942209373741
 21
-2206.7626934327282
 31
0.0
  0
LINE
  5
19279
  8
1PHANTOM
 10
4115.7942209373741
 20
-2206.2626934327282
 30
0.0
 11
4115.2942209373741
 21
-2206.7626934327282
 31
0.0
  0
LINE
  5
192C0
  8
1PHANTOM
 10
3767.2942209373768
 20
-2132.212693432728
 30
0.0
 11
3766.7942209373782
 21
-2132.712693432728
 31
0.0
  0
LINE
  5
192C7
  8
01
 10
3991.2942209373741
 20
-1982.662693432726
 30
0.0
 11
3991.7942209373741
 21
-1982.162693432726
 31
0.0
  0
CIRCLE
  5
19345
  8
1HIDDEN
 10
3781.7942209373741
 20
-2185.962693432728
 30
0.0
 40
2.0
  0
LINE
  5
1934F
  8
1CENTER
 10
3785.0559579795499
 20
-2185.962693432728
 30
0.0
 11
3778.5324838951979
 21
-2185.962693432728
 31
0.0
  0
LINE
  5
19350
  8
1CENTER
 10
3781.7942209373741
 20
-2182.7009563905522
 30
0.0
 11
3781.7942209373741
 21
-2189.2244304749038
 31
0.0
  0
ARC
  5
19351
  8
1PHANTOM
 10
4079.7942209373732
 20
-2194.462693432728
 30
0.0
 40
2.5
 50
90.0
 51
270.0
  0
LINE
  5
19352
  8
1CENTER
 10
4087.7924021212179
 20
-2194.462693432728
 30
0.0
 11
4075.7960397535289
 21
-2194.462693432728
 31
0.0
  0
LINE
  5
19353
  8
1CENTER
 10
4081.7942209373741
 20
-2188.4645122488841
 30
0.0
 11
4081.7942209373741
 21
-2200.4608746165718
 31
0.0
  0
ARC
  5
19354
  8
1PHANTOM
 10
4083.7942209373732
 20
-2194.462693432728
 30
0.0
 40
2.5
 50
270.0
 51
90.0
  0
LINE
  5
19355
  8
1PHANTOM
 10
4079.7942209373732
 20
-2191.962693432728
 30
0.0
 11
4083.7942209373732
 21
-2191.962693432728
 31
0.0
  0
LINE
  5
19356
  8
1PHANTOM
 10
4079.7942209373732
 20
-2196.962693432728
 30
0.0
 11
4083.7942209373732
 21
-2196.962693432728
 31
0.0
  0
CIRCLE
  5
19357
  8
1PHANTOM
 10
3781.7942209373741
 20
-1994.462693432728
 30
0.0
 40
2.5
  0
LINE
  5
19358
  8
1CENTER
 10
3787.7924021212179
 20
-1994.462693432728
 30
0.0
 11
3775.7960397535289
 21
-1994.462693432728
 31
0.0
  0
LINE
  5
19359
  8
1CENTER
 10
3781.7942209373741
 20
-2000.460874616572
 30
0.0
 11
3781.7942209373741
 21
-1988.4645122488839
 31
0.0
  0
ARC
  5
1935A
  8
1PHANTOM
 10
4079.7942209373732
 20
-1994.462693432728
 30
0.0
 40
2.5
 50
90.0
 51
270.0
  0
LINE
  5
1935B
  8
1CENTER
 10
4087.7924021212179
 20
-1994.462693432728
 30
0.0
 11
4075.7960397535289
 21
-1994.462693432728
 31
0.0
  0
LINE
  5
1935C
  8
1CENTER
 10
4081.7942209373741
 20
-2000.460874616572
 30
0.0
 11
4081.7942209373741
 21
-1988.4645122488839
 31
0.0
  0
ARC
  5
1935D
  8
1PHANTOM
 10
4083.7942209373732
 20
-1994.462693432728
 30
0.0
 40
2.5
 50
270.0
 51
90.0
  0
LINE
  5
1935E
  8
1PHANTOM
 10
4079.7942209373732
 20
-1996.962693432728
 30
0.0
 11
4083.7942209373732
 21
-1996.962693432728
 31
0.0
  0
LINE
  5
1935F
  8
1PHANTOM
 10
4079.7942209373732
 20
-1991.962693432728
 30
0.0
 11
4083.7942209373732
 21
-1991.962693432728
 31
0.0
  0
LINE
  5
19509
  8
01
 10
4088.5442209373741
 20
-2025.4126934327271
 30
0.0
 11
4088.5442209373732
 21
-2163.4126934327269
 31
0.0
  0
ARC
  5
1950A
  8
01
 10
4083.5442209373741
 20
-2025.4126934327271
 30
0.0
 40
5.0
 50
0.0
 51
90.0
  0
LINE
  5
1950B
  8
01
 10
4018.5442209373741
 20
-2025.4126934327271
 30
0.0
 11
4018.5442209373741
 21
-2163.4126934327269
 31
0.0
  0
ARC
  5
1950C
  8
01
 10
4023.5442209373741
 20
-2163.4126934327269
 30
0.0
 40
5.0
 50
180.0
 51
270.0
  0
LINE
  5
1950D
  8
01
 10
4083.5442209373741
 20
-2168.4126934327278
 30
0.0
 11
4023.5442209373741
 21
-2168.4126934327278
 31
0.0
  0
ARC
  5
1950E
  8
01
 10
4083.5442209373741
 20
-2163.4126934327269
 30
0.0
 40
5.0
 50
270.0
 51
359.99999999999977
  0
LINE
  5
1950F
  8
01
 10
4083.5442209373741
 20
-2020.412693432728
 30
0.0
 11
4023.5442209373732
 21
-2020.412693432728
 31
0.0
  0
ARC
  5
19510
  8
01
 10
4023.5442209373732
 20
-2025.4126934327271
 30
0.0
 40
5.0
 50
90.0
 51
180.0
  0
LINE
  5
19515
  8
1CENTER
 10
4053.5442209373741
 20
-1978.4978017241081
 30
0.0
 11
4053.5442209373741
 21
-2213.4710238171479
 31
0.0
  0
LINE
  5
1951B
  8
1CENTER
 10
4119.8061051875056
 20
-2094.4626934327289
 30
0.0
 11
3757.2763403139111
 21
-2094.4626934327289
 31
0.0
  0
TEXT
  5
1A3AD
  8
1TEXT
 10
3887.0958231161021
 20
-1369.8028060917829
 30
0.0
 40
8.0
  1
対応子機
 72
     1
 11
3905.2291564494349
 21
-1369.8028060917829
 31
0.0
  0
TEXT
  5
1A3AE
  8
1TEXT
 10
3871.8291564494348
 20
-1383.473383410832
 30
0.0
 40
8.0
  1
パナソニック電工EJ1580「」
 41
0.5
 72
     1
 11
3905.2291564494349
 21
-1383.473383410832
 31
0.0
  0
LINE
  5
1A3AF
  8
1DIM
 10
3940.4291564494351
 20
-1386.8028060917829
 30
0.0
 11
3940.4291564494351
 21
-1358.8028060917829
 31
0.0
  0
LINE
  5
1A44E
  8
01
 10
3964.0544755610122
 20
-1752.2095912593311
 30
0.0
 11
3966.0544755610122
 21
-1752.2095912593311
 31
0.0
  0
LINE
  5
1A44F
  8
01
 10
3964.0544755610122
 20
-1760.7095912593311
 30
0.0
 11
3966.0544755610122
 21
-1760.7095912593311
 31
0.0
  0
LINE
  5
1A450
  8
01
 10
3970.0544755610122
 20
-1744.4595912593311
 30
0.0
 11
4007.0544755610122
 21
-1744.4595912593311
 31
0.0
  0
ARC
  5
1A451
  8
01
 10
3970.0544755610122
 20
-1744.9595912593311
 30
0.0
 40
0.5
 50
90.0
 51
180.0
  0
LINE
  5
1A452
  8
01
 10
3970.0544755610122
 20
-1768.4595912593311
 30
0.0
 11
4007.0544755610122
 21
-1768.4595912593311
 31
0.0
  0
ARC
  5
1A453
  8
01
 10
4007.0544755610122
 20
-1767.9595912593311
 30
0.0
 40
0.5
 50
270.0
 51
0.0
  0
LINE
  5
1A454
  8
01
 10
3964.0544755610122
 20
-1752.2095912593311
 30
0.0
 11
3964.0544755610122
 21
-1760.7095912593311
 31
0.0
  0
LINE
  5
1A455
  8
01
 10
3966.0544755610122
 20
-1752.2095912593311
 30
0.0
 11
3966.0544755610122
 21
-1760.7095912593311
 31
0.0
  0
LINE
  5
1A456
  8
01
 10
4007.5544755610122
 20
-1744.9595912593311
 30
0.0
 11
4007.5544755610122
 21
-1767.9595912593311
 31
0.0
  0
ARC
  5
1A457
  8
01
 10
4007.0544755610122
 20
-1744.9595912593311
 30
0.0
 40
0.5
 50
0.0
 51
90.0
  0
LINE
  5
1A458
  8
01
 10
3969.5544755610122
 20
-1744.9595912593311
 30
0.0
 11
3969.5544755610122
 21
-1767.9595912593311
 31
0.0
  0
ARC
  5
1A459
  8
01
 10
3970.0544755610122
 20
-1767.9595912593311
 30
0.0
 40
0.5
 50
180.0
 51
270.0
  0
LINE
  5
1A45A
  8
01
 10
3957.0544755610122
 20
-1689.4595912593311
 30
0.0
 11
4020.0544755610122
 21
-1689.4595912593311
 31
0.0
  0
LINE
  5
1A45B
  8
01
 10
3957.0544755610122
 20
-1693.4595912593311
 30
0.0
 11
4020.0544755610122
 21
-1693.4595912593311
 31
0.0
  0
LINE
  5
1A45C
  8
01
 10
3957.0544755610122
 20
-1689.4595912593311
 30
0.0
 11
3957.0544755610122
 21
-1693.4595912593311
 31
0.0
  0
LINE
  5
1A45D
  8
01
 10
3957.0544755610122
 20
-1697.4595912593311
 30
0.0
 11
3957.0544755610122
 21
-1701.4595912593311
 31
0.0
  0
LINE
  5
1A45E
  8
01
 10
3957.0544755610122
 20
-1705.4595912593311
 30
0.0
 11
3957.0544755610122
 21
-1709.4595912593311
 31
0.0
  0
LINE
  5
1A45F
  8
01
 10
3957.0544755610122
 20
-1713.4595912593311
 30
0.0
 11
3957.0544755610122
 21
-1717.4595912593311
 31
0.0
  0
LINE
  5
1A460
  8
01
 10
3957.0544755610122
 20
-1721.4595912593311
 30
0.0
 11
3957.0544755610122
 21
-1725.4595912593311
 31
0.0
  0
LINE
  5
1A461
  8
01
 10
3957.0544755610122
 20
-1729.4595912593311
 30
0.0
 11
3957.0544755610122
 21
-1733.4595912593311
 31
0.0
  0
LINE
  5
1A462
  8
01
 10
4020.0544755610122
 20
-1689.4595912593311
 30
0.0
 11
4020.0544755610122
 21
-1693.4595912593311
 31
0.0
  0
LINE
  5
1A463
  8
01
 10
4020.0544755610122
 20
-1697.4595912593311
 30
0.0
 11
4020.0544755610122
 21
-1701.4595912593311
 31
0.0
  0
LINE
  5
1A464
  8
01
 10
4020.0544755610122
 20
-1705.4595912593311
 30
0.0
 11
4020.0544755610122
 21
-1709.4595912593311
 31
0.0
  0
LINE
  5
1A465
  8
01
 10
4020.0544755610122
 20
-1713.4595912593311
 30
0.0
 11
4020.0544755610122
 21
-1717.4595912593311
 31
0.0
  0
LINE
  5
1A466
  8
01
 10
4020.0544755610122
 20
-1721.4595912593311
 30
0.0
 11
4020.0544755610122
 21
-1725.4595912593311
 31
0.0
  0
LINE
  5
1A467
  8
01
 10
4020.0544755610122
 20
-1729.4595912593311
 30
0.0
 11
4020.0544755610122
 21
-1733.4595912593311
 31
0.0
  0
LINE
  5
1A468
  8
01
 10
3957.0544755610122
 20
-1697.4595912593311
 30
0.0
 11
4020.0544755610122
 21
-1697.4595912593311
 31
0.0
  0
LINE
  5
1A469
  8
01
 10
3957.0544755610122
 20
-1701.4595912593311
 30
0.0
 11
4020.0544755610122
 21
-1701.4595912593311
 31
0.0
  0
LINE
  5
1A46A
  8
01
 10
3957.0544755610122
 20
-1705.4595912593311
 30
0.0
 11
4020.0544755610122
 21
-1705.4595912593311
 31
0.0
  0
LINE
  5
1A46B
  8
01
 10
3957.0544755610122
 20
-1709.4595912593311
 30
0.0
 11
4020.0544755610122
 21
-1709.4595912593311
 31
0.0
  0
LINE
  5
1A46C
  8
01
 10
3957.0544755610122
 20
-1713.4595912593311
 30
0.0
 11
4020.0544755610122
 21
-1713.4595912593311
 31
0.0
  0
LINE
  5
1A46D
  8
01
 10
3957.0544755610122
 20
-1717.4595912593311
 30
0.0
 11
4020.0544755610122
 21
-1717.4595912593311
 31
0.0
  0
LINE
  5
1A46E
  8
01
 10
3957.0544755610122
 20
-1721.4595912593311
 30
0.0
 11
4020.0544755610122
 21
-1721.4595912593311
 31
0.0
  0
LINE
  5
1A46F
  8
01
 10
3957.0544755610122
 20
-1725.4595912593311
 30
0.0
 11
4020.0544755610122
 21
-1725.4595912593311
 31
0.0
  0
LINE
  5
1A470
  8
01
 10
3957.0544755610122
 20
-1729.4595912593311
 30
0.0
 11
4020.0544755610122
 21
-1729.4595912593311
 31
0.0
  0
LINE
  5
1A471
  8
01
 10
3957.0544755610122
 20
-1733.4595912593311
 30
0.0
 11
4020.0544755610122
 21
-1733.4595912593311
 31
0.0
  0
LINE
  5
1A472
  8
01
 10
3957.0544755610122
 20
-1681.4595912593311
 30
0.0
 11
4020.0544755610122
 21
-1681.4595912593311
 31
0.0
  0
LINE
  5
1A473
  8
01
 10
3957.0544755610122
 20
-1685.4595912593311
 30
0.0
 11
4020.0544755610122
 21
-1685.4595912593311
 31
0.0
  0
LINE
  5
1A474
  8
01
 10
3957.0544755610122
 20
-1681.4595912593311
 30
0.0
 11
3957.0544755610122
 21
-1685.4595912593311
 31
0.0
  0
LINE
  5
1A475
  8
01
 10
4020.0544755610122
 20
-1681.4595912593311
 30
0.0
 11
4020.0544755610122
 21
-1685.4595912593311
 31
0.0
  0
LINE
  5
1A476
  8
01
 10
3957.0544755610122
 20
-1673.4595912593311
 30
0.0
 11
4020.0544755610122
 21
-1673.4595912593311
 31
0.0
  0
LINE
  5
1A477
  8
01
 10
3957.0544755610122
 20
-1677.4595912593311
 30
0.0
 11
4020.0544755610122
 21
-1677.4595912593311
 31
0.0
  0
LINE
  5
1A478
  8
01
 10
3957.0544755610122
 20
-1673.4595912593311
 30
0.0
 11
3957.0544755610122
 21
-1677.4595912593311
 31
0.0
  0
LINE
  5
1A479
  8
01
 10
4020.0544755610122
 20
-1673.4595912593311
 30
0.0
 11
4020.0544755610122
 21
-1677.4595912593311
 31
0.0
  0
CIRCLE
  5
1A59E
  8
01
 10
3988.7905255610158
 20
-1450.0244018587609
 30
0.0
 40
3.0
  0
CIRCLE
  5
1A59F
  8
01
 10
3814.2905255610108
 20
-1450.0244018587609
 30
0.0
 40
3.0
  0
TEXT
  5
1A5A0
  8
1DIM
 10
3888.8406391026701
 20
-2052.9741222928728
 30
0.0
 40
10.5
  1
スイッチボックス中心
  0
SOLID
  5
1A5A1
  8
1DIM
 10
4050.420266044885
 20
-2089.2472775794681
 30
0.0
 11
4053.5372453543332
 21
-2094.4707285445361
 31
0.0
 12
4048.8946592080761
 22
-2090.5405384887522
 32
0.0
 13
4048.8946592080761
 23
-2090.5405384887522
 33
0.0
1001
ACAD
1000
DSTYLE
1002
{
1070
    40
1040
3.0
1002
}
  0
LINE
  5
1A5A3
  8
1DIM
 10
3757.2763403139111
 20
-2094.4626934327289
 30
0.0
 11
3738.7942209373741
 21
-2094.4626934327289
 31
0.0
  0
LINE
  5
1A5A4
  8
1DIM
 10
3767.2942209373741
 20
-2206.7626934327282
 30
0.0
 11
3738.7942209373741
 21
-2206.7626934327282
 31
0.0
  0
LINE
  5
1A5A5
  8
1DIM
 10
3741.7942209373741
 20
-2100.462693432728
 30
0.0
 11
3741.7942209373741
 21
-2200.7626934327282
 31
0.0
  0
LINE
  5
1A5A9
  8
1DIM
 10
4053.5442209373741
 20
-1978.4978017241081
 30
0.0
 11
4053.5442209373741
 21
-1935.3790712526779
 31
0.0
  0
LINE
  5
1A5AA
  8
1DIM
 10
4115.7942209373768
 20
-1982.662693432728
 30
0.0
 11
4115.7942209373768
 21
-1935.3790712526779
 31
0.0
  0
LINE
  5
1A5AB
  8
1DIM
 10
4059.5442209373741
 20
-1938.3790712526779
 30
0.0
 11
4109.7942209373768
 21
-1938.3790712526779
 31
0.0
  0
LINE
  5
1A5AF
  8
1DIM
 10
3778.5324838951979
 20
-2185.962693432728
 30
0.0
 11
3713.7942209373741
 21
-2185.962693432728
 31
0.0
  0
LINE
  5
1A5B0
  8
1DIM
 10
3767.2942209373741
 20
-2206.7626934327282
 30
0.0
 11
3713.7942209373741
 21
-2206.7626934327282
 31
0.0
  0
LINE
  5
1A5B1
  8
1DIM
 10
3716.7942209373732
 20
-2191.962693432728
 30
0.0
 11
3716.7942209373732
 21
-2200.7626934327282
 31
0.0
  0
LINE
  5
1A5B5
  8
1DIM
 10
4087.7924021212179
 20
-2194.462693432728
 30
0.0
 11
4168.7942209373759
 21
-2194.462693432728
 31
0.0
  0
LINE
  5
1A5B6
  8
1DIM
 10
4115.2942209373741
 20
-2206.7626934327282
 30
0.0
 11
4168.7942209373759
 21
-2206.7626934327282
 31
0.0
  0
LINE
  5
1A5B7
  8
1DIM
 10
4165.794220937375
 20
-2188.462693432728
 30
0.0
 11
4165.794220937375
 21
-2182.462693432728
 31
0.0
  0
LINE
  5
1A5B8
  8
1DIM
 10
4165.794220937375
 20
-2212.7626934327282
 30
0.0
 11
4165.794220937375
 21
-2238.462693432728
 31
0.0
  0
LINE
  5
1A5B9
  8
1DIM
 10
4165.794220937375
 20
-2194.462693432728
 30
0.0
 11
4165.794220937375
 21
-2206.7626934327282
 31
0.0
  0
LINE
  5
1A5BD
  8
1DIM
 10
4081.7942209373741
 20
-2200.4608746165718
 30
0.0
 11
4081.7942209373741
 21
-2234.7626934327282
 31
0.0
  0
LINE
  5
1A5BE
  8
1DIM
 10
4115.7942209373741
 20
-2206.2626934327282
 30
0.0
 11
4115.7942209373741
 21
-2234.7626934327282
 31
0.0
  0
LINE
  5
1A5BF
  8
1DIM
 10
4087.7942209373732
 20
-2231.7626934327282
 30
0.0
 11
4109.7942209373741
 21
-2231.7626934327282
 31
0.0
  0
TEXT
  5
1A5C3
  8
1DIM
 10
3702.0736778979281
 20
-1946.024407958017
 30
0.0
 40
17.5
  1
取付け寸法
  0
LINE
  5
1A5C4
  8
1DIM
 10
4050.7905255610149
 20
-1428.724401858761
 30
0.0
 11
4092.7905255610149
 21
-1428.724401858761
 31
0.0
  0
LINE
  5
1A5C5
  8
1DIM
 10
3767.790525561019
 20
-1480.5244018587609
 30
0.0
 11
4092.7905255610149
 21
-1480.5244018587609
 31
0.0
  0
LINE
  5
1A5C6
  8
1DIM
 10
4090.7905255610149
 20
-1432.724401858761
 30
0.0
 11
4090.7905255610149
 21
-1476.5244018587609
 31
0.0
  0
LINE
  5
1A5CA
  8
1DIM
 10
4050.7905255610149
 20
-1428.724401858761
 30
0.0
 11
4072.7905255610149
 21
-1428.724401858761
 31
0.0
  0
LINE
  5
1A5CB
  8
1DIM
 10
4050.2905255610149
 20
-1462.5244018587609
 30
0.0
 11
4072.7905255610149
 21
-1462.5244018587609
 31
0.0
  0
LINE
  5
1A5CC
  8
1DIM
 10
4070.7905255610149
 20
-1432.724401858761
 30
0.0
 11
4070.7905255610149
 21
-1458.5244018587609
 31
0.0
  0
TEXT
  5
1A5D0
  8
1DIM
 10
4003.2320871217821
 20
-1829.508679071517
 30
0.0
 40
7.0
  1
インターホンカバー部
  0
TEXT
  5
1A5D1
  8
1DIM
 10
4004.1654204551151
 20
-1841.1753457381831
 30
0.0
 40
7.0
  1
材質：アルミ
  0
TEXT
  5
1A5D2
  8
1DIM
 10
4004.1654204551151
 20
-1852.84201240485
 30
0.0
 40
7.0
  1
仕上げ：ブラストアルマイト
  0
SOLID
  5
1A5D3
  8
1DIM
 10
3979.2346014473369
 20
-1821.1719898153469
 30
0.0
 11
3977.8404195912358
 21
-1817.364011165648
 31
0.0
 12
3980.3942603685309
 22
-1820.5139860431141
 32
0.0
 13
3980.3942603685309
 23
-1820.5139860431141
 33
0.0
1001
ACAD
1000
DSTYLE
1002
{
1070
    40
1040
2.0
1002
}
  0
LINE
  5
1A5D5
  8
1DIM
 10
3996.3229377607322
 20
-2190.2127259367599
 30
0.0
 11
4015.7056315409568
 21
-2171.1299802794392
 31
0.0
  0
LINE
  5
1A5D8
  8
1DIM
 10
4018.5442209373741
 20
-2025.4126934327271
 30
0.0
 11
4018.5442209373741
 21
-1954.162693432728
 31
0.0
  0
LINE
  5
1A5D9
  8
1DIM
 10
4088.5442209373741
 20
-2025.4126934327271
 30
0.0
 11
4088.5442209373741
 21
-1954.162693432728
 31
0.0
  0
LINE
  5
1A5DA
  8
1DIM
 10
4082.5442209373741
 20
-1957.162693432728
 30
0.0
 11
4024.5442209373732
 21
-1957.162693432728
 31
0.0
  0
LINE
  5
1A5DB
  8
1DIM
 10
4018.5442209373741
 20
-1957.162693432728
 30
0.0
 11
3926.8442209373738
 21
-1957.162693432728
 31
0.0
  0
LINE
  5
1A5DF
  8
1DIM
 10
4083.5442209373741
 20
-2168.4126934327278
 30
0.0
 11
4143.794220937375
 21
-2168.4126934327278
 31
0.0
  0
LINE
  5
1A5E0
  8
1DIM
 10
4083.5442209373741
 20
-2020.412693432728
 30
0.0
 11
4143.7942209373759
 21
-2020.412693432728
 31
0.0
  0
LINE
  5
1A5E1
  8
1DIM
 10
4140.794220937375
 20
-2162.4126934327269
 30
0.0
 11
4140.7942209373768
 21
-2026.4126934327271
 31
0.0
  0
LINE
  5
1A5E5
  8
1DIM
 10
3781.7942209373741
 20
-2189.2244304749038
 30
0.0
 11
3781.7942209373741
 21
-2234.7626934327282
 31
0.0
  0
LINE
  5
1A5E6
  8
1DIM
 10
4081.7942209373741
 20
-2200.4608746165718
 30
0.0
 11
4081.7942209373741
 21
-2234.7626934327282
 31
0.0
  0
LINE
  5
1A5E7
  8
1DIM
 10
3787.7942209373741
 20
-2231.7626934327282
 30
0.0
 11
4075.7942209373741
 21
-2231.7626934327282
 31
0.0
  0
LINE
  5
1A5EB
  8
1DIM
 10
3778.5324838951979
 20
-2185.962693432728
 30
0.0
 11
3713.7942209373741
 21
-2185.962693432728
 31
0.0
  0
LINE
  5
1A5EC
  8
1DIM
 10
3775.7960397535289
 20
-1994.462693432728
 30
0.0
 11
3713.7942209373741
 21
-1994.462693432728
 31
0.0
  0
LINE
  5
1A5ED
  8
1DIM
 10
3716.7942209373732
 20
-2179.962693432728
 30
0.0
 11
3716.7942209373732
 21
-2000.462693432728
 31
0.0
  0
LINE
  5
1A5F1
  8
1DIM
 10
4087.7924021212179
 20
-2194.462693432728
 30
0.0
 11
4168.7942209373759
 21
-2194.462693432728
 31
0.0
  0
LINE
  5
1A5F2
  8
1DIM
 10
4087.7924021212179
 20
-1994.462693432728
 30
0.0
 11
4168.7942209373759
 21
-1994.462693432728
 31
0.0
  0
LINE
  5
1A5F3
  8
1DIM
 10
4165.794220937375
 20
-2188.462693432728
 30
0.0
 11
4165.7942209373768
 21
-2000.462693432728
 31
0.0
  0
LINE
  5
1A5F7
  8
1DIM
 10
4142.9038555073403
 20
-1815.2683601593239
 30
0.0
 11
4142.9038555073403
 21
-1840.7595912593249
 31
0.0
  0
LINE
  5
1A5F8
  8
1DIM
 10
4164.2038555073414
 20
-1820.9387385312041
 30
0.0
 11
4164.2038555073414
 21
-1840.7595912593249
 31
0.0
  0
LINE
  5
1A5F9
  8
1DIM
 10
4146.9038555073412
 20
-1838.7595912593249
 30
0.0
 11
4160.2038555073404
 21
-1838.7595912593249
 31
0.0
  0
ARC
  5
1A5FD
  8
1DIM
 10
4148.2309113738038
 20
-1688.5267270160959
 30
0.0
 40
1.0
 50
0.0
 51
180.0
  0
ARC
  5
1A5FE
  8
1DIM
 10
4148.2309113738038
 20
-1688.5267270160959
 30
0.0
 40
1.0
 50
180.0
 51
0.0
  0
LINE
  5
1A5FF
  8
1DIM
 10
4148.2309113738038
 20
-1688.5267270160959
 30
0.0
 11
4182.5339142735302
 21
-1657.05262361163
 31
0.0
1001
ACAD
1000
DSTYLE
1002
{
1070
    40
1040
2.0
1070
   173
1070
     1
1070
   343
1005
18AA1
1070
   344
1005
42
1002
}
  0
LINE
  5
1A600
  8
1DIM
 10
4182.5339142735302
 20
-1657.05262361163
 30
0.0
 11
4261.6672476068616
 21
-1657.05262361163
 31
0.0
1001
ACAD
1000
DSTYLE
1002
{
1070
    40
1040
2.0
1070
   173
1070
     1
1070
   343
1005
18AA1
1070
   344
1005
42
1002
}
  0
TEXT
  5
1A601
  8
1DIM
 10
3877.478685496952
 20
-1829.508679071517
 30
0.0
 40
7.0
  1
ベース部
  0
TEXT
  5
1A602
  8
1DIM
 10
3878.412018830285
 20
-1841.1753457381831
 30
0.0
 40
7.0
  1
材質：アルミ
  0
TEXT
  5
1A603
  8
1DIM
 10
3878.412018830285
 20
-1852.84201240485
 30
0.0
 40
7.0
  1
仕上げ：ブラストアルマイト
  0
SOLID
  5
1A604
  8
1DIM
 10
3853.4811998225068
 20
-1821.1719898153469
 30
0.0
 11
3852.0870179664062
 21
-1817.364011165648
 31
0.0
 12
3854.6408587437008
 22
-1820.5139860431141
 32
0.0
 13
3854.6408587437008
 23
-1820.5139860431141
 33
0.0
1001
ACAD
1000
DSTYLE
1002
{
1070
    40
1040
2.0
1002
}
  0
TEXT
  5
1A606
  8
1DIM
 10
3753.1918610430539
 20
-1829.6043184958751
 30
0.0
 40
7.0
  1
新聞受け部
  0
TEXT
  5
1A607
  8
1DIM
 10
3753.1918610430539
 20
-1841.2709851625409
 30
0.0
 40
7.0
  1
材質：アルミ
  0
TEXT
  5
1A608
  8
1DIM
 10
3753.1918610430539
 20
-1852.9376518292081
 30
0.0
 40
7.0
  1
仕上げ：ブラストアルマイト
  0
SOLID
  5
1A609
  8
1DIM
 10
3727.9740509025951
 20
-1813.9856910897031
 30
0.0
 11
3726.8668601791751
 21
-1810.0845921232039
 31
0.0
 12
3729.1794240418149
 22
-1813.4157319920259
 32
0.0
 13
3729.1794240418149
 23
-1813.4157319920259
 33
0.0
1001
ACAD
1000
DSTYLE
1002
{
1070
    40
1040
2.0
1002
}
  0
TEXT
  5
1A60B
  8
1DIM
 10
3767.6115353406581
 20
-1563.4069918117109
 30
0.0
 40
7.0
  1
ネームプレート部
  0
TEXT
  5
1A60C
  8
1DIM
 10
3768.544868673991
 20
-1575.073658478377
 30
0.0
 40
7.0
  1
材質：アルミ
  0
TEXT
  5
1A60D
  8
1DIM
 10
3768.544868673991
 20
-1586.7403251450439
 30
0.0
 40
7.0
  1
仕上げ：ブラストアルマイト
  0
SOLID
  5
1A60E
  8
1DIM
 10
3756.5870060916241
 20
-1593.362333348214
 30
0.0
 11
3752.8971469787721
 21
-1595.044410686434
 31
0.0
 12
3755.8420156515058
 22
-1592.25654538395
 32
0.0
 13
3755.8420156515058
 23
-1592.25654538395
 33
0.0
1001
ACAD
1000
DSTYLE
1002
{
1070
    40
1040
2.0
1002
}
  0
LINE
  5
1A610
  8
1DIM
 10
4164.2038555073414
 20
-1592.013423369621
 30
0.0
 11
4164.2038555073414
 21
-1572.209591259325
 31
0.0
  0
LINE
  5
1A611
  8
1DIM
 10
4142.9038555073403
 20
-1597.650822359325
 30
0.0
 11
4142.9038555073403
 21
-1572.209591259325
 31
0.0
  0
LINE
  5
1A612
  8
1DIM
 10
4160.2038555073404
 20
-1574.209591259325
 30
0.0
 11
4146.9038555073412
 21
-1574.209591259325
 31
0.0
  0
LINE
  5
1A616
  8
1DIM
 10
3926.2905255610081
 20
-1594.159591259325
 30
0.0
 11
3926.2905255610081
 21
-1552.159591259325
 31
0.0
  0
LINE
  5
1A617
  8
1DIM
 10
4050.7905255610108
 20
-1594.6595912593309
 30
0.0
 11
4050.7905255610108
 21
-1552.159591259325
 31
0.0
  0
LINE
  5
1A618
  8
1DIM
 10
3930.2905255610081
 20
-1554.159591259325
 30
0.0
 11
4046.7905255610121
 21
-1554.159591259325
 31
0.0
  0
LINE
  5
1A61C
  8
1DIM
 10
3701.7905255610081
 20
-1594.659591259325
 30
0.0
 11
3701.7905255610081
 21
-1552.159591259325
 31
0.0
  0
LINE
  5
1A61D
  8
1DIM
 10
3926.2905255610108
 20
-1594.159591259325
 30
0.0
 11
3926.2905255610108
 21
-1552.159591259325
 31
0.0
  0
LINE
  5
1A61E
  8
1DIM
 10
3705.7905255610081
 20
-1554.159591259325
 30
0.0
 11
3922.2905255610121
 21
-1554.159591259325
 31
0.0
  0
LINE
  5
1A623
  8
1CENTER
 10
4142.9038555073403
 20
-1606.8112662593251
 30
0.0
 11
4142.9038555073403
 21
-1597.650822359325
 31
0.0
  0
LINE
  5
1A624
  8
1HATCH
 10
4141.2538555073425
 20
-1605.209591259325
 30
0.0
 11
4141.2538555073425
 21
-1600.859591259325
 31
0.0
  0
LINE
  5
1A625
  8
1HATCH
 10
4144.5538555073408
 20
-1605.209591259325
 30
0.0
 11
4144.5538555073408
 21
-1600.859591259325
 31
0.0
  0
LINE
  5
1A626
  8
1HATCH
 10
4140.9038555073421
 20
-1604.859591259326
 30
0.0
 11
4144.9038555073412
 21
-1604.859591259326
 31
0.0
  0
LINE
  5
1A627
  8
1HATCH
 10
4139.9038555073403
 20
-1599.509591269325
 30
0.0
 11
4145.9038555073412
 21
-1599.509591269325
 31
0.0
  0
LINE
  5
1A628
  8
1HATCH
 10
4141.2538555073425
 20
-1600.859591259325
 30
0.0
 11
4140.9038555073421
 21
-1600.509591433399
 31
0.0
  0
LINE
  5
1A629
  8
1HATCH
 10
4144.9038555073412
 20
-1600.509591433399
 30
0.0
 11
4144.5538555073408
 21
-1600.859591259325
 31
0.0
  0
LINE
  5
1A62B
  8
1CENTER
 10
4142.9038555073403
 20
-1806.1079162593239
 30
0.0
 11
4142.9038555073403
 21
-1815.2683601593239
 31
0.0
  0
LINE
  5
1A62C
  8
1HATCH
 10
4141.2538555073425
 20
-1807.709591259325
 30
0.0
 11
4141.2538555073425
 21
-1812.059591259324
 31
0.0
  0
LINE
  5
1A62D
  8
1HATCH
 10
4144.5538555073408
 20
-1807.709591259325
 30
0.0
 11
4144.5538555073408
 21
-1812.059591259324
 31
0.0
  0
LINE
  5
1A62E
  8
1HATCH
 10
4140.9038555073421
 20
-1808.059591259324
 30
0.0
 11
4144.9038555073412
 21
-1808.059591259324
 31
0.0
  0
LINE
  5
1A62F
  8
1HATCH
 10
4139.9038555073403
 20
-1813.409591249324
 30
0.0
 11
4145.9038555073412
 21
-1813.4095912493251
 31
0.0
  0
LINE
  5
1A630
  8
1HATCH
 10
4141.2538555073425
 20
-1812.059591259324
 30
0.0
 11
4140.9038555073421
 21
-1812.40959108525
 31
0.0
  0
LINE
  5
1A631
  8
1HATCH
 10
4144.9038555073412
 20
-1812.40959108525
 30
0.0
 11
4144.5538555073408
 21
-1812.059591259324
 31
0.0
  0
LINE
  5
1A632
  8
1DIM
 10
4050.2905255610081
 20
-1818.7595912593249
 30
0.0
 11
4072.7905255610149
 21
-1818.7595912593249
 31
0.0
  0
LINE
  5
1A633
  8
1DIM
 10
4050.2905255610081
 20
-1594.159591259325
 30
0.0
 11
4072.7905255610149
 21
-1594.159591259325
 31
0.0
  0
LINE
  5
1A634
  8
1DIM
 10
4070.7905255610149
 20
-1814.7595912593249
 30
0.0
 11
4070.7905255610149
 21
-1598.159591259325
 31
0.0
  0
LINE
  5
1A638
  8
1DIM
 10
3701.7905255610081
 20
-1594.659591259325
 30
0.0
 11
3701.7905255610081
 21
-1532.159591259325
 31
0.0
  0
LINE
  5
1A639
  8
1DIM
 10
4050.7905255610108
 20
-1594.6595912593309
 30
0.0
 11
4050.7905255610108
 21
-1532.159591259325
 31
0.0
  0
LINE
  5
1A63A
  8
1DIM
 10
3705.7905255610081
 20
-1534.159591259325
 30
0.0
 11
4046.7905255610121
 21
-1534.159591259325
 31
0.0
  0
TEXT
  5
1A63E
  8
1DIM
 10
4187.0005809401946
 20
-1632.3192902782971
 30
0.0
 40
7.0
  1
インターホンコネクター部
  0
TEXT
  5
1A63F
  8
1DIM
 10
4187.9339142735289
 20
-1643.9859569449629
 30
0.0
 40
7.0
  1
材質：ステンレス
  0
TEXT
  5
1A640
  8
1DIM
 10
4187.9339142735289
 20
-1655.652623611629
 30
0.0
 40
7.0
  1
仕上げ：ヘアライン
  0
TEXT
  5
1A641
  8
1DIM
 10
3866.9571922276759
 20
-1532.7595912593249
 30
0.0
 40
7.0
  1
349 
  0
LINE
  5
1A642
  8
0
  6
BYBLOCK
 10
4046.7905255610121
 20
-1533.0877944993249
 30
0.0
 11
4050.7905255610108
 21
-1534.159591259325
 31
0.0
  0
LINE
  5
1A643
  8
0
  6
BYBLOCK
 10
4050.7905255610108
 20
-1534.159591259325
 30
0.0
 11
4046.7905255610121
 21
-1535.2313880193251
 31
0.0
  0
LINE
  5
1A644
  8
0
  6
BYBLOCK
 10
4050.7905255610108
 20
-1534.159591259325
 30
0.0
 11
4046.7905255610121
 21
-1534.159591259325
 31
0.0
  0
LINE
  5
1A645
  8
0
  6
BYBLOCK
 10
3705.7905255610081
 20
-1535.2313880193251
 30
0.0
 11
3701.7905255610081
 21
-1534.159591259325
 31
0.0
  0
LINE
  5
1A646
  8
0
  6
BYBLOCK
 10
3701.7905255610081
 20
-1534.159591259325
 30
0.0
 11
3705.7905255610081
 21
-1533.0877944993249
 31
0.0
  0
LINE
  5
1A647
  8
0
  6
BYBLOCK
 10
3701.7905255610081
 20
-1534.159591259325
 30
0.0
 11
3705.7905255610081
 21
-1534.159591259325
 31
0.0
  0
TEXT
  5
1A648
  8
1DIM
 10
4069.3905255610148
 20
-1715.792924592658
 30
0.0
 40
7.0
  1
225 
 50
90.0
  0
LINE
  5
1A649
  8
0
  6
BYBLOCK
 10
4069.718728801015
 20
-1598.159591259325
 30
0.0
 11
4070.7905255610149
 21
-1594.159591259325
 31
0.0
  0
LINE
  5
1A64A
  8
0
  6
BYBLOCK
 10
4070.7905255610149
 20
-1594.159591259325
 30
0.0
 11
4071.8623223210152
 21
-1598.159591259325
 31
0.0
  0
LINE
  5
1A64B
  8
0
  6
BYBLOCK
 10
4070.7905255610149
 20
-1594.159591259325
 30
0.0
 11
4070.7905255610149
 21
-1598.159591259325
 31
0.0
  0
LINE
  5
1A64C
  8
0
  6
BYBLOCK
 10
4071.8623223210152
 20
-1814.7595912593249
 30
0.0
 11
4070.7905255610149
 21
-1818.7595912593249
 31
0.0
  0
LINE
  5
1A64D
  8
0
  6
BYBLOCK
 10
4070.7905255610149
 20
-1818.7595912593249
 30
0.0
 11
4069.718728801015
 21
-1814.7595912593249
 31
0.0
  0
LINE
  5
1A64E
  8
0
  6
BYBLOCK
 10
4070.7905255610149
 20
-1818.7595912593249
 30
0.0
 11
4070.7905255610149
 21
-1814.7595912593249
 31
0.0
  0
LINE
  5
1A64F
  8
0
 10
4144.9038555073412
 20
-1808.059591259324
 30
0.0
 11
4144.9038555073412
 21
-1812.40959108525
 31
0.0
  0
LINE
  5
1A650
  8
0
 10
4144.5538555073408
 20
-1807.709591259325
 30
0.0
 11
4144.9038555073412
 21
-1808.059591259324
 31
0.0
  0
LINE
  5
1A651
  8
0
 10
4144.9038555073412
 20
-1812.40959108525
 30
0.0
 11
4145.9038555073412
 21
-1813.409591159324
 31
0.0
  0
LINE
  5
1A652
  8
0
 10
4141.2538555073425
 20
-1807.709591259325
 30
0.0
 11
4144.5538555073408
 21
-1807.709591259325
 31
0.0
  0
LINE
  5
1A653
  8
0
 10
4145.9038555073412
 20
-1813.409591159324
 30
0.0
 11
4145.9038555073412
 21
-1813.709591259324
 31
0.0
  0
LINE
  5
1A654
  8
0
 10
4140.9038555073421
 20
-1808.059591259324
 30
0.0
 11
4141.2538555073425
 21
-1807.709591259325
 31
0.0
  0
LINE
  5
1A655
  8
0
 10
4139.9038555073403
 20
-1813.709591259324
 30
0.0
 11
4145.9038555073412
 21
-1813.709591259324
 31
0.0
  0
LINE
  5
1A656
  8
0
 10
4140.9038555073421
 20
-1808.059591259324
 30
0.0
 11
4140.9038555073421
 21
-1812.40959108525
 31
0.0
  0
LINE
  5
1A657
  8
0
 10
4139.9038555073403
 20
-1813.409591249324
 30
0.0
 11
4139.9038555073403
 21
-1813.709591259324
 31
0.0
  0
LINE
  5
1A658
  8
0
 10
4140.9038555073421
 20
-1812.40959108525
 30
0.0
 11
4139.9038555073403
 21
-1813.409591249324
 31
0.0
  0
LINE
  5
1A659
  8
0
 10
4144.9038555073412
 20
-1604.859591259326
 30
0.0
 11
4144.9038555073412
 21
-1600.509591433399
 31
0.0
  0
LINE
  5
1A65A
  8
0
 10
4144.9038555073412
 20
-1600.509591433399
 30
0.0
 11
4145.9038555073412
 21
-1599.509591359325
 31
0.0
  0
LINE
  5
1A65B
  8
0
 10
4144.5538555073408
 20
-1605.209591259325
 30
0.0
 11
4144.9038555073412
 21
-1604.859591259326
 31
0.0
  0
LINE
  5
1A65C
  8
0
 10
4145.9038555073412
 20
-1599.509591359325
 30
0.0
 11
4145.9038555073412
 21
-1599.209591259325
 31
0.0
  0
LINE
  5
1A65D
  8
0
 10
4141.2538555073425
 20
-1605.209591259325
 30
0.0
 11
4144.5538555073408
 21
-1605.209591259325
 31
0.0
  0
LINE
  5
1A65E
  8
0
 10
4139.9038555073403
 20
-1599.209591259325
 30
0.0
 11
4145.9038555073412
 21
-1599.209591259325
 31
0.0
  0
LINE
  5
1A65F
  8
0
 10
4140.9038555073421
 20
-1604.859591259326
 30
0.0
 11
4141.2538555073425
 21
-1605.209591259325
 31
0.0
  0
LINE
  5
1A660
  8
0
 10
4139.9038555073403
 20
-1599.509591269325
 30
0.0
 11
4139.9038555073403
 21
-1599.209591259325
 31
0.0
  0
LINE
  5
1A661
  8
0
 10
4140.9038555073421
 20
-1604.859591259326
 30
0.0
 11
4140.9038555073421
 21
-1600.509591433399
 31
0.0
  0
LINE
  5
1A662
  8
0
 10
4140.9038555073421
 20
-1600.509591433399
 30
0.0
 11
4139.9038555073403
 21
-1599.509591269325
 31
0.0
  0
TEXT
  5
1A663
  8
1DIM
 10
3804.7071922276759
 20
-1552.7595912593249
 30
0.0
 40
7.0
  1
225 
  0
LINE
  5
1A664
  8
0
  6
BYBLOCK
 10
3922.2905255610121
 20
-1553.0877944993249
 30
0.0
 11
3926.2905255610108
 21
-1554.159591259325
 31
0.0
  0
LINE
  5
1A665
  8
0
  6
BYBLOCK
 10
3926.2905255610108
 20
-1554.159591259325
 30
0.0
 11
3922.2905255610121
 21
-1555.2313880193251
 31
0.0
  0
LINE
  5
1A666
  8
0
  6
BYBLOCK
 10
3926.2905255610108
 20
-1554.159591259325
 30
0.0
 11
3922.2905255610121
 21
-1554.159591259325
 31
0.0
  0
LINE
  5
1A667
  8
0
  6
BYBLOCK
 10
3705.7905255610081
 20
-1555.2313880193251
 30
0.0
 11
3701.7905255610081
 21
-1554.159591259325
 31
0.0
  0
LINE
  5
1A668
  8
0
  6
BYBLOCK
 10
3701.7905255610081
 20
-1554.159591259325
 30
0.0
 11
3705.7905255610081
 21
-1553.0877944993249
 31
0.0
  0
LINE
  5
1A669
  8
0
  6
BYBLOCK
 10
3701.7905255610081
 20
-1554.159591259325
 30
0.0
 11
3705.7905255610081
 21
-1554.159591259325
 31
0.0
  0
TEXT
  5
1A66A
  8
1DIM
 10
3980.3738588943429
 20
-1552.7595912593249
 30
0.0
 40
7.0
  1
125 
  0
LINE
  5
1A66B
  8
0
  6
BYBLOCK
 10
4046.7905255610121
 20
-1553.0877944993249
 30
0.0
 11
4050.7905255610108
 21
-1554.159591259325
 31
0.0
  0
LINE
  5
1A66C
  8
0
  6
BYBLOCK
 10
4050.7905255610108
 20
-1554.159591259325
 30
0.0
 11
4046.7905255610121
 21
-1555.2313880193251
 31
0.0
  0
LINE
  5
1A66D
  8
0
  6
BYBLOCK
 10
4050.7905255610108
 20
-1554.159591259325
 30
0.0
 11
4046.7905255610121
 21
-1554.159591259325
 31
0.0
  0
LINE
  5
1A66E
  8
0
  6
BYBLOCK
 10
3930.2905255610081
 20
-1555.2313880193251
 30
0.0
 11
3926.2905255610081
 21
-1554.159591259325
 31
0.0
  0
LINE
  5
1A66F
  8
0
  6
BYBLOCK
 10
3926.2905255610081
 20
-1554.159591259325
 30
0.0
 11
3930.2905255610081
 21
-1553.0877944993249
 31
0.0
  0
LINE
  5
1A670
  8
0
  6
BYBLOCK
 10
3926.2905255610081
 20
-1554.159591259325
 30
0.0
 11
3930.2905255610081
 21
-1554.159591259325
 31
0.0
  0
TEXT
  5
1A671
  8
1DIM
 10
4148.8871888406729
 20
-1572.8095912593251
 30
0.0
 40
7.0
  1
21 
  0
LINE
  5
1A672
  8
0
  6
BYBLOCK
 10
4146.9038555073412
 20
-1575.281388019325
 30
0.0
 11
4142.9038555073403
 21
-1574.209591259325
 31
0.0
  0
LINE
  5
1A673
  8
0
  6
BYBLOCK
 10
4142.9038555073403
 20
-1574.209591259325
 30
0.0
 11
4146.9038555073412
 21
-1573.1377944993251
 31
0.0
  0
LINE
  5
1A674
  8
0
  6
BYBLOCK
 10
4142.9038555073403
 20
-1574.209591259325
 30
0.0
 11
4146.9038555073412
 21
-1574.209591259325
 31
0.0
  0
LINE
  5
1A675
  8
0
  6
BYBLOCK
 10
4160.2038555073404
 20
-1573.1377944993251
 30
0.0
 11
4164.2038555073414
 21
-1574.209591259325
 31
0.0
  0
LINE
  5
1A676
  8
0
  6
BYBLOCK
 10
4164.2038555073414
 20
-1574.209591259325
 30
0.0
 11
4160.2038555073404
 21
-1575.281388019325
 31
0.0
  0
LINE
  5
1A677
  8
0
  6
BYBLOCK
 10
4164.2038555073414
 20
-1574.209591259325
 30
0.0
 11
4160.2038555073404
 21
-1574.209591259325
 31
0.0
  0
LINE
  5
1A678
  8
1DIM
 10
3756.2145108715649
 20
-1592.809439366082
 30
0.0
 11
3763.1448686739909
 21
-1588.140325145044
 31
0.0
1001
ACAD
1000
DSTYLE
1002
{
1070
    40
1040
2.0
1002
}
  0
LINE
  5
1A679
  8
1DIM
 10
3763.1448686739909
 20
-1588.140325145044
 30
0.0
 11
3875.8782020073249
 21
-1588.140325145044
 31
0.0
1001
ACAD
1000
DSTYLE
1002
{
1070
    40
1040
2.0
1002
}
  0
LINE
  5
1A67A
  8
1DIM
 10
3728.576737472205
 20
-1813.7007115408639
 30
0.0
 11
3747.7918610430538
 21
-1854.337651829208
 31
0.0
1001
ACAD
1000
DSTYLE
1002
{
1070
    40
1040
2.0
1002
}
  0
LINE
  5
1A67B
  8
1DIM
 10
3747.7918610430538
 20
-1854.337651829208
 30
0.0
 11
3860.5251943763869
 21
-1854.337651829208
 31
0.0
1001
ACAD
1000
DSTYLE
1002
{
1070
    40
1040
2.0
1002
}
  0
LINE
  5
1A67C
  8
1DIM
 10
3854.0610292831038
 20
-1820.84298792923
 30
0.0
 11
3873.0120188302849
 21
-1854.2420124048499
 31
0.0
1001
ACAD
1000
DSTYLE
1002
{
1070
    40
1040
2.0
1002
}
  0
LINE
  5
1A67D
  8
1DIM
 10
3873.0120188302849
 20
-1854.2420124048499
 30
0.0
 11
3985.7453521636189
 21
-1854.2420124048499
 31
0.0
1001
ACAD
1000
DSTYLE
1002
{
1070
    40
1040
2.0
1002
}
  0
TEXT
  5
1A67E
  8
1DIM
 10
4148.8871888406729
 20
-1837.359591259325
 30
0.0
 40
7.0
  1
21 
  0
LINE
  5
1A67F
  8
0
  6
BYBLOCK
 10
4160.2038555073404
 20
-1837.687794499325
 30
0.0
 11
4164.2038555073414
 21
-1838.7595912593249
 31
0.0
  0
LINE
  5
1A680
  8
0
  6
BYBLOCK
 10
4164.2038555073414
 20
-1838.7595912593249
 30
0.0
 11
4160.2038555073404
 21
-1839.831388019325
 31
0.0
  0
LINE
  5
1A681
  8
0
  6
BYBLOCK
 10
4164.2038555073414
 20
-1838.7595912593249
 30
0.0
 11
4160.2038555073404
 21
-1838.7595912593249
 31
0.0
  0
LINE
  5
1A682
  8
0
  6
BYBLOCK
 10
4146.9038555073412
 20
-1839.831388019325
 30
0.0
 11
4142.9038555073403
 21
-1838.7595912593249
 31
0.0
  0
LINE
  5
1A683
  8
0
  6
BYBLOCK
 10
4142.9038555073403
 20
-1838.7595912593249
 30
0.0
 11
4146.9038555073412
 21
-1837.687794499325
 31
0.0
  0
LINE
  5
1A684
  8
0
  6
BYBLOCK
 10
4142.9038555073403
 20
-1838.7595912593249
 30
0.0
 11
4146.9038555073412
 21
-1838.7595912593249
 31
0.0
  0
TEXT
  5
1A685
  8
1DIM
 10
4163.6942209373756
 20
-2111.962693432728
 30
0.0
 40
10.5
  1
P200 
 50
90.0
  0
LINE
  5
1A686
  8
0
  6
BYBLOCK
 10
4164.1865257973768
 20
-2000.462693432728
 30
0.0
 11
4165.7942209373768
 21
-1994.462693432728
 31
0.0
  0
LINE
  5
1A687
  8
0
  6
BYBLOCK
 10
4165.7942209373768
 20
-1994.462693432728
 30
0.0
 11
4167.401916077376
 21
-2000.462693432728
 31
0.0
  0
LINE
  5
1A688
  8
0
  6
BYBLOCK
 10
4165.7942209373768
 20
-1994.462693432728
 30
0.0
 11
4165.7942209373768
 21
-2000.462693432728
 31
0.0
  0
LINE
  5
1A689
  8
0
  6
BYBLOCK
 10
4167.401916077376
 20
-2188.462693432728
 30
0.0
 11
4165.794220937375
 21
-2194.462693432728
 31
0.0
  0
LINE
  5
1A68A
  8
0
  6
BYBLOCK
 10
4165.794220937375
 20
-2194.462693432728
 30
0.0
 11
4164.1865257973759
 21
-2188.462693432728
 31
0.0
  0
LINE
  5
1A68B
  8
0
  6
BYBLOCK
 10
4165.794220937375
 20
-2194.462693432728
 30
0.0
 11
4165.794220937375
 21
-2188.462693432728
 31
0.0
  0
TEXT
  5
1A68C
  8
1DIM
 10
3714.6942209373742
 20
-2112.9626934327271
 30
0.0
 40
10.5
  1
P191.5 
 50
90.0
  0
LINE
  5
1A68D
  8
0
  6
BYBLOCK
 10
3715.1865257973741
 20
-2000.462693432728
 30
0.0
 11
3716.7942209373732
 21
-1994.462693432728
 31
0.0
  0
LINE
  5
1A68E
  8
0
  6
BYBLOCK
 10
3716.7942209373732
 20
-1994.462693432728
 30
0.0
 11
3718.4019160773742
 21
-2000.462693432728
 31
0.0
  0
LINE
  5
1A68F
  8
0
  6
BYBLOCK
 10
3716.7942209373732
 20
-1994.462693432728
 30
0.0
 11
3716.7942209373732
 21
-2000.462693432728
 31
0.0
  0
LINE
  5
1A690
  8
0
  6
BYBLOCK
 10
3718.4019160773742
 20
-2179.962693432728
 30
0.0
 11
3716.7942209373732
 21
-2185.962693432728
 31
0.0
  0
LINE
  5
1A691
  8
0
  6
BYBLOCK
 10
3716.7942209373732
 20
-2185.962693432728
 30
0.0
 11
3715.1865257973741
 21
-2179.962693432728
 31
0.0
  0
LINE
  5
1A692
  8
0
  6
BYBLOCK
 10
3716.7942209373732
 20
-2185.962693432728
 30
0.0
 11
3716.7942209373732
 21
-2179.962693432728
 31
0.0
  0
TEXT
  5
1A693
  8
1DIM
 10
3914.2942209373741
 20
-2229.6626934327278
 30
0.0
 40
10.5
  1
P300 
  0
LINE
  5
1A694
  8
0
  6
BYBLOCK
 10
4075.7942209373741
 20
-2230.1549982927281
 30
0.0
 11
4081.7942209373741
 21
-2231.7626934327282
 31
0.0
  0
LINE
  5
1A695
  8
0
  6
BYBLOCK
 10
4081.7942209373741
 20
-2231.7626934327282
 30
0.0
 11
4075.7942209373741
 21
-2233.3703885727282
 31
0.0
  0
LINE
  5
1A696
  8
0
  6
BYBLOCK
 10
4081.7942209373741
 20
-2231.7626934327282
 30
0.0
 11
4075.7942209373741
 21
-2231.7626934327282
 31
0.0
  0
LINE
  5
1A697
  8
0
  6
BYBLOCK
 10
3787.7942209373741
 20
-2233.3703885727282
 30
0.0
 11
3781.7942209373741
 21
-2231.7626934327282
 31
0.0
  0
LINE
  5
1A698
  8
0
  6
BYBLOCK
 10
3781.7942209373741
 20
-2231.7626934327282
 30
0.0
 11
3787.7942209373741
 21
-2230.1549982927281
 31
0.0
  0
LINE
  5
1A699
  8
0
  6
BYBLOCK
 10
3781.7942209373741
 20
-2231.7626934327282
 30
0.0
 11
3787.7942209373741
 21
-2231.7626934327282
 31
0.0
  0
TEXT
  5
1A69A
  8
1DIM
 10
4138.6942209373756
 20
-2138.1626934327269
 30
0.0
 40
10.5
  1
逃げ穴寸法148 
 50
90.0
  0
LINE
  5
1A69B
  8
0
  6
BYBLOCK
 10
4139.1865257973759
 20
-2026.4126934327271
 30
0.0
 11
4140.7942209373768
 21
-2020.412693432728
 31
0.0
  0
LINE
  5
1A69C
  8
0
  6
BYBLOCK
 10
4140.7942209373768
 20
-2020.412693432728
 30
0.0
 11
4142.4019160773769
 21
-2026.4126934327271
 31
0.0
  0
LINE
  5
1A69D
  8
0
  6
BYBLOCK
 10
4140.7942209373768
 20
-2020.412693432728
 30
0.0
 11
4140.7942209373768
 21
-2026.4126934327271
 31
0.0
  0
LINE
  5
1A69E
  8
0
  6
BYBLOCK
 10
4142.401916077376
 20
-2162.4126934327269
 30
0.0
 11
4140.794220937375
 21
-2168.4126934327278
 31
0.0
  0
LINE
  5
1A69F
  8
0
  6
BYBLOCK
 10
4140.794220937375
 20
-2168.4126934327278
 30
0.0
 11
4139.1865257973759
 21
-2162.4126934327269
 31
0.0
  0
LINE
  5
1A6A0
  8
0
  6
BYBLOCK
 10
4140.794220937375
 20
-2168.4126934327278
 30
0.0
 11
4140.794220937375
 21
-2162.4126934327269
 31
0.0
  0
TEXT
  5
1A6A1
  8
1DIM
 10
3930.3192209373742
 20
-1955.0626934327281
 30
0.0
 40
10.5
  1
逃げ穴寸法70 
  0
LINE
  5
1A6A2
  8
0
  6
BYBLOCK
 10
4024.5442209373732
 20
-1958.7703885727281
 30
0.0
 11
4018.5442209373741
 21
-1957.162693432728
 31
0.0
  0
LINE
  5
1A6A3
  8
0
  6
BYBLOCK
 10
4018.5442209373741
 20
-1957.162693432728
 30
0.0
 11
4024.5442209373732
 21
-1955.554998292728
 31
0.0
  0
LINE
  5
1A6A4
  8
0
  6
BYBLOCK
 10
4018.5442209373741
 20
-1957.162693432728
 30
0.0
 11
4024.5442209373732
 21
-1957.162693432728
 31
0.0
  0
LINE
  5
1A6A5
  8
0
  6
BYBLOCK
 10
4082.5442209373741
 20
-1955.554998292728
 30
0.0
 11
4088.5442209373741
 21
-1957.162693432728
 31
0.0
  0
LINE
  5
1A6A6
  8
0
  6
BYBLOCK
 10
4088.5442209373741
 20
-1957.162693432728
 30
0.0
 11
4082.5442209373741
 21
-1958.7703885727281
 31
0.0
  0
LINE
  5
1A6A7
  8
0
  6
BYBLOCK
 10
4088.5442209373741
 20
-1957.162693432728
 30
0.0
 11
4082.5442209373741
 21
-1957.162693432728
 31
0.0
  0
LINE
  5
1A6A8
  8
0
  6
BYBLOCK
 10
4014.5777183993719
 20
-2169.984338272433
 30
0.0
 11
4019.9812257571839
 21
-2166.9205510903239
 31
0.0
  0
LINE
  5
1A6A9
  8
0
  6
BYBLOCK
 10
4019.9812257571839
 20
-2166.9205510903239
 30
0.0
 11
4016.8335446825431
 21
-2172.275622286445
 31
0.0
  0
LINE
  5
1A6AA
  8
0
  6
BYBLOCK
 10
4019.9812257571839
 20
-2166.9205510903239
 30
0.0
 11
4015.7056315409568
 21
-2171.1299802794392
 31
0.0
  0
TEXT
  5
1A6AB
  8
1DIM
 10
3996.1679457612108
 20
-2187.4183606277711
 30
0.0
 40
10.5
  1
R5 
 50
44.553224571375118
  0
LINE
  5
1A6AC
  8
1DIM
 10
3979.8144309079339
 20
-1820.84298792923
 30
0.0
 11
3998.765420455115
 21
-1854.2420124048499
 31
0.0
1001
ACAD
1000
DSTYLE
1002
{
1070
    40
1040
2.0
1002
}
  0
LINE
  5
1A6AD
  8
1DIM
 10
3998.765420455115
 20
-1854.2420124048499
 30
0.0
 11
4111.4987537884481
 21
-1854.2420124048499
 31
0.0
1001
ACAD
1000
DSTYLE
1002
{
1070
    40
1040
2.0
1002
}
  0
TEXT
  5
1A6AE
  8
1DIM
 10
4069.3905255610148
 20
-1451.457735192093
 30
0.0
 40
7.0
  1
34 
 50
90.0
  0
LINE
  5
1A6AF
  8
0
  6
BYBLOCK
 10
4071.8623223210152
 20
-1458.5244018587609
 30
0.0
 11
4070.7905255610149
 21
-1462.5244018587609
 31
0.0
  0
LINE
  5
1A6B0
  8
0
  6
BYBLOCK
 10
4070.7905255610149
 20
-1462.5244018587609
 30
0.0
 11
4069.718728801015
 21
-1458.5244018587609
 31
0.0
  0
LINE
  5
1A6B1
  8
0
  6
BYBLOCK
 10
4070.7905255610149
 20
-1462.5244018587609
 30
0.0
 11
4070.7905255610149
 21
-1458.5244018587609
 31
0.0
  0
LINE
  5
1A6B2
  8
0
  6
BYBLOCK
 10
4069.718728801015
 20
-1432.724401858761
 30
0.0
 11
4070.7905255610149
 21
-1428.724401858761
 31
0.0
  0
LINE
  5
1A6B3
  8
0
  6
BYBLOCK
 10
4070.7905255610149
 20
-1428.724401858761
 30
0.0
 11
4071.8623223210152
 21
-1432.724401858761
 31
0.0
  0
LINE
  5
1A6B4
  8
0
  6
BYBLOCK
 10
4070.7905255610149
 20
-1428.724401858761
 30
0.0
 11
4070.7905255610149
 21
-1432.724401858761
 31
0.0
  0
TEXT
  5
1A6B5
  8
1DIM
 10
4089.3905255610148
 20
-1460.457735192093
 30
0.0
 40
7.0
  1
52 
 50
90.0
  0
LINE
  5
1A6B6
  8
0
  6
BYBLOCK
 10
4091.8623223210152
 20
-1476.5244018587609
 30
0.0
 11
4090.7905255610149
 21
-1480.5244018587609
 31
0.0
  0
LINE
  5
1A6B7
  8
0
  6
BYBLOCK
 10
4090.7905255610149
 20
-1480.5244018587609
 30
0.0
 11
4089.7187288010159
 21
-1476.5244018587609
 31
0.0
  0
LINE
  5
1A6B8
  8
0
  6
BYBLOCK
 10
4090.7905255610149
 20
-1480.5244018587609
 30
0.0
 11
4090.7905255610149
 21
-1476.5244018587609
 31
0.0
  0
LINE
  5
1A6B9
  8
0
  6
BYBLOCK
 10
4089.7187288010159
 20
-1432.724401858761
 30
0.0
 11
4090.7905255610149
 21
-1428.724401858761
 31
0.0
  0
LINE
  5
1A6BA
  8
0
  6
BYBLOCK
 10
4090.7905255610149
 20
-1428.724401858761
 30
0.0
 11
4091.8623223210152
 21
-1432.724401858761
 31
0.0
  0
LINE
  5
1A6BB
  8
0
  6
BYBLOCK
 10
4090.7905255610149
 20
-1428.724401858761
 30
0.0
 11
4090.7905255610149
 21
-1432.724401858761
 31
0.0
  0
TEXT
  5
1A6BC
  8
1DIM
 10
4090.0442209373741
 20
-2229.6626934327278
 30
0.0
 40
10.5
  1
34 
  0
LINE
  5
1A6BD
  8
0
  6
BYBLOCK
 10
4109.7942209373741
 20
-2230.1549982927281
 30
0.0
 11
4115.7942209373741
 21
-2231.7626934327282
 31
0.0
  0
LINE
  5
1A6BE
  8
0
  6
BYBLOCK
 10
4115.7942209373741
 20
-2231.7626934327282
 30
0.0
 11
4109.7942209373741
 21
-2233.3703885727282
 31
0.0
  0
LINE
  5
1A6BF
  8
0
  6
BYBLOCK
 10
4115.7942209373741
 20
-2231.7626934327282
 30
0.0
 11
4109.7942209373741
 21
-2231.7626934327282
 31
0.0
  0
LINE
  5
1A6C0
  8
0
  6
BYBLOCK
 10
4087.7942209373732
 20
-2233.3703885727282
 30
0.0
 11
4081.7942209373741
 21
-2231.7626934327282
 31
0.0
  0
LINE
  5
1A6C1
  8
0
  6
BYBLOCK
 10
4081.7942209373741
 20
-2231.7626934327282
 30
0.0
 11
4087.7942209373732
 21
-2230.1549982927281
 31
0.0
  0
LINE
  5
1A6C2
  8
0
  6
BYBLOCK
 10
4081.7942209373741
 20
-2231.7626934327282
 30
0.0
 11
4087.7942209373732
 21
-2231.7626934327282
 31
0.0
  0
TEXT
  5
1A6C3
  8
1DIM
 10
4163.6942209373756
 20
-2235.6126934327272
 30
0.0
 40
10.5
  1
12 
 50
90.0
  0
LINE
  5
1A6C4
  8
0
  6
BYBLOCK
 10
4164.1865257973759
 20
-2212.7626934327282
 30
0.0
 11
4165.794220937375
 21
-2206.7626934327282
 31
0.0
  0
LINE
  5
1A6C5
  8
0
  6
BYBLOCK
 10
4165.794220937375
 20
-2206.7626934327282
 30
0.0
 11
4167.401916077376
 21
-2212.7626934327282
 31
0.0
  0
LINE
  5
1A6C6
  8
0
  6
BYBLOCK
 10
4165.794220937375
 20
-2206.7626934327282
 30
0.0
 11
4165.794220937375
 21
-2212.7626934327282
 31
0.0
  0
LINE
  5
1A6C7
  8
0
  6
BYBLOCK
 10
4167.401916077376
 20
-2188.462693432728
 30
0.0
 11
4165.794220937375
 21
-2194.462693432728
 31
0.0
  0
LINE
  5
1A6C8
  8
0
  6
BYBLOCK
 10
4165.794220937375
 20
-2194.462693432728
 30
0.0
 11
4164.1865257973759
 21
-2188.462693432728
 31
0.0
  0
LINE
  5
1A6C9
  8
0
  6
BYBLOCK
 10
4165.794220937375
 20
-2194.462693432728
 30
0.0
 11
4165.794220937375
 21
-2188.462693432728
 31
0.0
  0
TEXT
  5
1A6CA
  8
1DIM
 10
3714.6942209373742
 20
-2203.3626934327272
 30
0.0
 40
10.5
  1
21 
 50
90.0
  0
LINE
  5
1A6CB
  8
0
  6
BYBLOCK
 10
3718.4019160773742
 20
-2200.7626934327282
 30
0.0
 11
3716.7942209373732
 21
-2206.7626934327282
 31
0.0
  0
LINE
  5
1A6CC
  8
0
  6
BYBLOCK
 10
3716.7942209373732
 20
-2206.7626934327282
 30
0.0
 11
3715.1865257973741
 21
-2200.7626934327282
 31
0.0
  0
LINE
  5
1A6CD
  8
0
  6
BYBLOCK
 10
3716.7942209373732
 20
-2206.7626934327282
 30
0.0
 11
3716.7942209373732
 21
-2200.7626934327282
 31
0.0
  0
LINE
  5
1A6CE
  8
0
  6
BYBLOCK
 10
3715.1865257973741
 20
-2191.962693432728
 30
0.0
 11
3716.7942209373732
 21
-2185.962693432728
 31
0.0
  0
LINE
  5
1A6CF
  8
0
  6
BYBLOCK
 10
3716.7942209373732
 20
-2185.962693432728
 30
0.0
 11
3718.4019160773742
 21
-2191.962693432728
 31
0.0
  0
LINE
  5
1A6D0
  8
0
  6
BYBLOCK
 10
3716.7942209373732
 20
-2185.962693432728
 30
0.0
 11
3716.7942209373732
 21
-2191.962693432728
 31
0.0
  0
TEXT
  5
1A6D1
  8
1DIM
 10
4075.919220937375
 20
-1936.279071252678
 30
0.0
 40
10.5
  1
62 
  0
LINE
  5
1A6D2
  8
0
  6
BYBLOCK
 10
4109.7942209373768
 20
-1936.7713761126779
 30
0.0
 11
4115.7942209373768
 21
-1938.3790712526779
 31
0.0
  0
LINE
  5
1A6D3
  8
0
  6
BYBLOCK
 10
4115.7942209373768
 20
-1938.3790712526779
 30
0.0
 11
4109.7942209373768
 21
-1939.986766392678
 31
0.0
  0
LINE
  5
1A6D4
  8
0
  6
BYBLOCK
 10
4115.7942209373768
 20
-1938.3790712526779
 30
0.0
 11
4109.7942209373768
 21
-1938.3790712526779
 31
0.0
  0
LINE
  5
1A6D5
  8
0
  6
BYBLOCK
 10
4059.5442209373741
 20
-1939.986766392678
 30
0.0
 11
4053.5442209373741
 21
-1938.3790712526779
 31
0.0
  0
LINE
  5
1A6D6
  8
0
  6
BYBLOCK
 10
4053.5442209373741
 20
-1938.3790712526779
 30
0.0
 11
4059.5442209373741
 21
-1936.7713761126779
 31
0.0
  0
LINE
  5
1A6D7
  8
0
  6
BYBLOCK
 10
4053.5442209373741
 20
-1938.3790712526779
 30
0.0
 11
4059.5442209373741
 21
-1938.3790712526779
 31
0.0
  0
TEXT
  5
1A6D8
  8
1DIM
 10
3739.6942209373742
 20
-2161.1126934327281
 30
0.0
 40
10.5
  1
112 
 50
90.0
  0
LINE
  5
1A6D9
  8
0
  6
BYBLOCK
 10
3743.4019160773742
 20
-2200.7626934327282
 30
0.0
 11
3741.7942209373741
 21
-2206.7626934327282
 31
0.0
  0
LINE
  5
1A6DA
  8
0
  6
BYBLOCK
 10
3741.7942209373741
 20
-2206.7626934327282
 30
0.0
 11
3740.1865257973741
 21
-2200.7626934327282
 31
0.0
  0
LINE
  5
1A6DB
  8
0
  6
BYBLOCK
 10
3741.7942209373741
 20
-2206.7626934327282
 30
0.0
 11
3741.7942209373741
 21
-2200.7626934327282
 31
0.0
  0
LINE
  5
1A6DC
  8
0
  6
BYBLOCK
 10
3740.1865257973741
 20
-2100.462693432728
 30
0.0
 11
3741.7942209373741
 21
-2094.4626934327289
 31
0.0
  0
LINE
  5
1A6DD
  8
0
  6
BYBLOCK
 10
3741.7942209373741
 20
-2094.4626934327289
 30
0.0
 11
3743.4019160773742
 21
-2100.462693432728
 31
0.0
  0
LINE
  5
1A6DE
  8
0
  6
BYBLOCK
 10
3741.7942209373741
 20
-2094.4626934327289
 30
0.0
 11
3741.7942209373741
 21
-2100.462693432728
 31
0.0
  0
LINE
  5
1A6DF
  8
1DIM
 10
4049.6574626264801
 20
-2089.8939080341102
 30
0.0
 11
4020.140639102669
 21
-2055.0741222928732
 31
0.0
1001
ACAD
1000
DSTYLE
1002
{
1070
    40
1040
3.0
1002
}
  0
LINE
  5
1A6E0
  8
1DIM
 10
4020.140639102669
 20
-2055.0741222928732
 30
0.0
 11
3888.8406391026701
 21
-2055.0741222928732
 31
0.0
1001
ACAD
1000
DSTYLE
1002
{
1070
    40
1040
3.0
1002
}
  0
VIEWPORT
  5
57
 67
     1
  8
0
 10
-8.0474333344065485
 20
191.68690156853421
 30
0.0
 40
1009.946925621839
 41
669.68777373673322
 68
     1
 69
     1
1001
ACAD
1000
MVIEW
1002
{
1070
    16
1010
0.0
1020
0.0
1030
0.0
1010
0.0
1020
0.0
1030
1.0
1040
0.0
1040
669.68777373673322
1040
-8.0474333344065485
1040
191.68690156853421
1040
50.0
1040
0.0
1040
0.0
1070
     0
1070
   100
1070
     1
1070
     1
1070
     0
1070
     0
1070
     0
1070
     0
1040
0.0
1040
0.0
1040
0.0
1040
10.0
1040
10.0
1040
10.0
1040
10.0
1070
     0
1002
{
1002
}
1002
}
  0
ENDSEC
  0
EOF
