  0
SECTION
  2
HEADER
  9
$ACADVER
  1
AC1009
  9
$INSBASE
 10
0.0
 20
0.0
 30
0.0
  9
$EXTMIN
 10
-1299.6844431800259
 20
1433.0014535903961
 30
0.0
  9
$EXTMAX
 10
-1010.392401245335
 20
1612.587000511181
 30
0.0
  9
$LIMMIN
 10
0.0
 20
0.0
  9
$LIMMAX
 10
420.0
 20
297.0
  9
$ORTHOMODE
 70
     0
  9
$REGENMODE
 70
     1
  9
$FILLMODE
 70
     1
  9
$QTEXTMODE
 70
     0
  9
$MIRRTEXT
 70
     1
  9
$DRAGMODE
 70
     2
  9
$LTSCALE
 40
0.5
  9
$OSMODE
 70
  2175
  9
$ATTMODE
 70
     1
  9
$TEXTSIZE
 40
8.0
  9
$TRACEWID
 40
1.0
  9
$TEXTSTYLE
  7
STANDARD
  9
$CLAYER
  8
1TEXT
  9
$CELTYPE
  6
BYLAYER
  9
$CECOLOR
 62
   256
  9
$DIMSCALE
 40
1.0
  9
$DIMASZ
 40
2.0
  9
$DIMEXO
 40
0.0
  9
$DIMDLI
 40
7.0
  9
$DIMRND
 40
0.0
  9
$DIMDLE
 40
0.0
  9
$DIMEXE
 40
1.0
  9
$DIMTP
 40
0.0
  9
$DIMTM
 40
0.0
  9
$DIMTXT
 40
3.5
  9
$DIMCEN
 40
0.0
  9
$DIMTSZ
 40
0.0
  9
$DIMTOL
 70
     0
  9
$DIMLIM
 70
     0
  9
$DIMTIH
 70
     0
  9
$DIMTOH
 70
     0
  9
$DIMSE1
 70
     0
  9
$DIMSE2
 70
     0
  9
$DIMTAD
 70
     1
  9
$DIMZIN
 70
     8
  9
$DIMBLK
  1

  9
$DIMASO
 70
     1
  9
$DIMSHO
 70
     1
  9
$DIMPOST
  1
 
  9
$DIMAPOST
  1

  9
$DIMALT
 70
     0
  9
$DIMALTD
 70
     2
  9
$DIMALTF
 40
25.399999999999999
  9
$DIMLFAC
 40
1.0
  9
$DIMTOFL
 70
     1
  9
$DIMTVP
 40
0.0
  9
$DIMTIX
 70
     0
  9
$DIMSOXD
 70
     0
  9
$DIMSAH
 70
     1
  9
$DIMBLK1
  1
OPEN30
  9
$DIMBLK2
  1
OPEN30
  9
$DIMSTYLE
  2
NEWX10
  9
$DIMCLRD
 70
   256
  9
$DIMCLRE
 70
   256
  9
$DIMCLRT
 70
   201
  9
$DIMTFAC
 40
0.7
  9
$DIMGAP
 40
0.7
  9
$LUNITS
 70
     2
  9
$LUPREC
 70
     4
  9
$SKETCHINC
 40
1.0
  9
$FILLETRAD
 40
0.0
  9
$AUNITS
 70
     0
  9
$AUPREC
 70
     2
  9
$MENU
  1
acad
  9
$ELEVATION
 40
0.0
  9
$PELEVATION
 40
0.0
  9
$THICKNESS
 40
0.0
  9
$LIMCHECK
 70
     0
  9
$BLIPMODE
 70
     0
  9
$CHAMFERA
 40
10.0
  9
$CHAMFERB
 40
10.0
  9
$SKPOLY
 70
     0
  9
$TDCREATE
 40
2454179.7056309609
  9
$TDUPDATE
 40
2454455.653008345
  9
$TDINDWG
 40
0.390298206
  9
$TDUSRTIMER
 40
0.3902980324
  9
$USRTIMER
 70
     1
  9
$ANGBASE
 50
0.0
  9
$ANGDIR
 70
     0
  9
$PDMODE
 70
     0
  9
$PDSIZE
 40
0.0
  9
$PLINEWID
 40
0.0
  9
$COORDS
 70
     2
  9
$SPLFRAME
 70
     0
  9
$SPLINETYPE
 70
     6
  9
$SPLINESEGS
 70
     8
  9
$ATTDIA
 70
     0
  9
$ATTREQ
 70
     1
  9
$HANDLING
 70
     1
  9
$HANDSEED
  5
45FB
  9
$SURFTAB1
 70
     6
  9
$SURFTAB2
 70
     6
  9
$SURFTYPE
 70
     6
  9
$SURFU
 70
     6
  9
$SURFV
 70
     6
  9
$UCSNAME
  2

  9
$UCSORG
 10
0.0
 20
0.0
 30
0.0
  9
$UCSXDIR
 10
1.0
 20
0.0
 30
0.0
  9
$UCSYDIR
 10
0.0
 20
1.0
 30
0.0
  9
$PUCSNAME
  2

  9
$PUCSORG
 10
0.0
 20
0.0
 30
0.0
  9
$PUCSXDIR
 10
1.0
 20
0.0
 30
0.0
  9
$PUCSYDIR
 10
0.0
 20
1.0
 30
0.0
  9
$USERI1
 70
     0
  9
$USERI2
 70
     0
  9
$USERI3
 70
     0
  9
$USERI4
 70
     0
  9
$USERI5
 70
     0
  9
$USERR1
 40
0.0
  9
$USERR2
 40
0.0
  9
$USERR3
 40
0.0
  9
$USERR4
 40
0.0
  9
$USERR5
 40
0.0
  9
$WORLDVIEW
 70
     1
  9
$SHADEDGE
 70
     3
  9
$SHADEDIF
 70
    70
  9
$TILEMODE
 70
     1
  9
$MAXACTVP
 70
    48
  9
$PLIMCHECK
 70
     0
  9
$PEXTMIN
 10
1.0000000000000000E+020
 20
1.0000000000000000E+020
 30
1.0000000000000000E+020
  9
$PEXTMAX
 10
-1.0000000000000000E+020
 20
-1.0000000000000000E+020
 30
-1.0000000000000000E+020
  9
$PLIMMIN
 10
0.0
 20
0.0
  9
$PLIMMAX
 10
420.0
 20
297.0
  9
$UNITMODE
 70
     0
  9
$VISRETAIN
 70
     1
  9
$PLINEGEN
 70
     0
  9
$PSLTSCALE
 70
     1
  0
ENDSEC
  0
SECTION
  2
TABLES
  0
TABLE
  2
VPORT
 70
    12
  0
VPORT
  2
*ACTIVE
 70
     0
 10
0.0
 20
0.0
 11
1.0
 21
1.0
 12
-1155.0364194845799
 22
1522.7857027400239
 13
0.0
 23
0.0
 14
10.0
 24
10.0
 15
10.0
 25
10.0
 16
0.0
 26
0.0
 36
1.0
 17
0.0
 27
0.0
 37
0.0
 40
203.07088896664291
 41
1.508086253369272
 42
50.0
 43
0.0
 44
0.0
 50
0.0
 51
0.0
 71
     0
 72
  1000
 73
     1
 74
     1
 75
     0
 76
     0
 77
     0
 78
     0
  0
ENDTAB
  0
TABLE
  2
LTYPE
 70
    15
  0
LTYPE
  2
CONTINUOUS
 70
     0
  3
Solid line
 72
    65
 73
     0
 40
0.0
  0
LTYPE
  2
CENTER2
 70
     0
  3
Center (.5x) ___ _ ___ _ ___ _ ___ _ ___ _ ___
 72
    65
 73
     4
 40
28.574999999999999
 49
19.050000000000001
 49
-3.1749999999999989
 49
3.1749999999999989
 49
-3.1749999999999989
  0
LTYPE
  2
A3WAKU|CENTER2
 70
    48
  3
Center (.5x) ___ _ ___ _ ___ _ ___ _ ___ _ ___
 72
    65
 73
     4
 40
28.574999999999999
 49
19.050000000000001
 49
-3.1749999999999989
 49
3.1749999999999989
 49
-3.1749999999999989
  0
LTYPE
  2
XREF1|CENTER2
 70
    48
  3
Center (.5x) ___ _ ___ _ ___ _ ___ _ ___ _ ___
 72
    65
 73
     4
 40
28.574999999999999
 49
19.050000000000001
 49
-3.1749999999999989
 49
3.1749999999999989
 49
-3.1749999999999989
  0
LTYPE
  2
PHANTOM2
 70
     0
  3
Phantom (.5x) ___ _ _ ___ _ _ ___ _ _ ___ _ _
 72
    65
 73
     6
 40
31.75
 49
15.875
 49
-3.1749999999999989
 49
3.1749999999999989
 49
-3.1749999999999989
 49
3.1749999999999989
 49
-3.1749999999999989
  0
LTYPE
  2
A3WAKUDAKE|CENTER2
 70
    48
  3
Center (.5x) ___ _ ___ _ ___ _ ___ _ ___ _ ___
 72
    65
 73
     4
 40
28.574999999999999
 49
19.050000000000001
 49
-3.1749999999999989
 49
3.1749999999999989
 49
-3.1749999999999989
  0
ENDTAB
  0
TABLE
  2
LAYER
 70
    48
  0
LAYER
  2
0
 70
     0
 62
     7
  6
CONTINUOUS
  0
LAYER
  2
1CENTER
 70
     0
 62
     7
  6
CENTER2
  0
LAYER
  2
1TEXT
 70
     0
 62
     7
  6
CONTINUOUS
  0
LAYER
  2
A3WAKU|THICK
 70
    48
 62
     7
  6
CONTINUOUS
  0
LAYER
  2
A3WAKU|POINT
 70
    48
 62
     7
  6
CONTINUOUS
  0
LAYER
  2
A3WAKU|1CENTER
 70
    48
 62
     7
  6
A3WAKU|CENTER2
  0
LAYER
  2
1DIM
 70
     0
 62
     7
  6
CONTINUOUS
  0
LAYER
  2
1PHANTOM
 70
     0
 62
     7
  6
PHANTOM2
  0
LAYER
  2
01
 70
     0
 62
     1
  6
CONTINUOUS
  0
LAYER
  2
XREF1|1CENTER
 70
    48
 62
     7
  6
XREF1|CENTER2
  0
LAYER
  2
A3WAKUDAKE|THICK
 70
    48
 62
     7
  6
CONTINUOUS
  0
LAYER
  2
A3WAKUDAKE|POINT
 70
    48
 62
     7
  6
CONTINUOUS
  0
LAYER
  2
A3WAKUDAKE|1CENTER
 70
    48
 62
     7
  6
A3WAKUDAKE|CENTER2
  0
LAYER
  2
A3WAKUDAKE|0-6
 70
    48
 62
     7
  6
CONTINUOUS
  0
LAYER
  2
A3WAKUDAKE|1DIM
 70
    48
 62
     7
  6
CONTINUOUS
  0
ENDTAB
  0
TABLE
  2
STYLE
 70
    22
  0
STYLE
  2
STANDARD
 70
     0
 40
0.0
 41
1.0
 50
0.0
 71
     0
 42
8.0
  3
txt.shx
  4
extfont.shx
  0
ENDTAB
  0
TABLE
  2
VIEW
 70
     0
  0
ENDTAB
  0
TABLE
  2
UCS
 70
     0
  0
ENDTAB
  0
TABLE
  2
APPID
 70
     8
  0
APPID
  2
ACAD
 70
     0
  0
APPID
  2
DRAWINGVARIABLESXDATA
 70
     0
  0
APPID
  2
CONTENTTABDATA
 70
     0
  0
APPID
  2
CONTENTCURRENTTAB
 70
     0
  0
APPID
  2
CONTENTBLOCKDESCRIPTION
 70
     0
  0
APPID
  2
CONTENTBLOCKICON
 70
     0
  0
APPID
  2
CONTENTLONGBLOCKNAME
 70
     0
  0
APPID
  2
ACAD_PSEXT
 70
     0
  0
ENDTAB
  0
TABLE
  2
DIMSTYLE
 70
     9
  0
DIMSTYLE
  2
NEWX10
 70
     0
  3
 
  4

  5

  6
OPEN30
  7
OPEN30
 40
1.0
 41
2.0
 42
0.0
 43
7.0
 44
1.0
 45
0.0
 46
0.0
 47
0.0
 48
0.0
140
3.5
141
0.0
142
0.0
143
25.399999999999999
144
1.0
145
0.0
146
0.7
147
0.7
 71
     0
 72
     0
 73
     0
 74
     0
 75
     0
 76
     0
 77
     1
 78
     8
170
     0
171
     2
172
     1
173
     1
174
     0
175
     0
176
   256
177
   256
178
   201
  0
ENDTAB
  0
ENDSEC
  0
SECTION
  2
BLOCKS
  0
BLOCK
  8
0
  2
$MODEL_SPACE
 70
     0
 10
0.0
 20
0.0
 30
0.0
  3
$MODEL_SPACE
  1

  0
ENDBLK
  5
1A
  8
0
  0
BLOCK
 67
     1
  8
0
  2
$PAPER_SPACE
 70
     0
 10
0.0
 20
0.0
 30
0.0
  3
$PAPER_SPACE
  1

  0
ENDBLK
  5
17
 67
     1
  8
0
  0
BLOCK
  8
0
  2
_OPEN30
 70
     0
 10
0.0
 20
0.0
 30
0.0
  3
_OPEN30
  1

  0
LINE
  5
44
  8
0
  6
BYBLOCK
 62
     0
 10
-1.0
 20
0.26794919
 30
0.0
 11
0.0
 21
0.0
 31
0.0
  0
LINE
  5
45
  8
0
  6
BYBLOCK
 62
     0
 10
0.0
 20
0.0
 30
0.0
 11
-1.0
 21
-0.26794919
 31
0.0
  0
LINE
  5
46
  8
0
  6
BYBLOCK
 62
     0
 10
0.0
 20
0.0
 30
0.0
 11
-1.0
 21
0.0
 31
0.0
  0
ENDBLK
  5
47
  8
0
  0
BLOCK
  8
0
  2
A3WAKU
 70
    36
 10
0.0
 20
0.0
 30
0.0
  3
A3WAKU
  1
D:\ACLT\FORMAT\A3WAKU.dwg
  0
ENDBLK
  5
5A
  8
0
  0
BLOCK
  8
0
  2
XREF1
 70
    36
 10
0.0
 20
0.0
 30
0.0
  3
XREF1
  1
D:\ACLT\FORMAT\KAWAJUN(9)図面用.dwg
  0
ENDBLK
  5
5D
  8
0
  0
BLOCK
  8
0
  2
A3WAKUDAKE
 70
    36
 10
0.0
 20
0.0
 30
0.0
  3
A3WAKUDAKE
  1
D:\ACLT\FORMAT\A3WAKUdake.dwg
  0
ENDBLK
  5
406A
  8
0
  0
BLOCK
  8
0
  2
*X43
 70
     1
 10
0.0
 20
0.0
 30
0.0
  3
*X43
  1

  0
LINE
  5
42FE
  8
0
 62
     0
 10
25.928735330406681
 20
0.0000000000000284
 30
0.0
 11
26.249999999999972
 21
0.3212646695933188
 31
0.0
  0
LINE
  5
42FF
  8
0
 62
     0
 10
23.683671300139419
 20
0.0000000000000568
 30
0.0
 11
26.249999999999972
 21
2.566328699860605
 31
0.0
  0
LINE
  5
4300
  8
0
 62
     0
 10
21.43860726987214
 20
0.0000000000000284
 30
0.0
 11
26.25
 21
4.811392730127892
 31
0.0
  0
LINE
  5
4301
  8
0
 62
     0
 10
19.19354323960485
 20
0.0000000000000284
 30
0.0
 11
26.250000000000028
 21
7.0564567603952071
 31
0.0
  0
LINE
  5
4302
  8
0
 62
     0
 10
16.94847920933756
 20
0.0000000000000568
 30
0.0
 11
26.25
 21
9.3015207906624937
 31
0.0
  0
LINE
  5
4303
  8
0
 62
     0
 10
14.7034151790703
 20
0.0000000000000853
 30
0.0
 11
26.25
 21
11.54658482092978
 31
0.0
  0
LINE
  5
4304
  8
0
 62
     0
 10
12.45835114880302
 20
0.0000000000000568
 30
0.0
 11
26.25
 21
13.79164885119704
 31
0.0
  0
LINE
  5
4305
  8
0
 62
     0
 10
10.21328711853573
 20
0.0000000000000568
 30
0.0
 11
25.96328711853565
 21
15.74999999999997
 31
0.0
  0
LINE
  5
4306
  8
0
 62
     0
 10
7.9682230882683882
 20
0.0000000000000284
 30
0.0
 11
23.71822308826836
 21
15.75
 31
0.0
  0
LINE
  5
4307
  8
0
 62
     0
 10
5.72315905800113
 20
0.0000000000000568
 30
0.0
 11
21.473159058001102
 21
15.75000000000003
 31
0.0
  0
LINE
  5
4308
  8
0
 62
     0
 10
3.4780950277338429
 20
0.0000000000000284
 30
0.0
 11
19.228095027733811
 21
15.75
 31
0.0
  0
LINE
  5
4309
  8
0
 62
     0
 10
1.2330309974665561
 20
0.0000000000000284
 30
0.0
 11
16.983030997466471
 21
15.74999999999994
 31
0.0
  0
LINE
  5
430A
  8
0
 62
     0
 10
-0.0000000000000284
 20
1.0120330328007581
 30
0.0
 11
14.73796696719918
 21
15.75
 31
0.0
  0
LINE
  5
430B
  8
0
 62
     0
 10
0.0000000000000284
 20
3.2570970630681009
 30
0.0
 11
12.4929029369319
 21
15.74999999999997
 31
0.0
  0
LINE
  5
430C
  8
0
 62
     0
 10
0.0000000000000284
 20
5.5021610933353591
 30
0.0
 11
10.24783890666464
 21
15.74999999999997
 31
0.0
  0
LINE
  5
430D
  8
0
 62
     0
 10
-0.0000000000000284
 20
7.7472251236026457
 30
0.0
 11
8.0027748763972966
 21
15.74999999999997
 31
0.0
  0
LINE
  5
430E
  8
0
 62
     0
 10
0.0
 20
9.9922891538699616
 30
0.0
 11
5.7577108461300384
 21
15.75
 31
0.0
  0
LINE
  5
430F
  8
0
 62
     0
 10
0.0
 20
12.23735318413722
 30
0.0
 11
3.5126468158627802
 21
15.75
 31
0.0
  0
LINE
  5
4310
  8
0
 62
     0
 10
0.0
 20
14.48241721440451
 30
0.0
 11
1.267582785595436
 21
15.74999999999997
 31
0.0
  0
ENDBLK
  5
4312
  8
0
  0
BLOCK
  8
0
  2
*X44
 70
     1
 10
0.0
 20
0.0
 30
0.0
  3
*X44
  1

  0
LINE
  5
4314
  8
0
 62
     0
 10
75.320143996287044
 20
0.0000000000000284
 30
0.0
 11
77.250000000000057
 21
1.929856003713041
 31
0.0
  0
LINE
  5
4315
  8
0
 62
     0
 10
73.075079966019786
 20
0.0000000000000568
 30
0.0
 11
77.250000000000057
 21
4.1749200339803281
 31
0.0
  0
LINE
  5
4316
  8
0
 62
     0
 10
70.830015935752471
 20
0.0000000000000284
 30
0.0
 11
76.080015935752471
 21
5.2500000000000284
 31
0.0
  0
LINE
  5
4317
  8
0
 62
     0
 10
68.584951905485184
 20
0.0000000000000568
 30
0.0
 11
73.834951905485184
 21
5.250000000000056
 31
0.0
  0
LINE
  5
4318
  8
0
 62
     0
 10
66.339887875217926
 20
0.0000000000000568
 30
0.0
 11
71.589887875217926
 21
5.250000000000056
 31
0.0
  0
LINE
  5
4319
  8
0
 62
     0
 10
64.094823844950625
 20
0.0000000000000568
 30
0.0
 11
69.344823844950639
 21
5.250000000000056
 31
0.0
  0
LINE
  5
431A
  8
0
 62
     0
 10
61.849759814683352
 20
0.0000000000000568
 30
0.0
 11
67.099759814683296
 21
5.25
 31
0.0
  0
LINE
  5
431B
  8
0
 62
     0
 10
59.604695784416009
 20
0.0000000000000284
 30
0.0
 11
64.854695784416009
 21
5.2500000000000284
 31
0.0
  0
LINE
  5
431C
  8
0
 62
     0
 10
57.359631754148751
 20
0.0000000000000568
 30
0.0
 11
62.609631754148751
 21
5.250000000000056
 31
0.0
  0
LINE
  5
431D
  8
0
 62
     0
 10
55.114567723881471
 20
0.0000000000000284
 30
0.0
 11
60.364567723881457
 21
5.2500000000000284
 31
0.0
  0
LINE
  5
431E
  8
0
 62
     0
 10
52.86950369361417
 20
0.0000000000000284
 30
0.0
 11
58.119503693614178
 21
5.2500000000000284
 31
0.0
  0
LINE
  5
431F
  8
0
 62
     0
 10
50.624439663346891
 20
0.0000000000000568
 30
0.0
 11
55.874439663346891
 21
5.250000000000056
 31
0.0
  0
LINE
  5
4320
  8
0
 62
     0
 10
48.379375633079597
 20
0.0000000000000568
 30
0.0
 11
53.629375633079597
 21
5.250000000000056
 31
0.0
  0
LINE
  5
4321
  8
0
 62
     0
 10
46.134311602812318
 20
0.0000000000000568
 30
0.0
 11
51.384311602812318
 21
5.250000000000056
 31
0.0
  0
LINE
  5
4322
  8
0
 62
     0
 10
43.889247572545003
 20
0.0
 30
0.0
 11
49.139247572545003
 21
5.25
 31
0.0
  0
LINE
  5
4323
  8
0
 62
     0
 10
41.644183542277709
 20
0.0000000000000284
 30
0.0
 11
46.894183542277709
 21
5.2500000000000284
 31
0.0
  0
LINE
  5
4324
  8
0
 62
     0
 10
39.399119512010458
 20
0.0000000000000568
 30
0.0
 11
44.649119512010429
 21
5.2500000000000284
 31
0.0
  0
LINE
  5
4325
  8
0
 62
     0
 10
37.154055481743143
 20
0.0000000000000284
 30
0.0
 11
42.404055481743143
 21
5.2500000000000284
 31
0.0
  0
LINE
  5
4326
  8
0
 62
     0
 10
34.908991451475892
 20
0.0000000000000568
 30
0.0
 11
40.158991451475877
 21
5.250000000000056
 31
0.0
  0
LINE
  5
4327
  8
0
 62
     0
 10
32.663927421208598
 20
0.0000000000000568
 30
0.0
 11
37.913927421208598
 21
5.250000000000056
 31
0.0
  0
LINE
  5
4328
  8
0
 62
     0
 10
30.418863390941311
 20
0.0000000000000568
 30
0.0
 11
35.668863390941311
 21
5.250000000000056
 31
0.0
  0
LINE
  5
4329
  8
0
 62
     0
 10
28.173799360674028
 20
0.0000000000000568
 30
0.0
 11
33.423799360674018
 21
5.250000000000056
 31
0.0
  0
LINE
  5
432A
  8
0
 62
     0
 10
26.249999999999972
 20
0.3212646695933188
 30
0.0
 11
31.178735330406681
 21
5.2500000000000284
 31
0.0
  0
LINE
  5
432B
  8
0
 62
     0
 10
26.249999999999972
 20
2.566328699860605
 30
0.0
 11
28.933671300139419
 21
5.250000000000056
 31
0.0
  0
LINE
  5
432C
  8
0
 62
     0
 10
26.25
 20
4.811392730127892
 30
0.0
 11
26.68860726987214
 21
5.2500000000000284
 31
0.0
  0
ENDBLK
  5
432E
  8
0
  0
BLOCK
  8
0
  2
*X45
 70
     1
 10
0.0
 20
0.0
 30
0.0
  3
*X45
  1

  0
LINE
  5
4330
  8
0
 62
     0
 10
100.0158483292272
 20
0.0000000000000568
 30
0.0
 11
101.4999999999999
 21
1.484151670772774
 31
0.0
  0
LINE
  5
4331
  8
0
 62
     0
 10
97.770784298959967
 20
0.0000000000000568
 30
0.0
 11
101.5
 21
3.729215701040089
 31
0.0
  0
LINE
  5
4332
  8
0
 62
     0
 10
95.525720268692652
 20
0.0000000000000568
 30
0.0
 11
100.7757202686926
 21
5.2500000000000284
 31
0.0
  0
LINE
  5
4333
  8
0
 62
     0
 10
93.280656238425394
 20
0.0000000000000853
 30
0.0
 11
98.530656238425337
 21
5.2500000000000284
 31
0.0
  0
LINE
  5
4334
  8
0
 62
     0
 10
91.035592208158079
 20
0.0000000000000568
 30
0.0
 11
96.285592208158093
 21
5.250000000000056
 31
0.0
  0
LINE
  5
4335
  8
0
 62
     0
 10
88.790528177890778
 20
0.0000000000000568
 30
0.0
 11
94.040528177890764
 21
5.2500000000000284
 31
0.0
  0
LINE
  5
4336
  8
0
 62
     0
 10
86.545464147623505
 20
0.0000000000000284
 30
0.0
 11
91.795464147623505
 21
5.2500000000000284
 31
0.0
  0
LINE
  5
4337
  8
0
 62
     0
 10
84.300400117356219
 20
0.0000000000000568
 30
0.0
 11
89.55040011735619
 21
5.2500000000000284
 31
0.0
  0
LINE
  5
4338
  8
0
 62
     0
 10
82.055336087088946
 20
0.0000000000000853
 30
0.0
 11
87.305336087088946
 21
5.250000000000056
 31
0.0
  0
LINE
  5
4339
  8
0
 62
     0
 10
79.810272056821645
 20
0.0000000000000568
 30
0.0
 11
85.060272056821645
 21
5.250000000000056
 31
0.0
  0
LINE
  5
433A
  8
0
 62
     0
 10
77.565208026554387
 20
0.0000000000000853
 30
0.0
 11
82.815208026554345
 21
5.2500000000000284
 31
0.0
  0
LINE
  5
433B
  8
0
 62
     0
 10
77.250000000000057
 20
1.929856003713041
 30
0.0
 11
80.570143996287044
 21
5.2500000000000284
 31
0.0
  0
LINE
  5
433C
  8
0
 62
     0
 10
77.250000000000057
 20
4.1749200339803281
 30
0.0
 11
78.325079966019786
 21
5.250000000000056
 31
0.0
  0
ENDBLK
  5
433E
  8
0
  0
BLOCK
  8
0
  2
*X46
 70
     1
 10
0.0
 20
0.0
 30
0.0
  3
*X46
  1

  0
LINE
  5
4340
  8
0
 62
     0
 10
124.71155266216741
 20
0.0000000000000568
 30
0.0
 11
125.75
 21
1.0384473378326211
 31
0.0
  0
LINE
  5
4341
  8
0
 62
     0
 10
122.46648863190011
 20
0.0000000000000568
 30
0.0
 11
125.75
 21
3.2835113680999082
 31
0.0
  0
LINE
  5
4342
  8
0
 62
     0
 10
120.2214246016328
 20
0.0000000000000568
 30
0.0
 11
125.4714246016328
 21
5.25
 31
0.0
  0
LINE
  5
4343
  8
0
 62
     0
 10
117.9763605713655
 20
0.0000000000000568
 30
0.0
 11
123.2263605713655
 21
5.2500000000000284
 31
0.0
  0
LINE
  5
4344
  8
0
 62
     0
 10
115.7312965410983
 20
0.0000000000000853
 30
0.0
 11
120.9812965410982
 21
5.250000000000056
 31
0.0
  0
LINE
  5
4345
  8
0
 62
     0
 10
113.4862325108309
 20
0.0000000000000568
 30
0.0
 11
118.7362325108309
 21
5.250000000000056
 31
0.0
  0
LINE
  5
4346
  8
0
 62
     0
 10
111.2411684805637
 20
0.0000000000000853
 30
0.0
 11
116.4911684805636
 21
5.2500000000000284
 31
0.0
  0
LINE
  5
4347
  8
0
 62
     0
 10
108.9961044502963
 20
0.0000000000000284
 30
0.0
 11
114.2461044502963
 21
5.2500000000000284
 31
0.0
  0
LINE
  5
4348
  8
0
 62
     0
 10
106.7510404200291
 20
0.0000000000000568
 30
0.0
 11
112.0010404200291
 21
5.2500000000000284
 31
0.0
  0
LINE
  5
4349
  8
0
 62
     0
 10
104.5059763897618
 20
0.0000000000000284
 30
0.0
 11
109.7559763897618
 21
5.2500000000000284
 31
0.0
  0
LINE
  5
434A
  8
0
 62
     0
 10
102.2609123594945
 20
0.0000000000000568
 30
0.0
 11
107.5109123594945
 21
5.2500000000000284
 31
0.0
  0
LINE
  5
434B
  8
0
 62
     0
 10
101.5
 20
1.4841516707728031
 30
0.0
 11
105.2658483292272
 21
5.2500000000000284
 31
0.0
  0
LINE
  5
434C
  8
0
 62
     0
 10
101.5
 20
3.729215701040089
 30
0.0
 11
103.0207842989599
 21
5.2500000000000284
 31
0.0
  0
ENDBLK
  5
434E
  8
0
  0
BLOCK
  8
0
  2
*X47
 70
     1
 10
0.0
 20
0.0
 30
0.0
  3
*X47
  1

  0
LINE
  5
4350
  8
0
 62
     0
 10
147.16219296484019
 20
0.0000000000000284
 30
0.0
 11
147.99999999999989
 21
0.8378070351597273
 31
0.0
  0
LINE
  5
4351
  8
0
 62
     0
 10
144.91712893457299
 20
0.0000000000000568
 30
0.0
 11
147.99999999999989
 21
3.0828710654270131
 31
0.0
  0
LINE
  5
4352
  8
0
 62
     0
 10
142.6720649043057
 20
0.0000000000000284
 30
0.0
 11
147.9220649043057
 21
5.2500000000000284
 31
0.0
  0
LINE
  5
4353
  8
0
 62
     0
 10
140.42700087403841
 20
0.0000000000000568
 30
0.0
 11
145.67700087403841
 21
5.2500000000000284
 31
0.0
  0
LINE
  5
4354
  8
0
 62
     0
 10
138.1819368437711
 20
0.0000000000000284
 30
0.0
 11
143.4319368437711
 21
5.2500000000000284
 31
0.0
  0
LINE
  5
4355
  8
0
 62
     0
 10
135.93687281350381
 20
0.0000000000000568
 30
0.0
 11
141.18687281350381
 21
5.2500000000000284
 31
0.0
  0
LINE
  5
4356
  8
0
 62
     0
 10
133.69180878323661
 20
0.0000000000000568
 30
0.0
 11
138.9418087832365
 21
5.25
 31
0.0
  0
LINE
  5
4357
  8
0
 62
     0
 10
131.44674475296929
 20
0.0000000000000284
 30
0.0
 11
136.69674475296929
 21
5.250000000000056
 31
0.0
  0
LINE
  5
4358
  8
0
 62
     0
 10
129.20168072270189
 20
0.0000000000000284
 30
0.0
 11
134.45168072270189
 21
5.25
 31
0.0
  0
LINE
  5
4359
  8
0
 62
     0
 10
126.95661669243469
 20
0.0000000000000568
 30
0.0
 11
132.20661669243461
 21
5.2500000000000284
 31
0.0
  0
LINE
  5
435A
  8
0
 62
     0
 10
125.75
 20
1.03844733783265
 30
0.0
 11
129.96155266216741
 21
5.250000000000056
 31
0.0
  0
LINE
  5
435B
  8
0
 62
     0
 10
125.75
 20
3.2835113680999082
 30
0.0
 11
127.71648863190011
 21
5.2500000000000284
 31
0.0
  0
ENDBLK
  5
435D
  8
0
  0
BLOCK
  8
0
  2
*X48
 70
     1
 10
0.0
 20
0.0
 30
0.0
  3
*X48
  1

  0
LINE
  5
435F
  8
0
 62
     0
 10
51.813954174406398
 20
20.999999999999972
 30
0.0
 11
52.500000000000078
 21
21.686045825593649
 31
0.0
  0
LINE
  5
4360
  8
0
 62
     0
 10
49.568890144139118
 20
21.0
 30
0.0
 11
52.500000000000057
 21
23.931109855860939
 31
0.0
  0
LINE
  5
4361
  8
0
 62
     0
 10
47.323826113871817
 20
21.0
 30
0.0
 11
52.500000000000057
 21
26.176173886128229
 31
0.0
  0
LINE
  5
4362
  8
0
 62
     0
 10
45.078762083604573
 20
21.0
 30
0.0
 11
50.328762083604573
 21
26.25
 31
0.0
  0
LINE
  5
4363
  8
0
 62
     0
 10
42.833698053337287
 20
21.000000000000028
 30
0.0
 11
48.083698053337287
 21
26.250000000000028
 31
0.0
  0
LINE
  5
4364
  8
0
 62
     0
 10
40.588634023069972
 20
21.000000000000028
 30
0.0
 11
45.838634023069972
 21
26.250000000000028
 31
0.0
  0
LINE
  5
4365
  8
0
 62
     0
 10
38.343569992802657
 20
20.999999999999972
 30
0.0
 11
43.593569992802713
 21
26.250000000000028
 31
0.0
  0
LINE
  5
4366
  8
0
 62
     0
 10
36.09850596253537
 20
20.999999999999972
 30
0.0
 11
41.34850596253537
 21
26.249999999999972
 31
0.0
  0
LINE
  5
4367
  8
0
 62
     0
 10
33.85344193226809
 20
21.0
 30
0.0
 11
39.10344193226809
 21
26.25
 31
0.0
  0
LINE
  5
4368
  8
0
 62
     0
 10
31.6083779020008
 20
21.0
 30
0.0
 11
36.858377902000818
 21
26.250000000000028
 31
0.0
  0
LINE
  5
4369
  8
0
 62
     0
 10
29.363313871733538
 20
21.0
 30
0.0
 11
34.613313871733588
 21
26.250000000000028
 31
0.0
  0
LINE
  5
436A
  8
0
 62
     0
 10
27.11824984146622
 20
20.999999999999972
 30
0.0
 11
32.368249841466309
 21
26.250000000000028
 31
0.0
  0
LINE
  5
436B
  8
0
 62
     0
 10
26.250000000000028
 20
22.376814188801092
 30
0.0
 11
30.123185811198969
 21
26.250000000000028
 31
0.0
  0
LINE
  5
436C
  8
0
 62
     0
 10
24.87318581119894
 20
21.0
 30
0.0
 11
26.250000000000028
 21
22.376814188801092
 31
0.0
  0
LINE
  5
436D
  8
0
 62
     0
 10
26.25000000000006
 20
24.62187821906841
 30
0.0
 11
27.878121780931711
 21
26.25000000000006
 31
0.0
  0
LINE
  5
436E
  8
0
 62
     0
 10
22.628121780931679
 20
21.000000000000028
 30
0.0
 11
26.250000000000028
 21
24.621878219068378
 31
0.0
  0
LINE
  5
436F
  8
0
 62
     0
 10
20.383057750664371
 20
20.999999999999972
 30
0.0
 11
25.63305775066442
 21
26.250000000000028
 31
0.0
  0
LINE
  5
4370
  8
0
 62
     0
 10
18.13799372039708
 20
20.999999999999972
 30
0.0
 11
23.38799372039713
 21
26.250000000000028
 31
0.0
  0
LINE
  5
4371
  8
0
 62
     0
 10
15.89292969012979
 20
21.0
 30
0.0
 11
21.142929690129851
 21
26.25000000000006
 31
0.0
  0
LINE
  5
4372
  8
0
 62
     0
 10
13.6478656598625
 20
21.0
 30
0.0
 11
18.897865659862529
 21
26.250000000000028
 31
0.0
  0
LINE
  5
4373
  8
0
 62
     0
 10
11.402801629595221
 20
20.999999999999972
 30
0.0
 11
16.652801629595299
 21
26.25000000000006
 31
0.0
  0
LINE
  5
4374
  8
0
 62
     0
 10
9.1577375993279304
 20
21.0
 30
0.0
 11
14.407737599327961
 21
26.250000000000028
 31
0.0
  0
LINE
  5
4375
  8
0
 62
     0
 10
6.9126735690606429
 20
21.000000000000028
 30
0.0
 11
12.16267356906064
 21
26.250000000000028
 31
0.0
  0
LINE
  5
4376
  8
0
 62
     0
 10
4.6676095387933572
 20
21.0
 30
0.0
 11
9.9176095387933856
 21
26.250000000000028
 31
0.0
  0
LINE
  5
4377
  8
0
 62
     0
 10
2.4225455085260701
 20
20.999999999999972
 30
0.0
 11
7.6725455085260981
 21
26.25
 31
0.0
  0
LINE
  5
4378
  8
0
 62
     0
 10
0.1774814782587839
 20
21.0
 30
0.0
 11
5.427481478258783
 21
26.25
 31
0.0
  0
LINE
  5
4379
  8
0
 62
     0
 10
0.0
 20
23.06758255200856
 30
0.0
 11
3.1824174479914968
 21
26.250000000000028
 31
0.0
  0
LINE
  5
437A
  8
0
 62
     0
 10
0.0000000000000284
 20
25.312646582275821
 30
0.0
 11
0.9373534177242106
 21
26.25
 31
0.0
  0
ENDBLK
  5
437C
  8
0
  0
BLOCK
  8
0
  2
*X49
 70
     1
 10
0.0
 20
0.0
 30
0.0
  3
*X49
  1

  0
LINE
  5
437E
  8
0
 62
     0
 10
51.813954174406398
 20
15.74999999999997
 30
0.0
 11
52.500000000000078
 21
16.436045825593649
 31
0.0
  0
LINE
  5
437F
  8
0
 62
     0
 10
49.568890144139118
 20
15.75
 30
0.0
 11
52.500000000000057
 21
18.681109855860939
 31
0.0
  0
LINE
  5
4380
  8
0
 62
     0
 10
47.323826113871817
 20
15.75
 30
0.0
 11
52.500000000000057
 21
20.926173886128218
 31
0.0
  0
LINE
  5
4381
  8
0
 62
     0
 10
45.078762083604573
 20
15.75
 30
0.0
 11
50.328762083604573
 21
21.0
 31
0.0
  0
LINE
  5
4382
  8
0
 62
     0
 10
42.833698053337287
 20
15.75000000000003
 30
0.0
 11
48.083698053337287
 21
21.000000000000028
 31
0.0
  0
LINE
  5
4383
  8
0
 62
     0
 10
40.588634023069972
 20
15.75000000000003
 30
0.0
 11
45.838634023069972
 21
21.000000000000028
 31
0.0
  0
LINE
  5
4384
  8
0
 62
     0
 10
38.343569992802657
 20
15.74999999999997
 30
0.0
 11
43.593569992802713
 21
21.000000000000028
 31
0.0
  0
LINE
  5
4385
  8
0
 62
     0
 10
36.09850596253537
 20
15.74999999999997
 30
0.0
 11
41.34850596253537
 21
20.999999999999972
 31
0.0
  0
LINE
  5
4386
  8
0
 62
     0
 10
33.85344193226809
 20
15.75
 30
0.0
 11
39.10344193226809
 21
21.0
 31
0.0
  0
LINE
  5
4387
  8
0
 62
     0
 10
31.6083779020008
 20
15.75
 30
0.0
 11
36.858377902000818
 21
21.000000000000028
 31
0.0
  0
LINE
  5
4388
  8
0
 62
     0
 10
29.363313871733538
 20
15.75
 30
0.0
 11
34.613313871733588
 21
21.000000000000028
 31
0.0
  0
LINE
  5
4389
  8
0
 62
     0
 10
27.11824984146622
 20
15.74999999999997
 30
0.0
 11
32.368249841466309
 21
21.000000000000028
 31
0.0
  0
LINE
  5
438A
  8
0
 62
     0
 10
26.250000000000028
 20
17.126814188801092
 30
0.0
 11
30.123185811198969
 21
21.000000000000028
 31
0.0
  0
LINE
  5
438B
  8
0
 62
     0
 10
24.87318581119894
 20
15.75
 30
0.0
 11
26.250000000000028
 21
17.126814188801092
 31
0.0
  0
LINE
  5
438C
  8
0
 62
     0
 10
26.25000000000006
 20
19.37187821906841
 30
0.0
 11
27.878121780931711
 21
21.00000000000006
 31
0.0
  0
LINE
  5
438D
  8
0
 62
     0
 10
22.628121780931679
 20
15.75000000000003
 30
0.0
 11
26.250000000000028
 21
19.371878219068378
 31
0.0
  0
LINE
  5
438E
  8
0
 62
     0
 10
20.383057750664371
 20
15.74999999999997
 30
0.0
 11
25.63305775066442
 21
21.000000000000028
 31
0.0
  0
LINE
  5
438F
  8
0
 62
     0
 10
18.13799372039708
 20
15.74999999999997
 30
0.0
 11
23.38799372039713
 21
21.000000000000028
 31
0.0
  0
LINE
  5
4390
  8
0
 62
     0
 10
15.89292969012979
 20
15.75
 30
0.0
 11
21.142929690129851
 21
21.00000000000006
 31
0.0
  0
LINE
  5
4391
  8
0
 62
     0
 10
13.6478656598625
 20
15.75
 30
0.0
 11
18.897865659862529
 21
21.000000000000028
 31
0.0
  0
LINE
  5
4392
  8
0
 62
     0
 10
11.402801629595221
 20
15.74999999999997
 30
0.0
 11
16.652801629595299
 21
21.00000000000006
 31
0.0
  0
LINE
  5
4393
  8
0
 62
     0
 10
9.1577375993279304
 20
15.75
 30
0.0
 11
14.407737599327961
 21
21.000000000000028
 31
0.0
  0
LINE
  5
4394
  8
0
 62
     0
 10
6.9126735690606429
 20
15.75000000000003
 30
0.0
 11
12.16267356906064
 21
21.000000000000028
 31
0.0
  0
LINE
  5
4395
  8
0
 62
     0
 10
4.6676095387933572
 20
15.75
 30
0.0
 11
9.9176095387933856
 21
21.000000000000028
 31
0.0
  0
LINE
  5
4396
  8
0
 62
     0
 10
2.4225455085260701
 20
15.74999999999997
 30
0.0
 11
7.6725455085260981
 21
21.0
 31
0.0
  0
LINE
  5
4397
  8
0
 62
     0
 10
0.1774814782587839
 20
15.75
 30
0.0
 11
5.427481478258783
 21
21.0
 31
0.0
  0
LINE
  5
4398
  8
0
 62
     0
 10
0.0
 20
17.81758255200856
 30
0.0
 11
3.1824174479914968
 21
21.000000000000028
 31
0.0
  0
LINE
  5
4399
  8
0
 62
     0
 10
0.0000000000000284
 20
20.062646582275821
 30
0.0
 11
0.9373534177242106
 21
21.0
 31
0.0
  0
ENDBLK
  5
439B
  8
0
  0
BLOCK
  8
0
  2
*X50
 70
     1
 10
0.0
 20
0.0
 30
0.0
  3
*X50
  1

  0
LINE
  5
439D
  8
0
 62
     0
 10
51.813954174406398
 20
10.49999999999997
 30
0.0
 11
52.500000000000078
 21
11.18604582559365
 31
0.0
  0
LINE
  5
439E
  8
0
 62
     0
 10
49.568890144139118
 20
10.5
 30
0.0
 11
52.500000000000057
 21
13.431109855860941
 31
0.0
  0
LINE
  5
439F
  8
0
 62
     0
 10
47.323826113871817
 20
10.5
 30
0.0
 11
52.500000000000057
 21
15.67617388612822
 31
0.0
  0
LINE
  5
43A0
  8
0
 62
     0
 10
45.078762083604573
 20
10.5
 30
0.0
 11
50.328762083604573
 21
15.75
 31
0.0
  0
LINE
  5
43A1
  8
0
 62
     0
 10
42.833698053337287
 20
10.50000000000003
 30
0.0
 11
48.083698053337287
 21
15.75000000000003
 31
0.0
  0
LINE
  5
43A2
  8
0
 62
     0
 10
40.588634023069972
 20
10.50000000000003
 30
0.0
 11
45.838634023069972
 21
15.75000000000003
 31
0.0
  0
LINE
  5
43A3
  8
0
 62
     0
 10
38.343569992802657
 20
10.49999999999997
 30
0.0
 11
43.593569992802713
 21
15.75000000000003
 31
0.0
  0
LINE
  5
43A4
  8
0
 62
     0
 10
36.09850596253537
 20
10.49999999999997
 30
0.0
 11
41.34850596253537
 21
15.74999999999997
 31
0.0
  0
LINE
  5
43A5
  8
0
 62
     0
 10
33.85344193226809
 20
10.5
 30
0.0
 11
39.10344193226809
 21
15.75
 31
0.0
  0
LINE
  5
43A6
  8
0
 62
     0
 10
31.6083779020008
 20
10.5
 30
0.0
 11
36.858377902000818
 21
15.75000000000003
 31
0.0
  0
LINE
  5
43A7
  8
0
 62
     0
 10
29.363313871733538
 20
10.5
 30
0.0
 11
34.613313871733588
 21
15.75000000000003
 31
0.0
  0
LINE
  5
43A8
  8
0
 62
     0
 10
27.11824984146622
 20
10.49999999999997
 30
0.0
 11
32.368249841466309
 21
15.75000000000003
 31
0.0
  0
LINE
  5
43A9
  8
0
 62
     0
 10
26.250000000000028
 20
11.87681418880109
 30
0.0
 11
30.123185811198969
 21
15.75000000000003
 31
0.0
  0
LINE
  5
43AA
  8
0
 62
     0
 10
24.87318581119894
 20
10.5
 30
0.0
 11
26.250000000000028
 21
11.87681418880109
 31
0.0
  0
LINE
  5
43AB
  8
0
 62
     0
 10
26.25000000000006
 20
14.1218782190684
 30
0.0
 11
27.878121780931711
 21
15.75000000000005
 31
0.0
  0
LINE
  5
43AC
  8
0
 62
     0
 10
22.628121780931679
 20
10.50000000000003
 30
0.0
 11
26.250000000000028
 21
14.12187821906838
 31
0.0
  0
LINE
  5
43AD
  8
0
 62
     0
 10
20.383057750664371
 20
10.49999999999997
 30
0.0
 11
25.63305775066442
 21
15.75000000000003
 31
0.0
  0
LINE
  5
43AE
  8
0
 62
     0
 10
18.13799372039708
 20
10.49999999999997
 30
0.0
 11
23.38799372039713
 21
15.75000000000003
 31
0.0
  0
LINE
  5
43AF
  8
0
 62
     0
 10
15.89292969012979
 20
10.5
 30
0.0
 11
21.142929690129851
 21
15.75000000000005
 31
0.0
  0
LINE
  5
43B0
  8
0
 62
     0
 10
13.6478656598625
 20
10.5
 30
0.0
 11
18.897865659862529
 21
15.75000000000003
 31
0.0
  0
LINE
  5
43B1
  8
0
 62
     0
 10
11.402801629595221
 20
10.49999999999997
 30
0.0
 11
16.652801629595238
 21
15.75
 31
0.0
  0
LINE
  5
43B2
  8
0
 62
     0
 10
9.1577375993279304
 20
10.5
 30
0.0
 11
14.407737599327961
 21
15.75000000000003
 31
0.0
  0
LINE
  5
43B3
  8
0
 62
     0
 10
6.9126735690606429
 20
10.50000000000003
 30
0.0
 11
12.16267356906064
 21
15.75000000000003
 31
0.0
  0
LINE
  5
43B4
  8
0
 62
     0
 10
4.6676095387933572
 20
10.5
 30
0.0
 11
9.9176095387933572
 21
15.75
 31
0.0
  0
LINE
  5
43B5
  8
0
 62
     0
 10
2.4225455085260701
 20
10.49999999999997
 30
0.0
 11
7.6725455085260696
 21
15.74999999999997
 31
0.0
  0
LINE
  5
43B6
  8
0
 62
     0
 10
0.1774814782587839
 20
10.5
 30
0.0
 11
5.427481478258783
 21
15.75
 31
0.0
  0
LINE
  5
43B7
  8
0
 62
     0
 10
0.0
 20
12.56758255200856
 30
0.0
 11
3.182417447991468
 21
15.75
 31
0.0
  0
LINE
  5
43B8
  8
0
 62
     0
 10
0.0000000000000568
 20
14.812646582275841
 30
0.0
 11
0.9373534177241822
 21
15.74999999999997
 31
0.0
  0
ENDBLK
  5
43BA
  8
0
  0
BLOCK
  8
0
  2
*U51
 70
     1
 10
0.0
 20
0.0
 30
0.0
  3
*U51
  1

  0
LINE
  5
43BC
  8
0
 10
-29.999999999837598
 20
0.0000465358979227
 30
0.0
 11
-24.700003489975941
 21
-1.4999534641020771
 31
0.0
  0
LINE
  5
43BD
  8
0
 10
-24.700003489975941
 20
-1.4999534641020771
 30
0.0
 11
-0.0000034900840618
 21
-1.499953464101849
 31
0.0
  0
LINE
  5
43BE
  8
0
 10
-29.999999999837598
 20
0.0000465358979227
 30
0.0
 11
-24.6999965095923
 21
1.5000465358980359
 31
0.0
  0
LINE
  5
43BF
  8
0
 10
-0.0000081437821464
 20
-3.4999999999998859
 30
0.0
 11
-0.0000034900840618
 21
-1.499953464101849
 31
0.0
  0
LINE
  5
43C0
  8
0
 10
-24.6999965095923
 20
1.5000465358980359
 30
0.0
 11
0.0000034903006139
 21
1.500046535897922
 31
0.0
  0
LINE
  5
43C1
  8
0
 10
-0.0000081437821464
 20
-3.4999999999998859
 30
0.0
 11
1.0999953464131731
 21
-3.5
 31
0.0
  0
LINE
  5
43C2
  8
0
 10
0.0000034903006139
 20
1.500046535897922
 30
0.0
 11
0.0000081437821322
 21
3.5
 31
0.0
  0
ARC
  5
43C3
  8
0
 10
1.0999953464131731
 20
-2.0
 30
0.0
 40
1.5
 50
270.0
 51
359.99986668447059
  0
LINE
  5
43C4
  8
0
 10
0.0000081437821322
 20
3.5
 30
0.0
 11
1.100004653592769
 21
3.5
 31
0.0
  0
LINE
  5
43C5
  8
0
 10
2.5999953464091159
 20
-2.0000034901923982
 30
0.0
 11
2.6000046535887051
 21
1.9999965098076009
 31
0.0
  0
ARC
  5
43C6
  8
0
 10
1.100004653592769
 20
2.0
 30
0.0
 40
1.5
 50
359.99986668447059
 51
90.0
  0
ENDBLK
  5
43C8
  8
0
  0
BLOCK
  8
0
  2
*U52
 70
     1
 10
0.0
 20
0.0
 30
0.0
  3
*U52
  1

  0
LINE
  5
43CA
  8
0
 10
3.0
 20
2.7525227000002128
 30
0.0
 11
3.9999999999999432
 21
5.5000000000001128
 31
0.0
  0
LINE
  5
43CB
  8
0
 10
3.9999999999999432
 20
5.5000000000001128
 30
0.0
 11
-4.0
 21
5.5
 31
0.0
  0
LINE
  5
43CC
  8
0
 10
3.0
 20
-1.9999999999998861
 30
0.0
 11
3.0
 21
2.7525227000002128
 31
0.0
  0
LINE
  5
43CD
  8
0
 10
-4.0
 20
5.5
 30
0.0
 11
-3.0
 21
2.752522699999985
 31
0.0
  0
LINE
  5
43CE
  8
0
 10
2.25
 20
-1.9999999999998861
 30
0.0
 11
3.0
 21
-1.9999999999998861
 31
0.0
  0
LINE
  5
43CF
  8
0
 10
-3.0
 20
2.752522699999985
 30
0.0
 11
-3.0
 21
-1.9999999999998861
 31
0.0
  0
LINE
  5
43D0
  8
0
 10
2.25
 20
-9.2990375137529782
 30
0.0
 11
2.25
 21
-1.9999999999998861
 31
0.0
  0
LINE
  5
43D1
  8
0
 10
-3.0
 20
-1.9999999999998861
 30
0.0
 11
-2.25
 21
-2.0
 31
0.0
  0
LINE
  5
43D2
  8
0
 10
5.8839740999999322
 20
-3.0048093999998851
 30
0.0
 11
2.25
 21
-9.2990375137529782
 31
0.0
  0
LINE
  5
43D3
  8
0
 10
-2.25
 20
-2.0
 30
0.0
 11
-2.2499999999999432
 21
-9.2990375137529782
 31
0.0
  0
LINE
  5
43D4
  8
0
 10
6.7499994999998867
 20
-3.0048093999998851
 30
0.0
 11
5.8839740999999322
 21
-3.0048093999998851
 31
0.0
  0
LINE
  5
43D5
  8
0
 10
-2.2499999999999432
 20
-9.2990375137529782
 30
0.0
 11
-5.8839741000000449
 21
-3.0048093999997709
 31
0.0
  0
LINE
  5
43D6
  8
0
 10
3.0
 20
-9.4999991339743701
 30
0.0
 11
6.7499994999998867
 21
-3.0048093999998851
 31
0.0
  0
LINE
  5
43D7
  8
0
 10
-5.8839741000000449
 20
-3.0048093999997709
 30
0.0
 11
-6.7499995000000581
 21
-3.0048093999998851
 31
0.0
  0
LINE
  5
43D8
  8
0
 10
3.0
 20
-22.99999930000002
 30
0.0
 11
3.0
 21
-9.4999991339743701
 31
0.0
  0
LINE
  5
43D9
  8
0
 10
-6.7499995000000581
 20
-3.0048093999998851
 30
0.0
 11
-3.0
 21
-9.4999991339744838
 31
0.0
  0
LINE
  5
43DA
  8
0
 10
1.4999989000000931
 20
-24.49999999999989
 30
0.0
 11
3.0
 21
-22.99999930000002
 31
0.0
  0
LINE
  5
43DB
  8
0
 10
-3.0
 20
-9.4999991339744838
 30
0.0
 11
-3.0
 21
-22.99999930000002
 31
0.0
  0
LINE
  5
43DC
  8
0
 10
-1.49999889999998
 20
-24.49999999999989
 30
0.0
 11
1.4999989000000931
 21
-24.49999999999989
 31
0.0
  0
LINE
  5
43DD
  8
0
 10
-3.0
 20
-22.99999930000002
 30
0.0
 11
-1.49999889999998
 21
-24.49999999999989
 31
0.0
  0
ENDBLK
  5
43DF
  8
0
  0
BLOCK
  8
0
  2
*U53
 70
     1
 10
0.0
 20
0.0
 30
0.0
  3
*U53
  1

  0
INSERT
  5
43E1
  8
1DIM
  2
_OPEN30
 10
70.703837713231451
 20
76.076642939825206
 30
0.0
 41
2.0
 42
2.0
 43
2.0
 50
190.94982017133989
  0
POLYLINE
  5
43E2
  8
1DIM
 66
     1
 10
0.0
 20
0.0
 30
0.0
  0
VERTEX
  5
43E3
  8
1DIM
 10
72.667425549413579
 20
76.456541359929332
 30
0.0
  0
VERTEX
  5
43E4
  8
1DIM
 10
83.302378957972905
 20
78.514102485205044
 30
0.0
  0
SEQEND
  5
43E5
  8
1DIM
  0
ENDBLK
  5
43E7
  8
0
  0
BLOCK
  8
0
  2
*U54
 70
     1
 10
0.0
 20
0.0
 30
0.0
  3
*U54
  1

  0
INSERT
  5
43E9
  8
1DIM
  2
_OPEN30
 10
22.695761623079541
 20
17.23157621387486
 30
0.0
 41
2.0
 42
2.0
 43
2.0
 50
34.652810826999421
  0
POLYLINE
  5
43EA
  8
1DIM
 66
     1
 10
0.0
 20
0.0
 30
0.0
  0
VERTEX
  5
43EB
  8
1DIM
 10
21.050536374243521
 20
16.09437179927189
 30
0.0
  0
VERTEX
  5
43EC
  8
1DIM
 10
9.1130621311508548
 20
7.8430102194161
 30
0.0
  0
SEQEND
  5
43ED
  8
1DIM
  0
ENDBLK
  5
43EF
  8
0
  0
BLOCK
  8
0
  2
*U55
 70
     1
 10
0.0
 20
0.0
 30
0.0
  3
*U55
  1

  0
INSERT
  5
43F1
  8
1DIM
  2
_OPEN30
 10
71.949931308180794
 20
51.673538184475092
 30
0.0
 41
2.0
 42
2.0
 43
2.0
 50
187.92382338020249
  0
POLYLINE
  5
43F2
  8
1DIM
 66
     1
 10
0.0
 20
0.0
 30
0.0
  0
VERTEX
  5
43F3
  8
1DIM
 10
73.930835765513493
 20
51.949250953347807
 30
0.0
  0
VERTEX
  5
43F4
  8
1DIM
 10
82.418487011279694
 20
53.13060718561519
 30
0.0
  0
SEQEND
  5
43F5
  8
1DIM
  0
ENDBLK
  5
43F7
  8
0
  0
BLOCK
  8
0
  2
*U56
 70
     1
 10
0.0
 20
0.0
 30
0.0
  3
*U56
  1

  0
TEXT
  5
43F9
  8
1DIM
 62
   201
 10
-1215.4896019203079
 20
1434.7014535903961
 30
0.0
 40
3.5
  1
174 
  0
ENDBLK
  5
43FB
  8
0
  0
BLOCK
  8
0
  2
*U57
 70
     1
 10
0.0
 20
0.0
 30
0.0
  3
*U57
  1

  0
TEXT
  5
43FD
  8
1DIM
 62
   201
 10
-1100.400622419721
 20
1470.647860964651
 30
0.0
 40
3.5
  1
24 
 50
90.0
  0
ENDBLK
  5
43FF
  8
0
  0
BLOCK
  8
0
  2
*U58
 70
     1
 10
0.0
 20
0.0
 30
0.0
  3
*U58
  1

  0
TEXT
  5
4401
  8
1DIM
 62
   201
 10
-1065.26999064693
 20
1434.7014535903961
 30
0.0
 40
3.5
  1
49 
  0
ENDBLK
  5
4403
  8
0
  0
BLOCK
  8
0
  2
*U59
 70
     1
 10
0.0
 20
0.0
 30
0.0
  3
*U59
  1

  0
TEXT
  5
4405
  8
1DIM
 62
   201
 10
-1033.1533239802641
 20
1496.63016272441
 30
0.0
 40
3.5
  1
2 
  0
ENDBLK
  5
4407
  8
0
  0
BLOCK
  8
0
  2
*U60
 70
     1
 10
0.0
 20
0.0
 30
0.0
  3
*U60
  1

  0
TEXT
  5
4409
  8
1DIM
 62
   201
 10
-1072.2033239802629
 20
1496.63016272441
 30
0.0
 40
3.5
  1
擦動範囲42 
  0
ENDBLK
  5
440B
  8
0
  0
BLOCK
  8
0
  2
*U61
 70
     1
 10
0.0
 20
0.0
 30
0.0
  3
*U61
  1

  0
TEXT
  5
440D
  8
1DIM
 62
   201
 10
-1093.886657313597
 20
1496.63016272441
 30
0.0
 40
3.5
  1
5 
  0
ENDBLK
  5
440F
  8
0
  0
BLOCK
  8
0
  2
*U62
 70
     1
 10
0.0
 20
0.0
 30
0.0
  3
*U62
  1

  0
TEXT
  5
4411
  8
1DIM
 62
   201
 10
-1093.886657313597
 20
1444.8451536832711
 30
0.0
 40
3.5
  1
5 
  0
ENDBLK
  5
4413
  8
0
  0
BLOCK
  8
0
  2
*U63
 70
     1
 10
0.0
 20
0.0
 30
0.0
  3
*U63
  1

  0
TEXT
  5
4415
  8
1DIM
 62
   201
 10
-1080.01999064693
 20
1444.8451536832711
 30
0.0
 40
3.5
  1
6 
  0
ENDBLK
  5
4417
  8
0
  0
BLOCK
  8
0
  2
*U64
 70
     1
 10
0.0
 20
0.0
 30
0.0
  3
*U64
  1

  0
TEXT
  5
4419
  8
1DIM
 62
   201
 10
-108.5074653531148
 20
1517.83575254109
 30
0.0
 40
3.5
  1
6 
 50
90.0
  0
ENDBLK
  5
441B
  8
0
  0
BLOCK
  8
0
  2
*U65
 70
     1
 10
0.0
 20
0.0
 30
0.0
  3
*U65
  1

  0
TEXT
  5
441D
  8
1DIM
 62
   201
 10
-102.20155738687519
 20
1525.652419207757
 30
0.0
 40
3.5
  1
擦動範囲42 
 50
90.0
  0
ENDBLK
  5
441F
  8
0
  0
BLOCK
  8
0
  2
*U66
 70
     1
 10
0.0
 20
0.0
 30
0.0
  3
*U66
  1

  0
TEXT
  5
4421
  8
1DIM
 62
   201
 10
-102.20155738687519
 20
1503.9690858744229
 30
0.0
 40
3.5
  1
5 
 50
90.0
  0
ENDBLK
  5
4423
  8
0
  0
BLOCK
  8
0
  2
*U67
 70
     1
 10
0.0
 20
0.0
 30
0.0
  3
*U67
  1

  0
TEXT
  5
4425
  8
1DIM
 62
   201
 10
-102.20155738687519
 20
1564.7024192077561
 30
0.0
 40
3.5
  1
2 
 50
90.0
  0
ENDBLK
  5
4427
  8
0
  0
BLOCK
  8
0
  2
*U68
 70
     1
 10
0.0
 20
0.0
 30
0.0
  3
*U68
  1

  0
TEXT
  5
4429
  8
1DIM
 62
   201
 10
-95.747890520979738
 20
1532.58575254109
 30
0.0
 40
3.5
  1
49 
 50
90.0
  0
ENDBLK
  5
442B
  8
0
  0
BLOCK
  8
0
  2
*U69
 70
     1
 10
0.0
 20
0.0
 30
0.0
  3
*U69
  1

  0
TEXT
  5
442D
  8
1DIM
 62
   201
 10
-207.5177522098798
 20
1442.948368343003
 30
0.0
 40
3.5
  1
174 
  0
ENDBLK
  5
442F
  8
0
  0
BLOCK
  8
0
  2
*U70
 70
     1
 10
0.0
 20
0.0
 30
0.0
  3
*U70
  1

  0
TEXT
  5
4431
  8
1DIM
 62
   201
 10
-210.72608554321309
 20
1453.092068435878
 30
0.0
 40
3.5
  1
P=150 
  0
ENDBLK
  5
4433
  8
0
  0
BLOCK
  8
0
  2
*U71
 70
     1
 10
0.0
 20
0.0
 30
0.0
  3
*U71
  1

  0
TEXT
  5
4435
  8
1DIM
 62
   201
 10
-95.747890520979738
 20
1478.894775717258
 30
0.0
 40
3.5
  1
24 
 50
90.0
  0
ENDBLK
  5
4437
  8
0
  0
BLOCK
  8
0
  2
*X72
 70
     1
 10
0.0
 20
0.0
 30
0.0
  3
*X72
  1

  0
LINE
  5
4439
  8
0
 62
     0
 10
126.772259412963
 20
22.159017696329698
 30
0.0
 11
126.9505765149395
 21
22.337334798306209
 31
0.0
  0
LINE
  5
443A
  8
0
 62
     0
 10
124.52719538269579
 20
22.159017696329698
 30
0.0
 11
126.9505765149395
 21
24.582398828573499
 31
0.0
  0
LINE
  5
443B
  8
0
 62
     0
 10
122.28213135242849
 20
22.159017696329709
 30
0.0
 11
126.9505765149395
 21
26.827462858840779
 31
0.0
  0
LINE
  5
443C
  8
0
 62
     0
 10
120.03706732216121
 20
22.159017696329709
 30
0.0
 11
126.9505765149395
 21
29.072526889108069
 31
0.0
  0
LINE
  5
443D
  8
0
 62
     0
 10
117.79200329189391
 20
22.159017696329709
 30
0.0
 11
125.29200329189391
 21
29.659017696329691
 31
0.0
  0
LINE
  5
443E
  8
0
 62
     0
 10
115.5469392616266
 20
22.159017696329691
 30
0.0
 11
123.0469392616266
 21
29.659017696329691
 31
0.0
  0
LINE
  5
443F
  8
0
 62
     0
 10
113.3018752313593
 20
22.159017696329691
 30
0.0
 11
120.8018752313593
 21
29.659017696329691
 31
0.0
  0
LINE
  5
4440
  8
0
 62
     0
 10
111.056811201092
 20
22.159017696329691
 30
0.0
 11
118.556811201092
 21
29.659017696329691
 31
0.0
  0
LINE
  5
4441
  8
0
 62
     0
 10
108.8117471708247
 20
22.159017696329691
 30
0.0
 11
116.3117471708247
 21
29.659017696329691
 31
0.0
  0
LINE
  5
4442
  8
0
 62
     0
 10
106.5666831405575
 20
22.159017696329698
 30
0.0
 11
114.0666831405575
 21
29.659017696329691
 31
0.0
  0
LINE
  5
4443
  8
0
 62
     0
 10
104.3216191102901
 20
22.159017696329691
 30
0.0
 11
111.8216191102902
 21
29.659017696329691
 31
0.0
  0
LINE
  5
4444
  8
0
 62
     0
 10
102.0765550800229
 20
22.159017696329691
 30
0.0
 11
109.5765550800229
 21
29.659017696329691
 31
0.0
  0
LINE
  5
4445
  8
0
 62
     0
 10
99.831491049755584
 20
22.159017696329698
 30
0.0
 11
107.3314910497556
 21
29.659017696329691
 31
0.0
  0
LINE
  5
4446
  8
0
 62
     0
 10
97.586427019488283
 20
22.159017696329709
 30
0.0
 11
105.0864270194883
 21
29.659017696329709
 31
0.0
  0
LINE
  5
4447
  8
0
 62
     0
 10
95.341362989221025
 20
22.159017696329698
 30
0.0
 11
102.841362989221
 21
29.659017696329691
 31
0.0
  0
LINE
  5
4448
  8
0
 62
     0
 10
93.096298958953739
 20
22.159017696329709
 30
0.0
 11
100.5962989589537
 21
29.659017696329691
 31
0.0
  0
LINE
  5
4449
  8
0
 62
     0
 10
90.851234928686438
 20
22.159017696329691
 30
0.0
 11
98.351234928686438
 21
29.659017696329681
 31
0.0
  0
LINE
  5
444A
  8
0
 62
     0
 10
88.606170898419137
 20
22.159017696329698
 30
0.0
 11
96.106170898419137
 21
29.659017696329698
 31
0.0
  0
LINE
  5
444B
  8
0
 62
     0
 10
86.361106868151865
 20
22.159017696329691
 30
0.0
 11
93.861106868151865
 21
29.659017696329691
 31
0.0
  0
LINE
  5
444C
  8
0
 62
     0
 10
84.116042837884564
 20
22.159017696329698
 30
0.0
 11
91.616042837884564
 21
29.659017696329698
 31
0.0
  0
LINE
  5
444D
  8
0
 62
     0
 10
81.870978807617291
 20
22.159017696329691
 30
0.0
 11
89.370978807617291
 21
29.659017696329691
 31
0.0
  0
LINE
  5
444E
  8
0
 62
     0
 10
79.62591477734999
 20
22.159017696329698
 30
0.0
 11
87.12591477734999
 21
29.659017696329698
 31
0.0
  0
LINE
  5
444F
  8
0
 62
     0
 10
77.380850747082718
 20
22.159017696329691
 30
0.0
 11
84.880850747082704
 21
29.659017696329691
 31
0.0
  0
LINE
  5
4450
  8
0
 62
     0
 10
75.135786716815417
 20
22.159017696329698
 30
0.0
 11
82.635786716815403
 21
29.659017696329698
 31
0.0
  0
LINE
  5
4451
  8
0
 62
     0
 10
74.999999545267784
 20
24.268294555049341
 30
0.0
 11
80.390722686548145
 21
29.659017696329691
 31
0.0
  0
LINE
  5
4452
  8
0
 62
     0
 10
72.890722686548145
 20
22.159017696329698
 30
0.0
 11
74.999999545267755
 21
24.268294555049309
 31
0.0
  0
LINE
  5
4453
  8
0
 62
     0
 10
74.999999545267769
 20
26.51335858531662
 30
0.0
 11
78.145658656280844
 21
29.659017696329698
 31
0.0
  0
LINE
  5
4454
  8
0
 62
     0
 10
70.645658656280844
 20
22.159017696329698
 30
0.0
 11
74.999999545267741
 21
26.513358585316588
 31
0.0
  0
LINE
  5
4455
  8
0
 62
     0
 10
74.999999545267798
 20
28.758422615583921
 30
0.0
 11
75.900594626013572
 21
29.659017696329691
 31
0.0
  0
LINE
  5
4456
  8
0
 62
     0
 10
68.400594626013572
 20
22.159017696329698
 30
0.0
 11
74.999999545267769
 21
28.758422615583889
 31
0.0
  0
LINE
  5
4457
  8
0
 62
     0
 10
66.155530595746256
 20
22.159017696329691
 30
0.0
 11
73.655530595746271
 21
29.659017696329698
 31
0.0
  0
LINE
  5
4458
  8
0
 62
     0
 10
63.910466565478991
 20
22.159017696329709
 30
0.0
 11
71.410466565478984
 21
29.659017696329709
 31
0.0
  0
LINE
  5
4459
  8
0
 62
     0
 10
61.665402535211683
 20
22.159017696329691
 30
0.0
 11
69.165402535211712
 21
29.659017696329698
 31
0.0
  0
LINE
  5
445A
  8
0
 62
     0
 10
59.420338504944432
 20
22.159017696329709
 30
0.0
 11
66.920338504944425
 21
29.659017696329709
 31
0.0
  0
LINE
  5
445B
  8
0
 62
     0
 10
57.17527447467711
 20
22.159017696329691
 30
0.0
 11
64.675274474677124
 21
29.659017696329691
 31
0.0
  0
LINE
  5
445C
  8
0
 62
     0
 10
54.930210444409809
 20
22.159017696329698
 30
0.0
 11
62.43021044440983
 21
29.659017696329709
 31
0.0
  0
LINE
  5
445D
  8
0
 62
     0
 10
52.68514641414253
 20
22.159017696329691
 30
0.0
 11
60.185146414142551
 21
29.659017696329691
 31
0.0
  0
LINE
  5
445E
  8
0
 62
     0
 10
50.44008238387525
 20
22.159017696329698
 30
0.0
 11
57.94008238387525
 21
29.659017696329698
 31
0.0
  0
LINE
  5
445F
  8
0
 62
     0
 10
48.195018353607963
 20
22.159017696329698
 30
0.0
 11
55.695018353607963
 21
29.659017696329698
 31
0.0
  0
LINE
  5
4460
  8
0
 62
     0
 10
45.949954323340677
 20
22.159017696329698
 30
0.0
 11
53.449954323340677
 21
29.659017696329698
 31
0.0
  0
LINE
  5
4461
  8
0
 62
     0
 10
43.704890293073383
 20
22.159017696329698
 30
0.0
 11
51.20489029307339
 21
29.659017696329698
 31
0.0
  0
LINE
  5
4462
  8
0
 62
     0
 10
41.459826262806097
 20
22.159017696329698
 30
0.0
 11
48.959826262806097
 21
29.659017696329698
 31
0.0
  0
LINE
  5
4463
  8
0
 62
     0
 10
39.214762232538817
 20
22.159017696329698
 30
0.0
 11
46.714762232538817
 21
29.659017696329698
 31
0.0
  0
LINE
  5
4464
  8
0
 62
     0
 10
37.499999545267762
 20
22.689319039325941
 30
0.0
 11
44.469698202271523
 21
29.659017696329698
 31
0.0
  0
LINE
  5
4465
  8
0
 62
     0
 10
36.969698202271502
 20
22.159017696329691
 30
0.0
 11
37.499999545267727
 21
22.689319039325909
 31
0.0
  0
LINE
  5
4466
  8
0
 62
     0
 10
37.499999545267769
 20
24.934383069593231
 30
0.0
 11
42.224634172004237
 21
29.659017696329698
 31
0.0
  0
LINE
  5
4467
  8
0
 62
     0
 10
34.72463417200423
 20
22.159017696329691
 30
0.0
 11
37.499999545267741
 21
24.934383069593199
 31
0.0
  0
LINE
  5
4468
  8
0
 62
     0
 10
37.499999545267762
 20
27.179447099860511
 30
0.0
 11
39.97957014173695
 21
29.659017696329698
 31
0.0
  0
LINE
  5
4469
  8
0
 62
     0
 10
32.479570141736929
 20
22.159017696329691
 30
0.0
 11
37.499999545267762
 21
27.179447099860511
 31
0.0
  0
LINE
  5
446A
  8
0
 62
     0
 10
37.499999545267769
 20
29.424511130127801
 30
0.0
 11
37.73450611146967
 21
29.659017696329698
 31
0.0
  0
LINE
  5
446B
  8
0
 62
     0
 10
30.23450611146966
 20
22.159017696329691
 30
0.0
 11
37.499999545267769
 21
29.424511130127801
 31
0.0
  0
LINE
  5
446C
  8
0
 62
     0
 10
27.989442081202359
 20
22.159017696329691
 30
0.0
 11
35.489442081202363
 21
29.659017696329691
 31
0.0
  0
LINE
  5
446D
  8
0
 62
     0
 10
25.744378050935079
 20
22.159017696329698
 30
0.0
 11
33.244378050935097
 21
29.659017696329709
 31
0.0
  0
LINE
  5
446E
  8
0
 62
     0
 10
23.499314020667779
 20
22.159017696329691
 30
0.0
 11
30.999314020667779
 21
29.659017696329691
 31
0.0
  0
LINE
  5
446F
  8
0
 62
     0
 10
21.25424999040051
 20
22.159017696329698
 30
0.0
 11
28.75424999040051
 21
29.659017696329698
 31
0.0
  0
LINE
  5
4470
  8
0
 62
     0
 10
19.009185960133209
 20
22.159017696329691
 30
0.0
 11
26.509185960133209
 21
29.659017696329691
 31
0.0
  0
LINE
  5
4471
  8
0
 62
     0
 10
16.76412192986594
 20
22.159017696329709
 30
0.0
 11
24.264121929865919
 21
29.659017696329698
 31
0.0
  0
LINE
  5
4472
  8
0
 62
     0
 10
14.51905789959862
 20
22.159017696329691
 30
0.0
 11
22.019057899598639
 21
29.659017696329698
 31
0.0
  0
LINE
  5
4473
  8
0
 62
     0
 10
12.273993869331351
 20
22.159017696329698
 30
0.0
 11
19.773993869331349
 21
29.659017696329698
 31
0.0
  0
LINE
  5
4474
  8
0
 62
     0
 10
10.028929839064061
 20
22.159017696329698
 30
0.0
 11
17.528929839064059
 21
29.659017696329698
 31
0.0
  0
LINE
  5
4475
  8
0
 62
     0
 10
7.7838658087967607
 20
22.159017696329698
 30
0.0
 11
15.28386580879677
 21
29.659017696329698
 31
0.0
  0
LINE
  5
4476
  8
0
 62
     0
 10
5.5388017785295034
 20
22.159017696329709
 30
0.0
 11
13.03880177852947
 21
29.659017696329691
 31
0.0
  0
LINE
  5
4477
  8
0
 62
     0
 10
3.2937377482621879
 20
22.159017696329691
 30
0.0
 11
10.79373774826219
 21
29.659017696329691
 31
0.0
  0
LINE
  5
4478
  8
0
 62
     0
 10
1.048673717994915
 20
22.159017696329698
 30
0.0
 11
8.5486737179949142
 21
29.659017696329698
 31
0.0
  0
LINE
  5
4479
  8
0
 62
     0
 10
-0.0000004547323016
 20
23.355407553869771
 30
0.0
 11
6.3036096877276
 21
29.65901769632967
 31
0.0
  0
LINE
  5
447A
  8
0
 62
     0
 10
-0.0000004547322874
 20
25.600471584137068
 30
0.0
 11
4.0585456574603276
 21
29.659017696329691
 31
0.0
  0
LINE
  5
447B
  8
0
 62
     0
 10
-0.0000004547322732
 20
27.84553561440438
 30
0.0
 11
1.813481627193041
 21
29.659017696329691
 31
0.0
  0
ENDBLK
  5
447D
  8
0
  0
BLOCK
  8
0
  2
*X73
 70
     1
 10
0.0
 20
0.0
 30
0.0
  3
*X73
  1

  0
LINE
  5
447F
  8
0
 62
     0
 10
126.772259412963
 20
14.659017696329689
 30
0.0
 11
126.9505765149395
 21
14.837334798306211
 31
0.0
  0
LINE
  5
4480
  8
0
 62
     0
 10
124.52719538269569
 20
14.659017696329689
 30
0.0
 11
126.9505765149396
 21
17.082398828573499
 31
0.0
  0
LINE
  5
4481
  8
0
 62
     0
 10
122.28213135242839
 20
14.659017696329689
 30
0.0
 11
126.9505765149395
 21
19.327462858840789
 31
0.0
  0
LINE
  5
4482
  8
0
 62
     0
 10
120.03706732216121
 20
14.659017696329689
 30
0.0
 11
126.9505765149396
 21
21.572526889108079
 31
0.0
  0
LINE
  5
4483
  8
0
 62
     0
 10
117.79200329189391
 20
14.659017696329689
 30
0.0
 11
125.29200329189391
 21
22.159017696329691
 31
0.0
  0
LINE
  5
4484
  8
0
 62
     0
 10
115.5469392616266
 20
14.659017696329689
 30
0.0
 11
123.0469392616266
 21
22.159017696329691
 31
0.0
  0
LINE
  5
4485
  8
0
 62
     0
 10
113.3018752313593
 20
14.659017696329689
 30
0.0
 11
120.8018752313593
 21
22.159017696329691
 31
0.0
  0
LINE
  5
4486
  8
0
 62
     0
 10
111.056811201092
 20
14.659017696329689
 30
0.0
 11
118.556811201092
 21
22.159017696329691
 31
0.0
  0
LINE
  5
4487
  8
0
 62
     0
 10
108.8117471708247
 20
14.659017696329681
 30
0.0
 11
116.3117471708247
 21
22.159017696329691
 31
0.0
  0
LINE
  5
4488
  8
0
 62
     0
 10
106.5666831405575
 20
14.659017696329689
 30
0.0
 11
114.0666831405574
 21
22.159017696329681
 31
0.0
  0
LINE
  5
4489
  8
0
 62
     0
 10
104.3216191102901
 20
14.659017696329689
 30
0.0
 11
111.8216191102901
 21
22.159017696329681
 31
0.0
  0
LINE
  5
448A
  8
0
 62
     0
 10
102.0765550800229
 20
14.65901769632967
 30
0.0
 11
109.5765550800229
 21
22.159017696329681
 31
0.0
  0
LINE
  5
448B
  8
0
 62
     0
 10
99.831491049755584
 20
14.659017696329681
 30
0.0
 11
107.3314910497556
 21
22.159017696329681
 31
0.0
  0
LINE
  5
448C
  8
0
 62
     0
 10
97.586427019488283
 20
14.659017696329689
 30
0.0
 11
105.0864270194883
 21
22.159017696329691
 31
0.0
  0
LINE
  5
448D
  8
0
 62
     0
 10
95.341362989221011
 20
14.65901769632967
 30
0.0
 11
102.841362989221
 21
22.159017696329681
 31
0.0
  0
LINE
  5
448E
  8
0
 62
     0
 10
93.096298958953739
 20
14.6590176963297
 30
0.0
 11
100.5962989589537
 21
22.159017696329691
 31
0.0
  0
LINE
  5
448F
  8
0
 62
     0
 10
90.851234928686438
 20
14.659017696329681
 30
0.0
 11
98.351234928686438
 21
22.159017696329681
 31
0.0
  0
LINE
  5
4490
  8
0
 62
     0
 10
88.606170898419137
 20
14.6590176963297
 30
0.0
 11
96.106170898419123
 21
22.159017696329691
 31
0.0
  0
LINE
  5
4491
  8
0
 62
     0
 10
86.361106868151865
 20
14.659017696329689
 30
0.0
 11
93.861106868151865
 21
22.159017696329691
 31
0.0
  0
LINE
  5
4492
  8
0
 62
     0
 10
84.116042837884535
 20
14.659017696329681
 30
0.0
 11
91.616042837884564
 21
22.159017696329698
 31
0.0
  0
LINE
  5
4493
  8
0
 62
     0
 10
81.870978807617291
 20
14.659017696329689
 30
0.0
 11
89.370978807617291
 21
22.159017696329691
 31
0.0
  0
LINE
  5
4494
  8
0
 62
     0
 10
79.625914777349976
 20
14.659017696329681
 30
0.0
 11
87.12591477734999
 21
22.159017696329698
 31
0.0
  0
LINE
  5
4495
  8
0
 62
     0
 10
77.380850747082718
 20
14.659017696329689
 30
0.0
 11
84.880850747082704
 21
22.159017696329691
 31
0.0
  0
LINE
  5
4496
  8
0
 62
     0
 10
75.135786716815403
 20
14.659017696329681
 30
0.0
 11
82.635786716815403
 21
22.159017696329698
 31
0.0
  0
LINE
  5
4497
  8
0
 62
     0
 10
74.999999545267784
 20
16.768294555049341
 30
0.0
 11
80.390722686548145
 21
22.159017696329691
 31
0.0
  0
LINE
  5
4498
  8
0
 62
     0
 10
72.890722686548131
 20
14.659017696329681
 30
0.0
 11
74.999999545267769
 21
16.768294555049309
 31
0.0
  0
LINE
  5
4499
  8
0
 62
     0
 10
74.999999545267769
 20
19.01335858531662
 30
0.0
 11
78.145658656280816
 21
22.159017696329691
 31
0.0
  0
LINE
  5
449A
  8
0
 62
     0
 10
70.645658656280816
 20
14.659017696329681
 30
0.0
 11
74.999999545267755
 21
19.01335858531661
 31
0.0
  0
LINE
  5
449B
  8
0
 62
     0
 10
74.999999545267798
 20
21.258422615583932
 30
0.0
 11
75.900594626013572
 21
22.159017696329691
 31
0.0
  0
LINE
  5
449C
  8
0
 62
     0
 10
68.400594626013557
 20
14.659017696329681
 30
0.0
 11
74.999999545267769
 21
21.2584226155839
 31
0.0
  0
LINE
  5
449D
  8
0
 62
     0
 10
66.155530595746256
 20
14.659017696329681
 30
0.0
 11
73.655530595746256
 21
22.159017696329691
 31
0.0
  0
LINE
  5
449E
  8
0
 62
     0
 10
63.910466565478977
 20
14.6590176963297
 30
0.0
 11
71.410466565478984
 21
22.159017696329709
 31
0.0
  0
LINE
  5
449F
  8
0
 62
     0
 10
61.665402535211683
 20
14.659017696329681
 30
0.0
 11
69.165402535211683
 21
22.159017696329681
 31
0.0
  0
LINE
  5
44A0
  8
0
 62
     0
 10
59.420338504944411
 20
14.6590176963297
 30
0.0
 11
66.920338504944411
 21
22.159017696329698
 31
0.0
  0
LINE
  5
44A1
  8
0
 62
     0
 10
57.17527447467711
 20
14.659017696329681
 30
0.0
 11
64.67527447467711
 21
22.159017696329691
 31
0.0
  0
LINE
  5
44A2
  8
0
 62
     0
 10
54.930210444409809
 20
14.6590176963297
 30
0.0
 11
62.430210444409809
 21
22.159017696329698
 31
0.0
  0
LINE
  5
44A3
  8
0
 62
     0
 10
52.68514641414253
 20
14.659017696329681
 30
0.0
 11
60.18514641414253
 21
22.159017696329691
 31
0.0
  0
LINE
  5
44A4
  8
0
 62
     0
 10
50.440082383875229
 20
14.659017696329681
 30
0.0
 11
57.94008238387525
 21
22.159017696329698
 31
0.0
  0
LINE
  5
44A5
  8
0
 62
     0
 10
48.195018353607963
 20
14.6590176963297
 30
0.0
 11
55.695018353607963
 21
22.159017696329698
 31
0.0
  0
LINE
  5
44A6
  8
0
 62
     0
 10
45.949954323340663
 20
14.659017696329681
 30
0.0
 11
53.449954323340677
 21
22.159017696329698
 31
0.0
  0
LINE
  5
44A7
  8
0
 62
     0
 10
43.704890293073383
 20
14.6590176963297
 30
0.0
 11
51.20489029307339
 21
22.159017696329698
 31
0.0
  0
LINE
  5
44A8
  8
0
 62
     0
 10
41.459826262806082
 20
14.659017696329681
 30
0.0
 11
48.959826262806097
 21
22.159017696329691
 31
0.0
  0
LINE
  5
44A9
  8
0
 62
     0
 10
39.214762232538803
 20
14.659017696329681
 30
0.0
 11
46.714762232538817
 21
22.159017696329698
 31
0.0
  0
LINE
  5
44AA
  8
0
 62
     0
 10
37.499999545267762
 20
15.189319039325939
 30
0.0
 11
44.469698202271502
 21
22.159017696329691
 31
0.0
  0
LINE
  5
44AB
  8
0
 62
     0
 10
36.969698202271523
 20
14.6590176963297
 30
0.0
 11
37.499999545267741
 21
15.18931903932592
 31
0.0
  0
LINE
  5
44AC
  8
0
 62
     0
 10
37.499999545267769
 20
17.43438306959322
 30
0.0
 11
42.224634172004237
 21
22.159017696329698
 31
0.0
  0
LINE
  5
44AD
  8
0
 62
     0
 10
34.724634172004251
 20
14.6590176963297
 30
0.0
 11
37.499999545267769
 21
17.43438306959321
 31
0.0
  0
LINE
  5
44AE
  8
0
 62
     0
 10
37.499999545267769
 20
19.679447099860511
 30
0.0
 11
39.979570141736929
 21
22.159017696329691
 31
0.0
  0
LINE
  5
44AF
  8
0
 62
     0
 10
32.479570141736929
 20
14.659017696329681
 30
0.0
 11
37.499999545267762
 21
19.679447099860511
 31
0.0
  0
LINE
  5
44B0
  8
0
 62
     0
 10
37.499999545267769
 20
21.924511130127801
 30
0.0
 11
37.734506111469663
 21
22.159017696329691
 31
0.0
  0
LINE
  5
44B1
  8
0
 62
     0
 10
30.23450611146966
 20
14.659017696329681
 30
0.0
 11
37.499999545267769
 21
21.924511130127801
 31
0.0
  0
LINE
  5
44B2
  8
0
 62
     0
 10
27.989442081202359
 20
14.659017696329681
 30
0.0
 11
35.489442081202363
 21
22.159017696329691
 31
0.0
  0
LINE
  5
44B3
  8
0
 62
     0
 10
25.744378050935079
 20
14.6590176963297
 30
0.0
 11
33.244378050935083
 21
22.159017696329698
 31
0.0
  0
LINE
  5
44B4
  8
0
 62
     0
 10
23.499314020667779
 20
14.659017696329681
 30
0.0
 11
30.999314020667779
 21
22.159017696329691
 31
0.0
  0
LINE
  5
44B5
  8
0
 62
     0
 10
21.25424999040051
 20
14.6590176963297
 30
0.0
 11
28.75424999040051
 21
22.159017696329698
 31
0.0
  0
LINE
  5
44B6
  8
0
 62
     0
 10
19.009185960133209
 20
14.659017696329681
 30
0.0
 11
26.509185960133209
 21
22.159017696329691
 31
0.0
  0
LINE
  5
44B7
  8
0
 62
     0
 10
16.76412192986594
 20
14.659017696329711
 30
0.0
 11
24.264121929865919
 21
22.159017696329698
 31
0.0
  0
LINE
  5
44B8
  8
0
 62
     0
 10
14.51905789959862
 20
14.659017696329681
 30
0.0
 11
22.019057899598639
 21
22.159017696329698
 31
0.0
  0
LINE
  5
44B9
  8
0
 62
     0
 10
12.27399386933133
 20
14.659017696329681
 30
0.0
 11
19.773993869331331
 21
22.159017696329691
 31
0.0
  0
LINE
  5
44BA
  8
0
 62
     0
 10
10.02892983906403
 20
14.65901769632967
 30
0.0
 11
17.528929839064059
 21
22.159017696329698
 31
0.0
  0
LINE
  5
44BB
  8
0
 62
     0
 10
7.7838658087967607
 20
14.6590176963297
 30
0.0
 11
15.283865808796749
 21
22.15901769632967
 31
0.0
  0
LINE
  5
44BC
  8
0
 62
     0
 10
5.5388017785294741
 20
14.659017696329681
 30
0.0
 11
13.03880177852947
 21
22.159017696329691
 31
0.0
  0
LINE
  5
44BD
  8
0
 62
     0
 10
3.2937377482621879
 20
14.659017696329681
 30
0.0
 11
10.79373774826219
 21
22.159017696329691
 31
0.0
  0
LINE
  5
44BE
  8
0
 62
     0
 10
1.048673717994915
 20
14.6590176963297
 30
0.0
 11
8.5486737179948875
 21
22.15901769632967
 31
0.0
  0
LINE
  5
44BF
  8
0
 62
     0
 10
-0.0000004547322732
 20
15.855407553869791
 30
0.0
 11
6.3036096877276
 21
22.15901769632967
 31
0.0
  0
LINE
  5
44C0
  8
0
 62
     0
 10
-0.0000004547322732
 20
18.100471584137079
 30
0.0
 11
4.0585456574603143
 21
22.15901769632967
 31
0.0
  0
LINE
  5
44C1
  8
0
 62
     0
 10
-0.0000004547322447
 20
20.345535614404401
 30
0.0
 11
1.813481627193041
 21
22.159017696329691
 31
0.0
  0
ENDBLK
  5
44C3
  8
0
  0
BLOCK
  8
0
  2
*U74
 70
     1
 10
0.0
 20
0.0
 30
0.0
  3
*U74
  1

  0
TEXT
  5
44C5
  8
1TEXT
 10
0.7883972274269802
 20
0.0000001242547096
 30
0.0
 40
4.0
  1
※表の斜線部は現状保留
  0
ENDBLK
  5
44C7
  8
0
  0
BLOCK
  8
0
  2
*U75
 70
     1
 10
0.0
 20
0.0
 30
0.0
  3
*U75
  1

  0
TEXT
  5
44C9
  8
1DIM
 62
   201
 10
-1053.4522189598979
 20
1496.63016272441
 30
0.0
 40
3.5
  1
擦動範囲42 
  0
ENDBLK
  5
44CB
  8
0
  0
BLOCK
  8
0
  2
*U76
 70
     1
 10
0.0
 20
0.0
 30
0.0
  3
*U76
  1

  0
TEXT
  5
44CD
  8
1DIM
 62
   201
 10
-1218.6979352536409
 20
1444.8451536832711
 30
0.0
 40
3.5
  1
P=150 
  0
ENDBLK
  5
44CF
  8
0
  0
BLOCK
  8
0
  2
*X77
 70
     1
 10
0.0
 20
0.0
 30
0.0
  3
*X77
  1

  0
LINE
  5
44D1
  8
0
 62
     0
 10
47.172515657676172
 20
-0.0000002621169983
 30
0.0
 11
47.409623571809682
 21
0.2371076520165047
 31
0.0
  0
LINE
  5
44D2
  8
0
 62
     0
 10
46.049983642542543
 20
-0.0000002621169983
 30
0.0
 11
47.409623571809682
 21
1.359639667150133
 31
0.0
  0
LINE
  5
44D3
  8
0
 62
     0
 10
44.927451627408907
 20
-0.0000002621169415
 30
0.0
 11
47.409623571809682
 21
2.4821716822837621
 31
0.0
  0
LINE
  5
44D4
  8
0
 62
     0
 10
43.804919612275278
 20
-0.0000002621169415
 30
0.0
 11
47.409623571809682
 21
3.604703697417392
 31
0.0
  0
LINE
  5
44D5
  8
0
 62
     0
 10
42.682387597141648
 20
-0.0000002621169415
 30
0.0
 11
47.409623571809682
 21
4.7272357125510771
 31
0.0
  0
LINE
  5
44D6
  8
0
 62
     0
 10
41.559855582008034
 20
-0.0000002621169415
 30
0.0
 11
46.809855582008019
 21
5.2499997378830576
 31
0.0
  0
LINE
  5
44D7
  8
0
 62
     0
 10
44.409623571809668
 20
3.9722997428183362
 30
0.0
 11
45.68732356687434
 21
5.2499997378830008
 31
0.0
  0
LINE
  5
44D8
  8
0
 62
     0
 10
40.43732356687439
 20
-0.0000002621169415
 30
0.0
 11
43.687323566874397
 21
3.2499997378830581
 31
0.0
  0
LINE
  5
44D9
  8
0
 62
     0
 10
44.409623571809668
 20
5.0948317579519653
 30
0.0
 11
44.564791551740711
 21
5.2499997378830008
 31
0.0
  0
LINE
  5
44DA
  8
0
 62
     0
 10
39.314791551740768
 20
-0.0000002621169415
 30
0.0
 11
42.564791551740711
 21
3.2499997378830008
 31
0.0
  0
LINE
  5
44DB
  8
0
 62
     0
 10
38.192259536607139
 20
-0.0000002621168846
 30
0.0
 11
41.442259536607082
 21
3.2499997378830581
 31
0.0
  0
LINE
  5
44DC
  8
0
 62
     0
 10
46.819727521473389
 20
9.7499997378830585
 30
0.0
 11
47.409623571809682
 21
10.33989578821933
 31
0.0
  0
LINE
  5
44DD
  8
0
 62
     0
 10
37.069727521473403
 20
-0.0000002621169415
 30
0.0
 11
40.319727521473389
 21
3.2499997378830581
 31
0.0
  0
LINE
  5
44DE
  8
0
 62
     0
 10
45.69719550633976
 20
9.7499997378830585
 30
0.0
 11
47.409623571809682
 21
11.462427803352959
 31
0.0
  0
LINE
  5
44DF
  8
0
 62
     0
 10
35.947195506339817
 20
-0.0000002621168846
 30
0.0
 11
39.19719550633971
 21
3.2499997378830008
 31
0.0
  0
LINE
  5
44E0
  8
0
 62
     0
 10
44.574663491206081
 20
9.7499997378830017
 30
0.0
 11
47.409623571809682
 21
12.58495981848659
 31
0.0
  0
LINE
  5
44E1
  8
0
 62
     0
 10
34.824663491206138
 20
-0.0000002621169415
 30
0.0
 11
38.074663491206081
 21
3.2499997378830008
 31
0.0
  0
LINE
  5
44E2
  8
0
 62
     0
 10
44.409623571809448
 20
10.707491833620111
 30
0.0
 11
47.409623571809732
 21
13.70749183362034
 31
0.0
  0
LINE
  5
44E3
  8
0
 62
     0
 10
33.702131476072452
 20
-0.0000002621169415
 30
0.0
 11
36.952131476072402
 21
3.2499997378830008
 31
0.0
  0
LINE
  5
44E4
  8
0
 62
     0
 10
44.329599460938873
 20
11.74999973788311
 30
0.0
 11
47.409623571809732
 21
14.830023848753971
 31
0.0
  0
LINE
  5
44E5
  8
0
 62
     0
 10
32.579599460938823
 20
-0.0000002621169415
 30
0.0
 11
35.829599460938773
 21
3.2499997378830008
 31
0.0
  0
LINE
  5
44E6
  8
0
 62
     0
 10
43.207067445805301
 20
11.74999973788317
 30
0.0
 11
46.457067445805137
 21
14.999999737883
 31
0.0
  0
LINE
  5
44E7
  8
0
 62
     0
 10
31.457067445805201
 20
-0.0000002621169415
 30
0.0
 11
34.707067445805137
 21
3.2499997378830008
 31
0.0
  0
LINE
  5
44E8
  8
0
 62
     0
 10
42.084535430671622
 20
11.74999973788311
 30
0.0
 11
45.334535430671501
 21
14.999999737883
 31
0.0
  0
LINE
  5
44E9
  8
0
 62
     0
 10
30.334535430671512
 20
-0.0000002621169415
 30
0.0
 11
33.584535430671451
 21
3.2499997378830008
 31
0.0
  0
LINE
  5
44EA
  8
0
 62
     0
 10
40.962003415537993
 20
11.74999973788311
 30
0.0
 11
44.212003415537872
 21
14.999999737883
 31
0.0
  0
LINE
  5
44EB
  8
0
 62
     0
 10
29.212003415537879
 20
-0.0000002621169415
 30
0.0
 11
32.462003415537829
 21
3.2499997378830008
 31
0.0
  0
LINE
  5
44EC
  8
0
 62
     0
 10
39.839471400404371
 20
11.74999973788311
 30
0.0
 11
43.08947140040425
 21
14.999999737883
 31
0.0
  0
LINE
  5
44ED
  8
0
 62
     0
 10
28.08947140040425
 20
-0.0000002621169415
 30
0.0
 11
31.339471400404189
 21
3.2499997378830008
 31
0.0
  0
LINE
  5
44EE
  8
0
 62
     0
 10
38.716939385270727
 20
11.74999973788311
 30
0.0
 11
41.966939385270621
 21
14.999999737883
 31
0.0
  0
LINE
  5
44EF
  8
0
 62
     0
 10
26.966939385270621
 20
-0.0000002621169415
 30
0.0
 11
30.21693938527056
 21
3.2499997378829439
 31
0.0
  0
LINE
  5
44F0
  8
0
 62
     0
 10
37.594407370137112
 20
11.74999973788317
 30
0.0
 11
40.844407370136992
 21
14.99999973788306
 31
0.0
  0
LINE
  5
44F1
  8
0
 62
     0
 10
25.844407370136992
 20
-0.0000002621169415
 30
0.0
 11
29.094407370136992
 21
3.2499997378830581
 31
0.0
  0
LINE
  5
44F2
  8
0
 62
     0
 10
36.471875355003419
 20
11.74999973788311
 30
0.0
 11
39.721875355003313
 21
14.999999737883
 31
0.0
  0
LINE
  5
44F3
  8
0
 62
     0
 10
24.721875355003359
 20
-0.0000002621169415
 30
0.0
 11
27.971875355003309
 21
3.2499997378830008
 31
0.0
  0
LINE
  5
44F4
  8
0
 62
     0
 10
35.34934333986979
 20
11.74999973788317
 30
0.0
 11
38.599343339869677
 21
14.999999737883
 31
0.0
  0
LINE
  5
44F5
  8
0
 62
     0
 10
23.599343339869741
 20
-0.0000002621169415
 30
0.0
 11
26.84934333986968
 21
3.2499997378830008
 31
0.0
  0
LINE
  5
44F6
  8
0
 62
     0
 10
34.226811324736161
 20
11.74999973788317
 30
0.0
 11
37.476811324736047
 21
14.999999737883
 31
0.0
  0
LINE
  5
44F7
  8
0
 62
     0
 10
22.476811324736101
 20
-0.0000002621169415
 30
0.0
 11
25.726811324736051
 21
3.2499997378830008
 31
0.0
  0
LINE
  5
44F8
  8
0
 62
     0
 10
33.104279309602539
 20
11.74999973788317
 30
0.0
 11
36.354279309602418
 21
14.99999973788306
 31
0.0
  0
LINE
  5
44F9
  8
0
 62
     0
 10
21.354279309602472
 20
-0.0000002621168846
 30
0.0
 11
24.604279309602418
 21
3.2499997378830581
 31
0.0
  0
LINE
  5
44FA
  8
0
 62
     0
 10
31.98174729446885
 20
11.749999737883231
 30
0.0
 11
35.231747294468683
 21
14.999999737883
 31
0.0
  0
LINE
  5
44FB
  8
0
 62
     0
 10
20.231747294468729
 20
-0.0000002621169415
 30
0.0
 11
23.481747294468679
 21
3.2499997378830008
 31
0.0
  0
LINE
  5
44FC
  8
0
 62
     0
 10
30.859215279335221
 20
11.74999973788317
 30
0.0
 11
34.109215279335046
 21
14.999999737883
 31
0.0
  0
LINE
  5
44FD
  8
0
 62
     0
 10
19.10921527933516
 20
-0.0000002621168846
 30
0.0
 11
22.35921527933505
 21
3.2499997378830008
 31
0.0
  0
LINE
  5
44FE
  8
0
 62
     0
 10
29.736683264201591
 20
11.74999973788317
 30
0.0
 11
32.986683264201417
 21
14.999999737883
 31
0.0
  0
LINE
  5
44FF
  8
0
 62
     0
 10
17.986683264201471
 20
-0.0000002621169415
 30
0.0
 11
21.236683264201421
 21
3.2499997378830008
 31
0.0
  0
LINE
  5
4500
  8
0
 62
     0
 10
28.614151249067959
 20
11.74999973788317
 30
0.0
 11
31.864151249067788
 21
14.999999737883
 31
0.0
  0
LINE
  5
4501
  8
0
 62
     0
 10
16.864151249067842
 20
-0.0000002621169415
 30
0.0
 11
20.114151249067788
 21
3.2499997378830008
 31
0.0
  0
LINE
  5
4502
  8
0
 62
     0
 10
18.409623571809501
 20
2.6680040757584029
 30
0.0
 11
18.991619233934038
 21
3.2499997378830008
 31
0.0
  0
LINE
  5
4503
  8
0
 62
     0
 10
18.241619233934099
 20
2.4999997378830008
 30
0.0
 11
18.409623571809391
 21
2.6680040757582901
 31
0.0
  0
LINE
  5
4504
  8
0
 62
     0
 10
27.49161923393422
 20
11.74999973788311
 30
0.0
 11
30.741619233934099
 21
14.999999737883
 31
0.0
  0
LINE
  5
4505
  8
0
 62
     0
 10
15.741619233934159
 20
-0.0000002621169415
 30
0.0
 11
18.241619233934099
 21
2.4999997378830008
 31
0.0
  0
LINE
  5
4506
  8
0
 62
     0
 10
17.11908721880053
 20
2.4999997378830581
 30
0.0
 11
17.86908721880053
 21
3.2499997378830581
 31
0.0
  0
LINE
  5
4507
  8
0
 62
     0
 10
26.369087218800651
 20
11.74999973788317
 30
0.0
 11
29.61908721880048
 21
14.999999737883
 31
0.0
  0
LINE
  5
4508
  8
0
 62
     0
 10
14.61908721880053
 20
-0.0000002621169415
 30
0.0
 11
17.11908721880047
 21
2.4999997378830008
 31
0.0
  0
LINE
  5
4509
  8
0
 62
     0
 10
15.996555203666841
 20
2.4999997378830008
 30
0.0
 11
16.746555203666901
 21
3.2499997378830581
 31
0.0
  0
LINE
  5
450A
  8
0
 62
     0
 10
25.246555203666961
 20
11.74999973788311
 30
0.0
 11
28.496555203666851
 21
14.999999737883
 31
0.0
  0
LINE
  5
450B
  8
0
 62
     0
 10
13.496555203666841
 20
-0.0000002621169415
 30
0.0
 11
15.996555203666841
 21
2.4999997378830008
 31
0.0
  0
LINE
  5
450C
  8
0
 62
     0
 10
14.87402318853321
 20
2.4999997378830008
 30
0.0
 11
15.62402318853327
 21
3.2499997378830581
 31
0.0
  0
LINE
  5
450D
  8
0
 62
     0
 10
24.124023188533329
 20
11.74999973788311
 30
0.0
 11
27.374023188533219
 21
14.999999737883
 31
0.0
  0
LINE
  5
450E
  8
0
 62
     0
 10
12.37402318853321
 20
-0.0000002621169415
 30
0.0
 11
14.87402318853321
 21
2.4999997378830008
 31
0.0
  0
LINE
  5
450F
  8
0
 62
     0
 10
13.751491173399581
 20
2.4999997378830008
 30
0.0
 11
14.501491173399639
 21
3.2499997378830581
 31
0.0
  0
LINE
  5
4510
  8
0
 62
     0
 10
23.0014911733997
 20
11.74999973788311
 30
0.0
 11
26.251491173399529
 21
14.999999737882939
 31
0.0
  0
LINE
  5
4511
  8
0
 62
     0
 10
11.251491173399581
 20
-0.0000002621169415
 30
0.0
 11
13.751491173399581
 21
2.4999997378830008
 31
0.0
  0
LINE
  5
4512
  8
0
 62
     0
 10
12.62895915826595
 20
2.4999997378830008
 30
0.0
 11
13.37895915826595
 21
3.2499997378830008
 31
0.0
  0
LINE
  5
4513
  8
0
 62
     0
 10
21.878959158266071
 20
11.74999973788311
 30
0.0
 11
25.12895915826585
 21
14.99999973788289
 31
0.0
  0
LINE
  5
4514
  8
0
 62
     0
 10
10.12895915826595
 20
-0.0000002621169415
 30
0.0
 11
12.62895915826595
 21
2.4999997378830008
 31
0.0
  0
LINE
  5
4515
  8
0
 62
     0
 10
11.506427143132321
 20
2.4999997378830581
 30
0.0
 11
12.256427143132379
 21
3.2499997378831149
 31
0.0
  0
LINE
  5
4516
  8
0
 62
     0
 10
20.756427143132381
 20
11.74999973788317
 30
0.0
 11
24.00642714313221
 21
14.999999737882939
 31
0.0
  0
LINE
  5
4517
  8
0
 62
     0
 10
9.0064271431323277
 20
-0.0000002621169415
 30
0.0
 11
11.506427143132321
 21
2.4999997378830581
 31
0.0
  0
LINE
  5
4518
  8
0
 62
     0
 10
19.633895127998532
 20
11.74999973788289
 30
0.0
 11
19.661261584464619
 21
11.77736619434898
 31
0.0
  0
LINE
  5
4519
  8
0
 62
     0
 10
19.661261584464679
 20
11.777366194349041
 30
0.0
 11
22.883895127998588
 21
14.999999737882939
 31
0.0
  0
LINE
  5
451A
  8
0
 62
     0
 10
7.8838951279986977
 20
-0.0000002621169415
 30
0.0
 11
9.8838951279986418
 21
1.999999737883001
 31
0.0
  0
LINE
  5
451B
  8
0
 62
     0
 10
18.511363112864949
 20
11.749999737882939
 30
0.0
 11
18.94960480343121
 21
12.188241428449199
 31
0.0
  0
LINE
  5
451C
  8
0
 62
     0
 10
18.949604803431271
 20
12.18824142844926
 30
0.0
 11
21.761363112864959
 21
14.999999737882939
 31
0.0
  0
LINE
  5
451D
  8
0
 62
     0
 10
6.7613631128650686
 20
-0.0000002621169415
 30
0.0
 11
8.7613631128650127
 21
1.999999737883001
 31
0.0
  0
LINE
  5
451E
  8
0
 62
     0
 10
17.388831097731501
 20
11.74999973788317
 30
0.0
 11
18.138831097731551
 21
12.49999973788317
 31
0.0
  0
LINE
  5
451F
  8
0
 62
     0
 10
18.138831097731551
 20
12.49999973788317
 30
0.0
 11
20.63883109773133
 21
14.999999737882939
 31
0.0
  0
LINE
  5
4520
  8
0
 62
     0
 10
5.6388310977314404
 20
-0.0000002621169415
 30
0.0
 11
7.6388310977313827
 21
1.999999737883001
 31
0.0
  0
LINE
  5
4521
  8
0
 62
     0
 10
16.266299082597861
 20
11.74999973788317
 30
0.0
 11
17.016299082597921
 21
12.499999737883231
 31
0.0
  0
LINE
  5
4522
  8
0
 62
     0
 10
17.016299082597921
 20
12.499999737883231
 30
0.0
 11
19.516299082597701
 21
14.999999737883
 31
0.0
  0
LINE
  5
4523
  8
0
 62
     0
 10
5.409623571809731
 20
0.8933242270950358
 30
0.0
 11
6.5162990825977536
 21
1.9999997378830581
 31
0.0
  0
LINE
  5
4524
  8
0
 62
     0
 10
15.89376706746418
 20
12.49999973788317
 30
0.0
 11
18.393767067464012
 21
14.999999737883
 31
0.0
  0
LINE
  5
4525
  8
0
 62
     0
 10
15.14376706746418
 20
11.74999973788317
 30
0.0
 11
15.89376706746418
 21
12.49999973788317
 31
0.0
  0
LINE
  5
4526
  8
0
 62
     0
 10
14.77123505233055
 20
12.49999973788317
 30
0.0
 11
17.271235052330379
 21
14.999999737883
 31
0.0
  0
LINE
  5
4527
  8
0
 62
     0
 10
14.021235052330439
 20
11.74999973788306
 30
0.0
 11
14.77123505233055
 21
12.49999973788317
 31
0.0
  0
LINE
  5
4528
  8
0
 62
     0
 10
13.64870303719681
 20
12.49999973788311
 30
0.0
 11
16.14870303719675
 21
14.999999737883
 31
0.0
  0
LINE
  5
4529
  8
0
 62
     0
 10
12.89870303719681
 20
11.74999973788306
 30
0.0
 11
13.64870303719681
 21
12.49999973788306
 31
0.0
  0
LINE
  5
452A
  8
0
 62
     0
 10
12.526171022063179
 20
12.49999973788306
 30
0.0
 11
15.026171022063121
 21
14.999999737883
 31
0.0
  0
LINE
  5
452B
  8
0
 62
     0
 10
11.776171022063179
 20
11.74999973788306
 30
0.0
 11
12.526171022063179
 21
12.49999973788306
 31
0.0
  0
LINE
  5
452C
  8
0
 62
     0
 10
11.40363900692949
 20
12.49999973788306
 30
0.0
 11
13.90363900692938
 21
14.999999737882939
 31
0.0
  0
LINE
  5
452D
  8
0
 62
     0
 10
11.15663128936972
 20
12.25299202032329
 30
0.0
 11
11.40363900692944
 21
12.499999737883
 31
0.0
  0
LINE
  5
452E
  8
0
 62
     0
 10
10.595365281802801
 20
12.81425802788999
 30
0.0
 11
12.781106991795751
 21
14.999999737882939
 31
0.0
  0
LINE
  5
452F
  8
0
 62
     0
 10
9.6585749766621234
 20
12.999999737882939
 30
0.0
 11
11.65857497666212
 21
14.999999737882939
 31
0.0
  0
LINE
  5
4530
  8
0
 62
     0
 10
8.5360429615284374
 20
12.99999973788289
 30
0.0
 11
10.536042961528491
 21
14.999999737882939
 31
0.0
  0
LINE
  5
4531
  8
0
 62
     0
 10
7.4135109463948083
 20
12.99999973788289
 30
0.0
 11
9.4135109463948083
 21
14.99999973788289
 31
0.0
  0
LINE
  5
4532
  8
0
 62
     0
 10
6.2909789312611792
 20
12.99999973788289
 30
0.0
 11
8.2909789312611792
 21
14.99999973788289
 31
0.0
  0
LINE
  5
4533
  8
0
 62
     0
 10
5.5390352439686694
 20
13.370588065724061
 30
0.0
 11
7.1684469161275501
 21
14.999999737882939
 31
0.0
  0
LINE
  5
4534
  8
0
 62
     0
 10
5.409623571809675
 20
14.363708408698701
 30
0.0
 11
6.045914900993921
 21
14.999999737882939
 31
0.0
  0
ENDBLK
  5
4536
  8
0
  0
ENDSEC
  0
SECTION
  2
ENTITIES
  0
LINE
  5
3AA7
  8
01
 10
-1136.589518854566
 20
1524.9356871332241
 30
0.0
 11
-1136.406268586974
 21
1524.9356871332241
 31
0.0
  0
POLYLINE
  8
01
  5
4537
  66
     1
 10
0.000000
 20
0.000000
 30
0.000000
  70
     8
  0
VERTEX
  8
01
  5
4538
 10
-1146.91
 20
1524.94
 30
0.000000
  70
    32
  0
VERTEX
  8
01
  5
4539
 10
-1146.91
 20
1524.94
 30
0.000000
  70
    32
  0
VERTEX
  8
01
  5
453A
 10
-1146.90
 20
1524.94
 30
0.000000
  70
    32
  0
VERTEX
  8
01
  5
453B
 10
-1146.90
 20
1524.94
 30
0.000000
  70
    32
  0
VERTEX
  8
01
  5
453C
 10
-1146.89
 20
1524.94
 30
0.000000
  70
    32
  0
VERTEX
  8
01
  5
453D
 10
-1146.88
 20
1524.94
 30
0.000000
  70
    32
  0
VERTEX
  8
01
  5
453E
 10
-1146.87
 20
1524.94
 30
0.000000
  70
    32
  0
VERTEX
  8
01
  5
453F
 10
-1146.85
 20
1524.94
 30
0.000000
  70
    32
  0
VERTEX
  8
01
  5
4540
 10
-1146.84
 20
1524.94
 30
0.000000
  70
    32
  0
VERTEX
  8
01
  5
4541
 10
-1146.82
 20
1524.94
 30
0.000000
  70
    32
  0
VERTEX
  8
01
  5
4542
 10
-1146.79
 20
1524.94
 30
0.000000
  70
    32
  0
VERTEX
  8
01
  5
4543
 10
-1146.77
 20
1524.94
 30
0.000000
  70
    32
  0
VERTEX
  8
01
  5
4544
 10
-1146.74
 20
1524.94
 30
0.000000
  70
    32
  0
VERTEX
  8
01
  5
4545
 10
-1146.71
 20
1524.94
 30
0.000000
  70
    32
  0
VERTEX
  8
01
  5
4546
 10
-1146.68
 20
1524.94
 30
0.000000
  70
    32
  0
VERTEX
  8
01
  5
4547
 10
-1146.64
 20
1524.94
 30
0.000000
  70
    32
  0
VERTEX
  8
01
  5
4548
 10
-1146.60
 20
1524.94
 30
0.000000
  70
    32
  0
VERTEX
  8
01
  5
4549
 10
-1146.56
 20
1524.94
 30
0.000000
  70
    32
  0
VERTEX
  8
01
  5
454A
 10
-1146.51
 20
1524.94
 30
0.000000
  70
    32
  0
VERTEX
  8
01
  5
454B
 10
-1146.47
 20
1524.94
 30
0.000000
  70
    32
  0
VERTEX
  8
01
  5
454C
 10
-1146.42
 20
1524.94
 30
0.000000
  70
    32
  0
VERTEX
  8
01
  5
454D
 10
-1146.36
 20
1524.94
 30
0.000000
  70
    32
  0
VERTEX
  8
01
  5
454E
 10
-1146.31
 20
1524.94
 30
0.000000
  70
    32
  0
VERTEX
  8
01
  5
454F
 10
-1146.25
 20
1524.94
 30
0.000000
  70
    32
  0
VERTEX
  8
01
  5
4550
 10
-1146.18
 20
1524.94
 30
0.000000
  70
    32
  0
VERTEX
  8
01
  5
4551
 10
-1146.12
 20
1524.94
 30
0.000000
  70
    32
  0
VERTEX
  8
01
  5
4552
 10
-1146.05
 20
1524.94
 30
0.000000
  70
    32
  0
VERTEX
  8
01
  5
4553
 10
-1145.98
 20
1524.94
 30
0.000000
  70
    32
  0
VERTEX
  8
01
  5
4554
 10
-1145.91
 20
1524.94
 30
0.000000
  70
    32
  0
VERTEX
  8
01
  5
4555
 10
-1145.83
 20
1524.94
 30
0.000000
  70
    32
  0
VERTEX
  8
01
  5
4556
 10
-1145.75
 20
1524.94
 30
0.000000
  70
    32
  0
VERTEX
  8
01
  5
4557
 10
-1145.67
 20
1524.94
 30
0.000000
  70
    32
  0
VERTEX
  8
01
  5
4558
 10
-1145.58
 20
1524.94
 30
0.000000
  70
    32
  0
VERTEX
  8
01
  5
4559
 10
-1145.49
 20
1524.94
 30
0.000000
  70
    32
  0
VERTEX
  8
01
  5
455A
 10
-1145.40
 20
1524.94
 30
0.000000
  70
    32
  0
VERTEX
  8
01
  5
455B
 10
-1145.31
 20
1524.94
 30
0.000000
  70
    32
  0
VERTEX
  8
01
  5
455C
 10
-1145.21
 20
1524.94
 30
0.000000
  70
    32
  0
VERTEX
  8
01
  5
455D
 10
-1145.11
 20
1524.94
 30
0.000000
  70
    32
  0
VERTEX
  8
01
  5
455E
 10
-1145.01
 20
1524.94
 30
0.000000
  70
    32
  0
VERTEX
  8
01
  5
455F
 10
-1144.91
 20
1524.94
 30
0.000000
  70
    32
  0
VERTEX
  8
01
  5
4560
 10
-1144.80
 20
1524.94
 30
0.000000
  70
    32
  0
VERTEX
  8
01
  5
4561
 10
-1144.69
 20
1524.94
 30
0.000000
  70
    32
  0
VERTEX
  8
01
  5
4562
 10
-1144.58
 20
1524.94
 30
0.000000
  70
    32
  0
VERTEX
  8
01
  5
4563
 10
-1144.46
 20
1524.94
 30
0.000000
  70
    32
  0
VERTEX
  8
01
  5
4564
 10
-1144.34
 20
1524.94
 30
0.000000
  70
    32
  0
VERTEX
  8
01
  5
4565
 10
-1144.22
 20
1524.94
 30
0.000000
  70
    32
  0
VERTEX
  8
01
  5
4566
 10
-1144.10
 20
1524.94
 30
0.000000
  70
    32
  0
VERTEX
  8
01
  5
4567
 10
-1143.98
 20
1524.94
 30
0.000000
  70
    32
  0
VERTEX
  8
01
  5
4568
 10
-1143.85
 20
1524.94
 30
0.000000
  70
    32
  0
VERTEX
  8
01
  5
4569
 10
-1143.72
 20
1524.94
 30
0.000000
  70
    32
  0
VERTEX
  8
01
  5
456A
 10
-1143.59
 20
1524.94
 30
0.000000
  70
    32
  0
VERTEX
  8
01
  5
456B
 10
-1143.45
 20
1524.94
 30
0.000000
  70
    32
  0
VERTEX
  8
01
  5
456C
 10
-1143.32
 20
1524.94
 30
0.000000
  70
    32
  0
VERTEX
  8
01
  5
456D
 10
-1143.18
 20
1524.94
 30
0.000000
  70
    32
  0
VERTEX
  8
01
  5
456E
 10
-1143.04
 20
1524.94
 30
0.000000
  70
    32
  0
VERTEX
  8
01
  5
456F
 10
-1142.90
 20
1524.94
 30
0.000000
  70
    32
  0
VERTEX
  8
01
  5
4570
 10
-1142.76
 20
1524.94
 30
0.000000
  70
    32
  0
VERTEX
  8
01
  5
4571
 10
-1142.61
 20
1524.94
 30
0.000000
  70
    32
  0
VERTEX
  8
01
  5
4572
 10
-1142.47
 20
1524.94
 30
0.000000
  70
    32
  0
VERTEX
  8
01
  5
4573
 10
-1142.32
 20
1524.94
 30
0.000000
  70
    32
  0
VERTEX
  8
01
  5
4574
 10
-1142.17
 20
1524.94
 30
0.000000
  70
    32
  0
VERTEX
  8
01
  5
4575
 10
-1142.02
 20
1524.94
 30
0.000000
  70
    32
  0
VERTEX
  8
01
  5
4576
 10
-1141.87
 20
1524.94
 30
0.000000
  70
    32
  0
VERTEX
  8
01
  5
4577
 10
-1141.71
 20
1524.94
 30
0.000000
  70
    32
  0
VERTEX
  8
01
  5
4578
 10
-1141.56
 20
1524.94
 30
0.000000
  70
    32
  0
VERTEX
  8
01
  5
4579
 10
-1141.40
 20
1524.94
 30
0.000000
  70
    32
  0
VERTEX
  8
01
  5
457A
 10
-1141.25
 20
1524.94
 30
0.000000
  70
    32
  0
VERTEX
  8
01
  5
457B
 10
-1141.09
 20
1524.94
 30
0.000000
  70
    32
  0
VERTEX
  8
01
  5
457C
 10
-1140.93
 20
1524.94
 30
0.000000
  70
    32
  0
VERTEX
  8
01
  5
457D
 10
-1140.77
 20
1524.94
 30
0.000000
  70
    32
  0
VERTEX
  8
01
  5
457E
 10
-1140.61
 20
1524.94
 30
0.000000
  70
    32
  0
VERTEX
  8
01
  5
457F
 10
-1140.45
 20
1524.94
 30
0.000000
  70
    32
  0
VERTEX
  8
01
  5
4580
 10
-1140.29
 20
1524.94
 30
0.000000
  70
    32
  0
VERTEX
  8
01
  5
4581
 10
-1140.13
 20
1524.94
 30
0.000000
  70
    32
  0
VERTEX
  8
01
  5
4582
 10
-1139.97
 20
1524.94
 30
0.000000
  70
    32
  0
VERTEX
  8
01
  5
4583
 10
-1139.80
 20
1524.94
 30
0.000000
  70
    32
  0
VERTEX
  8
01
  5
4584
 10
-1139.64
 20
1524.94
 30
0.000000
  70
    32
  0
VERTEX
  8
01
  5
4585
 10
-1139.48
 20
1524.94
 30
0.000000
  70
    32
  0
VERTEX
  8
01
  5
4586
 10
-1139.32
 20
1524.94
 30
0.000000
  70
    32
  0
VERTEX
  8
01
  5
4587
 10
-1139.15
 20
1524.94
 30
0.000000
  70
    32
  0
VERTEX
  8
01
  5
4588
 10
-1138.99
 20
1524.94
 30
0.000000
  70
    32
  0
VERTEX
  8
01
  5
4589
 10
-1138.83
 20
1524.94
 30
0.000000
  70
    32
  0
VERTEX
  8
01
  5
458A
 10
-1138.66
 20
1524.94
 30
0.000000
  70
    32
  0
VERTEX
  8
01
  5
458B
 10
-1138.50
 20
1524.94
 30
0.000000
  70
    32
  0
VERTEX
  8
01
  5
458C
 10
-1138.34
 20
1524.94
 30
0.000000
  70
    32
  0
VERTEX
  8
01
  5
458D
 10
-1138.18
 20
1524.94
 30
0.000000
  70
    32
  0
VERTEX
  8
01
  5
458E
 10
-1138.02
 20
1524.94
 30
0.000000
  70
    32
  0
VERTEX
  8
01
  5
458F
 10
-1137.86
 20
1524.94
 30
0.000000
  70
    32
  0
VERTEX
  8
01
  5
4590
 10
-1137.69
 20
1524.94
 30
0.000000
  70
    32
  0
VERTEX
  8
01
  5
4591
 10
-1137.53
 20
1524.94
 30
0.000000
  70
    32
  0
VERTEX
  8
01
  5
4592
 10
-1137.38
 20
1524.94
 30
0.000000
  70
    32
  0
VERTEX
  8
01
  5
4593
 10
-1137.22
 20
1524.94
 30
0.000000
  70
    32
  0
VERTEX
  8
01
  5
4594
 10
-1137.06
 20
1524.94
 30
0.000000
  70
    32
  0
VERTEX
  8
01
  5
4595
 10
-1136.90
 20
1524.94
 30
0.000000
  70
    32
  0
VERTEX
  8
01
  5
4596
 10
-1136.75
 20
1524.94
 30
0.000000
  70
    32
  0
VERTEX
  8
01
  5
4597
 10
-1136.59
 20
1524.94
 30
0.000000
  70
    32
  0
SEQEND
  8
01
  5
4598
  0
LINE
  5
3AA9
  8
01
 10
-1136.406268586974
 20
1524.9356871332241
 30
0.0
 11
-1125.9066683947999
 21
1524.9356871332241
 31
0.0
  0
LINE
  5
3AAA
  8
01
 10
-1276.406347875343
 20
1530.4356871332241
 30
0.0
 11
-1286.144499103895
 21
1530.4356871332241
 31
0.0
  0
ARC
  5
3AAB
  8
01
 10
-1124.906291055102
 20
1528.9356646651429
 30
0.0
 40
0.5000224686332596
 50
0.0025745367918327
 51
89.997305609834086
  0
LINE
  5
3AAC
  8
01
 10
-1275.9064498614539
 20
1529.9356871332241
 30
0.0
 11
-1286.1314106297409
 21
1529.9356871332241
 31
0.0
  0
LINE
  5
3AAD
  8
01
 10
-1286.144499103895
 20
1530.4356871332241
 30
0.0
 11
-1296.4061892990251
 21
1530.4356871332241
 31
0.0
  0
ARC
  5
3AAE
  8
01
 10
-1147.906246118845
 20
1566.9357096013059
 30
0.0
 40
0.5000224686337143
 50
180.00257453684389
 51
269.99730560977542
  0
LINE
  5
3AAF
  8
1DIM
 10
-1136.406268586974
 20
1485.064527631318
 30
0.0
 11
-1286.406268586974
 21
1485.064527631318
 31
0.0
  0
ARC
  5
3AB0
  8
1DIM
 10
-1136.406268586974
 20
1473.564527631318
 30
0.0
 40
11.5
 50
270.0
 51
89.999999302895674
  0
ARC
  5
3AB1
  8
01
 10
-1286.406268586974
 20
1473.564527631318
 30
0.0
 40
11.00000000000005
 50
90.0
 51
180.0
  0
LINE
  5
3AB2
  8
01
 10
-1077.353323980263
 20
1461.564527631318
 30
0.0
 11
-1080.353323980263
 21
1461.564527631318
 31
0.0
  0
LINE
  5
3AB3
  8
01
 10
-1076.853323980263
 20
1462.064527631318
 30
0.0
 11
-1076.853323980263
 21
1485.063822516074
 31
0.0
  0
LINE
  5
3AB4
  8
01
 10
-1086.8533239802639
 20
1473.564527631318
 30
0.0
 11
-1086.8533239802639
 21
1484.063883838907
 31
0.0
  0
LINE
  5
3AB5
  8
01
 10
-1086.85332398023
 20
1463.065171423729
 30
0.0
 11
-1086.8533239802639
 21
1473.564527631318
 31
0.0
  0
ARC
  5
3AB6
  8
01
 10
-1080.353323980263
 20
1462.0645276313189
 30
0.0
 40
0.5000000000003411
 50
180.00000000003911
 51
269.99999999996089
  0
LINE
  5
3AB7
  8
01
 10
-1082.3533239802639
 20
1462.5652020805089
 30
0.0
 11
-1082.3533239802639
 21
1473.564527631318
 31
0.0
  0
LINE
  5
3AB8
  8
01
 10
-1086.353323980263
 20
1462.564527631318
 30
0.0
 11
-1082.3533239802639
 21
1462.564527631318
 31
0.0
  0
LINE
  5
3AB9
  8
01
 10
-1274.406268586974
 20
1568.4356871332241
 30
0.0
 11
-1274.406268586974
 21
1566.9356871332241
 31
0.0
  0
LINE
  5
3ABA
  8
1DIM
 10
-1136.406268447043
 20
1485.064527631318
 30
0.0
 11
-1136.4062684845951
 21
1485.5645276308389
 31
0.0
  0
LINE
  5
3ABB
  8
01
 10
-1125.9069123793849
 20
1519.4356871332241
 30
0.0
 11
-1146.906268586974
 21
1519.4356871332241
 31
0.0
  0
LINE
  5
3ABC
  8
01
 10
-1039.353323980263
 20
1485.564527631318
 30
0.0
 11
-1037.8533239802639
 21
1485.564527631318
 31
0.0
  0
LINE
  5
3ABD
  8
01
 10
-1081.353323980263
 20
1463.066126832176
 30
0.0
 11
-1081.8526187318589
 21
1463.5653455371239
 31
0.0
  0
LINE
  5
3ABE
  8
01
 10
-1081.353323980263
 20
1484.0644094538559
 30
0.0
 11
-1081.353323980263
 21
1463.066126832176
 31
0.0
  0
LINE
  5
3ABF
  8
01
 10
-1080.8533239802639
 20
1484.064527631318
 30
0.0
 11
-1081.353323980263
 21
1484.064527631318
 31
0.0
  0
LINE
  5
3AC0
  8
01
 10
-1081.353323980263
 20
1463.066126832176
 30
0.0
 11
-1081.353323980263
 21
1463.064527631318
 31
0.0
  0
LINE
  5
3AC1
  8
01
 10
-1080.8533239802639
 20
1463.0661268299241
 30
0.0
 11
-1081.353323980263
 21
1463.066126832176
 31
0.0
  0
LINE
  5
3AC2
  8
01
 10
-1076.3533239802639
 20
1463.0681257190749
 30
0.0
 11
-1076.3533239802639
 21
1484.064256099515
 31
0.0
  0
LINE
  5
3AC3
  8
01
 10
-1076.3533239802639
 20
1463.065162951106
 30
0.0
 11
-1076.3533239802639
 21
1463.0681257190749
 31
0.0
  0
LINE
  5
3AC4
  8
01
 10
-1076.853323980263
 20
1463.064527631318
 30
0.0
 11
-1076.3533239802639
 21
1463.064527631318
 31
0.0
  0
LINE
  5
3AC5
  8
01
 10
-1075.853323980263
 20
1463.567954384321
 30
0.0
 11
-1075.853323980263
 21
1463.564606922384
 31
0.0
  0
LINE
  5
3AC6
  8
01
 10
-1075.853323980263
 20
1483.5644483429451
 30
0.0
 11
-1075.853323980263
 21
1463.567954384321
 31
0.0
  0
ARC
  5
3AC7
  8
01
 10
-1077.3533239802639
 20
1462.0645276313189
 30
0.0
 40
0.500000000000199
 50
270.00000000002279
 51
359.99999999997402
  0
LINE
  5
3AC8
  8
01
 10
-1125.406943036166
 20
1523.9356871332241
 30
0.0
 11
-1147.406268586974
 21
1523.9356871332241
 31
0.0
  0
LINE
  5
3AC9
  8
01
 10
-1147.406268586974
 20
1519.9356871332241
 30
0.0
 11
-1147.406268586974
 21
1523.9356871332241
 31
0.0
  0
LINE
  5
3ACA
  8
1DIM
 10
-1286.406268586974
 20
1566.9356871332241
 30
0.0
 11
-1274.407004349729
 21
1566.9356871332241
 31
0.0
  0
LINE
  5
3ACB
  8
01
 10
-1274.4070043497279
 20
1568.4356871332241
 30
0.0
 11
-1286.406268586974
 21
1568.4356871332241
 31
0.0
  0
LINE
  5
3ACC
  8
01
 10
-1286.406268586974
 20
1568.4356871332241
 30
0.0
 11
-1298.406268586974
 21
1568.4356871332241
 31
0.0
  0
LINE
  5
3ACD
  8
01
 10
-1274.906973692948
 20
1566.4356871332241
 30
0.0
 11
-1297.906268586974
 21
1566.4356871332241
 31
0.0
  0
LINE
  5
3ACE
  8
1DIM
 10
-1148.4055328242191
 20
1566.9356871332241
 30
0.0
 11
-1124.407004349729
 21
1566.9356871332241
 31
0.0
  0
LINE
  5
3ACF
  8
01
 10
-1148.406268586974
 20
1568.4356871332241
 30
0.0
 11
-1124.407004349729
 21
1568.4356871332241
 31
0.0
  0
LINE
  5
3AD0
  8
01
 10
-1275.906268586974
 20
1524.4356871332241
 30
0.0
 11
-1275.40660581157
 21
1523.9360243578201
 31
0.0
  0
LINE
  5
3AD1
  8
01
 10
-1296.906268586974
 20
1519.4356871332241
 30
0.0
 11
-1275.9069123793849
 21
1519.4356871332241
 31
0.0
  0
LINE
  5
3AD2
  8
01
 10
-1286.406268586974
 20
1519.9356871332241
 30
0.0
 11
-1275.406268586974
 21
1519.9356871332241
 31
0.0
  0
LINE
  5
3AD3
  8
01
 10
-1286.406268586974
 20
1523.9356871332241
 30
0.0
 11
-1297.4055941377819
 21
1523.9356871332241
 31
0.0
  0
LINE
  5
3AD4
  8
01
 10
-1147.4059313623779
 20
1519.935349908628
 30
0.0
 11
-1146.906268586974
 21
1519.4356871332241
 31
0.0
  0
LINE
  5
3AD5
  8
01
 10
-1146.906268586974
 20
1524.4356871332241
 30
0.0
 11
-1125.9069123793849
 21
1524.4356871332241
 31
0.0
  0
LINE
  5
3AD6
  8
01
 10
-1147.4055941377831
 20
1519.9356871332241
 30
0.0
 11
-1125.406943036166
 21
1519.9356871332241
 31
0.0
  0
ARC
  5
3AD7
  8
01
 10
-1297.906268586974
 20
1566.9356871332241
 30
0.0
 40
0.4999999999999952
 50
179.99999999998701
 51
269.99999999999682
  0
LINE
  5
3AD8
  8
01
 10
-1298.406268586974
 20
1568.4356871332241
 30
0.0
 11
-1298.406268586974
 21
1566.9356871332241
 31
0.0
  0
LINE
  5
3AD9
  8
1DIM
 10
-1298.406268586974
 20
1566.9356871332241
 30
0.0
 11
-1286.406268586974
 21
1566.9356871332241
 31
0.0
  0
ARC
  5
3ADA
  8
01
 10
-1124.906268586974
 20
1566.9356871332241
 30
0.0
 40
0.4999999999998579
 50
269.99999999998698
 51
0.0000000000130276
  0
LINE
  5
3ADB
  8
01
 10
-1124.406268586974
 20
1566.9356871332241
 30
0.0
 11
-1124.406268586974
 21
1568.4356871332241
 31
0.0
  0
LINE
  5
3ADC
  8
01
 10
-1147.906268586974
 20
1566.4356871332241
 30
0.0
 11
-1124.906973692948
 21
1566.4356871332241
 31
0.0
  0
LINE
  5
3ADD
  8
01
 10
-1275.406268586974
 20
1519.9356871332241
 30
0.0
 11
-1275.906268586974
 21
1519.4356871332241
 31
0.0
  0
LINE
  5
3ADE
  8
01
 10
-1275.9069123793849
 20
1524.4356871332241
 30
0.0
 11
-1296.906268586974
 21
1524.4356871332241
 31
0.0
  0
LINE
  5
3ADF
  8
01
 10
-1275.4069430361651
 20
1523.9356871332241
 30
0.0
 11
-1286.406268586974
 21
1523.9356871332241
 31
0.0
  0
LINE
  5
3AE0
  8
01
 10
-1275.406268586974
 20
1523.9356871332241
 30
0.0
 11
-1275.406268586974
 21
1519.9356871332241
 31
0.0
  0
LINE
  5
3AE1
  8
01
 10
-1297.406268586974
 20
1519.9356871332241
 30
0.0
 11
-1286.406268586974
 21
1519.9356871332241
 31
0.0
  0
LINE
  5
3AE2
  8
01
 10
-1081.853323980263
 20
1473.564527631318
 30
0.0
 11
-1081.853323980263
 21
1463.065171423729
 31
0.0
  0
LINE
  5
3AE3
  8
01
 10
-1081.85332398023
 20
1484.063883838907
 30
0.0
 11
-1081.853323980263
 21
1473.564527631318
 31
0.0
  0
LINE
  5
3AE4
  8
01
 10
-1080.8533239802639
 20
1462.0652327372659
 30
0.0
 11
-1080.8533239802639
 21
1485.064527631318
 31
0.0
  0
LINE
  5
3AE5
  8
01
 10
-1077.353323980263
 20
1485.564527631318
 30
0.0
 11
-1080.353323980263
 21
1485.564527631318
 31
0.0
  0
LINE
  5
3AE6
  8
1DIM
 10
-1077.353323980263
 20
1461.5652633940699
 30
0.0
 11
-1077.353323980263
 21
1485.564527631318
 31
0.0
  0
LINE
  5
3AE7
  8
1DIM
 10
-1080.353323980263
 20
1485.564527631318
 30
0.0
 11
-1080.353323980263
 21
1461.564527631318
 31
0.0
  0
LINE
  5
3AE8
  8
01
 10
-1086.353323980263
 20
1473.564527631318
 30
0.0
 11
-1086.353323980263
 21
1462.565202080511
 31
0.0
  0
LINE
  5
3AE9
  8
1DIM
 10
-1136.406268586974
 20
1461.564527631318
 30
0.0
 11
-1136.406268586974
 21
1462.064527631318
 31
0.0
  0
LINE
  5
3AEA
  8
01
 10
-1080.8533239802639
 20
1463.064527631318
 30
0.0
 11
-1081.353323980263
 21
1463.064527631318
 31
0.0
  0
LINE
  5
3AEB
  8
01
 10
-1081.853323980263
 20
1483.5645235477359
 30
0.0
 11
-1081.353986981027
 21
1484.0638603430641
 31
0.0
  0
LINE
  5
3AEC
  8
01
 10
-1082.3533239802639
 20
1473.564527631318
 30
0.0
 11
-1082.3533239802639
 21
1484.564527631318
 31
0.0
  0
LINE
  5
3AED
  8
01
 10
-1081.353323980263
 20
1463.064536259996
 30
0.0
 11
-1081.853323980263
 21
1463.564535849107
 31
0.0
  0
ARC
  5
3AEE
  8
01
 10
-1080.353323980263
 20
1485.0645276313189
 30
0.0
 40
0.4999999999998579
 50
89.999999999983714
 51
180.00000000001299
  0
ARC
  5
3AEF
  8
01
 10
-1077.353323980263
 20
1485.064527631318
 30
0.0
 40
0.4999999999999432
 50
359.99999999998698
 51
90.000000000006509
  0
LINE
  5
3AF0
  8
01
 10
-1275.906363713802
 20
1529.935773536942
 30
0.0
 11
-1275.906314574928
 21
1529.9357243980271
 31
0.0
  0
LINE
  5
3AF1
  8
01
 10
-1276.4062768947661
 20
1530.4356871332241
 30
0.0
 11
-1275.906871952071
 21
1529.936281775633
 31
0.0
  0
LINE
  5
3AF2
  8
01
 10
-1296.906268586974
 20
1529.4356871332241
 30
0.0
 11
-1296.906268586974
 21
1529.9356871332241
 31
0.0
  0
ARC
  5
3AF3
  8
01
 10
-1274.906291490546
 20
1566.9357100367481
 30
0.0
 40
0.5000229040960099
 50
270.00274428362837
 51
359.99737556974242
  0
ARC
  5
3AF4
  8
01
 10
-1286.406268586974
 20
1473.564527631318
 30
0.0
 40
11.0
 50
180.0
 51
0.0
  0
LINE
  5
3AF5
  8
01
 10
-1296.905814434085
 20
1529.936132540437
 30
0.0
 11
-1296.406260257404
 21
1530.4356871332241
 31
0.0
  0
ARC
  5
3AF6
  8
01
 10
-1136.406268586974
 20
1473.564527631318
 30
0.0
 40
10.50000000000008
 50
180.0
 51
0.0
  0
LINE
  5
3AF7
  8
01
 10
-1296.906268586974
 20
1519.4356871332241
 30
0.0
 11
-1297.406268586974
 21
1519.9356871332241
 31
0.0
  0
LINE
  5
3AF8
  8
01
 10
-1293.906268586974
 20
1530.4356871332241
 30
0.0
 11
-1293.906268586974
 21
1566.4356871332241
 31
0.0
  0
LINE
  5
3AF9
  8
01
 10
-1297.4059313623779
 20
1523.9360243578201
 30
0.0
 11
-1296.906268586974
 21
1524.4356871332241
 31
0.0
  0
LINE
  5
3AFA
  8
01
 10
-1076.353197069026
 20
1484.0643830109659
 30
0.0
 11
-1075.853323980263
 21
1483.5645107652911
 31
0.0
  0
LINE
  5
3AFB
  8
01
 10
-1075.853323980263
 20
1463.5645359522141
 30
0.0
 11
-1076.35301068884
 21
1463.064849659422
 31
0.0
  0
LINE
  5
3AFC
  8
01
 10
-1081.853323980263
 20
1463.064527631318
 30
0.0
 11
-1082.352986755667
 21
1462.5648648559149
 31
0.0
  0
LINE
  5
3AFD
  8
01
 10
-1039.853323980263
 20
1481.064527631318
 30
0.0
 11
-1075.853323980263
 21
1481.064527631318
 31
0.0
  0
LINE
  5
3AFE
  8
01
 10
-1086.8533239802639
 20
1484.064527631318
 30
0.0
 11
-1086.353661204859
 21
1484.564190406722
 31
0.0
  0
LINE
  5
3AFF
  8
01
 10
-1082.3533239802639
 20
1484.564527631318
 30
0.0
 11
-1081.853323980263
 21
1484.064527631318
 31
0.0
  0
LINE
  5
3B00
  8
01
 10
-1086.353323980263
 20
1484.564527631318
 30
0.0
 11
-1082.3533239802639
 21
1484.564527631318
 31
0.0
  0
LINE
  5
3B01
  8
01
 10
-1076.853323980263
 20
1484.064527631318
 30
0.0
 11
-1076.3533239802639
 21
1484.064527631318
 31
0.0
  0
LINE
  5
3B02
  8
01
 10
-1086.353661204859
 20
1462.5648648559149
 30
0.0
 11
-1086.8533239802639
 21
1463.064527631318
 31
0.0
  0
ARC
  5
3B03
  8
1DIM
 10
-1286.406268586974
 20
1473.564527631318
 30
0.0
 40
11.5
 50
90.0
 51
270.0
  0
LINE
  5
3B04
  8
1DIM
 10
-1286.406268586974
 20
1462.064527631318
 30
0.0
 11
-1136.406268586974
 21
1462.064527631318
 31
0.0
  0
ARC
  5
3B05
  8
01
 10
-1286.406268586974
 20
1473.564527631318
 30
0.0
 40
10.50000000000002
 50
0.0
 51
180.0
  0
ARC
  5
3B06
  8
01
 10
-1297.9062456834019
 20
1528.9356642297009
 30
0.0
 40
0.5000229040961793
 50
90.002744283651225
 51
179.99737556972929
  0
LINE
  5
3B07
  8
01
 10
-1146.906268586974
 20
1529.4356871332241
 30
0.0
 11
-1146.906268586974
 21
1529.9356871332241
 31
0.0
  0
LINE
  5
3B08
  8
01
 10
-1125.906268586974
 20
1529.9356871332241
 30
0.0
 11
-1125.906268586974
 21
1529.4356871332241
 31
0.0
  0
LINE
  5
3B09
  8
01
 10
-1146.906053466397
 20
1529.9358935307901
 30
0.0
 11
-1146.4062602791821
 21
1530.4356871332241
 31
0.0
  0
LINE
  5
3B0A
  8
01
 10
-1275.906268586974
 20
1525.4356871332241
 30
0.0
 11
-1275.906268586974
 21
1524.9356871332241
 31
0.0
  0
LINE
  5
3B0B
  8
01
 10
-1126.4062769165439
 20
1530.4356871332241
 30
0.0
 11
-1125.9064087257909
 21
1529.9358185261019
 31
0.0
  0
LINE
  5
3B0C
  8
01
 10
-1275.906268586974
 20
1529.9356871332241
 30
0.0
 11
-1275.906268586974
 21
1529.4356871332241
 31
0.0
  0
LINE
  5
3B0D
  8
01
 10
-1146.9060608163061
 20
1524.9354836568459
 30
0.0
 11
-1146.906159607131
 21
1524.9355824477111
 31
0.0
  0
LINE
  5
3B0E
  8
01
 10
-1125.906268586974
 20
1525.4356871332241
 30
0.0
 11
-1125.906268586974
 21
1524.9356871332241
 31
0.0
  0
LINE
  5
3B0F
  8
01
 10
-1146.4062644970959
 20
1524.4356871332241
 30
0.0
 11
-1146.90557152517
 21
1524.9349943655091
 31
0.0
  0
LINE
  5
3B10
  8
01
 10
-1296.4062645117569
 20
1524.4356871332241
 30
0.0
 11
-1296.9056013031111
 21
1524.935024128069
 31
0.0
  0
LINE
  5
3B11
  8
01
 10
-1275.9068275002651
 20
1524.935132514079
 30
0.0
 11
-1276.406272676853
 21
1524.4356871332241
 31
0.0
  0
LINE
  5
3B12
  8
01
 10
-1296.906268586974
 20
1524.9356871332241
 30
0.0
 11
-1296.906268586974
 21
1525.4356871332241
 31
0.0
  0
LINE
  5
3B13
  8
01
 10
-1296.9061417238061
 20
1524.9355645489841
 30
0.0
 11
-1296.906207358777
 21
1524.9356301839821
 31
0.0
  0
LINE
  5
3B14
  8
01
 10
-1146.906268586974
 20
1524.9356871332241
 30
0.0
 11
-1146.906268586974
 21
1525.4356871332241
 31
0.0
  0
LINE
  5
3B15
  8
01
 10
-1125.9064706302961
 20
1524.9354893688001
 30
0.0
 11
-1126.406272662191
 21
1524.4356871332241
 31
0.0
  0
ARC
  5
3B16
  8
01
 10
-1286.406268586974
 20
1473.564527631318
 30
0.0
 40
11.00000000000011
 50
0.0
 51
90.0
  0
ARC
  5
3B17
  8
01
 10
-1039.353301512182
 20
1485.06450516319
 30
0.0
 40
0.5000224686332027
 50
90.002574536791826
 51
179.99730560983409
  0
LINE
  5
3B18
  8
01
 10
-1037.8533239802639
 20
1485.5637918685629
 30
0.0
 11
-1037.8533239802639
 21
1473.564527631318
 31
0.0
  0
LINE
  5
3B19
  8
01
 10
-1136.681126544207
 20
1529.9356871332241
 30
0.0
 11
-1146.90584706866
 21
1529.9356871332241
 31
0.0
  0
ARC
  5
3B1A
  8
01
 10
-1124.906291490546
 20
1525.935710036749
 30
0.0
 40
0.5000229040970473
 50
270.00274428374888
 51
359.99737556961207
  0
ARC
  5
3B1B
  8
01
 10
-1297.906246118846
 20
1525.935709601305
 30
0.0
 40
0.5000224686325775
 50
180.00257453671361
 51
269.99730560990889
  0
LINE
  5
3B1C
  8
01
 10
-1125.406268586974
 20
1523.9356871332241
 30
0.0
 11
-1125.406268586974
 21
1519.9356871332241
 31
0.0
  0
LINE
  5
3B1D
  8
01
 10
-1125.906268586974
 20
1524.4356871332241
 30
0.0
 11
-1125.40660581157
 21
1523.9360243578201
 31
0.0
  0
LINE
  5
3B1E
  8
01
 10
-1125.40660581157
 20
1519.935349908628
 30
0.0
 11
-1125.906268586974
 21
1519.4356871332241
 31
0.0
  0
LINE
  5
3B1F
  8
01
 10
-1278.906268586974
 20
1566.4356871332241
 30
0.0
 11
-1278.906268586974
 21
1530.4356871332241
 31
0.0
  0
LINE
  5
3B20
  8
01
 10
-1297.406268586974
 20
1519.9356871332241
 30
0.0
 11
-1297.406268586974
 21
1523.9356871332241
 31
0.0
  0
ARC
  5
3B21
  8
01
 10
-1136.406268586974
 20
1473.564527631318
 30
0.0
 40
10.99999999999997
 50
270.0
 51
0.0
  0
LINE
  5
3B22
  8
1DIM
 10
-1039.3533239801141
 20
1485.5637918685629
 30
0.0
 11
-1039.353323980263
 21
1473.564527631318
 31
0.0
  0
ARC
  5
3B23
  8
01
 10
-1136.406268586974
 20
1473.564527631318
 30
0.0
 40
10.99999999999997
 50
0.0
 51
180.0
  0
LINE
  5
3B24
  8
01
 10
-1286.406268586974
 20
1485.564527631318
 30
0.0
 11
-1136.406268586974
 21
1485.564527631318
 31
0.0
  0
LINE
  5
3B25
  8
01
 10
-1039.353323980263
 20
1461.564527631318
 30
0.0
 11
-1037.8533239802639
 21
1461.564527631318
 31
0.0
  0
LINE
  5
3B26
  8
01
 10
-1037.8533239802639
 20
1461.565263394072
 30
0.0
 11
-1037.8533239802639
 21
1473.564527631318
 31
0.0
  0
LINE
  5
3B27
  8
1DIM
 10
-1039.353323980263
 20
1473.564527631318
 30
0.0
 11
-1039.353323980263
 21
1461.564527631318
 31
0.0
  0
ARC
  5
3B28
  8
01
 10
-1136.406268586974
 20
1473.564527631318
 30
0.0
 40
12.0
 50
270.0
 51
89.999999510942445
  0
ARC
  5
3B29
  8
01
 10
-1136.406268586974
 20
1473.564527631318
 30
0.0
 40
10.5
 50
0.0
 51
180.0
  0
LINE
  5
3B2A
  8
01
 10
-1136.6680380700529
 20
1530.4356871332241
 30
0.0
 11
-1126.406347875793
 21
1530.4356871332241
 31
0.0
  0
LINE
  5
3B2B
  8
01
 10
-1136.406268586974
 20
1525.4356871332241
 30
0.0
 11
-1286.406268586974
 21
1525.4356871332241
 31
0.0
  0
LINE
  5
3B2C
  8
01
 10
-1124.90697369757
 20
1525.435687132765
 30
0.0
 11
-1136.4062684470571
 21
1525.4356871332241
 31
0.0
  0
LINE
  5
3B2D
  8
1DIM
 10
-1136.406268586974
 20
1528.9356871332241
 30
0.0
 11
-1286.406268586974
 21
1528.9356871332241
 31
0.0
  0
LINE
  5
3B2E
  8
1DIM
 10
-1136.4062684845451
 20
1525.9356871332241
 30
0.0
 11
-1124.407004349159
 21
1525.9356871332241
 31
0.0
  0
LINE
  5
3B2F
  8
01
 10
-1136.406268586974
 20
1529.4356871332241
 30
0.0
 11
-1286.406268586974
 21
1529.4356871332241
 31
0.0
  0
LINE
  5
3B30
  8
01
 10
-1124.90697369757
 20
1529.43568713323
 30
0.0
 11
-1136.4062684470571
 21
1529.4356871332241
 31
0.0
  0
LINE
  5
3B31
  8
01
 10
-1286.406268586974
 20
1525.4356871332241
 30
0.0
 11
-1297.9055634809999
 21
1525.4356871332241
 31
0.0
  0
LINE
  5
3B32
  8
1DIM
 10
-1286.406268586974
 20
1525.9356871332241
 30
0.0
 11
-1136.406268586974
 21
1525.9356871332241
 31
0.0
  0
LINE
  5
3B33
  8
1DIM
 10
-1124.4070043502929
 20
1528.9356871332311
 30
0.0
 11
-1136.4062684845451
 21
1528.9356871332241
 31
0.0
  0
LINE
  5
3B34
  8
1DIM
 10
-1298.4055328242191
 20
1525.9356871332241
 30
0.0
 11
-1286.406268586974
 21
1525.9356871332241
 31
0.0
  0
LINE
  5
3B35
  8
1DIM
 10
-1286.406268586974
 20
1528.9356871332241
 30
0.0
 11
-1298.4055328242191
 21
1528.9356871332241
 31
0.0
  0
LINE
  5
3B36
  8
01
 10
-1286.406268586974
 20
1529.4356871332241
 30
0.0
 11
-1297.9055634809999
 21
1529.4356871332241
 31
0.0
  0
LINE
  5
3B37
  8
01
 10
-1136.406268586974
 20
1461.564527631318
 30
0.0
 11
-1286.406268586974
 21
1461.564527631318
 31
0.0
  0
ARC
  5
3B38
  8
01
 10
-1286.406268586974
 20
1473.564527631318
 30
0.0
 40
12.0
 50
90.0
 51
270.0
  0
LINE
  5
3B39
  8
01
 10
-1086.35332398023
 20
1484.563853182126
 30
0.0
 11
-1086.353323980263
 21
1473.564527631318
 31
0.0
  0
LINE
  5
3B3A
  8
1DIM
 10
-1286.406268586974
 20
1462.064527631318
 30
0.0
 11
-1286.406268586974
 21
1461.564527631318
 31
0.0
  0
LINE
  5
3B3B
  8
1DIM
 10
-1286.406268586974
 20
1485.564527631318
 30
0.0
 11
-1286.406268586974
 21
1485.064527631318
 31
0.0
  0
LINE
  5
3B3C
  8
01
 10
-1146.906268586974
 20
1524.4356871332241
 30
0.0
 11
-1147.406268586974
 21
1523.9356871332241
 31
0.0
  0
ARC
  5
3B3D
  8
01
 10
-1039.3533010767401
 20
1462.0645505348889
 30
0.0
 40
0.5000229040957683
 50
180.00274428359259
 51
269.99737556978482
  0
ARC
  5
3B3E
  8
01
 10
-1136.406268586974
 20
1473.564527631318
 30
0.0
 40
10.999999999999879
 50
180.0
 51
270.0
  0
LINE
  5
3B3F
  8
01
 10
-1039.853323980263
 20
1466.064527631318
 30
0.0
 11
-1075.853323980263
 21
1466.064527631318
 31
0.0
  0
LINE
  5
3B40
  8
01
 10
-1039.853323980263
 20
1473.564527631318
 30
0.0
 11
-1039.853323980263
 21
1462.065232737292
 31
0.0
  0
LINE
  5
3B41
  8
01
 10
-1146.4061892986051
 20
1530.4356871332241
 30
0.0
 11
-1136.6680380700529
 21
1530.4356871332241
 31
0.0
  0
LINE
  5
3B42
  8
01
 10
-1286.2230183193831
 20
1524.9356871332241
 30
0.0
 11
-1275.9072074669889
 21
1524.9356871332241
 31
0.0
  0
LINE
  5
3B43
  8
01
 10
-1296.9060549215751
 20
1524.9356871332241
 30
0.0
 11
-1286.2230183193831
 21
1524.9356871332241
 31
0.0
  0
LINE
  5
3B44
  8
01
 10
-1125.9065401187779
 20
1529.935687134627
 30
0.0
 11
-1136.681126544207
 21
1529.9356871332241
 31
0.0
  0
LINE
  5
3B45
  8
01
 10
-1148.406268586974
 20
1566.9356871332241
 30
0.0
 11
-1148.406268586974
 21
1568.4356871332241
 31
0.0
  0
LINE
  5
3B46
  8
01
 10
-1143.906268586974
 20
1530.4356871332241
 30
0.0
 11
-1143.906268586974
 21
1566.4356871332241
 31
0.0
  0
LINE
  5
3B47
  8
01
 10
-1128.906268586974
 20
1566.4356871332241
 30
0.0
 11
-1128.906268586974
 21
1530.4356871332241
 31
0.0
  0
LINE
  5
3B48
  8
01
 10
-1298.406268586974
 20
1525.9356871332241
 30
0.0
 11
-1298.406268586974
 21
1528.9356871332241
 31
0.0
  0
LINE
  5
3B49
  8
01
 10
-1124.406268586974
 20
1528.9356871332241
 30
0.0
 11
-1124.406268586974
 21
1525.9356871332241
 31
0.0
  0
ARC
  5
3B4A
  8
01
 10
-1286.406268586974
 20
1473.564527631318
 30
0.0
 40
10.49999999999998
 50
180.0
 51
0.0
  0
LINE
  5
3B4B
  8
01
 10
-1039.853323980288
 20
1485.0638225253449
 30
0.0
 11
-1039.853323980263
 21
1473.564527631318
 31
0.0
  0
LINE
  5
3B4C
  8
01
 10
-1286.1314106297409
 20
1529.9356871332241
 30
0.0
 11
-1286.406268586974
 21
1529.9356871332241
 31
0.0
  0
LINE
  5
3B4D
  8
01
 10
-1286.406268586974
 20
1529.9356871332241
 30
0.0
 11
-1296.9053690265009
 21
1529.9356871332241
 31
0.0
  0
LINE
  5
4074
  8
1PHANTOM
 10
-1136.589518854566
 20
1560.9356871332241
 30
0.0
 11
-1136.406268586974
 21
1560.9356871332241
 31
0.0
  0
POLYLINE
  8
1PHANTOM
  5
4599
  66
     1
 10
0.000000
 20
0.000000
 30
0.000000
  70
     8
  0
VERTEX
  8
1PHANTOM
  5
459A
 10
-1146.91
 20
1560.94
 30
0.000000
  70
    32
  0
VERTEX
  8
1PHANTOM
  5
459B
 10
-1146.91
 20
1560.94
 30
0.000000
  70
    32
  0
VERTEX
  8
1PHANTOM
  5
459C
 10
-1146.90
 20
1560.94
 30
0.000000
  70
    32
  0
VERTEX
  8
1PHANTOM
  5
459D
 10
-1146.90
 20
1560.94
 30
0.000000
  70
    32
  0
VERTEX
  8
1PHANTOM
  5
459E
 10
-1146.89
 20
1560.94
 30
0.000000
  70
    32
  0
VERTEX
  8
1PHANTOM
  5
459F
 10
-1146.88
 20
1560.94
 30
0.000000
  70
    32
  0
VERTEX
  8
1PHANTOM
  5
45A0
 10
-1146.87
 20
1560.94
 30
0.000000
  70
    32
  0
VERTEX
  8
1PHANTOM
  5
45A1
 10
-1146.85
 20
1560.94
 30
0.000000
  70
    32
  0
VERTEX
  8
1PHANTOM
  5
45A2
 10
-1146.84
 20
1560.94
 30
0.000000
  70
    32
  0
VERTEX
  8
1PHANTOM
  5
45A3
 10
-1146.82
 20
1560.94
 30
0.000000
  70
    32
  0
VERTEX
  8
1PHANTOM
  5
45A4
 10
-1146.79
 20
1560.94
 30
0.000000
  70
    32
  0
VERTEX
  8
1PHANTOM
  5
45A5
 10
-1146.77
 20
1560.94
 30
0.000000
  70
    32
  0
VERTEX
  8
1PHANTOM
  5
45A6
 10
-1146.74
 20
1560.94
 30
0.000000
  70
    32
  0
VERTEX
  8
1PHANTOM
  5
45A7
 10
-1146.71
 20
1560.94
 30
0.000000
  70
    32
  0
VERTEX
  8
1PHANTOM
  5
45A8
 10
-1146.68
 20
1560.94
 30
0.000000
  70
    32
  0
VERTEX
  8
1PHANTOM
  5
45A9
 10
-1146.64
 20
1560.94
 30
0.000000
  70
    32
  0
VERTEX
  8
1PHANTOM
  5
45AA
 10
-1146.60
 20
1560.94
 30
0.000000
  70
    32
  0
VERTEX
  8
1PHANTOM
  5
45AB
 10
-1146.56
 20
1560.94
 30
0.000000
  70
    32
  0
VERTEX
  8
1PHANTOM
  5
45AC
 10
-1146.51
 20
1560.94
 30
0.000000
  70
    32
  0
VERTEX
  8
1PHANTOM
  5
45AD
 10
-1146.47
 20
1560.94
 30
0.000000
  70
    32
  0
VERTEX
  8
1PHANTOM
  5
45AE
 10
-1146.42
 20
1560.94
 30
0.000000
  70
    32
  0
VERTEX
  8
1PHANTOM
  5
45AF
 10
-1146.36
 20
1560.94
 30
0.000000
  70
    32
  0
VERTEX
  8
1PHANTOM
  5
45B0
 10
-1146.31
 20
1560.94
 30
0.000000
  70
    32
  0
VERTEX
  8
1PHANTOM
  5
45B1
 10
-1146.25
 20
1560.94
 30
0.000000
  70
    32
  0
VERTEX
  8
1PHANTOM
  5
45B2
 10
-1146.18
 20
1560.94
 30
0.000000
  70
    32
  0
VERTEX
  8
1PHANTOM
  5
45B3
 10
-1146.12
 20
1560.94
 30
0.000000
  70
    32
  0
VERTEX
  8
1PHANTOM
  5
45B4
 10
-1146.05
 20
1560.94
 30
0.000000
  70
    32
  0
VERTEX
  8
1PHANTOM
  5
45B5
 10
-1145.98
 20
1560.94
 30
0.000000
  70
    32
  0
VERTEX
  8
1PHANTOM
  5
45B6
 10
-1145.91
 20
1560.94
 30
0.000000
  70
    32
  0
VERTEX
  8
1PHANTOM
  5
45B7
 10
-1145.83
 20
1560.94
 30
0.000000
  70
    32
  0
VERTEX
  8
1PHANTOM
  5
45B8
 10
-1145.75
 20
1560.94
 30
0.000000
  70
    32
  0
VERTEX
  8
1PHANTOM
  5
45B9
 10
-1145.67
 20
1560.94
 30
0.000000
  70
    32
  0
VERTEX
  8
1PHANTOM
  5
45BA
 10
-1145.58
 20
1560.94
 30
0.000000
  70
    32
  0
VERTEX
  8
1PHANTOM
  5
45BB
 10
-1145.49
 20
1560.94
 30
0.000000
  70
    32
  0
VERTEX
  8
1PHANTOM
  5
45BC
 10
-1145.40
 20
1560.94
 30
0.000000
  70
    32
  0
VERTEX
  8
1PHANTOM
  5
45BD
 10
-1145.31
 20
1560.94
 30
0.000000
  70
    32
  0
VERTEX
  8
1PHANTOM
  5
45BE
 10
-1145.21
 20
1560.94
 30
0.000000
  70
    32
  0
VERTEX
  8
1PHANTOM
  5
45BF
 10
-1145.11
 20
1560.94
 30
0.000000
  70
    32
  0
VERTEX
  8
1PHANTOM
  5
45C0
 10
-1145.01
 20
1560.94
 30
0.000000
  70
    32
  0
VERTEX
  8
1PHANTOM
  5
45C1
 10
-1144.91
 20
1560.94
 30
0.000000
  70
    32
  0
VERTEX
  8
1PHANTOM
  5
45C2
 10
-1144.80
 20
1560.94
 30
0.000000
  70
    32
  0
VERTEX
  8
1PHANTOM
  5
45C3
 10
-1144.69
 20
1560.94
 30
0.000000
  70
    32
  0
VERTEX
  8
1PHANTOM
  5
45C4
 10
-1144.58
 20
1560.94
 30
0.000000
  70
    32
  0
VERTEX
  8
1PHANTOM
  5
45C5
 10
-1144.46
 20
1560.94
 30
0.000000
  70
    32
  0
VERTEX
  8
1PHANTOM
  5
45C6
 10
-1144.34
 20
1560.94
 30
0.000000
  70
    32
  0
VERTEX
  8
1PHANTOM
  5
45C7
 10
-1144.22
 20
1560.94
 30
0.000000
  70
    32
  0
VERTEX
  8
1PHANTOM
  5
45C8
 10
-1144.10
 20
1560.94
 30
0.000000
  70
    32
  0
VERTEX
  8
1PHANTOM
  5
45C9
 10
-1143.98
 20
1560.94
 30
0.000000
  70
    32
  0
VERTEX
  8
1PHANTOM
  5
45CA
 10
-1143.85
 20
1560.94
 30
0.000000
  70
    32
  0
VERTEX
  8
1PHANTOM
  5
45CB
 10
-1143.72
 20
1560.94
 30
0.000000
  70
    32
  0
VERTEX
  8
1PHANTOM
  5
45CC
 10
-1143.59
 20
1560.94
 30
0.000000
  70
    32
  0
VERTEX
  8
1PHANTOM
  5
45CD
 10
-1143.45
 20
1560.94
 30
0.000000
  70
    32
  0
VERTEX
  8
1PHANTOM
  5
45CE
 10
-1143.32
 20
1560.94
 30
0.000000
  70
    32
  0
VERTEX
  8
1PHANTOM
  5
45CF
 10
-1143.18
 20
1560.94
 30
0.000000
  70
    32
  0
VERTEX
  8
1PHANTOM
  5
45D0
 10
-1143.04
 20
1560.94
 30
0.000000
  70
    32
  0
VERTEX
  8
1PHANTOM
  5
45D1
 10
-1142.90
 20
1560.94
 30
0.000000
  70
    32
  0
VERTEX
  8
1PHANTOM
  5
45D2
 10
-1142.76
 20
1560.94
 30
0.000000
  70
    32
  0
VERTEX
  8
1PHANTOM
  5
45D3
 10
-1142.61
 20
1560.94
 30
0.000000
  70
    32
  0
VERTEX
  8
1PHANTOM
  5
45D4
 10
-1142.47
 20
1560.94
 30
0.000000
  70
    32
  0
VERTEX
  8
1PHANTOM
  5
45D5
 10
-1142.32
 20
1560.94
 30
0.000000
  70
    32
  0
VERTEX
  8
1PHANTOM
  5
45D6
 10
-1142.17
 20
1560.94
 30
0.000000
  70
    32
  0
VERTEX
  8
1PHANTOM
  5
45D7
 10
-1142.02
 20
1560.94
 30
0.000000
  70
    32
  0
VERTEX
  8
1PHANTOM
  5
45D8
 10
-1141.87
 20
1560.94
 30
0.000000
  70
    32
  0
VERTEX
  8
1PHANTOM
  5
45D9
 10
-1141.71
 20
1560.94
 30
0.000000
  70
    32
  0
VERTEX
  8
1PHANTOM
  5
45DA
 10
-1141.56
 20
1560.94
 30
0.000000
  70
    32
  0
VERTEX
  8
1PHANTOM
  5
45DB
 10
-1141.40
 20
1560.94
 30
0.000000
  70
    32
  0
VERTEX
  8
1PHANTOM
  5
45DC
 10
-1141.25
 20
1560.94
 30
0.000000
  70
    32
  0
VERTEX
  8
1PHANTOM
  5
45DD
 10
-1141.09
 20
1560.94
 30
0.000000
  70
    32
  0
VERTEX
  8
1PHANTOM
  5
45DE
 10
-1140.93
 20
1560.94
 30
0.000000
  70
    32
  0
VERTEX
  8
1PHANTOM
  5
45DF
 10
-1140.77
 20
1560.94
 30
0.000000
  70
    32
  0
VERTEX
  8
1PHANTOM
  5
45E0
 10
-1140.61
 20
1560.94
 30
0.000000
  70
    32
  0
VERTEX
  8
1PHANTOM
  5
45E1
 10
-1140.45
 20
1560.94
 30
0.000000
  70
    32
  0
VERTEX
  8
1PHANTOM
  5
45E2
 10
-1140.29
 20
1560.94
 30
0.000000
  70
    32
  0
VERTEX
  8
1PHANTOM
  5
45E3
 10
-1140.13
 20
1560.94
 30
0.000000
  70
    32
  0
VERTEX
  8
1PHANTOM
  5
45E4
 10
-1139.97
 20
1560.94
 30
0.000000
  70
    32
  0
VERTEX
  8
1PHANTOM
  5
45E5
 10
-1139.80
 20
1560.94
 30
0.000000
  70
    32
  0
VERTEX
  8
1PHANTOM
  5
45E6
 10
-1139.64
 20
1560.94
 30
0.000000
  70
    32
  0
VERTEX
  8
1PHANTOM
  5
45E7
 10
-1139.48
 20
1560.94
 30
0.000000
  70
    32
  0
VERTEX
  8
1PHANTOM
  5
45E8
 10
-1139.32
 20
1560.94
 30
0.000000
  70
    32
  0
VERTEX
  8
1PHANTOM
  5
45E9
 10
-1139.15
 20
1560.94
 30
0.000000
  70
    32
  0
VERTEX
  8
1PHANTOM
  5
45EA
 10
-1138.99
 20
1560.94
 30
0.000000
  70
    32
  0
VERTEX
  8
1PHANTOM
  5
45EB
 10
-1138.83
 20
1560.94
 30
0.000000
  70
    32
  0
VERTEX
  8
1PHANTOM
  5
45EC
 10
-1138.66
 20
1560.94
 30
0.000000
  70
    32
  0
VERTEX
  8
1PHANTOM
  5
45ED
 10
-1138.50
 20
1560.94
 30
0.000000
  70
    32
  0
VERTEX
  8
1PHANTOM
  5
45EE
 10
-1138.34
 20
1560.94
 30
0.000000
  70
    32
  0
VERTEX
  8
1PHANTOM
  5
45EF
 10
-1138.18
 20
1560.94
 30
0.000000
  70
    32
  0
VERTEX
  8
1PHANTOM
  5
45F0
 10
-1138.02
 20
1560.94
 30
0.000000
  70
    32
  0
VERTEX
  8
1PHANTOM
  5
45F1
 10
-1137.86
 20
1560.94
 30
0.000000
  70
    32
  0
VERTEX
  8
1PHANTOM
  5
45F2
 10
-1137.69
 20
1560.94
 30
0.000000
  70
    32
  0
VERTEX
  8
1PHANTOM
  5
45F3
 10
-1137.53
 20
1560.94
 30
0.000000
  70
    32
  0
VERTEX
  8
1PHANTOM
  5
45F4
 10
-1137.38
 20
1560.94
 30
0.000000
  70
    32
  0
VERTEX
  8
1PHANTOM
  5
45F5
 10
-1137.22
 20
1560.94
 30
0.000000
  70
    32
  0
VERTEX
  8
1PHANTOM
  5
45F6
 10
-1137.06
 20
1560.94
 30
0.000000
  70
    32
  0
VERTEX
  8
1PHANTOM
  5
45F7
 10
-1136.90
 20
1560.94
 30
0.000000
  70
    32
  0
VERTEX
  8
1PHANTOM
  5
45F8
 10
-1136.75
 20
1560.94
 30
0.000000
  70
    32
  0
VERTEX
  8
1PHANTOM
  5
45F9
 10
-1136.59
 20
1560.94
 30
0.000000
  70
    32
  0
SEQEND
  8
1PHANTOM
  5
45FA
  0
LINE
  5
4076
  8
1PHANTOM
 10
-1136.406268586974
 20
1560.9356871332241
 30
0.0
 11
-1125.9066683947999
 21
1560.9356871332241
 31
0.0
  0
ARC
  5
4078
  8
1PHANTOM
 10
-1124.906291055102
 20
1564.9356646651429
 30
0.0
 40
0.5000224686332596
 50
0.0025745367918327
 51
89.997305609834086
  0
LINE
  5
4079
  8
1PHANTOM
 10
-1275.9064498614539
 20
1565.9356871332241
 30
0.0
 11
-1286.1314106297409
 21
1565.9356871332241
 31
0.0
  0
LINE
  5
407A
  8
1PHANTOM
 10
-1276.4062768947661
 20
1566.4356871332241
 30
0.0
 11
-1296.4061892990251
 21
1566.4356871332241
 31
0.0
  0
LINE
  5
407B
  8
1PHANTOM
 10
-1146.4062644970959
 20
1560.4356871332241
 30
0.0
 11
-1126.406272662191
 21
1560.435687133225
 31
0.0
  0
LINE
  5
407C
  8
1PHANTOM
 10
-1275.906363713802
 20
1565.935773536942
 30
0.0
 11
-1275.906314574928
 21
1565.9357243980271
 31
0.0
  0
LINE
  5
407D
  8
1PHANTOM
 10
-1276.4062768947661
 20
1566.4356871332241
 30
0.0
 11
-1275.906871952071
 21
1565.936281775633
 31
0.0
  0
LINE
  5
407E
  8
1PHANTOM
 10
-1296.906268586974
 20
1565.4356871332241
 30
0.0
 11
-1296.906268586974
 21
1565.9356871332241
 31
0.0
  0
LINE
  5
407F
  8
1PHANTOM
 10
-1296.905814434085
 20
1565.936132540437
 30
0.0
 11
-1296.406260257404
 21
1566.4356871332241
 31
0.0
  0
ARC
  5
4080
  8
1PHANTOM
 10
-1297.9062456834019
 20
1564.9356642297009
 30
0.0
 40
0.5000229040961793
 50
90.002744283651225
 51
179.99737556972929
  0
LINE
  5
4081
  8
1PHANTOM
 10
-1146.906268586974
 20
1565.4356871332241
 30
0.0
 11
-1146.906268586974
 21
1565.9356871332241
 31
0.0
  0
LINE
  5
4082
  8
1PHANTOM
 10
-1125.906268586974
 20
1565.9356871332241
 30
0.0
 11
-1125.906268586974
 21
1565.4356871332241
 31
0.0
  0
LINE
  5
4083
  8
1PHANTOM
 10
-1146.906053466397
 20
1565.9358935307901
 30
0.0
 11
-1146.4062602791821
 21
1566.4356871332241
 31
0.0
  0
LINE
  5
4084
  8
1PHANTOM
 10
-1275.906268586974
 20
1561.4356871332241
 30
0.0
 11
-1275.906268586974
 21
1560.9356871332241
 31
0.0
  0
LINE
  5
4085
  8
1PHANTOM
 10
-1126.4062769165439
 20
1566.4356871332241
 30
0.0
 11
-1125.9064087257909
 21
1565.9358185261019
 31
0.0
  0
LINE
  5
4086
  8
1PHANTOM
 10
-1275.906268586974
 20
1565.9356871332241
 30
0.0
 11
-1275.906268586974
 21
1565.4356871332241
 31
0.0
  0
LINE
  5
4087
  8
1PHANTOM
 10
-1146.9060608163061
 20
1560.9354836568459
 30
0.0
 11
-1146.906159607131
 21
1560.9355824477111
 31
0.0
  0
LINE
  5
4088
  8
1PHANTOM
 10
-1125.906268586974
 20
1561.4356871332241
 30
0.0
 11
-1125.906268586974
 21
1560.9356871332241
 31
0.0
  0
LINE
  5
4089
  8
1PHANTOM
 10
-1146.4062644970959
 20
1560.4356871332241
 30
0.0
 11
-1146.90557152517
 21
1560.9349943655091
 31
0.0
  0
LINE
  5
408A
  8
1PHANTOM
 10
-1296.906268586974
 20
1560.9356871332241
 30
0.0
 11
-1296.906268586974
 21
1561.4356871332241
 31
0.0
  0
LINE
  5
408B
  8
1PHANTOM
 10
-1296.9061417238061
 20
1560.9355645489841
 30
0.0
 11
-1296.906207358777
 21
1560.9356301839821
 31
0.0
  0
LINE
  5
408C
  8
1PHANTOM
 10
-1146.906268586974
 20
1560.9356871332241
 30
0.0
 11
-1146.906268586974
 21
1561.4356871332241
 31
0.0
  0
LINE
  5
408D
  8
1PHANTOM
 10
-1125.9064706302961
 20
1560.9354893688001
 30
0.0
 11
-1126.406272662191
 21
1560.4356871332241
 31
0.0
  0
LINE
  5
408E
  8
1PHANTOM
 10
-1136.681126544207
 20
1565.9356871332241
 30
0.0
 11
-1146.90584706866
 21
1565.9356871332241
 31
0.0
  0
ARC
  5
408F
  8
1PHANTOM
 10
-1124.906291490546
 20
1561.935710036749
 30
0.0
 40
0.5000229040970473
 50
270.00274428374888
 51
359.99737556961207
  0
ARC
  5
4090
  8
1PHANTOM
 10
-1297.906246118846
 20
1561.935709601305
 30
0.0
 40
0.5000224686325775
 50
180.00257453671361
 51
269.99730560990889
  0
LINE
  5
4092
  8
1PHANTOM
 10
-1136.406268586974
 20
1561.4356871332241
 30
0.0
 11
-1286.406268586974
 21
1561.4356871332241
 31
0.0
  0
LINE
  5
4093
  8
1PHANTOM
 10
-1124.90697369757
 20
1561.435687132765
 30
0.0
 11
-1136.4062684470571
 21
1561.4356871332241
 31
0.0
  0
LINE
  5
4096
  8
1PHANTOM
 10
-1136.406268586974
 20
1565.4356871332241
 30
0.0
 11
-1286.406268586974
 21
1565.4356871332241
 31
0.0
  0
LINE
  5
4097
  8
1PHANTOM
 10
-1124.90697369757
 20
1565.4356871332311
 30
0.0
 11
-1136.4062684470571
 21
1565.4356871332241
 31
0.0
  0
LINE
  5
4098
  8
1PHANTOM
 10
-1286.406268586974
 20
1561.4356871332241
 30
0.0
 11
-1297.9055634809999
 21
1561.4356871332241
 31
0.0
  0
LINE
  5
409D
  8
1PHANTOM
 10
-1286.406268586974
 20
1565.4356871332241
 30
0.0
 11
-1297.9055634809999
 21
1565.4356871332241
 31
0.0
  0
LINE
  5
409E
  8
1PHANTOM
 10
-1146.4061892986051
 20
1566.4356871332241
 30
0.0
 11
-1126.4062769165439
 21
1566.4356871332241
 31
0.0
  0
LINE
  5
409F
  8
1PHANTOM
 10
-1286.2230183193831
 20
1560.9356871332241
 30
0.0
 11
-1275.9072074669889
 21
1560.9356871332241
 31
0.0
  0
LINE
  5
40A0
  8
1PHANTOM
 10
-1296.9060549215751
 20
1560.9356871332241
 30
0.0
 11
-1286.2230183193831
 21
1560.9356871332241
 31
0.0
  0
LINE
  5
40A1
  8
1PHANTOM
 10
-1125.9065401187779
 20
1565.9356871346281
 30
0.0
 11
-1136.681126544207
 21
1565.9356871332241
 31
0.0
  0
LINE
  5
40A2
  8
1PHANTOM
 10
-1298.406268586974
 20
1561.9356871332241
 30
0.0
 11
-1298.406268586974
 21
1564.9356871332241
 31
0.0
  0
LINE
  5
40A3
  8
1PHANTOM
 10
-1124.406268586974
 20
1564.9356871332241
 30
0.0
 11
-1124.406268586974
 21
1561.9356871332241
 31
0.0
  0
LINE
  5
40A4
  8
1PHANTOM
 10
-1286.1314106297409
 20
1565.9356871332241
 30
0.0
 11
-1286.406268586974
 21
1565.9356871332241
 31
0.0
  0
LINE
  5
40A5
  8
1PHANTOM
 10
-1286.406268586974
 20
1565.9356871332241
 30
0.0
 11
-1296.9053690265009
 21
1565.9356871332241
 31
0.0
  0
LINE
  5
40A6
  8
1PHANTOM
 10
-1296.407203391771
 20
1560.4356871332241
 30
0.0
 11
-1296.906540183126
 21
1560.935024128069
 31
0.0
  0
LINE
  5
40A7
  8
1PHANTOM
 10
-1275.9077663802791
 20
1560.935132514079
 30
0.0
 11
-1276.407211556867
 21
1560.4356871332241
 31
0.0
  0
LINE
  5
40A8
  8
1PHANTOM
 10
-1296.407203391771
 20
1560.4356871332241
 30
0.0
 11
-1276.407211556867
 21
1560.4356871332241
 31
0.0
  0
LINE
  5
40A9
  8
1PHANTOM
 10
-1041.353323980285
 20
1461.564527631318
 30
0.0
 11
-1044.353323980285
 21
1461.564527631318
 31
0.0
  0
LINE
  5
40AA
  8
1PHANTOM
 10
-1040.853323980285
 20
1462.064527631318
 30
0.0
 11
-1040.853323980285
 21
1485.063822516074
 31
0.0
  0
ARC
  5
40AB
  8
1PHANTOM
 10
-1044.353323980285
 20
1462.0645276313189
 30
0.0
 40
0.5000000000003411
 50
180.00000000003911
 51
269.99999999996089
  0
LINE
  5
40AC
  8
1PHANTOM
 10
-1045.353323980285
 20
1463.066126832176
 30
0.0
 11
-1045.8526187318801
 21
1463.5653455371239
 31
0.0
  0
LINE
  5
40AD
  8
1PHANTOM
 10
-1045.353323980285
 20
1484.0644094538559
 30
0.0
 11
-1045.353323980285
 21
1463.066126832176
 31
0.0
  0
LINE
  5
40AE
  8
1PHANTOM
 10
-1044.853323980285
 20
1484.064527631318
 30
0.0
 11
-1045.353323980285
 21
1484.064527631318
 31
0.0
  0
LINE
  5
40AF
  8
1PHANTOM
 10
-1045.353323980285
 20
1463.066126832176
 30
0.0
 11
-1045.353323980285
 21
1463.064527631318
 31
0.0
  0
LINE
  5
40B0
  8
1PHANTOM
 10
-1044.853323980285
 20
1463.0661268299241
 30
0.0
 11
-1045.353323980285
 21
1463.066126832176
 31
0.0
  0
LINE
  5
40B1
  8
1PHANTOM
 10
-1040.353323980285
 20
1463.0681257190749
 30
0.0
 11
-1040.353323980285
 21
1484.064256099515
 31
0.0
  0
LINE
  5
40B2
  8
1PHANTOM
 10
-1040.353323980285
 20
1463.065162951106
 30
0.0
 11
-1040.353323980285
 21
1463.0681257190749
 31
0.0
  0
LINE
  5
40B3
  8
1PHANTOM
 10
-1040.853323980285
 20
1463.064527631318
 30
0.0
 11
-1040.353323980285
 21
1463.064527631318
 31
0.0
  0
LINE
  5
40B4
  8
1PHANTOM
 10
-1039.853323980285
 20
1463.567954384321
 30
0.0
 11
-1039.853323980285
 21
1463.564606922384
 31
0.0
  0
LINE
  5
40B5
  8
1PHANTOM
 10
-1039.853323980285
 20
1483.5644483429451
 30
0.0
 11
-1039.853323980285
 21
1463.567954384321
 31
0.0
  0
ARC
  5
40B6
  8
1PHANTOM
 10
-1041.353323980285
 20
1462.0645276313189
 30
0.0
 40
0.500000000000199
 50
270.00000000002279
 51
359.99999999997402
  0
LINE
  5
40B7
  8
1PHANTOM
 10
-1045.853323980285
 20
1483.5645235477359
 30
0.0
 11
-1045.853323980285
 21
1463.564535849107
 31
0.0
  0
LINE
  5
40B9
  8
1PHANTOM
 10
-1044.853323980285
 20
1462.0652327372659
 30
0.0
 11
-1044.853323980285
 21
1485.064527631318
 31
0.0
  0
LINE
  5
40BA
  8
1PHANTOM
 10
-1041.353323980285
 20
1485.564527631318
 30
0.0
 11
-1044.353323980285
 21
1485.564527631318
 31
0.0
  0
LINE
  5
40BD
  8
1PHANTOM
 10
-1044.853323980285
 20
1463.064527631318
 30
0.0
 11
-1045.353323980285
 21
1463.064527631318
 31
0.0
  0
LINE
  5
40BE
  8
1PHANTOM
 10
-1045.853323980285
 20
1483.5645235477359
 30
0.0
 11
-1045.353986981049
 21
1484.0638603430641
 31
0.0
  0
LINE
  5
40BF
  8
1PHANTOM
 10
-1045.353323980285
 20
1463.064536259996
 30
0.0
 11
-1045.853323980285
 21
1463.564535849107
 31
0.0
  0
ARC
  5
40C0
  8
1PHANTOM
 10
-1044.353323980285
 20
1485.0645276313189
 30
0.0
 40
0.4999999999998579
 50
89.999999999983714
 51
180.00000000001299
  0
ARC
  5
40C1
  8
1PHANTOM
 10
-1041.353323980285
 20
1485.064527631318
 30
0.0
 40
0.4999999999999432
 50
359.99999999998698
 51
90.000000000006509
  0
LINE
  5
40C2
  8
1PHANTOM
 10
-1040.3531970690469
 20
1484.0643830109659
 30
0.0
 11
-1039.853323980285
 21
1483.5645107652911
 31
0.0
  0
LINE
  5
40C3
  8
1PHANTOM
 10
-1039.853323980285
 20
1463.5645359522141
 30
0.0
 11
-1040.3530106888611
 21
1463.064849659422
 31
0.0
  0
LINE
  5
40C4
  8
1PHANTOM
 10
-1040.853323980285
 20
1484.064527631318
 30
0.0
 11
-1040.353323980285
 21
1484.064527631318
 31
0.0
  0
TEXT
  5
410C
  8
1TEXT
 10
-1297.420496817658
 20
1606.587000511181
 30
0.0
 40
6.0
  1
GP-064-T-150
 72
     1
 11
-1264.420496817658
 21
1606.587000511181
 31
0.0
  0
LINE
  5
414A
  8
1PHANTOM
 10
-1042.3533239802639
 20
1477.814527631318
 30
0.0
 11
-1042.3533239802639
 21
1469.314527631318
 31
0.0
  0
LINE
  5
414B
  8
1PHANTOM
 10
-1042.3533239802639
 20
1475.814527631318
 30
0.0
 11
-1039.353323980263
 21
1475.814527631318
 31
0.0
  0
LINE
  5
414C
  8
1PHANTOM
 10
-1042.3533239802639
 20
1471.314527631318
 30
0.0
 11
-1039.353323980263
 21
1471.314527631318
 31
0.0
  0
LINE
  5
414D
  8
1PHANTOM
 10
-1140.6566211399611
 20
1563.4356871332241
 30
0.0
 11
-1132.1566211399611
 21
1563.4356871332241
 31
0.0
  0
LINE
  5
414E
  8
1PHANTOM
 10
-1138.6566211399611
 20
1563.4356871332241
 30
0.0
 11
-1138.6566211399611
 21
1566.4356871332241
 31
0.0
  0
LINE
  5
414F
  8
1PHANTOM
 10
-1134.1566211399611
 20
1563.4356871332241
 30
0.0
 11
-1134.1566211399611
 21
1566.4356871332241
 31
0.0
  0
LINE
  5
4150
  8
1PHANTOM
 10
-1290.6566211399611
 20
1563.4356871332241
 30
0.0
 11
-1282.1566211399611
 21
1563.4356871332241
 31
0.0
  0
LINE
  5
4151
  8
1PHANTOM
 10
-1288.6566211399611
 20
1563.4356871332241
 30
0.0
 11
-1288.6566211399611
 21
1566.4356871332241
 31
0.0
  0
LINE
  5
4152
  8
1PHANTOM
 10
-1284.1566211399611
 20
1563.4356871332241
 30
0.0
 11
-1284.1566211399611
 21
1566.4356871332241
 31
0.0
  0
LINE
  5
415C
  8
1CENTER
 10
-1136.4066211399611
 20
1595.3966098681519
 30
0.0
 11
-1136.4066211399611
 21
1558.7654188676979
 31
0.0
  0
LINE
  5
415D
  8
1PHANTOM
 10
-1137.5009449539571
 20
1590.3356978231659
 30
0.0
 11
-1135.5386098650811
 21
1591.1356932572171
 31
0.0
  0
LINE
  5
415E
  8
1PHANTOM
 10
-1135.5386098650811
 20
1591.1356932572171
 30
0.0
 11
-1136.1268864401229
 21
1591.447463113469
 31
0.0
  0
LINE
  5
415F
  8
1PHANTOM
 10
-1138.4065746040631
 20
1567.9356999303759
 30
0.0
 11
-1134.4065746040631
 21
1568.7356906231939
 31
0.0
  0
LINE
  5
4160
  8
1PHANTOM
 10
-1138.4065746040631
 20
1579.135699930381
 30
0.0
 11
-1134.4065746040631
 21
1579.9356906232031
 31
0.0
  0
LINE
  5
4161
  8
1PHANTOM
 10
-1138.4065746040631
 20
1582.3356999303801
 30
0.0
 11
-1134.4065746040631
 21
1583.1356906232029
 31
0.0
  0
LINE
  5
4162
  8
1PHANTOM
 10
-1134.4065746040631
 20
1583.1356906232029
 30
0.0
 11
-1134.9065746040631
 21
1583.2356917866
 31
0.0
  0
LINE
  5
4163
  8
1PHANTOM
 10
-1137.9065746040631
 20
1583.8356987669829
 30
0.0
 11
-1138.4065746040631
 21
1583.93569993038
 31
0.0
  0
LINE
  5
4164
  8
1PHANTOM
 10
-1134.4065746040631
 20
1579.9356906232031
 30
0.0
 11
-1134.9065746040631
 21
1580.0356917866
 31
0.0
  0
LINE
  5
4165
  8
1PHANTOM
 10
-1134.4065746040631
 20
1581.535690623203
 30
0.0
 11
-1134.9065746040631
 21
1581.6356917866001
 31
0.0
  0
LINE
  5
4166
  8
1PHANTOM
 10
-1137.9065746040631
 20
1582.235698766983
 30
0.0
 11
-1138.4065746040631
 21
1582.3356999303801
 31
0.0
  0
LINE
  5
4167
  8
1PHANTOM
 10
-1137.9065746040631
 20
1580.635698766984
 30
0.0
 11
-1138.4065746040631
 21
1580.7356999303811
 31
0.0
  0
LINE
  5
4168
  8
1PHANTOM
 10
-1138.4065746040631
 20
1580.7356999303811
 30
0.0
 11
-1134.4065746040631
 21
1581.535690623203
 31
0.0
  0
LINE
  5
4169
  8
1PHANTOM
 10
-1135.085795760674
 20
1589.535692203611
 30
0.0
 11
-1135.6375452244779
 21
1589.7184563462399
 31
0.0
  0
LINE
  5
416A
  8
1PHANTOM
 10
-1134.4065746040631
 20
1586.3356906232029
 30
0.0
 11
-1134.9065746040631
 21
1586.4356917866
 31
0.0
  0
LINE
  5
416B
  8
1PHANTOM
 10
-1134.4065746040631
 20
1584.735690623203
 30
0.0
 11
-1134.9065746040631
 21
1584.8356917865999
 31
0.0
  0
LINE
  5
416C
  8
1PHANTOM
 10
-1134.632981656267
 20
1587.9356911500061
 30
0.0
 11
-1135.169575391539
 21
1588.0649618476359
 31
0.0
  0
LINE
  5
416D
  8
1PHANTOM
 10
-1137.4856600068549
 20
1588.6229293644201
 30
0.0
 11
-1137.9537584620041
 21
1588.7356988767699
 31
0.0
  0
LINE
  5
416E
  8
1PHANTOM
 10
-1137.9065746040631
 20
1585.4356987669839
 30
0.0
 11
-1138.4065746040631
 21
1585.535699930381
 31
0.0
  0
LINE
  5
416F
  8
1PHANTOM
 10
-1137.9065746040631
 20
1587.0356987669841
 30
0.0
 11
-1138.4065746040631
 21
1587.135699930381
 31
0.0
  0
LINE
  5
4170
  8
1PHANTOM
 10
-1137.043773113325
 20
1590.1842620267259
 30
0.0
 11
-1137.5009449539571
 21
1590.3356978231659
 31
0.0
  0
LINE
  5
4171
  8
1PHANTOM
 10
-1137.9537584620041
 20
1588.7356988767699
 30
0.0
 11
-1135.085795760674
 21
1589.535692203611
 31
0.0
  0
LINE
  5
4172
  8
1PHANTOM
 10
-1138.4065746040631
 20
1585.535699930381
 30
0.0
 11
-1134.4065746040631
 21
1586.3356906232029
 31
0.0
  0
LINE
  5
4173
  8
1PHANTOM
 10
-1138.4065746040631
 20
1587.135699930381
 30
0.0
 11
-1134.632981656267
 21
1587.9356911500061
 31
0.0
  0
LINE
  5
4174
  8
1PHANTOM
 10
-1138.4065746040631
 20
1583.93569993038
 30
0.0
 11
-1134.4065746040631
 21
1584.735690623203
 31
0.0
  0
LINE
  5
4175
  8
1PHANTOM
 10
-1138.4065746040631
 20
1571.1356999303759
 30
0.0
 11
-1134.4065746040631
 21
1571.9356906231949
 31
0.0
  0
LINE
  5
4176
  8
1PHANTOM
 10
-1134.4065746040631
 20
1571.9356906231949
 30
0.0
 11
-1134.9065746040631
 21
1572.035691786592
 31
0.0
  0
LINE
  5
4177
  8
1PHANTOM
 10
-1137.9065746040631
 20
1572.6356987669831
 30
0.0
 11
-1138.4065746040631
 21
1572.73569993038
 31
0.0
  0
LINE
  5
4178
  8
1PHANTOM
 10
-1134.4065746040631
 20
1570.3356906231941
 30
0.0
 11
-1134.9065746040631
 21
1570.4356917865921
 31
0.0
  0
LINE
  5
4179
  8
1PHANTOM
 10
-1134.4065746040631
 20
1568.7356906231939
 30
0.0
 11
-1134.9065746040631
 21
1568.835691786592
 31
0.0
  0
LINE
  5
417A
  8
1PHANTOM
 10
-1137.9065746040631
 20
1571.0356987669779
 30
0.0
 11
-1138.4065746040631
 21
1571.1356999303759
 31
0.0
  0
LINE
  5
417B
  8
1PHANTOM
 10
-1137.9065746040631
 20
1569.435698766978
 30
0.0
 11
-1138.4065746040631
 21
1569.535699930376
 31
0.0
  0
LINE
  5
417C
  8
1PHANTOM
 10
-1138.4065746040631
 20
1569.535699930376
 30
0.0
 11
-1134.4065746040631
 21
1570.3356906231941
 31
0.0
  0
LINE
  5
417D
  8
1PHANTOM
 10
-1134.4065746040631
 20
1576.7356906231989
 30
0.0
 11
-1134.9065746040631
 21
1576.835691786597
 31
0.0
  0
LINE
  5
417E
  8
1PHANTOM
 10
-1134.4065746040631
 20
1578.3356906232029
 30
0.0
 11
-1134.9065746040631
 21
1578.4356917866
 31
0.0
  0
LINE
  5
417F
  8
1PHANTOM
 10
-1134.4065746040631
 20
1573.5356906231989
 30
0.0
 11
-1134.9065746040631
 21
1573.6356917865969
 31
0.0
  0
LINE
  5
4180
  8
1PHANTOM
 10
-1134.4065746040631
 20
1575.135690623199
 30
0.0
 11
-1134.9065746040631
 21
1575.235691786597
 31
0.0
  0
LINE
  5
4181
  8
1PHANTOM
 10
-1137.9065746040631
 20
1579.0356987669841
 30
0.0
 11
-1138.4065746040631
 21
1579.135699930381
 31
0.0
  0
LINE
  5
4182
  8
1PHANTOM
 10
-1137.9065746040631
 20
1577.435698766983
 30
0.0
 11
-1138.4065746040631
 21
1577.535699930381
 31
0.0
  0
LINE
  5
4183
  8
1PHANTOM
 10
-1137.9065746040631
 20
1574.235698766983
 30
0.0
 11
-1138.4065746040631
 21
1574.3356999303801
 31
0.0
  0
LINE
  5
4184
  8
1PHANTOM
 10
-1137.9065746040631
 20
1575.8356987669829
 30
0.0
 11
-1138.4065746040631
 21
1575.93569993038
 31
0.0
  0
LINE
  5
4185
  8
1PHANTOM
 10
-1138.4065746040631
 20
1575.93569993038
 30
0.0
 11
-1134.4065746040631
 21
1576.7356906231989
 31
0.0
  0
LINE
  5
4186
  8
1PHANTOM
 10
-1138.4065746040631
 20
1577.535699930381
 30
0.0
 11
-1134.4065746040631
 21
1578.3356906232029
 31
0.0
  0
LINE
  5
4187
  8
1PHANTOM
 10
-1138.4065746040631
 20
1574.3356999303801
 30
0.0
 11
-1134.4065746040631
 21
1575.135690623199
 31
0.0
  0
LINE
  5
4188
  8
1PHANTOM
 10
-1138.4065746040631
 20
1572.73569993038
 30
0.0
 11
-1134.4065746040631
 21
1573.5356906231989
 31
0.0
  0
LINE
  5
4189
  8
1PHANTOM
 10
-1134.9065746040631
 20
1562.435691786706
 30
0.0
 11
-1137.9065746040631
 21
1562.4356987670899
 31
0.0
  0
LINE
  5
418A
  8
1PHANTOM
 10
-1137.9065746040631
 20
1563.0356987669741
 30
0.0
 11
-1138.4065746040631
 21
1563.1356999303721
 31
0.0
  0
LINE
  5
418B
  8
1PHANTOM
 10
-1138.4065746040631
 20
1563.1356999303721
 30
0.0
 11
-1134.4065746040631
 21
1563.9356906231901
 31
0.0
  0
LINE
  5
418C
  8
1PHANTOM
 10
-1134.4065746040631
 20
1563.9356906231901
 30
0.0
 11
-1134.9065746040631
 21
1564.0356917865879
 31
0.0
  0
LINE
  5
418D
  8
1PHANTOM
 10
-1137.9065746040631
 20
1564.635698766974
 30
0.0
 11
-1138.4065746040631
 21
1564.735699930372
 31
0.0
  0
LINE
  5
418E
  8
1PHANTOM
 10
-1137.9065746040631
 20
1566.2356987669741
 30
0.0
 11
-1138.4065746040631
 21
1566.3356999303719
 31
0.0
  0
LINE
  5
418F
  8
1PHANTOM
 10
-1138.4065746040631
 20
1566.3356999303719
 30
0.0
 11
-1134.4065746040631
 21
1567.1356906231899
 31
0.0
  0
LINE
  5
4190
  8
1PHANTOM
 10
-1134.4065746040631
 20
1565.53569062319
 30
0.0
 11
-1134.9065746040631
 21
1565.635691786588
 31
0.0
  0
LINE
  5
4191
  8
1PHANTOM
 10
-1134.4065746040631
 20
1567.1356906231899
 30
0.0
 11
-1134.9065746040631
 21
1567.2356917865879
 31
0.0
  0
LINE
  5
4192
  8
1PHANTOM
 10
-1138.4065746040631
 20
1564.735699930372
 30
0.0
 11
-1134.4065746040631
 21
1565.53569062319
 31
0.0
  0
LINE
  5
4193
  8
1PHANTOM
 10
-1137.9065746040631
 20
1567.835698766979
 30
0.0
 11
-1138.4065746040631
 21
1567.9356999303759
 31
0.0
  0
LINE
  5
4194
  8
1PHANTOM
 10
-1136.4065746040631
 20
1592.4356952768439
 30
0.0
 11
-1137.9065746040631
 21
1587.1356987669819
 31
0.0
  0
LINE
  5
4195
  8
1PHANTOM
 10
-1137.9065746040631
 20
1587.1356987669819
 30
0.0
 11
-1137.9065746040631
 21
1562.4356987670899
 31
0.0
  0
LINE
  5
4196
  8
1PHANTOM
 10
-1136.4065746040631
 20
1592.4356952768439
 30
0.0
 11
-1134.9065746040631
 21
1587.135691786599
 31
0.0
  0
LINE
  5
4197
  8
1PHANTOM
 10
-1139.9066211399611
 20
1562.435703420789
 30
0.0
 11
-1137.9065746040631
 21
1562.4356987670899
 31
0.0
  0
LINE
  5
4198
  8
1PHANTOM
 10
-1134.9065746040631
 20
1587.135691786599
 30
0.0
 11
-1134.9065746040631
 21
1562.435691786706
 31
0.0
  0
LINE
  5
4199
  8
1PHANTOM
 10
-1139.9066211399611
 20
1562.435703420789
 30
0.0
 11
-1139.9066211399611
 21
1561.3356999305929
 31
0.0
  0
LINE
  5
419A
  8
1PHANTOM
 10
-1134.9065746040631
 20
1562.435691786706
 30
0.0
 11
-1132.9066211399611
 21
1562.4356871332241
 31
0.0
  0
ARC
  5
419B
  8
1PHANTOM
 10
-1138.4066211399611
 20
1561.3356999305929
 30
0.0
 40
1.5
 50
180.0
 51
269.99986668446621
  0
LINE
  5
419C
  8
1PHANTOM
 10
-1132.9066211399611
 20
1562.4356871332241
 30
0.0
 11
-1132.9066211399611
 21
1561.3356906234139
 31
0.0
  0
LINE
  5
419D
  8
1PHANTOM
 10
-1138.4066246301541
 20
1559.835699930597
 30
0.0
 11
-1134.4066246301541
 21
1559.835690623418
 31
0.0
  0
ARC
  5
419E
  8
1PHANTOM
 10
-1134.4066211399611
 20
1561.3356906234139
 30
0.0
 40
1.5
 50
269.99986668446633
 51
0.0000000000000799
  0
LINE
  5
41A7
  8
1PHANTOM
 10
-1286.406206722686
 20
1592.4356952768439
 30
0.0
 11
-1287.906206722686
 21
1587.1356987669819
 31
0.0
  0
LINE
  5
41A8
  8
1PHANTOM
 10
-1287.906206722686
 20
1587.1356987669819
 30
0.0
 11
-1287.9062067226851
 21
1562.4356987670899
 31
0.0
  0
LINE
  5
41A9
  8
1PHANTOM
 10
-1286.406206722686
 20
1592.4356952768439
 30
0.0
 11
-1284.9062067226851
 21
1587.135691786599
 31
0.0
  0
LINE
  5
41AA
  8
1PHANTOM
 10
-1289.9062532585831
 20
1562.435703420789
 30
0.0
 11
-1287.9062067226851
 21
1562.4356987670899
 31
0.0
  0
LINE
  5
41AB
  8
1PHANTOM
 10
-1284.9062067226851
 20
1587.135691786599
 30
0.0
 11
-1284.906206722686
 21
1562.435691786706
 31
0.0
  0
LINE
  5
41AC
  8
1PHANTOM
 10
-1289.9062532585831
 20
1562.435703420789
 30
0.0
 11
-1289.906253258584
 21
1561.3356999305929
 31
0.0
  0
LINE
  5
41AD
  8
1PHANTOM
 10
-1284.906206722686
 20
1562.435691786706
 30
0.0
 11
-1282.9062532585831
 21
1562.4356871332241
 31
0.0
  0
ARC
  5
41AE
  8
1PHANTOM
 10
-1288.406253258584
 20
1561.3356999305929
 30
0.0
 40
1.5
 50
180.0
 51
269.99986668446621
  0
LINE
  5
41AF
  8
1PHANTOM
 10
-1282.9062532585831
 20
1562.4356871332241
 30
0.0
 11
-1282.9062532585831
 21
1561.3356906234139
 31
0.0
  0
LINE
  5
41B0
  8
1PHANTOM
 10
-1288.4062567487761
 20
1559.835699930597
 30
0.0
 11
-1284.4062567487761
 21
1559.835690623418
 31
0.0
  0
ARC
  5
41B1
  8
1PHANTOM
 10
-1284.406253258584
 20
1561.3356906234139
 30
0.0
 40
1.5
 50
269.99986668446633
 51
0.0000000000000799
  0
LINE
  5
41B2
  8
1CENTER
 10
-1286.406253258584
 20
1595.3966098681519
 30
0.0
 11
-1286.406253258584
 21
1558.7654188676979
 31
0.0
  0
LINE
  5
41B3
  8
1PHANTOM
 10
-1287.5005770725791
 20
1590.3356978231659
 30
0.0
 11
-1285.5382419837031
 21
1591.1356932572171
 31
0.0
  0
LINE
  5
41B4
  8
1PHANTOM
 10
-1285.5382419837031
 20
1591.1356932572171
 30
0.0
 11
-1286.1265185587461
 21
1591.447463113469
 31
0.0
  0
LINE
  5
41B5
  8
1PHANTOM
 10
-1288.406206722686
 20
1567.9356999303759
 30
0.0
 11
-1284.406206722686
 21
1568.7356906231939
 31
0.0
  0
LINE
  5
41B6
  8
1PHANTOM
 10
-1288.406206722686
 20
1579.135699930381
 30
0.0
 11
-1284.406206722686
 21
1579.9356906232031
 31
0.0
  0
LINE
  5
41B7
  8
1PHANTOM
 10
-1288.406206722686
 20
1582.3356999303801
 30
0.0
 11
-1284.406206722686
 21
1583.1356906232029
 31
0.0
  0
LINE
  5
41B8
  8
1PHANTOM
 10
-1284.406206722686
 20
1583.1356906232029
 30
0.0
 11
-1284.9062067226851
 21
1583.2356917866
 31
0.0
  0
LINE
  5
41B9
  8
1PHANTOM
 10
-1287.906206722686
 20
1583.8356987669829
 30
0.0
 11
-1288.406206722686
 21
1583.93569993038
 31
0.0
  0
LINE
  5
41BA
  8
1PHANTOM
 10
-1284.406206722686
 20
1579.9356906232031
 30
0.0
 11
-1284.9062067226851
 21
1580.0356917866
 31
0.0
  0
LINE
  5
41BB
  8
1PHANTOM
 10
-1284.406206722686
 20
1581.535690623203
 30
0.0
 11
-1284.9062067226851
 21
1581.6356917866001
 31
0.0
  0
LINE
  5
41BC
  8
1PHANTOM
 10
-1287.906206722686
 20
1582.235698766983
 30
0.0
 11
-1288.406206722686
 21
1582.3356999303801
 31
0.0
  0
LINE
  5
41BD
  8
1PHANTOM
 10
-1287.906206722686
 20
1580.635698766984
 30
0.0
 11
-1288.406206722686
 21
1580.7356999303811
 31
0.0
  0
LINE
  5
41BE
  8
1PHANTOM
 10
-1288.406206722686
 20
1580.7356999303811
 30
0.0
 11
-1284.406206722686
 21
1581.535690623203
 31
0.0
  0
LINE
  5
41BF
  8
1PHANTOM
 10
-1285.085427879296
 20
1589.535692203611
 30
0.0
 11
-1285.6371773430999
 21
1589.7184563462399
 31
0.0
  0
LINE
  5
41C0
  8
1PHANTOM
 10
-1284.406206722686
 20
1586.3356906232029
 30
0.0
 11
-1284.9062067226851
 21
1586.4356917866
 31
0.0
  0
LINE
  5
41C1
  8
1PHANTOM
 10
-1284.406206722686
 20
1584.735690623203
 30
0.0
 11
-1284.9062067226851
 21
1584.8356917865999
 31
0.0
  0
LINE
  5
41C2
  8
1PHANTOM
 10
-1284.6326137748899
 20
1587.9356911500061
 30
0.0
 11
-1285.169207510161
 21
1588.0649618476359
 31
0.0
  0
LINE
  5
41C3
  8
1PHANTOM
 10
-1287.4852921254769
 20
1588.6229293644201
 30
0.0
 11
-1287.953390580627
 21
1588.7356988767699
 31
0.0
  0
LINE
  5
41C4
  8
1PHANTOM
 10
-1287.906206722686
 20
1585.4356987669839
 30
0.0
 11
-1288.406206722686
 21
1585.535699930381
 31
0.0
  0
LINE
  5
41C5
  8
1PHANTOM
 10
-1287.906206722686
 20
1587.0356987669841
 30
0.0
 11
-1288.406206722686
 21
1587.135699930381
 31
0.0
  0
LINE
  5
41C6
  8
1PHANTOM
 10
-1287.043405231947
 20
1590.1842620267259
 30
0.0
 11
-1287.5005770725791
 21
1590.3356978231659
 31
0.0
  0
LINE
  5
41C7
  8
1PHANTOM
 10
-1287.953390580627
 20
1588.7356988767699
 30
0.0
 11
-1285.085427879296
 21
1589.535692203611
 31
0.0
  0
LINE
  5
41C8
  8
1PHANTOM
 10
-1288.406206722686
 20
1585.535699930381
 30
0.0
 11
-1284.406206722686
 21
1586.3356906232029
 31
0.0
  0
LINE
  5
41C9
  8
1PHANTOM
 10
-1288.406206722686
 20
1587.135699930381
 30
0.0
 11
-1284.6326137748899
 21
1587.9356911500061
 31
0.0
  0
LINE
  5
41CA
  8
1PHANTOM
 10
-1288.406206722686
 20
1583.93569993038
 30
0.0
 11
-1284.406206722686
 21
1584.735690623203
 31
0.0
  0
LINE
  5
41CB
  8
1PHANTOM
 10
-1288.406206722686
 20
1571.1356999303759
 30
0.0
 11
-1284.406206722686
 21
1571.9356906231949
 31
0.0
  0
LINE
  5
41CC
  8
1PHANTOM
 10
-1284.406206722686
 20
1571.9356906231949
 30
0.0
 11
-1284.9062067226851
 21
1572.035691786592
 31
0.0
  0
LINE
  5
41CD
  8
1PHANTOM
 10
-1287.906206722686
 20
1572.6356987669831
 30
0.0
 11
-1288.406206722686
 21
1572.73569993038
 31
0.0
  0
LINE
  5
41CE
  8
1PHANTOM
 10
-1284.406206722686
 20
1570.3356906231941
 30
0.0
 11
-1284.9062067226851
 21
1570.4356917865921
 31
0.0
  0
LINE
  5
41CF
  8
1PHANTOM
 10
-1284.406206722686
 20
1568.7356906231939
 30
0.0
 11
-1284.9062067226851
 21
1568.835691786592
 31
0.0
  0
LINE
  5
41D0
  8
1PHANTOM
 10
-1287.906206722686
 20
1571.0356987669779
 30
0.0
 11
-1288.406206722686
 21
1571.1356999303759
 31
0.0
  0
LINE
  5
41D1
  8
1PHANTOM
 10
-1287.906206722686
 20
1569.435698766978
 30
0.0
 11
-1288.406206722686
 21
1569.535699930376
 31
0.0
  0
LINE
  5
41D2
  8
1PHANTOM
 10
-1288.406206722686
 20
1569.535699930376
 30
0.0
 11
-1284.406206722686
 21
1570.3356906231941
 31
0.0
  0
LINE
  5
41D3
  8
1PHANTOM
 10
-1284.406206722686
 20
1576.7356906231989
 30
0.0
 11
-1284.9062067226851
 21
1576.835691786597
 31
0.0
  0
LINE
  5
41D4
  8
1PHANTOM
 10
-1284.406206722686
 20
1578.3356906232029
 30
0.0
 11
-1284.9062067226851
 21
1578.4356917866
 31
0.0
  0
LINE
  5
41D5
  8
1PHANTOM
 10
-1284.406206722686
 20
1573.5356906231989
 30
0.0
 11
-1284.9062067226851
 21
1573.6356917865969
 31
0.0
  0
LINE
  5
41D6
  8
1PHANTOM
 10
-1284.406206722686
 20
1575.135690623199
 30
0.0
 11
-1284.9062067226851
 21
1575.235691786597
 31
0.0
  0
LINE
  5
41D7
  8
1PHANTOM
 10
-1287.906206722686
 20
1579.0356987669841
 30
0.0
 11
-1288.406206722686
 21
1579.135699930381
 31
0.0
  0
LINE
  5
41D8
  8
1PHANTOM
 10
-1287.906206722686
 20
1577.435698766983
 30
0.0
 11
-1288.406206722686
 21
1577.535699930381
 31
0.0
  0
LINE
  5
41D9
  8
1PHANTOM
 10
-1287.906206722686
 20
1574.235698766983
 30
0.0
 11
-1288.406206722686
 21
1574.3356999303801
 31
0.0
  0
LINE
  5
41DA
  8
1PHANTOM
 10
-1287.906206722686
 20
1575.8356987669829
 30
0.0
 11
-1288.406206722686
 21
1575.93569993038
 31
0.0
  0
LINE
  5
41DB
  8
1PHANTOM
 10
-1288.406206722686
 20
1575.93569993038
 30
0.0
 11
-1284.406206722686
 21
1576.7356906231989
 31
0.0
  0
LINE
  5
41DC
  8
1PHANTOM
 10
-1288.406206722686
 20
1577.535699930381
 30
0.0
 11
-1284.406206722686
 21
1578.3356906232029
 31
0.0
  0
LINE
  5
41DD
  8
1PHANTOM
 10
-1288.406206722686
 20
1574.3356999303801
 30
0.0
 11
-1284.406206722686
 21
1575.135690623199
 31
0.0
  0
LINE
  5
41DE
  8
1PHANTOM
 10
-1288.406206722686
 20
1572.73569993038
 30
0.0
 11
-1284.406206722686
 21
1573.5356906231989
 31
0.0
  0
LINE
  5
41DF
  8
1PHANTOM
 10
-1284.906206722686
 20
1562.435691786706
 30
0.0
 11
-1287.9062067226851
 21
1562.4356987670899
 31
0.0
  0
LINE
  5
41E0
  8
1PHANTOM
 10
-1287.906206722686
 20
1563.0356987669741
 30
0.0
 11
-1288.406206722686
 21
1563.1356999303721
 31
0.0
  0
LINE
  5
41E1
  8
1PHANTOM
 10
-1288.406206722686
 20
1563.1356999303721
 30
0.0
 11
-1284.406206722686
 21
1563.9356906231901
 31
0.0
  0
LINE
  5
41E2
  8
1PHANTOM
 10
-1284.406206722686
 20
1563.9356906231901
 30
0.0
 11
-1284.9062067226851
 21
1564.0356917865879
 31
0.0
  0
LINE
  5
41E3
  8
1PHANTOM
 10
-1287.906206722686
 20
1564.635698766974
 30
0.0
 11
-1288.406206722686
 21
1564.735699930372
 31
0.0
  0
LINE
  5
41E4
  8
1PHANTOM
 10
-1287.906206722686
 20
1566.2356987669741
 30
0.0
 11
-1288.406206722686
 21
1566.3356999303719
 31
0.0
  0
LINE
  5
41E5
  8
1PHANTOM
 10
-1288.406206722686
 20
1566.3356999303719
 30
0.0
 11
-1284.406206722686
 21
1567.1356906231899
 31
0.0
  0
LINE
  5
41E6
  8
1PHANTOM
 10
-1284.406206722686
 20
1565.53569062319
 30
0.0
 11
-1284.9062067226851
 21
1565.635691786588
 31
0.0
  0
LINE
  5
41E7
  8
1PHANTOM
 10
-1284.406206722686
 20
1567.1356906231899
 30
0.0
 11
-1284.9062067226851
 21
1567.2356917865879
 31
0.0
  0
LINE
  5
41E8
  8
1PHANTOM
 10
-1288.406206722686
 20
1564.735699930372
 30
0.0
 11
-1284.406206722686
 21
1565.53569062319
 31
0.0
  0
LINE
  5
41E9
  8
1PHANTOM
 10
-1287.906206722686
 20
1567.835698766979
 30
0.0
 11
-1288.406206722686
 21
1567.9356999303759
 31
0.0
  0
LINE
  5
41EC
  8
1PHANTOM
 10
-1013.353315836644
 20
1473.5644810954209
 30
0.0
 11
-1018.653312346505
 21
1475.06448109542
 31
0.0
  0
LINE
  5
41ED
  8
1PHANTOM
 10
-1018.653312346505
 20
1475.06448109542
 30
0.0
 11
-1043.3533123463969
 21
1475.06448109542
 31
0.0
  0
LINE
  5
41EE
  8
1PHANTOM
 10
-1013.353315836644
 20
1473.5644810954209
 30
0.0
 11
-1018.653319326889
 21
1472.0644810954209
 31
0.0
  0
LINE
  5
41EF
  8
1PHANTOM
 10
-1043.353307692699
 20
1477.064527631318
 30
0.0
 11
-1043.3533123463969
 21
1475.06448109542
 31
0.0
  0
LINE
  5
41F0
  8
1PHANTOM
 10
-1018.653319326889
 20
1472.0644810954209
 30
0.0
 11
-1043.353319326782
 21
1472.0644810954209
 31
0.0
  0
LINE
  5
41F1
  8
1PHANTOM
 10
-1043.353307692699
 20
1477.064527631318
 30
0.0
 11
-1044.4533111828939
 21
1477.0645276313189
 31
0.0
  0
LINE
  5
41F2
  8
1PHANTOM
 10
-1043.353319326782
 20
1472.0644810954209
 30
0.0
 11
-1043.353323980263
 21
1470.0645276313189
 31
0.0
  0
ARC
  5
41F3
  8
1PHANTOM
 10
-1044.4533111828939
 20
1475.564527631318
 30
0.0
 40
1.5
 50
89.999999999999986
 51
179.99986668446621
  0
LINE
  5
41F4
  8
1PHANTOM
 10
-1043.353323980263
 20
1470.0645276313189
 30
0.0
 11
-1044.453320490074
 21
1470.0645276313189
 31
0.0
  0
LINE
  5
41F5
  8
1PHANTOM
 10
-1045.95331118289
 20
1475.564531121511
 30
0.0
 11
-1045.9533204900699
 21
1471.564531121511
 31
0.0
  0
ARC
  5
41F6
  8
1PHANTOM
 10
-1044.453320490074
 20
1471.5645276313189
 30
0.0
 40
1.5
 50
179.9998666844663
 51
270.00000000000011
  0
LINE
  5
41F7
  8
1CENTER
 10
-1010.392401245335
 20
1473.564527631318
 30
0.0
 11
-1047.02359224579
 21
1473.564527631318
 31
0.0
  0
LINE
  5
41F8
  8
1PHANTOM
 10
-1015.453313290321
 20
1474.658851445314
 30
0.0
 11
-1014.65331785627
 21
1472.696516356438
 31
0.0
  0
LINE
  5
41F9
  8
1PHANTOM
 10
-1014.65331785627
 20
1472.696516356438
 30
0.0
 11
-1014.341548000018
 21
1473.284792931481
 31
0.0
  0
LINE
  5
41FA
  8
1PHANTOM
 10
-1037.8533111831109
 20
1475.56448109542
 30
0.0
 11
-1037.0533204902929
 21
1471.56448109542
 31
0.0
  0
LINE
  5
41FB
  8
1PHANTOM
 10
-1026.653311183107
 20
1475.56448109542
 30
0.0
 11
-1025.853320490284
 21
1471.56448109542
 31
0.0
  0
LINE
  5
41FC
  8
1PHANTOM
 10
-1023.453311183107
 20
1475.56448109542
 30
0.0
 11
-1022.653320490285
 21
1471.56448109542
 31
0.0
  0
LINE
  5
41FD
  8
1PHANTOM
 10
-1022.653320490285
 20
1471.56448109542
 30
0.0
 11
-1022.553319326887
 21
1472.0644810954209
 31
0.0
  0
LINE
  5
41FE
  8
1PHANTOM
 10
-1021.953312346504
 20
1475.06448109542
 30
0.0
 11
-1021.8533111831071
 21
1475.56448109542
 31
0.0
  0
LINE
  5
41FF
  8
1PHANTOM
 10
-1025.853320490284
 20
1471.56448109542
 30
0.0
 11
-1025.7533193268871
 21
1472.0644810954209
 31
0.0
  0
LINE
  5
4200
  8
1PHANTOM
 10
-1024.2533204902841
 20
1471.56448109542
 30
0.0
 11
-1024.153319326887
 21
1472.0644810954209
 31
0.0
  0
LINE
  5
4201
  8
1PHANTOM
 10
-1023.553312346504
 20
1475.06448109542
 30
0.0
 11
-1023.453311183107
 21
1475.56448109542
 31
0.0
  0
LINE
  5
4202
  8
1PHANTOM
 10
-1025.153312346504
 20
1475.06448109542
 30
0.0
 11
-1025.0533111831071
 21
1475.56448109542
 31
0.0
  0
LINE
  5
4203
  8
1PHANTOM
 10
-1025.0533111831071
 20
1475.56448109542
 30
0.0
 11
-1024.2533204902841
 21
1471.56448109542
 31
0.0
  0
LINE
  5
4204
  8
1PHANTOM
 10
-1016.253318909876
 20
1472.243702252031
 30
0.0
 11
-1016.070554767248
 21
1472.795451715835
 31
0.0
  0
LINE
  5
4205
  8
1PHANTOM
 10
-1019.453320490284
 20
1471.56448109542
 30
0.0
 11
-1019.353319326887
 21
1472.0644810954209
 31
0.0
  0
LINE
  5
4206
  8
1PHANTOM
 10
-1021.053320490284
 20
1471.56448109542
 30
0.0
 11
-1020.953319326888
 21
1472.0644810954209
 31
0.0
  0
LINE
  5
4207
  8
1PHANTOM
 10
-1017.853319963482
 20
1471.7908881476239
 30
0.0
 11
-1017.724049265852
 21
1472.3274818828961
 31
0.0
  0
LINE
  5
4208
  8
1PHANTOM
 10
-1017.166081749067
 20
1474.6435664982121
 30
0.0
 11
-1017.053312236717
 21
1475.1116649533619
 31
0.0
  0
LINE
  5
4209
  8
1PHANTOM
 10
-1020.353312346504
 20
1475.06448109542
 30
0.0
 11
-1020.253311183107
 21
1475.56448109542
 31
0.0
  0
LINE
  5
420A
  8
1PHANTOM
 10
-1018.753312346504
 20
1475.06448109542
 30
0.0
 11
-1018.653311183107
 21
1475.56448109542
 31
0.0
  0
LINE
  5
420B
  8
1PHANTOM
 10
-1015.604749086762
 20
1474.2016796046821
 30
0.0
 11
-1015.453313290321
 21
1474.658851445314
 31
0.0
  0
LINE
  5
420C
  8
1PHANTOM
 10
-1017.053312236717
 20
1475.1116649533619
 30
0.0
 11
-1016.253318909876
 21
1472.243702252031
 31
0.0
  0
LINE
  5
420D
  8
1PHANTOM
 10
-1020.253311183107
 20
1475.56448109542
 30
0.0
 11
-1019.453320490284
 21
1471.56448109542
 31
0.0
  0
LINE
  5
420E
  8
1PHANTOM
 10
-1018.653311183107
 20
1475.56448109542
 30
0.0
 11
-1017.853319963482
 21
1471.7908881476239
 31
0.0
  0
LINE
  5
420F
  8
1PHANTOM
 10
-1021.8533111831071
 20
1475.56448109542
 30
0.0
 11
-1021.053320490284
 21
1471.56448109542
 31
0.0
  0
LINE
  5
4210
  8
1PHANTOM
 10
-1034.6533111831111
 20
1475.56448109542
 30
0.0
 11
-1033.8533204902931
 21
1471.56448109542
 31
0.0
  0
LINE
  5
4211
  8
1PHANTOM
 10
-1033.8533204902931
 20
1471.56448109542
 30
0.0
 11
-1033.7533193268951
 21
1472.0644810954209
 31
0.0
  0
LINE
  5
4212
  8
1PHANTOM
 10
-1033.1533123465049
 20
1475.06448109542
 30
0.0
 11
-1033.0533111831071
 21
1475.56448109542
 31
0.0
  0
LINE
  5
4213
  8
1PHANTOM
 10
-1035.453320490293
 20
1471.56448109542
 30
0.0
 11
-1035.3533193268961
 21
1472.0644810954209
 31
0.0
  0
LINE
  5
4214
  8
1PHANTOM
 10
-1037.0533204902929
 20
1471.56448109542
 30
0.0
 11
-1036.953319326896
 21
1472.0644810954209
 31
0.0
  0
LINE
  5
4215
  8
1PHANTOM
 10
-1034.7533123465089
 20
1475.06448109542
 30
0.0
 11
-1034.6533111831111
 21
1475.56448109542
 31
0.0
  0
LINE
  5
4216
  8
1PHANTOM
 10
-1036.353312346509
 20
1475.06448109542
 30
0.0
 11
-1036.2533111831119
 21
1475.56448109542
 31
0.0
  0
LINE
  5
4217
  8
1PHANTOM
 10
-1036.2533111831119
 20
1475.56448109542
 30
0.0
 11
-1035.453320490293
 21
1471.56448109542
 31
0.0
  0
LINE
  5
4218
  8
1PHANTOM
 10
-1029.053320490289
 20
1471.56448109542
 30
0.0
 11
-1028.953319326891
 21
1472.0644810954209
 31
0.0
  0
LINE
  5
4219
  8
1PHANTOM
 10
-1027.4533204902841
 20
1471.56448109542
 30
0.0
 11
-1027.353319326887
 21
1472.0644810954209
 31
0.0
  0
LINE
  5
421A
  8
1PHANTOM
 10
-1032.2533204902891
 20
1471.56448109542
 30
0.0
 11
-1032.1533193268911
 21
1472.0644810954209
 31
0.0
  0
LINE
  5
421B
  8
1PHANTOM
 10
-1030.6533204902889
 20
1471.56448109542
 30
0.0
 11
-1030.5533193268909
 21
1472.0644810954209
 31
0.0
  0
LINE
  5
421C
  8
1PHANTOM
 10
-1026.7533123465039
 20
1475.06448109542
 30
0.0
 11
-1026.653311183107
 21
1475.56448109542
 31
0.0
  0
LINE
  5
421D
  8
1PHANTOM
 10
-1028.3533123465049
 20
1475.06448109542
 30
0.0
 11
-1028.2533111831069
 21
1475.56448109542
 31
0.0
  0
LINE
  5
421E
  8
1PHANTOM
 10
-1031.553312346505
 20
1475.06448109542
 30
0.0
 11
-1031.453311183107
 21
1475.56448109542
 31
0.0
  0
LINE
  5
421F
  8
1PHANTOM
 10
-1029.9533123465051
 20
1475.06448109542
 30
0.0
 11
-1029.8533111831071
 21
1475.56448109542
 31
0.0
  0
LINE
  5
4220
  8
1PHANTOM
 10
-1029.8533111831071
 20
1475.56448109542
 30
0.0
 11
-1029.053320490289
 21
1471.56448109542
 31
0.0
  0
LINE
  5
4221
  8
1PHANTOM
 10
-1028.2533111831069
 20
1475.56448109542
 30
0.0
 11
-1027.4533204902841
 21
1471.56448109542
 31
0.0
  0
LINE
  5
4222
  8
1PHANTOM
 10
-1031.453311183107
 20
1475.56448109542
 30
0.0
 11
-1030.6533204902889
 21
1471.56448109542
 31
0.0
  0
LINE
  5
4223
  8
1PHANTOM
 10
-1033.0533111831071
 20
1475.56448109542
 30
0.0
 11
-1032.2533204902891
 21
1471.56448109542
 31
0.0
  0
LINE
  5
4224
  8
1PHANTOM
 10
-1043.353319326782
 20
1472.0644810954209
 30
0.0
 11
-1043.3533123463969
 21
1475.06448109542
 31
0.0
  0
LINE
  5
4225
  8
1PHANTOM
 10
-1042.753312346513
 20
1475.0644810954209
 30
0.0
 11
-1042.6533111831161
 21
1475.56448109542
 31
0.0
  0
LINE
  5
4226
  8
1PHANTOM
 10
-1042.6533111831161
 20
1475.56448109542
 30
0.0
 11
-1041.8533204902969
 21
1471.56448109542
 31
0.0
  0
LINE
  5
4227
  8
1PHANTOM
 10
-1041.8533204902969
 20
1471.56448109542
 30
0.0
 11
-1041.7533193268989
 21
1472.0644810954209
 31
0.0
  0
LINE
  5
4228
  8
1PHANTOM
 10
-1041.1533123465131
 20
1475.06448109542
 30
0.0
 11
-1041.053311183116
 21
1475.56448109542
 31
0.0
  0
LINE
  5
4229
  8
1PHANTOM
 10
-1039.5533123465129
 20
1475.06448109542
 30
0.0
 11
-1039.4533111831161
 21
1475.56448109542
 31
0.0
  0
LINE
  5
422A
  8
1PHANTOM
 10
-1039.4533111831161
 20
1475.56448109542
 30
0.0
 11
-1038.653320490298
 21
1471.56448109542
 31
0.0
  0
LINE
  5
422B
  8
1PHANTOM
 10
-1040.2533204902979
 20
1471.56448109542
 30
0.0
 11
-1040.1533193268999
 21
1472.0644810954209
 31
0.0
  0
LINE
  5
422C
  8
1PHANTOM
 10
-1038.653320490298
 20
1471.56448109542
 30
0.0
 11
-1038.5533193269
 21
1472.0644810954209
 31
0.0
  0
LINE
  5
422D
  8
1PHANTOM
 10
-1041.053311183116
 20
1475.56448109542
 30
0.0
 11
-1040.2533204902979
 21
1471.56448109542
 31
0.0
  0
LINE
  5
422E
  8
1PHANTOM
 10
-1037.9533123465089
 20
1475.06448109542
 30
0.0
 11
-1037.8533111831109
 21
1475.56448109542
 31
0.0
  0
LINE
  5
423C
  8
1PHANTOM
 10
-1043.353307692699
 20
1477.064527631318
 30
0.0
 11
-1043.353307692699
 21
1470.0645276313189
 31
0.0
  0
LINE
  5
423D
  8
1PHANTOM
 10
-1043.353307692699
 20
1470.0645276313189
 30
0.0
 11
-1042.3533239802639
 21
1470.0645276313189
 31
0.0
  0
LINE
  5
423E
  8
1PHANTOM
 10
-1042.3533239802639
 20
1470.0645276313189
 30
0.0
 11
-1042.3533239802639
 21
1477.064527631318
 31
0.0
  0
LINE
  5
423F
  8
1PHANTOM
 10
-1042.3533239802639
 20
1477.064527631318
 30
0.0
 11
-1043.353307692699
 21
1477.064527631318
 31
0.0
  0
LINE
  5
4240
  8
1PHANTOM
 10
-1289.9062532585831
 20
1562.435703420789
 30
0.0
 11
-1282.9062532585831
 21
1562.435703420789
 31
0.0
  0
LINE
  5
4241
  8
1PHANTOM
 10
-1282.9062532585831
 20
1562.435703420789
 30
0.0
 11
-1282.9062532585831
 21
1563.4356871332241
 31
0.0
  0
LINE
  5
4242
  8
1PHANTOM
 10
-1282.9062532585831
 20
1563.4356871332241
 30
0.0
 11
-1289.9062532585831
 21
1563.4356871332241
 31
0.0
  0
LINE
  5
4243
  8
1PHANTOM
 10
-1289.9062532585831
 20
1563.4356871332241
 30
0.0
 11
-1289.9062532585831
 21
1562.435703420789
 31
0.0
  0
LINE
  5
4244
  8
1PHANTOM
 10
-1139.9066211399611
 20
1562.435703420789
 30
0.0
 11
-1132.9066211399611
 21
1562.435703420789
 31
0.0
  0
LINE
  5
4245
  8
1PHANTOM
 10
-1132.9066211399611
 20
1562.435703420789
 30
0.0
 11
-1132.9066211399611
 21
1563.4356871332241
 31
0.0
  0
LINE
  5
4246
  8
1PHANTOM
 10
-1132.9066211399611
 20
1563.4356871332241
 30
0.0
 11
-1139.9066211399611
 21
1563.4356871332241
 31
0.0
  0
LINE
  5
4247
  8
1PHANTOM
 10
-1139.9066211399611
 20
1563.4356871332241
 30
0.0
 11
-1139.9066211399611
 21
1562.435703420789
 31
0.0
  0
TEXT
  5
4248
  8
1DIM
 10
-1118.6101915826951
 20
1586.718217435716
 30
0.0
 40
3.5
  1
材質：ステンレス
  0
TEXT
  5
4249
  8
1DIM
 10
-1118.6101915826951
 20
1580.8848841023821
 30
0.0
 40
3.5
  1
仕上：ヘアライン
  0
TEXT
  5
424C
  8
1DIM
 10
-1116.365358535556
 20
1543.4861945645339
 30
0.0
 40
3.5
  1
材質：ポリアセタール樹脂
  0
TEXT
  5
424F
  8
1DIM
 10
-1121.867716149837
 20
1513.9433626875521
 30
0.0
 40
3.5
  1
材質：ステンレス
  0
TEXT
  5
4250
  8
1DIM
 10
-1121.867716149837
 20
1508.110029354219
 30
0.0
 40
3.5
  1
仕上：ヘアライン
  0
TEXT
  5
4253
  8
1DIM
 10
-1116.07875985192
 20
1558.611362640527
 30
0.0
 40
3.5
  1
材質：ステンレス
  0
TEXT
  5
4254
  8
1DIM
 10
-1116.07875985192
 20
1552.778029307193
 30
0.0
 40
3.5
  1
仕上：ヘアライン
  0
TEXT
  5
4257
  8
1DIM
 10
-1231.3310015447139
 20
1513.5290294659819
 30
0.0
 40
3.5
  1
材質：ステンレス
  0
TEXT
  5
4258
  8
1DIM
 10
-1231.3310015447139
 20
1507.6956961326489
 30
0.0
 40
3.5
  1
仕上：ヘアライン
  0
LINE
  5
425B
  8
1DIM
 10
-1081.853323980263
 20
1463.065171423729
 30
0.0
 11
-1081.853323980263
 21
1443.145153683271
 31
0.0
  0
LINE
  5
425C
  8
1DIM
 10
-1075.853323980263
 20
1463.5645359522141
 30
0.0
 11
-1075.853323980263
 21
1443.145153683271
 31
0.0
  0
LINE
  5
425D
  8
1DIM
 10
-1079.853323980263
 20
1444.145153683271
 30
0.0
 11
-1077.8533239802639
 21
1444.145153683271
 31
0.0
  0
LINE
  5
4261
  8
1DIM
 10
-1081.853323980263
 20
1463.064527631318
 30
0.0
 11
-1081.853323980263
 21
1443.145153683271
 31
0.0
  0
LINE
  5
4262
  8
1DIM
 10
-1086.8533239802639
 20
1463.064527631318
 30
0.0
 11
-1086.8533239802639
 21
1443.145153683271
 31
0.0
  0
LINE
  5
4263
  8
1DIM
 10
-1079.853323980263
 20
1444.145153683271
 30
0.0
 11
-1077.8533239802639
 21
1444.145153683271
 31
0.0
  0
LINE
  5
4264
  8
1DIM
 10
-1088.8533239802639
 20
1444.145153683271
 30
0.0
 11
-1094.586657313597
 21
1444.145153683271
 31
0.0
  0
LINE
  5
4265
  8
1DIM
 10
-1081.853323980263
 20
1444.145153683271
 30
0.0
 11
-1086.8533239802639
 21
1444.145153683271
 31
0.0
  0
LINE
  5
4269
  8
1DIM
 10
-1081.853323980263
 20
1484.064527631318
 30
0.0
 11
-1081.853323980263
 21
1496.9301627244099
 31
0.0
  0
LINE
  5
426A
  8
1DIM
 10
-1086.8533239802639
 20
1484.063883838907
 30
0.0
 11
-1086.8533239802639
 21
1496.9301627244099
 31
0.0
  0
LINE
  5
426B
  8
1DIM
 10
-1079.853323980263
 20
1495.9301627244099
 30
0.0
 11
-1077.8533239802639
 21
1495.9301627244099
 31
0.0
  0
LINE
  5
426C
  8
1DIM
 10
-1088.8533239802639
 20
1495.9301627244099
 30
0.0
 11
-1094.586657313597
 21
1495.9301627244099
 31
0.0
  0
LINE
  5
426D
  8
1DIM
 10
-1081.853323980263
 20
1495.9301627244099
 30
0.0
 11
-1086.8533239802639
 21
1495.9301627244099
 31
0.0
  0
LINE
  5
4271
  8
1DIM
 10
-1039.8533239802621
 20
1485.064528677236
 30
0.0
 11
-1039.8533239802621
 21
1496.9301627244099
 31
0.0
  0
LINE
  5
4272
  8
1DIM
 10
-1081.853323980263
 20
1484.064527631318
 30
0.0
 11
-1081.853323980263
 21
1496.9301627244099
 31
0.0
  0
LINE
  5
4273
  8
1DIM
 10
-1041.8533239802621
 20
1495.9301627244099
 30
0.0
 11
-1079.853323980263
 21
1495.9301627244099
 31
0.0
  0
LINE
  5
4277
  8
1DIM
 10
-1039.8533239802621
 20
1485.064528677236
 30
0.0
 11
-1039.8533239802621
 21
1496.9301627244099
 31
0.0
  0
LINE
  5
4278
  8
1DIM
 10
-1037.8533239802639
 20
1485.5637918685629
 30
0.0
 11
-1037.8533239802639
 21
1496.9301627244099
 31
0.0
  0
LINE
  5
4279
  8
1DIM
 10
-1041.8533239802621
 20
1495.9301627244099
 30
0.0
 11
-1043.8533239802621
 21
1495.9301627244099
 31
0.0
  0
LINE
  5
427A
  8
1DIM
 10
-1035.8533239802639
 20
1495.9301627244099
 30
0.0
 11
-1030.1199906469301
 21
1495.9301627244099
 31
0.0
  0
LINE
  5
427B
  8
1DIM
 10
-1039.8533239802621
 20
1495.9301627244099
 30
0.0
 11
-1037.8533239802639
 21
1495.9301627244099
 31
0.0
  0
LINE
  5
427F
  8
1DIM
 10
-1037.8533239802639
 20
1461.564527631318
 30
0.0
 11
-1037.8533239802639
 21
1433.0014535903961
 31
0.0
  0
LINE
  5
4280
  8
1DIM
 10
-1086.8533239802639
 20
1463.064527631318
 30
0.0
 11
-1086.8533239802639
 21
1433.0014535903961
 31
0.0
  0
LINE
  5
4281
  8
1DIM
 10
-1039.853323980263
 20
1434.0014535903961
 30
0.0
 11
-1084.853323980263
 21
1434.0014535903961
 31
0.0
  0
LINE
  5
4285
  8
1DIM
 10
-1136.406268586974
 20
1461.564527631318
 30
0.0
 11
-1098.700622419721
 21
1461.564527631318
 31
0.0
  0
LINE
  5
4286
  8
1DIM
 10
-1136.406268484546
 20
1485.564527631318
 30
0.0
 11
-1098.700622419721
 21
1485.564527631318
 31
0.0
  0
LINE
  5
4287
  8
1DIM
 10
-1099.700622419721
 20
1463.564527631318
 30
0.0
 11
-1099.700622419721
 21
1483.564527631318
 31
0.0
  0
LINE
  5
428B
  8
1DIM
 10
-1286.406268586974
 20
1473.564527631318
 30
0.0
 11
-1286.406268586974
 21
1443.145153683271
 31
0.0
  0
LINE
  5
428C
  8
1DIM
 10
-1136.406268586974
 20
1473.564527631318
 30
0.0
 11
-1136.406268586974
 21
1443.145153683271
 31
0.0
  0
LINE
  5
428D
  8
1DIM
 10
-1284.406268586974
 20
1444.145153683271
 30
0.0
 11
-1138.406268586974
 21
1444.145153683271
 31
0.0
  0
LINE
  5
4291
  8
1DIM
 10
-1298.406268586974
 20
1473.564527631318
 30
0.0
 11
-1298.406268586974
 21
1433.0014535903961
 31
0.0
  0
LINE
  5
4292
  8
1DIM
 10
-1124.406268586974
 20
1473.5645275801039
 30
0.0
 11
-1124.406268586974
 21
1433.0014535903961
 31
0.0
  0
LINE
  5
4293
  8
1DIM
 10
-1296.406268586974
 20
1434.0014535903961
 30
0.0
 11
-1126.406268586974
 21
1434.0014535903961
 31
0.0
  0
TEXT
  5
4297
  8
1DIM
 10
-1215.4896019203079
 20
1434.7014535903961
 30
0.0
 40
3.5
  1
174 
  0
LINE
  5
4298
  8
0
  6
BYBLOCK
 10
-1126.406268586974
 20
1434.537351970396
 30
0.0
 11
-1124.406268586974
 21
1434.0014535903961
 31
0.0
  0
LINE
  5
4299
  8
0
  6
BYBLOCK
 10
-1124.406268586974
 20
1434.0014535903961
 30
0.0
 11
-1126.406268586974
 21
1433.4655552103959
 31
0.0
  0
LINE
  5
429A
  8
0
  6
BYBLOCK
 10
-1124.406268586974
 20
1434.0014535903961
 30
0.0
 11
-1126.406268586974
 21
1434.0014535903961
 31
0.0
  0
LINE
  5
429B
  8
0
  6
BYBLOCK
 10
-1296.406268586974
 20
1433.4655552103959
 30
0.0
 11
-1298.406268586974
 21
1434.0014535903961
 31
0.0
  0
LINE
  5
429C
  8
0
  6
BYBLOCK
 10
-1298.406268586974
 20
1434.0014535903961
 30
0.0
 11
-1296.406268586974
 21
1434.537351970396
 31
0.0
  0
LINE
  5
429D
  8
0
  6
BYBLOCK
 10
-1298.406268586974
 20
1434.0014535903961
 30
0.0
 11
-1296.406268586974
 21
1434.0014535903961
 31
0.0
  0
TEXT
  5
429E
  8
1DIM
 10
-1218.6979352536409
 20
1444.8451536832711
 30
0.0
 40
3.5
  1
P=150 
  0
LINE
  5
429F
  8
0
  6
BYBLOCK
 10
-1138.406268586974
 20
1444.681052063271
 30
0.0
 11
-1136.406268586974
 21
1444.145153683271
 31
0.0
  0
LINE
  5
42A0
  8
0
  6
BYBLOCK
 10
-1136.406268586974
 20
1444.145153683271
 30
0.0
 11
-1138.406268586974
 21
1443.6092553032711
 31
0.0
  0
LINE
  5
42A1
  8
0
  6
BYBLOCK
 10
-1136.406268586974
 20
1444.145153683271
 30
0.0
 11
-1138.406268586974
 21
1444.145153683271
 31
0.0
  0
LINE
  5
42A2
  8
0
  6
BYBLOCK
 10
-1284.406268586974
 20
1443.6092553032711
 30
0.0
 11
-1286.406268586974
 21
1444.145153683271
 31
0.0
  0
LINE
  5
42A3
  8
0
  6
BYBLOCK
 10
-1286.406268586974
 20
1444.145153683271
 30
0.0
 11
-1284.406268586974
 21
1444.681052063271
 31
0.0
  0
LINE
  5
42A4
  8
0
  6
BYBLOCK
 10
-1286.406268586974
 20
1444.145153683271
 30
0.0
 11
-1284.406268586974
 21
1444.145153683271
 31
0.0
  0
TEXT
  5
42A5
  8
1DIM
 10
-1100.400622419721
 20
1470.647860964651
 30
0.0
 40
3.5
  1
24 
 50
90.0
  0
LINE
  5
42A6
  8
0
  6
BYBLOCK
 10
-1100.2365207997209
 20
1483.564527631318
 30
0.0
 11
-1099.700622419721
 21
1485.564527631318
 31
0.0
  0
LINE
  5
42A7
  8
0
  6
BYBLOCK
 10
-1099.700622419721
 20
1485.564527631318
 30
0.0
 11
-1099.164724039721
 21
1483.564527631318
 31
0.0
  0
LINE
  5
42A8
  8
0
  6
BYBLOCK
 10
-1099.700622419721
 20
1485.564527631318
 30
0.0
 11
-1099.700622419721
 21
1483.564527631318
 31
0.0
  0
LINE
  5
42A9
  8
0
  6
BYBLOCK
 10
-1099.164724039721
 20
1463.564527631318
 30
0.0
 11
-1099.700622419721
 21
1461.564527631318
 31
0.0
  0
LINE
  5
42AA
  8
0
  6
BYBLOCK
 10
-1099.700622419721
 20
1461.564527631318
 30
0.0
 11
-1100.2365207997209
 21
1463.564527631318
 31
0.0
  0
LINE
  5
42AB
  8
0
  6
BYBLOCK
 10
-1099.700622419721
 20
1461.564527631318
 30
0.0
 11
-1099.700622419721
 21
1463.564527631318
 31
0.0
  0
TEXT
  5
42AC
  8
1DIM
 10
-1065.26999064693
 20
1434.7014535903961
 30
0.0
 40
3.5
  1
49 
  0
LINE
  5
42AD
  8
0
  6
BYBLOCK
 10
-1084.853323980263
 20
1433.4655552103959
 30
0.0
 11
-1086.8533239802639
 21
1434.0014535903961
 31
0.0
  0
LINE
  5
42AE
  8
0
  6
BYBLOCK
 10
-1086.8533239802639
 20
1434.0014535903961
 30
0.0
 11
-1084.853323980263
 21
1434.537351970396
 31
0.0
  0
LINE
  5
42AF
  8
0
  6
BYBLOCK
 10
-1086.8533239802639
 20
1434.0014535903961
 30
0.0
 11
-1084.853323980263
 21
1434.0014535903961
 31
0.0
  0
LINE
  5
42B0
  8
0
  6
BYBLOCK
 10
-1039.853323980263
 20
1434.537351970396
 30
0.0
 11
-1037.8533239802639
 21
1434.0014535903961
 31
0.0
  0
LINE
  5
42B1
  8
0
  6
BYBLOCK
 10
-1037.8533239802639
 20
1434.0014535903961
 30
0.0
 11
-1039.853323980263
 21
1433.4655552103959
 31
0.0
  0
LINE
  5
42B2
  8
0
  6
BYBLOCK
 10
-1037.8533239802639
 20
1434.0014535903961
 30
0.0
 11
-1039.853323980263
 21
1434.0014535903961
 31
0.0
  0
TEXT
  5
42B3
  8
1DIM
 10
-1033.1533239802641
 20
1496.63016272441
 30
0.0
 40
3.5
  1
2 
  0
LINE
  5
42B4
  8
0
  6
BYBLOCK
 10
-1035.8533239802639
 20
1495.39426434441
 30
0.0
 11
-1037.8533239802639
 21
1495.9301627244099
 31
0.0
  0
LINE
  5
42B5
  8
0
  6
BYBLOCK
 10
-1037.8533239802639
 20
1495.9301627244099
 30
0.0
 11
-1035.8533239802639
 21
1496.4660611044101
 31
0.0
  0
LINE
  5
42B6
  8
0
  6
BYBLOCK
 10
-1037.8533239802639
 20
1495.9301627244099
 30
0.0
 11
-1035.8533239802639
 21
1495.9301627244099
 31
0.0
  0
LINE
  5
42B7
  8
0
  6
BYBLOCK
 10
-1041.8533239802621
 20
1496.4660611044101
 30
0.0
 11
-1039.8533239802621
 21
1495.9301627244099
 31
0.0
  0
LINE
  5
42B8
  8
0
  6
BYBLOCK
 10
-1039.8533239802621
 20
1495.9301627244099
 30
0.0
 11
-1041.8533239802621
 21
1495.39426434441
 31
0.0
  0
LINE
  5
42B9
  8
0
  6
BYBLOCK
 10
-1039.8533239802621
 20
1495.9301627244099
 30
0.0
 11
-1041.8533239802621
 21
1495.9301627244099
 31
0.0
  0
TEXT
  5
42BA
  8
1DIM
 10
-1072.2033239802629
 20
1496.63016272441
 30
0.0
 40
3.5
  1
擦動範囲42 
  0
LINE
  5
42BB
  8
0
  6
BYBLOCK
 10
-1079.853323980263
 20
1495.39426434441
 30
0.0
 11
-1081.853323980263
 21
1495.9301627244099
 31
0.0
  0
LINE
  5
42BC
  8
0
  6
BYBLOCK
 10
-1081.853323980263
 20
1495.9301627244099
 30
0.0
 11
-1079.853323980263
 21
1496.4660611044101
 31
0.0
  0
LINE
  5
42BD
  8
0
  6
BYBLOCK
 10
-1081.853323980263
 20
1495.9301627244099
 30
0.0
 11
-1079.853323980263
 21
1495.9301627244099
 31
0.0
  0
LINE
  5
42BE
  8
0
  6
BYBLOCK
 10
-1041.8533239802621
 20
1496.4660611044101
 30
0.0
 11
-1039.8533239802621
 21
1495.9301627244099
 31
0.0
  0
LINE
  5
42BF
  8
0
  6
BYBLOCK
 10
-1039.8533239802621
 20
1495.9301627244099
 30
0.0
 11
-1041.8533239802621
 21
1495.39426434441
 31
0.0
  0
LINE
  5
42C0
  8
0
  6
BYBLOCK
 10
-1039.8533239802621
 20
1495.9301627244099
 30
0.0
 11
-1041.8533239802621
 21
1495.9301627244099
 31
0.0
  0
TEXT
  5
42C1
  8
1DIM
 10
-1093.886657313597
 20
1496.63016272441
 30
0.0
 40
3.5
  1
5 
  0
LINE
  5
42C2
  8
0
  6
BYBLOCK
 10
-1088.8533239802639
 20
1496.4660611044101
 30
0.0
 11
-1086.8533239802639
 21
1495.9301627244099
 31
0.0
  0
LINE
  5
42C3
  8
0
  6
BYBLOCK
 10
-1086.8533239802639
 20
1495.9301627244099
 30
0.0
 11
-1088.8533239802639
 21
1495.39426434441
 31
0.0
  0
LINE
  5
42C4
  8
0
  6
BYBLOCK
 10
-1086.8533239802639
 20
1495.9301627244099
 30
0.0
 11
-1088.8533239802639
 21
1495.9301627244099
 31
0.0
  0
LINE
  5
42C5
  8
0
  6
BYBLOCK
 10
-1079.853323980263
 20
1495.39426434441
 30
0.0
 11
-1081.853323980263
 21
1495.9301627244099
 31
0.0
  0
LINE
  5
42C6
  8
0
  6
BYBLOCK
 10
-1081.853323980263
 20
1495.9301627244099
 30
0.0
 11
-1079.853323980263
 21
1496.4660611044101
 31
0.0
  0
LINE
  5
42C7
  8
0
  6
BYBLOCK
 10
-1081.853323980263
 20
1495.9301627244099
 30
0.0
 11
-1079.853323980263
 21
1495.9301627244099
 31
0.0
  0
TEXT
  5
42C8
  8
1DIM
 10
-1093.886657313597
 20
1444.8451536832711
 30
0.0
 40
3.5
  1
5 
  0
LINE
  5
42C9
  8
0
  6
BYBLOCK
 10
-1088.8533239802639
 20
1444.681052063271
 30
0.0
 11
-1086.8533239802639
 21
1444.145153683271
 31
0.0
  0
LINE
  5
42CA
  8
0
  6
BYBLOCK
 10
-1086.8533239802639
 20
1444.145153683271
 30
0.0
 11
-1088.8533239802639
 21
1443.6092553032711
 31
0.0
  0
LINE
  5
42CB
  8
0
  6
BYBLOCK
 10
-1086.8533239802639
 20
1444.145153683271
 30
0.0
 11
-1088.8533239802639
 21
1444.145153683271
 31
0.0
  0
LINE
  5
42CC
  8
0
  6
BYBLOCK
 10
-1079.853323980263
 20
1443.6092553032711
 30
0.0
 11
-1081.853323980263
 21
1444.145153683271
 31
0.0
  0
LINE
  5
42CD
  8
0
  6
BYBLOCK
 10
-1081.853323980263
 20
1444.145153683271
 30
0.0
 11
-1079.853323980263
 21
1444.681052063271
 31
0.0
  0
LINE
  5
42CE
  8
0
  6
BYBLOCK
 10
-1081.853323980263
 20
1444.145153683271
 30
0.0
 11
-1079.853323980263
 21
1444.145153683271
 31
0.0
  0
TEXT
  5
42CF
  8
1DIM
 10
-1080.01999064693
 20
1444.8451536832711
 30
0.0
 40
3.5
  1
6 
  0
LINE
  5
42D0
  8
0
  6
BYBLOCK
 10
-1077.8533239802639
 20
1444.681052063271
 30
0.0
 11
-1075.853323980263
 21
1444.145153683271
 31
0.0
  0
LINE
  5
42D1
  8
0
  6
BYBLOCK
 10
-1075.853323980263
 20
1444.145153683271
 30
0.0
 11
-1077.8533239802639
 21
1443.6092553032711
 31
0.0
  0
LINE
  5
42D2
  8
0
  6
BYBLOCK
 10
-1075.853323980263
 20
1444.145153683271
 30
0.0
 11
-1077.8533239802639
 21
1444.145153683271
 31
0.0
  0
LINE
  5
42D3
  8
0
  6
BYBLOCK
 10
-1079.853323980263
 20
1443.6092553032711
 30
0.0
 11
-1081.853323980263
 21
1444.145153683271
 31
0.0
  0
LINE
  5
42D4
  8
0
  6
BYBLOCK
 10
-1081.853323980263
 20
1444.145153683271
 30
0.0
 11
-1079.853323980263
 21
1444.681052063271
 31
0.0
  0
LINE
  5
42D5
  8
0
  6
BYBLOCK
 10
-1081.853323980263
 20
1444.145153683271
 30
0.0
 11
-1079.853323980263
 21
1444.145153683271
 31
0.0
  0
LINE
  5
42D6
  8
1DIM
 10
-1250.411148560268
 20
1525.2249421193301
 30
0.0
 11
-1234.0310015447139
 21
1506.9956961326491
 31
0.0
  0
LINE
  5
42D7
  8
1DIM
 10
-1234.0310015447139
 20
1506.9956961326491
 30
0.0
 11
-1199.1310015447141
 21
1506.9956961326491
 31
0.0
  0
LINE
  5
42D8
  8
0
  6
BYBLOCK
 10
-1250.809763156913
 20
1524.8667613311411
 30
0.0
 11
-1251.7478974722119
 21
1526.712592060147
 31
0.0
  0
LINE
  5
42D9
  8
0
  6
BYBLOCK
 10
-1251.7478974722119
 20
1526.712592060147
 30
0.0
 11
-1250.012533963622
 21
1525.5831229075191
 31
0.0
  0
LINE
  5
42DA
  8
0
  6
BYBLOCK
 10
-1251.7478974722119
 20
1526.712592060147
 30
0.0
 11
-1250.411148560268
 21
1525.2249421193301
 31
0.0
  0
LINE
  5
42DB
  8
1DIM
 10
-1134.217983287863
 20
1557.214686260189
 30
0.0
 11
-1118.7787598519201
 21
1552.078029307193
 31
0.0
  0
LINE
  5
42DC
  8
1DIM
 10
-1118.7787598519201
 20
1552.078029307193
 30
0.0
 11
-1083.87875985192
 21
1552.078029307193
 31
0.0
  0
LINE
  5
42DD
  8
0
  6
BYBLOCK
 10
-1134.387160176045
 20
1556.7061921558061
 30
0.0
 11
-1136.115709137986
 21
1557.8460630080781
 31
0.0
  0
LINE
  5
42DE
  8
0
  6
BYBLOCK
 10
-1136.115709137986
 20
1557.8460630080781
 30
0.0
 11
-1134.048806399682
 21
1557.7231803645709
 31
0.0
  0
LINE
  5
42DF
  8
0
  6
BYBLOCK
 10
-1136.115709137986
 20
1557.8460630080781
 30
0.0
 11
-1134.217983287863
 21
1557.214686260189
 31
0.0
  0
LINE
  5
42E0
  8
1DIM
 10
-1135.4519057946291
 20
1520.080353844259
 30
0.0
 11
-1124.567716149837
 21
1507.410029354219
 31
0.0
  0
LINE
  5
42E1
  8
1DIM
 10
-1124.567716149837
 20
1507.410029354219
 30
0.0
 11
-1089.6677161498369
 21
1507.410029354219
 31
0.0
  0
LINE
  5
42E2
  8
0
  6
BYBLOCK
 10
-1135.8584108708219
 20
1519.731153763051
 30
0.0
 11
-1136.7551382515289
 21
1521.5974514559109
 31
0.0
  0
LINE
  5
42E3
  8
0
  6
BYBLOCK
 10
-1136.7551382515289
 20
1521.5974514559109
 30
0.0
 11
-1135.0454007184351
 21
1520.429553925467
 31
0.0
  0
LINE
  5
42E4
  8
0
  6
BYBLOCK
 10
-1136.7551382515289
 20
1521.5974514559109
 30
0.0
 11
-1135.4519057946291
 21
1520.080353844259
 31
0.0
  0
LINE
  5
42E5
  8
1DIM
 10
-1125.3844599306969
 20
1532.154915165705
 30
0.0
 11
-1119.065358535556
 21
1542.7861945645329
 31
0.0
  0
LINE
  5
42E6
  8
1DIM
 10
-1119.065358535556
 20
1542.7861945645329
 30
0.0
 11
-1066.89869186889
 21
1542.7861945645329
 31
0.0
  0
LINE
  5
42E7
  8
0
  6
BYBLOCK
 10
-1124.923794171968
 20
1531.8811011185451
 30
0.0
 11
-1126.406347875793
 21
1530.4356871332241
 31
0.0
  0
LINE
  5
42E8
  8
0
  6
BYBLOCK
 10
-1126.406347875793
 20
1530.4356871332241
 30
0.0
 11
-1125.845125689425
 21
1532.428729212864
 31
0.0
  0
LINE
  5
42E9
  8
0
  6
BYBLOCK
 10
-1126.406347875793
 20
1530.4356871332241
 30
0.0
 11
-1125.3844599306969
 21
1532.154915165705
 31
0.0
  0
LINE
  5
42EA
  8
1DIM
 10
-1130.2319312327591
 20
1569.5145786788501
 30
0.0
 11
-1121.3101915826951
 21
1580.1848841023821
 31
0.0
  0
LINE
  5
42EB
  8
1DIM
 10
-1121.3101915826951
 20
1580.1848841023821
 30
0.0
 11
-1086.410191582695
 21
1580.1848841023821
 31
0.0
  0
LINE
  5
42EC
  8
0
  6
BYBLOCK
 10
-1129.820808281956
 20
1569.1708273253839
 30
0.0
 11
-1131.514828760703
 21
1567.9802469243739
 31
0.0
  0
LINE
  5
42ED
  8
0
  6
BYBLOCK
 10
-1131.514828760703
 20
1567.9802469243739
 30
0.0
 11
-1130.6430541835621
 21
1569.858330032316
 31
0.0
  0
LINE
  5
42EE
  8
0
  6
BYBLOCK
 10
-1131.514828760703
 20
1567.9802469243739
 30
0.0
 11
-1130.2319312327591
 21
1569.5145786788501
 31
0.0
  0
VIEWPORT
  5
57
 67
     1
  8
0
 10
-12.737276748231009
 20
10.082546346911551
 30
0.0
 40
426.49665802680988
 41
282.80654178363977
 68
     1
 69
     1
1001
ACAD
1000
MVIEW
1002
{
1070
    16
1010
0.0
1020
0.0
1030
0.0
1010
0.0
1020
0.0
1030
1.0
1040
0.0
1040
282.80654178363977
1040
-12.737276748231009
1040
10.082546346911551
1040
50.0
1040
0.0
1040
0.0
1070
     0
1070
  1000
1070
     1
1070
     1
1070
     0
1070
     0
1070
     0
1070
     0
1040
0.0
1040
0.0
1040
0.0
1040
10.0
1040
10.0
1040
10.0
1040
10.0
1070
     0
1002
{
1002
}
1002
}
  0
ENDSEC
  0
EOF
