  0
SECTION
  2
HEADER
  9
$ACADVER
  1
AC1012
  9
$DWGCODEPAGE
  3
ansi_932
  9
$INSBASE
 10
0.0
 20
0.0
 30
0.0
  9
$EXTMIN
 10
1975.227956497448
 20
-1997.101919164005
 30
0.0
  9
$EXTMAX
 10
2219.007363639948
 20
-1800.171910005969
 30
0.0
  9
$LIMMIN
 10
0.0
 20
0.0
  9
$LIMMAX
 10
420.0
 20
297.0
  9
$ORTHOMODE
 70
     0
  9
$REGENMODE
 70
     1
  9
$FILLMODE
 70
     1
  9
$QTEXTMODE
 70
     0
  9
$MIRRTEXT
 70
     0
  9
$DRAGMODE
 70
     2
  9
$LTSCALE
 40
0.5
  9
$OSMODE
 70
 14591
  9
$ATTMODE
 70
     1
  9
$TEXTSIZE
 40
4.0
  9
$TRACEWID
 40
1.0
  9
$TEXTSTYLE
  7
STANDARD
  9
$CLAYER
  8
1TEXT
  9
$CELTYPE
  6
BYLAYER
  9
$CECOLOR
 62
   256
  9
$CELTSCALE
 40
1.0
  9
$DELOBJ
 70
     1
  9
$DISPSILH
 70
     0
  9
$DIMSCALE
 40
1.0
  9
$DIMASZ
 40
2.0
  9
$DIMEXO
 40
0.0
  9
$DIMDLI
 40
7.0
  9
$DIMRND
 40
0.0
  9
$DIMDLE
 40
0.0
  9
$DIMEXE
 40
1.0
  9
$DIMTP
 40
0.0
  9
$DIMTM
 40
0.0
  9
$DIMTXT
 40
3.5
  9
$DIMCEN
 40
0.0
  9
$DIMTSZ
 40
0.0
  9
$DIMTOL
 70
     0
  9
$DIMLIM
 70
     0
  9
$DIMTIH
 70
     0
  9
$DIMTOH
 70
     0
  9
$DIMSE1
 70
     0
  9
$DIMSE2
 70
     0
  9
$DIMTAD
 70
     1
  9
$DIMZIN
 70
     8
  9
$DIMBLK
  1

  9
$DIMASO
 70
     1
  9
$DIMSHO
 70
     1
  9
$DIMPOST
  1
 
  9
$DIMAPOST
  1

  9
$DIMALT
 70
     0
  9
$DIMALTD
 70
     2
  9
$DIMALTF
 40
25.4
  9
$DIMLFAC
 40
1.0
  9
$DIMTOFL
 70
     1
  9
$DIMTVP
 40
0.0
  9
$DIMTIX
 70
     0
  9
$DIMSOXD
 70
     0
  9
$DIMSAH
 70
     1
  9
$DIMBLK1
  1
OPEN30
  9
$DIMBLK2
  1
OPEN30
  9
$DIMSTYLE
  2
NEWX10
  9
$DIMCLRD
 70
   256
  9
$DIMCLRE
 70
   256
  9
$DIMCLRT
 70
   201
  9
$DIMTFAC
 40
0.7
  9
$DIMGAP
 40
0.7
  9
$DIMJUST
 70
     0
  9
$DIMSD1
 70
     0
  9
$DIMSD2
 70
     0
  9
$DIMTOLJ
 70
     1
  9
$DIMTZIN
 70
     8
  9
$DIMALTZ
 70
     0
  9
$DIMALTTZ
 70
     0
  9
$DIMFIT
 70
     2
  9
$DIMUPT
 70
     0
  9
$DIMUNIT
 70
     2
  9
$DIMDEC
 70
     2
  9
$DIMTDEC
 70
     4
  9
$DIMALTU
 70
     2
  9
$DIMALTTD
 70
     2
  9
$DIMTXSTY
  7
STANDARD
  9
$DIMAUNIT
 70
     0
  9
$LUNITS
 70
     2
  9
$LUPREC
 70
     4
  9
$SKETCHINC
 40
1.0
  9
$FILLETRAD
 40
0.0
  9
$AUNITS
 70
     0
  9
$AUPREC
 70
     2
  9
$MENU
  1
acad
  9
$ELEVATION
 40
0.0
  9
$PELEVATION
 40
0.0
  9
$THICKNESS
 40
0.0
  9
$LIMCHECK
 70
     0
  9
$CHAMFERA
 40
10.0
  9
$CHAMFERB
 40
10.0
  9
$CHAMFERC
 40
20.0
  9
$CHAMFERD
 40
0.0
  9
$SKPOLY
 70
     0
  9
$TDCREATE
 40
2453033.732663484
  9
$TDUPDATE
 40
2458040.728855382
  9
$TDINDWG
 40
1.9215534491
  9
$TDUSRTIMER
 40
1.9215534491
  9
$USRTIMER
 70
     1
  9
$ANGBASE
 50
0.0
  9
$ANGDIR
 70
     0
  9
$PDMODE
 70
     0
  9
$PDSIZE
 40
0.0
  9
$PLINEWID
 40
0.0
  9
$COORDS
 70
     2
  9
$SPLFRAME
 70
     0
  9
$SPLINETYPE
 70
     6
  9
$SPLINESEGS
 70
     8
  9
$ATTDIA
 70
     0
  9
$ATTREQ
 70
     1
  9
$HANDLING
 70
     1
  9
$HANDSEED
  5
1699B
  9
$SURFTAB1
 70
     6
  9
$SURFTAB2
 70
     6
  9
$SURFTYPE
 70
     6
  9
$SURFU
 70
     6
  9
$SURFV
 70
     6
  9
$UCSNAME
  2

  9
$UCSORG
 10
0.0
 20
0.0
 30
0.0
  9
$UCSXDIR
 10
1.0
 20
0.0
 30
0.0
  9
$UCSYDIR
 10
0.0
 20
1.0
 30
0.0
  9
$PUCSNAME
  2

  9
$PUCSORG
 10
0.0
 20
0.0
 30
0.0
  9
$PUCSXDIR
 10
1.0
 20
0.0
 30
0.0
  9
$PUCSYDIR
 10
0.0
 20
1.0
 30
0.0
  9
$USERI1
 70
     0
  9
$USERI2
 70
     0
  9
$USERI3
 70
     0
  9
$USERI4
 70
     0
  9
$USERI5
 70
     0
  9
$USERR1
 40
0.0
  9
$USERR2
 40
0.0
  9
$USERR3
 40
0.0
  9
$USERR4
 40
0.0
  9
$USERR5
 40
0.0
  9
$WORLDVIEW
 70
     1
  9
$SHADEDGE
 70
     3
  9
$SHADEDIF
 70
    70
  9
$TILEMODE
 70
     1
  9
$MAXACTVP
 70
    48
  9
$PINSBASE
 10
0.0
 20
0.0
 30
0.0
  9
$PLIMCHECK
 70
     0
  9
$PEXTMIN
 10
1.000000000000000E+20
 20
1.000000000000000E+20
 30
1.000000000000000E+20
  9
$PEXTMAX
 10
-1.000000000000000E+20
 20
-1.000000000000000E+20
 30
-1.000000000000000E+20
  9
$PLIMMIN
 10
0.0
 20
0.0
  9
$PLIMMAX
 10
420.0
 20
297.0
  9
$UNITMODE
 70
     0
  9
$VISRETAIN
 70
     1
  9
$PLINEGEN
 70
     0
  9
$PSLTSCALE
 70
     1
  9
$TREEDEPTH
 70
  3020
  9
$PICKSTYLE
 70
     1
  9
$CMLSTYLE
  2
STANDARD
  9
$CMLJUST
 70
     0
  9
$CMLSCALE
 40
20.0
  9
$SAVEIMAGES
 70
     1
  0
ENDSEC
  0
SECTION
  2
CLASSES
  0
CLASS
  1
DICTIONARYVAR
  2
AcDbDictionaryVar
  3
ObjectDBX Classes
 90
        0
280
     0
281
     0
  0
CLASS
  1
IDBUFFER
  2
AcDbIdBuffer
  3
ObjectDBX Classes
 90
    32768
280
     0
281
     0
  0
CLASS
  1
LWPOLYLINE
  2
AcDbPolyline
  3
ObjectDBX Classes
 90
    32768
280
     0
281
     1
  0
CLASS
  1
ACDBDICTIONARYWDFLT
  2
AcDbDictionaryWithDefault
  3
ObjectDBX Classes
 90
    32768
280
     0
281
     0
  0
CLASS
  1
ACDBPLACEHOLDER
  2
AcDbPlaceHolder
  3
ObjectDBX Classes
 90
        0
280
     0
281
     0
  0
CLASS
  1
LAYOUT
  2
AcDbLayout
  3
ObjectDBX Classes
 90
        0
280
     0
281
     0
  0
CLASS
  1
TABLESTYLE
  2
AcDbTableStyle
  3
ObjectDBX Classes
 90
     4095
280
     0
281
     0
  0
CLASS
  1
SORTENTSTABLE
  2
AcDbSortentsTable
  3
ObjectDBX Classes
 90
    32768
280
     0
281
     0
  0
CLASS
  1
DIMASSOC
  2
AcDbDimAssoc
  3
"AcDbDimAssoc|Product Desc:     AcDim ARX App For Dimension|Company:          Autodesk, Inc.|WEB Address:      www.autodesk.com"
 90
        0
280
     0
281
     0
  0
CLASS
  1
MATERIAL
  2
AcDbMaterial
  3
ObjectDBX Classes
 90
     1153
280
     0
281
     0
  0
CLASS
  1
VISUALSTYLE
  2
AcDbVisualStyle
  3
ObjectDBX Classes
 90
     4095
280
     0
281
     0
  0
CLASS
  1
SCALE
  2
AcDbScale
  3
ObjectDBX Classes
 90
     1153
280
     0
281
     0
  0
CLASS
  1
MLEADERSTYLE
  2
AcDbMLeaderStyle
  3
ACDB_MLEADERSTYLE_CLASS
 90
     4095
280
     0
281
     0
  0
CLASS
  1
CELLSTYLEMAP
  2
AcDbCellStyleMap
  3
ObjectDBX Classes
 90
     1152
280
     0
281
     0
  0
CLASS
  1
EXACXREFPANELOBJECT
  2
ExAcXREFPanelObject
  3
EXAC_ESW
 90
     1025
280
     1
281
     0
  0
CLASS
  1
NPOCOLLECTION
  2
AcDbImpNonPersistentObjectsCollection
  3
ObjectDBX Classes
 90
     1153
280
     1
281
     0
  0
CLASS
  1
SUN
  2
AcDbSun
  3
SCENEOE
 90
     1153
280
     0
281
     0
  0
CLASS
  1
XRECORD
  2
AcDbXrecord
  3
ObjectDBX Classes
 90
    32768
280
     0
281
     0
  0
CLASS
  1
HATCH
  2
AcDbHatch
  3
ObjectDBX Classes
 90
    32768
280
     0
281
     1
  0
ENDSEC
  0
SECTION
  2
TABLES
  0
TABLE
  2
VPORT
  5
8
330
0
100
AcDbSymbolTable
 70
     1
  0
VPORT
  5
15B17
330
8
100
AcDbSymbolTableRecord
100
AcDbViewportTableRecord
  2
*ACTIVE
 70
     0
 10
0.0
 20
0.0
 11
1.0
 21
1.0
 12
2097.117660068698
 22
-1898.636914584987
 13
0.0
 23
0.0
 14
10.0
 24
10.0
 15
10.0
 25
10.0
 16
0.0
 26
0.0
 36
1.0
 17
0.0
 27
0.0
 37
0.0
 40
211.4406414117868
 41
2.020775623268698
 42
50.0
 43
0.0
 44
0.0
 50
0.0
 51
0.0
 71
    16
 72
   100
 73
     1
 74
     1
 75
     0
 76
     0
 77
     0
 78
     0
  0
ENDTAB
  0
TABLE
  2
LTYPE
  5
5
330
0
100
AcDbSymbolTable
 70
     3
  0
LTYPE
  5
12
330
5
100
AcDbSymbolTableRecord
100
AcDbLinetypeTableRecord
  2
BYBLOCK
 70
     0
  3

 72
    65
 73
     0
 40
0.0
  0
LTYPE
  5
13
330
5
100
AcDbSymbolTableRecord
100
AcDbLinetypeTableRecord
  2
BYLAYER
 70
     0
  3

 72
    65
 73
     0
 40
0.0
  0
LTYPE
  5
14
330
5
100
AcDbSymbolTableRecord
100
AcDbLinetypeTableRecord
  2
CONTINUOUS
 70
     0
  3
Solid line
 72
    65
 73
     0
 40
0.0
  0
LTYPE
  5
26
330
5
100
AcDbSymbolTableRecord
100
AcDbLinetypeTableRecord
  2
CENTER2
 70
     0
  3
Center (.5x) ___ _ ___ _ ___ _ ___ _ ___ _ ___
 72
    65
 73
     4
 40
28.575
 49
19.05
 74
     0
 49
-3.175
 74
     0
 49
3.175
 74
     0
 49
-3.175
 74
     0
  0
LTYPE
  5
100
330
5
100
AcDbSymbolTableRecord
100
AcDbLinetypeTableRecord
  2
PHANTOM2
 70
     0
  3
Phantom (0.5x) ___ _ _ ___ _ _ ___ _ _ ___ _ _
 72
    65
 73
     6
 40
31.75
 49
15.875
 74
     0
 49
-3.175
 74
     0
 49
3.175
 74
     0
 49
-3.175
 74
     0
 49
3.175
 74
     0
 49
-3.175
 74
     0
  0
ENDTAB
  0
TABLE
  2
LAYER
  5
2
102
{ACAD_XDICTIONARY
360
14EC2
102
}
330
0
100
AcDbSymbolTable
 70
     6
  0
LAYER
  5
E
102
{ACAD_XDICTIONARY
360
15BB5
102
}
330
2
100
AcDbSymbolTableRecord
100
AcDbLayerTableRecord
  2
0
 70
     0
 62
     7
  6
CONTINUOUS
  0
LAYER
  5
29
102
{ACAD_XDICTIONARY
360
15BB7
102
}
330
2
100
AcDbSymbolTableRecord
100
AcDbLayerTableRecord
  2
1CENTER
 70
     0
 62
     7
  6
CENTER2
  0
LAYER
  5
31
102
{ACAD_XDICTIONARY
360
15BB9
102
}
330
2
100
AcDbSymbolTableRecord
100
AcDbLayerTableRecord
  2
1TEXT
 70
     0
 62
     7
  6
CONTINUOUS
  0
LAYER
  5
101
102
{ACAD_XDICTIONARY
360
15BC3
102
}
330
2
100
AcDbSymbolTableRecord
100
AcDbLayerTableRecord
  2
1DIM
 70
     0
 62
     7
  6
CONTINUOUS
  0
LAYER
  5
103
102
{ACAD_XDICTIONARY
360
15BC7
102
}
330
2
100
AcDbSymbolTableRecord
100
AcDbLayerTableRecord
  2
1PHANTOM
 70
     0
 62
     7
  6
PHANTOM2
  0
LAYER
  5
25F
102
{ACAD_XDICTIONARY
360
15BCB
102
}
330
2
100
AcDbSymbolTableRecord
100
AcDbLayerTableRecord
  2
01
 70
     0
 62
     1
  6
CONTINUOUS
  0
ENDTAB
  0
TABLE
  2
STYLE
  5
3
330
0
100
AcDbSymbolTable
 70
     1
  0
STYLE
  5
F
330
3
100
AcDbSymbolTableRecord
100
AcDbTextStyleTableRecord
  2
STANDARD
 70
     0
 40
0.0
 41
1.0
 50
0.0
 71
     0
 42
4.0
  3
txt.shx
  4
extfont.shx
  0
ENDTAB
  0
TABLE
  2
VIEW
  5
6
330
0
100
AcDbSymbolTable
 70
     0
  0
ENDTAB
  0
TABLE
  2
UCS
  5
7
330
0
100
AcDbSymbolTable
 70
     0
  0
ENDTAB
  0
TABLE
  2
APPID
  5
9
330
0
100
AcDbSymbolTable
 70
    11
  0
APPID
  5
10
330
9
100
AcDbSymbolTableRecord
100
AcDbRegAppTableRecord
  2
ACAD
 70
     0
  0
APPID
  5
21
330
9
100
AcDbSymbolTableRecord
100
AcDbRegAppTableRecord
  2
DRAWINGVARIABLESXDATA
 70
     0
  0
APPID
  5
64
330
9
100
AcDbSymbolTableRecord
100
AcDbRegAppTableRecord
  2
CONTENTTABDATA
 70
     0
  0
APPID
  5
65
330
9
100
AcDbSymbolTableRecord
100
AcDbRegAppTableRecord
  2
CONTENTCURRENTTAB
 70
     0
  0
APPID
  5
66
330
9
100
AcDbSymbolTableRecord
100
AcDbRegAppTableRecord
  2
CONTENTBLOCKDESCRIPTION
 70
     0
  0
APPID
  5
67
330
9
100
AcDbSymbolTableRecord
100
AcDbRegAppTableRecord
  2
CONTENTBLOCKICON
 70
     0
  0
APPID
  5
68
330
9
100
AcDbSymbolTableRecord
100
AcDbRegAppTableRecord
  2
CONTENTLONGBLOCKNAME
 70
     0
  0
APPID
  5
5A9
330
9
100
AcDbSymbolTableRecord
100
AcDbRegAppTableRecord
  2
ACAD_PSEXT
 70
     0
  0
APPID
  5
18AC
330
9
100
AcDbSymbolTableRecord
100
AcDbRegAppTableRecord
  2
ACAD_DSTYLE_DIMTEXT_FILL
 70
     0
  0
APPID
  5
15B9A
330
9
100
AcDbSymbolTableRecord
100
AcDbRegAppTableRecord
  2
ACAD_MLEADERVER
 70
     0
  0
APPID
  5
168BB
330
9
100
AcDbSymbolTableRecord
100
AcDbRegAppTableRecord
  2
ACAD_OBJECT_CHANGE_GUID
 70
     0
  0
ENDTAB
  0
TABLE
  2
DIMSTYLE
  5
A
330
0
100
AcDbSymbolTable
 70
     1
  0
DIMSTYLE
105
48
330
A
100
AcDbSymbolTableRecord
100
AcDbDimStyleTableRecord
  2
NEWX10
 70
     0
  3
 
  4

  5

  6
OPEN30
  7
OPEN30
 40
1.0
 41
2.0
 42
0.0
 43
7.0
 44
1.0
 45
0.0
 46
0.0
 47
0.0
 48
0.0
140
3.5
141
0.0
142
0.0
143
25.4
144
1.0
145
0.0
146
0.7
147
0.7
 71
     0
 72
     0
 73
     0
 74
     0
 75
     0
 76
     0
 77
     1
 78
     8
170
     0
171
     2
172
     1
173
     1
174
     0
175
     0
176
   256
177
   256
178
   201
179
     2
270
     2
271
     2
272
     4
273
     2
274
     2
340
F
275
     0
280
     0
281
     0
282
     0
283
     1
284
     8
285
     0
286
     0
287
     2
288
     0
  0
ENDTAB
  0
TABLE
  2
BLOCK_RECORD
  5
1
330
0
100
AcDbSymbolTable
 70
     1
  0
BLOCK_RECORD
  5
18
102
{ACAD_XDICTIONARY
360
6E9
102
}
330
1
100
AcDbSymbolTableRecord
100
AcDbBlockTableRecord
  2
*MODEL_SPACE
  0
BLOCK_RECORD
  5
15
102
{ACAD_XDICTIONARY
360
59B
102
}
330
1
100
AcDbSymbolTableRecord
100
AcDbBlockTableRecord
  2
*PAPER_SPACE
  0
BLOCK_RECORD
  5
42
330
1
100
AcDbSymbolTableRecord
100
AcDbBlockTableRecord
  2
_OPEN30
  0
ENDTAB
  0
ENDSEC
  0
SECTION
  2
BLOCKS
  0
BLOCK
  5
19
330
18
100
AcDbEntity
  8
0
100
AcDbBlockBegin
  2
*MODEL_SPACE
 70
     0
 10
0.0
 20
0.0
 30
0.0
  3
*MODEL_SPACE
  1

  0
ENDBLK
  5
1A
330
18
100
AcDbEntity
  8
0
100
AcDbBlockEnd
  0
BLOCK
  5
16
330
15
100
AcDbEntity
 67
     1
  8
0
100
AcDbBlockBegin
  2
*PAPER_SPACE
 70
     0
 10
0.0
 20
0.0
 30
0.0
  3
*PAPER_SPACE
  1

  0
ENDBLK
  5
17
330
15
100
AcDbEntity
 67
     1
  8
0
100
AcDbBlockEnd
  0
BLOCK
  5
43
330
42
100
AcDbEntity
  8
0
100
AcDbBlockBegin
  2
_OPEN30
 70
     0
 10
0.0
 20
0.0
 30
0.0
  3
_OPEN30
  1

  0
LINE
  5
44
330
42
100
AcDbEntity
  8
0
  6
BYBLOCK
 62
     0
100
AcDbLine
 10
-1.0
 20
0.26794919
 30
0.0
 11
0.0
 21
0.0
 31
0.0
  0
LINE
  5
45
330
42
100
AcDbEntity
  8
0
  6
BYBLOCK
 62
     0
100
AcDbLine
 10
0.0
 20
0.0
 30
0.0
 11
-1.0
 21
-0.26794919
 31
0.0
  0
LINE
  5
46
330
42
100
AcDbEntity
  8
0
  6
BYBLOCK
 62
     0
100
AcDbLine
 10
0.0
 20
0.0
 30
0.0
 11
-1.0
 21
0.0
 31
0.0
  0
ENDBLK
  5
47
330
42
100
AcDbEntity
  8
0
100
AcDbBlockEnd
  0
ENDSEC
  0
SECTION
  2
ENTITIES
  0
LINE
  5
1601D
330
18
100
AcDbEntity
  8
1PHANTOM
100
AcDbLine
 10
2097.727956497448
 20
-1800.171910005969
 30
0.0
 11
2097.727956497449
 21
-1832.332816453332
 31
0.0
  0
LINE
  5
1601E
330
18
100
AcDbEntity
  8
1PHANTOM
100
AcDbLine
 10
2096.633632683453
 20
-1805.232822050955
 30
0.0
 11
2098.595967772329
 21
-1804.432826616904
 31
0.0
  0
LINE
  5
1601F
330
18
100
AcDbEntity
  8
1PHANTOM
100
AcDbLine
 10
2098.595967772329
 20
-1804.432826616904
 30
0.0
 11
2098.007691197286
 21
-1804.121056760652
 31
0.0
  0
LINE
  5
16020
330
18
100
AcDbEntity
  8
1PHANTOM
100
AcDbLine
 10
2095.728003033346
 20
-1827.632819943745
 30
0.0
 11
2099.728003033346
 21
-1826.832829250927
 31
0.0
  0
LINE
  5
16021
330
18
100
AcDbEntity
  8
1PHANTOM
100
AcDbLine
 10
2095.728003033346
 20
-1816.43281994374
 30
0.0
 11
2099.728003033346
 21
-1815.632829250918
 31
0.0
  0
LINE
  5
16022
330
18
100
AcDbEntity
  8
1PHANTOM
100
AcDbLine
 10
2095.728003033346
 20
-1813.23281994374
 30
0.0
 11
2099.728003033346
 21
-1812.432829250918
 31
0.0
  0
LINE
  5
16023
330
18
100
AcDbEntity
  8
1PHANTOM
100
AcDbLine
 10
2099.728003033346
 20
-1812.432829250918
 30
0.0
 11
2099.228003033346
 21
-1812.332828087521
 31
0.0
  0
LINE
  5
16024
330
18
100
AcDbEntity
  8
1PHANTOM
100
AcDbLine
 10
2096.228003033346
 20
-1811.732821107138
 30
0.0
 11
2095.728003033346
 21
-1811.632819943741
 31
0.0
  0
LINE
  5
16025
330
18
100
AcDbEntity
  8
1PHANTOM
100
AcDbLine
 10
2099.728003033346
 20
-1815.632829250918
 30
0.0
 11
2099.228003033346
 21
-1815.532828087521
 31
0.0
  0
LINE
  5
16026
330
18
100
AcDbEntity
  8
1PHANTOM
100
AcDbLine
 10
2099.728003033346
 20
-1814.032829250918
 30
0.0
 11
2099.228003033346
 21
-1813.93282808752
 31
0.0
  0
LINE
  5
16027
330
18
100
AcDbEntity
  8
1PHANTOM
100
AcDbLine
 10
2096.228003033346
 20
-1813.332821107137
 30
0.0
 11
2095.728003033346
 21
-1813.23281994374
 31
0.0
  0
LINE
  5
16028
330
18
100
AcDbEntity
  8
1PHANTOM
100
AcDbLine
 10
2096.228003033346
 20
-1814.932821107138
 30
0.0
 11
2095.728003033346
 21
-1814.83281994374
 31
0.0
  0
LINE
  5
16029
330
18
100
AcDbEntity
  8
1PHANTOM
100
AcDbLine
 10
2095.728003033346
 20
-1814.83281994374
 30
0.0
 11
2099.728003033346
 21
-1814.032829250918
 31
0.0
  0
LINE
  5
1602A
330
18
100
AcDbEntity
  8
1PHANTOM
100
AcDbLine
 10
2099.048781876736
 20
-1806.032827670509
 30
0.0
 11
2098.497032412932
 21
-1805.850063527881
 31
0.0
  0
LINE
  5
1602B
330
18
100
AcDbEntity
  8
1PHANTOM
100
AcDbLine
 10
2099.728003033346
 20
-1809.232829250918
 30
0.0
 11
2099.228003033346
 21
-1809.132828087521
 31
0.0
  0
LINE
  5
1602C
330
18
100
AcDbEntity
  8
1PHANTOM
100
AcDbLine
 10
2099.728003033346
 20
-1810.832829250918
 30
0.0
 11
2099.228003033346
 21
-1810.732828087521
 31
0.0
  0
LINE
  5
1602D
330
18
100
AcDbEntity
  8
1PHANTOM
100
AcDbLine
 10
2099.501595981142
 20
-1807.632828724115
 30
0.0
 11
2098.965002245871
 21
-1807.503558026486
 31
0.0
  0
LINE
  5
1602E
330
18
100
AcDbEntity
  8
1PHANTOM
100
AcDbLine
 10
2096.648917630554
 20
-1806.945590509701
 30
0.0
 11
2096.180819175405
 21
-1806.83282099735
 31
0.0
  0
LINE
  5
1602F
330
18
100
AcDbEntity
  8
1PHANTOM
100
AcDbLine
 10
2096.228003033346
 20
-1810.132821107137
 30
0.0
 11
2095.728003033346
 21
-1810.032819943741
 31
0.0
  0
LINE
  5
16030
330
18
100
AcDbEntity
  8
1PHANTOM
100
AcDbLine
 10
2096.228003033346
 20
-1808.532821107138
 30
0.0
 11
2095.728003033346
 21
-1808.43281994374
 31
0.0
  0
LINE
  5
16031
330
18
100
AcDbEntity
  8
1PHANTOM
100
AcDbLine
 10
2097.090804524084
 20
-1805.384257847395
 30
0.0
 11
2096.633632683453
 21
-1805.232822050955
 31
0.0
  0
LINE
  5
16032
330
18
100
AcDbEntity
  8
1PHANTOM
100
AcDbLine
 10
2096.180819175405
 20
-1806.83282099735
 30
0.0
 11
2099.048781876736
 21
-1806.032827670509
 31
0.0
  0
LINE
  5
16033
330
18
100
AcDbEntity
  8
1PHANTOM
100
AcDbLine
 10
2095.728003033346
 20
-1810.032819943741
 30
0.0
 11
2099.728003033346
 21
-1809.232829250918
 31
0.0
  0
LINE
  5
16034
330
18
100
AcDbEntity
  8
1PHANTOM
100
AcDbLine
 10
2095.728003033346
 20
-1808.43281994374
 30
0.0
 11
2099.501595981142
 21
-1807.632828724115
 31
0.0
  0
LINE
  5
16035
330
18
100
AcDbEntity
  8
1PHANTOM
100
AcDbLine
 10
2095.728003033346
 20
-1811.632819943741
 30
0.0
 11
2099.728003033346
 21
-1810.832829250918
 31
0.0
  0
LINE
  5
16036
330
18
100
AcDbEntity
  8
1PHANTOM
100
AcDbLine
 10
2095.728003033346
 20
-1824.432819943745
 30
0.0
 11
2099.728003033346
 21
-1823.632829250927
 31
0.0
  0
LINE
  5
16037
330
18
100
AcDbEntity
  8
1PHANTOM
100
AcDbLine
 10
2099.728003033346
 20
-1823.632829250927
 30
0.0
 11
2099.228003033346
 21
-1823.532828087529
 31
0.0
  0
LINE
  5
16038
330
18
100
AcDbEntity
  8
1PHANTOM
100
AcDbLine
 10
2096.228003033346
 20
-1822.932821107138
 30
0.0
 11
2095.728003033346
 21
-1822.832819943741
 31
0.0
  0
LINE
  5
16039
330
18
100
AcDbEntity
  8
1PHANTOM
100
AcDbLine
 10
2099.728003033346
 20
-1825.232829250927
 30
0.0
 11
2099.228003033346
 21
-1825.132828087529
 31
0.0
  0
LINE
  5
1603A
330
18
100
AcDbEntity
  8
1PHANTOM
100
AcDbLine
 10
2099.728003033346
 20
-1826.832829250927
 30
0.0
 11
2099.228003033346
 21
-1826.732828087529
 31
0.0
  0
LINE
  5
1603B
330
18
100
AcDbEntity
  8
1PHANTOM
100
AcDbLine
 10
2096.228003033346
 20
-1824.532821107143
 30
0.0
 11
2095.728003033346
 21
-1824.432819943745
 31
0.0
  0
LINE
  5
1603C
330
18
100
AcDbEntity
  8
1PHANTOM
100
AcDbLine
 10
2096.228003033346
 20
-1826.132821107143
 30
0.0
 11
2095.728003033346
 21
-1826.032819943745
 31
0.0
  0
LINE
  5
1603D
330
18
100
AcDbEntity
  8
1PHANTOM
100
AcDbLine
 10
2095.728003033346
 20
-1826.032819943745
 30
0.0
 11
2099.728003033346
 21
-1825.232829250927
 31
0.0
  0
LINE
  5
1603E
330
18
100
AcDbEntity
  8
1PHANTOM
100
AcDbLine
 10
2099.728003033346
 20
-1818.832829250922
 30
0.0
 11
2099.228003033346
 21
-1818.732828087524
 31
0.0
  0
LINE
  5
1603F
330
18
100
AcDbEntity
  8
1PHANTOM
100
AcDbLine
 10
2099.728003033346
 20
-1817.232829250918
 30
0.0
 11
2099.228003033346
 21
-1817.132828087521
 31
0.0
  0
LINE
  5
16040
330
18
100
AcDbEntity
  8
1PHANTOM
100
AcDbLine
 10
2099.728003033346
 20
-1822.032829250922
 30
0.0
 11
2099.228003033346
 21
-1821.932828087525
 31
0.0
  0
LINE
  5
16041
330
18
100
AcDbEntity
  8
1PHANTOM
100
AcDbLine
 10
2099.728003033346
 20
-1820.432829250922
 30
0.0
 11
2099.228003033346
 21
-1820.332828087525
 31
0.0
  0
LINE
  5
16042
330
18
100
AcDbEntity
  8
1PHANTOM
100
AcDbLine
 10
2096.228003033346
 20
-1816.532821107138
 30
0.0
 11
2095.728003033346
 21
-1816.43281994374
 31
0.0
  0
LINE
  5
16043
330
18
100
AcDbEntity
  8
1PHANTOM
100
AcDbLine
 10
2096.228003033346
 20
-1818.132821107138
 30
0.0
 11
2095.728003033346
 21
-1818.032819943741
 31
0.0
  0
LINE
  5
16044
330
18
100
AcDbEntity
  8
1PHANTOM
100
AcDbLine
 10
2096.228003033346
 20
-1821.332821107138
 30
0.0
 11
2095.728003033346
 21
-1821.23281994374
 31
0.0
  0
LINE
  5
16045
330
18
100
AcDbEntity
  8
1PHANTOM
100
AcDbLine
 10
2096.228003033346
 20
-1819.732821107138
 30
0.0
 11
2095.728003033346
 21
-1819.632819943741
 31
0.0
  0
LINE
  5
16046
330
18
100
AcDbEntity
  8
1PHANTOM
100
AcDbLine
 10
2095.728003033346
 20
-1819.632819943741
 30
0.0
 11
2099.728003033346
 21
-1818.832829250922
 31
0.0
  0
LINE
  5
16047
330
18
100
AcDbEntity
  8
1PHANTOM
100
AcDbLine
 10
2095.728003033346
 20
-1818.032819943741
 30
0.0
 11
2099.728003033346
 21
-1817.232829250918
 31
0.0
  0
LINE
  5
16048
330
18
100
AcDbEntity
  8
1PHANTOM
100
AcDbLine
 10
2095.728003033346
 20
-1821.23281994374
 30
0.0
 11
2099.728003033346
 21
-1820.432829250922
 31
0.0
  0
LINE
  5
16049
330
18
100
AcDbEntity
  8
1PHANTOM
100
AcDbLine
 10
2095.728003033346
 20
-1822.832819943741
 30
0.0
 11
2099.728003033346
 21
-1822.032829250922
 31
0.0
  0
LINE
  5
1604C
330
18
100
AcDbEntity
  8
1PHANTOM
100
AcDbLine
 10
2096.228003033346
 20
-1832.332821107147
 30
0.0
 11
2099.728003033346
 21
-1831.632829250931
 31
0.0
  0
LINE
  5
1604D
330
18
100
AcDbEntity
  8
1PHANTOM
100
AcDbLine
 10
2099.728003033346
 20
-1831.632829250931
 30
0.0
 11
2099.228003033346
 21
-1831.532828087533
 31
0.0
  0
LINE
  5
1604E
330
18
100
AcDbEntity
  8
1PHANTOM
100
AcDbLine
 10
2096.228003033346
 20
-1830.932821107147
 30
0.0
 11
2095.728003033346
 21
-1830.832819943749
 31
0.0
  0
LINE
  5
1604F
330
18
100
AcDbEntity
  8
1PHANTOM
100
AcDbLine
 10
2096.228003033346
 20
-1829.332821107147
 30
0.0
 11
2095.728003033346
 21
-1829.23281994375
 31
0.0
  0
LINE
  5
16050
330
18
100
AcDbEntity
  8
1PHANTOM
100
AcDbLine
 10
2095.728003033346
 20
-1829.23281994375
 30
0.0
 11
2099.728003033346
 21
-1828.432829250931
 31
0.0
  0
LINE
  5
16051
330
18
100
AcDbEntity
  8
1PHANTOM
100
AcDbLine
 10
2099.728003033346
 20
-1830.032829250931
 30
0.0
 11
2099.228003033346
 21
-1829.932828087533
 31
0.0
  0
LINE
  5
16052
330
18
100
AcDbEntity
  8
1PHANTOM
100
AcDbLine
 10
2099.728003033346
 20
-1828.432829250931
 30
0.0
 11
2099.228003033346
 21
-1828.332828087533
 31
0.0
  0
LINE
  5
16053
330
18
100
AcDbEntity
  8
1PHANTOM
100
AcDbLine
 10
2095.728003033346
 20
-1830.832819943749
 30
0.0
 11
2099.728003033346
 21
-1830.032829250931
 31
0.0
  0
LINE
  5
16054
330
18
100
AcDbEntity
  8
1PHANTOM
100
AcDbLine
 10
2096.228003033346
 20
-1827.732821107142
 30
0.0
 11
2095.728003033346
 21
-1827.632819943745
 31
0.0
  0
LINE
  5
1606F
330
18
100
AcDbEntity
  8
1PHANTOM
100
AcDbLine
 10
2097.728003033346
 20
-1803.132824597277
 30
0.0
 11
2096.228003033346
 21
-1808.432821107139
 31
0.0
  0
LINE
  5
16070
330
18
100
AcDbEntity
  8
1PHANTOM
100
AcDbLine
 10
2096.228003033346
 20
-1808.432821107139
 30
0.0
 11
2096.228003033346
 21
-1832.332821107147
 31
0.0
  0
LINE
  5
16071
330
18
100
AcDbEntity
  8
1PHANTOM
100
AcDbLine
 10
2097.728003033346
 20
-1803.132824597277
 30
0.0
 11
2099.228003033346
 21
-1808.432828087522
 31
0.0
  0
LINE
  5
16073
330
18
100
AcDbEntity
  8
1PHANTOM
100
AcDbLine
 10
2099.228003033346
 20
-1808.432828087522
 30
0.0
 11
2099.228003033346
 21
-1832.332816453332
 31
0.0
  0
LINE
  5
162AA
330
18
100
AcDbEntity
  8
01
100
AcDbLine
 10
1975.227956497448
 20
-1979.582816453332
 30
0.0
 11
2110.227956497448
 21
-1979.582816453332
 31
0.0
  0
LINE
  5
162AB
330
18
100
AcDbEntity
  8
01
100
AcDbLine
 10
1975.227956497448
 20
-1981.582816453332
 30
0.0
 11
2110.227956497448
 21
-1981.582816453332
 31
0.0
  0
ARC
  5
162AC
330
18
100
AcDbEntity
  8
01
100
AcDbCircle
 10
1976.527956497448
 20
-1978.782816453332
 30
0.0
 40
0.8
100
AcDbArc
 50
237.5382550327449
 51
270.0
  0
LINE
  5
162AD
330
18
100
AcDbEntity
  8
01
100
AcDbLine
 10
1976.027956497448
 20
-1904.332816453332
 30
0.0
 11
2109.427956497449
 21
-1904.332816453332
 31
0.0
  0
ARC
  5
162AE
330
18
100
AcDbEntity
  8
01
100
AcDbCircle
 10
2109.427956497449
 20
-1905.132816453332
 30
0.0
 40
0.8
100
AcDbArc
 50
0.0
 51
90.0
  0
LINE
  5
162AF
330
18
100
AcDbEntity
  8
01
100
AcDbLine
 10
2109.727956497448
 20
-1939.516196604623
 30
0.0
 11
2109.727956497448
 21
-1939.274436302042
 31
0.0
  0
ARC
  5
162B0
330
18
100
AcDbEntity
  8
01
100
AcDbCircle
 10
2108.927956497448
 20
-1978.782816453332
 30
0.0
 40
0.8
100
AcDbArc
 50
270.0
 51
302.4617449672688
  0
LINE
  5
162B1
330
18
100
AcDbEntity
  8
01
100
AcDbLine
 10
1975.727956497448
 20
-1939.516196604623
 30
0.0
 11
1975.727956497448
 21
-1939.274436302042
 31
0.0
  0
ARC
  5
162B2
330
18
100
AcDbEntity
  8
01
100
AcDbCircle
 10
1976.027956497448
 20
-1905.132816453332
 30
0.0
 40
0.8
100
AcDbArc
 50
90.0
 51
180.0
  0
LINE
  5
162B3
330
18
100
AcDbEntity
  8
01
100
AcDbLine
 10
2109.427956497448
 20
-1939.332816453332
 30
0.0
 11
1976.027956497448
 21
-1939.332816453332
 31
0.0
  0
ARC
  5
162B4
330
18
100
AcDbEntity
  8
01
100
AcDbCircle
 10
2109.427956497448
 20
-1938.532816453332
 30
0.0
 40
0.8
100
AcDbArc
 50
270.0
 51
0.0
  0
CIRCLE
  5
162B7
330
18
100
AcDbEntity
  8
1PHANTOM
100
AcDbCircle
 10
1987.727956497448
 20
-1944.332816453332
 30
0.0
 40
2.25
  0
LINE
  5
162B8
330
18
100
AcDbEntity
  8
1CENTER
100
AcDbLine
 10
1983.227956497448
 20
-1944.332816453332
 30
0.0
 11
1992.227956497448
 21
-1944.332816453332
 31
0.0
  0
LINE
  5
162B9
330
18
100
AcDbEntity
  8
1CENTER
100
AcDbLine
 10
1987.727956497448
 20
-1948.832816453332
 30
0.0
 11
1987.727956497448
 21
-1939.832816453332
 31
0.0
  0
CIRCLE
  5
162BA
330
18
100
AcDbEntity
  8
1PHANTOM
100
AcDbCircle
 10
2097.727956497448
 20
-1944.332816453332
 30
0.0
 40
2.25
  0
LINE
  5
162BB
330
18
100
AcDbEntity
  8
1CENTER
100
AcDbLine
 10
2102.227956497448
 20
-1944.332816453332
 30
0.0
 11
2093.227956497448
 21
-1944.332816453332
 31
0.0
  0
LINE
  5
162BC
330
18
100
AcDbEntity
  8
1CENTER
100
AcDbLine
 10
2097.727956497448
 20
-1948.832816453332
 30
0.0
 11
2097.727956497448
 21
-1939.832816453332
 31
0.0
  0
LINE
  5
162C0
330
18
100
AcDbEntity
  8
01
  6
BYBLOCK
100
AcDbLine
 10
1975.227956497448
 20
-1938.532816453332
 30
0.0
 11
1975.227956497448
 21
-1905.132816453332
 31
0.0
  0
ARC
  5
162C1
330
18
100
AcDbEntity
  8
01
100
AcDbCircle
 10
1976.027956497448
 20
-1938.532816453332
 30
0.0
 40
0.8
100
AcDbArc
 50
180.0
 51
270.0
  0
LINE
  5
162C2
330
18
100
AcDbEntity
  8
01
  6
BYBLOCK
100
AcDbLine
 10
2110.227956497448
 20
-1938.532816453332
 30
0.0
 11
2110.227956497448
 21
-1905.132816453332
 31
0.0
  0
LINE
  5
162C3
330
18
100
AcDbEntity
  8
01
100
AcDbLine
 10
1975.227956497448
 20
-1978.657816453332
 30
0.0
 11
1975.227956497448
 21
-1940.257816453332
 31
0.0
  0
ARC
  5
162C4
330
18
100
AcDbEntity
  8
01
100
AcDbCircle
 10
1976.027956497448
 20
-1978.657816453332
 30
0.0
 40
0.8
100
AcDbArc
 50
180.0
 51
270.0
  0
LINE
  5
162C5
330
18
100
AcDbEntity
  8
01
100
AcDbLine
 10
1976.027956497448
 20
-1939.457816453332
 30
0.0
 11
2109.427956497448
 21
-1939.457816453332
 31
0.0
  0
ARC
  5
162C6
330
18
100
AcDbEntity
  8
01
100
AcDbCircle
 10
1976.027956497448
 20
-1940.257816453332
 30
0.0
 40
0.8
100
AcDbArc
 50
90.0
 51
180.0
  0
LINE
  5
162C7
330
18
100
AcDbEntity
  8
01
100
AcDbLine
 10
1976.027956497448
 20
-1979.457816453332
 30
0.0
 11
2109.427956497448
 21
-1979.457816453332
 31
0.0
  0
ARC
  5
162C8
330
18
100
AcDbEntity
  8
01
100
AcDbCircle
 10
2109.427956497448
 20
-1978.657816453332
 30
0.0
 40
0.8
100
AcDbArc
 50
270.0
 51
0.0
  0
LINE
  5
162C9
330
18
100
AcDbEntity
  8
01
100
AcDbLine
 10
2110.227956497448
 20
-1978.657816453332
 30
0.0
 11
2110.227956497448
 21
-1940.257816453332
 31
0.0
  0
ARC
  5
162CA
330
18
100
AcDbEntity
  8
01
100
AcDbCircle
 10
2109.427956497448
 20
-1940.257816453332
 30
0.0
 40
0.8
100
AcDbArc
 50
0.0
 51
90.0
  0
LINE
  5
1630A
330
18
100
AcDbEntity
  8
01
  6
BYBLOCK
100
AcDbLine
 10
2110.227956497448
 20
-1979.582816453332
 30
0.0
 11
2110.227956497448
 21
-1981.582816453332
 31
0.0
  0
LINE
  5
1630B
330
18
100
AcDbEntity
  8
01
  6
BYBLOCK
100
AcDbLine
 10
1975.227956497448
 20
-1979.582816453332
 30
0.0
 11
1975.227956497448
 21
-1981.582816453332
 31
0.0
  0
LINE
  5
16407
330
18
100
AcDbEntity
  8
01
100
AcDbLine
 10
1976.277956497448
 20
-1832.332816453332
 30
0.0
 11
2109.177956497448
 21
-1832.332816453332
 31
0.0
  0
LINE
  5
1640A
330
18
100
AcDbEntity
  8
01
100
AcDbLine
 10
1975.227956497448
 20
-1852.332816453333
 30
0.0
 11
2110.227956497448
 21
-1852.332816453332
 31
0.0
  0
LINE
  5
1640B
330
18
100
AcDbEntity
  8
01
100
AcDbLine
 10
1975.227956497448
 20
-1854.332816453332
 30
0.0
 11
2110.227956497448
 21
-1854.332816453332
 31
0.0
  0
LINE
  5
16417
330
18
100
AcDbEntity
  8
01
100
AcDbLine
 10
1975.227956497448
 20
-1854.332816453332
 30
0.0
 11
1975.227956497448
 21
-1852.332816453332
 31
0.0
  0
LINE
  5
16418
330
18
100
AcDbEntity
  8
01
100
AcDbLine
 10
2110.227956497448
 20
-1854.332816453332
 30
0.0
 11
2110.227956497448
 21
-1852.332816453332
 31
0.0
  0
LINE
  5
16422
330
18
100
AcDbEntity
  8
01
100
AcDbLine
 10
2164.846449048802
 20
-1904.332816453332
 30
0.0
 11
2166.846449048802
 21
-1904.332816453332
 31
0.0
  0
LINE
  5
16424
330
18
100
AcDbEntity
  8
01
100
AcDbLine
 10
2166.846449048802
 20
-1904.832816453332
 30
0.0
 11
2186.046449048802
 21
-1904.832816453332
 31
0.0
  0
LINE
  5
16427
330
18
100
AcDbEntity
  8
01
100
AcDbLine
 10
2164.846449048802
 20
-1939.332816453332
 30
0.0
 11
2166.846449048802
 21
-1939.332816453332
 31
0.0
  0
LINE
  5
16428
330
18
100
AcDbEntity
  8
01
100
AcDbLine
 10
2186.846449048802
 20
-1905.632816453332
 30
0.0
 11
2186.846449048802
 21
-1979.582816453332
 31
0.0
  0
ARC
  5
16429
330
18
100
AcDbEntity
  8
01
100
AcDbCircle
 10
2186.046449048802
 20
-1905.632816453332
 30
0.0
 40
0.8
100
AcDbArc
 50
0.0
 51
90.0
  0
LINE
  5
1642B
330
18
100
AcDbEntity
  8
01
100
AcDbLine
 10
2166.846449048802
 20
-1904.332816453332
 30
0.0
 11
2166.846449048802
 21
-1979.582816453332
 31
0.0
  0
LINE
  5
1642F
330
18
100
AcDbEntity
  8
01
100
AcDbLine
 10
2164.846449048802
 20
-1904.332816453332
 30
0.0
 11
2164.846449048802
 21
-1939.332816453332
 31
0.0
  0
LINE
  5
16431
330
18
100
AcDbEntity
  8
01
100
AcDbLine
 10
2164.846449048802
 20
-1979.582816453332
 30
0.0
 11
2186.846449048802
 21
-1979.582816453332
 31
0.0
  0
LINE
  5
16432
330
18
100
AcDbEntity
  8
01
100
AcDbLine
 10
2164.846449048802
 20
-1981.582816453332
 30
0.0
 11
2186.846449048802
 21
-1981.582816453332
 31
0.0
  0
LINE
  5
16435
330
18
100
AcDbEntity
  8
01
  6
BYBLOCK
100
AcDbLine
 10
2164.846449048802
 20
-1979.582816453332
 30
0.0
 11
2164.846449048802
 21
-1981.582816453332
 31
0.0
  0
LINE
  5
16436
330
18
100
AcDbEntity
  8
01
100
AcDbLine
 10
2186.846449048802
 20
-1979.582816453332
 30
0.0
 11
2186.846449048802
 21
-1981.582816453332
 31
0.0
  0
LINE
  5
1644F
330
18
100
AcDbEntity
  8
01
100
AcDbLine
 10
1975.477956497449
 20
-1851.532816453333
 30
0.0
 11
1975.477956497449
 21
-1833.132816453332
 31
0.0
  0
LINE
  5
16450
330
18
100
AcDbEntity
  8
01
100
AcDbLine
 10
2109.977956497448
 20
-1851.532816453332
 30
0.0
 11
2109.977956497448
 21
-1833.132816453332
 31
0.0
  0
ARC
  5
16451
330
18
100
AcDbEntity
  8
01
100
AcDbCircle
 10
2109.177956497448
 20
-1851.532816453332
 30
0.0
 40
0.8
100
AcDbArc
 50
270.0
 51
0.0
  0
ARC
  5
16452
330
18
100
AcDbEntity
  8
01
100
AcDbCircle
 10
2109.177956497448
 20
-1833.132816453332
 30
0.0
 40
0.8
100
AcDbArc
 50
0.0
 51
90.0
  0
ARC
  5
16453
330
18
100
AcDbEntity
  8
01
100
AcDbCircle
 10
1976.277956497448
 20
-1833.132816453332
 30
0.0
 40
0.8
100
AcDbArc
 50
90.0
 51
180.0
  0
ARC
  5
16454
330
18
100
AcDbEntity
  8
01
100
AcDbCircle
 10
1976.277956497448
 20
-1851.532816453333
 30
0.0
 40
0.8
100
AcDbArc
 50
179.9999999999992
 51
270.0
  0
LINE
  5
1645F
330
18
100
AcDbEntity
  8
01
  6
BYBLOCK
100
AcDbLine
 10
2164.846449048803
 20
-1939.457816453332
 30
0.0
 11
2166.846449048803
 21
-1939.457816453332
 31
0.0
  0
LINE
  5
16460
330
18
100
AcDbEntity
  8
01
  6
BYBLOCK
100
AcDbLine
 10
2164.846449048803
 20
-1939.457816453332
 30
0.0
 11
2164.846449048802
 21
-1979.457816453332
 31
0.0
  0
LINE
  5
164DF
330
18
100
AcDbEntity
  8
01
100
AcDbLine
 10
2201.846449048802
 20
-1891.563713742658
 30
0.0
 11
2201.846449048803
 21
-1997.101919164005
 31
0.0
  0
LINE
  5
164E0
330
18
100
AcDbEntity
  8
01
100
AcDbLine
 10
2186.846449048802
 20
-1891.563713742658
 30
0.0
 11
2186.846449048803
 21
-1997.101919164005
 31
0.0
  0
LINE
  5
16503
330
18
100
AcDbEntity
  8
1DIM
100
AcDbLine
 10
2145.293515597206
 20
-1841.032890411451
 30
0.0
 11
2215.293515597207
 21
-1841.032890411451
 31
0.0
  0
LINE
  5
16504
330
18
100
AcDbEntity
  8
1DIM
100
AcDbLine
 10
2145.293515597206
 20
-1834.032890411451
 30
0.0
 11
2215.293515597207
 21
-1834.032890411451
 31
0.0
  0
TEXT
  5
16505
330
18
100
AcDbEntity
  8
1TEXT
100
AcDbText
 10
2190.82684893054
 20
-1839.532890411451
 30
0.0
 40
4.0
  1
コード
 72
     1
 11
2197.693515597207
 21
-1839.532890411451
 31
0.0
100
AcDbText
  0
TEXT
  5
16506
330
18
100
AcDbEntity
  8
1TEXT
100
AcDbText
 10
2154.353515597207
 20
-1839.532890411451
 30
0.0
 40
4.0
  1
表面処理
 41
0.9
 72
     1
 11
2162.693515597207
 21
-1839.532890411451
 31
0.0
100
AcDbText
  0
LINE
  5
16507
330
18
100
AcDbEntity
  8
1DIM
100
AcDbLine
 10
2145.293515597207
 20
-1848.032890411451
 30
0.0
 11
2215.293515597207
 21
-1848.032890411451
 31
0.0
  0
TEXT
  5
16508
330
18
100
AcDbEntity
  8
1TEXT
100
AcDbText
 10
2156.842499581353
 20
-1846.7472473951
 30
0.0
 40
4.0
  1
ヘアライン
 41
0.6
 72
     1
 11
2163.762499581353
 21
-1846.7472473951
 31
0.0
100
AcDbText
  0
LINE
  5
16509
330
18
100
AcDbEntity
  8
1DIM
100
AcDbLine
 10
2145.293515597207
 20
-1834.032890411451
 30
0.0
 11
2145.293515597207
 21
-1848.032890411451
 31
0.0
  0
LINE
  5
1650A
330
18
100
AcDbEntity
  8
1DIM
100
AcDbLine
 10
2180.293515597207
 20
-1834.032890411451
 30
0.0
 11
2180.293515597207
 21
-1848.032890411451
 31
0.0
  0
LINE
  5
1650B
330
18
100
AcDbEntity
  8
1DIM
100
AcDbLine
 10
2215.293515597207
 20
-1834.032890411451
 30
0.0
 11
2215.293515597207
 21
-1848.032890411451
 31
0.0
  0
TEXT
  5
1650C
330
18
100
AcDbEntity
  8
1TEXT
100
AcDbText
 10
2185.346293374986
 20
-1846.7472473951
 30
0.0
 40
4.0
  1
GP071XT
 72
     1
 11
2197.693515597208
 21
-1846.7472473951
 31
0.0
100
AcDbText
  0
TEXT
  5
1650D
330
18
100
AcDbEntity
  8
1TEXT
100
AcDbText
 10
2144.092226114147
 20
-1825.032890411451
 30
0.0
 40
8.0
  1
GP071
100
AcDbText
  0
LINE
  5
16674
102
{ACAD_REACTORS
330
166B7
102
}
330
18
100
AcDbEntity
  8
1PHANTOM
100
AcDbLine
 10
2216.04644904864
 20
-1944.33286298923
 30
0.0
 11
2210.746452538778
 21
-1942.83286298923
 31
0.0
  0
LINE
  5
16675
102
{ACAD_REACTORS
330
166B7
102
}
330
18
100
AcDbEntity
  8
1PHANTOM
100
AcDbLine
 10
2210.746452538778
 20
-1942.83286298923
 30
0.0
 11
2186.046452538886
 21
-1942.83286298923
 31
0.0
  0
LINE
  5
16676
102
{ACAD_REACTORS
330
166B7
102
}
330
18
100
AcDbEntity
  8
1PHANTOM
100
AcDbLine
 10
2216.04644904864
 20
-1944.33286298923
 30
0.0
 11
2210.746445558394
 21
-1945.83286298923
 31
0.0
  0
LINE
  5
16677
102
{ACAD_REACTORS
330
166B7
102
}
330
18
100
AcDbEntity
  8
1PHANTOM
100
AcDbLine
 10
2186.046457192585
 20
-1940.832816453332
 30
0.0
 11
2186.046452538886
 21
-1942.83286298923
 31
0.0
  0
LINE
  5
16678
102
{ACAD_REACTORS
330
166B7
102
}
330
18
100
AcDbEntity
  8
1PHANTOM
100
AcDbLine
 10
2210.746445558394
 20
-1945.83286298923
 30
0.0
 11
2186.046445558502
 21
-1945.832862989229
 31
0.0
  0
LINE
  5
16679
102
{ACAD_REACTORS
330
166B7
102
}
330
18
100
AcDbEntity
  8
1PHANTOM
100
AcDbLine
 10
2186.046457192585
 20
-1940.832816453332
 30
0.0
 11
2184.946453702389
 21
-1940.832816453332
 31
0.0
  0
LINE
  5
1667A
102
{ACAD_REACTORS
330
166B7
102
}
330
18
100
AcDbEntity
  8
1PHANTOM
100
AcDbLine
 10
2186.046445558502
 20
-1945.832862989229
 30
0.0
 11
2186.04644090502
 21
-1947.832816453332
 31
0.0
  0
ARC
  5
1667B
102
{ACAD_REACTORS
330
166B7
102
}
330
18
100
AcDbEntity
  8
1PHANTOM
100
AcDbCircle
 10
2184.946453702389
 20
-1942.332816453332
 30
0.0
 40
1.5
100
AcDbArc
 50
90.0
 51
179.9998666844664
  0
LINE
  5
1667C
102
{ACAD_REACTORS
330
166B7
102
}
330
18
100
AcDbEntity
  8
1PHANTOM
100
AcDbLine
 10
2186.04644090502
 20
-1947.832816453332
 30
0.0
 11
2184.946444395209
 21
-1947.832816453332
 31
0.0
  0
LINE
  5
1667D
102
{ACAD_REACTORS
330
166B7
102
}
330
18
100
AcDbEntity
  8
1PHANTOM
100
AcDbLine
 10
2183.446453702393
 20
-1942.332812963139
 30
0.0
 11
2183.446444395213
 21
-1946.332812963139
 31
0.0
  0
ARC
  5
1667E
102
{ACAD_REACTORS
330
166B7
102
}
330
18
100
AcDbEntity
  8
1PHANTOM
100
AcDbCircle
 10
2184.946444395209
 20
-1946.332816453332
 30
0.0
 40
1.5
100
AcDbArc
 50
179.9998666844664
 51
270.0
  0
LINE
  5
1667F
102
{ACAD_REACTORS
330
166B7
102
}
330
18
100
AcDbEntity
  8
1PHANTOM
100
AcDbLine
 10
2219.007363639948
 20
-1944.332816453332
 30
0.0
 11
2182.376172639493
 21
-1944.332816453332
 31
0.0
  0
LINE
  5
16680
102
{ACAD_REACTORS
330
166B7
102
}
330
18
100
AcDbEntity
  8
1PHANTOM
100
AcDbLine
 10
2213.946451594962
 20
-1943.238492639337
 30
0.0
 11
2214.746447029013
 21
-1945.200827728212
 31
0.0
  0
LINE
  5
16681
102
{ACAD_REACTORS
330
166B7
102
}
330
18
100
AcDbEntity
  8
1PHANTOM
100
AcDbLine
 10
2214.746447029013
 20
-1945.200827728212
 30
0.0
 11
2215.058216885265
 21
-1944.61255115317
 31
0.0
  0
LINE
  5
16682
102
{ACAD_REACTORS
330
166B7
102
}
330
18
100
AcDbEntity
  8
1PHANTOM
100
AcDbLine
 10
2191.546453702172
 20
-1942.33286298923
 30
0.0
 11
2192.34644439499
 21
-1946.33286298923
 31
0.0
  0
LINE
  5
16683
102
{ACAD_REACTORS
330
166B7
102
}
330
18
100
AcDbEntity
  8
1PHANTOM
100
AcDbLine
 10
2202.746453702176
 20
-1942.33286298923
 30
0.0
 11
2203.546444394999
 21
-1946.33286298923
 31
0.0
  0
LINE
  5
16684
102
{ACAD_REACTORS
330
166B7
102
}
330
18
100
AcDbEntity
  8
1PHANTOM
100
AcDbLine
 10
2205.946453702176
 20
-1942.33286298923
 30
0.0
 11
2206.746444394999
 21
-1946.33286298923
 31
0.0
  0
LINE
  5
16685
102
{ACAD_REACTORS
330
166B7
102
}
330
18
100
AcDbEntity
  8
1PHANTOM
100
AcDbLine
 10
2206.746444394999
 20
-1946.33286298923
 30
0.0
 11
2206.846445558396
 21
-1945.83286298923
 31
0.0
  0
LINE
  5
16686
102
{ACAD_REACTORS
330
166B7
102
}
330
18
100
AcDbEntity
  8
1PHANTOM
100
AcDbLine
 10
2207.446452538779
 20
-1942.83286298923
 30
0.0
 11
2207.546453702176
 21
-1942.33286298923
 31
0.0
  0
LINE
  5
16687
102
{ACAD_REACTORS
330
166B7
102
}
330
18
100
AcDbEntity
  8
1PHANTOM
100
AcDbLine
 10
2203.546444394999
 20
-1946.33286298923
 30
0.0
 11
2203.646445558396
 21
-1945.83286298923
 31
0.0
  0
LINE
  5
16688
102
{ACAD_REACTORS
330
166B7
102
}
330
18
100
AcDbEntity
  8
1PHANTOM
100
AcDbLine
 10
2205.146444394999
 20
-1946.33286298923
 30
0.0
 11
2205.246445558396
 21
-1945.83286298923
 31
0.0
  0
LINE
  5
16689
102
{ACAD_REACTORS
330
166B7
102
}
330
18
100
AcDbEntity
  8
1PHANTOM
100
AcDbLine
 10
2205.846452538779
 20
-1942.83286298923
 30
0.0
 11
2205.946453702176
 21
-1942.33286298923
 31
0.0
  0
LINE
  5
1668A
102
{ACAD_REACTORS
330
166B7
102
}
330
18
100
AcDbEntity
  8
1PHANTOM
100
AcDbLine
 10
2204.246452538779
 20
-1942.83286298923
 30
0.0
 11
2204.346453702176
 21
-1942.33286298923
 31
0.0
  0
LINE
  5
1668B
102
{ACAD_REACTORS
330
166B7
102
}
330
18
100
AcDbEntity
  8
1PHANTOM
100
AcDbLine
 10
2204.346453702176
 20
-1942.33286298923
 30
0.0
 11
2205.146444394999
 21
-1946.33286298923
 31
0.0
  0
LINE
  5
1668C
102
{ACAD_REACTORS
330
166B7
102
}
330
18
100
AcDbEntity
  8
1PHANTOM
100
AcDbLine
 10
2213.146445975407
 20
-1945.653641832619
 30
0.0
 11
2213.329210118035
 21
-1945.101892368815
 31
0.0
  0
LINE
  5
1668D
102
{ACAD_REACTORS
330
166B7
102
}
330
18
100
AcDbEntity
  8
1PHANTOM
100
AcDbLine
 10
2209.946444394999
 20
-1946.33286298923
 30
0.0
 11
2210.046445558396
 21
-1945.83286298923
 31
0.0
  0
LINE
  5
1668E
102
{ACAD_REACTORS
330
166B7
102
}
330
18
100
AcDbEntity
  8
1PHANTOM
100
AcDbLine
 10
2208.346444394999
 20
-1946.33286298923
 30
0.0
 11
2208.446445558396
 21
-1945.83286298923
 31
0.0
  0
LINE
  5
1668F
102
{ACAD_REACTORS
330
166B7
102
}
330
18
100
AcDbEntity
  8
1PHANTOM
100
AcDbLine
 10
2211.546444921802
 20
-1946.106455937026
 30
0.0
 11
2211.675715619431
 21
-1945.569862201754
 31
0.0
  0
LINE
  5
16690
102
{ACAD_REACTORS
330
166B7
102
}
330
18
100
AcDbEntity
  8
1PHANTOM
100
AcDbLine
 10
2212.233683136216
 20
-1943.253777586438
 30
0.0
 11
2212.346452648566
 21
-1942.785679131288
 31
0.0
  0
LINE
  5
16691
102
{ACAD_REACTORS
330
166B7
102
}
330
18
100
AcDbEntity
  8
1PHANTOM
100
AcDbLine
 10
2209.046452538779
 20
-1942.83286298923
 30
0.0
 11
2209.146453702176
 21
-1942.33286298923
 31
0.0
  0
LINE
  5
16692
102
{ACAD_REACTORS
330
166B7
102
}
330
18
100
AcDbEntity
  8
1PHANTOM
100
AcDbLine
 10
2210.646452538779
 20
-1942.83286298923
 30
0.0
 11
2210.746453702176
 21
-1942.33286298923
 31
0.0
  0
LINE
  5
16693
102
{ACAD_REACTORS
330
166B7
102
}
330
18
100
AcDbEntity
  8
1PHANTOM
100
AcDbLine
 10
2213.795015798521
 20
-1943.695664479968
 30
0.0
 11
2213.946451594962
 21
-1943.238492639337
 31
0.0
  0
LINE
  5
16694
102
{ACAD_REACTORS
330
166B7
102
}
330
18
100
AcDbEntity
  8
1PHANTOM
100
AcDbLine
 10
2212.346452648566
 20
-1942.785679131288
 30
0.0
 11
2213.146445975407
 21
-1945.653641832619
 31
0.0
  0
LINE
  5
16695
102
{ACAD_REACTORS
330
166B7
102
}
330
18
100
AcDbEntity
  8
1PHANTOM
100
AcDbLine
 10
2209.146453702176
 20
-1942.33286298923
 30
0.0
 11
2209.946444394999
 21
-1946.33286298923
 31
0.0
  0
LINE
  5
16696
102
{ACAD_REACTORS
330
166B7
102
}
330
18
100
AcDbEntity
  8
1PHANTOM
100
AcDbLine
 10
2210.746453702176
 20
-1942.33286298923
 30
0.0
 11
2211.546444921802
 21
-1946.106455937026
 31
0.0
  0
LINE
  5
16697
102
{ACAD_REACTORS
330
166B7
102
}
330
18
100
AcDbEntity
  8
1PHANTOM
100
AcDbLine
 10
2207.546453702176
 20
-1942.33286298923
 30
0.0
 11
2208.346444394999
 21
-1946.33286298923
 31
0.0
  0
LINE
  5
16698
102
{ACAD_REACTORS
330
166B7
102
}
330
18
100
AcDbEntity
  8
1PHANTOM
100
AcDbLine
 10
2194.746453702172
 20
-1942.33286298923
 30
0.0
 11
2195.54644439499
 21
-1946.33286298923
 31
0.0
  0
LINE
  5
16699
102
{ACAD_REACTORS
330
166B7
102
}
330
18
100
AcDbEntity
  8
1PHANTOM
100
AcDbLine
 10
2195.54644439499
 20
-1946.33286298923
 30
0.0
 11
2195.646445558388
 21
-1945.83286298923
 31
0.0
  0
LINE
  5
1669A
102
{ACAD_REACTORS
330
166B7
102
}
330
18
100
AcDbEntity
  8
1PHANTOM
100
AcDbLine
 10
2196.246452538779
 20
-1942.83286298923
 30
0.0
 11
2196.346453702176
 21
-1942.33286298923
 31
0.0
  0
LINE
  5
1669B
102
{ACAD_REACTORS
330
166B7
102
}
330
18
100
AcDbEntity
  8
1PHANTOM
100
AcDbLine
 10
2193.94644439499
 20
-1946.33286298923
 30
0.0
 11
2194.046445558387
 21
-1945.83286298923
 31
0.0
  0
LINE
  5
1669C
102
{ACAD_REACTORS
330
166B7
102
}
330
18
100
AcDbEntity
  8
1PHANTOM
100
AcDbLine
 10
2192.34644439499
 20
-1946.33286298923
 30
0.0
 11
2192.446445558388
 21
-1945.83286298923
 31
0.0
  0
LINE
  5
1669D
102
{ACAD_REACTORS
330
166B7
102
}
330
18
100
AcDbEntity
  8
1PHANTOM
100
AcDbLine
 10
2194.646452538774
 20
-1942.83286298923
 30
0.0
 11
2194.746453702172
 21
-1942.33286298923
 31
0.0
  0
LINE
  5
1669E
102
{ACAD_REACTORS
330
166B7
102
}
330
18
100
AcDbEntity
  8
1PHANTOM
100
AcDbLine
 10
2193.046452538774
 20
-1942.83286298923
 30
0.0
 11
2193.146453702172
 21
-1942.33286298923
 31
0.0
  0
LINE
  5
1669F
102
{ACAD_REACTORS
330
166B7
102
}
330
18
100
AcDbEntity
  8
1PHANTOM
100
AcDbLine
 10
2193.146453702172
 20
-1942.33286298923
 30
0.0
 11
2193.94644439499
 21
-1946.33286298923
 31
0.0
  0
LINE
  5
166A0
102
{ACAD_REACTORS
330
166B7
102
}
330
18
100
AcDbEntity
  8
1PHANTOM
100
AcDbLine
 10
2200.346444394995
 20
-1946.33286298923
 30
0.0
 11
2200.446445558392
 21
-1945.83286298923
 31
0.0
  0
LINE
  5
166A1
102
{ACAD_REACTORS
330
166B7
102
}
330
18
100
AcDbEntity
  8
1PHANTOM
100
AcDbLine
 10
2201.946444394999
 20
-1946.33286298923
 30
0.0
 11
2202.046445558396
 21
-1945.83286298923
 31
0.0
  0
LINE
  5
166A2
102
{ACAD_REACTORS
330
166B7
102
}
330
18
100
AcDbEntity
  8
1PHANTOM
100
AcDbLine
 10
2197.146444394994
 20
-1946.33286298923
 30
0.0
 11
2197.246445558392
 21
-1945.83286298923
 31
0.0
  0
LINE
  5
166A3
102
{ACAD_REACTORS
330
166B7
102
}
330
18
100
AcDbEntity
  8
1PHANTOM
100
AcDbLine
 10
2198.746444394994
 20
-1946.33286298923
 30
0.0
 11
2198.846445558392
 21
-1945.83286298923
 31
0.0
  0
LINE
  5
166A4
102
{ACAD_REACTORS
330
166B7
102
}
330
18
100
AcDbEntity
  8
1PHANTOM
100
AcDbLine
 10
2202.646452538779
 20
-1942.83286298923
 30
0.0
 11
2202.746453702176
 21
-1942.33286298923
 31
0.0
  0
LINE
  5
166A5
102
{ACAD_REACTORS
330
166B7
102
}
330
18
100
AcDbEntity
  8
1PHANTOM
100
AcDbLine
 10
2201.046452538778
 20
-1942.83286298923
 30
0.0
 11
2201.146453702176
 21
-1942.33286298923
 31
0.0
  0
LINE
  5
166A6
102
{ACAD_REACTORS
330
166B7
102
}
330
18
100
AcDbEntity
  8
1PHANTOM
100
AcDbLine
 10
2197.846452538779
 20
-1942.83286298923
 30
0.0
 11
2197.946453702176
 21
-1942.33286298923
 31
0.0
  0
LINE
  5
166A7
102
{ACAD_REACTORS
330
166B7
102
}
330
18
100
AcDbEntity
  8
1PHANTOM
100
AcDbLine
 10
2199.446452538779
 20
-1942.83286298923
 30
0.0
 11
2199.546453702176
 21
-1942.33286298923
 31
0.0
  0
LINE
  5
166A8
102
{ACAD_REACTORS
330
166B7
102
}
330
18
100
AcDbEntity
  8
1PHANTOM
100
AcDbLine
 10
2199.546453702176
 20
-1942.33286298923
 30
0.0
 11
2200.346444394995
 21
-1946.33286298923
 31
0.0
  0
LINE
  5
166A9
102
{ACAD_REACTORS
330
166B7
102
}
330
18
100
AcDbEntity
  8
1PHANTOM
100
AcDbLine
 10
2201.146453702176
 20
-1942.33286298923
 30
0.0
 11
2201.946444394999
 21
-1946.33286298923
 31
0.0
  0
LINE
  5
166AA
102
{ACAD_REACTORS
330
166B7
102
}
330
18
100
AcDbEntity
  8
1PHANTOM
100
AcDbLine
 10
2197.946453702176
 20
-1942.33286298923
 30
0.0
 11
2198.746444394994
 21
-1946.33286298923
 31
0.0
  0
LINE
  5
166AB
102
{ACAD_REACTORS
330
166B7
102
}
330
18
100
AcDbEntity
  8
1PHANTOM
100
AcDbLine
 10
2196.346453702176
 20
-1942.33286298923
 30
0.0
 11
2197.146444394994
 21
-1946.33286298923
 31
0.0
  0
LINE
  5
166AC
102
{ACAD_REACTORS
330
166B7
102
}
330
18
100
AcDbEntity
  8
1PHANTOM
100
AcDbLine
 10
2186.046445558502
 20
-1945.832862989229
 30
0.0
 11
2186.046452538886
 21
-1942.83286298923
 31
0.0
  0
LINE
  5
166AD
102
{ACAD_REACTORS
330
166B7
102
}
330
18
100
AcDbEntity
  8
1PHANTOM
100
AcDbLine
 10
2186.64645253877
 20
-1942.832862989229
 30
0.0
 11
2186.746453702167
 21
-1942.332862989229
 31
0.0
  0
LINE
  5
166AE
102
{ACAD_REACTORS
330
166B7
102
}
330
18
100
AcDbEntity
  8
1PHANTOM
100
AcDbLine
 10
2186.746453702167
 20
-1942.332862989229
 30
0.0
 11
2187.546444394986
 21
-1946.332862989229
 31
0.0
  0
LINE
  5
166AF
102
{ACAD_REACTORS
330
166B7
102
}
330
18
100
AcDbEntity
  8
1PHANTOM
100
AcDbLine
 10
2187.546444394986
 20
-1946.332862989229
 30
0.0
 11
2187.646445558384
 21
-1945.83286298923
 31
0.0
  0
LINE
  5
166B0
102
{ACAD_REACTORS
330
166B7
102
}
330
18
100
AcDbEntity
  8
1PHANTOM
100
AcDbLine
 10
2188.24645253877
 20
-1942.83286298923
 30
0.0
 11
2188.346453702168
 21
-1942.33286298923
 31
0.0
  0
LINE
  5
166B1
102
{ACAD_REACTORS
330
166B7
102
}
330
18
100
AcDbEntity
  8
1PHANTOM
100
AcDbLine
 10
2189.84645253877
 20
-1942.83286298923
 30
0.0
 11
2189.946453702167
 21
-1942.33286298923
 31
0.0
  0
LINE
  5
166B2
102
{ACAD_REACTORS
330
166B7
102
}
330
18
100
AcDbEntity
  8
1PHANTOM
100
AcDbLine
 10
2189.946453702167
 20
-1942.33286298923
 30
0.0
 11
2190.746444394986
 21
-1946.33286298923
 31
0.0
  0
LINE
  5
166B3
102
{ACAD_REACTORS
330
166B7
102
}
330
18
100
AcDbEntity
  8
1PHANTOM
100
AcDbLine
 10
2189.146444394986
 20
-1946.33286298923
 30
0.0
 11
2189.246445558384
 21
-1945.83286298923
 31
0.0
  0
LINE
  5
166B4
102
{ACAD_REACTORS
330
166B7
102
}
330
18
100
AcDbEntity
  8
1PHANTOM
100
AcDbLine
 10
2190.746444394986
 20
-1946.33286298923
 30
0.0
 11
2190.846445558383
 21
-1945.83286298923
 31
0.0
  0
LINE
  5
166B5
102
{ACAD_REACTORS
330
166B7
102
}
330
18
100
AcDbEntity
  8
1PHANTOM
100
AcDbLine
 10
2188.346453702168
 20
-1942.33286298923
 30
0.0
 11
2189.146444394986
 21
-1946.33286298923
 31
0.0
  0
LINE
  5
166B6
102
{ACAD_REACTORS
330
166B7
102
}
330
18
100
AcDbEntity
  8
1PHANTOM
100
AcDbLine
 10
2191.446452538774
 20
-1942.83286298923
 30
0.0
 11
2191.546453702172
 21
-1942.33286298923
 31
0.0
  0
LINE
  5
166B8
330
18
100
AcDbEntity
  8
1PHANTOM
100
AcDbLine
 10
1987.728003033346
 20
-1803.132824597277
 30
0.0
 11
1986.228003033346
 21
-1808.432821107139
 31
0.0
  0
LINE
  5
166B9
330
18
100
AcDbEntity
  8
1PHANTOM
100
AcDbLine
 10
1986.228003033346
 20
-1808.432821107139
 30
0.0
 11
1986.228003033347
 21
-1832.332816453332
 31
0.0
  0
LINE
  5
166BA
330
18
100
AcDbEntity
  8
1PHANTOM
100
AcDbLine
 10
1987.728003033346
 20
-1803.132824597277
 30
0.0
 11
1989.228003033346
 21
-1808.432828087522
 31
0.0
  0
LINE
  5
166BC
330
18
100
AcDbEntity
  8
1PHANTOM
100
AcDbLine
 10
1989.228003033346
 20
-1808.432828087522
 30
0.0
 11
1989.228003033346
 21
-1832.332816453332
 31
0.0
  0
LINE
  5
166C3
330
18
100
AcDbEntity
  8
1PHANTOM
100
AcDbLine
 10
1987.727956497448
 20
-1800.171910005969
 30
0.0
 11
1987.727956497449
 21
-1832.332816453332
 31
0.0
  0
LINE
  5
166C4
330
18
100
AcDbEntity
  8
1PHANTOM
100
AcDbLine
 10
1986.633632683453
 20
-1805.232822050955
 30
0.0
 11
1988.595967772329
 21
-1804.432826616904
 31
0.0
  0
LINE
  5
166C5
330
18
100
AcDbEntity
  8
1PHANTOM
100
AcDbLine
 10
1988.595967772329
 20
-1804.432826616904
 30
0.0
 11
1988.007691197286
 21
-1804.121056760652
 31
0.0
  0
LINE
  5
166C6
330
18
100
AcDbEntity
  8
1PHANTOM
100
AcDbLine
 10
1985.728003033346
 20
-1827.632819943745
 30
0.0
 11
1989.728003033346
 21
-1826.832829250927
 31
0.0
  0
LINE
  5
166C7
330
18
100
AcDbEntity
  8
1PHANTOM
100
AcDbLine
 10
1985.728003033346
 20
-1816.43281994374
 30
0.0
 11
1989.728003033346
 21
-1815.632829250918
 31
0.0
  0
LINE
  5
166C8
330
18
100
AcDbEntity
  8
1PHANTOM
100
AcDbLine
 10
1985.728003033346
 20
-1813.23281994374
 30
0.0
 11
1989.728003033346
 21
-1812.432829250918
 31
0.0
  0
LINE
  5
166C9
330
18
100
AcDbEntity
  8
1PHANTOM
100
AcDbLine
 10
1989.728003033346
 20
-1812.432829250918
 30
0.0
 11
1989.228003033346
 21
-1812.332828087521
 31
0.0
  0
LINE
  5
166CA
330
18
100
AcDbEntity
  8
1PHANTOM
100
AcDbLine
 10
1986.228003033346
 20
-1811.732821107138
 30
0.0
 11
1985.728003033346
 21
-1811.632819943741
 31
0.0
  0
LINE
  5
166CB
330
18
100
AcDbEntity
  8
1PHANTOM
100
AcDbLine
 10
1989.728003033346
 20
-1815.632829250918
 30
0.0
 11
1989.228003033346
 21
-1815.532828087521
 31
0.0
  0
LINE
  5
166CC
330
18
100
AcDbEntity
  8
1PHANTOM
100
AcDbLine
 10
1989.728003033346
 20
-1814.032829250918
 30
0.0
 11
1989.228003033346
 21
-1813.93282808752
 31
0.0
  0
LINE
  5
166CD
330
18
100
AcDbEntity
  8
1PHANTOM
100
AcDbLine
 10
1986.228003033346
 20
-1813.332821107137
 30
0.0
 11
1985.728003033346
 21
-1813.23281994374
 31
0.0
  0
LINE
  5
166CE
330
18
100
AcDbEntity
  8
1PHANTOM
100
AcDbLine
 10
1986.228003033346
 20
-1814.932821107138
 30
0.0
 11
1985.728003033346
 21
-1814.83281994374
 31
0.0
  0
LINE
  5
166CF
330
18
100
AcDbEntity
  8
1PHANTOM
100
AcDbLine
 10
1985.728003033346
 20
-1814.83281994374
 30
0.0
 11
1989.728003033346
 21
-1814.032829250918
 31
0.0
  0
LINE
  5
166D0
330
18
100
AcDbEntity
  8
1PHANTOM
100
AcDbLine
 10
1989.048781876736
 20
-1806.032827670509
 30
0.0
 11
1988.497032412932
 21
-1805.850063527881
 31
0.0
  0
LINE
  5
166D1
330
18
100
AcDbEntity
  8
1PHANTOM
100
AcDbLine
 10
1989.728003033346
 20
-1809.232829250918
 30
0.0
 11
1989.228003033346
 21
-1809.132828087521
 31
0.0
  0
LINE
  5
166D2
330
18
100
AcDbEntity
  8
1PHANTOM
100
AcDbLine
 10
1989.728003033346
 20
-1810.832829250918
 30
0.0
 11
1989.228003033346
 21
-1810.732828087521
 31
0.0
  0
LINE
  5
166D3
330
18
100
AcDbEntity
  8
1PHANTOM
100
AcDbLine
 10
1989.501595981142
 20
-1807.632828724115
 30
0.0
 11
1988.965002245871
 21
-1807.503558026486
 31
0.0
  0
LINE
  5
166D4
330
18
100
AcDbEntity
  8
1PHANTOM
100
AcDbLine
 10
1986.648917630554
 20
-1806.945590509701
 30
0.0
 11
1986.180819175405
 21
-1806.83282099735
 31
0.0
  0
LINE
  5
166D5
330
18
100
AcDbEntity
  8
1PHANTOM
100
AcDbLine
 10
1986.228003033346
 20
-1810.132821107137
 30
0.0
 11
1985.728003033346
 21
-1810.032819943741
 31
0.0
  0
LINE
  5
166D6
330
18
100
AcDbEntity
  8
1PHANTOM
100
AcDbLine
 10
1986.228003033346
 20
-1808.532821107138
 30
0.0
 11
1985.728003033346
 21
-1808.43281994374
 31
0.0
  0
LINE
  5
166D7
330
18
100
AcDbEntity
  8
1PHANTOM
100
AcDbLine
 10
1987.090804524084
 20
-1805.384257847395
 30
0.0
 11
1986.633632683453
 21
-1805.232822050955
 31
0.0
  0
LINE
  5
166D8
330
18
100
AcDbEntity
  8
1PHANTOM
100
AcDbLine
 10
1986.180819175405
 20
-1806.83282099735
 30
0.0
 11
1989.048781876736
 21
-1806.032827670509
 31
0.0
  0
LINE
  5
166D9
330
18
100
AcDbEntity
  8
1PHANTOM
100
AcDbLine
 10
1985.728003033346
 20
-1810.032819943741
 30
0.0
 11
1989.728003033346
 21
-1809.232829250918
 31
0.0
  0
LINE
  5
166DA
330
18
100
AcDbEntity
  8
1PHANTOM
100
AcDbLine
 10
1985.728003033346
 20
-1808.43281994374
 30
0.0
 11
1989.501595981142
 21
-1807.632828724115
 31
0.0
  0
LINE
  5
166DB
330
18
100
AcDbEntity
  8
1PHANTOM
100
AcDbLine
 10
1985.728003033346
 20
-1811.632819943741
 30
0.0
 11
1989.728003033346
 21
-1810.832829250918
 31
0.0
  0
LINE
  5
166DC
330
18
100
AcDbEntity
  8
1PHANTOM
100
AcDbLine
 10
1985.728003033346
 20
-1824.432819943745
 30
0.0
 11
1989.728003033346
 21
-1823.632829250927
 31
0.0
  0
LINE
  5
166DD
330
18
100
AcDbEntity
  8
1PHANTOM
100
AcDbLine
 10
1989.728003033346
 20
-1823.632829250927
 30
0.0
 11
1989.228003033346
 21
-1823.532828087529
 31
0.0
  0
LINE
  5
166DE
330
18
100
AcDbEntity
  8
1PHANTOM
100
AcDbLine
 10
1986.228003033346
 20
-1822.932821107138
 30
0.0
 11
1985.728003033346
 21
-1822.832819943741
 31
0.0
  0
LINE
  5
166DF
330
18
100
AcDbEntity
  8
1PHANTOM
100
AcDbLine
 10
1989.728003033346
 20
-1825.232829250927
 30
0.0
 11
1989.228003033346
 21
-1825.132828087529
 31
0.0
  0
LINE
  5
166E0
330
18
100
AcDbEntity
  8
1PHANTOM
100
AcDbLine
 10
1989.728003033346
 20
-1826.832829250927
 30
0.0
 11
1989.228003033346
 21
-1826.732828087529
 31
0.0
  0
LINE
  5
166E1
330
18
100
AcDbEntity
  8
1PHANTOM
100
AcDbLine
 10
1986.228003033346
 20
-1824.532821107143
 30
0.0
 11
1985.728003033346
 21
-1824.432819943745
 31
0.0
  0
LINE
  5
166E2
330
18
100
AcDbEntity
  8
1PHANTOM
100
AcDbLine
 10
1986.228003033346
 20
-1826.132821107143
 30
0.0
 11
1985.728003033346
 21
-1826.032819943745
 31
0.0
  0
LINE
  5
166E3
330
18
100
AcDbEntity
  8
1PHANTOM
100
AcDbLine
 10
1985.728003033346
 20
-1826.032819943745
 30
0.0
 11
1989.728003033346
 21
-1825.232829250927
 31
0.0
  0
LINE
  5
166E4
330
18
100
AcDbEntity
  8
1PHANTOM
100
AcDbLine
 10
1989.728003033346
 20
-1818.832829250922
 30
0.0
 11
1989.228003033346
 21
-1818.732828087524
 31
0.0
  0
LINE
  5
166E5
330
18
100
AcDbEntity
  8
1PHANTOM
100
AcDbLine
 10
1989.728003033346
 20
-1817.232829250918
 30
0.0
 11
1989.228003033346
 21
-1817.132828087521
 31
0.0
  0
LINE
  5
166E6
330
18
100
AcDbEntity
  8
1PHANTOM
100
AcDbLine
 10
1989.728003033346
 20
-1822.032829250922
 30
0.0
 11
1989.228003033346
 21
-1821.932828087525
 31
0.0
  0
LINE
  5
166E7
330
18
100
AcDbEntity
  8
1PHANTOM
100
AcDbLine
 10
1989.728003033346
 20
-1820.432829250922
 30
0.0
 11
1989.228003033346
 21
-1820.332828087525
 31
0.0
  0
LINE
  5
166E8
330
18
100
AcDbEntity
  8
1PHANTOM
100
AcDbLine
 10
1986.228003033346
 20
-1816.532821107138
 30
0.0
 11
1985.728003033346
 21
-1816.43281994374
 31
0.0
  0
LINE
  5
166E9
330
18
100
AcDbEntity
  8
1PHANTOM
100
AcDbLine
 10
1986.228003033346
 20
-1818.132821107138
 30
0.0
 11
1985.728003033346
 21
-1818.032819943741
 31
0.0
  0
LINE
  5
166EA
330
18
100
AcDbEntity
  8
1PHANTOM
100
AcDbLine
 10
1986.228003033346
 20
-1821.332821107138
 30
0.0
 11
1985.728003033346
 21
-1821.23281994374
 31
0.0
  0
LINE
  5
166EB
330
18
100
AcDbEntity
  8
1PHANTOM
100
AcDbLine
 10
1986.228003033346
 20
-1819.732821107138
 30
0.0
 11
1985.728003033346
 21
-1819.632819943741
 31
0.0
  0
LINE
  5
166EC
330
18
100
AcDbEntity
  8
1PHANTOM
100
AcDbLine
 10
1985.728003033346
 20
-1819.632819943741
 30
0.0
 11
1989.728003033346
 21
-1818.832829250922
 31
0.0
  0
LINE
  5
166ED
330
18
100
AcDbEntity
  8
1PHANTOM
100
AcDbLine
 10
1985.728003033346
 20
-1818.032819943741
 30
0.0
 11
1989.728003033346
 21
-1817.232829250918
 31
0.0
  0
LINE
  5
166EE
330
18
100
AcDbEntity
  8
1PHANTOM
100
AcDbLine
 10
1985.728003033346
 20
-1821.23281994374
 30
0.0
 11
1989.728003033346
 21
-1820.432829250922
 31
0.0
  0
LINE
  5
166EF
330
18
100
AcDbEntity
  8
1PHANTOM
100
AcDbLine
 10
1985.728003033346
 20
-1822.832819943741
 30
0.0
 11
1989.728003033346
 21
-1822.032829250922
 31
0.0
  0
LINE
  5
166F2
330
18
100
AcDbEntity
  8
1PHANTOM
100
AcDbLine
 10
1986.22802630269
 20
-1832.332816453332
 30
0.0
 11
1989.728003033346
 21
-1831.632829250931
 31
0.0
  0
LINE
  5
166F3
330
18
100
AcDbEntity
  8
1PHANTOM
100
AcDbLine
 10
1989.728003033346
 20
-1831.632829250931
 30
0.0
 11
1989.228003033346
 21
-1831.532828087533
 31
0.0
  0
LINE
  5
166F4
330
18
100
AcDbEntity
  8
1PHANTOM
100
AcDbLine
 10
1986.228003033346
 20
-1830.932821107147
 30
0.0
 11
1985.728003033346
 21
-1830.832819943749
 31
0.0
  0
LINE
  5
166F5
330
18
100
AcDbEntity
  8
1PHANTOM
100
AcDbLine
 10
1986.228003033346
 20
-1829.332821107147
 30
0.0
 11
1985.728003033346
 21
-1829.23281994375
 31
0.0
  0
LINE
  5
166F6
330
18
100
AcDbEntity
  8
1PHANTOM
100
AcDbLine
 10
1985.728003033346
 20
-1829.23281994375
 30
0.0
 11
1989.728003033346
 21
-1828.432829250931
 31
0.0
  0
LINE
  5
166F7
330
18
100
AcDbEntity
  8
1PHANTOM
100
AcDbLine
 10
1989.728003033346
 20
-1830.032829250931
 30
0.0
 11
1989.228003033346
 21
-1829.932828087533
 31
0.0
  0
LINE
  5
166F8
330
18
100
AcDbEntity
  8
1PHANTOM
100
AcDbLine
 10
1989.728003033346
 20
-1828.432829250931
 30
0.0
 11
1989.228003033346
 21
-1828.332828087533
 31
0.0
  0
LINE
  5
166F9
330
18
100
AcDbEntity
  8
1PHANTOM
100
AcDbLine
 10
1985.728003033346
 20
-1830.832819943749
 30
0.0
 11
1989.728003033346
 21
-1830.032829250931
 31
0.0
  0
LINE
  5
166FA
330
18
100
AcDbEntity
  8
1PHANTOM
100
AcDbLine
 10
1986.228003033346
 20
-1827.732821107142
 30
0.0
 11
1985.728003033346
 21
-1827.632819943745
 31
0.0
  0
LINE
  5
16939
330
18
100
AcDbEntity
  8
1DIM
100
AcDbLine
 10
2110.227956497448
 20
-1981.582816453332
 30
0.0
 11
2151.227956497448
 21
-1981.582816453332
 31
0.0
1001
ACAD
1000
DSTYLE
1002
{
1070
   271
1070
     0
1002
}
  0
LINE
  5
1693A
330
18
100
AcDbEntity
  8
1DIM
100
AcDbLine
 10
2109.427956497449
 20
-1904.332816453332
 30
0.0
 11
2151.227956497448
 21
-1904.332816453332
 31
0.0
1001
ACAD
1000
DSTYLE
1002
{
1070
   271
1070
     0
1002
}
  0
LINE
  5
1693B
330
18
100
AcDbEntity
  8
1DIM
100
AcDbLine
 10
2150.227956497448
 20
-1979.582816453332
 30
0.0
 11
2150.227956497448
 21
-1906.332816453332
 31
0.0
1001
ACAD
1000
DSTYLE
1002
{
1070
   271
1070
     0
1002
}
  0
LINE
  5
1693F
330
18
100
AcDbEntity
  8
1DIM
100
AcDbLine
 10
2110.227956497448
 20
-1905.132816453332
 30
0.0
 11
2110.227956497448
 21
-1873.332816453332
 31
0.0
  0
LINE
  5
16940
330
18
100
AcDbEntity
  8
1DIM
100
AcDbLine
 10
1975.227956497448
 20
-1905.132816453332
 30
0.0
 11
1975.227956497448
 21
-1873.332816453332
 31
0.0
  0
LINE
  5
16941
330
18
100
AcDbEntity
  8
1DIM
100
AcDbLine
 10
2108.227956497448
 20
-1874.332816453332
 30
0.0
 11
1977.227956497448
 21
-1874.332816453332
 31
0.0
  0
LINE
  5
16945
330
18
100
AcDbEntity
  8
1DIM
100
AcDbLine
 10
2109.427956497448
 20
-1979.457816453332
 30
0.0
 11
2141.227956497448
 21
-1979.457816453332
 31
0.0
  0
LINE
  5
16946
330
18
100
AcDbEntity
  8
1DIM
100
AcDbLine
 10
2109.427956497448
 20
-1939.457816453332
 30
0.0
 11
2141.227956497448
 21
-1939.457816453332
 31
0.0
  0
LINE
  5
16947
330
18
100
AcDbEntity
  8
1DIM
100
AcDbLine
 10
2140.227956497448
 20
-1977.457816453332
 30
0.0
 11
2140.227956497448
 21
-1941.457816453332
 31
0.0
  0
LINE
  5
1694B
330
18
100
AcDbEntity
  8
1DIM
100
AcDbLine
 10
1987.727956497448
 20
-1939.832816453332
 30
0.0
 11
1987.727956497448
 21
-1883.332816453332
 31
0.0
  0
LINE
  5
1694C
330
18
100
AcDbEntity
  8
1DIM
100
AcDbLine
 10
2097.727956497448
 20
-1939.832816453332
 30
0.0
 11
2097.727956497448
 21
-1883.332816453332
 31
0.0
  0
LINE
  5
1694D
330
18
100
AcDbEntity
  8
1DIM
100
AcDbLine
 10
1989.727956497448
 20
-1884.332816453332
 30
0.0
 11
2095.727956497448
 21
-1884.332816453332
 31
0.0
  0
LINE
  5
16951
330
18
100
AcDbEntity
  8
1DIM
100
AcDbLine
 10
2110.227956497448
 20
-1854.332816453332
 30
0.0
 11
2131.227956497448
 21
-1854.332816453332
 31
0.0
  0
LINE
  5
16952
330
18
100
AcDbEntity
  8
1DIM
100
AcDbLine
 10
2109.177956497448
 20
-1832.332816453332
 30
0.0
 11
2131.227956497448
 21
-1832.332816453332
 31
0.0
  0
LINE
  5
16953
330
18
100
AcDbEntity
  8
1DIM
100
AcDbLine
 10
2130.227956497448
 20
-1852.332816453332
 30
0.0
 11
2130.227956497448
 21
-1834.332816453332
 31
0.0
  0
SOLID
  5
16957
330
18
100
AcDbEntity
  8
1DIM
100
AcDbTrace
 10
2106.260722225836
 20
-1976.698974630044
 30
0.0
 11
2105.685120077172
 21
-1974.754805584522
 31
0.0
 12
2106.860149908239
 22
-1976.407202633422
 32
0.0
 13
2106.860149908239
 23
-1976.407202633422
 33
0.0
  0
LINE
  5
16958
330
18
100
AcDbEntity
  8
1DIM
100
AcDbLine
 10
2106.560436067038
 20
-1976.553088631733
 30
0.0
 11
2116.430255551712
 21
-1996.830027775775
 31
0.0
  0
LINE
  5
16959
330
18
100
AcDbEntity
  8
1DIM
100
AcDbLine
 10
2116.430255551712
 20
-1996.830027775775
 30
0.0
 11
2151.446922218379
 21
-1996.830027775775
 31
0.0
  0
TEXT
  5
1695A
330
18
100
AcDbEntity
  8
1DIM
  6
CONTINUOUS
100
AcDbText
 10
2118.896922218379
 20
-1990.296694442441
 30
0.0
 40
3.5
  1
材質：ステンレス
100
AcDbText
  0
TEXT
  5
1695B
330
18
100
AcDbEntity
  8
1DIM
  6
CONTINUOUS
100
AcDbText
 10
2119.013588885045
 20
-1996.130027775775
 30
0.0
 40
3.5
  1
仕上：各種仕上
100
AcDbText
  0
SOLID
  5
1695C
330
18
100
AcDbEntity
  8
1DIM
100
AcDbTrace
 10
2106.866504814133
 20
-1907.422773393
 30
0.0
 11
2105.685120077172
 21
-1909.070632978762
 31
0.0
 12
2106.26820523297
 22
-1907.12869507754
 32
0.0
 13
2106.26820523297
 23
-1907.12869507754
 33
0.0
  0
LINE
  5
1695D
330
18
100
AcDbEntity
  8
1DIM
100
AcDbLine
 10
2106.567355023551
 20
-1907.27573423527
 30
0.0
 11
2116.430255551712
 21
-1887.209755396163
 31
0.0
  0
LINE
  5
1695E
330
18
100
AcDbEntity
  8
1DIM
100
AcDbLine
 10
2116.430255551712
 20
-1887.209755396163
 30
0.0
 11
2151.446922218379
 21
-1887.209755396163
 31
0.0
  0
TEXT
  5
1695F
330
18
100
AcDbEntity
  8
1DIM
  6
CONTINUOUS
100
AcDbText
 10
2118.896922218379
 20
-1880.676422062829
 30
0.0
 40
3.5
  1
材質：ステンレス
100
AcDbText
  0
TEXT
  5
16960
330
18
100
AcDbEntity
  8
1DIM
  6
CONTINUOUS
100
AcDbText
 10
2119.013588885045
 20
-1886.509755396163
 30
0.0
 40
3.5
  1
仕上：各種仕上
100
AcDbText
  0
LINE
  5
16961
330
18
100
AcDbEntity
  8
1DIM
100
AcDbLine
 10
2102.227956497448
 20
-1944.332816453332
 30
0.0
 11
2131.227956497448
 21
-1944.332816453332
 31
0.0
  0
LINE
  5
16962
330
18
100
AcDbEntity
  8
1DIM
100
AcDbLine
 10
2109.427956497449
 20
-1904.332816453332
 30
0.0
 11
2131.227956497448
 21
-1904.332816453332
 31
0.0
  0
LINE
  5
16963
330
18
100
AcDbEntity
  8
1DIM
100
AcDbLine
 10
2130.227956497448
 20
-1942.332816453332
 30
0.0
 11
2130.227956497448
 21
-1906.332816453332
 31
0.0
  0
LINE
  5
16967
330
18
100
AcDbEntity
  8
0
  6
BYBLOCK
100
AcDbLine
 10
2150.763854877448
 20
-1979.582816453332
 30
0.0
 11
2150.227956497448
 21
-1981.582816453332
 31
0.0
  0
LINE
  5
16968
330
18
100
AcDbEntity
  8
0
  6
BYBLOCK
100
AcDbLine
 10
2150.227956497448
 20
-1981.582816453332
 30
0.0
 11
2149.692058117448
 21
-1979.582816453332
 31
0.0
  0
LINE
  5
16969
330
18
100
AcDbEntity
  8
0
  6
BYBLOCK
100
AcDbLine
 10
2150.227956497448
 20
-1981.582816453332
 30
0.0
 11
2150.227956497448
 21
-1979.582816453332
 31
0.0
  0
LINE
  5
1696A
330
18
100
AcDbEntity
  8
0
  6
BYBLOCK
100
AcDbLine
 10
2149.692058117448
 20
-1906.332816453332
 30
0.0
 11
2150.227956497448
 21
-1904.332816453332
 31
0.0
  0
LINE
  5
1696B
330
18
100
AcDbEntity
  8
0
  6
BYBLOCK
100
AcDbLine
 10
2150.227956497448
 20
-1904.332816453332
 30
0.0
 11
2150.763854877448
 21
-1906.332816453332
 31
0.0
  0
LINE
  5
1696C
330
18
100
AcDbEntity
  8
0
  6
BYBLOCK
100
AcDbLine
 10
2150.227956497448
 20
-1904.332816453332
 30
0.0
 11
2150.227956497448
 21
-1906.332816453332
 31
0.0
  0
TEXT
  5
1696D
330
18
100
AcDbEntity
  8
1DIM
  6
CONTINUOUS
100
AcDbText
 10
2149.527956497449
 20
-1945.874483119999
 30
0.0
 40
3.5
  1
77
 50
90.0
100
AcDbText
1001
ACAD
1000
DSTYLE
1002
{
1070
   271
1070
     0
1002
}
  0
LINE
  5
1696E
330
18
100
AcDbEntity
  8
0
  6
BYBLOCK
100
AcDbLine
 10
2108.227956497448
 20
-1873.796918073332
 30
0.0
 11
2110.227956497448
 21
-1874.332816453332
 31
0.0
  0
LINE
  5
1696F
330
18
100
AcDbEntity
  8
0
  6
BYBLOCK
100
AcDbLine
 10
2110.227956497448
 20
-1874.332816453332
 30
0.0
 11
2108.227956497448
 21
-1874.868714833332
 31
0.0
  0
LINE
  5
16970
330
18
100
AcDbEntity
  8
0
  6
BYBLOCK
100
AcDbLine
 10
2110.227956497448
 20
-1874.332816453332
 30
0.0
 11
2108.227956497448
 21
-1874.332816453332
 31
0.0
  0
LINE
  5
16971
330
18
100
AcDbEntity
  8
0
  6
BYBLOCK
100
AcDbLine
 10
1977.227956497448
 20
-1874.868714833332
 30
0.0
 11
1975.227956497448
 21
-1874.332816453332
 31
0.0
  0
LINE
  5
16972
330
18
100
AcDbEntity
  8
0
  6
BYBLOCK
100
AcDbLine
 10
1975.227956497448
 20
-1874.332816453332
 30
0.0
 11
1977.227956497448
 21
-1873.796918073332
 31
0.0
  0
LINE
  5
16973
330
18
100
AcDbEntity
  8
0
  6
BYBLOCK
100
AcDbLine
 10
1975.227956497448
 20
-1874.332816453332
 30
0.0
 11
1977.227956497448
 21
-1874.332816453332
 31
0.0
  0
TEXT
  5
16974
330
18
100
AcDbEntity
  8
1DIM
  6
CONTINUOUS
100
AcDbText
 10
2038.644623164115
 20
-1873.632816453332
 30
0.0
 40
3.5
  1
135
100
AcDbText
  0
LINE
  5
16975
330
18
100
AcDbEntity
  8
0
  6
BYBLOCK
100
AcDbLine
 10
2140.763854877448
 20
-1977.457816453332
 30
0.0
 11
2140.227956497448
 21
-1979.457816453332
 31
0.0
  0
LINE
  5
16976
330
18
100
AcDbEntity
  8
0
  6
BYBLOCK
100
AcDbLine
 10
2140.227956497448
 20
-1979.457816453332
 30
0.0
 11
2139.692058117448
 21
-1977.457816453332
 31
0.0
  0
LINE
  5
16977
330
18
100
AcDbEntity
  8
0
  6
BYBLOCK
100
AcDbLine
 10
2140.227956497448
 20
-1979.457816453332
 30
0.0
 11
2140.227956497448
 21
-1977.457816453332
 31
0.0
  0
LINE
  5
16978
330
18
100
AcDbEntity
  8
0
  6
BYBLOCK
100
AcDbLine
 10
2139.692058117448
 20
-1941.457816453332
 30
0.0
 11
2140.227956497448
 21
-1939.457816453332
 31
0.0
  0
LINE
  5
16979
330
18
100
AcDbEntity
  8
0
  6
BYBLOCK
100
AcDbLine
 10
2140.227956497448
 20
-1939.457816453332
 30
0.0
 11
2140.763854877448
 21
-1941.457816453332
 31
0.0
  0
LINE
  5
1697A
330
18
100
AcDbEntity
  8
0
  6
BYBLOCK
100
AcDbLine
 10
2140.227956497448
 20
-1939.457816453332
 30
0.0
 11
2140.227956497448
 21
-1941.457816453332
 31
0.0
  0
TEXT
  5
1697B
330
18
100
AcDbEntity
  8
1DIM
  6
CONTINUOUS
100
AcDbText
 10
2139.527956497449
 20
-1962.155733119999
 30
0.0
 40
3.5
  1
40
 50
90.0
100
AcDbText
  0
LINE
  5
1697C
330
18
100
AcDbEntity
  8
0
  6
BYBLOCK
100
AcDbLine
 10
1989.727956497448
 20
-1884.868714833332
 30
0.0
 11
1987.727956497448
 21
-1884.332816453332
 31
0.0
  0
LINE
  5
1697D
330
18
100
AcDbEntity
  8
0
  6
BYBLOCK
100
AcDbLine
 10
1987.727956497448
 20
-1884.332816453332
 30
0.0
 11
1989.727956497448
 21
-1883.796918073332
 31
0.0
  0
LINE
  5
1697E
330
18
100
AcDbEntity
  8
0
  6
BYBLOCK
100
AcDbLine
 10
1987.727956497448
 20
-1884.332816453332
 30
0.0
 11
1989.727956497448
 21
-1884.332816453332
 31
0.0
  0
LINE
  5
1697F
330
18
100
AcDbEntity
  8
0
  6
BYBLOCK
100
AcDbLine
 10
2095.727956497448
 20
-1883.796918073332
 30
0.0
 11
2097.727956497448
 21
-1884.332816453332
 31
0.0
  0
LINE
  5
16980
330
18
100
AcDbEntity
  8
0
  6
BYBLOCK
100
AcDbLine
 10
2097.727956497448
 20
-1884.332816453332
 30
0.0
 11
2095.727956497448
 21
-1884.868714833332
 31
0.0
  0
LINE
  5
16981
330
18
100
AcDbEntity
  8
0
  6
BYBLOCK
100
AcDbLine
 10
2097.727956497448
 20
-1884.332816453332
 30
0.0
 11
2095.727956497448
 21
-1884.332816453332
 31
0.0
  0
TEXT
  5
16982
330
18
100
AcDbEntity
  8
1DIM
  6
CONTINUOUS
100
AcDbText
 10
2035.946706497448
 20
-1883.632816453332
 30
0.0
 40
3.5
  1
P=110
100
AcDbText
  0
LINE
  5
16983
330
18
100
AcDbEntity
  8
0
  6
BYBLOCK
100
AcDbLine
 10
2130.763854877448
 20
-1852.332816453332
 30
0.0
 11
2130.227956497448
 21
-1854.332816453332
 31
0.0
  0
LINE
  5
16984
330
18
100
AcDbEntity
  8
0
  6
BYBLOCK
100
AcDbLine
 10
2130.227956497448
 20
-1854.332816453332
 30
0.0
 11
2129.692058117448
 21
-1852.332816453332
 31
0.0
  0
LINE
  5
16985
330
18
100
AcDbEntity
  8
0
  6
BYBLOCK
100
AcDbLine
 10
2130.227956497448
 20
-1854.332816453332
 30
0.0
 11
2130.227956497448
 21
-1852.332816453332
 31
0.0
  0
LINE
  5
16986
330
18
100
AcDbEntity
  8
0
  6
BYBLOCK
100
AcDbLine
 10
2129.692058117448
 20
-1834.332816453332
 30
0.0
 11
2130.227956497448
 21
-1832.332816453332
 31
0.0
  0
LINE
  5
16987
330
18
100
AcDbEntity
  8
0
  6
BYBLOCK
100
AcDbLine
 10
2130.227956497448
 20
-1832.332816453332
 30
0.0
 11
2130.763854877448
 21
-1834.332816453332
 31
0.0
  0
LINE
  5
16988
330
18
100
AcDbEntity
  8
0
  6
BYBLOCK
100
AcDbLine
 10
2130.227956497448
 20
-1832.332816453332
 30
0.0
 11
2130.227956497448
 21
-1834.332816453332
 31
0.0
  0
TEXT
  5
16989
330
18
100
AcDbEntity
  8
1DIM
  6
CONTINUOUS
100
AcDbText
 10
2129.527956497449
 20
-1846.249483119999
 30
0.0
 40
3.5
  1
22
 50
90.0
100
AcDbText
  0
LINE
  5
1698A
330
18
100
AcDbEntity
  8
0
  6
BYBLOCK
100
AcDbLine
 10
2130.763854877448
 20
-1942.332816453332
 30
0.0
 11
2130.227956497448
 21
-1944.332816453332
 31
0.0
  0
LINE
  5
1698B
330
18
100
AcDbEntity
  8
0
  6
BYBLOCK
100
AcDbLine
 10
2130.227956497448
 20
-1944.332816453332
 30
0.0
 11
2129.692058117448
 21
-1942.332816453332
 31
0.0
  0
LINE
  5
1698C
330
18
100
AcDbEntity
  8
0
  6
BYBLOCK
100
AcDbLine
 10
2130.227956497448
 20
-1944.332816453332
 30
0.0
 11
2130.227956497448
 21
-1942.332816453332
 31
0.0
  0
LINE
  5
1698D
330
18
100
AcDbEntity
  8
0
  6
BYBLOCK
100
AcDbLine
 10
2129.692058117448
 20
-1906.332816453332
 30
0.0
 11
2130.227956497448
 21
-1904.332816453332
 31
0.0
  0
LINE
  5
1698E
330
18
100
AcDbEntity
  8
0
  6
BYBLOCK
100
AcDbLine
 10
2130.227956497448
 20
-1904.332816453332
 30
0.0
 11
2130.763854877448
 21
-1906.332816453332
 31
0.0
  0
LINE
  5
1698F
330
18
100
AcDbEntity
  8
0
  6
BYBLOCK
100
AcDbLine
 10
2130.227956497448
 20
-1904.332816453332
 30
0.0
 11
2130.227956497448
 21
-1906.332816453332
 31
0.0
  0
TEXT
  5
16990
330
18
100
AcDbEntity
  8
1DIM
  6
CONTINUOUS
100
AcDbText
 10
2129.527956497449
 20
-1927.030733119998
 30
0.0
 40
3.5
  1
40
 50
90.0
100
AcDbText
  0
VIEWPORT
  5
57
330
15
100
AcDbEntity
 67
     1
  8
0
100
AcDbViewport
 68
     1
 10
0.0
 20
0.0
 30
0.0
 40
600.1703601108032
 41
297.0
 68
     1
 69
     1
1001
ACAD
1000
MVIEW
1002
{
1070
    16
1010
0.0
1020
0.0
1030
0.0
1010
0.0
1020
0.0
1030
1.0
1040
0.0
1040
297.0
1040
-4.272048862584541
1040
18.33904653606845
1040
50.0
1040
0.0
1040
0.0
1070
    16
1070
   100
1070
     0
1070
     1
1070
     0
1070
     0
1070
     0
1070
     0
1040
0.0
1040
0.0
1040
0.0
1040
10.0
1040
10.0
1040
10.0
1040
10.0
1070
     0
1002
{
1002
}
1002
}
  0
ENDSEC
  0
SECTION
  2
OBJECTS
  0
DICTIONARY
  5
C
330
0
100
AcDbDictionary
  3
ACAD_COLOR
350
2D0
  3
ACAD_GROUP
350
D
  3
ACAD_LAYOUT
350
2D1
  3
ACAD_MATERIAL
350
2CF
  3
ACAD_MLEADERSTYLE
350
15B98
  3
ACAD_MLINESTYLE
350
1B
  3
ACAD_PLOTSETTINGS
350
2D2
  3
ACAD_SCALELIST
350
15B76
  3
ACAD_VISUALSTYLE
350
15B65
  3
ACDBHEADERROUNDTRIPXREC
350
16991
  3
ACDBVARIABLEDICTIONARY
350
37
  3
CONTENTDICTIONARY
350
D8
  3
DRAWINGVARIABLESDICT
350
20
  3
DWGPROPS
350
16994
1001
ACAD
1000
TREAT_AS_HARD
1070
     0
  0
DICTIONARY
  5
14EC2
330
2
100
AcDbDictionary
  3
ACAD_LAYERSTATES
360
14EC3
1001
ACAD
1000
TREAT_AS_HARD
1070
     1
  0
DICTIONARY
  5
15BB5
330
E
100
AcDbDictionary
  3
ADSK_XREC_LAYER_RECONCILED
360
15BB6
1001
ACAD
1000
TREAT_AS_HARD
1070
     1
  0
DICTIONARY
  5
15BB7
330
29
100
AcDbDictionary
  3
ADSK_XREC_LAYER_RECONCILED
360
15BB8
1001
ACAD
1000
TREAT_AS_HARD
1070
     1
  0
DICTIONARY
  5
15BB9
330
31
100
AcDbDictionary
  3
ADSK_XREC_LAYER_RECONCILED
360
15BBA
1001
ACAD
1000
TREAT_AS_HARD
1070
     1
  0
DICTIONARY
  5
15BC3
330
101
100
AcDbDictionary
  3
ADSK_XREC_LAYER_RECONCILED
360
15BC4
1001
ACAD
1000
TREAT_AS_HARD
1070
     1
  0
DICTIONARY
  5
15BC7
330
103
100
AcDbDictionary
  3
ADSK_XREC_LAYER_RECONCILED
360
15BC8
1001
ACAD
1000
TREAT_AS_HARD
1070
     1
  0
DICTIONARY
  5
15BCB
330
25F
100
AcDbDictionary
  3
ADSK_XREC_LAYER_RECONCILED
360
15BCC
1001
ACAD
1000
TREAT_AS_HARD
1070
     1
  0
DICTIONARY
  5
6E9
330
18
100
AcDbDictionary
  3
ACAD_SORTENTS
360
6EA
1001
ACAD
1000
TREAT_AS_HARD
1070
     1
  0
DICTIONARY
  5
59B
330
15
100
AcDbDictionary
  3
ACAD_SORTENTS
360
59C
1001
ACAD
1000
TREAT_AS_HARD
1070
     1
  0
DICTIONARY
  5
2D0
102
{ACAD_REACTORS
330
C
102
}
330
C
100
AcDbDictionary
1001
ACAD
1000
TREAT_AS_HARD
1070
     0
  0
DICTIONARY
  5
D
102
{ACAD_REACTORS
330
C
102
}
330
C
100
AcDbDictionary
  3
*A1
350
166B7
1001
ACAD
1000
TREAT_AS_HARD
1070
     0
  0
DICTIONARY
  5
2D1
102
{ACAD_REACTORS
330
C
102
}
330
C
100
AcDbDictionary
1001
ACAD
1000
TREAT_AS_HARD
1070
     0
  0
DICTIONARY
  5
2CF
102
{ACAD_REACTORS
330
C
102
}
330
C
100
AcDbDictionary
  3
BYBLOCK
350
15B55
  3
BYLAYER
350
15B4D
  3
GLOBAL
350
15B5D
1001
ACAD
1000
TREAT_AS_HARD
1070
     0
  0
DICTIONARY
  5
15B98
102
{ACAD_REACTORS
330
C
102
}
330
C
100
AcDbDictionary
  3
STANDARD
350
15B99
1001
ACAD
1000
TREAT_AS_HARD
1070
     0
  0
DICTIONARY
  5
1B
102
{ACAD_REACTORS
330
C
102
}
330
C
100
AcDbDictionary
  3
STANDARD
350
1C
1001
ACAD
1000
TREAT_AS_HARD
1070
     0
  0
DICTIONARY
  5
2D2
102
{ACAD_REACTORS
330
C
102
}
330
C
100
AcDbDictionary
1001
ACAD
1000
TREAT_AS_HARD
1070
     0
  0
DICTIONARY
  5
15B76
102
{ACAD_REACTORS
330
C
102
}
330
C
100
AcDbDictionary
  3
A0
350
15B77
  3
A1
350
15B78
  3
A2
350
15B79
  3
A3
350
15B7A
  3
A4
350
15B7B
  3
A5
350
15B7C
  3
A6
350
15B7D
  3
A7
350
15B7E
  3
A8
350
15B7F
  3
A9
350
15B80
  3
B0
350
15B81
  3
B1
350
15B82
  3
B2
350
15B83
  3
B3
350
15B84
  3
B4
350
15B85
  3
B5
350
15B86
  3
B6
350
15B87
  3
B7
350
15B88
  3
B8
350
15B89
  3
B9
350
15B8A
  3
C0
350
15B8B
  3
C1
350
15B8C
  3
C2
350
15B8D
  3
C3
350
15B8E
  3
C4
350
15B8F
  3
C5
350
15B90
  3
C6
350
15B91
  3
C7
350
15B92
  3
C8
350
15B93
  3
C9
350
15B94
  3
D0
350
15B95
  3
D1
350
15B96
  3
D2
350
15B97
1001
ACAD
1000
TREAT_AS_HARD
1070
     0
  0
DICTIONARY
  5
15B65
102
{ACAD_REACTORS
330
C
102
}
330
C
100
AcDbDictionary
  3
2DWIREFRAME
350
15B6B
  3
3D_HIDDEN
350
15B6D
  3
3DWIREFRAME
350
15B6C
  3
BASIC
350
15B6A
  3
BRIGHTEN
350
15B71
  3
COLORCHANGE
350
15B75
  3
CONCEPTUAL
350
15B6E
  3
DIM
350
15B70
  3
EDGECOLOROFF
350
16877
  3
FACEPATTERN
350
15B74
  3
FLAT
350
15B66
  3
FLATWITHEDGES
350
15B67
  3
GOURAUD
350
15B68
  3
GOURAUDWITHEDGES
350
15B69
  3
HIDDEN
350
16874
  3
JITTEROFF
350
16875
  3
LINEPATTERN
350
15B73
  3
MODELING
350
1687D
  3
OVERHANGOFF
350
16876
  3
REALISTIC
350
15B6F
  3
SHADED
350
1687C
  3
SHADED_WITH_EDGES
350
1687B
  3
SHADES_OF_GRAY
350
16878
  3
SKETCHY
350
16879
  3
THICKEN
350
15B72
  3
WIREFRAME
350
16873
  3
X-RAY
350
1687A
1001
ACAD
1000
TREAT_AS_HARD
1070
     0
  0
DICTIONARY
  5
16991
102
{ACAD_REACTORS
330
C
102
}
330
C
100
AcDbDictionary
  3
COLORDICT
350
16992
  3
MATERIALDICT
350
16993
1001
ACAD
1000
TREAT_AS_HARD
1070
     0
  0
DICTIONARY
  5
37
102
{ACAD_REACTORS
330
C
102
}
330
C
100
AcDbDictionary
  3
CANNOSCALE
350
168EB
  3
CMLEADERSTYLE
350
15C4B
  3
CTABLESTYLE
350
4F1
  3
DIMADEC
350
38
  3
DIMASSOC
350
408
  3
HIDETEXT
350
1891
  3
INDEXCTL
350
15C4E
  3
INTERSECTIONCOLOR
350
1895
  3
INTERSECTIONDISPLAY
350
1894
  3
MSLTSCALE
350
16935
  3
OBSCOLOR
350
1892
  3
OBSLTYPE
350
1893
  3
PROJECTNAME
350
409
  3
SORTENTS
350
15C4D
  3
XCLIPFRAME
350
168EC
1001
ACAD
1000
TREAT_AS_HARD
1070
     0
  0
DICTIONARY
  5
D8
102
{ACAD_REACTORS
330
C
102
}
330
C
100
AcDbDictionary
1001
CONTENTTABDATA
1070
    11
1000
Child
1000
D:\ACLT\TABset\CHILDREN.dwg
1070
     0
1070
     0
1070
     1
1000
PK
1000
D:\ACLT\TABset\PK.dwg
1070
     0
1070
     0
1070
     1
1000
Lev1
1000
D:\ACLT\TABset\Lever01.dwg
1070
     0
1070
     0
1070
     1
1000
Lev2
1000
D:\ACLT\TABset\Lever02.dwg
1070
     0
1070
     0
1070
     1
1000
L3
1000
D:\Aclt\TABset\Lever03.dwg
1070
     0
1070
     0
1070
     1
1000
Form
1000
D:\ACLT\FORMAT
1070
     1
1070
     0
1070
     1
1000
Jnt
1000
D:\ACLT\TABset\JOINTPARTS.dwg
1070
     0
1070
     0
1070
     1
1000
ISO
1000
D:\ACLT\TABset\Isome01.dwg
1070
     0
1070
     0
1070
     1
1000
R
1000
D:\ACLT\TABset\REGION.dwg
1070
     0
1070
     0
1070
     1
1000
std
1000
D:\ACLT\TABset\std_sym_all.dwg
1070
     0
1070
     0
1070
     1
1000
丸
1000
D:\Aclt\TABset\MARU.dwg
1070
     0
1070
     0
1070
     1
1001
CONTENTCURRENTTAB
1070
     0
1001
ACAD
1000
TREAT_AS_HARD
1070
     0
  0
DICTIONARY
  5
20
102
{ACAD_REACTORS
330
C
102
}
330
C
100
AcDbDictionary
1001
DRAWINGVARIABLESXDATA
1000
POLARANG
1000
0.261799387799149410000000
1000
POLARMODE
1000
1
1000
POLARSTYLE
1000
1
1001
ACAD
1000
TREAT_AS_HARD
1070
     0
  0
XRECORD
  5
16994
102
{ACAD_REACTORS
330
C
102
}
330
C
100
AcDbXrecord
  1
DWGPROPS COOKIE
  2

  3

  4

  6

  7

  8
619
  9

300
=
301
=
302
=
303
=
304
=
305
=
306
=
307
=
308
=
309
=
 40
0.0
 41
2453033.357663484
 42
2458040.353855382
  1

 90
        0
  0
DICTIONARY
  5
14EC3
102
{ACAD_REACTORS
330
14EC2
102
}
330
14EC2
100
AcDbDictionary
1001
ACAD
1000
TREAT_AS_HARD
1070
     0
  0
ACAD_PROXY_OBJECT
  5
15BB6
102
{ACAD_REACTORS
330
15BB5
102
}
330
15BB5
100
AcDbZombieObject
 90
      499
 91
      517
 93
       34
310
40C8804040
  0
ACAD_PROXY_OBJECT
  5
15BB8
102
{ACAD_REACTORS
330
15BB7
102
}
330
15BB7
100
AcDbZombieObject
 90
      499
 91
      517
 93
       34
310
40C8804040
  0
ACAD_PROXY_OBJECT
  5
15BBA
102
{ACAD_REACTORS
330
15BB9
102
}
330
15BB9
100
AcDbZombieObject
 90
      499
 91
      517
 93
       34
310
40C8804040
  0
ACAD_PROXY_OBJECT
  5
15BC4
102
{ACAD_REACTORS
330
15BC3
102
}
330
15BC3
100
AcDbZombieObject
 90
      499
 91
      517
 93
       34
310
40C8804040
  0
ACAD_PROXY_OBJECT
  5
15BC8
102
{ACAD_REACTORS
330
15BC7
102
}
330
15BC7
100
AcDbZombieObject
 90
      499
 91
      517
 93
       34
310
40C8804040
  0
ACAD_PROXY_OBJECT
  5
15BCC
102
{ACAD_REACTORS
330
15BCB
102
}
330
15BCB
100
AcDbZombieObject
 90
      499
 91
      517
 93
       34
310
40C8804040
  0
SORTENTSTABLE
  5
6EA
102
{ACAD_REACTORS
330
6E9
102
}
330
6E9
100
AcDbSortentsTable
330
18
331
1601D
  5
15A52
331
1601E
  5
15A54
331
1601F
  5
15A55
331
16020
  5
15A56
331
16021
  5
15A57
331
16022
  5
15A59
331
16023
  5
15A5A
331
16024
  5
15A75
331
16025
  5
15A76
331
16026
  5
15A79
331
16027
  5
15A86
331
16028
  5
15AB7
331
16029
  5
15ABA
331
1602A
  5
15ABB
331
1602B
  5
15ABC
331
1602C
  5
15ABD
331
1602D
  5
15ABE
331
1602E
  5
15ABF
331
1602F
  5
15AC0
331
16030
  5
15AC1
331
16031
  5
15AC2
331
16032
  5
15AC3
331
16033
  5
15AC4
331
16034
  5
15AC5
331
16035
  5
15AC6
331
16036
  5
15AC7
331
16037
  5
15AC8
331
16038
  5
15AC9
331
16039
  5
15ACA
331
1603A
  5
15ACB
331
1603B
  5
15ACC
331
1603C
  5
15ACD
331
1603D
  5
15ACE
331
1603E
  5
15ACF
331
1603F
  5
15AD0
331
16040
  5
15AD1
331
16041
  5
15AE6
331
16042
  5
15AE7
331
16043
  5
15AE8
331
16044
  5
15FF0
331
16045
  5
15FF1
331
16046
  5
15FF2
331
16047
  5
15FF3
331
16048
  5
15FF4
331
16049
  5
15FF5
331
1604C
  5
15FF8
331
1604D
  5
15FF9
331
1604E
  5
15FFA
331
1604F
  5
15FFB
331
16050
  5
15FFC
331
16051
  5
15FFD
331
16052
  5
15FFE
331
16053
  5
15FFF
331
16054
  5
162AA
331
1606F
  5
15A45
331
16070
  5
15A46
331
16071
  5
15A48
331
16073
  5
15A4A
331
162AA
  5
162AB
331
162AB
  5
162AC
331
162AC
  5
162AD
331
162AD
  5
162B1
331
162AE
  5
162B2
331
162AF
  5
162B3
331
162B0
  5
162B4
331
162B1
  5
162B7
331
162B2
  5
162B8
331
162B3
  5
162B9
331
162B4
  5
162BA
331
162B7
  5
162BB
331
162B8
  5
162BC
331
162B9
  5
162C0
331
162BA
  5
162C1
331
162BB
  5
162C2
331
162BC
  5
162C6
331
162C0
  5
162C7
331
162C1
  5
162C8
331
162C2
  5
162C9
331
162C3
  5
162CA
331
162C4
  5
162CB
331
162C5
  5
162EF
331
162C6
  5
162F0
331
162C7
  5
1630A
331
162C8
  5
16352
331
162C9
  5
16353
331
162CA
  5
16354
331
0
  5
16355
331
0
  5
16418
331
1630A
  5
164E0
331
1630B
  5
16503
331
16407
  5
16504
331
1640A
  5
16506
331
1640B
  5
16509
331
16417
  5
1650A
331
16418
  5
1650D
331
16422
  5
16675
331
16424
  5
16676
331
16427
  5
1667A
331
16428
  5
1667B
331
16429
  5
1667C
331
1642B
  5
16680
331
1642F
  5
16681
331
16431
  5
16682
331
16432
  5
16686
331
16435
  5
16687
331
16436
  5
16688
331
1644F
  5
1650B
331
16450
  5
1653A
331
16451
  5
16508
331
16452
  5
16505
331
16453
  5
1650C
331
16454
  5
16507
331
1645F
  5
16689
331
16460
  5
1668A
331
0
  5
164D0
331
0
  5
164D1
331
0
  5
164DF
331
164DF
  5
166AC
331
164E0
  5
166AD
331
16503
  5
166AE
331
16504
  5
166AF
331
16505
  5
166B0
331
16506
  5
166B1
331
16507
  5
166B2
331
16508
  5
166B3
331
16509
  5
166B4
331
1650A
  5
166B5
331
1650B
  5
166B6
331
1650C
  5
166B8
331
1650D
  5
166B9
331
0
  5
16549
331
0
  5
16555
331
0
  5
16556
331
0
  5
165B5
331
0
  5
16674
331
16674
  5
166D6
331
16675
  5
166D7
331
16676
  5
166D8
331
16677
  5
166D9
331
16678
  5
166DA
331
16679
  5
166DB
331
1667A
  5
166DC
331
1667B
  5
166DD
331
1667C
  5
166DE
331
1667D
  5
166DF
331
1667E
  5
166E0
331
1667F
  5
166E1
331
16680
  5
166E2
331
16681
  5
166E3
331
16682
  5
166E4
331
16683
  5
166E5
331
16684
  5
166E6
331
16685
  5
166E7
331
16686
  5
166E8
331
16687
  5
166E9
331
16688
  5
166EA
331
16689
  5
166EB
331
1668A
  5
166EC
331
1668B
  5
166ED
331
1668C
  5
166EE
331
1668D
  5
166EF
331
1668E
  5
166F0
331
1668F
  5
166F1
331
16690
  5
166F4
331
16691
  5
166F5
331
16692
  5
166F6
331
16693
  5
166F7
331
16694
  5
166F8
331
16695
  5
166F9
331
16696
  5
166FA
331
16697
  5
166FC
331
16698
  5
166FD
331
16699
  5
16939
331
1669A
  5
1693A
331
1669B
  5
1693B
331
1669C
  5
1693C
331
1669D
  5
1693D
331
1669E
  5
1693E
331
1669F
  5
1693F
331
166A0
  5
16940
331
166A1
  5
16941
331
166A2
  5
16942
331
166A3
  5
16943
331
166A4
  5
16944
331
166A5
  5
16945
331
166A6
  5
16946
331
166A7
  5
16947
331
166A8
  5
16948
331
166A9
  5
16949
331
166AA
  5
1694A
331
166AB
  5
1694B
331
166AC
  5
1694C
331
166AD
  5
1694D
331
166AE
  5
1694E
331
166AF
  5
1694F
331
166B0
  5
16950
331
166B1
  5
16951
331
166B2
  5
16952
331
166B3
  5
16953
331
166B4
  5
16954
331
166B5
  5
16955
331
166B6
  5
16956
331
166B8
  5
16957
331
166B9
  5
16958
331
166BA
  5
16959
331
166BC
  5
1695A
331
166C3
  5
1695B
331
166C4
  5
1695C
331
166C5
  5
1695D
331
166C6
  5
1695E
331
166C7
  5
1695F
331
166C8
  5
16960
331
166C9
  5
16961
331
166CA
  5
16962
331
166CB
  5
16963
331
166CC
  5
16964
331
166CD
  5
16965
331
166CE
  5
16966
331
166CF
  5
16967
331
166D0
  5
16968
331
166D1
  5
16969
331
166D2
  5
1696A
331
166D3
  5
1696B
331
166D4
  5
1696C
331
166D5
  5
1696D
331
166D6
  5
1696E
331
166D7
  5
1696F
331
166D8
  5
16970
331
166D9
  5
16971
331
166DA
  5
16972
331
166DB
  5
16973
331
166DC
  5
16974
331
166DD
  5
16975
331
166DE
  5
16976
331
166DF
  5
16977
331
166E0
  5
16978
331
166E1
  5
16979
331
166E2
  5
1697A
331
166E3
  5
1697B
331
166E4
  5
1697C
331
166E5
  5
1697D
331
166E6
  5
1697E
331
166E7
  5
1697F
331
166E8
  5
16980
331
166E9
  5
16981
331
166EA
  5
16982
331
166EB
  5
16983
331
166EC
  5
16984
331
166ED
  5
16985
331
166EE
  5
16986
331
166EF
  5
16987
331
166F2
  5
16988
331
166F3
  5
16989
331
166F4
  5
1698A
331
166F5
  5
1698B
331
166F6
  5
1698C
331
166F7
  5
1698D
331
166F8
  5
1698E
331
166F9
  5
1698F
331
166FA
  5
16990
331
16939
  5
16421
331
1693A
  5
16422
331
1693B
  5
16423
331
0
  5
16424
331
0
  5
16425
331
0
  5
16426
331
1693F
  5
16451
331
16940
  5
16454
331
16941
  5
1645F
331
0
  5
1642E
331
0
  5
1642F
331
0
  5
16431
331
16945
  5
1668B
331
16946
  5
1668C
331
16947
  5
1668D
331
0
  5
16677
331
0
  5
16678
331
0
  5
16679
331
1694B
  5
16695
331
1694C
  5
16696
331
1694D
  5
16697
331
0
  5
1667D
331
0
  5
1667E
331
0
  5
1667F
331
16951
  5
1669F
331
16952
  5
166A3
331
16953
  5
166A4
331
0
  5
16683
331
0
  5
16684
331
0
  5
16685
331
16957
  5
166BA
331
16958
  5
166BB
331
16959
  5
166BD
331
1695A
  5
166C4
331
1695B
  5
166C6
331
1695C
  5
166C7
331
1695D
  5
166C8
331
1695E
  5
166C9
331
1695F
  5
166CA
331
16960
  5
166CB
331
16961
  5
166CC
331
16962
  5
166CD
331
16963
  5
166CE
331
0
  5
166A0
331
0
  5
166A1
331
0
  5
166A2
331
16967
  5
16428
331
16968
  5
1642A
331
16969
  5
1642D
331
1696A
  5
16435
331
1696B
  5
16437
331
1696C
  5
16438
331
1696D
  5
16450
331
1696E
  5
16461
331
1696F
  5
16463
331
16970
  5
1647F
331
16971
  5
16480
331
16972
  5
1648B
331
16973
  5
164A1
331
16974
  5
164B1
331
16975
  5
1668E
331
16976
  5
1668F
331
16977
  5
16690
331
16978
  5
16691
331
16979
  5
16692
331
1697A
  5
16693
331
1697B
  5
16694
331
1697C
  5
16698
331
1697D
  5
16699
331
1697E
  5
1669A
331
1697F
  5
1669B
331
16980
  5
1669C
331
16981
  5
1669D
331
16982
  5
1669E
331
16983
  5
166A5
331
16984
  5
166A6
331
16985
  5
166A7
331
16986
  5
166A8
331
16987
  5
166A9
331
16988
  5
166AA
331
16989
  5
166AB
331
1698A
  5
166CF
331
1698B
  5
166D0
331
1698C
  5
166D1
331
1698D
  5
166D2
331
1698E
  5
166D3
331
1698F
  5
166D4
331
16990
  5
166D5
  0
SORTENTSTABLE
  5
59C
102
{ACAD_REACTORS
330
59B
102
}
330
59B
100
AcDbSortentsTable
330
15
331
57
  5
57
331
0
  5
70
331
0
  5
15E0C
331
0
  5
15E0D
331
0
  5
15E0E
331
0
  5
15E0F
331
0
  5
15E10
331
0
  5
15E11
331
0
  5
15E12
331
0
  5
15E13
331
0
  5
15E14
331
0
  5
15E15
331
0
  5
15E16
331
0
  5
15E17
331
0
  5
15E18
331
0
  5
15E19
331
0
  5
15E1A
331
0
  5
15FEC
331
0
  5
15FED
331
0
  5
15FEE
331
0
  5
15FEF
331
0
  5
15E1C
331
0
  5
15E1D
331
0
  5
15E1E
331
0
  5
15E1F
331
0
  5
15E20
331
0
  5
15E21
331
0
  5
15E22
331
0
  5
15E23
331
0
  5
15E24
331
0
  5
15E25
331
0
  5
15E26
331
0
  5
15E27
331
0
  5
15E28
331
0
  5
15E29
331
0
  5
15E2A
331
0
  5
15E2B
331
0
  5
15E2C
331
0
  5
15E2D
331
0
  5
15E2E
331
0
  5
15E2F
331
0
  5
15E30
331
0
  5
15E31
331
0
  5
15E32
331
0
  5
15E33
331
0
  5
15E34
331
0
  5
15E35
331
0
  5
15E36
331
0
  5
15E37
331
0
  5
15E38
331
0
  5
15E39
331
0
  5
15E3A
331
0
  5
15E3B
331
0
  5
15E3C
331
0
  5
15E3D
331
0
  5
15E3E
331
0
  5
15E3F
331
0
  5
15E40
331
0
  5
15E41
331
0
  5
15E42
331
0
  5
15E43
331
0
  5
15E44
331
0
  5
15E45
331
0
  5
15E46
331
0
  5
15E47
331
0
  5
15E48
331
0
  5
15E49
331
0
  5
15E4A
331
0
  5
15E4B
331
0
  5
15E4C
331
0
  5
15E4D
331
0
  5
15E4E
331
0
  5
15E4F
331
0
  5
15E50
331
0
  5
15E51
331
0
  5
15E52
331
0
  5
15E53
331
0
  5
15E54
331
0
  5
15E55
331
0
  5
15E56
331
0
  5
15E57
331
0
  5
15E58
331
0
  5
15E59
331
0
  5
15E5A
331
0
  5
15E5B
331
0
  5
15E5C
331
0
  5
15FCD
331
0
  5
15FCE
331
0
  5
15FCF
331
0
  5
15FD0
331
0
  5
15FD1
331
0
  5
15FD2
331
0
  5
15FD3
331
0
  5
15FD4
331
0
  5
15FD5
331
0
  5
15FD6
331
0
  5
15FD7
331
0
  5
15FD8
331
0
  5
15FD9
331
0
  5
15FDA
331
0
  5
15FDB
331
0
  5
15FDC
331
0
  5
15FDD
331
0
  5
15FDE
331
0
  5
15FDF
331
0
  5
15FE0
331
0
  5
15FE1
331
0
  5
15FE2
331
0
  5
15FE3
331
0
  5
15FE4
331
0
  5
15FE5
331
0
  5
15FE6
331
0
  5
15FE7
331
0
  5
15FE8
331
0
  5
15FE9
331
0
  5
15FEA
331
0
  5
15FEB
331
0
  5
15F8E
331
0
  5
15F8F
331
0
  5
15F90
331
0
  5
15F91
331
0
  5
15F92
331
0
  5
15F93
331
0
  5
15F94
331
0
  5
15F95
331
0
  5
15F96
331
0
  5
15F97
331
0
  5
15F98
331
0
  5
15F99
331
0
  5
15F9A
331
0
  5
15F9B
331
0
  5
15F9C
331
0
  5
15F9D
331
0
  5
15F9E
331
0
  5
15F9F
331
0
  5
15FA0
331
0
  5
15FA1
331
0
  5
15FA2
331
0
  5
15FA3
331
0
  5
15FA4
331
0
  5
15FA5
331
0
  5
15FA6
331
0
  5
15FA7
331
0
  5
15FA8
331
0
  5
15FA9
331
0
  5
15FAA
331
0
  5
15FAB
331
0
  5
15FAC
331
0
  5
15FAD
331
0
  5
15FAE
331
0
  5
15FAF
331
0
  5
15FB0
331
0
  5
15FB1
331
0
  5
15FB2
331
0
  5
15FB3
331
0
  5
15FB4
331
0
  5
15FB5
331
0
  5
15FB6
331
0
  5
15FB7
331
0
  5
15FB8
331
0
  5
15FB9
331
0
  5
15FBA
331
0
  5
15FBB
331
0
  5
15FBC
331
0
  5
15FBD
331
0
  5
15FBE
331
0
  5
15FBF
331
0
  5
15FC0
331
0
  5
15FC1
331
0
  5
15FC2
331
0
  5
15FC3
331
0
  5
15FC4
331
0
  5
15FC5
331
0
  5
15FC6
331
0
  5
15FC7
331
0
  5
15FC8
331
0
  5
15FC9
331
0
  5
15FCA
331
0
  5
15FCB
331
0
  5
15FCC
331
0
  5
15F51
331
0
  5
15F52
331
0
  5
15F53
331
0
  5
15F54
331
0
  5
15F55
331
0
  5
15F56
331
0
  5
15F57
331
0
  5
15F58
331
0
  5
15F59
331
0
  5
15F5A
331
0
  5
15F5B
331
0
  5
15F5C
331
0
  5
15F5D
331
0
  5
15F5E
331
0
  5
15F5F
331
0
  5
15F60
331
0
  5
15F61
331
0
  5
15F62
331
0
  5
15F63
331
0
  5
15F64
331
0
  5
15F65
331
0
  5
15F66
331
0
  5
15F67
331
0
  5
15F68
331
0
  5
15F69
331
0
  5
15F6A
331
0
  5
15F6B
331
0
  5
15F6C
331
0
  5
15F6D
331
0
  5
15F6E
331
0
  5
15F6F
331
0
  5
15F70
331
0
  5
15F71
331
0
  5
15F72
331
0
  5
15F73
331
0
  5
15F74
331
0
  5
15F75
331
0
  5
15F76
331
0
  5
15F77
331
0
  5
15F78
331
0
  5
15F79
331
0
  5
15F7A
331
0
  5
15F7B
331
0
  5
15F7C
331
0
  5
15F7D
331
0
  5
15F7E
331
0
  5
15F7F
331
0
  5
15F80
331
0
  5
15F81
331
0
  5
15F82
331
0
  5
15F83
331
0
  5
15F84
331
0
  5
15F85
331
0
  5
15F86
331
0
  5
15F87
331
0
  5
15F88
331
0
  5
15F89
331
0
  5
15F8A
331
0
  5
15F8B
331
0
  5
15F8C
331
0
  5
15F8D
331
0
  5
15F01
331
0
  5
15F02
331
0
  5
15F03
331
0
  5
15F04
331
0
  5
15F05
331
0
  5
15F06
331
0
  5
15F07
331
0
  5
15F08
331
0
  5
15F09
331
0
  5
15F0A
331
0
  5
15F0B
331
0
  5
15F0C
331
0
  5
15F0D
331
0
  5
15F0E
331
0
  5
15F0F
331
0
  5
15F10
331
0
  5
15F11
331
0
  5
15F12
331
0
  5
15F13
331
0
  5
15F14
331
0
  5
15F15
331
0
  5
15F16
331
0
  5
15F17
331
0
  5
15F18
331
0
  5
15F19
331
0
  5
15F1A
331
0
  5
15F1B
331
0
  5
15F1C
331
0
  5
15F1D
331
0
  5
15F1E
331
0
  5
15F1F
331
0
  5
15F20
331
0
  5
15F21
331
0
  5
15F22
331
0
  5
15F23
331
0
  5
15F24
331
0
  5
15F25
331
0
  5
15F26
331
0
  5
15F27
331
0
  5
15F28
331
0
  5
15F29
331
0
  5
15F2A
331
0
  5
15F2B
331
0
  5
15F2C
331
0
  5
15F2D
331
0
  5
15F2E
331
0
  5
15F2F
331
0
  5
15F30
331
0
  5
15F31
331
0
  5
15F32
331
0
  5
15F33
331
0
  5
15F34
331
0
  5
15F35
331
0
  5
15F36
331
0
  5
15F37
331
0
  5
15F38
331
0
  5
15F39
331
0
  5
15F3A
331
0
  5
15F3B
331
0
  5
15F3C
331
0
  5
15F3D
331
0
  5
15F3E
331
0
  5
15F3F
331
0
  5
15F40
331
0
  5
15F41
331
0
  5
15F42
331
0
  5
15F43
331
0
  5
15F44
331
0
  5
15F45
331
0
  5
15F46
331
0
  5
15F47
331
0
  5
15F48
331
0
  5
15F49
331
0
  5
15F4A
331
0
  5
15F4B
331
0
  5
15F4C
331
0
  5
15F4D
331
0
  5
15F4E
331
0
  5
15F4F
331
0
  5
15F50
331
0
  5
15EB0
331
0
  5
15EB1
331
0
  5
15EB2
331
0
  5
15EB3
331
0
  5
15EB4
331
0
  5
15EB5
331
0
  5
15EB6
331
0
  5
15EB7
331
0
  5
15EB8
331
0
  5
15EB9
331
0
  5
15EBA
331
0
  5
15EBB
331
0
  5
15EBC
331
0
  5
15EBD
331
0
  5
15EBE
331
0
  5
15EBF
331
0
  5
15EC0
331
0
  5
15EC1
331
0
  5
15EC2
331
0
  5
15EC3
331
0
  5
15EC4
331
0
  5
15EC5
331
0
  5
15EC6
331
0
  5
15EC7
331
0
  5
15EC8
331
0
  5
15EC9
331
0
  5
15ECA
331
0
  5
15ECB
331
0
  5
15ECC
331
0
  5
15ECD
331
0
  5
15ECE
331
0
  5
15ECF
331
0
  5
15ED0
331
0
  5
15ED1
331
0
  5
15ED2
331
0
  5
15ED3
331
0
  5
15ED4
331
0
  5
15ED5
331
0
  5
15ED6
331
0
  5
15ED7
331
0
  5
15ED8
331
0
  5
15ED9
331
0
  5
15EDA
331
0
  5
15EDB
331
0
  5
15EDC
331
0
  5
15EDD
331
0
  5
15EDE
331
0
  5
15EDF
331
0
  5
15EE0
331
0
  5
15EE1
331
0
  5
15EE2
331
0
  5
15EE3
331
0
  5
15EE4
331
0
  5
15EE5
331
0
  5
15EE6
331
0
  5
15EE7
331
0
  5
15EE8
331
0
  5
15EE9
331
0
  5
15EEA
331
0
  5
15EEB
331
0
  5
15EEC
331
0
  5
15EED
331
0
  5
15EEE
331
0
  5
15EEF
331
0
  5
15EF0
331
0
  5
15EF1
331
0
  5
15EF2
331
0
  5
15EF3
331
0
  5
15EF4
331
0
  5
15EF5
331
0
  5
15EF6
331
0
  5
15EF7
331
0
  5
15EF8
331
0
  5
15EF9
331
0
  5
15EFA
331
0
  5
15EFB
331
0
  5
15EFC
331
0
  5
15EFD
331
0
  5
15EFE
331
0
  5
15EFF
331
0
  5
15F00
331
0
  5
15E63
331
0
  5
15E64
331
0
  5
15E65
331
0
  5
15E66
331
0
  5
15E67
331
0
  5
15E68
331
0
  5
15E69
331
0
  5
15E6A
331
0
  5
15E6B
331
0
  5
15E6C
331
0
  5
15E6D
331
0
  5
15E6E
331
0
  5
15E6F
331
0
  5
15E70
331
0
  5
15E71
331
0
  5
15E72
331
0
  5
15E73
331
0
  5
15E74
331
0
  5
15E75
331
0
  5
15E76
331
0
  5
15E77
331
0
  5
15E78
331
0
  5
15E79
331
0
  5
15E7A
331
0
  5
15E7B
331
0
  5
15E7C
331
0
  5
15E7D
331
0
  5
15E7E
331
0
  5
15E7F
331
0
  5
15E80
331
0
  5
15E81
331
0
  5
15E82
331
0
  5
15E83
331
0
  5
15E84
331
0
  5
15E85
331
0
  5
15E86
331
0
  5
15E87
331
0
  5
15E88
331
0
  5
15E89
331
0
  5
15E8A
331
0
  5
15E8B
331
0
  5
15E8C
331
0
  5
15E8D
331
0
  5
15E8E
331
0
  5
15E8F
331
0
  5
15E90
331
0
  5
15E91
331
0
  5
15E92
331
0
  5
15E93
331
0
  5
15E94
331
0
  5
15E95
331
0
  5
15E96
331
0
  5
15E97
331
0
  5
15E98
331
0
  5
15E99
331
0
  5
15E9A
331
0
  5
15E9B
331
0
  5
15E9C
331
0
  5
15E9D
331
0
  5
15E9E
331
0
  5
15E9F
331
0
  5
15EA0
331
0
  5
15EA1
331
0
  5
15EA2
331
0
  5
15EA3
331
0
  5
15EA4
331
0
  5
15EA5
331
0
  5
15EA6
331
0
  5
15EA7
331
0
  5
15EA8
331
0
  5
15EA9
331
0
  5
15EAA
331
0
  5
15EAB
331
0
  5
15EAC
331
0
  5
15EAD
331
0
  5
15EAE
331
0
  5
15EAF
  0
GROUP
  5
166B7
102
{ACAD_REACTORS
330
D
102
}
330
D
100
AcDbGroup
300

 70
     1
 71
     1
340
166B6
340
166B5
340
166B4
340
166B3
340
166B2
340
166B1
340
166B0
340
166AF
340
166AE
340
166AD
340
166AC
340
166AB
340
166AA
340
166A9
340
166A8
340
166A7
340
166A6
340
166A5
340
166A4
340
166A3
340
166A2
340
166A1
340
166A0
340
1669F
340
1669E
340
1669D
340
1669C
340
1669B
340
1669A
340
16699
340
16698
340
16697
340
16696
340
16695
340
16694
340
16693
340
16692
340
16691
340
16690
340
1668F
340
1668E
340
1668D
340
1668C
340
1668B
340
1668A
340
16689
340
16688
340
16687
340
16686
340
16685
340
16684
340
16683
340
16682
340
16681
340
16680
340
1667F
340
1667E
340
1667D
340
1667C
340
1667B
340
1667A
340
16679
340
16678
340
16677
340
16676
340
16675
340
16674
  0
MATERIAL
  5
15B55
102
{ACAD_REACTORS
330
2CF
102
}
102
{ACAD_XDICTIONARY
360
16995
102
}
330
2CF
100
AcDbMaterial
  1
BYBLOCK
 72
     0
 73
     2
 43
0.0208333333333333
 43
0.0
 43
0.0
 43
0.0
 43
0.0
 43
0.0208333333333333
 43
0.0
 43
0.0
 43
0.0
 43
0.0
 43
1.0
 43
0.0
 43
0.0
 43
0.0
 43
0.0
 43
1.0
 77
     0
 78
     2
 47
0.0208333333333333
 47
0.0
 47
0.0
 47
0.0
 47
0.0
 47
0.0208333333333333
 47
0.0
 47
0.0
 47
0.0
 47
0.0
 47
1.0
 47
0.0
 47
0.0
 47
0.0
 47
0.0
 47
1.0
171
     0
172
     2
 49
0.0208333333333333
 49
0.0
 49
0.0
 49
0.0
 49
0.0
 49
0.0208333333333333
 49
0.0
 49
0.0
 49
0.0
 49
0.0
 49
1.0
 49
0.0
 49
0.0
 49
0.0
 49
0.0
 49
1.0
175
     0
176
     2
142
0.0208333333333333
142
0.0
142
0.0
142
0.0
142
0.0
142
0.0208333333333333
142
0.0
142
0.0
142
0.0
142
0.0
142
1.0
142
0.0
142
0.0
142
0.0
142
0.0
142
1.0
179
     0
270
     2
144
0.0208333333333333
144
0.0
144
0.0
144
0.0
144
0.0
144
0.0208333333333333
144
0.0
144
0.0
144
0.0
144
0.0
144
1.0
144
0.0
144
0.0
144
0.0
144
0.0
144
1.0
274
     2
147
0.0208333333333333
147
0.0
147
0.0
147
0.0
147
0.0
147
0.0208333333333333
147
0.0
147
0.0
147
0.0
147
0.0
147
1.0
147
0.0
147
0.0
147
0.0
147
0.0
147
1.0
  0
MATERIAL
  5
15B4D
102
{ACAD_REACTORS
330
2CF
102
}
102
{ACAD_XDICTIONARY
360
16997
102
}
330
2CF
100
AcDbMaterial
  1
BYLAYER
 72
     0
 73
     2
 43
0.0208333333333333
 43
0.0
 43
0.0
 43
0.0
 43
0.0
 43
0.0208333333333333
 43
0.0
 43
0.0
 43
0.0
 43
0.0
 43
1.0
 43
0.0
 43
0.0
 43
0.0
 43
0.0
 43
1.0
 77
     0
 78
     2
 47
0.0208333333333333
 47
0.0
 47
0.0
 47
0.0
 47
0.0
 47
0.0208333333333333
 47
0.0
 47
0.0
 47
0.0
 47
0.0
 47
1.0
 47
0.0
 47
0.0
 47
0.0
 47
0.0
 47
1.0
171
     0
172
     2
 49
0.0208333333333333
 49
0.0
 49
0.0
 49
0.0
 49
0.0
 49
0.0208333333333333
 49
0.0
 49
0.0
 49
0.0
 49
0.0
 49
1.0
 49
0.0
 49
0.0
 49
0.0
 49
0.0
 49
1.0
175
     0
176
     2
142
0.0208333333333333
142
0.0
142
0.0
142
0.0
142
0.0
142
0.0208333333333333
142
0.0
142
0.0
142
0.0
142
0.0
142
1.0
142
0.0
142
0.0
142
0.0
142
0.0
142
1.0
179
     0
270
     2
144
0.0208333333333333
144
0.0
144
0.0
144
0.0
144
0.0
144
0.0208333333333333
144
0.0
144
0.0
144
0.0
144
0.0
144
1.0
144
0.0
144
0.0
144
0.0
144
0.0
144
1.0
274
     2
147
0.0208333333333333
147
0.0
147
0.0
147
0.0
147
0.0
147
0.0208333333333333
147
0.0
147
0.0
147
0.0
147
0.0
147
1.0
147
0.0
147
0.0
147
0.0
147
0.0
147
1.0
  0
MATERIAL
  5
15B5D
102
{ACAD_REACTORS
330
2CF
102
}
102
{ACAD_XDICTIONARY
360
16999
102
}
330
2CF
100
AcDbMaterial
  1
GLOBAL
 72
     0
 73
     2
 43
0.0208333333333333
 43
0.0
 43
0.0
 43
0.0
 43
0.0
 43
0.0208333333333333
 43
0.0
 43
0.0
 43
0.0
 43
0.0
 43
1.0
 43
0.0
 43
0.0
 43
0.0
 43
0.0
 43
1.0
 77
     0
 78
     2
 47
0.0208333333333333
 47
0.0
 47
0.0
 47
0.0
 47
0.0
 47
0.0208333333333333
 47
0.0
 47
0.0
 47
0.0
 47
0.0
 47
1.0
 47
0.0
 47
0.0
 47
0.0
 47
0.0
 47
1.0
171
     0
172
     2
 49
0.0208333333333333
 49
0.0
 49
0.0
 49
0.0
 49
0.0
 49
0.0208333333333333
 49
0.0
 49
0.0
 49
0.0
 49
0.0
 49
1.0
 49
0.0
 49
0.0
 49
0.0
 49
0.0
 49
1.0
175
     0
176
     2
142
0.0208333333333333
142
0.0
142
0.0
142
0.0
142
0.0
142
0.0208333333333333
142
0.0
142
0.0
142
0.0
142
0.0
142
1.0
142
0.0
142
0.0
142
0.0
142
0.0
142
1.0
179
     0
270
     2
144
0.0208333333333333
144
0.0
144
0.0
144
0.0
144
0.0
144
0.0208333333333333
144
0.0
144
0.0
144
0.0
144
0.0
144
1.0
144
0.0
144
0.0
144
0.0
144
0.0
144
1.0
274
     2
147
0.0208333333333333
147
0.0
147
0.0
147
0.0
147
0.0
147
0.0208333333333333
147
0.0
147
0.0
147
0.0
147
0.0
147
1.0
147
0.0
147
0.0
147
0.0
147
0.0
147
1.0
  0
ACAD_PROXY_OBJECT
  5
15B99
102
{ACAD_REACTORS
330
15B98
102
}
330
15B98
100
AcDbZombieObject
 90
      499
 91
      512
 93
      610
310
40901902A4063FBFFFFFE000000000000002040AD7A3703D0AD73F4214DD185B99185C990000000000000104090141901A00000000000004100000000000000041025764000000000000300FC0
340
12
340
0
340
F
340
0
 94
        0
1001
ACAD_MLEADERVER
1070
     2
  0
MLINESTYLE
  5
1C
102
{ACAD_REACTORS
330
1B
102
}
330
1B
100
AcDbMlineStyle
  2
STANDARD
 70
     0
  3

 62
   256
 51
90.0
 52
90.0
 71
     2
 49
0.5
 62
   256
  6
BYLAYER
 49
-0.5
 62
   256
  6
BYLAYER
  0
ACAD_PROXY_OBJECT
  5
15B77
102
{ACAD_REACTORS
330
15B76
102
}
330
15B76
100
AcDbZombieObject
 90
      499
 91
      511
 93
       41
310
903313A31580
  0
ACAD_PROXY_OBJECT
  5
15B78
102
{ACAD_REACTORS
330
15B76
102
}
330
15B76
100
AcDbZombieObject
 90
      499
 91
      511
 93
      105
310
903313A324000000000000004000
  0
ACAD_PROXY_OBJECT
  5
15B79
102
{ACAD_REACTORS
330
15B76
102
}
330
15B76
100
AcDbZombieObject
 90
      499
 91
      511
 93
      105
310
903313A344000000000000104000
  0
ACAD_PROXY_OBJECT
  5
15B7A
102
{ACAD_REACTORS
330
15B76
102
}
330
15B76
100
AcDbZombieObject
 90
      499
 91
      511
 93
      105
310
903313A354000000000000144000
  0
ACAD_PROXY_OBJECT
  5
15B7B
102
{ACAD_REACTORS
330
15B76
102
}
330
15B76
100
AcDbZombieObject
 90
      499
 91
      511
 93
      105
310
903313A384000000000000204000
  0
ACAD_PROXY_OBJECT
  5
15B7C
102
{ACAD_REACTORS
330
15B76
102
}
330
15B76
100
AcDbZombieObject
 90
      499
 91
      511
 93
      113
310
904313A31304000000000000244000
  0
ACAD_PROXY_OBJECT
  5
15B7D
102
{ACAD_REACTORS
330
15B76
102
}
330
15B76
100
AcDbZombieObject
 90
      499
 91
      511
 93
      113
310
904313A31364000000000000304000
  0
ACAD_PROXY_OBJECT
  5
15B7E
102
{ACAD_REACTORS
330
15B76
102
}
330
15B76
100
AcDbZombieObject
 90
      499
 91
      511
 93
      113
310
904313A32304000000000000344000
  0
ACAD_PROXY_OBJECT
  5
15B7F
102
{ACAD_REACTORS
330
15B76
102
}
330
15B76
100
AcDbZombieObject
 90
      499
 91
      511
 93
      113
310
904313A333040000000000003E4000
  0
ACAD_PROXY_OBJECT
  5
15B80
102
{ACAD_REACTORS
330
15B76
102
}
330
15B76
100
AcDbZombieObject
 90
      499
 91
      511
 93
      113
310
904313A34304000000000000444000
  0
ACAD_PROXY_OBJECT
  5
15B81
102
{ACAD_REACTORS
330
15B76
102
}
330
15B76
100
AcDbZombieObject
 90
      499
 91
      511
 93
      113
310
904313A35304000000000000494000
  0
ACAD_PROXY_OBJECT
  5
15B82
102
{ACAD_REACTORS
330
15B76
102
}
330
15B76
100
AcDbZombieObject
 90
      499
 91
      511
 93
      121
310
905313A3130304000000000000594000
  0
ACAD_PROXY_OBJECT
  5
15B83
102
{ACAD_REACTORS
330
15B76
102
}
330
15B76
100
AcDbZombieObject
 90
      499
 91
      511
 93
      105
310
903323A310000000000000010100
  0
ACAD_PROXY_OBJECT
  5
15B84
102
{ACAD_REACTORS
330
15B76
102
}
330
15B76
100
AcDbZombieObject
 90
      499
 91
      511
 93
      105
310
903343A310000000000000410100
  0
ACAD_PROXY_OBJECT
  5
15B85
102
{ACAD_REACTORS
330
15B76
102
}
330
15B76
100
AcDbZombieObject
 90
      499
 91
      511
 93
      105
310
903383A310000000000000810100
  0
ACAD_PROXY_OBJECT
  5
15B86
102
{ACAD_REACTORS
330
15B76
102
}
330
15B76
100
AcDbZombieObject
 90
      499
 91
      511
 93
      113
310
90431303A310000000000000910100
  0
ACAD_PROXY_OBJECT
  5
15B87
102
{ACAD_REACTORS
330
15B76
102
}
330
15B76
100
AcDbZombieObject
 90
      499
 91
      511
 93
      121
310
9053130303A310000000000001650100
  0
ACAD_PROXY_OBJECT
  5
15B88
102
{ACAD_REACTORS
330
15B76
102
}
330
15B76
100
AcDbZombieObject
 90
      499
 91
      511
 93
      257
310
90E312F31323822203D2031272D3022000000000000200FC000000000000284000
  0
ACAD_PROXY_OBJECT
  5
15B89
102
{ACAD_REACTORS
330
15B76
102
}
330
15B76
100
AcDbZombieObject
 90
      499
 91
      511
 93
      249
310
90D312F363422203D2031272D3022000000000000240FC000000000000284000
  0
ACAD_PROXY_OBJECT
  5
15B8A
102
{ACAD_REACTORS
330
15B76
102
}
330
15B76
100
AcDbZombieObject
 90
      499
 91
      511
 93
      249
310
90D312F333222203D2031272D3022000000000000280FC000000000000284000
  0
ACAD_PROXY_OBJECT
  5
15B8B
102
{ACAD_REACTORS
330
15B76
102
}
330
15B76
100
AcDbZombieObject
 90
      499
 91
      511
 93
      249
310
90D312F313622203D2031272D30220000000000002C0FC000000000000284000
  0
ACAD_PROXY_OBJECT
  5
15B8C
102
{ACAD_REACTORS
330
15B76
102
}
330
15B76
100
AcDbZombieObject
 90
      499
 91
      511
 93
      249
310
90D332F333222203D2031272D30220000000000002E0FC000000000000284000
  0
ACAD_PROXY_OBJECT
  5
15B8D
102
{ACAD_REACTORS
330
15B76
102
}
330
15B76
100
AcDbZombieObject
 90
      499
 91
      511
 93
      241
310
90C312F3822203D2031272D3022000000000000300FC000000000000284000
  0
ACAD_PROXY_OBJECT
  5
15B8E
102
{ACAD_REACTORS
330
15B76
102
}
330
15B76
100
AcDbZombieObject
 90
      499
 91
      511
 93
      249
310
90D332F313622203D2031272D3022000000000000320FC000000000000284000
  0
ACAD_PROXY_OBJECT
  5
15B8F
102
{ACAD_REACTORS
330
15B76
102
}
330
15B76
100
AcDbZombieObject
 90
      499
 91
      511
 93
      241
310
90C312F3422203D2031272D3022000000000000340FC000000000000284000
  0
ACAD_PROXY_OBJECT
  5
15B90
102
{ACAD_REACTORS
330
15B76
102
}
330
15B76
100
AcDbZombieObject
 90
      499
 91
      511
 93
      241
310
90C332F3822203D2031272D3022000000000000360FC000000000000284000
  0
ACAD_PROXY_OBJECT
  5
15B91
102
{ACAD_REACTORS
330
15B76
102
}
330
15B76
100
AcDbZombieObject
 90
      499
 91
      511
 93
      241
310
90C312F3222203D2031272D3022000000000000380FC000000000000284000
  0
ACAD_PROXY_OBJECT
  5
15B92
102
{ACAD_REACTORS
330
15B76
102
}
330
15B76
100
AcDbZombieObject
 90
      499
 91
      511
 93
      241
310
90C332F3422203D2031272D30220000000000003A0FC000000000000284000
  0
ACAD_PROXY_OBJECT
  5
15B93
102
{ACAD_REACTORS
330
15B76
102
}
330
15B76
100
AcDbZombieObject
 90
      499
 91
      511
 93
      161
310
90A3122203D2031272D30224000000000000284000
  0
ACAD_PROXY_OBJECT
  5
15B94
102
{ACAD_REACTORS
330
15B76
102
}
330
15B76
100
AcDbZombieObject
 90
      499
 91
      511
 93
      257
310
90E312D312F3222203D2031272D30220000000000003E0FC000000000000284000
  0
ACAD_PROXY_OBJECT
  5
15B95
102
{ACAD_REACTORS
330
15B76
102
}
330
15B76
100
AcDbZombieObject
 90
      499
 91
      511
 93
      225
310
90A3322203D2031272D302200000000000002100000000000000284000
  0
ACAD_PROXY_OBJECT
  5
15B96
102
{ACAD_REACTORS
330
15B76
102
}
330
15B76
100
AcDbZombieObject
 90
      499
 91
      511
 93
      225
310
90A3622203D2031272D302200000000000006100000000000000284000
  0
ACAD_PROXY_OBJECT
  5
15B97
102
{ACAD_REACTORS
330
15B76
102
}
330
15B76
100
AcDbZombieObject
 90
      499
 91
      511
 93
      249
310
90D31272D3022203D2031272D30220000000000000A100000000000000284000
  0
ACAD_PROXY_OBJECT
  5
15B6B
102
{ACAD_REACTORS
330
15B65
102
}
330
15B65
100
AcDbZombieObject
 90
      499
 91
      510
 93
      436
310
42CC9915DA5C99599C985B595049028333333333333E3BF0000000000000FB0107901411070040501600405405064090741402480A0340
1001
ACAD
1000
AcDbSavedByObjectVersion
1070
     0
  0
ACAD_PROXY_OBJECT
  5
15B6D
102
{ACAD_REACTORS
330
15B65
102
}
330
15B65
100
AcDbZombieObject
 90
      499
 91
      510
 93
      500
310
424CD108121A5919195B90640502408333333333333E3BF0000000000000FB01079024090700405020000000000001110200405405064090740C02480A0340
1001
ACAD
1000
AcDbSavedByObjectVersion
1070
     0
  0
ACAD_PROXY_OBJECT
  5
15B6C
102
{ACAD_REACTORS
330
15B65
102
}
330
15B65
100
AcDbZombieObject
 90
      499
 91
      510
 93
      436
310
42CCD915DA5C99599C985B595059028333333333333E3BF0000000000000FB0107901411070040501600405405064090741402480A0340
1001
ACAD
1000
AcDbSavedByObjectVersion
1070
     0
  0
ACAD_PROXY_OBJECT
  5
15B6A
102
{ACAD_REACTORS
330
15B65
102
}
330
15B65
100
AcDbZombieObject
 90
      499
 91
      510
 93
      388
310
4150985CDA58D07406404333333333333E3BF0000000000000FB0107A41107004050150841D405064090741402480A0350
1001
ACAD
1000
AcDbSavedByObjectVersion
1070
     0
  0
ACAD_PROXY_OBJECT
  5
15B71
102
{ACAD_REACTORS
330
15B65
102
}
330
15B65
100
AcDbZombieObject
 90
      499
 91
      510
 93
      428
310
42109C9A59DA1D195B90C409028333333333333E3BF0000000000000FB010790141107004050150841D405064090741402480A029950
1001
ACAD
1000
AcDbSavedByObjectVersion
1070
     0
  0
ACAD_PROXY_OBJECT
  5
15B75
102
{ACAD_REACTORS
330
15B65
102
}
330
15B65
100
AcDbZombieObject
 90
      499
 91
      510
 93
      452
310
42D0DBDB1BDC90DA185B99D95104090240C333333333333E3BF0000000000000FB0108901411070040501508421405064090741402480A0350
1001
ACAD
1000
AcDbSavedByObjectVersion
1070
     0
  0
ACAD_PROXY_OBJECT
  5
15B6E
102
{ACAD_REACTORS
330
15B65
102
}
330
15B65
100
AcDbZombieObject
 90
      499
 91
      510
 93
      500
310
4290DBDB98D95C1D1D585B10940D028333333333333E3BF0000000000000FB0107902409070040501000000000000111010841D405064090740C02480A0340
1001
ACAD
1000
AcDbSavedByObjectVersion
1070
     0
  0
ACAD_PROXY_OBJECT
  5
15B70
102
{ACAD_REACTORS
330
15B65
102
}
330
15B65
100
AcDbZombieObject
 90
      499
 91
      510
 93
      412
310
40D11A5B50B409028333333333333E3BF0000000000000FB010790141107004050150841D405064090741402480A02677FFFFFD0
1001
ACAD
1000
AcDbSavedByObjectVersion
1070
     0
  0
ACAD_PROXY_OBJECT
  5
16877
102
{ACAD_REACTORS
330
15B65
102
}
330
15B65
100
AcDbZombieObject
 90
      499
 91
      510
 93
      452
310
43115919D950DBDB1BDC93D999916409028333333333333E33F0000000000000F9010790141107004050150841D405064090741402480A0350
1001
ACAD
1000
AcDbSavedByObjectVersion
1070
     0
  0
ACAD_PROXY_OBJECT
  5
15B74
102
{ACAD_REACTORS
330
15B65
102
}
330
15B65
100
AcDbZombieObject
 90
      499
 91
      510
 93
      444
310
42D19858D95C185D1D195C9B90F409028333333333333E3BF0000000000000FB010790141107004050150841D405064090741402480A0350
1001
ACAD
1000
AcDbSavedByObjectVersion
1070
     0
  0
ACAD_PROXY_OBJECT
  5
15B66
102
{ACAD_REACTORS
330
15B65
102
}
330
15B65
100
AcDbZombieObject
 90
      499
 91
      510
 93
      388
310
41119B185D240901404333333333333E3BF0000000000000F9010740A41107004050150841D405064090741402480A1B50
1001
ACAD
1000
AcDbSavedByObjectVersion
1070
     0
  0
ACAD_PROXY_OBJECT
  5
15B67
102
{ACAD_REACTORS
330
15B65
102
}
330
15B65
100
AcDbZombieObject
 90
      499
 91
      510
 93
      476
310
43519B185D15DA5D1A115919D95CD0140901404333333333333E3BF0000000000000F9010740901411070040501600405405064090741402480A1B50
1001
ACAD
1000
AcDbSavedByObjectVersion
1070
     0
  0
ACAD_PROXY_OBJECT
  5
15B68
102
{ACAD_REACTORS
330
15B65
102
}
330
15B65
100
AcDbZombieObject
 90
      499
 91
      510
 93
      412
310
41D1DBDD5C985D5910240902404333333333333E3BF0000000000000F9010740A411070040501641D405064090741402480A1B50
1001
ACAD
1000
AcDbSavedByObjectVersion
1070
     0
  0
ACAD_PROXY_OBJECT
  5
15B69
102
{ACAD_REACTORS
330
15B65
102
}
330
15B65
100
AcDbZombieObject
 90
      499
 91
      510
 93
      500
310
4411DBDD5C985D5915DA5D1A115919D95CD0340902404333333333333E3BF0000000000000F9010740901411070040501600405405064090741402480A1B50
1001
ACAD
1000
AcDbSavedByObjectVersion
1070
     0
  0
ACAD_PROXY_OBJECT
  5
16874
102
{ACAD_REACTORS
330
15B65
102
}
330
15B65
100
AcDbZombieObject
 90
      499
 91
      510
 93
      476
310
41921A5919195B90640502408333333333333E33F0000000000000F901079024090700405020000000000001110200405405064090740C02480A0340
1001
ACAD
1000
AcDbSavedByObjectVersion
1070
     0
  0
ACAD_PROXY_OBJECT
  5
16875
102
{ACAD_REACTORS
330
15B65
102
}
330
15B65
100
AcDbZombieObject
 90
      499
 91
      510
 93
      428
310
42529A5D1D195C93D999914409028333333333333E33F0000000000000F9010790141107004050150A41D405064090741402480A0350
1001
ACAD
1000
AcDbSavedByObjectVersion
1070
     0
  0
ACAD_PROXY_OBJECT
  5
15B73
102
{ACAD_REACTORS
330
15B65
102
}
330
15B65
100
AcDbZombieObject
 90
      499
 91
      510
 93
      444
310
42D31A5B995C185D1D195C9B90E409028333333333333E3BF0000000000000FB010790141107004050750841D405064090741402483A0350
1001
ACAD
1000
AcDbSavedByObjectVersion
1070
     0
  0
ACAD_PROXY_OBJECT
  5
1687D
102
{ACAD_REACTORS
330
15B65
102
}
330
15B65
100
AcDbZombieObject
 90
      499
 91
      510
 93
      484
310
42135BD9195B1A5B99D0A409038333333333333E33F0000000000000F901074090290700405010000000000201990108421405064090741402480A1B40
1001
ACAD
1000
AcDbSavedByObjectVersion
1070
     0
  0
ACAD_PROXY_OBJECT
  5
16876
102
{ACAD_REACTORS
330
15B65
102
}
330
15B65
100
AcDbZombieObject
 90
      499
 91
      510
 93
      444
310
42D3DD995C9A185B99D3D999915409028333333333333E33F0000000000000F9010790141107004050150941D405064090741402480A0350
1001
ACAD
1000
AcDbSavedByObjectVersion
1070
     0
  0
ACAD_PROXY_OBJECT
  5
15B6F
102
{ACAD_REACTORS
330
15B65
102
}
330
15B65
100
AcDbZombieObject
 90
      499
 91
      510
 93
      420
310
425499585B1A5CDD1A58D08409028333333333333E3BF0000000000000FB01079019070040501508421405064090741402480A1B40
1001
ACAD
1000
AcDbSavedByObjectVersion
1070
     0
  0
ACAD_PROXY_OBJECT
  5
1687C
102
{ACAD_REACTORS
330
15B65
102
}
330
15B65
100
AcDbZombieObject
 90
      499
 91
      510
 93
      420
310
4194DA1859195911B40902404333333333333E33F0000000000000F9010740A41107004050150800405405064090840C02480A0B40
1001
ACAD
1000
AcDbSavedByObjectVersion
1070
     0
  0
ACAD_PROXY_OBJECT
  5
1687B
102
{ACAD_REACTORS
330
15B65
102
}
330
15B65
100
AcDbZombieObject
 90
      499
 91
      510
 93
      516
310
4454DA18591959081DDA5D1A08195919D95CD1A40902404333333333333E33F0000000000000F901074090142907004050250800405405064090740C02480A0B40
1001
ACAD
1000
AcDbSavedByObjectVersion
1070
     0
  0
ACAD_PROXY_OBJECT
  5
16878
102
{ACAD_REACTORS
330
15B65
102
}
330
15B65
100
AcDbZombieObject
 90
      499
 91
      510
 93
      532
310
4394DA1859195CC81BD98811DC985E5174090240C333333333333E33F0000000000000F901079024090741D01000000000000111010841D405064090740C02480A0340
1001
ACAD
1000
AcDbSavedByObjectVersion
1070
     0
  0
ACAD_PROXY_OBJECT
  5
16879
102
{ACAD_REACTORS
330
15B65
102
}
330
15B65
100
AcDbZombieObject
 90
      499
 91
      510
 93
      476
310
41D4DAD95D18DA1E51840502408333333333333E33F0000000000000F901079024090741D01000000000000111010B41D405064090741802480A0340
1001
ACAD
1000
AcDbSavedByObjectVersion
1070
     0
  0
ACAD_PROXY_OBJECT
  5
15B72
102
{ACAD_REACTORS
330
15B65
102
}
330
15B65
100
AcDbZombieObject
 90
      499
 91
      510
 93
      412
310
41D51A1A58DAD95B90D409028333333333333E3BF0000000000000FB010790141107004050150C41D405064090741402480A0350
1001
ACAD
1000
AcDbSavedByObjectVersion
1070
     0
  0
ACAD_PROXY_OBJECT
  5
16873
102
{ACAD_REACTORS
330
15B65
102
}
330
15B65
100
AcDbZombieObject
 90
      499
 91
      510
 93
      420
310
4255DA5C99599C985B595059028333333333333E33F0000000000000F90107901411070040501600405405064090740C02480A0340
1001
ACAD
1000
AcDbSavedByObjectVersion
1070
     0
  0
ACAD_PROXY_OBJECT
  5
1687A
102
{ACAD_REACTORS
330
15B65
102
}
330
15B65
100
AcDbZombieObject
 90
      499
 91
      510
 93
      404
310
41560B54985E51940902404000000000000E03F0000000000000F9010740501907004050150841D405064090740C02480A1B40
1001
ACAD
1000
AcDbSavedByObjectVersion
1070
     0
  0
XRECORD
  5
16992
102
{ACAD_REACTORS
330
16991
102
}
330
16991
100
AcDbXrecord
340
2D0
  0
XRECORD
  5
16993
102
{ACAD_REACTORS
330
16991
102
}
330
16991
100
AcDbXrecord
340
2CF
  0
DICTIONARYVAR
  5
168EB
102
{ACAD_REACTORS
330
37
102
}
330
37
100
DictionaryVariables
280
     0
  1
1:1
  0
DICTIONARYVAR
  5
15C4B
102
{ACAD_REACTORS
330
37
102
}
330
37
100
DictionaryVariables
280
     0
  1
Standard
  0
DICTIONARYVAR
  5
4F1
102
{ACAD_REACTORS
330
37
102
}
330
37
100
DictionaryVariables
280
     0
  1
Standard
  0
DICTIONARYVAR
  5
38
102
{ACAD_REACTORS
330
37
102
}
330
37
100
DictionaryVariables
280
     0
  1
-1
  0
DICTIONARYVAR
  5
408
102
{ACAD_REACTORS
330
37
102
}
330
37
100
DictionaryVariables
280
     0
  1
2
  0
DICTIONARYVAR
  5
1891
102
{ACAD_REACTORS
330
37
102
}
330
37
100
DictionaryVariables
280
     0
  1
1
  0
DICTIONARYVAR
  5
15C4E
102
{ACAD_REACTORS
330
37
102
}
330
37
100
DictionaryVariables
280
     0
  1
0
  0
DICTIONARYVAR
  5
1895
102
{ACAD_REACTORS
330
37
102
}
330
37
100
DictionaryVariables
280
     0
  1
8
  0
DICTIONARYVAR
  5
1894
102
{ACAD_REACTORS
330
37
102
}
330
37
100
DictionaryVariables
280
     0
  1
1
  0
DICTIONARYVAR
  5
16935
102
{ACAD_REACTORS
330
37
102
}
330
37
100
DictionaryVariables
280
     0
  1
0
  0
DICTIONARYVAR
  5
1892
102
{ACAD_REACTORS
330
37
102
}
330
37
100
DictionaryVariables
280
     0
  1
8
  0
DICTIONARYVAR
  5
1893
102
{ACAD_REACTORS
330
37
102
}
330
37
100
DictionaryVariables
280
     0
  1
2
  0
DICTIONARYVAR
  5
409
102
{ACAD_REACTORS
330
37
102
}
330
37
100
DictionaryVariables
280
     0
  1

  0
DICTIONARYVAR
  5
15C4D
102
{ACAD_REACTORS
330
37
102
}
330
37
100
DictionaryVariables
280
     0
  1
127
  0
DICTIONARYVAR
  5
168EC
102
{ACAD_REACTORS
330
37
102
}
330
37
100
DictionaryVariables
280
     0
  1
2
  0
DICTIONARY
  5
16995
330
15B55
100
AcDbDictionary
  3
ACAD_XREC_ROUNDTRIP
360
16996
1001
ACAD
1000
TREAT_AS_HARD
1070
     1
  0
DICTIONARY
  5
16997
330
15B4D
100
AcDbDictionary
  3
ACAD_XREC_ROUNDTRIP
360
16998
1001
ACAD
1000
TREAT_AS_HARD
1070
     1
  0
DICTIONARY
  5
16999
330
15B5D
100
AcDbDictionary
  3
ACAD_XREC_ROUNDTRIP
360
1699A
1001
ACAD
1000
TREAT_AS_HARD
1070
     1
  0
XRECORD
  5
16996
102
{ACAD_REACTORS
330
16995
102
}
330
16995
100
AcDbXrecord
102
MATERIAL
148
0.0
149
0.0
149
0.0
 93
        0
 94
      127
282
     0
 72
     0
 77
     0
171
     0
175
     0
179
     0
273
     0
  0
XRECORD
  5
16998
102
{ACAD_REACTORS
330
16997
102
}
330
16997
100
AcDbXrecord
102
MATERIAL
148
0.0
149
0.0
149
0.0
 93
        0
 94
      127
282
     0
 72
     0
 77
     0
171
     0
175
     0
179
     0
273
     0
  0
XRECORD
  5
1699A
102
{ACAD_REACTORS
330
16999
102
}
330
16999
100
AcDbXrecord
102
MATERIAL
148
0.0
149
0.0
149
0.0
 93
        0
 94
      127
282
     0
 72
     0
 77
     0
171
     0
175
     0
179
     0
273
     0
  0
ENDSEC
  0
EOF
