  0
SECTION
  2
HEADER
  9
$ACADVER
  1
AC1012
  9
$DWGCODEPAGE
  3
ansi_932
  9
$INSBASE
 10
0.0
 20
0.0
 30
0.0
  9
$EXTMIN
 10
2269.420180647801
 20
-2085.20899962229
 30
0.0
  9
$EXTMAX
 10
2698.934863857942
 20
-1623.537782237562
 30
0.0
  9
$LIMMIN
 10
0.0
 20
0.0
  9
$LIMMAX
 10
420.0
 20
297.0
  9
$ORTHOMODE
 70
     0
  9
$REGENMODE
 70
     1
  9
$FILLMODE
 70
     1
  9
$QTEXTMODE
 70
     0
  9
$MIRRTEXT
 70
     0
  9
$DRAGMODE
 70
     2
  9
$LTSCALE
 40
0.5
  9
$OSMODE
 70
 14591
  9
$ATTMODE
 70
     1
  9
$TEXTSIZE
 40
4.0
  9
$TRACEWID
 40
1.0
  9
$TEXTSTYLE
  7
STANDARD
  9
$CLAYER
  8
1TEXT
  9
$CELTYPE
  6
BYLAYER
  9
$CECOLOR
 62
   256
  9
$CELTSCALE
 40
1.0
  9
$DELOBJ
 70
     1
  9
$DISPSILH
 70
     0
  9
$DIMSCALE
 40
2.0
  9
$DIMASZ
 40
2.0
  9
$DIMEXO
 40
0.0
  9
$DIMDLI
 40
7.0
  9
$DIMRND
 40
0.0
  9
$DIMDLE
 40
0.0
  9
$DIMEXE
 40
1.0
  9
$DIMTP
 40
0.0
  9
$DIMTM
 40
0.0
  9
$DIMTXT
 40
3.5
  9
$DIMCEN
 40
0.0
  9
$DIMTSZ
 40
0.0
  9
$DIMTOL
 70
     0
  9
$DIMLIM
 70
     0
  9
$DIMTIH
 70
     0
  9
$DIMTOH
 70
     0
  9
$DIMSE1
 70
     0
  9
$DIMSE2
 70
     0
  9
$DIMTAD
 70
     1
  9
$DIMZIN
 70
     8
  9
$DIMBLK
  1

  9
$DIMASO
 70
     1
  9
$DIMSHO
 70
     1
  9
$DIMPOST
  1
 
  9
$DIMAPOST
  1

  9
$DIMALT
 70
     0
  9
$DIMALTD
 70
     2
  9
$DIMALTF
 40
25.4
  9
$DIMLFAC
 40
1.0
  9
$DIMTOFL
 70
     1
  9
$DIMTVP
 40
0.0
  9
$DIMTIX
 70
     0
  9
$DIMSOXD
 70
     0
  9
$DIMSAH
 70
     1
  9
$DIMBLK1
  1
OPEN30
  9
$DIMBLK2
  1
OPEN30
  9
$DIMSTYLE
  2
NEWX10
  9
$DIMCLRD
 70
   256
  9
$DIMCLRE
 70
   256
  9
$DIMCLRT
 70
   201
  9
$DIMTFAC
 40
0.7
  9
$DIMGAP
 40
0.7
  9
$DIMJUST
 70
     0
  9
$DIMSD1
 70
     0
  9
$DIMSD2
 70
     0
  9
$DIMTOLJ
 70
     1
  9
$DIMTZIN
 70
     8
  9
$DIMALTZ
 70
     0
  9
$DIMALTTZ
 70
     0
  9
$DIMFIT
 70
     2
  9
$DIMUPT
 70
     0
  9
$DIMUNIT
 70
     2
  9
$DIMDEC
 70
     2
  9
$DIMTDEC
 70
     4
  9
$DIMALTU
 70
     2
  9
$DIMALTTD
 70
     2
  9
$DIMTXSTY
  7
STANDARD
  9
$DIMAUNIT
 70
     0
  9
$LUNITS
 70
     2
  9
$LUPREC
 70
     4
  9
$SKETCHINC
 40
1.0
  9
$FILLETRAD
 40
0.8
  9
$AUNITS
 70
     0
  9
$AUPREC
 70
     2
  9
$MENU
  1
acad
  9
$ELEVATION
 40
0.0
  9
$PELEVATION
 40
0.0
  9
$THICKNESS
 40
0.0
  9
$LIMCHECK
 70
     0
  9
$CHAMFERA
 40
10.0
  9
$CHAMFERB
 40
10.0
  9
$CHAMFERC
 40
20.0
  9
$CHAMFERD
 40
0.0
  9
$SKPOLY
 70
     0
  9
$TDCREATE
 40
2453033.732663484
  9
$TDUPDATE
 40
2458040.728802373
  9
$TDINDWG
 40
2.2357306134
  9
$TDUSRTIMER
 40
2.2357306134
  9
$USRTIMER
 70
     1
  9
$ANGBASE
 50
0.0
  9
$ANGDIR
 70
     0
  9
$PDMODE
 70
     0
  9
$PDSIZE
 40
0.0
  9
$PLINEWID
 40
0.0
  9
$COORDS
 70
     2
  9
$SPLFRAME
 70
     0
  9
$SPLINETYPE
 70
     6
  9
$SPLINESEGS
 70
     8
  9
$ATTDIA
 70
     0
  9
$ATTREQ
 70
     1
  9
$HANDLING
 70
     1
  9
$HANDSEED
  5
17636
  9
$SURFTAB1
 70
     6
  9
$SURFTAB2
 70
     6
  9
$SURFTYPE
 70
     6
  9
$SURFU
 70
     6
  9
$SURFV
 70
     6
  9
$UCSNAME
  2

  9
$UCSORG
 10
0.0
 20
0.0
 30
0.0
  9
$UCSXDIR
 10
1.0
 20
0.0
 30
0.0
  9
$UCSYDIR
 10
0.0
 20
1.0
 30
0.0
  9
$PUCSNAME
  2

  9
$PUCSORG
 10
0.0
 20
0.0
 30
0.0
  9
$PUCSXDIR
 10
1.0
 20
0.0
 30
0.0
  9
$PUCSYDIR
 10
0.0
 20
1.0
 30
0.0
  9
$USERI1
 70
     0
  9
$USERI2
 70
     0
  9
$USERI3
 70
     0
  9
$USERI4
 70
     0
  9
$USERI5
 70
     0
  9
$USERR1
 40
0.0
  9
$USERR2
 40
0.0
  9
$USERR3
 40
0.0
  9
$USERR4
 40
0.0
  9
$USERR5
 40
0.0
  9
$WORLDVIEW
 70
     1
  9
$SHADEDGE
 70
     3
  9
$SHADEDIF
 70
    70
  9
$TILEMODE
 70
     1
  9
$MAXACTVP
 70
    48
  9
$PINSBASE
 10
0.0
 20
0.0
 30
0.0
  9
$PLIMCHECK
 70
     0
  9
$PEXTMIN
 10
1.000000000000000E+20
 20
1.000000000000000E+20
 30
1.000000000000000E+20
  9
$PEXTMAX
 10
-1.000000000000000E+20
 20
-1.000000000000000E+20
 30
-1.000000000000000E+20
  9
$PLIMMIN
 10
0.0
 20
0.0
  9
$PLIMMAX
 10
420.0
 20
297.0
  9
$UNITMODE
 70
     0
  9
$VISRETAIN
 70
     1
  9
$PLINEGEN
 70
     0
  9
$PSLTSCALE
 70
     1
  9
$TREEDEPTH
 70
  3020
  9
$PICKSTYLE
 70
     1
  9
$CMLSTYLE
  2
STANDARD
  9
$CMLJUST
 70
     0
  9
$CMLSCALE
 40
20.0
  9
$SAVEIMAGES
 70
     1
  0
ENDSEC
  0
SECTION
  2
CLASSES
  0
CLASS
  1
DICTIONARYVAR
  2
AcDbDictionaryVar
  3
ObjectDBX Classes
 90
        0
280
     0
281
     0
  0
CLASS
  1
IDBUFFER
  2
AcDbIdBuffer
  3
ObjectDBX Classes
 90
    32768
280
     0
281
     0
  0
CLASS
  1
LWPOLYLINE
  2
AcDbPolyline
  3
ObjectDBX Classes
 90
    32768
280
     0
281
     1
  0
CLASS
  1
ACDBDICTIONARYWDFLT
  2
AcDbDictionaryWithDefault
  3
ObjectDBX Classes
 90
    32768
280
     0
281
     0
  0
CLASS
  1
ACDBPLACEHOLDER
  2
AcDbPlaceHolder
  3
ObjectDBX Classes
 90
        0
280
     0
281
     0
  0
CLASS
  1
LAYOUT
  2
AcDbLayout
  3
ObjectDBX Classes
 90
        0
280
     0
281
     0
  0
CLASS
  1
TABLESTYLE
  2
AcDbTableStyle
  3
ObjectDBX Classes
 90
     4095
280
     0
281
     0
  0
CLASS
  1
SORTENTSTABLE
  2
AcDbSortentsTable
  3
ObjectDBX Classes
 90
    32768
280
     0
281
     0
  0
CLASS
  1
DIMASSOC
  2
AcDbDimAssoc
  3
"AcDbDimAssoc|Product Desc:     AcDim ARX App For Dimension|Company:          Autodesk, Inc.|WEB Address:      www.autodesk.com"
 90
        0
280
     0
281
     0
  0
CLASS
  1
MATERIAL
  2
AcDbMaterial
  3
ObjectDBX Classes
 90
     1153
280
     0
281
     0
  0
CLASS
  1
VISUALSTYLE
  2
AcDbVisualStyle
  3
ObjectDBX Classes
 90
     4095
280
     0
281
     0
  0
CLASS
  1
SCALE
  2
AcDbScale
  3
ObjectDBX Classes
 90
     1153
280
     0
281
     0
  0
CLASS
  1
MLEADERSTYLE
  2
AcDbMLeaderStyle
  3
ACDB_MLEADERSTYLE_CLASS
 90
     4095
280
     0
281
     0
  0
CLASS
  1
CELLSTYLEMAP
  2
AcDbCellStyleMap
  3
ObjectDBX Classes
 90
     1152
280
     0
281
     0
  0
CLASS
  1
EXACXREFPANELOBJECT
  2
ExAcXREFPanelObject
  3
EXAC_ESW
 90
     1025
280
     1
281
     0
  0
CLASS
  1
NPOCOLLECTION
  2
AcDbImpNonPersistentObjectsCollection
  3
ObjectDBX Classes
 90
     1153
280
     1
281
     0
  0
CLASS
  1
SUN
  2
AcDbSun
  3
SCENEOE
 90
     1153
280
     0
281
     0
  0
CLASS
  1
XRECORD
  2
AcDbXrecord
  3
ObjectDBX Classes
 90
    32768
280
     0
281
     0
  0
CLASS
  1
HATCH
  2
AcDbHatch
  3
ObjectDBX Classes
 90
    32768
280
     0
281
     1
  0
ENDSEC
  0
SECTION
  2
TABLES
  0
TABLE
  2
VPORT
  5
8
330
0
100
AcDbSymbolTable
 70
     1
  0
VPORT
  5
15B17
330
8
100
AcDbSymbolTableRecord
100
AcDbViewportTableRecord
  2
*ACTIVE
 70
     0
 10
0.0
 20
0.0
 11
1.0
 21
1.0
 12
2484.177522252872
 22
-1854.373390929926
 13
0.0
 23
0.0
 14
10.0
 24
10.0
 15
10.0
 25
10.0
 16
0.0
 26
0.0
 36
1.0
 17
0.0
 27
0.0
 37
0.0
 40
495.689096560445
 41
2.020775623268698
 42
50.0
 43
0.0
 44
0.0
 50
0.0
 51
0.0
 71
    16
 72
   100
 73
     1
 74
     1
 75
     0
 76
     0
 77
     0
 78
     0
  0
ENDTAB
  0
TABLE
  2
LTYPE
  5
5
330
0
100
AcDbSymbolTable
 70
     3
  0
LTYPE
  5
12
330
5
100
AcDbSymbolTableRecord
100
AcDbLinetypeTableRecord
  2
BYBLOCK
 70
     0
  3

 72
    65
 73
     0
 40
0.0
  0
LTYPE
  5
13
330
5
100
AcDbSymbolTableRecord
100
AcDbLinetypeTableRecord
  2
BYLAYER
 70
     0
  3

 72
    65
 73
     0
 40
0.0
  0
LTYPE
  5
14
330
5
100
AcDbSymbolTableRecord
100
AcDbLinetypeTableRecord
  2
CONTINUOUS
 70
     0
  3
Solid line
 72
    65
 73
     0
 40
0.0
  0
LTYPE
  5
26
330
5
100
AcDbSymbolTableRecord
100
AcDbLinetypeTableRecord
  2
CENTER2
 70
     0
  3
Center (.5x) ___ _ ___ _ ___ _ ___ _ ___ _ ___
 72
    65
 73
     4
 40
28.575
 49
19.05
 74
     0
 49
-3.175
 74
     0
 49
3.175
 74
     0
 49
-3.175
 74
     0
  0
LTYPE
  5
100
330
5
100
AcDbSymbolTableRecord
100
AcDbLinetypeTableRecord
  2
PHANTOM2
 70
     0
  3
Phantom (0.5x) ___ _ _ ___ _ _ ___ _ _ ___ _ _
 72
    65
 73
     6
 40
31.75
 49
15.875
 74
     0
 49
-3.175
 74
     0
 49
3.175
 74
     0
 49
-3.175
 74
     0
 49
3.175
 74
     0
 49
-3.175
 74
     0
  0
ENDTAB
  0
TABLE
  2
LAYER
  5
2
102
{ACAD_XDICTIONARY
360
14EC2
102
}
330
0
100
AcDbSymbolTable
 70
     6
  0
LAYER
  5
E
102
{ACAD_XDICTIONARY
360
15BB5
102
}
330
2
100
AcDbSymbolTableRecord
100
AcDbLayerTableRecord
  2
0
 70
     0
 62
     7
  6
CONTINUOUS
  0
LAYER
  5
29
102
{ACAD_XDICTIONARY
360
15BB7
102
}
330
2
100
AcDbSymbolTableRecord
100
AcDbLayerTableRecord
  2
1CENTER
 70
     0
 62
     7
  6
CENTER2
  0
LAYER
  5
31
102
{ACAD_XDICTIONARY
360
15BB9
102
}
330
2
100
AcDbSymbolTableRecord
100
AcDbLayerTableRecord
  2
1TEXT
 70
     0
 62
     7
  6
CONTINUOUS
  0
LAYER
  5
101
102
{ACAD_XDICTIONARY
360
15BC3
102
}
330
2
100
AcDbSymbolTableRecord
100
AcDbLayerTableRecord
  2
1DIM
 70
     0
 62
     7
  6
CONTINUOUS
  0
LAYER
  5
103
102
{ACAD_XDICTIONARY
360
15BC7
102
}
330
2
100
AcDbSymbolTableRecord
100
AcDbLayerTableRecord
  2
1PHANTOM
 70
     0
 62
     7
  6
PHANTOM2
  0
LAYER
  5
25F
102
{ACAD_XDICTIONARY
360
15BCB
102
}
330
2
100
AcDbSymbolTableRecord
100
AcDbLayerTableRecord
  2
01
 70
     0
 62
     1
  6
CONTINUOUS
  0
ENDTAB
  0
TABLE
  2
STYLE
  5
3
330
0
100
AcDbSymbolTable
 70
     1
  0
STYLE
  5
F
330
3
100
AcDbSymbolTableRecord
100
AcDbTextStyleTableRecord
  2
STANDARD
 70
     0
 40
0.0
 41
1.0
 50
0.0
 71
     0
 42
4.0
  3
txt.shx
  4
extfont.shx
  0
ENDTAB
  0
TABLE
  2
VIEW
  5
6
330
0
100
AcDbSymbolTable
 70
     0
  0
ENDTAB
  0
TABLE
  2
UCS
  5
7
330
0
100
AcDbSymbolTable
 70
     0
  0
ENDTAB
  0
TABLE
  2
APPID
  5
9
330
0
100
AcDbSymbolTable
 70
    12
  0
APPID
  5
10
330
9
100
AcDbSymbolTableRecord
100
AcDbRegAppTableRecord
  2
ACAD
 70
     0
  0
APPID
  5
21
330
9
100
AcDbSymbolTableRecord
100
AcDbRegAppTableRecord
  2
DRAWINGVARIABLESXDATA
 70
     0
  0
APPID
  5
64
330
9
100
AcDbSymbolTableRecord
100
AcDbRegAppTableRecord
  2
CONTENTTABDATA
 70
     0
  0
APPID
  5
65
330
9
100
AcDbSymbolTableRecord
100
AcDbRegAppTableRecord
  2
CONTENTCURRENTTAB
 70
     0
  0
APPID
  5
66
330
9
100
AcDbSymbolTableRecord
100
AcDbRegAppTableRecord
  2
CONTENTBLOCKDESCRIPTION
 70
     0
  0
APPID
  5
67
330
9
100
AcDbSymbolTableRecord
100
AcDbRegAppTableRecord
  2
CONTENTBLOCKICON
 70
     0
  0
APPID
  5
68
330
9
100
AcDbSymbolTableRecord
100
AcDbRegAppTableRecord
  2
CONTENTLONGBLOCKNAME
 70
     0
  0
APPID
  5
5A9
330
9
100
AcDbSymbolTableRecord
100
AcDbRegAppTableRecord
  2
ACAD_PSEXT
 70
     0
  0
APPID
  5
18AC
330
9
100
AcDbSymbolTableRecord
100
AcDbRegAppTableRecord
  2
ACAD_DSTYLE_DIMTEXT_FILL
 70
     0
  0
APPID
  5
15B9A
330
9
100
AcDbSymbolTableRecord
100
AcDbRegAppTableRecord
  2
ACAD_MLEADERVER
 70
     0
  0
APPID
  5
170A1
330
9
100
AcDbSymbolTableRecord
100
AcDbRegAppTableRecord
  2
ACAD_DSTYLE_DIMRADIAL_EXTE
 70
     0
  0
APPID
  5
17520
330
9
100
AcDbSymbolTableRecord
100
AcDbRegAppTableRecord
  2
ACAD_OBJECT_CHANGE_GUID
 70
     0
  0
ENDTAB
  0
TABLE
  2
DIMSTYLE
  5
A
330
0
100
AcDbSymbolTable
 70
     1
  0
DIMSTYLE
105
48
330
A
100
AcDbSymbolTableRecord
100
AcDbDimStyleTableRecord
  2
NEWX10
 70
     0
  3
 
  4

  5

  6
OPEN30
  7
OPEN30
 40
1.0
 41
2.0
 42
0.0
 43
7.0
 44
1.0
 45
0.0
 46
0.0
 47
0.0
 48
0.0
140
3.5
141
0.0
142
0.0
143
25.4
144
1.0
145
0.0
146
0.7
147
0.7
 71
     0
 72
     0
 73
     0
 74
     0
 75
     0
 76
     0
 77
     1
 78
     8
170
     0
171
     2
172
     1
173
     1
174
     0
175
     0
176
   256
177
   256
178
   201
179
     2
270
     2
271
     2
272
     4
273
     2
274
     2
340
F
275
     0
280
     0
281
     0
282
     0
283
     1
284
     8
285
     0
286
     0
287
     2
288
     0
  0
ENDTAB
  0
TABLE
  2
BLOCK_RECORD
  5
1
330
0
100
AcDbSymbolTable
 70
     1
  0
BLOCK_RECORD
  5
18
102
{ACAD_XDICTIONARY
360
6E9
102
}
330
1
100
AcDbSymbolTableRecord
100
AcDbBlockTableRecord
  2
*MODEL_SPACE
  0
BLOCK_RECORD
  5
15
102
{ACAD_XDICTIONARY
360
59B
102
}
330
1
100
AcDbSymbolTableRecord
100
AcDbBlockTableRecord
  2
*PAPER_SPACE
  0
BLOCK_RECORD
  5
42
330
1
100
AcDbSymbolTableRecord
100
AcDbBlockTableRecord
  2
_OPEN30
  0
ENDTAB
  0
ENDSEC
  0
SECTION
  2
BLOCKS
  0
BLOCK
  5
19
330
18
100
AcDbEntity
  8
0
100
AcDbBlockBegin
  2
*MODEL_SPACE
 70
     0
 10
0.0
 20
0.0
 30
0.0
  3
*MODEL_SPACE
  1

  0
ENDBLK
  5
1A
330
18
100
AcDbEntity
  8
0
100
AcDbBlockEnd
  0
BLOCK
  5
16
330
15
100
AcDbEntity
 67
     1
  8
0
100
AcDbBlockBegin
  2
*PAPER_SPACE
 70
     0
 10
0.0
 20
0.0
 30
0.0
  3
*PAPER_SPACE
  1

  0
ENDBLK
  5
17
330
15
100
AcDbEntity
 67
     1
  8
0
100
AcDbBlockEnd
  0
BLOCK
  5
43
330
42
100
AcDbEntity
  8
0
100
AcDbBlockBegin
  2
_OPEN30
 70
     0
 10
0.0
 20
0.0
 30
0.0
  3
_OPEN30
  1

  0
LINE
  5
44
330
42
100
AcDbEntity
  8
0
  6
BYBLOCK
 62
     0
100
AcDbLine
 10
-1.0
 20
0.26794919
 30
0.0
 11
0.0
 21
0.0
 31
0.0
  0
LINE
  5
45
330
42
100
AcDbEntity
  8
0
  6
BYBLOCK
 62
     0
100
AcDbLine
 10
0.0
 20
0.0
 30
0.0
 11
-1.0
 21
-0.26794919
 31
0.0
  0
LINE
  5
46
330
42
100
AcDbEntity
  8
0
  6
BYBLOCK
 62
     0
100
AcDbLine
 10
0.0
 20
0.0
 30
0.0
 11
-1.0
 21
0.0
 31
0.0
  0
ENDBLK
  5
47
330
42
100
AcDbEntity
  8
0
100
AcDbBlockEnd
  0
ENDSEC
  0
SECTION
  2
ENTITIES
  0
LINE
  5
16503
330
18
100
AcDbEntity
  8
1DIM
100
AcDbLine
 10
2488.934863857939
 20
-1662.120040689744
 30
0.0
 11
2698.934863857941
 21
-1662.120040689743
 31
0.0
  0
LINE
  5
16504
330
18
100
AcDbEntity
  8
1DIM
100
AcDbLine
 10
2488.934863857939
 20
-1648.120040689744
 30
0.0
 11
2698.934863857942
 21
-1648.120040689743
 31
0.0
  0
TEXT
  5
16505
330
18
100
AcDbEntity
  8
1TEXT
100
AcDbText
 10
2580.001530524607
 20
-1659.120040689744
 30
0.0
 40
8.0
  1
コード
 72
     1
 11
2593.734863857941
 21
-1659.120040689744
 31
0.0
100
AcDbText
  0
TEXT
  5
16506
330
18
100
AcDbEntity
  8
1TEXT
100
AcDbText
 10
2507.054863857941
 20
-1659.120040689744
 30
0.0
 40
8.0
  1
表面処理
 41
0.9
 72
     1
 11
2523.734863857941
 21
-1659.120040689744
 31
0.0
100
AcDbText
  0
TEXT
  5
16508
330
18
100
AcDbEntity
  8
1TEXT
100
AcDbText
 10
2509.894863857941
 20
-1687.548754657043
 30
0.0
 40
8.0
  1
ヘアライン
 41
0.6
 72
     1
 11
2523.734863857941
 21
-1687.548754657043
 31
0.0
100
AcDbText
  0
LINE
  5
16509
330
18
100
AcDbEntity
  8
1DIM
100
AcDbLine
 10
2488.93486385794
 20
-1648.120040689744
 30
0.0
 11
2488.93486385794
 21
-1704.120040689745
 31
0.0
  0
LINE
  5
1650A
330
18
100
AcDbEntity
  8
1DIM
100
AcDbLine
 10
2558.93486385794
 20
-1648.120040689743
 30
0.0
 11
2558.93486385794
 21
-1704.120040689745
 31
0.0
  0
LINE
  5
1650B
330
18
100
AcDbEntity
  8
1DIM
100
AcDbLine
 10
2628.934863857941
 20
-1648.120040689743
 30
0.0
 11
2628.934863857939
 21
-1704.120040689745
 31
0.0
  0
TEXT
  5
1650C
330
18
100
AcDbEntity
  8
1TEXT
100
AcDbText
 10
2561.707086080164
 20
-1687.548754657043
 30
0.0
 40
8.0
  1
GP072XT01
 72
     1
 11
2593.734863857941
 21
-1687.548754657043
 31
0.0
100
AcDbText
  0
TEXT
  5
1650D
330
18
100
AcDbEntity
  8
1TEXT
100
AcDbText
 10
2486.532284891821
 20
-1639.537782237562
 30
0.0
 40
16.0
  1
GP-072-X-01
100
AcDbText
  0
LINE
  5
1653D
330
18
100
AcDbEntity
  8
1DIM
100
AcDbLine
 10
2488.93486385794
 20
-1704.120040689745
 30
0.0
 11
2698.93486385794
 21
-1704.120040689745
 31
0.0
  0
LINE
  5
168ED
330
18
100
AcDbEntity
  8
01
100
AcDbLine
 10
2441.835766875682
 20
-1792.991327587604
 30
0.0
 11
2308.835766875682
 21
-1792.991327587604
 31
0.0
  0
ARC
  5
168EE
330
18
100
AcDbEntity
  8
01
100
AcDbCircle
 10
2308.835766875682
 20
-1793.991327587604
 30
0.0
 40
1.0
100
AcDbArc
 50
90.0
 51
180.0
  0
LINE
  5
168EF
330
18
100
AcDbEntity
  8
01
100
AcDbLine
 10
2307.835766875682
 20
-1793.991327587604
 30
0.0
 11
2307.835766875682
 21
-2036.991327587604
 31
0.0
  0
ARC
  5
168F0
330
18
100
AcDbEntity
  8
01
100
AcDbCircle
 10
2308.835766875682
 20
-2036.991327587604
 30
0.0
 40
1.0
100
AcDbArc
 50
180.0
 51
270.0
  0
LINE
  5
168F1
330
18
100
AcDbEntity
  8
01
100
AcDbLine
 10
2442.835766875682
 20
-1793.991327587604
 30
0.0
 11
2442.835766875682
 21
-2036.991327587604
 31
0.0
  0
ARC
  5
168F2
330
18
100
AcDbEntity
  8
01
100
AcDbCircle
 10
2441.835766875682
 20
-1793.991327587604
 30
0.0
 40
1.0
100
AcDbArc
 50
0.0
 51
90.0
  0
ARC
  5
168F3
330
18
100
AcDbEntity
  8
01
100
AcDbCircle
 10
2441.835766875682
 20
-2036.991327587604
 30
0.0
 40
1.0
100
AcDbArc
 50
270.0
 51
0.0
  0
LINE
  5
168F4
330
18
100
AcDbEntity
  8
01
100
AcDbLine
 10
2441.835766875682
 20
-2037.991327587604
 30
0.0
 11
2308.835766875682
 21
-2037.991327587604
 31
0.0
  0
LINE
  5
16912
330
18
100
AcDbEntity
  8
01
100
AcDbLine
 10
2395.085766875682
 20
-1982.741313301892
 30
0.0
 11
2355.585766875682
 21
-1982.741313301892
 31
0.0
  0
ARC
  5
16913
330
18
100
AcDbEntity
  8
01
100
AcDbCircle
 10
2395.085766875682
 20
-1982.241313301892
 30
0.0
 40
0.5
100
AcDbArc
 50
270.0
 51
0.0
  0
LINE
  5
16914
330
18
100
AcDbEntity
  8
01
100
AcDbLine
 10
2395.085766875682
 20
-1914.241313301892
 30
0.0
 11
2355.585766875682
 21
-1914.241313301892
 31
0.0
  0
ARC
  5
16915
330
18
100
AcDbEntity
  8
01
100
AcDbCircle
 10
2355.585766875682
 20
-1914.741313301892
 30
0.0
 40
0.5
100
AcDbArc
 50
90.0
 51
180.0
  0
LINE
  5
16916
330
18
100
AcDbEntity
  8
01
100
AcDbLine
 10
2355.085766875682
 20
-1914.741313301892
 30
0.0
 11
2355.085766875682
 21
-1982.241313301892
 31
0.0
  0
ARC
  5
16917
330
18
100
AcDbEntity
  8
01
100
AcDbCircle
 10
2355.585766875682
 20
-1982.241313301892
 30
0.0
 40
0.5
100
AcDbArc
 50
180.0
 51
270.0
  0
LINE
  5
16918
330
18
100
AcDbEntity
  8
01
100
AcDbLine
 10
2395.585766875682
 20
-1914.741313301892
 30
0.0
 11
2395.585766875682
 21
-1982.241313301892
 31
0.0
  0
ARC
  5
16919
330
18
100
AcDbEntity
  8
01
100
AcDbCircle
 10
2395.085766875682
 20
-1914.741313301892
 30
0.0
 40
0.5
100
AcDbArc
 50
0.0
 51
90.0
  0
LINE
  5
1691A
330
18
100
AcDbEntity
  8
01
100
AcDbLine
 10
2348.23576687568
 20
-1972.991313301892
 30
0.0
 11
2350.435766875681
 21
-1972.991313301892
 31
0.0
  0
LINE
  5
1691B
330
18
100
AcDbEntity
  8
01
100
AcDbLine
 10
2348.23576687568
 20
-1952.991313301892
 30
0.0
 11
2350.435766875681
 21
-1952.991313301892
 31
0.0
  0
LINE
  5
1691C
330
18
100
AcDbEntity
  8
01
100
AcDbLine
 10
2350.435766875681
 20
-1952.991313301892
 30
0.0
 11
2350.435766875681
 21
-1972.991313301892
 31
0.0
  0
LINE
  5
1691E
330
18
100
AcDbEntity
  8
01
100
AcDbLine
 10
2348.23576687568
 20
-1952.991313301892
 30
0.0
 11
2348.23576687568
 21
-1972.991313301892
 31
0.0
  0
LINE
  5
1691F
330
18
100
AcDbEntity
  8
01
100
AcDbLine
 10
2355.335766875681
 20
-1876.490692301892
 30
0.0
 11
2395.33576687568
 21
-1876.490692301892
 31
0.0
  0
LINE
  5
16920
330
18
100
AcDbEntity
  8
01
100
AcDbLine
 10
2355.335766875681
 20
-1880.490692301892
 30
0.0
 11
2395.33576687568
 21
-1880.490692301892
 31
0.0
  0
LINE
  5
16921
330
18
100
AcDbEntity
  8
01
100
AcDbLine
 10
2395.33576687568
 20
-1876.490692301892
 30
0.0
 11
2395.33576687568
 21
-1880.490692301892
 31
0.0
  0
LINE
  5
16922
330
18
100
AcDbEntity
  8
01
100
AcDbLine
 10
2395.33576687568
 20
-1884.490692301892
 30
0.0
 11
2395.33576687568
 21
-1888.490692301892
 31
0.0
  0
LINE
  5
16923
330
18
100
AcDbEntity
  8
01
100
AcDbLine
 10
2395.33576687568
 20
-1892.490692301892
 30
0.0
 11
2395.33576687568
 21
-1896.490692301892
 31
0.0
  0
LINE
  5
16924
330
18
100
AcDbEntity
  8
01
100
AcDbLine
 10
2355.335766875681
 20
-1884.490692301892
 30
0.0
 11
2395.33576687568
 21
-1884.490692301892
 31
0.0
  0
LINE
  5
16925
330
18
100
AcDbEntity
  8
01
100
AcDbLine
 10
2355.335766875681
 20
-1888.490692301892
 30
0.0
 11
2395.33576687568
 21
-1888.490692301892
 31
0.0
  0
LINE
  5
16926
330
18
100
AcDbEntity
  8
01
100
AcDbLine
 10
2355.335766875681
 20
-1892.490692301892
 30
0.0
 11
2395.33576687568
 21
-1892.490692301892
 31
0.0
  0
LINE
  5
16927
330
18
100
AcDbEntity
  8
01
100
AcDbLine
 10
2355.335766875681
 20
-1896.490692301892
 30
0.0
 11
2395.33576687568
 21
-1896.490692301892
 31
0.0
  0
LINE
  5
16928
330
18
100
AcDbEntity
  8
01
100
AcDbLine
 10
2355.335766875681
 20
-1868.490692301892
 30
0.0
 11
2395.33576687568
 21
-1868.490692301892
 31
0.0
  0
LINE
  5
16929
330
18
100
AcDbEntity
  8
01
100
AcDbLine
 10
2355.335766875681
 20
-1872.490692301892
 30
0.0
 11
2395.33576687568
 21
-1872.490692301892
 31
0.0
  0
LINE
  5
1692A
330
18
100
AcDbEntity
  8
01
100
AcDbLine
 10
2395.33576687568
 20
-1868.490692301892
 30
0.0
 11
2395.33576687568
 21
-1872.490692301892
 31
0.0
  0
LINE
  5
1692B
330
18
100
AcDbEntity
  8
01
100
AcDbLine
 10
2355.335766875681
 20
-1860.490692301892
 30
0.0
 11
2395.33576687568
 21
-1860.490692301892
 31
0.0
  0
LINE
  5
1692C
330
18
100
AcDbEntity
  8
01
100
AcDbLine
 10
2355.335766875681
 20
-1864.490692301892
 30
0.0
 11
2395.33576687568
 21
-1864.490692301892
 31
0.0
  0
LINE
  5
1692D
330
18
100
AcDbEntity
  8
01
100
AcDbLine
 10
2395.335766875681
 20
-1860.490692301892
 30
0.0
 11
2395.33576687568
 21
-1864.490692301892
 31
0.0
  0
LINE
  5
1692E
330
18
100
AcDbEntity
  8
01
100
AcDbLine
 10
2355.335766875681
 20
-1896.490692301892
 30
0.0
 11
2355.335766875681
 21
-1892.490692301892
 31
0.0
  0
LINE
  5
1692F
330
18
100
AcDbEntity
  8
01
100
AcDbLine
 10
2355.335766875681
 20
-1888.490692301892
 30
0.0
 11
2355.335766875681
 21
-1884.490692301892
 31
0.0
  0
LINE
  5
16930
330
18
100
AcDbEntity
  8
01
100
AcDbLine
 10
2355.335766875681
 20
-1880.490692301892
 30
0.0
 11
2355.335766875681
 21
-1876.490692301892
 31
0.0
  0
LINE
  5
16931
330
18
100
AcDbEntity
  8
01
100
AcDbLine
 10
2355.335766875681
 20
-1872.490692301892
 30
0.0
 11
2355.335766875681
 21
-1868.490692301892
 31
0.0
  0
LINE
  5
16932
330
18
100
AcDbEntity
  8
01
100
AcDbLine
 10
2355.335766875681
 20
-1864.490692301892
 30
0.0
 11
2355.335766875681
 21
-1860.490692301892
 31
0.0
  0
LINE
  5
16B81
330
18
100
AcDbEntity
  8
01
100
AcDbLine
 10
2544.835766875682
 20
-1792.991327587604
 30
0.0
 11
2544.835766875682
 21
-2037.991327587604
 31
0.0
  0
LINE
  5
16B82
330
18
100
AcDbEntity
  8
01
100
AcDbLine
 10
2542.835766875682
 20
-1792.991327587604
 30
0.0
 11
2542.835766875682
 21
-2037.991327587604
 31
0.0
  0
LINE
  5
16B83
330
18
100
AcDbEntity
  8
01
100
AcDbLine
 10
2564.035766875681
 20
-2035.491327587604
 30
0.0
 11
2544.835766875682
 21
-2035.491327587604
 31
0.0
  0
LINE
  5
16B84
330
18
100
AcDbEntity
  8
01
100
AcDbLine
 10
2564.035766875681
 20
-2034.691327587604
 30
0.0
 11
2553.335766875682
 21
-2034.691327587604
 31
0.0
  0
LINE
  5
16B85
330
18
100
AcDbEntity
  8
01
100
AcDbLine
 10
2550.335766875682
 20
-2034.691327587605
 30
0.0
 11
2545.635766875682
 21
-2034.691327587604
 31
0.0
  0
LINE
  5
16B86
330
18
100
AcDbEntity
  8
01
100
AcDbLine
 10
2564.035766875681
 20
-2034.691327587621
 30
0.0
 11
2564.035766875681
 21
-2035.491327587604
 31
0.0
  0
LINE
  5
16B88
330
18
100
AcDbEntity
  8
01
100
AcDbLine
 10
2542.835766875682
 20
-1792.991327587604
 30
0.0
 11
2544.835766875682
 21
-1792.991327587604
 31
0.0
  0
LINE
  5
16B89
330
18
100
AcDbEntity
  8
01
100
AcDbLine
 10
2542.835766875682
 20
-2037.991327587604
 30
0.0
 11
2544.835766875682
 21
-2037.991327587604
 31
0.0
  0
LINE
  5
16B8A
330
18
100
AcDbEntity
  8
01
100
AcDbLine
 10
2554.460766875682
 20
-2035.491327587604
 30
0.0
 11
2553.335766875682
 21
-2035.491327587604
 31
0.0
  0
LINE
  5
16B8B
330
18
100
AcDbEntity
  8
01
100
AcDbLine
 10
2554.460766875682
 20
-2035.491327587604
 30
0.0
 11
2554.460766875682
 21
-2035.941327587605
 31
0.0
  0
ARC
  5
16B8C
330
18
100
AcDbEntity
  8
01
100
AcDbCircle
 10
2552.960766875682
 20
-2035.941327587605
 30
0.0
 40
1.5
100
AcDbArc
 50
270.0
 51
0.000000000000007
  0
LINE
  5
16B8D
330
18
100
AcDbEntity
  8
01
100
AcDbLine
 10
2550.335766875682
 20
-2035.491327587604
 30
0.0
 11
2549.210766875682
 21
-2035.491327587604
 31
0.0
  0
LINE
  5
16B8E
330
18
100
AcDbEntity
  8
01
100
AcDbLine
 10
2552.960766875682
 20
-2037.441327587605
 30
0.0
 11
2550.710766875682
 21
-2037.441327587605
 31
0.0
  0
LINE
  5
16B8F
330
18
100
AcDbEntity
  8
01
100
AcDbLine
 10
2549.210766875682
 20
-2035.491327587604
 30
0.0
 11
2549.210766875682
 21
-2035.941327587605
 31
0.0
  0
ARC
  5
16B90
330
18
100
AcDbEntity
  8
01
100
AcDbCircle
 10
2550.710766875682
 20
-2035.941327587605
 30
0.0
 40
1.5
100
AcDbArc
 50
180.0
 51
270.0
  0
LINE
  5
16BAD
330
18
100
AcDbEntity
  8
1CENTER
100
AcDbLine
 10
2551.835766875682
 20
-2028.223134126556
 30
0.0
 11
2551.835766875682
 21
-2037.775294314334
 31
0.0
  0
LINE
  5
16BB0
330
18
100
AcDbEntity
  8
1PHANTOM
100
AcDbLine
 10
2550.335766875682
 20
-2029.741327587605
 30
0.0
 11
2550.335766875682
 21
-2035.491327587604
 31
0.0
  0
LINE
  5
16BB1
330
18
100
AcDbEntity
  8
1PHANTOM
100
AcDbLine
 10
2550.335766875682
 20
-2029.741327587605
 30
0.0
 11
2550.585766875682
 21
-2029.491327587605
 31
0.0
  0
LINE
  5
16BB2
330
18
100
AcDbEntity
  8
1PHANTOM
100
AcDbLine
 10
2553.085766875682
 20
-2029.491327587605
 30
0.0
 11
2550.585766875682
 21
-2029.491327587605
 31
0.0
  0
LINE
  5
16BB3
330
18
100
AcDbEntity
  8
1PHANTOM
100
AcDbLine
 10
2553.335766875682
 20
-2029.741327587605
 30
0.0
 11
2553.335766875682
 21
-2035.491327587604
 31
0.0
  0
LINE
  5
16BB4
330
18
100
AcDbEntity
  8
1PHANTOM
100
AcDbLine
 10
2553.085766875682
 20
-2029.491327587605
 30
0.0
 11
2553.335766875682
 21
-2029.741327587605
 31
0.0
  0
LINE
  5
16BB5
330
18
100
AcDbEntity
  8
1PHANTOM
100
AcDbLine
 10
2550.335766875682
 20
-2029.741327587605
 30
0.0
 11
2553.335766875682
 21
-2029.741327587605
 31
0.0
  0
LINE
  5
16BB6
330
18
100
AcDbEntity
  8
1PHANTOM
100
AcDbLine
 10
2553.085766875682
 20
-2029.491327587605
 30
0.0
 11
2553.085766875682
 21
-2035.491327587604
 31
0.0
  0
LINE
  5
16BB7
330
18
100
AcDbEntity
  8
1PHANTOM
100
AcDbLine
 10
2550.585766875682
 20
-2029.491327587604
 30
0.0
 11
2550.585766875682
 21
-2035.491327587604
 31
0.0
  0
LINE
  5
16BB9
330
18
100
AcDbEntity
  8
01
100
AcDbLine
 10
2564.035766875681
 20
-1795.491327587605
 30
0.0
 11
2545.635766875682
 21
-1795.491327587605
 31
0.0
  0
ARC
  5
16BBA
330
18
100
AcDbEntity
  8
01
100
AcDbCircle
 10
2545.635766875682
 20
-1796.291327587604
 30
0.0
 40
0.8
100
AcDbArc
 50
90.0
 51
180.0
  0
LINE
  5
16BBD
330
18
100
AcDbEntity
  8
01
100
AcDbLine
 10
2544.835766875682
 20
-1796.291327587604
 30
0.0
 11
2544.835766875682
 21
-2034.691327587604
 31
0.0
  0
LINE
  5
16BBE
330
18
100
AcDbEntity
  8
1CENTER
100
AcDbLine
 10
2551.835766875682
 20
-2029.6420292842
 30
0.0
 11
2551.835766875682
 21
-2038.109232503074
 31
0.0
  0
ARC
  5
16BC5
330
18
100
AcDbEntity
  8
01
100
AcDbCircle
 10
2564.035766875681
 20
-1796.291327587604
 30
0.0
 40
0.8
100
AcDbArc
 50
0.000000000000007
 51
90.0
  0
LINE
  5
16BC6
330
18
100
AcDbEntity
  8
01
100
AcDbLine
 10
2564.835766875682
 20
-1796.291327587604
 30
0.0
 11
2564.835766875682
 21
-2033.891327587605
 31
0.0
  0
ARC
  5
16BC7
330
18
100
AcDbEntity
  8
01
100
AcDbCircle
 10
2564.035766875682
 20
-2033.891327587605
 30
0.0
 40
0.8
100
AcDbArc
 50
270.0
 51
0.000000000000007
  0
LINE
  5
16BCB
330
18
100
AcDbEntity
  8
01
100
AcDbLine
 10
2564.035766875682
 20
-2035.491327587604
 30
0.0
 11
2545.635766875682
 21
-2035.491327587604
 31
0.0
  0
LINE
  5
16BCC
330
18
100
AcDbEntity
  8
01
100
AcDbLine
 10
2564.035766875682
 20
-2034.691327587604
 30
0.0
 11
2544.835766875682
 21
-2034.691327587604
 31
0.0
  0
LINE
  5
16BD3
330
18
100
AcDbEntity
  8
01
100
AcDbLine
 10
2564.035766875682
 20
-2034.691327587621
 30
0.0
 11
2564.035766875682
 21
-2035.491327587604
 31
0.0
  0
CIRCLE
  5
16BF2
330
18
100
AcDbEntity
  8
1PHANTOM
100
AcDbCircle
 10
2320.335766875682
 20
-1815.491327587604
 30
0.0
 40
2.25
  0
CIRCLE
  5
16BF3
330
18
100
AcDbEntity
  8
1PHANTOM
100
AcDbCircle
 10
2430.335766875682
 20
-1815.491327587604
 30
0.0
 40
2.25
  0
CIRCLE
  5
16BF4
330
18
100
AcDbEntity
  8
1PHANTOM
100
AcDbCircle
 10
2320.335766875682
 20
-2015.491327587604
 30
0.0
 40
2.25
  0
CIRCLE
  5
16BF5
330
18
100
AcDbEntity
  8
1PHANTOM
100
AcDbCircle
 10
2430.335766875682
 20
-2015.491327587604
 30
0.0
 40
2.25
  0
LINE
  5
16BF6
330
18
100
AcDbEntity
  8
1CENTER
100
AcDbLine
 10
2425.835766875681
 20
-1815.491327587604
 30
0.0
 11
2434.835766875681
 21
-1815.491327587604
 31
0.0
  0
LINE
  5
16BF7
330
18
100
AcDbEntity
  8
1CENTER
100
AcDbLine
 10
2430.335766875681
 20
-1819.991327587604
 30
0.0
 11
2430.335766875681
 21
-1810.991327587604
 31
0.0
  0
LINE
  5
16BF8
330
18
100
AcDbEntity
  8
1CENTER
100
AcDbLine
 10
2315.835766875682
 20
-1815.491327587604
 30
0.0
 11
2324.835766875682
 21
-1815.491327587604
 31
0.0
  0
LINE
  5
16BF9
330
18
100
AcDbEntity
  8
1CENTER
100
AcDbLine
 10
2320.335766875682
 20
-1819.991327587604
 30
0.0
 11
2320.335766875682
 21
-1810.991327587604
 31
0.0
  0
LINE
  5
16BFA
330
18
100
AcDbEntity
  8
1CENTER
100
AcDbLine
 10
2315.835766875682
 20
-2015.491327587604
 30
0.0
 11
2324.835766875682
 21
-2015.491327587604
 31
0.0
  0
LINE
  5
16BFB
330
18
100
AcDbEntity
  8
1CENTER
100
AcDbLine
 10
2320.335766875682
 20
-2019.991327587604
 30
0.0
 11
2320.335766875682
 21
-2010.991327587604
 31
0.0
  0
LINE
  5
16BFC
330
18
100
AcDbEntity
  8
1CENTER
100
AcDbLine
 10
2425.835766875681
 20
-2015.491327587604
 30
0.0
 11
2434.835766875681
 21
-2015.491327587604
 31
0.0
  0
LINE
  5
16BFD
330
18
100
AcDbEntity
  8
1CENTER
100
AcDbLine
 10
2430.335766875681
 20
-2019.991327587604
 30
0.0
 11
2430.335766875681
 21
-2010.991327587604
 31
0.0
  0
LINE
  5
16BFE
330
18
100
AcDbEntity
  8
01
  6
BYBLOCK
100
AcDbLine
 10
2307.835766875682
 20
-1692.991327587604
 30
0.0
 11
2307.835766875682
 21
-1690.991327587604
 31
0.0
  0
LINE
  5
16BFF
330
18
100
AcDbEntity
  8
01
  6
BYBLOCK
100
AcDbLine
 10
2307.835766875682
 20
-1690.991327587604
 30
0.0
 11
2442.835766875681
 21
-1690.991327587604
 31
0.0
  0
LINE
  5
16C00
330
18
100
AcDbEntity
  8
01
  6
BYBLOCK
100
AcDbLine
 10
2442.835766875682
 20
-1692.991327587604
 30
0.0
 11
2442.835766875682
 21
-1690.991327587604
 31
0.0
  0
LINE
  5
16C02
330
18
100
AcDbEntity
  8
01
  6
BYBLOCK
100
AcDbLine
 10
2307.835766875682
 20
-1692.991327587604
 30
0.0
 11
2442.835766875682
 21
-1692.991327587604
 31
0.0
  0
LINE
  5
16C11
330
18
100
AcDbEntity
  8
01
  6
BYBLOCK
100
AcDbLine
 10
2310.335766875682
 20
-1690.191327587604
 30
0.0
 11
2310.335766875682
 21
-1671.791327587604
 31
0.0
  0
LINE
  5
16C12
330
18
100
AcDbEntity
  8
01
  6
BYBLOCK
100
AcDbLine
 10
2440.335766875682
 20
-1690.191327587604
 30
0.0
 11
2440.335766875681
 21
-1671.791327587604
 31
0.0
  0
LINE
  5
16C13
330
18
100
AcDbEntity
  8
01
  6
BYBLOCK
100
AcDbLine
 10
2311.135766875682
 20
-1670.991327587604
 30
0.0
 11
2439.535766875681
 21
-1670.991327587604
 31
0.0
  0
ARC
  5
16C14
330
18
100
AcDbEntity
  8
01
  6
BYBLOCK
100
AcDbCircle
 10
2439.535766875681
 20
-1671.791327587604
 30
0.0
 40
0.8
100
AcDbArc
 50
0.0
 51
90.00000000000006
  0
ARC
  5
16C15
330
18
100
AcDbEntity
  8
01
  6
BYBLOCK
100
AcDbCircle
 10
2439.535766875681
 20
-1690.191327587604
 30
0.0
 40
0.8
100
AcDbArc
 50
270.0000000000001
 51
0.0000000000004071
  0
ARC
  5
16C16
330
18
100
AcDbEntity
  8
01
  6
BYBLOCK
100
AcDbCircle
 10
2311.135766875682
 20
-1690.191327587604
 30
0.0
 40
0.8
100
AcDbArc
 50
180.0
 51
270.0000000000001
  0
ARC
  5
16C17
330
18
100
AcDbEntity
  8
01
  6
BYBLOCK
100
AcDbCircle
 10
2311.135766875682
 20
-1671.791327587604
 30
0.0
 40
0.8
100
AcDbArc
 50
90.0
 51
180.0
  0
LINE
  5
16C32
330
18
100
AcDbEntity
  8
01
100
AcDbLine
 10
2579.835766875681
 20
-1773.576646036295
 30
0.0
 11
2579.835766875683
 21
-2052.47660754855
 31
0.0
  0
LINE
  5
16C33
330
18
100
AcDbEntity
  8
01
100
AcDbLine
 10
2564.835766875681
 20
-1773.576646036295
 30
0.0
 11
2564.835766875683
 21
-2052.47660754855
 31
0.0
  0
LINE
  5
16C90
102
{ACAD_REACTORS
330
16CD3
102
}
330
18
100
AcDbEntity
  8
1PHANTOM
100
AcDbLine
 10
2594.035766875519
 20
-1815.491374123502
 30
0.0
 11
2588.735770365657
 21
-1813.991374123502
 31
0.0
  0
LINE
  5
16C91
102
{ACAD_REACTORS
330
16CD3
102
}
330
18
100
AcDbEntity
  8
1PHANTOM
100
AcDbLine
 10
2588.735770365657
 20
-1813.991374123502
 30
0.0
 11
2564.035770365765
 21
-1813.991374123503
 31
0.0
  0
LINE
  5
16C92
102
{ACAD_REACTORS
330
16CD3
102
}
330
18
100
AcDbEntity
  8
1PHANTOM
100
AcDbLine
 10
2594.035766875519
 20
-1815.491374123502
 30
0.0
 11
2588.735763385273
 21
-1816.991374123502
 31
0.0
  0
LINE
  5
16C93
102
{ACAD_REACTORS
330
16CD3
102
}
330
18
100
AcDbEntity
  8
1PHANTOM
100
AcDbLine
 10
2564.035775019463
 20
-1811.991327587604
 30
0.0
 11
2564.035770365765
 21
-1813.991374123503
 31
0.0
  0
LINE
  5
16C94
102
{ACAD_REACTORS
330
16CD3
102
}
330
18
100
AcDbEntity
  8
1PHANTOM
100
AcDbLine
 10
2588.735763385273
 20
-1816.991374123502
 30
0.0
 11
2564.035763385381
 21
-1816.991374123502
 31
0.0
  0
LINE
  5
16C95
102
{ACAD_REACTORS
330
16CD3
102
}
330
18
100
AcDbEntity
  8
1PHANTOM
100
AcDbLine
 10
2564.035775019463
 20
-1811.991327587604
 30
0.0
 11
2562.935771529268
 21
-1811.991327587604
 31
0.0
  0
LINE
  5
16C96
102
{ACAD_REACTORS
330
16CD3
102
}
330
18
100
AcDbEntity
  8
1PHANTOM
100
AcDbLine
 10
2564.035763385381
 20
-1816.991374123502
 30
0.0
 11
2564.035758731899
 21
-1818.991327587604
 31
0.0
  0
ARC
  5
16C97
102
{ACAD_REACTORS
330
16CD3
102
}
330
18
100
AcDbEntity
  8
1PHANTOM
100
AcDbCircle
 10
2562.935771529268
 20
-1813.491327587604
 30
0.0
 40
1.5
100
AcDbArc
 50
90.0
 51
179.9998666844668
  0
LINE
  5
16C98
102
{ACAD_REACTORS
330
16CD3
102
}
330
18
100
AcDbEntity
  8
1PHANTOM
100
AcDbLine
 10
2564.035758731899
 20
-1818.991327587604
 30
0.0
 11
2562.935762222088
 21
-1818.991327587604
 31
0.0
  0
LINE
  5
16C99
102
{ACAD_REACTORS
330
16CD3
102
}
330
18
100
AcDbEntity
  8
1PHANTOM
100
AcDbLine
 10
2561.435771529272
 20
-1813.491324097412
 30
0.0
 11
2561.435762222092
 21
-1817.491324097412
 31
0.0
  0
ARC
  5
16C9A
102
{ACAD_REACTORS
330
16CD3
102
}
330
18
100
AcDbEntity
  8
1PHANTOM
100
AcDbCircle
 10
2562.935762222088
 20
-1817.491327587604
 30
0.0
 40
1.5
100
AcDbArc
 50
179.9998666844668
 51
270.0
  0
LINE
  5
16C9B
102
{ACAD_REACTORS
330
16CD3
102
}
330
18
100
AcDbEntity
  8
1PHANTOM
100
AcDbLine
 10
2596.996681466827
 20
-1815.491327587604
 30
0.0
 11
2560.365490466372
 21
-1815.491327587604
 31
0.0
  0
LINE
  5
16C9C
102
{ACAD_REACTORS
330
16CD3
102
}
330
18
100
AcDbEntity
  8
1PHANTOM
100
AcDbLine
 10
2591.935769421841
 20
-1814.397003773609
 30
0.0
 11
2592.735764855892
 21
-1816.359338862485
 31
0.0
  0
LINE
  5
16C9D
102
{ACAD_REACTORS
330
16CD3
102
}
330
18
100
AcDbEntity
  8
1PHANTOM
100
AcDbLine
 10
2592.735764855892
 20
-1816.359338862485
 30
0.0
 11
2593.047534712144
 21
-1815.771062287442
 31
0.0
  0
LINE
  5
16C9E
102
{ACAD_REACTORS
330
16CD3
102
}
330
18
100
AcDbEntity
  8
1PHANTOM
100
AcDbLine
 10
2569.535771529051
 20
-1813.491374123502
 30
0.0
 11
2570.335762221869
 21
-1817.491374123502
 31
0.0
  0
LINE
  5
16C9F
102
{ACAD_REACTORS
330
16CD3
102
}
330
18
100
AcDbEntity
  8
1PHANTOM
100
AcDbLine
 10
2580.735771529055
 20
-1813.491374123502
 30
0.0
 11
2581.535762221878
 21
-1817.491374123502
 31
0.0
  0
LINE
  5
16CA0
102
{ACAD_REACTORS
330
16CD3
102
}
330
18
100
AcDbEntity
  8
1PHANTOM
100
AcDbLine
 10
2583.935771529055
 20
-1813.491374123502
 30
0.0
 11
2584.735762221878
 21
-1817.491374123502
 31
0.0
  0
LINE
  5
16CA1
102
{ACAD_REACTORS
330
16CD3
102
}
330
18
100
AcDbEntity
  8
1PHANTOM
100
AcDbLine
 10
2584.735762221878
 20
-1817.491374123502
 30
0.0
 11
2584.835763385275
 21
-1816.991374123502
 31
0.0
  0
LINE
  5
16CA2
102
{ACAD_REACTORS
330
16CD3
102
}
330
18
100
AcDbEntity
  8
1PHANTOM
100
AcDbLine
 10
2585.435770365658
 20
-1813.991374123502
 30
0.0
 11
2585.535771529055
 21
-1813.491374123502
 31
0.0
  0
LINE
  5
16CA3
102
{ACAD_REACTORS
330
16CD3
102
}
330
18
100
AcDbEntity
  8
1PHANTOM
100
AcDbLine
 10
2581.535762221878
 20
-1817.491374123502
 30
0.0
 11
2581.635763385275
 21
-1816.991374123502
 31
0.0
  0
LINE
  5
16CA4
102
{ACAD_REACTORS
330
16CD3
102
}
330
18
100
AcDbEntity
  8
1PHANTOM
100
AcDbLine
 10
2583.135762221878
 20
-1817.491374123502
 30
0.0
 11
2583.235763385275
 21
-1816.991374123502
 31
0.0
  0
LINE
  5
16CA5
102
{ACAD_REACTORS
330
16CD3
102
}
330
18
100
AcDbEntity
  8
1PHANTOM
100
AcDbLine
 10
2583.835770365658
 20
-1813.991374123502
 30
0.0
 11
2583.935771529055
 21
-1813.491374123502
 31
0.0
  0
LINE
  5
16CA6
102
{ACAD_REACTORS
330
16CD3
102
}
330
18
100
AcDbEntity
  8
1PHANTOM
100
AcDbLine
 10
2582.235770365658
 20
-1813.991374123502
 30
0.0
 11
2582.335771529055
 21
-1813.491374123502
 31
0.0
  0
LINE
  5
16CA7
102
{ACAD_REACTORS
330
16CD3
102
}
330
18
100
AcDbEntity
  8
1PHANTOM
100
AcDbLine
 10
2582.335771529055
 20
-1813.491374123502
 30
0.0
 11
2583.135762221878
 21
-1817.491374123502
 31
0.0
  0
LINE
  5
16CA8
102
{ACAD_REACTORS
330
16CD3
102
}
330
18
100
AcDbEntity
  8
1PHANTOM
100
AcDbLine
 10
2591.135763802286
 20
-1816.812152966892
 30
0.0
 11
2591.318527944914
 21
-1816.260403503088
 31
0.0
  0
LINE
  5
16CA9
102
{ACAD_REACTORS
330
16CD3
102
}
330
18
100
AcDbEntity
  8
1PHANTOM
100
AcDbLine
 10
2587.935762221878
 20
-1817.491374123502
 30
0.0
 11
2588.035763385275
 21
-1816.991374123502
 31
0.0
  0
LINE
  5
16CAA
102
{ACAD_REACTORS
330
16CD3
102
}
330
18
100
AcDbEntity
  8
1PHANTOM
100
AcDbLine
 10
2586.335762221878
 20
-1817.491374123502
 30
0.0
 11
2586.435763385275
 21
-1816.991374123502
 31
0.0
  0
LINE
  5
16CAB
102
{ACAD_REACTORS
330
16CD3
102
}
330
18
100
AcDbEntity
  8
1PHANTOM
100
AcDbLine
 10
2589.535762748681
 20
-1817.264967071298
 30
0.0
 11
2589.66503344631
 21
-1816.728373336027
 31
0.0
  0
LINE
  5
16CAC
102
{ACAD_REACTORS
330
16CD3
102
}
330
18
100
AcDbEntity
  8
1PHANTOM
100
AcDbLine
 10
2590.223000963095
 20
-1814.412288720711
 30
0.0
 11
2590.335770475445
 21
-1813.944190265561
 31
0.0
  0
LINE
  5
16CAD
102
{ACAD_REACTORS
330
16CD3
102
}
330
18
100
AcDbEntity
  8
1PHANTOM
100
AcDbLine
 10
2587.035770365658
 20
-1813.991374123502
 30
0.0
 11
2587.135771529055
 21
-1813.491374123502
 31
0.0
  0
LINE
  5
16CAE
102
{ACAD_REACTORS
330
16CD3
102
}
330
18
100
AcDbEntity
  8
1PHANTOM
100
AcDbLine
 10
2588.635770365658
 20
-1813.991374123502
 30
0.0
 11
2588.735771529055
 21
-1813.491374123502
 31
0.0
  0
LINE
  5
16CAF
102
{ACAD_REACTORS
330
16CD3
102
}
330
18
100
AcDbEntity
  8
1PHANTOM
100
AcDbLine
 10
2591.7843336254
 20
-1814.85417561424
 30
0.0
 11
2591.935769421841
 21
-1814.397003773609
 31
0.0
  0
LINE
  5
16CB0
102
{ACAD_REACTORS
330
16CD3
102
}
330
18
100
AcDbEntity
  8
1PHANTOM
100
AcDbLine
 10
2590.335770475445
 20
-1813.944190265561
 30
0.0
 11
2591.135763802286
 21
-1816.812152966892
 31
0.0
  0
LINE
  5
16CB1
102
{ACAD_REACTORS
330
16CD3
102
}
330
18
100
AcDbEntity
  8
1PHANTOM
100
AcDbLine
 10
2587.135771529055
 20
-1813.491374123502
 30
0.0
 11
2587.935762221878
 21
-1817.491374123502
 31
0.0
  0
LINE
  5
16CB2
102
{ACAD_REACTORS
330
16CD3
102
}
330
18
100
AcDbEntity
  8
1PHANTOM
100
AcDbLine
 10
2588.735771529055
 20
-1813.491374123502
 30
0.0
 11
2589.535762748681
 21
-1817.264967071298
 31
0.0
  0
LINE
  5
16CB3
102
{ACAD_REACTORS
330
16CD3
102
}
330
18
100
AcDbEntity
  8
1PHANTOM
100
AcDbLine
 10
2585.535771529055
 20
-1813.491374123502
 30
0.0
 11
2586.335762221878
 21
-1817.491374123502
 31
0.0
  0
LINE
  5
16CB4
102
{ACAD_REACTORS
330
16CD3
102
}
330
18
100
AcDbEntity
  8
1PHANTOM
100
AcDbLine
 10
2572.735771529051
 20
-1813.491374123502
 30
0.0
 11
2573.535762221869
 21
-1817.491374123502
 31
0.0
  0
LINE
  5
16CB5
102
{ACAD_REACTORS
330
16CD3
102
}
330
18
100
AcDbEntity
  8
1PHANTOM
100
AcDbLine
 10
2573.535762221869
 20
-1817.491374123502
 30
0.0
 11
2573.635763385267
 21
-1816.991374123502
 31
0.0
  0
LINE
  5
16CB6
102
{ACAD_REACTORS
330
16CD3
102
}
330
18
100
AcDbEntity
  8
1PHANTOM
100
AcDbLine
 10
2574.235770365658
 20
-1813.991374123502
 30
0.0
 11
2574.335771529055
 21
-1813.491374123502
 31
0.0
  0
LINE
  5
16CB7
102
{ACAD_REACTORS
330
16CD3
102
}
330
18
100
AcDbEntity
  8
1PHANTOM
100
AcDbLine
 10
2571.935762221869
 20
-1817.491374123502
 30
0.0
 11
2572.035763385266
 21
-1816.991374123502
 31
0.0
  0
LINE
  5
16CB8
102
{ACAD_REACTORS
330
16CD3
102
}
330
18
100
AcDbEntity
  8
1PHANTOM
100
AcDbLine
 10
2570.335762221869
 20
-1817.491374123502
 30
0.0
 11
2570.435763385267
 21
-1816.991374123502
 31
0.0
  0
LINE
  5
16CB9
102
{ACAD_REACTORS
330
16CD3
102
}
330
18
100
AcDbEntity
  8
1PHANTOM
100
AcDbLine
 10
2572.635770365653
 20
-1813.991374123502
 30
0.0
 11
2572.735771529051
 21
-1813.491374123502
 31
0.0
  0
LINE
  5
16CBA
102
{ACAD_REACTORS
330
16CD3
102
}
330
18
100
AcDbEntity
  8
1PHANTOM
100
AcDbLine
 10
2571.035770365653
 20
-1813.991374123502
 30
0.0
 11
2571.135771529051
 21
-1813.491374123502
 31
0.0
  0
LINE
  5
16CBB
102
{ACAD_REACTORS
330
16CD3
102
}
330
18
100
AcDbEntity
  8
1PHANTOM
100
AcDbLine
 10
2571.135771529051
 20
-1813.491374123502
 30
0.0
 11
2571.935762221869
 21
-1817.491374123502
 31
0.0
  0
LINE
  5
16CBC
102
{ACAD_REACTORS
330
16CD3
102
}
330
18
100
AcDbEntity
  8
1PHANTOM
100
AcDbLine
 10
2578.335762221874
 20
-1817.491374123502
 30
0.0
 11
2578.435763385271
 21
-1816.991374123502
 31
0.0
  0
LINE
  5
16CBD
102
{ACAD_REACTORS
330
16CD3
102
}
330
18
100
AcDbEntity
  8
1PHANTOM
100
AcDbLine
 10
2579.935762221878
 20
-1817.491374123502
 30
0.0
 11
2580.035763385275
 21
-1816.991374123502
 31
0.0
  0
LINE
  5
16CBE
102
{ACAD_REACTORS
330
16CD3
102
}
330
18
100
AcDbEntity
  8
1PHANTOM
100
AcDbLine
 10
2575.135762221873
 20
-1817.491374123502
 30
0.0
 11
2575.235763385271
 21
-1816.991374123502
 31
0.0
  0
LINE
  5
16CBF
102
{ACAD_REACTORS
330
16CD3
102
}
330
18
100
AcDbEntity
  8
1PHANTOM
100
AcDbLine
 10
2576.735762221873
 20
-1817.491374123502
 30
0.0
 11
2576.835763385271
 21
-1816.991374123502
 31
0.0
  0
LINE
  5
16CC0
102
{ACAD_REACTORS
330
16CD3
102
}
330
18
100
AcDbEntity
  8
1PHANTOM
100
AcDbLine
 10
2580.635770365658
 20
-1813.991374123502
 30
0.0
 11
2580.735771529055
 21
-1813.491374123502
 31
0.0
  0
LINE
  5
16CC1
102
{ACAD_REACTORS
330
16CD3
102
}
330
18
100
AcDbEntity
  8
1PHANTOM
100
AcDbLine
 10
2579.035770365657
 20
-1813.991374123502
 30
0.0
 11
2579.135771529055
 21
-1813.491374123502
 31
0.0
  0
LINE
  5
16CC2
102
{ACAD_REACTORS
330
16CD3
102
}
330
18
100
AcDbEntity
  8
1PHANTOM
100
AcDbLine
 10
2575.835770365657
 20
-1813.991374123502
 30
0.0
 11
2575.935771529055
 21
-1813.491374123502
 31
0.0
  0
LINE
  5
16CC3
102
{ACAD_REACTORS
330
16CD3
102
}
330
18
100
AcDbEntity
  8
1PHANTOM
100
AcDbLine
 10
2577.435770365658
 20
-1813.991374123502
 30
0.0
 11
2577.535771529055
 21
-1813.491374123502
 31
0.0
  0
LINE
  5
16CC4
102
{ACAD_REACTORS
330
16CD3
102
}
330
18
100
AcDbEntity
  8
1PHANTOM
100
AcDbLine
 10
2577.535771529055
 20
-1813.491374123502
 30
0.0
 11
2578.335762221874
 21
-1817.491374123502
 31
0.0
  0
LINE
  5
16CC5
102
{ACAD_REACTORS
330
16CD3
102
}
330
18
100
AcDbEntity
  8
1PHANTOM
100
AcDbLine
 10
2579.135771529055
 20
-1813.491374123502
 30
0.0
 11
2579.935762221878
 21
-1817.491374123502
 31
0.0
  0
LINE
  5
16CC6
102
{ACAD_REACTORS
330
16CD3
102
}
330
18
100
AcDbEntity
  8
1PHANTOM
100
AcDbLine
 10
2575.935771529055
 20
-1813.491374123502
 30
0.0
 11
2576.735762221873
 21
-1817.491374123502
 31
0.0
  0
LINE
  5
16CC7
102
{ACAD_REACTORS
330
16CD3
102
}
330
18
100
AcDbEntity
  8
1PHANTOM
100
AcDbLine
 10
2574.335771529055
 20
-1813.491374123502
 30
0.0
 11
2575.135762221873
 21
-1817.491374123502
 31
0.0
  0
LINE
  5
16CC8
102
{ACAD_REACTORS
330
16CD3
102
}
330
18
100
AcDbEntity
  8
1PHANTOM
100
AcDbLine
 10
2564.035763385381
 20
-1816.991374123502
 30
0.0
 11
2564.035770365765
 21
-1813.991374123503
 31
0.0
  0
LINE
  5
16CC9
102
{ACAD_REACTORS
330
16CD3
102
}
330
18
100
AcDbEntity
  8
1PHANTOM
100
AcDbLine
 10
2564.635770365649
 20
-1813.991374123502
 30
0.0
 11
2564.735771529046
 21
-1813.491374123502
 31
0.0
  0
LINE
  5
16CCA
102
{ACAD_REACTORS
330
16CD3
102
}
330
18
100
AcDbEntity
  8
1PHANTOM
100
AcDbLine
 10
2564.735771529046
 20
-1813.491374123502
 30
0.0
 11
2565.535762221865
 21
-1817.491374123502
 31
0.0
  0
LINE
  5
16CCB
102
{ACAD_REACTORS
330
16CD3
102
}
330
18
100
AcDbEntity
  8
1PHANTOM
100
AcDbLine
 10
2565.535762221865
 20
-1817.491374123502
 30
0.0
 11
2565.635763385263
 21
-1816.991374123502
 31
0.0
  0
LINE
  5
16CCC
102
{ACAD_REACTORS
330
16CD3
102
}
330
18
100
AcDbEntity
  8
1PHANTOM
100
AcDbLine
 10
2566.235770365649
 20
-1813.991374123502
 30
0.0
 11
2566.335771529047
 21
-1813.491374123502
 31
0.0
  0
LINE
  5
16CCD
102
{ACAD_REACTORS
330
16CD3
102
}
330
18
100
AcDbEntity
  8
1PHANTOM
100
AcDbLine
 10
2567.835770365649
 20
-1813.991374123502
 30
0.0
 11
2567.935771529046
 21
-1813.491374123502
 31
0.0
  0
LINE
  5
16CCE
102
{ACAD_REACTORS
330
16CD3
102
}
330
18
100
AcDbEntity
  8
1PHANTOM
100
AcDbLine
 10
2567.935771529046
 20
-1813.491374123502
 30
0.0
 11
2568.735762221865
 21
-1817.491374123502
 31
0.0
  0
LINE
  5
16CCF
102
{ACAD_REACTORS
330
16CD3
102
}
330
18
100
AcDbEntity
  8
1PHANTOM
100
AcDbLine
 10
2567.135762221865
 20
-1817.491374123502
 30
0.0
 11
2567.235763385263
 21
-1816.991374123502
 31
0.0
  0
LINE
  5
16CD0
102
{ACAD_REACTORS
330
16CD3
102
}
330
18
100
AcDbEntity
  8
1PHANTOM
100
AcDbLine
 10
2568.735762221865
 20
-1817.491374123502
 30
0.0
 11
2568.835763385262
 21
-1816.991374123502
 31
0.0
  0
LINE
  5
16CD1
102
{ACAD_REACTORS
330
16CD3
102
}
330
18
100
AcDbEntity
  8
1PHANTOM
100
AcDbLine
 10
2566.335771529047
 20
-1813.491374123502
 30
0.0
 11
2567.135762221865
 21
-1817.491374123502
 31
0.0
  0
LINE
  5
16CD2
102
{ACAD_REACTORS
330
16CD3
102
}
330
18
100
AcDbEntity
  8
1PHANTOM
100
AcDbLine
 10
2569.435770365653
 20
-1813.991374123502
 30
0.0
 11
2569.535771529051
 21
-1813.491374123502
 31
0.0
  0
LINE
  5
16CD4
102
{ACAD_REACTORS
330
16D17
102
}
330
18
100
AcDbEntity
  8
1PHANTOM
100
AcDbLine
 10
2594.03576687552
 20
-2015.491374123502
 30
0.0
 11
2588.735770365658
 21
-2013.991374123502
 31
0.0
  0
LINE
  5
16CD5
102
{ACAD_REACTORS
330
16D17
102
}
330
18
100
AcDbEntity
  8
1PHANTOM
100
AcDbLine
 10
2588.735770365658
 20
-2013.991374123502
 30
0.0
 11
2564.035770365766
 21
-2013.991374123503
 31
0.0
  0
LINE
  5
16CD6
102
{ACAD_REACTORS
330
16D17
102
}
330
18
100
AcDbEntity
  8
1PHANTOM
100
AcDbLine
 10
2594.03576687552
 20
-2015.491374123502
 30
0.0
 11
2588.735763385275
 21
-2016.991374123502
 31
0.0
  0
LINE
  5
16CD7
102
{ACAD_REACTORS
330
16D17
102
}
330
18
100
AcDbEntity
  8
1PHANTOM
100
AcDbLine
 10
2564.035775019465
 20
-2011.991327587604
 30
0.0
 11
2564.035770365766
 21
-2013.991374123503
 31
0.0
  0
LINE
  5
16CD8
102
{ACAD_REACTORS
330
16D17
102
}
330
18
100
AcDbEntity
  8
1PHANTOM
100
AcDbLine
 10
2588.735763385275
 20
-2016.991374123502
 30
0.0
 11
2564.035763385382
 21
-2016.991374123502
 31
0.0
  0
LINE
  5
16CD9
102
{ACAD_REACTORS
330
16D17
102
}
330
18
100
AcDbEntity
  8
1PHANTOM
100
AcDbLine
 10
2564.035775019465
 20
-2011.991327587604
 30
0.0
 11
2562.935771529269
 21
-2011.991327587604
 31
0.0
  0
LINE
  5
16CDA
102
{ACAD_REACTORS
330
16D17
102
}
330
18
100
AcDbEntity
  8
1PHANTOM
100
AcDbLine
 10
2564.035763385382
 20
-2016.991374123502
 30
0.0
 11
2564.0357587319
 21
-2018.991327587604
 31
0.0
  0
ARC
  5
16CDB
102
{ACAD_REACTORS
330
16D17
102
}
330
18
100
AcDbEntity
  8
1PHANTOM
100
AcDbCircle
 10
2562.935771529269
 20
-2013.491327587604
 30
0.0
 40
1.5
100
AcDbArc
 50
90.0
 51
179.999866684466
  0
LINE
  5
16CDC
102
{ACAD_REACTORS
330
16D17
102
}
330
18
100
AcDbEntity
  8
1PHANTOM
100
AcDbLine
 10
2564.0357587319
 20
-2018.991327587604
 30
0.0
 11
2562.93576222209
 21
-2018.991327587604
 31
0.0
  0
LINE
  5
16CDD
102
{ACAD_REACTORS
330
16D17
102
}
330
18
100
AcDbEntity
  8
1PHANTOM
100
AcDbLine
 10
2561.435771529273
 20
-2013.491324097412
 30
0.0
 11
2561.435762222094
 21
-2017.491324097412
 31
0.0
  0
ARC
  5
16CDE
102
{ACAD_REACTORS
330
16D17
102
}
330
18
100
AcDbEntity
  8
1PHANTOM
100
AcDbCircle
 10
2562.93576222209
 20
-2017.491327587604
 30
0.0
 40
1.5
100
AcDbArc
 50
179.999866684466
 51
270.0
  0
LINE
  5
16CDF
102
{ACAD_REACTORS
330
16D17
102
}
330
18
100
AcDbEntity
  8
1PHANTOM
100
AcDbLine
 10
2596.996681466828
 20
-2015.491327587604
 30
0.0
 11
2560.365490466374
 21
-2015.491327587604
 31
0.0
  0
LINE
  5
16CE0
102
{ACAD_REACTORS
330
16D17
102
}
330
18
100
AcDbEntity
  8
1PHANTOM
100
AcDbLine
 10
2591.935769421842
 20
-2014.397003773609
 30
0.0
 11
2592.735764855893
 21
-2016.359338862485
 31
0.0
  0
LINE
  5
16CE1
102
{ACAD_REACTORS
330
16D17
102
}
330
18
100
AcDbEntity
  8
1PHANTOM
100
AcDbLine
 10
2592.735764855893
 20
-2016.359338862485
 30
0.0
 11
2593.047534712145
 21
-2015.771062287442
 31
0.0
  0
LINE
  5
16CE2
102
{ACAD_REACTORS
330
16D17
102
}
330
18
100
AcDbEntity
  8
1PHANTOM
100
AcDbLine
 10
2569.535771529052
 20
-2013.491374123502
 30
0.0
 11
2570.33576222187
 21
-2017.491374123502
 31
0.0
  0
LINE
  5
16CE3
102
{ACAD_REACTORS
330
16D17
102
}
330
18
100
AcDbEntity
  8
1PHANTOM
100
AcDbLine
 10
2580.735771529057
 20
-2013.491374123502
 30
0.0
 11
2581.535762221879
 21
-2017.491374123502
 31
0.0
  0
LINE
  5
16CE4
102
{ACAD_REACTORS
330
16D17
102
}
330
18
100
AcDbEntity
  8
1PHANTOM
100
AcDbLine
 10
2583.935771529057
 20
-2013.491374123502
 30
0.0
 11
2584.735762221879
 21
-2017.491374123502
 31
0.0
  0
LINE
  5
16CE5
102
{ACAD_REACTORS
330
16D17
102
}
330
18
100
AcDbEntity
  8
1PHANTOM
100
AcDbLine
 10
2584.735762221879
 20
-2017.491374123502
 30
0.0
 11
2584.835763385276
 21
-2016.991374123502
 31
0.0
  0
LINE
  5
16CE6
102
{ACAD_REACTORS
330
16D17
102
}
330
18
100
AcDbEntity
  8
1PHANTOM
100
AcDbLine
 10
2585.435770365659
 20
-2013.991374123502
 30
0.0
 11
2585.535771529057
 21
-2013.491374123502
 31
0.0
  0
LINE
  5
16CE7
102
{ACAD_REACTORS
330
16D17
102
}
330
18
100
AcDbEntity
  8
1PHANTOM
100
AcDbLine
 10
2581.535762221879
 20
-2017.491374123502
 30
0.0
 11
2581.635763385276
 21
-2016.991374123502
 31
0.0
  0
LINE
  5
16CE8
102
{ACAD_REACTORS
330
16D17
102
}
330
18
100
AcDbEntity
  8
1PHANTOM
100
AcDbLine
 10
2583.135762221879
 20
-2017.491374123502
 30
0.0
 11
2583.235763385277
 21
-2016.991374123502
 31
0.0
  0
LINE
  5
16CE9
102
{ACAD_REACTORS
330
16D17
102
}
330
18
100
AcDbEntity
  8
1PHANTOM
100
AcDbLine
 10
2583.83577036566
 20
-2013.991374123502
 30
0.0
 11
2583.935771529057
 21
-2013.491374123502
 31
0.0
  0
LINE
  5
16CEA
102
{ACAD_REACTORS
330
16D17
102
}
330
18
100
AcDbEntity
  8
1PHANTOM
100
AcDbLine
 10
2582.235770365659
 20
-2013.991374123502
 30
0.0
 11
2582.335771529057
 21
-2013.491374123502
 31
0.0
  0
LINE
  5
16CEB
102
{ACAD_REACTORS
330
16D17
102
}
330
18
100
AcDbEntity
  8
1PHANTOM
100
AcDbLine
 10
2582.335771529057
 20
-2013.491374123502
 30
0.0
 11
2583.135762221879
 21
-2017.491374123502
 31
0.0
  0
LINE
  5
16CEC
102
{ACAD_REACTORS
330
16D17
102
}
330
18
100
AcDbEntity
  8
1PHANTOM
100
AcDbLine
 10
2591.135763802288
 20
-2016.812152966892
 30
0.0
 11
2591.318527944916
 21
-2016.260403503088
 31
0.0
  0
LINE
  5
16CED
102
{ACAD_REACTORS
330
16D17
102
}
330
18
100
AcDbEntity
  8
1PHANTOM
100
AcDbLine
 10
2587.935762221879
 20
-2017.491374123502
 30
0.0
 11
2588.035763385276
 21
-2016.991374123502
 31
0.0
  0
LINE
  5
16CEE
102
{ACAD_REACTORS
330
16D17
102
}
330
18
100
AcDbEntity
  8
1PHANTOM
100
AcDbLine
 10
2586.335762221879
 20
-2017.491374123502
 30
0.0
 11
2586.435763385276
 21
-2016.991374123502
 31
0.0
  0
LINE
  5
16CEF
102
{ACAD_REACTORS
330
16D17
102
}
330
18
100
AcDbEntity
  8
1PHANTOM
100
AcDbLine
 10
2589.535762748682
 20
-2017.264967071298
 30
0.0
 11
2589.665033446312
 21
-2016.728373336027
 31
0.0
  0
LINE
  5
16CF0
102
{ACAD_REACTORS
330
16D17
102
}
330
18
100
AcDbEntity
  8
1PHANTOM
100
AcDbLine
 10
2590.223000963096
 20
-2014.412288720711
 30
0.0
 11
2590.335770475447
 21
-2013.944190265561
 31
0.0
  0
LINE
  5
16CF1
102
{ACAD_REACTORS
330
16D17
102
}
330
18
100
AcDbEntity
  8
1PHANTOM
100
AcDbLine
 10
2587.03577036566
 20
-2013.991374123502
 30
0.0
 11
2587.135771529056
 21
-2013.491374123502
 31
0.0
  0
LINE
  5
16CF2
102
{ACAD_REACTORS
330
16D17
102
}
330
18
100
AcDbEntity
  8
1PHANTOM
100
AcDbLine
 10
2588.635770365659
 20
-2013.991374123502
 30
0.0
 11
2588.735771529057
 21
-2013.491374123502
 31
0.0
  0
LINE
  5
16CF3
102
{ACAD_REACTORS
330
16D17
102
}
330
18
100
AcDbEntity
  8
1PHANTOM
100
AcDbLine
 10
2591.784333625402
 20
-2014.85417561424
 30
0.0
 11
2591.935769421842
 21
-2014.397003773609
 31
0.0
  0
LINE
  5
16CF4
102
{ACAD_REACTORS
330
16D17
102
}
330
18
100
AcDbEntity
  8
1PHANTOM
100
AcDbLine
 10
2590.335770475447
 20
-2013.944190265561
 30
0.0
 11
2591.135763802288
 21
-2016.812152966892
 31
0.0
  0
LINE
  5
16CF5
102
{ACAD_REACTORS
330
16D17
102
}
330
18
100
AcDbEntity
  8
1PHANTOM
100
AcDbLine
 10
2587.135771529056
 20
-2013.491374123502
 30
0.0
 11
2587.935762221879
 21
-2017.491374123502
 31
0.0
  0
LINE
  5
16CF6
102
{ACAD_REACTORS
330
16D17
102
}
330
18
100
AcDbEntity
  8
1PHANTOM
100
AcDbLine
 10
2588.735771529057
 20
-2013.491374123502
 30
0.0
 11
2589.535762748682
 21
-2017.264967071298
 31
0.0
  0
LINE
  5
16CF7
102
{ACAD_REACTORS
330
16D17
102
}
330
18
100
AcDbEntity
  8
1PHANTOM
100
AcDbLine
 10
2585.535771529057
 20
-2013.491374123502
 30
0.0
 11
2586.335762221879
 21
-2017.491374123502
 31
0.0
  0
LINE
  5
16CF8
102
{ACAD_REACTORS
330
16D17
102
}
330
18
100
AcDbEntity
  8
1PHANTOM
100
AcDbLine
 10
2572.735771529052
 20
-2013.491374123502
 30
0.0
 11
2573.53576222187
 21
-2017.491374123502
 31
0.0
  0
LINE
  5
16CF9
102
{ACAD_REACTORS
330
16D17
102
}
330
18
100
AcDbEntity
  8
1PHANTOM
100
AcDbLine
 10
2573.53576222187
 20
-2017.491374123502
 30
0.0
 11
2573.635763385268
 21
-2016.991374123502
 31
0.0
  0
LINE
  5
16CFA
102
{ACAD_REACTORS
330
16D17
102
}
330
18
100
AcDbEntity
  8
1PHANTOM
100
AcDbLine
 10
2574.235770365659
 20
-2013.991374123502
 30
0.0
 11
2574.335771529056
 21
-2013.491374123502
 31
0.0
  0
LINE
  5
16CFB
102
{ACAD_REACTORS
330
16D17
102
}
330
18
100
AcDbEntity
  8
1PHANTOM
100
AcDbLine
 10
2571.93576222187
 20
-2017.491374123502
 30
0.0
 11
2572.035763385268
 21
-2016.991374123502
 31
0.0
  0
LINE
  5
16CFC
102
{ACAD_REACTORS
330
16D17
102
}
330
18
100
AcDbEntity
  8
1PHANTOM
100
AcDbLine
 10
2570.33576222187
 20
-2017.491374123502
 30
0.0
 11
2570.435763385268
 21
-2016.991374123502
 31
0.0
  0
LINE
  5
16CFD
102
{ACAD_REACTORS
330
16D17
102
}
330
18
100
AcDbEntity
  8
1PHANTOM
100
AcDbLine
 10
2572.635770365654
 20
-2013.991374123502
 30
0.0
 11
2572.735771529052
 21
-2013.491374123502
 31
0.0
  0
LINE
  5
16CFE
102
{ACAD_REACTORS
330
16D17
102
}
330
18
100
AcDbEntity
  8
1PHANTOM
100
AcDbLine
 10
2571.035770365654
 20
-2013.991374123502
 30
0.0
 11
2571.135771529052
 21
-2013.491374123502
 31
0.0
  0
LINE
  5
16CFF
102
{ACAD_REACTORS
330
16D17
102
}
330
18
100
AcDbEntity
  8
1PHANTOM
100
AcDbLine
 10
2571.135771529052
 20
-2013.491374123502
 30
0.0
 11
2571.93576222187
 21
-2017.491374123502
 31
0.0
  0
LINE
  5
16D00
102
{ACAD_REACTORS
330
16D17
102
}
330
18
100
AcDbEntity
  8
1PHANTOM
100
AcDbLine
 10
2578.335762221875
 20
-2017.491374123502
 30
0.0
 11
2578.435763385273
 21
-2016.991374123502
 31
0.0
  0
LINE
  5
16D01
102
{ACAD_REACTORS
330
16D17
102
}
330
18
100
AcDbEntity
  8
1PHANTOM
100
AcDbLine
 10
2579.935762221879
 20
-2017.491374123502
 30
0.0
 11
2580.035763385276
 21
-2016.991374123502
 31
0.0
  0
LINE
  5
16D02
102
{ACAD_REACTORS
330
16D17
102
}
330
18
100
AcDbEntity
  8
1PHANTOM
100
AcDbLine
 10
2575.135762221875
 20
-2017.491374123502
 30
0.0
 11
2575.235763385273
 21
-2016.991374123502
 31
0.0
  0
LINE
  5
16D03
102
{ACAD_REACTORS
330
16D17
102
}
330
18
100
AcDbEntity
  8
1PHANTOM
100
AcDbLine
 10
2576.735762221875
 20
-2017.491374123502
 30
0.0
 11
2576.835763385272
 21
-2016.991374123502
 31
0.0
  0
LINE
  5
16D04
102
{ACAD_REACTORS
330
16D17
102
}
330
18
100
AcDbEntity
  8
1PHANTOM
100
AcDbLine
 10
2580.635770365659
 20
-2013.991374123502
 30
0.0
 11
2580.735771529057
 21
-2013.491374123502
 31
0.0
  0
LINE
  5
16D05
102
{ACAD_REACTORS
330
16D17
102
}
330
18
100
AcDbEntity
  8
1PHANTOM
100
AcDbLine
 10
2579.035770365659
 20
-2013.991374123502
 30
0.0
 11
2579.135771529056
 21
-2013.491374123502
 31
0.0
  0
LINE
  5
16D06
102
{ACAD_REACTORS
330
16D17
102
}
330
18
100
AcDbEntity
  8
1PHANTOM
100
AcDbLine
 10
2575.835770365659
 20
-2013.991374123502
 30
0.0
 11
2575.935771529057
 21
-2013.491374123502
 31
0.0
  0
LINE
  5
16D07
102
{ACAD_REACTORS
330
16D17
102
}
330
18
100
AcDbEntity
  8
1PHANTOM
100
AcDbLine
 10
2577.435770365659
 20
-2013.991374123502
 30
0.0
 11
2577.535771529057
 21
-2013.491374123502
 31
0.0
  0
LINE
  5
16D08
102
{ACAD_REACTORS
330
16D17
102
}
330
18
100
AcDbEntity
  8
1PHANTOM
100
AcDbLine
 10
2577.535771529057
 20
-2013.491374123502
 30
0.0
 11
2578.335762221875
 21
-2017.491374123502
 31
0.0
  0
LINE
  5
16D09
102
{ACAD_REACTORS
330
16D17
102
}
330
18
100
AcDbEntity
  8
1PHANTOM
100
AcDbLine
 10
2579.135771529056
 20
-2013.491374123502
 30
0.0
 11
2579.935762221879
 21
-2017.491374123502
 31
0.0
  0
LINE
  5
16D0A
102
{ACAD_REACTORS
330
16D17
102
}
330
18
100
AcDbEntity
  8
1PHANTOM
100
AcDbLine
 10
2575.935771529057
 20
-2013.491374123502
 30
0.0
 11
2576.735762221875
 21
-2017.491374123502
 31
0.0
  0
LINE
  5
16D0B
102
{ACAD_REACTORS
330
16D17
102
}
330
18
100
AcDbEntity
  8
1PHANTOM
100
AcDbLine
 10
2574.335771529056
 20
-2013.491374123502
 30
0.0
 11
2575.135762221875
 21
-2017.491374123502
 31
0.0
  0
LINE
  5
16D0C
102
{ACAD_REACTORS
330
16D17
102
}
330
18
100
AcDbEntity
  8
1PHANTOM
100
AcDbLine
 10
2564.035763385382
 20
-2016.991374123502
 30
0.0
 11
2564.035770365766
 21
-2013.991374123503
 31
0.0
  0
LINE
  5
16D0D
102
{ACAD_REACTORS
330
16D17
102
}
330
18
100
AcDbEntity
  8
1PHANTOM
100
AcDbLine
 10
2564.63577036565
 20
-2013.991374123502
 30
0.0
 11
2564.735771529048
 21
-2013.491374123502
 31
0.0
  0
LINE
  5
16D0E
102
{ACAD_REACTORS
330
16D17
102
}
330
18
100
AcDbEntity
  8
1PHANTOM
100
AcDbLine
 10
2564.735771529048
 20
-2013.491374123502
 30
0.0
 11
2565.535762221866
 21
-2017.491374123502
 31
0.0
  0
LINE
  5
16D0F
102
{ACAD_REACTORS
330
16D17
102
}
330
18
100
AcDbEntity
  8
1PHANTOM
100
AcDbLine
 10
2565.535762221866
 20
-2017.491374123502
 30
0.0
 11
2565.635763385264
 21
-2016.991374123502
 31
0.0
  0
LINE
  5
16D10
102
{ACAD_REACTORS
330
16D17
102
}
330
18
100
AcDbEntity
  8
1PHANTOM
100
AcDbLine
 10
2566.23577036565
 20
-2013.991374123502
 30
0.0
 11
2566.335771529048
 21
-2013.491374123502
 31
0.0
  0
LINE
  5
16D11
102
{ACAD_REACTORS
330
16D17
102
}
330
18
100
AcDbEntity
  8
1PHANTOM
100
AcDbLine
 10
2567.83577036565
 20
-2013.991374123502
 30
0.0
 11
2567.935771529048
 21
-2013.491374123502
 31
0.0
  0
LINE
  5
16D12
102
{ACAD_REACTORS
330
16D17
102
}
330
18
100
AcDbEntity
  8
1PHANTOM
100
AcDbLine
 10
2567.935771529048
 20
-2013.491374123502
 30
0.0
 11
2568.735762221866
 21
-2017.491374123502
 31
0.0
  0
LINE
  5
16D13
102
{ACAD_REACTORS
330
16D17
102
}
330
18
100
AcDbEntity
  8
1PHANTOM
100
AcDbLine
 10
2567.135762221866
 20
-2017.491374123502
 30
0.0
 11
2567.235763385264
 21
-2016.991374123502
 31
0.0
  0
LINE
  5
16D14
102
{ACAD_REACTORS
330
16D17
102
}
330
18
100
AcDbEntity
  8
1PHANTOM
100
AcDbLine
 10
2568.735762221866
 20
-2017.491374123502
 30
0.0
 11
2568.835763385264
 21
-2016.991374123502
 31
0.0
  0
LINE
  5
16D15
102
{ACAD_REACTORS
330
16D17
102
}
330
18
100
AcDbEntity
  8
1PHANTOM
100
AcDbLine
 10
2566.335771529048
 20
-2013.491374123502
 30
0.0
 11
2567.135762221866
 21
-2017.491374123502
 31
0.0
  0
LINE
  5
16D16
102
{ACAD_REACTORS
330
16D17
102
}
330
18
100
AcDbEntity
  8
1PHANTOM
100
AcDbLine
 10
2569.435770365655
 20
-2013.991374123502
 30
0.0
 11
2569.535771529052
 21
-2013.491374123502
 31
0.0
  0
LINE
  5
16D1A
330
18
100
AcDbEntity
  8
1PHANTOM
100
AcDbLine
 10
2320.33581341158
 20
-1641.791335731549
 30
0.0
 11
2318.83581341158
 21
-1647.09133224141
 31
0.0
  0
LINE
  5
16D1B
330
18
100
AcDbEntity
  8
1PHANTOM
100
AcDbLine
 10
2318.83581341158
 20
-1647.09133224141
 30
0.0
 11
2318.835813411579
 21
-1670.991332241419
 31
0.0
  0
LINE
  5
16D1C
330
18
100
AcDbEntity
  8
1PHANTOM
100
AcDbLine
 10
2320.33581341158
 20
-1641.791335731549
 30
0.0
 11
2321.83581341158
 21
-1647.091339221794
 31
0.0
  0
LINE
  5
16D1D
330
18
100
AcDbEntity
  8
1PHANTOM
100
AcDbLine
 10
2321.83581341158
 20
-1647.091339221794
 30
0.0
 11
2321.835813411579
 21
-1670.991327587604
 31
0.0
  0
LINE
  5
16D1E
330
18
100
AcDbEntity
  8
1PHANTOM
100
AcDbLine
 10
2320.335766875682
 20
-1638.830421140241
 30
0.0
 11
2320.335766875682
 21
-1670.991327587604
 31
0.0
  0
LINE
  5
16D1F
330
18
100
AcDbEntity
  8
1PHANTOM
100
AcDbLine
 10
2319.241443061686
 20
-1643.891333185227
 30
0.0
 11
2321.203778150562
 21
-1643.091337751176
 31
0.0
  0
LINE
  5
16D20
330
18
100
AcDbEntity
  8
1PHANTOM
100
AcDbLine
 10
2321.203778150562
 20
-1643.091337751176
 30
0.0
 11
2320.615501575519
 21
-1642.779567894924
 31
0.0
  0
LINE
  5
16D21
330
18
100
AcDbEntity
  8
1PHANTOM
100
AcDbLine
 10
2318.33581341158
 20
-1666.291331078016
 30
0.0
 11
2322.33581341158
 21
-1665.491340385198
 31
0.0
  0
LINE
  5
16D22
330
18
100
AcDbEntity
  8
1PHANTOM
100
AcDbLine
 10
2318.33581341158
 20
-1655.091331078012
 30
0.0
 11
2322.33581341158
 21
-1654.291340385189
 31
0.0
  0
LINE
  5
16D23
330
18
100
AcDbEntity
  8
1PHANTOM
100
AcDbLine
 10
2318.33581341158
 20
-1651.891331078012
 30
0.0
 11
2322.33581341158
 21
-1651.09134038519
 31
0.0
  0
LINE
  5
16D24
330
18
100
AcDbEntity
  8
1PHANTOM
100
AcDbLine
 10
2322.33581341158
 20
-1651.09134038519
 30
0.0
 11
2321.83581341158
 21
-1650.991339221793
 31
0.0
  0
LINE
  5
16D25
330
18
100
AcDbEntity
  8
1PHANTOM
100
AcDbLine
 10
2318.83581341158
 20
-1650.39133224141
 30
0.0
 11
2318.33581341158
 21
-1650.291331078012
 31
0.0
  0
LINE
  5
16D26
330
18
100
AcDbEntity
  8
1PHANTOM
100
AcDbLine
 10
2322.33581341158
 20
-1654.291340385189
 30
0.0
 11
2321.83581341158
 21
-1654.191339221793
 31
0.0
  0
LINE
  5
16D27
330
18
100
AcDbEntity
  8
1PHANTOM
100
AcDbLine
 10
2322.33581341158
 20
-1652.69134038519
 30
0.0
 11
2321.83581341158
 21
-1652.591339221792
 31
0.0
  0
LINE
  5
16D28
330
18
100
AcDbEntity
  8
1PHANTOM
100
AcDbLine
 10
2318.83581341158
 20
-1651.991332241409
 30
0.0
 11
2318.33581341158
 21
-1651.891331078012
 31
0.0
  0
LINE
  5
16D29
330
18
100
AcDbEntity
  8
1PHANTOM
100
AcDbLine
 10
2318.83581341158
 20
-1653.591332241409
 30
0.0
 11
2318.33581341158
 21
-1653.491331078012
 31
0.0
  0
LINE
  5
16D2A
330
18
100
AcDbEntity
  8
1PHANTOM
100
AcDbLine
 10
2318.33581341158
 20
-1653.491331078012
 30
0.0
 11
2322.33581341158
 21
-1652.69134038519
 31
0.0
  0
LINE
  5
16D2B
330
18
100
AcDbEntity
  8
1PHANTOM
100
AcDbLine
 10
2321.656592254969
 20
-1644.691338804781
 30
0.0
 11
2321.104842791166
 21
-1644.508574662153
 31
0.0
  0
LINE
  5
16D2C
330
18
100
AcDbEntity
  8
1PHANTOM
100
AcDbLine
 10
2322.33581341158
 20
-1647.89134038519
 30
0.0
 11
2321.83581341158
 21
-1647.791339221792
 31
0.0
  0
LINE
  5
16D2D
330
18
100
AcDbEntity
  8
1PHANTOM
100
AcDbLine
 10
2322.33581341158
 20
-1649.49134038519
 30
0.0
 11
2321.83581341158
 21
-1649.391339221792
 31
0.0
  0
LINE
  5
16D2E
330
18
100
AcDbEntity
  8
1PHANTOM
100
AcDbLine
 10
2322.109406359375
 20
-1646.291339858387
 30
0.0
 11
2321.572812624104
 21
-1646.162069160757
 31
0.0
  0
LINE
  5
16D2F
330
18
100
AcDbEntity
  8
1PHANTOM
100
AcDbLine
 10
2319.256728008788
 20
-1645.604101643973
 30
0.0
 11
2318.788629553638
 21
-1645.491332131622
 31
0.0
  0
LINE
  5
16D30
330
18
100
AcDbEntity
  8
1PHANTOM
100
AcDbLine
 10
2318.83581341158
 20
-1648.791332241409
 30
0.0
 11
2318.33581341158
 21
-1648.691331078012
 31
0.0
  0
LINE
  5
16D31
330
18
100
AcDbEntity
  8
1PHANTOM
100
AcDbLine
 10
2318.83581341158
 20
-1647.191332241409
 30
0.0
 11
2318.33581341158
 21
-1647.091331078012
 31
0.0
  0
LINE
  5
16D32
330
18
100
AcDbEntity
  8
1PHANTOM
100
AcDbLine
 10
2319.698614902318
 20
-1644.042768981667
 30
0.0
 11
2319.241443061686
 21
-1643.891333185227
 31
0.0
  0
LINE
  5
16D33
330
18
100
AcDbEntity
  8
1PHANTOM
100
AcDbLine
 10
2318.788629553638
 20
-1645.491332131622
 30
0.0
 11
2321.656592254969
 21
-1644.691338804781
 31
0.0
  0
LINE
  5
16D34
330
18
100
AcDbEntity
  8
1PHANTOM
100
AcDbLine
 10
2318.33581341158
 20
-1648.691331078012
 30
0.0
 11
2322.33581341158
 21
-1647.89134038519
 31
0.0
  0
LINE
  5
16D35
330
18
100
AcDbEntity
  8
1PHANTOM
100
AcDbLine
 10
2318.33581341158
 20
-1647.091331078012
 30
0.0
 11
2322.109406359375
 21
-1646.291339858387
 31
0.0
  0
LINE
  5
16D36
330
18
100
AcDbEntity
  8
1PHANTOM
100
AcDbLine
 10
2318.33581341158
 20
-1650.291331078012
 30
0.0
 11
2322.33581341158
 21
-1649.49134038519
 31
0.0
  0
LINE
  5
16D37
330
18
100
AcDbEntity
  8
1PHANTOM
100
AcDbLine
 10
2318.33581341158
 20
-1663.091331078017
 30
0.0
 11
2322.33581341158
 21
-1662.291340385199
 31
0.0
  0
LINE
  5
16D38
330
18
100
AcDbEntity
  8
1PHANTOM
100
AcDbLine
 10
2322.33581341158
 20
-1662.291340385199
 30
0.0
 11
2321.83581341158
 21
-1662.191339221801
 31
0.0
  0
LINE
  5
16D39
330
18
100
AcDbEntity
  8
1PHANTOM
100
AcDbLine
 10
2318.83581341158
 20
-1661.59133224141
 30
0.0
 11
2318.33581341158
 21
-1661.491331078013
 31
0.0
  0
LINE
  5
16D3A
330
18
100
AcDbEntity
  8
1PHANTOM
100
AcDbLine
 10
2322.33581341158
 20
-1663.891340385198
 30
0.0
 11
2321.83581341158
 21
-1663.791339221801
 31
0.0
  0
LINE
  5
16D3B
330
18
100
AcDbEntity
  8
1PHANTOM
100
AcDbLine
 10
2322.33581341158
 20
-1665.491340385198
 30
0.0
 11
2321.83581341158
 21
-1665.391339221801
 31
0.0
  0
LINE
  5
16D3C
330
18
100
AcDbEntity
  8
1PHANTOM
100
AcDbLine
 10
2318.83581341158
 20
-1663.191332241414
 30
0.0
 11
2318.33581341158
 21
-1663.091331078017
 31
0.0
  0
LINE
  5
16D3D
330
18
100
AcDbEntity
  8
1PHANTOM
100
AcDbLine
 10
2318.83581341158
 20
-1664.791332241415
 30
0.0
 11
2318.33581341158
 21
-1664.691331078017
 31
0.0
  0
LINE
  5
16D3E
330
18
100
AcDbEntity
  8
1PHANTOM
100
AcDbLine
 10
2318.33581341158
 20
-1664.691331078017
 30
0.0
 11
2322.33581341158
 21
-1663.891340385198
 31
0.0
  0
LINE
  5
16D3F
330
18
100
AcDbEntity
  8
1PHANTOM
100
AcDbLine
 10
2322.33581341158
 20
-1657.491340385194
 30
0.0
 11
2321.83581341158
 21
-1657.391339221796
 31
0.0
  0
LINE
  5
16D40
330
18
100
AcDbEntity
  8
1PHANTOM
100
AcDbLine
 10
2322.33581341158
 20
-1655.89134038519
 30
0.0
 11
2321.83581341158
 21
-1655.791339221792
 31
0.0
  0
LINE
  5
16D41
330
18
100
AcDbEntity
  8
1PHANTOM
100
AcDbLine
 10
2322.33581341158
 20
-1660.691340385194
 30
0.0
 11
2321.83581341158
 21
-1660.591339221796
 31
0.0
  0
LINE
  5
16D42
330
18
100
AcDbEntity
  8
1PHANTOM
100
AcDbLine
 10
2322.33581341158
 20
-1659.091340385194
 30
0.0
 11
2321.83581341158
 21
-1658.991339221796
 31
0.0
  0
LINE
  5
16D43
330
18
100
AcDbEntity
  8
1PHANTOM
100
AcDbLine
 10
2318.83581341158
 20
-1655.191332241409
 30
0.0
 11
2318.33581341158
 21
-1655.091331078012
 31
0.0
  0
LINE
  5
16D44
330
18
100
AcDbEntity
  8
1PHANTOM
100
AcDbLine
 10
2318.83581341158
 20
-1656.79133224141
 30
0.0
 11
2318.33581341158
 21
-1656.691331078012
 31
0.0
  0
LINE
  5
16D45
330
18
100
AcDbEntity
  8
1PHANTOM
100
AcDbLine
 10
2318.83581341158
 20
-1659.99133224141
 30
0.0
 11
2318.33581341158
 21
-1659.891331078012
 31
0.0
  0
LINE
  5
16D46
330
18
100
AcDbEntity
  8
1PHANTOM
100
AcDbLine
 10
2318.83581341158
 20
-1658.39133224141
 30
0.0
 11
2318.33581341158
 21
-1658.291331078012
 31
0.0
  0
LINE
  5
16D47
330
18
100
AcDbEntity
  8
1PHANTOM
100
AcDbLine
 10
2318.33581341158
 20
-1658.291331078012
 30
0.0
 11
2322.33581341158
 21
-1657.491340385194
 31
0.0
  0
LINE
  5
16D48
330
18
100
AcDbEntity
  8
1PHANTOM
100
AcDbLine
 10
2318.33581341158
 20
-1656.691331078012
 30
0.0
 11
2322.33581341158
 21
-1655.89134038519
 31
0.0
  0
LINE
  5
16D49
330
18
100
AcDbEntity
  8
1PHANTOM
100
AcDbLine
 10
2318.33581341158
 20
-1659.891331078012
 30
0.0
 11
2322.33581341158
 21
-1659.091340385194
 31
0.0
  0
LINE
  5
16D4A
330
18
100
AcDbEntity
  8
1PHANTOM
100
AcDbLine
 10
2318.33581341158
 20
-1661.491331078013
 30
0.0
 11
2322.33581341158
 21
-1660.691340385194
 31
0.0
  0
LINE
  5
16D4B
330
18
100
AcDbEntity
  8
1PHANTOM
100
AcDbLine
 10
2318.83581341158
 20
-1670.991332241419
 30
0.0
 11
2322.335813411579
 21
-1670.291340385203
 31
0.0
  0
LINE
  5
16D4C
330
18
100
AcDbEntity
  8
1PHANTOM
100
AcDbLine
 10
2322.335813411579
 20
-1670.291340385203
 30
0.0
 11
2321.83581341158
 21
-1670.191339221805
 31
0.0
  0
LINE
  5
16D4D
330
18
100
AcDbEntity
  8
1PHANTOM
100
AcDbLine
 10
2318.83581341158
 20
-1669.591332241419
 30
0.0
 11
2318.33581341158
 21
-1669.491331078021
 31
0.0
  0
LINE
  5
16D4E
330
18
100
AcDbEntity
  8
1PHANTOM
100
AcDbLine
 10
2318.83581341158
 20
-1667.991332241419
 30
0.0
 11
2318.33581341158
 21
-1667.891331078021
 31
0.0
  0
LINE
  5
16D4F
330
18
100
AcDbEntity
  8
1PHANTOM
100
AcDbLine
 10
2318.33581341158
 20
-1667.891331078021
 30
0.0
 11
2322.33581341158
 21
-1667.091340385203
 31
0.0
  0
LINE
  5
16D50
330
18
100
AcDbEntity
  8
1PHANTOM
100
AcDbLine
 10
2322.33581341158
 20
-1668.691340385203
 30
0.0
 11
2321.83581341158
 21
-1668.591339221805
 31
0.0
  0
LINE
  5
16D51
330
18
100
AcDbEntity
  8
1PHANTOM
100
AcDbLine
 10
2322.33581341158
 20
-1667.091340385203
 30
0.0
 11
2321.83581341158
 21
-1666.991339221805
 31
0.0
  0
LINE
  5
16D52
330
18
100
AcDbEntity
  8
1PHANTOM
100
AcDbLine
 10
2318.33581341158
 20
-1669.491331078021
 30
0.0
 11
2322.33581341158
 21
-1668.691340385203
 31
0.0
  0
LINE
  5
16D53
330
18
100
AcDbEntity
  8
1PHANTOM
100
AcDbLine
 10
2318.83581341158
 20
-1666.391332241414
 30
0.0
 11
2318.33581341158
 21
-1666.291331078016
 31
0.0
  0
LINE
  5
16D54
330
18
100
AcDbEntity
  8
1PHANTOM
100
AcDbLine
 10
2430.335813411579
 20
-1641.791335731549
 30
0.0
 11
2428.835813411579
 21
-1647.09133224141
 31
0.0
  0
LINE
  5
16D55
330
18
100
AcDbEntity
  8
1PHANTOM
100
AcDbLine
 10
2428.835813411579
 20
-1647.09133224141
 30
0.0
 11
2428.835813411578
 21
-1670.991332241419
 31
0.0
  0
LINE
  5
16D56
330
18
100
AcDbEntity
  8
1PHANTOM
100
AcDbLine
 10
2430.335813411579
 20
-1641.791335731549
 30
0.0
 11
2431.835813411579
 21
-1647.091339221794
 31
0.0
  0
LINE
  5
16D57
330
18
100
AcDbEntity
  8
1PHANTOM
100
AcDbLine
 10
2431.835813411579
 20
-1647.091339221794
 30
0.0
 11
2431.835813411578
 21
-1670.991327587604
 31
0.0
  0
LINE
  5
16D58
330
18
100
AcDbEntity
  8
1PHANTOM
100
AcDbLine
 10
2430.335766875681
 20
-1638.830421140241
 30
0.0
 11
2430.335766875681
 21
-1670.991327587604
 31
0.0
  0
LINE
  5
16D59
330
18
100
AcDbEntity
  8
1PHANTOM
100
AcDbLine
 10
2429.241443061685
 20
-1643.891333185227
 30
0.0
 11
2431.203778150561
 21
-1643.091337751176
 31
0.0
  0
LINE
  5
16D5A
330
18
100
AcDbEntity
  8
1PHANTOM
100
AcDbLine
 10
2431.203778150561
 20
-1643.091337751176
 30
0.0
 11
2430.615501575518
 21
-1642.779567894924
 31
0.0
  0
LINE
  5
16D5B
330
18
100
AcDbEntity
  8
1PHANTOM
100
AcDbLine
 10
2428.335813411579
 20
-1666.291331078016
 30
0.0
 11
2432.335813411579
 21
-1665.491340385198
 31
0.0
  0
LINE
  5
16D5C
330
18
100
AcDbEntity
  8
1PHANTOM
100
AcDbLine
 10
2428.335813411579
 20
-1655.091331078012
 30
0.0
 11
2432.335813411579
 21
-1654.291340385189
 31
0.0
  0
LINE
  5
16D5D
330
18
100
AcDbEntity
  8
1PHANTOM
100
AcDbLine
 10
2428.335813411579
 20
-1651.891331078012
 30
0.0
 11
2432.335813411579
 21
-1651.09134038519
 31
0.0
  0
LINE
  5
16D5E
330
18
100
AcDbEntity
  8
1PHANTOM
100
AcDbLine
 10
2432.335813411579
 20
-1651.09134038519
 30
0.0
 11
2431.835813411579
 21
-1650.991339221793
 31
0.0
  0
LINE
  5
16D5F
330
18
100
AcDbEntity
  8
1PHANTOM
100
AcDbLine
 10
2428.835813411579
 20
-1650.39133224141
 30
0.0
 11
2428.335813411579
 21
-1650.291331078012
 31
0.0
  0
LINE
  5
16D60
330
18
100
AcDbEntity
  8
1PHANTOM
100
AcDbLine
 10
2432.335813411579
 20
-1654.291340385189
 30
0.0
 11
2431.835813411579
 21
-1654.191339221793
 31
0.0
  0
LINE
  5
16D61
330
18
100
AcDbEntity
  8
1PHANTOM
100
AcDbLine
 10
2432.335813411579
 20
-1652.69134038519
 30
0.0
 11
2431.835813411579
 21
-1652.591339221792
 31
0.0
  0
LINE
  5
16D62
330
18
100
AcDbEntity
  8
1PHANTOM
100
AcDbLine
 10
2428.835813411579
 20
-1651.991332241409
 30
0.0
 11
2428.335813411579
 21
-1651.891331078012
 31
0.0
  0
LINE
  5
16D63
330
18
100
AcDbEntity
  8
1PHANTOM
100
AcDbLine
 10
2428.835813411579
 20
-1653.591332241409
 30
0.0
 11
2428.335813411579
 21
-1653.491331078012
 31
0.0
  0
LINE
  5
16D64
330
18
100
AcDbEntity
  8
1PHANTOM
100
AcDbLine
 10
2428.335813411579
 20
-1653.491331078012
 30
0.0
 11
2432.335813411579
 21
-1652.69134038519
 31
0.0
  0
LINE
  5
16D65
330
18
100
AcDbEntity
  8
1PHANTOM
100
AcDbLine
 10
2431.656592254968
 20
-1644.691338804781
 30
0.0
 11
2431.104842791165
 21
-1644.508574662153
 31
0.0
  0
LINE
  5
16D66
330
18
100
AcDbEntity
  8
1PHANTOM
100
AcDbLine
 10
2432.335813411579
 20
-1647.89134038519
 30
0.0
 11
2431.835813411579
 21
-1647.791339221792
 31
0.0
  0
LINE
  5
16D67
330
18
100
AcDbEntity
  8
1PHANTOM
100
AcDbLine
 10
2432.335813411579
 20
-1649.49134038519
 30
0.0
 11
2431.835813411579
 21
-1649.391339221792
 31
0.0
  0
LINE
  5
16D68
330
18
100
AcDbEntity
  8
1PHANTOM
100
AcDbLine
 10
2432.109406359375
 20
-1646.291339858387
 30
0.0
 11
2431.572812624103
 21
-1646.162069160757
 31
0.0
  0
LINE
  5
16D69
330
18
100
AcDbEntity
  8
1PHANTOM
100
AcDbLine
 10
2429.256728008787
 20
-1645.604101643973
 30
0.0
 11
2428.788629553637
 21
-1645.491332131622
 31
0.0
  0
LINE
  5
16D6A
330
18
100
AcDbEntity
  8
1PHANTOM
100
AcDbLine
 10
2428.835813411579
 20
-1648.791332241409
 30
0.0
 11
2428.335813411579
 21
-1648.691331078012
 31
0.0
  0
LINE
  5
16D6B
330
18
100
AcDbEntity
  8
1PHANTOM
100
AcDbLine
 10
2428.835813411579
 20
-1647.191332241409
 30
0.0
 11
2428.335813411579
 21
-1647.091331078012
 31
0.0
  0
LINE
  5
16D6C
330
18
100
AcDbEntity
  8
1PHANTOM
100
AcDbLine
 10
2429.698614902317
 20
-1644.042768981667
 30
0.0
 11
2429.241443061685
 21
-1643.891333185227
 31
0.0
  0
LINE
  5
16D6D
330
18
100
AcDbEntity
  8
1PHANTOM
100
AcDbLine
 10
2428.788629553637
 20
-1645.491332131622
 30
0.0
 11
2431.656592254968
 21
-1644.691338804781
 31
0.0
  0
LINE
  5
16D6E
330
18
100
AcDbEntity
  8
1PHANTOM
100
AcDbLine
 10
2428.335813411579
 20
-1648.691331078012
 30
0.0
 11
2432.335813411579
 21
-1647.89134038519
 31
0.0
  0
LINE
  5
16D6F
330
18
100
AcDbEntity
  8
1PHANTOM
100
AcDbLine
 10
2428.335813411579
 20
-1647.091331078012
 30
0.0
 11
2432.109406359375
 21
-1646.291339858387
 31
0.0
  0
LINE
  5
16D70
330
18
100
AcDbEntity
  8
1PHANTOM
100
AcDbLine
 10
2428.335813411579
 20
-1650.291331078012
 30
0.0
 11
2432.335813411579
 21
-1649.49134038519
 31
0.0
  0
LINE
  5
16D71
330
18
100
AcDbEntity
  8
1PHANTOM
100
AcDbLine
 10
2428.335813411579
 20
-1663.091331078017
 30
0.0
 11
2432.335813411579
 21
-1662.291340385199
 31
0.0
  0
LINE
  5
16D72
330
18
100
AcDbEntity
  8
1PHANTOM
100
AcDbLine
 10
2432.335813411579
 20
-1662.291340385199
 30
0.0
 11
2431.835813411579
 21
-1662.191339221801
 31
0.0
  0
LINE
  5
16D73
330
18
100
AcDbEntity
  8
1PHANTOM
100
AcDbLine
 10
2428.835813411579
 20
-1661.59133224141
 30
0.0
 11
2428.335813411579
 21
-1661.491331078013
 31
0.0
  0
LINE
  5
16D74
330
18
100
AcDbEntity
  8
1PHANTOM
100
AcDbLine
 10
2432.335813411579
 20
-1663.891340385198
 30
0.0
 11
2431.835813411579
 21
-1663.791339221801
 31
0.0
  0
LINE
  5
16D75
330
18
100
AcDbEntity
  8
1PHANTOM
100
AcDbLine
 10
2432.335813411579
 20
-1665.491340385198
 30
0.0
 11
2431.835813411579
 21
-1665.391339221801
 31
0.0
  0
LINE
  5
16D76
330
18
100
AcDbEntity
  8
1PHANTOM
100
AcDbLine
 10
2428.835813411579
 20
-1663.191332241414
 30
0.0
 11
2428.335813411579
 21
-1663.091331078017
 31
0.0
  0
LINE
  5
16D77
330
18
100
AcDbEntity
  8
1PHANTOM
100
AcDbLine
 10
2428.835813411579
 20
-1664.791332241415
 30
0.0
 11
2428.335813411579
 21
-1664.691331078017
 31
0.0
  0
LINE
  5
16D78
330
18
100
AcDbEntity
  8
1PHANTOM
100
AcDbLine
 10
2428.335813411579
 20
-1664.691331078017
 30
0.0
 11
2432.335813411579
 21
-1663.891340385198
 31
0.0
  0
LINE
  5
16D79
330
18
100
AcDbEntity
  8
1PHANTOM
100
AcDbLine
 10
2432.335813411579
 20
-1657.491340385194
 30
0.0
 11
2431.835813411579
 21
-1657.391339221796
 31
0.0
  0
LINE
  5
16D7A
330
18
100
AcDbEntity
  8
1PHANTOM
100
AcDbLine
 10
2432.335813411579
 20
-1655.89134038519
 30
0.0
 11
2431.835813411579
 21
-1655.791339221792
 31
0.0
  0
LINE
  5
16D7B
330
18
100
AcDbEntity
  8
1PHANTOM
100
AcDbLine
 10
2432.335813411579
 20
-1660.691340385194
 30
0.0
 11
2431.835813411579
 21
-1660.591339221796
 31
0.0
  0
LINE
  5
16D7C
330
18
100
AcDbEntity
  8
1PHANTOM
100
AcDbLine
 10
2432.335813411579
 20
-1659.091340385194
 30
0.0
 11
2431.835813411579
 21
-1658.991339221796
 31
0.0
  0
LINE
  5
16D7D
330
18
100
AcDbEntity
  8
1PHANTOM
100
AcDbLine
 10
2428.835813411579
 20
-1655.191332241409
 30
0.0
 11
2428.335813411579
 21
-1655.091331078012
 31
0.0
  0
LINE
  5
16D7E
330
18
100
AcDbEntity
  8
1PHANTOM
100
AcDbLine
 10
2428.835813411579
 20
-1656.79133224141
 30
0.0
 11
2428.335813411579
 21
-1656.691331078012
 31
0.0
  0
LINE
  5
16D7F
330
18
100
AcDbEntity
  8
1PHANTOM
100
AcDbLine
 10
2428.835813411579
 20
-1659.99133224141
 30
0.0
 11
2428.335813411579
 21
-1659.891331078012
 31
0.0
  0
LINE
  5
16D80
330
18
100
AcDbEntity
  8
1PHANTOM
100
AcDbLine
 10
2428.835813411579
 20
-1658.39133224141
 30
0.0
 11
2428.335813411579
 21
-1658.291331078012
 31
0.0
  0
LINE
  5
16D81
330
18
100
AcDbEntity
  8
1PHANTOM
100
AcDbLine
 10
2428.335813411579
 20
-1658.291331078012
 30
0.0
 11
2432.335813411579
 21
-1657.491340385194
 31
0.0
  0
LINE
  5
16D82
330
18
100
AcDbEntity
  8
1PHANTOM
100
AcDbLine
 10
2428.335813411579
 20
-1656.691331078012
 30
0.0
 11
2432.335813411579
 21
-1655.89134038519
 31
0.0
  0
LINE
  5
16D83
330
18
100
AcDbEntity
  8
1PHANTOM
100
AcDbLine
 10
2428.335813411579
 20
-1659.891331078012
 30
0.0
 11
2432.335813411579
 21
-1659.091340385194
 31
0.0
  0
LINE
  5
16D84
330
18
100
AcDbEntity
  8
1PHANTOM
100
AcDbLine
 10
2428.335813411579
 20
-1661.491331078013
 30
0.0
 11
2432.335813411579
 21
-1660.691340385194
 31
0.0
  0
LINE
  5
16D85
330
18
100
AcDbEntity
  8
1PHANTOM
100
AcDbLine
 10
2428.835813411579
 20
-1670.991332241419
 30
0.0
 11
2432.335813411578
 21
-1670.291340385203
 31
0.0
  0
LINE
  5
16D86
330
18
100
AcDbEntity
  8
1PHANTOM
100
AcDbLine
 10
2432.335813411578
 20
-1670.291340385203
 30
0.0
 11
2431.835813411579
 21
-1670.191339221805
 31
0.0
  0
LINE
  5
16D87
330
18
100
AcDbEntity
  8
1PHANTOM
100
AcDbLine
 10
2428.835813411579
 20
-1669.591332241419
 30
0.0
 11
2428.335813411579
 21
-1669.491331078021
 31
0.0
  0
LINE
  5
16D88
330
18
100
AcDbEntity
  8
1PHANTOM
100
AcDbLine
 10
2428.835813411579
 20
-1667.991332241419
 30
0.0
 11
2428.335813411579
 21
-1667.891331078021
 31
0.0
  0
LINE
  5
16D89
330
18
100
AcDbEntity
  8
1PHANTOM
100
AcDbLine
 10
2428.335813411579
 20
-1667.891331078021
 30
0.0
 11
2432.335813411579
 21
-1667.091340385203
 31
0.0
  0
LINE
  5
16D8A
330
18
100
AcDbEntity
  8
1PHANTOM
100
AcDbLine
 10
2432.335813411579
 20
-1668.691340385203
 30
0.0
 11
2431.835813411579
 21
-1668.591339221805
 31
0.0
  0
LINE
  5
16D8B
330
18
100
AcDbEntity
  8
1PHANTOM
100
AcDbLine
 10
2432.335813411579
 20
-1667.091340385203
 30
0.0
 11
2431.835813411579
 21
-1666.991339221805
 31
0.0
  0
LINE
  5
16D8C
330
18
100
AcDbEntity
  8
1PHANTOM
100
AcDbLine
 10
2428.335813411579
 20
-1669.491331078021
 30
0.0
 11
2432.335813411579
 21
-1668.691340385203
 31
0.0
  0
LINE
  5
16D8D
330
18
100
AcDbEntity
  8
1PHANTOM
100
AcDbLine
 10
2428.835813411579
 20
-1666.391332241414
 30
0.0
 11
2428.335813411579
 21
-1666.291331078016
 31
0.0
  0
TEXT
  5
16D95
330
18
100
AcDbEntity
  8
1TEXT
100
AcDbText
 10
2645.201530524608
 20
-1659.120040689744
 30
0.0
 40
8.0
  1
対応子機
 72
     1
 11
2663.734863857941
 21
-1659.120040689744
 31
0.0
100
AcDbText
  0
LINE
  5
16D96
330
18
100
AcDbEntity
  8
1DIM
100
AcDbLine
 10
2698.934863857942
 20
-1648.120040689743
 30
0.0
 11
2698.93486385794
 21
-1704.120040689745
 31
0.0
  0
TEXT
  5
16D97
330
18
100
AcDbEntity
  8
1TEXT
100
AcDbText
 10
2636.641530524609
 20
-1687.548754657043
 30
0.0
 40
8.0
  1
PR-NXU-「」
 41
0.8
 72
     1
 11
2663.734863857942
 21
-1687.548754657043
 31
0.0
100
AcDbText
  0
TEXT
  5
16DB4
330
18
100
AcDbEntity
  8
1TEXT
100
AcDbText
 10
2645.334863857943
 20
-1673.548754657043
 30
0.0
 40
8.0
  1
アイホン
 72
     1
 11
2663.734863857943
 21
-1673.548754657043
 31
0.0
100
AcDbText
  0
LINE
  5
17127
330
18
100
AcDbEntity
  8
1DIM
100
AcDbLine
 10
2375.335766875682
 20
-1915.491327587604
 30
0.0
 11
2285.269577874882
 21
-1915.491327587604
 31
0.0
  0
LINE
  5
17129
330
18
100
AcDbEntity
  8
1DIM
100
AcDbLine
 10
2287.269577874882
 20
-1919.491327587604
 30
0.0
 11
2287.269577874882
 21
-2075.391453437685
 31
0.0
  0
LINE
  5
1724E
330
18
100
AcDbEntity
  8
1PHANTOM
100
AcDbLine
 10
2410.335766875682
 20
-1846.491327587604
 30
0.0
 11
2410.335766875682
 21
-1984.491327587604
 31
0.0
  0
ARC
  5
1724F
330
18
100
AcDbEntity
  8
1PHANTOM
100
AcDbCircle
 10
2405.335766875682
 20
-1846.491327587604
 30
0.0
 40
5.0
100
AcDbArc
 50
0.0
 51
90.0
  0
LINE
  5
17250
330
18
100
AcDbEntity
  8
1PHANTOM
100
AcDbLine
 10
2340.335766875682
 20
-1846.491327587604
 30
0.0
 11
2340.335766875682
 21
-1984.491327587604
 31
0.0
  0
ARC
  5
17251
330
18
100
AcDbEntity
  8
1PHANTOM
100
AcDbCircle
 10
2345.335766875682
 20
-1984.491327587604
 30
0.0
 40
5.0
100
AcDbArc
 50
180.0
 51
270.0
  0
LINE
  5
17252
330
18
100
AcDbEntity
  8
1PHANTOM
100
AcDbLine
 10
2405.335766875682
 20
-1989.491327587604
 30
0.0
 11
2345.335766875682
 21
-1989.491327587604
 31
0.0
  0
ARC
  5
17253
330
18
100
AcDbEntity
  8
1PHANTOM
100
AcDbCircle
 10
2405.335766875682
 20
-1984.491327587604
 30
0.0
 40
5.0
100
AcDbArc
 50
270.0
 51
0.0
  0
LINE
  5
17254
330
18
100
AcDbEntity
  8
1PHANTOM
100
AcDbLine
 10
2405.335766875682
 20
-1841.491327587604
 30
0.0
 11
2345.335766875682
 21
-1841.491327587604
 31
0.0
  0
ARC
  5
17255
330
18
100
AcDbEntity
  8
1PHANTOM
100
AcDbCircle
 10
2345.335766875682
 20
-1846.491327587604
 30
0.0
 40
5.0
100
AcDbArc
 50
90.0
 51
180.0
  0
LINE
  5
175A0
330
18
100
AcDbEntity
  8
1DIM
100
AcDbLine
 10
2307.835766875682
 20
-1793.991327587604
 30
0.0
 11
2307.835766875682
 21
-1730.991327587604
 31
0.0
1001
ACAD
1000
DSTYLE
1002
{
1070
    40
1040
2.0
1002
}
  0
LINE
  5
175A1
330
18
100
AcDbEntity
  8
1DIM
100
AcDbLine
 10
2442.835766875682
 20
-1793.991327587604
 30
0.0
 11
2442.835766875682
 21
-1730.991327587604
 31
0.0
1001
ACAD
1000
DSTYLE
1002
{
1070
    40
1040
2.0
1002
}
  0
LINE
  5
175A2
330
18
100
AcDbEntity
  8
1DIM
100
AcDbLine
 10
2311.835766875682
 20
-1732.991327587604
 30
0.0
 11
2438.835766875682
 21
-1732.991327587604
 31
0.0
1001
ACAD
1000
DSTYLE
1002
{
1070
    40
1040
2.0
1002
}
  0
LINE
  5
175A6
330
18
100
AcDbEntity
  8
1DIM
100
AcDbLine
 10
2542.835766875682
 20
-1792.991327587604
 30
0.0
 11
2542.835766875682
 21
-1750.991327587604
 31
0.0
1001
ACAD
1000
DSTYLE
1002
{
1070
    40
1040
2.0
1002
}
  0
LINE
  5
175A7
330
18
100
AcDbEntity
  8
1DIM
100
AcDbLine
 10
2564.835766875682
 20
-1796.291327587604
 30
0.0
 11
2564.835766875682
 21
-1750.991327587604
 31
0.0
1001
ACAD
1000
DSTYLE
1002
{
1070
    40
1040
2.0
1002
}
  0
LINE
  5
175A8
330
18
100
AcDbEntity
  8
1DIM
100
AcDbLine
 10
2546.835766875682
 20
-1752.991327587604
 30
0.0
 11
2560.835766875682
 21
-1752.991327587604
 31
0.0
1001
ACAD
1000
DSTYLE
1002
{
1070
    40
1040
2.0
1002
}
  0
LINE
  5
175AC
330
18
100
AcDbEntity
  8
1DIM
100
AcDbLine
 10
2564.835766875683
 20
-2052.47660754855
 30
0.0
 11
2564.835766875683
 21
-2057.491327587604
 31
0.0
1001
ACAD
1000
DSTYLE
1002
{
1070
    40
1040
2.0
1002
}
  0
LINE
  5
175AD
330
18
100
AcDbEntity
  8
1DIM
100
AcDbLine
 10
2551.835766875682
 20
-2038.109232503074
 30
0.0
 11
2551.835766875682
 21
-2057.491327587604
 31
0.0
1001
ACAD
1000
DSTYLE
1002
{
1070
    40
1040
2.0
1002
}
  0
LINE
  5
175AE
330
18
100
AcDbEntity
  8
1DIM
100
AcDbLine
 10
2560.835766875683
 20
-2055.491327587604
 30
0.0
 11
2555.835766875682
 21
-2055.491327587604
 31
0.0
1001
ACAD
1000
DSTYLE
1002
{
1070
    40
1040
2.0
1002
}
  0
LINE
  5
175AF
330
18
100
AcDbEntity
  8
1DIM
100
AcDbLine
 10
2551.835766875682
 20
-2055.491327587604
 30
0.0
 11
2534.702433542348
 21
-2055.491327587604
 31
0.0
1001
ACAD
1000
DSTYLE
1002
{
1070
    40
1040
2.0
1002
}
  0
LINE
  5
175B3
330
18
100
AcDbEntity
  8
1DIM
100
AcDbLine
 10
2434.835766875681
 20
-2015.491327587604
 30
0.0
 11
2484.835766875682
 21
-2015.491327587604
 31
0.0
1001
ACAD
1000
DSTYLE
1002
{
1070
    40
1040
2.0
1002
}
  0
LINE
  5
175B4
330
18
100
AcDbEntity
  8
1DIM
100
AcDbLine
 10
2434.835766875681
 20
-1815.491327587604
 30
0.0
 11
2484.835766875682
 21
-1815.491327587604
 31
0.0
1001
ACAD
1000
DSTYLE
1002
{
1070
    40
1040
2.0
1002
}
  0
LINE
  5
175B5
330
18
100
AcDbEntity
  8
1DIM
100
AcDbLine
 10
2482.835766875682
 20
-2011.491327587604
 30
0.0
 11
2482.835766875682
 21
-1819.491327587604
 31
0.0
1001
ACAD
1000
DSTYLE
1002
{
1070
    40
1040
2.0
1002
}
  0
LINE
  5
175B9
330
18
100
AcDbEntity
  8
1DIM
100
AcDbLine
 10
2441.835766875682
 20
-1792.991327587604
 30
0.0
 11
2504.835766875682
 21
-1792.991327587604
 31
0.0
1001
ACAD
1000
DSTYLE
1002
{
1070
    40
1040
2.0
1002
}
  0
LINE
  5
175BA
330
18
100
AcDbEntity
  8
1DIM
100
AcDbLine
 10
2441.835766875682
 20
-2037.991327587604
 30
0.0
 11
2504.835766875682
 21
-2037.991327587604
 31
0.0
1001
ACAD
1000
DSTYLE
1002
{
1070
    40
1040
2.0
1002
}
  0
LINE
  5
175BB
330
18
100
AcDbEntity
  8
1DIM
100
AcDbLine
 10
2502.835766875682
 20
-1796.991327587604
 30
0.0
 11
2502.835766875682
 21
-2033.991327587604
 31
0.0
1001
ACAD
1000
DSTYLE
1002
{
1070
    40
1040
2.0
1002
}
  0
LINE
  5
175BF
330
18
100
AcDbEntity
  8
1DIM
100
AcDbLine
 10
2320.335766875682
 20
-1810.991327587604
 30
0.0
 11
2320.335766875682
 21
-1750.991327587604
 31
0.0
1001
ACAD
1000
DSTYLE
1002
{
1070
    40
1040
2.0
1002
}
  0
LINE
  5
175C0
330
18
100
AcDbEntity
  8
1DIM
100
AcDbLine
 10
2430.335766875681
 20
-1810.991327587604
 30
0.0
 11
2430.335766875681
 21
-1750.991327587604
 31
0.0
1001
ACAD
1000
DSTYLE
1002
{
1070
    40
1040
2.0
1002
}
  0
LINE
  5
175C1
330
18
100
AcDbEntity
  8
1DIM
100
AcDbLine
 10
2324.335766875682
 20
-1752.991327587604
 30
0.0
 11
2426.335766875681
 21
-1752.991327587604
 31
0.0
1001
ACAD
1000
DSTYLE
1002
{
1070
    40
1040
2.0
1002
}
  0
SOLID
  5
175C5
330
18
100
AcDbEntity
  8
1DIM
100
AcDbTrace
 10
2552.671637014045
 20
-1792.208182822304
 30
0.0
 11
2553.501136192538
 21
-1796.177612952351
 31
0.0
 12
2551.429092062597
 22
-1792.69177337371
 32
0.0
 13
2551.429092062597
 23
-1792.69177337371
 33
0.0
1001
ACAD
1000
DSTYLE
1002
{
1070
    40
1040
2.0
1002
}
  0
LINE
  5
175C6
330
18
100
AcDbEntity
  8
1DIM
100
AcDbLine
 10
2552.050364538321
 20
-1792.449978098007
 30
0.0
 11
2533.280980776219
 21
-1744.223636686643
 31
0.0
1001
ACAD
1000
DSTYLE
1002
{
1070
    40
1040
2.0
1002
}
  0
LINE
  5
175C7
330
18
100
AcDbEntity
  8
1DIM
100
AcDbLine
 10
2533.280980776219
 20
-1744.223636686643
 30
0.0
 11
2463.247647442885
 21
-1744.223636686643
 31
0.0
1001
ACAD
1000
DSTYLE
1002
{
1070
    40
1040
2.0
1002
}
  0
TEXT
  5
175C8
330
18
100
AcDbEntity
  8
1DIM
  6
CONTINUOUS
100
AcDbText
 10
2462.780980776219
 20
-1731.156970019976
 30
0.0
 40
7.0
  1
材質：ステンレス
100
AcDbText
  0
TEXT
  5
175C9
330
18
100
AcDbEntity
  8
1DIM
  6
CONTINUOUS
100
AcDbText
 10
2470.480980776219
 20
-1742.823636686643
 30
0.0
 40
7.0
  1
仕上：各種仕上
100
AcDbText
  0
SOLID
  5
175CA
330
18
100
AcDbEntity
  8
1DIM
100
AcDbTrace
 10
2541.334222945636
 20
-1790.044903590237
 30
0.0
 11
2543.472571780416
 21
-1793.49046721688
 31
0.0
 12
2540.332329274011
 22
-1790.924668813768
 32
0.0
 13
2540.332329274011
 23
-1790.924668813768
 33
0.0
1001
ACAD
1000
DSTYLE
1002
{
1070
    40
1040
2.0
1002
}
  0
LINE
  5
175CB
330
18
100
AcDbEntity
  8
1DIM
100
AcDbLine
 10
2540.833276109824
 20
-1790.484786202003
 30
0.0
 11
2523.252416364097
 21
-1770.46336270189
 31
0.0
1001
ACAD
1000
DSTYLE
1002
{
1070
    40
1040
2.0
1002
}
  0
LINE
  5
175CC
330
18
100
AcDbEntity
  8
1DIM
100
AcDbLine
 10
2523.252416364097
 20
-1770.46336270189
 30
0.0
 11
2453.219083030764
 21
-1770.46336270189
 31
0.0
1001
ACAD
1000
DSTYLE
1002
{
1070
    40
1040
2.0
1002
}
  0
TEXT
  5
175CD
330
18
100
AcDbEntity
  8
1DIM
  6
CONTINUOUS
100
AcDbText
 10
2452.752416364097
 20
-1757.396696035223
 30
0.0
 40
7.0
  1
材質：ステンレス
100
AcDbText
  0
TEXT
  5
175CE
330
18
100
AcDbEntity
  8
1DIM
  6
CONTINUOUS
100
AcDbText
 10
2460.452416364097
 20
-1769.06336270189
 30
0.0
 40
7.0
  1
仕上：各種仕上
100
AcDbText
  0
LINE
  5
175CF
330
18
100
AcDbEntity
  8
0
  6
BYBLOCK
100
AcDbLine
 10
2286.197781114882
 20
-1919.491327587604
 30
0.0
 11
2287.269577874882
 21
-1915.491327587604
 31
0.0
  0
LINE
  5
175D0
330
18
100
AcDbEntity
  8
0
  6
BYBLOCK
100
AcDbLine
 10
2287.269577874882
 20
-1915.491327587604
 30
0.0
 11
2288.341374634882
 21
-1919.491327587604
 31
0.0
  0
LINE
  5
175D1
330
18
100
AcDbEntity
  8
0
  6
BYBLOCK
100
AcDbLine
 10
2287.269577874882
 20
-1915.491327587604
 30
0.0
 11
2287.269577874882
 21
-1919.491327587604
 31
0.0
  0
TEXT
  5
175D2
330
18
100
AcDbEntity
  8
1DIM
  6
CONTINUOUS
100
AcDbText
 10
2276.420180647801
 20
-2076.786273697721
 30
0.0
 40
7.0
  1
JIS3個用スイッチボックス又は
 50
90.0
100
AcDbText
  0
LINE
  5
175D3
330
18
100
AcDbEntity
  8
1DIM
100
AcDbLine
 10
2340.335766875682
 20
-1846.491327587604
 30
0.0
 11
2340.335766875682
 21
-1771.318875610199
 31
0.0
1001
ACAD
1000
DSTYLE
1002
{
1070
    40
1040
2.0
1002
}
  0
LINE
  5
175D4
330
18
100
AcDbEntity
  8
1DIM
100
AcDbLine
 10
2410.335766875682
 20
-1846.491327587604
 30
0.0
 11
2410.335766875682
 21
-1771.318875610199
 31
0.0
1001
ACAD
1000
DSTYLE
1002
{
1070
    40
1040
2.0
1002
}
  0
LINE
  5
175D5
330
18
100
AcDbEntity
  8
1DIM
100
AcDbLine
 10
2344.335766875682
 20
-1773.318875610199
 30
0.0
 11
2406.335766875682
 21
-1773.318875610199
 31
0.0
1001
ACAD
1000
DSTYLE
1002
{
1070
    40
1040
2.0
1002
}
  0
LINE
  5
175D9
330
18
100
AcDbEntity
  8
1DIM
100
AcDbLine
 10
2405.335766875682
 20
-1989.491327587604
 30
0.0
 11
2466.76421437114
 21
-1989.491327587604
 31
0.0
1001
ACAD
1000
DSTYLE
1002
{
1070
    40
1040
2.0
1002
}
  0
LINE
  5
175DA
330
18
100
AcDbEntity
  8
1DIM
100
AcDbLine
 10
2405.335766875682
 20
-1841.491327587604
 30
0.0
 11
2466.76421437114
 21
-1841.491327587604
 31
0.0
1001
ACAD
1000
DSTYLE
1002
{
1070
    40
1040
2.0
1002
}
  0
LINE
  5
175DB
330
18
100
AcDbEntity
  8
1DIM
100
AcDbLine
 10
2464.76421437114
 20
-1985.491327587604
 30
0.0
 11
2464.76421437114
 21
-1845.491327587604
 31
0.0
1001
ACAD
1000
DSTYLE
1002
{
1070
    40
1040
2.0
1002
}
  0
LINE
  5
175DF
330
18
100
AcDbEntity
  8
1DIM
100
AcDbLine
 10
2323.629847659075
 20
-1830.210331035183
 30
0.0
 11
2338.136014801378
 21
-1841.090997035816
 31
0.0
1001
ACAD
1000
DSTYLE
1002
{
1070
    40
1040
2.0
1002
}
1001
ACAD_DSTYLE_DIMRADIAL_EXTE
1070
   387
1070
     1
1070
   388
1040
1.570796326794897
1070
   390
1040
3.141592653589793
  0
TEXT
  5
175E2
330
18
100
AcDbEntity
  8
1DIM
  6
CONTINUOUS
100
AcDbText
 10
2285.808054826437
 20
-2085.442332955623
 30
0.0
 40
7.0
  1
逃げ穴中心　床面より1350（推奨位置）
 50
90.0
100
AcDbText
  0
LINE
  5
175E3
330
18
100
AcDbEntity
  8
1DIM
100
AcDbLine
 10
2375.335766875682
 20
-1915.491327587604
 30
0.0
 11
2285.269577874882
 21
-1915.491327587604
 31
0.0
1001
ACAD
1000
DSTYLE
1002
{
1070
    40
1040
2.0
1002
}
  0
LINE
  5
175E4
330
18
100
AcDbEntity
  8
1DIM
100
AcDbLine
 10
2315.835766875682
 20
-1815.491327587604
 30
0.0
 11
2285.269577874882
 21
-1815.491327587604
 31
0.0
1001
ACAD
1000
DSTYLE
1002
{
1070
    40
1040
2.0
1002
}
  0
LINE
  5
175E5
330
18
100
AcDbEntity
  8
1DIM
100
AcDbLine
 10
2287.269577874882
 20
-1911.491327587604
 30
0.0
 11
2287.269577874882
 21
-1819.491327587604
 31
0.0
1001
ACAD
1000
DSTYLE
1002
{
1070
    40
1040
2.0
1002
}
  0
LINE
  5
175E9
330
18
100
AcDbEntity
  8
0
  6
BYBLOCK
100
AcDbLine
 10
2311.835766875682
 20
-1734.063124347604
 30
0.0
 11
2307.835766875682
 21
-1732.991327587604
 31
0.0
  0
LINE
  5
175EA
330
18
100
AcDbEntity
  8
0
  6
BYBLOCK
100
AcDbLine
 10
2307.835766875682
 20
-1732.991327587604
 30
0.0
 11
2311.835766875682
 21
-1731.919530827604
 31
0.0
  0
LINE
  5
175EB
330
18
100
AcDbEntity
  8
0
  6
BYBLOCK
100
AcDbLine
 10
2307.835766875682
 20
-1732.991327587604
 30
0.0
 11
2311.835766875682
 21
-1732.991327587604
 31
0.0
  0
LINE
  5
175EC
330
18
100
AcDbEntity
  8
0
  6
BYBLOCK
100
AcDbLine
 10
2438.835766875682
 20
-1731.919530827604
 30
0.0
 11
2442.835766875682
 21
-1732.991327587604
 31
0.0
  0
LINE
  5
175ED
330
18
100
AcDbEntity
  8
0
  6
BYBLOCK
100
AcDbLine
 10
2442.835766875682
 20
-1732.991327587604
 30
0.0
 11
2438.835766875682
 21
-1734.063124347604
 31
0.0
  0
LINE
  5
175EE
330
18
100
AcDbEntity
  8
0
  6
BYBLOCK
100
AcDbLine
 10
2442.835766875682
 20
-1732.991327587604
 30
0.0
 11
2438.835766875682
 21
-1732.991327587604
 31
0.0
  0
TEXT
  5
175EF
330
18
100
AcDbEntity
  8
1DIM
  6
CONTINUOUS
100
AcDbText
 10
2367.169100209015
 20
-1731.591327587604
 30
0.0
 40
7.0
  1
135
100
AcDbText
1001
ACAD
1000
DSTYLE
1002
{
1070
    40
1040
2.0
1002
}
  0
LINE
  5
175F0
330
18
100
AcDbEntity
  8
0
  6
BYBLOCK
100
AcDbLine
 10
2546.835766875682
 20
-1754.063124347604
 30
0.0
 11
2542.835766875682
 21
-1752.991327587604
 31
0.0
  0
LINE
  5
175F1
330
18
100
AcDbEntity
  8
0
  6
BYBLOCK
100
AcDbLine
 10
2542.835766875682
 20
-1752.991327587604
 30
0.0
 11
2546.835766875682
 21
-1751.919530827604
 31
0.0
  0
LINE
  5
175F2
330
18
100
AcDbEntity
  8
0
  6
BYBLOCK
100
AcDbLine
 10
2542.835766875682
 20
-1752.991327587604
 30
0.0
 11
2546.835766875682
 21
-1752.991327587604
 31
0.0
  0
LINE
  5
175F3
330
18
100
AcDbEntity
  8
0
  6
BYBLOCK
100
AcDbLine
 10
2560.835766875682
 20
-1751.919530827604
 30
0.0
 11
2564.835766875682
 21
-1752.991327587604
 31
0.0
  0
LINE
  5
175F4
330
18
100
AcDbEntity
  8
0
  6
BYBLOCK
100
AcDbLine
 10
2564.835766875682
 20
-1752.991327587604
 30
0.0
 11
2560.835766875682
 21
-1754.063124347604
 31
0.0
  0
LINE
  5
175F5
330
18
100
AcDbEntity
  8
0
  6
BYBLOCK
100
AcDbLine
 10
2564.835766875682
 20
-1752.991327587604
 30
0.0
 11
2560.835766875682
 21
-1752.991327587604
 31
0.0
  0
TEXT
  5
175F6
330
18
100
AcDbEntity
  8
1DIM
  6
CONTINUOUS
100
AcDbText
 10
2548.002433542348
 20
-1751.591327587604
 30
0.0
 40
7.0
  1
22
100
AcDbText
1001
ACAD
1000
DSTYLE
1002
{
1070
    40
1040
2.0
1002
}
  0
LINE
  5
175F7
330
18
100
AcDbEntity
  8
0
  6
BYBLOCK
100
AcDbLine
 10
2560.835766875683
 20
-2054.419530827604
 30
0.0
 11
2564.835766875683
 21
-2055.491327587604
 31
0.0
  0
LINE
  5
175F8
330
18
100
AcDbEntity
  8
0
  6
BYBLOCK
100
AcDbLine
 10
2564.835766875683
 20
-2055.491327587604
 30
0.0
 11
2560.835766875683
 21
-2056.563124347604
 31
0.0
  0
LINE
  5
175F9
330
18
100
AcDbEntity
  8
0
  6
BYBLOCK
100
AcDbLine
 10
2564.835766875683
 20
-2055.491327587604
 30
0.0
 11
2560.835766875683
 21
-2055.491327587604
 31
0.0
  0
LINE
  5
175FA
330
18
100
AcDbEntity
  8
0
  6
BYBLOCK
100
AcDbLine
 10
2555.835766875682
 20
-2056.563124347604
 30
0.0
 11
2551.835766875682
 21
-2055.491327587604
 31
0.0
  0
LINE
  5
175FB
330
18
100
AcDbEntity
  8
0
  6
BYBLOCK
100
AcDbLine
 10
2551.835766875682
 20
-2055.491327587604
 30
0.0
 11
2555.835766875682
 21
-2054.419530827604
 31
0.0
  0
LINE
  5
175FC
330
18
100
AcDbEntity
  8
0
  6
BYBLOCK
100
AcDbLine
 10
2551.835766875682
 20
-2055.491327587604
 30
0.0
 11
2555.835766875682
 21
-2055.491327587604
 31
0.0
  0
TEXT
  5
175FD
330
18
100
AcDbEntity
  8
1DIM
  6
CONTINUOUS
100
AcDbText
 10
2536.602433542349
 20
-2054.091327587604
 30
0.0
 40
7.0
  1
13
100
AcDbText
1001
ACAD
1000
DSTYLE
1002
{
1070
    40
1040
2.0
1002
}
  0
LINE
  5
175FE
330
18
100
AcDbEntity
  8
0
  6
BYBLOCK
100
AcDbLine
 10
2483.907563635682
 20
-2011.491327587604
 30
0.0
 11
2482.835766875682
 21
-2015.491327587604
 31
0.0
  0
LINE
  5
175FF
330
18
100
AcDbEntity
  8
0
  6
BYBLOCK
100
AcDbLine
 10
2482.835766875682
 20
-2015.491327587604
 30
0.0
 11
2481.763970115682
 21
-2011.491327587604
 31
0.0
  0
LINE
  5
17600
330
18
100
AcDbEntity
  8
0
  6
BYBLOCK
100
AcDbLine
 10
2482.835766875682
 20
-2015.491327587604
 30
0.0
 11
2482.835766875682
 21
-2011.491327587604
 31
0.0
  0
LINE
  5
17601
330
18
100
AcDbEntity
  8
0
  6
BYBLOCK
100
AcDbLine
 10
2481.763970115682
 20
-1819.491327587604
 30
0.0
 11
2482.835766875682
 21
-1815.491327587604
 31
0.0
  0
LINE
  5
17602
330
18
100
AcDbEntity
  8
0
  6
BYBLOCK
100
AcDbLine
 10
2482.835766875682
 20
-1815.491327587604
 30
0.0
 11
2483.907563635682
 21
-1819.491327587604
 31
0.0
  0
LINE
  5
17603
330
18
100
AcDbEntity
  8
0
  6
BYBLOCK
100
AcDbLine
 10
2482.835766875682
 20
-1815.491327587604
 30
0.0
 11
2482.835766875682
 21
-1819.491327587604
 31
0.0
  0
TEXT
  5
17604
330
18
100
AcDbEntity
  8
1DIM
  6
CONTINUOUS
100
AcDbText
 10
2481.435766875682
 20
-1930.803827587604
 30
0.0
 40
7.0
  1
P=200
 50
90.0
100
AcDbText
1001
ACAD
1000
DSTYLE
1002
{
1070
    40
1040
2.0
1002
}
  0
LINE
  5
17605
330
18
100
AcDbEntity
  8
0
  6
BYBLOCK
100
AcDbLine
 10
2501.763970115682
 20
-1796.991327587604
 30
0.0
 11
2502.835766875682
 21
-1792.991327587604
 31
0.0
  0
LINE
  5
17606
330
18
100
AcDbEntity
  8
0
  6
BYBLOCK
100
AcDbLine
 10
2502.835766875682
 20
-1792.991327587604
 30
0.0
 11
2503.907563635682
 21
-1796.991327587604
 31
0.0
  0
LINE
  5
17607
330
18
100
AcDbEntity
  8
0
  6
BYBLOCK
100
AcDbLine
 10
2502.835766875682
 20
-1792.991327587604
 30
0.0
 11
2502.835766875682
 21
-1796.991327587604
 31
0.0
  0
LINE
  5
17608
330
18
100
AcDbEntity
  8
0
  6
BYBLOCK
100
AcDbLine
 10
2503.907563635682
 20
-2033.991327587604
 30
0.0
 11
2502.835766875682
 21
-2037.991327587604
 31
0.0
  0
LINE
  5
17609
330
18
100
AcDbEntity
  8
0
  6
BYBLOCK
100
AcDbLine
 10
2502.835766875682
 20
-2037.991327587604
 30
0.0
 11
2501.763970115682
 21
-2033.991327587604
 31
0.0
  0
LINE
  5
1760A
330
18
100
AcDbEntity
  8
0
  6
BYBLOCK
100
AcDbLine
 10
2502.835766875682
 20
-2037.991327587604
 30
0.0
 11
2502.835766875682
 21
-2033.991327587604
 31
0.0
  0
TEXT
  5
1760B
330
18
100
AcDbEntity
  8
1DIM
  6
CONTINUOUS
100
AcDbText
 10
2501.435766875682
 20
-1924.824660920938
 30
0.0
 40
7.0
  1
245
 50
90.0
100
AcDbText
1001
ACAD
1000
DSTYLE
1002
{
1070
    40
1040
2.0
1002
}
  0
LINE
  5
1760C
330
18
100
AcDbEntity
  8
0
  6
BYBLOCK
100
AcDbLine
 10
2324.335766875682
 20
-1754.063124347604
 30
0.0
 11
2320.335766875682
 21
-1752.991327587604
 31
0.0
  0
LINE
  5
1760D
330
18
100
AcDbEntity
  8
0
  6
BYBLOCK
100
AcDbLine
 10
2320.335766875682
 20
-1752.991327587604
 30
0.0
 11
2324.335766875682
 21
-1751.919530827604
 31
0.0
  0
LINE
  5
1760E
330
18
100
AcDbEntity
  8
0
  6
BYBLOCK
100
AcDbLine
 10
2320.335766875682
 20
-1752.991327587604
 30
0.0
 11
2324.335766875682
 21
-1752.991327587604
 31
0.0
  0
LINE
  5
1760F
330
18
100
AcDbEntity
  8
0
  6
BYBLOCK
100
AcDbLine
 10
2426.335766875681
 20
-1751.919530827604
 30
0.0
 11
2430.335766875681
 21
-1752.991327587604
 31
0.0
  0
LINE
  5
17610
330
18
100
AcDbEntity
  8
0
  6
BYBLOCK
100
AcDbLine
 10
2430.335766875681
 20
-1752.991327587604
 30
0.0
 11
2426.335766875681
 21
-1754.063124347604
 31
0.0
  0
LINE
  5
17611
330
18
100
AcDbEntity
  8
0
  6
BYBLOCK
100
AcDbLine
 10
2430.335766875681
 20
-1752.991327587604
 30
0.0
 11
2426.335766875681
 21
-1752.991327587604
 31
0.0
  0
TEXT
  5
17612
330
18
100
AcDbEntity
  8
1DIM
  6
CONTINUOUS
100
AcDbText
 10
2361.773266875682
 20
-1751.591327587604
 30
0.0
 40
7.0
  1
P=110
100
AcDbText
1001
ACAD
1000
DSTYLE
1002
{
1070
    40
1040
2.0
1002
}
  0
LINE
  5
17613
330
18
100
AcDbEntity
  8
0
  6
BYBLOCK
100
AcDbLine
 10
2344.335766875682
 20
-1774.390672370199
 30
0.0
 11
2340.335766875682
 21
-1773.318875610199
 31
0.0
  0
LINE
  5
17614
330
18
100
AcDbEntity
  8
0
  6
BYBLOCK
100
AcDbLine
 10
2340.335766875682
 20
-1773.318875610199
 30
0.0
 11
2344.335766875682
 21
-1772.247078850199
 31
0.0
  0
LINE
  5
17615
330
18
100
AcDbEntity
  8
0
  6
BYBLOCK
100
AcDbLine
 10
2340.335766875682
 20
-1773.318875610199
 30
0.0
 11
2344.335766875682
 21
-1773.318875610199
 31
0.0
  0
LINE
  5
17616
330
18
100
AcDbEntity
  8
0
  6
BYBLOCK
100
AcDbLine
 10
2406.335766875682
 20
-1772.247078850199
 30
0.0
 11
2410.335766875682
 21
-1773.318875610199
 31
0.0
  0
LINE
  5
17617
330
18
100
AcDbEntity
  8
0
  6
BYBLOCK
100
AcDbLine
 10
2410.335766875682
 20
-1773.318875610199
 30
0.0
 11
2406.335766875682
 21
-1774.390672370199
 31
0.0
  0
LINE
  5
17618
330
18
100
AcDbEntity
  8
0
  6
BYBLOCK
100
AcDbLine
 10
2410.335766875682
 20
-1773.318875610199
 30
0.0
 11
2406.335766875682
 21
-1773.318875610199
 31
0.0
  0
TEXT
  5
17619
330
18
100
AcDbEntity
  8
1DIM
  6
CONTINUOUS
100
AcDbText
 10
2349.262650291687
 20
-1771.918875610199
 30
0.0
 40
7.0
  1
逃げ穴寸法70
100
AcDbText
1001
ACAD
1000
DSTYLE
1002
{
1070
    40
1040
2.0
1002
}
  0
LINE
  5
1761A
330
18
100
AcDbEntity
  8
0
  6
BYBLOCK
100
AcDbLine
 10
2465.83601113114
 20
-1985.491327587604
 30
0.0
 11
2464.76421437114
 21
-1989.491327587604
 31
0.0
  0
LINE
  5
1761B
330
18
100
AcDbEntity
  8
0
  6
BYBLOCK
100
AcDbLine
 10
2464.76421437114
 20
-1989.491327587604
 30
0.0
 11
2463.692417611141
 21
-1985.491327587604
 31
0.0
  0
LINE
  5
1761C
330
18
100
AcDbEntity
  8
0
  6
BYBLOCK
100
AcDbLine
 10
2464.76421437114
 20
-1989.491327587604
 30
0.0
 11
2464.76421437114
 21
-1985.491327587604
 31
0.0
  0
LINE
  5
1761D
330
18
100
AcDbEntity
  8
0
  6
BYBLOCK
100
AcDbLine
 10
2463.692417611141
 20
-1845.491327587604
 30
0.0
 11
2464.76421437114
 21
-1841.491327587604
 31
0.0
  0
LINE
  5
1761E
330
18
100
AcDbEntity
  8
0
  6
BYBLOCK
100
AcDbLine
 10
2464.76421437114
 20
-1841.491327587604
 30
0.0
 11
2465.83601113114
 21
-1845.491327587604
 31
0.0
  0
LINE
  5
1761F
330
18
100
AcDbEntity
  8
0
  6
BYBLOCK
100
AcDbLine
 10
2464.76421437114
 20
-1841.491327587604
 30
0.0
 11
2464.76421437114
 21
-1845.491327587604
 31
0.0
  0
TEXT
  5
17620
330
18
100
AcDbEntity
  8
1DIM
  6
CONTINUOUS
100
AcDbText
 10
2463.364214371141
 20
-1948.82725720171
 30
0.0
 40
7.0
  1
逃げ穴寸法148
 50
90.0
100
AcDbText
1001
ACAD
1000
DSTYLE
1002
{
1070
    40
1040
2.0
1002
}
  0
TEXT
  5
17621
330
18
100
AcDbEntity
  8
1DIM
  6
CONTINUOUS
100
AcDbText
 10
2325.456531769904
 20
-1829.830414899239
 30
0.0
 40
7.0
  1
R5
 50
323.1274718613415
100
AcDbText
1001
ACAD
1000
DSTYLE
1002
{
1070
    40
1040
2.0
1002
}
1001
ACAD_DSTYLE_DIMRADIAL_EXTE
1070
   387
1070
     1
1070
   388
1040
1.570796326794897
1070
   390
1040
3.141592653589793
  0
LINE
  5
17622
330
18
100
AcDbEntity
  8
0
  6
BYBLOCK
100
AcDbLine
 10
2338.779132222303
 20
-1840.233589152923
 30
0.0
 11
2341.33590461218
 21
-1843.491143947721
 31
0.0
  0
LINE
  5
17623
330
18
100
AcDbEntity
  8
0
  6
BYBLOCK
100
AcDbLine
 10
2341.33590461218
 20
-1843.491143947721
 30
0.0
 11
2337.492897380452
 21
-1841.94840491871
 31
0.0
  0
LINE
  5
17624
330
18
100
AcDbEntity
  8
0
  6
BYBLOCK
100
AcDbLine
 10
2341.33590461218
 20
-1843.491143947721
 30
0.0
 11
2338.136014801378
 21
-1841.090997035817
 31
0.0
  0
LINE
  5
17625
330
18
100
AcDbEntity
  8
0
  6
BYBLOCK
100
AcDbLine
 10
2288.341374634882
 20
-1911.491327587604
 30
0.0
 11
2287.269577874882
 21
-1915.491327587604
 31
0.0
  0
LINE
  5
17626
330
18
100
AcDbEntity
  8
0
  6
BYBLOCK
100
AcDbLine
 10
2287.269577874882
 20
-1915.491327587604
 30
0.0
 11
2286.197781114882
 21
-1911.491327587604
 31
0.0
  0
LINE
  5
17627
330
18
100
AcDbEntity
  8
0
  6
BYBLOCK
100
AcDbLine
 10
2287.269577874882
 20
-1915.491327587604
 30
0.0
 11
2287.269577874882
 21
-1911.491327587604
 31
0.0
  0
LINE
  5
17628
330
18
100
AcDbEntity
  8
0
  6
BYBLOCK
100
AcDbLine
 10
2286.197781114882
 20
-1819.491327587604
 30
0.0
 11
2287.269577874882
 21
-1815.491327587604
 31
0.0
  0
LINE
  5
17629
330
18
100
AcDbEntity
  8
0
  6
BYBLOCK
100
AcDbLine
 10
2287.269577874882
 20
-1815.491327587604
 30
0.0
 11
2288.341374634882
 21
-1819.491327587604
 31
0.0
  0
LINE
  5
1762A
330
18
100
AcDbEntity
  8
0
  6
BYBLOCK
100
AcDbLine
 10
2287.269577874882
 20
-1815.491327587604
 30
0.0
 11
2287.269577874882
 21
-1819.491327587604
 31
0.0
  0
TEXT
  5
1762B
330
18
100
AcDbEntity
  8
1DIM
  6
CONTINUOUS
100
AcDbText
 10
2285.869577874882
 20
-1872.637160920938
 30
0.0
 40
7.0
  1
100
 50
90.0
100
AcDbText
1001
ACAD
1000
DSTYLE
1002
{
1070
    40
1040
2.0
1002
}
  0
VIEWPORT
  5
57
330
15
100
AcDbEntity
 67
     1
  8
0
100
AcDbViewport
 68
     1
 10
0.0
 20
0.0
 30
0.0
 40
600.1703601108032
 41
297.0
 68
     1
 69
     1
1001
ACAD
1000
MVIEW
1002
{
1070
    16
1010
0.0
1020
0.0
1030
0.0
1010
0.0
1020
0.0
1030
1.0
1040
0.0
1040
297.0
1040
-4.272048862584541
1040
18.33904653606845
1040
50.0
1040
0.0
1040
0.0
1070
    16
1070
   100
1070
     0
1070
     1
1070
     0
1070
     0
1070
     0
1070
     0
1040
0.0
1040
0.0
1040
0.0
1040
10.0
1040
10.0
1040
10.0
1040
10.0
1070
     0
1002
{
1002
}
1002
}
  0
ENDSEC
  0
SECTION
  2
OBJECTS
  0
DICTIONARY
  5
C
330
0
100
AcDbDictionary
  3
ACAD_COLOR
350
2D0
  3
ACAD_GROUP
350
D
  3
ACAD_LAYOUT
350
2D1
  3
ACAD_MATERIAL
350
2CF
  3
ACAD_MLEADERSTYLE
350
15B98
  3
ACAD_MLINESTYLE
350
1B
  3
ACAD_PLOTSETTINGS
350
2D2
  3
ACAD_SCALELIST
350
15B76
  3
ACAD_VISUALSTYLE
350
15B65
  3
ACDBHEADERROUNDTRIPXREC
350
1762C
  3
ACDBVARIABLEDICTIONARY
350
37
  3
CONTENTDICTIONARY
350
D8
  3
DRAWINGVARIABLESDICT
350
20
  3
DWGPROPS
350
1762F
1001
ACAD
1000
TREAT_AS_HARD
1070
     0
  0
DICTIONARY
  5
14EC2
330
2
100
AcDbDictionary
  3
ACAD_LAYERSTATES
360
14EC3
1001
ACAD
1000
TREAT_AS_HARD
1070
     1
  0
DICTIONARY
  5
15BB5
330
E
100
AcDbDictionary
  3
ADSK_XREC_LAYER_RECONCILED
360
15BB6
1001
ACAD
1000
TREAT_AS_HARD
1070
     1
  0
DICTIONARY
  5
15BB7
330
29
100
AcDbDictionary
  3
ADSK_XREC_LAYER_RECONCILED
360
15BB8
1001
ACAD
1000
TREAT_AS_HARD
1070
     1
  0
DICTIONARY
  5
15BB9
330
31
100
AcDbDictionary
  3
ADSK_XREC_LAYER_RECONCILED
360
15BBA
1001
ACAD
1000
TREAT_AS_HARD
1070
     1
  0
DICTIONARY
  5
15BC3
330
101
100
AcDbDictionary
  3
ADSK_XREC_LAYER_RECONCILED
360
15BC4
1001
ACAD
1000
TREAT_AS_HARD
1070
     1
  0
DICTIONARY
  5
15BC7
330
103
100
AcDbDictionary
  3
ADSK_XREC_LAYER_RECONCILED
360
15BC8
1001
ACAD
1000
TREAT_AS_HARD
1070
     1
  0
DICTIONARY
  5
15BCB
330
25F
100
AcDbDictionary
  3
ADSK_XREC_LAYER_RECONCILED
360
15BCC
1001
ACAD
1000
TREAT_AS_HARD
1070
     1
  0
DICTIONARY
  5
6E9
330
18
100
AcDbDictionary
  3
ACAD_SORTENTS
360
6EA
1001
ACAD
1000
TREAT_AS_HARD
1070
     1
  0
DICTIONARY
  5
59B
330
15
100
AcDbDictionary
  3
ACAD_SORTENTS
360
59C
1001
ACAD
1000
TREAT_AS_HARD
1070
     1
  0
DICTIONARY
  5
2D0
102
{ACAD_REACTORS
330
C
102
}
330
C
100
AcDbDictionary
1001
ACAD
1000
TREAT_AS_HARD
1070
     0
  0
DICTIONARY
  5
D
102
{ACAD_REACTORS
330
C
102
}
330
C
100
AcDbDictionary
  3
*A1
350
16D17
  3
*A2
350
16CD3
1001
ACAD
1000
TREAT_AS_HARD
1070
     0
  0
DICTIONARY
  5
2D1
102
{ACAD_REACTORS
330
C
102
}
330
C
100
AcDbDictionary
1001
ACAD
1000
TREAT_AS_HARD
1070
     0
  0
DICTIONARY
  5
2CF
102
{ACAD_REACTORS
330
C
102
}
330
C
100
AcDbDictionary
  3
BYBLOCK
350
15B55
  3
BYLAYER
350
15B4D
  3
GLOBAL
350
15B5D
1001
ACAD
1000
TREAT_AS_HARD
1070
     0
  0
DICTIONARY
  5
15B98
102
{ACAD_REACTORS
330
C
102
}
330
C
100
AcDbDictionary
  3
STANDARD
350
15B99
1001
ACAD
1000
TREAT_AS_HARD
1070
     0
  0
DICTIONARY
  5
1B
102
{ACAD_REACTORS
330
C
102
}
330
C
100
AcDbDictionary
  3
STANDARD
350
1C
1001
ACAD
1000
TREAT_AS_HARD
1070
     0
  0
DICTIONARY
  5
2D2
102
{ACAD_REACTORS
330
C
102
}
330
C
100
AcDbDictionary
1001
ACAD
1000
TREAT_AS_HARD
1070
     0
  0
DICTIONARY
  5
15B76
102
{ACAD_REACTORS
330
C
102
}
330
C
100
AcDbDictionary
  3
A0
350
15B77
  3
A1
350
15B78
  3
A2
350
15B79
  3
A3
350
15B7A
  3
A4
350
15B7B
  3
A5
350
15B7C
  3
A6
350
15B7D
  3
A7
350
15B7E
  3
A8
350
15B7F
  3
A9
350
15B80
  3
B0
350
15B81
  3
B1
350
15B82
  3
B2
350
15B83
  3
B3
350
15B84
  3
B4
350
15B85
  3
B5
350
15B86
  3
B6
350
15B87
  3
B7
350
15B88
  3
B8
350
15B89
  3
B9
350
15B8A
  3
C0
350
15B8B
  3
C1
350
15B8C
  3
C2
350
15B8D
  3
C3
350
15B8E
  3
C4
350
15B8F
  3
C5
350
15B90
  3
C6
350
15B91
  3
C7
350
15B92
  3
C8
350
15B93
  3
C9
350
15B94
  3
D0
350
15B95
  3
D1
350
15B96
  3
D2
350
15B97
1001
ACAD
1000
TREAT_AS_HARD
1070
     0
  0
DICTIONARY
  5
15B65
102
{ACAD_REACTORS
330
C
102
}
330
C
100
AcDbDictionary
  3
2DWIREFRAME
350
15B6B
  3
3D_HIDDEN
350
15B6D
  3
3DWIREFRAME
350
15B6C
  3
BASIC
350
15B6A
  3
BRIGHTEN
350
15B71
  3
COLORCHANGE
350
15B75
  3
CONCEPTUAL
350
15B6E
  3
DIM
350
15B70
  3
EDGECOLOROFF
350
174DC
  3
FACEPATTERN
350
15B74
  3
FLAT
350
15B66
  3
FLATWITHEDGES
350
15B67
  3
GOURAUD
350
15B68
  3
GOURAUDWITHEDGES
350
15B69
  3
HIDDEN
350
174D9
  3
JITTEROFF
350
174DA
  3
LINEPATTERN
350
15B73
  3
MODELING
350
174E2
  3
OVERHANGOFF
350
174DB
  3
REALISTIC
350
15B6F
  3
SHADED
350
174E1
  3
SHADED_WITH_EDGES
350
174E0
  3
SHADES_OF_GRAY
350
174DD
  3
SKETCHY
350
174DE
  3
THICKEN
350
15B72
  3
WIREFRAME
350
174D8
  3
X-RAY
350
174DF
1001
ACAD
1000
TREAT_AS_HARD
1070
     0
  0
DICTIONARY
  5
1762C
102
{ACAD_REACTORS
330
C
102
}
330
C
100
AcDbDictionary
  3
COLORDICT
350
1762D
  3
MATERIALDICT
350
1762E
1001
ACAD
1000
TREAT_AS_HARD
1070
     0
  0
DICTIONARY
  5
37
102
{ACAD_REACTORS
330
C
102
}
330
C
100
AcDbDictionary
  3
CANNOSCALE
350
17552
  3
CMLEADERSTYLE
350
15C4B
  3
CTABLESTYLE
350
4F1
  3
DIMADEC
350
38
  3
DIMASSOC
350
408
  3
HIDETEXT
350
1891
  3
INDEXCTL
350
15C4E
  3
INTERSECTIONCOLOR
350
1895
  3
INTERSECTIONDISPLAY
350
1894
  3
MSLTSCALE
350
1759C
  3
OBSCOLOR
350
1892
  3
OBSLTYPE
350
1893
  3
PROJECTNAME
350
409
  3
SORTENTS
350
15C4D
  3
XCLIPFRAME
350
17553
1001
ACAD
1000
TREAT_AS_HARD
1070
     0
  0
DICTIONARY
  5
D8
102
{ACAD_REACTORS
330
C
102
}
330
C
100
AcDbDictionary
1001
CONTENTTABDATA
1070
    11
1000
Child
1000
D:\ACLT\TABset\CHILDREN.dwg
1070
     0
1070
     0
1070
     1
1000
PK
1000
D:\ACLT\TABset\PK.dwg
1070
     0
1070
     0
1070
     1
1000
Lev1
1000
D:\ACLT\TABset\Lever01.dwg
1070
     0
1070
     0
1070
     1
1000
Lev2
1000
D:\ACLT\TABset\Lever02.dwg
1070
     0
1070
     0
1070
     1
1000
L3
1000
D:\Aclt\TABset\Lever03.dwg
1070
     0
1070
     0
1070
     1
1000
Form
1000
D:\ACLT\FORMAT
1070
     1
1070
     0
1070
     1
1000
Jnt
1000
D:\ACLT\TABset\JOINTPARTS.dwg
1070
     0
1070
     0
1070
     1
1000
ISO
1000
D:\ACLT\TABset\Isome01.dwg
1070
     0
1070
     0
1070
     1
1000
R
1000
D:\ACLT\TABset\REGION.dwg
1070
     0
1070
     0
1070
     1
1000
std
1000
D:\ACLT\TABset\std_sym_all.dwg
1070
     0
1070
     0
1070
     1
1000
丸
1000
D:\Aclt\TABset\MARU.dwg
1070
     0
1070
     0
1070
     1
1001
CONTENTCURRENTTAB
1070
     0
1001
ACAD
1000
TREAT_AS_HARD
1070
     0
  0
DICTIONARY
  5
20
102
{ACAD_REACTORS
330
C
102
}
330
C
100
AcDbDictionary
1001
DRAWINGVARIABLESXDATA
1000
POLARANG
1000
0.261799387799149410000000
1000
POLARMODE
1000
1
1000
POLARSTYLE
1000
1
1001
ACAD
1000
TREAT_AS_HARD
1070
     0
  0
XRECORD
  5
1762F
102
{ACAD_REACTORS
330
C
102
}
330
C
100
AcDbXrecord
  1
DWGPROPS COOKIE
  2

  3

  4

  6

  7

  8
619
  9

300
=
301
=
302
=
303
=
304
=
305
=
306
=
307
=
308
=
309
=
 40
0.0
 41
2453033.357663484
 42
2458040.353802373
  1

 90
        0
  0
DICTIONARY
  5
14EC3
102
{ACAD_REACTORS
330
14EC2
102
}
330
14EC2
100
AcDbDictionary
1001
ACAD
1000
TREAT_AS_HARD
1070
     0
  0
ACAD_PROXY_OBJECT
  5
15BB6
102
{ACAD_REACTORS
330
15BB5
102
}
330
15BB5
100
AcDbZombieObject
 90
      499
 91
      517
 93
       34
310
40C8804040
  0
ACAD_PROXY_OBJECT
  5
15BB8
102
{ACAD_REACTORS
330
15BB7
102
}
330
15BB7
100
AcDbZombieObject
 90
      499
 91
      517
 93
       34
310
40C8804040
  0
ACAD_PROXY_OBJECT
  5
15BBA
102
{ACAD_REACTORS
330
15BB9
102
}
330
15BB9
100
AcDbZombieObject
 90
      499
 91
      517
 93
       34
310
40C8804040
  0
ACAD_PROXY_OBJECT
  5
15BC4
102
{ACAD_REACTORS
330
15BC3
102
}
330
15BC3
100
AcDbZombieObject
 90
      499
 91
      517
 93
       34
310
40C8804040
  0
ACAD_PROXY_OBJECT
  5
15BC8
102
{ACAD_REACTORS
330
15BC7
102
}
330
15BC7
100
AcDbZombieObject
 90
      499
 91
      517
 93
       34
310
40C8804040
  0
ACAD_PROXY_OBJECT
  5
15BCC
102
{ACAD_REACTORS
330
15BCB
102
}
330
15BCB
100
AcDbZombieObject
 90
      499
 91
      517
 93
       34
310
40C8804040
  0
SORTENTSTABLE
  5
6EA
102
{ACAD_REACTORS
330
6E9
102
}
330
6E9
100
AcDbSortentsTable
330
18
331
16503
  5
16504
331
16504
  5
16505
331
16505
  5
16506
331
16506
  5
16507
331
16508
  5
16509
331
16509
  5
1650A
331
1650A
  5
1650B
331
1650B
  5
1650C
331
1650C
  5
1650D
331
1650D
  5
1653A
331
1653D
  5
1653E
331
168EE
  5
168F2
331
168EF
  5
168F3
331
168F0
  5
168F4
331
168F1
  5
16912
331
168F2
  5
16917
331
168F3
  5
16918
331
168F4
  5
16919
331
16912
  5
1691A
331
16913
  5
1691B
331
16914
  5
1691C
331
16915
  5
1691E
331
16916
  5
1691F
331
16917
  5
16920
331
16918
  5
16921
331
16919
  5
16922
331
1691A
  5
16923
331
1691B
  5
16924
331
1691C
  5
16925
331
1691E
  5
16926
331
1691F
  5
16927
331
16920
  5
16928
331
16921
  5
16929
331
16922
  5
1692A
331
16923
  5
1692B
331
16924
  5
1692C
331
16925
  5
1692D
331
16926
  5
1692E
331
16927
  5
1692F
331
16928
  5
16930
331
16929
  5
16931
331
1692A
  5
16932
331
1692B
  5
16936
331
1692C
  5
16B81
331
1692D
  5
16B82
331
1692E
  5
16B83
331
1692F
  5
16B84
331
16930
  5
16B85
331
16931
  5
16B86
331
16932
  5
16B87
331
0
  5
16B88
331
16B81
  5
16BB5
331
16B82
  5
16BB6
331
16B83
  5
16BBD
331
16B84
  5
16BBE
331
16B85
  5
16BC5
331
16B86
  5
16BC6
331
0
  5
16B8F
331
16B88
  5
16BF9
331
16B89
  5
16BFA
331
16B8A
  5
16BFB
331
16B8B
  5
16BFC
331
16B8C
  5
16BFD
331
16B8D
  5
16BFE
331
16B8E
  5
16BFF
331
16B8F
  5
16C00
331
16B90
  5
16C02
331
16BAD
  5
16C03
331
16BB0
  5
16C11
331
16BB1
  5
16C12
331
16BB2
  5
16C14
331
16BB3
  5
16C15
331
16BB4
  5
16C16
331
16BB5
  5
16C17
331
16BB6
  5
16C18
331
16BB7
  5
16C19
331
16BB9
  5
16C1A
331
16BBA
  5
16C24
331
16BBD
  5
16C25
331
16BBE
  5
16C2F
331
16BC5
  5
16C30
331
16BC6
  5
16C31
331
16BC7
  5
16C32
331
16BCB
  5
16C33
331
16BCC
  5
16C4F
331
16BD3
  5
16C90
331
16BF2
  5
16C91
331
16BF3
  5
16C92
331
16BF4
  5
16C93
331
16BF5
  5
16C94
331
16BF6
  5
16C95
331
16BF7
  5
16C96
331
16BF8
  5
16C97
331
16BF9
  5
16C98
331
16BFA
  5
16C99
331
16BFB
  5
16C9A
331
16BFC
  5
16C9B
331
16BFD
  5
16C9C
331
16BFE
  5
16C9D
331
16BFF
  5
16C9E
331
16C00
  5
16CA9
331
16C02
  5
16CA5
331
16C11
  5
16CAF
331
16C12
  5
16CAA
331
16C13
  5
16CA3
331
16C14
  5
16CAB
331
16C15
  5
16C9F
331
16C16
  5
16CB0
331
16C17
  5
16CA4
331
16C32
  5
16CB1
331
16C33
  5
16CB5
331
16C90
  5
16CE0
331
16C91
  5
16CE1
331
16C92
  5
16CE2
331
16C93
  5
16CE3
331
16C94
  5
16CE4
331
16C95
  5
16CE5
331
16C96
  5
16CE6
331
16C97
  5
16CE7
331
16C98
  5
16CE8
331
16C99
  5
16CE9
331
16C9A
  5
16CEA
331
16C9B
  5
16CEB
331
16C9C
  5
16CEC
331
16C9D
  5
16CED
331
16C9E
  5
16CEE
331
16C9F
  5
16CEF
331
16CA0
  5
16CF0
331
16CA1
  5
16CF1
331
16CA2
  5
16CF2
331
16CA3
  5
16CF3
331
16CA4
  5
16CF4
331
16CA5
  5
16CF5
331
16CA6
  5
16CF6
331
16CA7
  5
16CF7
331
16CA8
  5
16CF8
331
16CA9
  5
16CF9
331
16CAA
  5
16CFA
331
16CAB
  5
16CFB
331
16CAC
  5
16CFC
331
16CAD
  5
16CFD
331
16CAE
  5
16CFE
331
16CAF
  5
16CFF
331
16CB0
  5
16D00
331
16CB1
  5
16D01
331
16CB2
  5
16D02
331
16CB3
  5
16D03
331
16CB4
  5
16D04
331
16CB5
  5
16D05
331
16CB6
  5
16D06
331
16CB7
  5
16D07
331
16CB8
  5
16D08
331
16CB9
  5
16D09
331
16CBA
  5
16D0A
331
16CBB
  5
16D0B
331
16CBC
  5
16D0C
331
16CBD
  5
16D0D
331
16CBE
  5
16D0E
331
16CBF
  5
16D0F
331
16CC0
  5
16D10
331
16CC1
  5
16D11
331
16CC2
  5
16D12
331
16CC3
  5
16D13
331
16CC4
  5
16D14
331
16CC5
  5
16D15
331
16CC6
  5
16D16
331
16CC7
  5
16D1A
331
16CC8
  5
16D1B
331
16CC9
  5
16D1C
331
16CCA
  5
16D1D
331
16CCB
  5
16D1E
331
16CCC
  5
16D1F
331
16CCD
  5
16D20
331
16CCE
  5
16D21
331
16CCF
  5
16D22
331
16CD0
  5
16D23
331
16CD1
  5
16D24
331
16CD2
  5
16D25
331
16CD4
  5
16D26
331
16CD5
  5
16D27
331
16CD6
  5
16D28
331
16CD7
  5
16D29
331
16CD8
  5
16D2A
331
16CD9
  5
16D2B
331
16CDA
  5
16D2C
331
16CDB
  5
16D2D
331
16CDC
  5
16D2E
331
16CDD
  5
16D2F
331
16CDE
  5
16D30
331
16CDF
  5
16D31
331
16CE0
  5
16D32
331
16CE1
  5
16D33
331
16CE2
  5
16D34
331
16CE3
  5
16D35
331
16CE4
  5
16D36
331
16CE5
  5
16D37
331
16CE6
  5
16D38
331
16CE7
  5
16D39
331
16CE8
  5
16D3A
331
16CE9
  5
16D3B
331
16CEA
  5
16D3C
331
16CEB
  5
16D3D
331
16CEC
  5
16D3E
331
16CED
  5
16D3F
331
16CEE
  5
16D40
331
16CEF
  5
16D41
331
16CF0
  5
16D42
331
16CF1
  5
16D43
331
16CF2
  5
16D44
331
16CF3
  5
16D45
331
16CF4
  5
16D46
331
16CF5
  5
16D47
331
16CF6
  5
16D48
331
16CF7
  5
16D49
331
16CF8
  5
16D4A
331
16CF9
  5
16D4B
331
16CFA
  5
16D4C
331
16CFB
  5
16D4D
331
16CFC
  5
16D4E
331
16CFD
  5
16D4F
331
16CFE
  5
16D50
331
16CFF
  5
16D51
331
16D00
  5
16D52
331
16D01
  5
16D53
331
16D02
  5
16D54
331
16D03
  5
16D55
331
16D04
  5
16D56
331
16D05
  5
16D57
331
16D06
  5
16D58
331
16D07
  5
16D59
331
16D08
  5
16D5A
331
16D09
  5
16D5B
331
16D0A
  5
16D5C
331
16D0B
  5
16D5D
331
16D0C
  5
16D5E
331
16D0D
  5
16D5F
331
16D0E
  5
16D60
331
16D0F
  5
16D61
331
16D10
  5
16D62
331
16D11
  5
16D63
331
16D12
  5
16D64
331
16D13
  5
16D65
331
16D14
  5
16D66
331
16D15
  5
16D67
331
16D16
  5
16D68
331
16D1A
  5
16D69
331
16D1B
  5
16D6A
331
16D1C
  5
16D6B
331
16D1D
  5
16D6C
331
16D1E
  5
16D6D
331
16D1F
  5
16D6E
331
16D20
  5
16D6F
331
16D21
  5
16D70
331
16D22
  5
16D71
331
16D23
  5
16D72
331
16D24
  5
16D73
331
16D25
  5
16D74
331
16D26
  5
16D75
331
16D27
  5
16D76
331
16D28
  5
16D77
331
16D29
  5
16D78
331
16D2A
  5
16D79
331
16D2B
  5
16D7A
331
16D2C
  5
16D7B
331
16D2D
  5
16D7C
331
16D2E
  5
16D7D
331
16D2F
  5
16D7E
331
16D30
  5
16D7F
331
16D31
  5
16D80
331
16D32
  5
16D81
331
16D33
  5
16D82
331
16D34
  5
16D83
331
16D35
  5
16D84
331
16D36
  5
16D85
331
16D37
  5
16D86
331
16D38
  5
16D87
331
16D39
  5
16D88
331
16D3A
  5
16D89
331
16D3B
  5
16D8A
331
16D3C
  5
16D8B
331
16D3D
  5
16D8C
331
16D3E
  5
16D8D
331
16D3F
  5
16D95
331
16D40
  5
16D96
331
16D41
  5
16D97
331
16D42
  5
16DB4
331
16D43
  5
17127
331
16D44
  5
17129
331
16D45
  5
1724E
331
16D46
  5
1724F
331
16D47
  5
17250
331
16D48
  5
17251
331
16D49
  5
17252
331
16D4A
  5
17253
331
16D4B
  5
17254
331
16D4C
  5
17255
331
16D4D
  5
175A0
331
16D4E
  5
175A1
331
16D4F
  5
175A2
331
16D50
  5
175A3
331
16D51
  5
175A4
331
16D52
  5
175A5
331
16D53
  5
175A6
331
16D54
  5
175A7
331
16D55
  5
175A8
331
16D56
  5
175A9
331
16D57
  5
175AA
331
16D58
  5
175AB
331
16D59
  5
175AC
331
16D5A
  5
175AD
331
16D5B
  5
175AE
331
16D5C
  5
175AF
331
16D5D
  5
175B0
331
16D5E
  5
175B1
331
16D5F
  5
175B2
331
16D60
  5
175B3
331
16D61
  5
175B4
331
16D62
  5
175B5
331
16D63
  5
175B6
331
16D64
  5
175B7
331
16D65
  5
175B8
331
16D66
  5
175B9
331
16D67
  5
175BA
331
16D68
  5
175BB
331
16D69
  5
175BC
331
16D6A
  5
175BD
331
16D6B
  5
175BE
331
16D6C
  5
175BF
331
16D6D
  5
175C0
331
16D6E
  5
175C1
331
16D6F
  5
175C2
331
16D70
  5
175C3
331
16D71
  5
175C4
331
16D72
  5
175C5
331
16D73
  5
175C6
331
16D74
  5
175C7
331
16D75
  5
175C8
331
16D76
  5
175C9
331
16D77
  5
175CA
331
16D78
  5
175CB
331
16D79
  5
175CC
331
16D7A
  5
175CD
331
16D7B
  5
175CE
331
16D7C
  5
175CF
331
16D7D
  5
175D0
331
16D7E
  5
175D1
331
16D7F
  5
175D2
331
16D80
  5
175D3
331
16D81
  5
175D4
331
16D82
  5
175D5
331
16D83
  5
175D9
331
16D84
  5
175DA
331
16D85
  5
175DB
331
16D86
  5
175DF
331
16D87
  5
175E2
331
16D88
  5
175E3
331
16D89
  5
175E4
331
16D8A
  5
175E5
331
16D8B
  5
175E9
331
16D8C
  5
175EA
331
16D8D
  5
175EB
331
16D95
  5
175EC
331
16D96
  5
175ED
331
16D97
  5
175EE
331
16DB4
  5
175EF
331
17127
  5
175FA
331
17129
  5
175FB
331
1724E
  5
17600
331
1724F
  5
17601
331
17250
  5
17602
331
17251
  5
17603
331
17252
  5
17604
331
17253
  5
17605
331
17254
  5
17606
331
17255
  5
17607
331
175A0
  5
16B89
331
175A1
  5
16B8A
331
175A2
  5
16B8B
331
0
  5
16B8C
331
0
  5
16B8D
331
0
  5
16B8E
331
175A6
  5
16BC7
331
175A7
  5
16BCB
331
175A8
  5
16BCC
331
0
  5
16BB7
331
0
  5
16BB9
331
0
  5
16BBA
331
175AC
  5
16CB6
331
175AD
  5
16CB7
331
175AE
  5
16CB8
331
175AF
  5
16CB9
331
0
  5
16CA0
331
0
  5
16CA1
331
0
  5
16CA2
331
175B3
  5
16CC1
331
175B4
  5
16CC2
331
175B5
  5
16CC3
331
0
  5
16CA6
331
0
  5
16CA7
331
0
  5
16CA8
331
175B9
  5
16CCB
331
175BA
  5
16CCC
331
175BB
  5
16CCD
331
0
  5
16CAC
331
0
  5
16CAD
331
0
  5
16CAE
331
175BF
  5
16CD6
331
175C0
  5
16CD7
331
175C1
  5
16CD8
331
0
  5
16CB2
331
0
  5
16CB3
331
0
  5
16CB4
331
175C5
  5
175F0
331
175C6
  5
175F1
331
175C7
  5
175F2
331
175C8
  5
175F3
331
175C9
  5
175F4
331
175CA
  5
175F5
331
175CB
  5
175F6
331
175CC
  5
175F7
331
175CD
  5
175F8
331
175CE
  5
175F9
331
175CF
  5
175FC
331
175D0
  5
175FD
331
175D1
  5
175FE
331
175D2
  5
175FF
331
175D3
  5
17608
331
175D4
  5
17609
331
175D5
  5
1760A
331
175D9
  5
17612
331
175DA
  5
17613
331
175DB
  5
17614
331
175DF
  5
1761C
331
175E2
  5
17621
331
175E3
  5
17622
331
175E4
  5
17623
331
175E5
  5
17624
331
175E9
  5
16B90
331
175EA
  5
16BAD
331
175EB
  5
16BB0
331
175EC
  5
16BB1
331
175ED
  5
16BB2
331
175EE
  5
16BB3
331
175EF
  5
16BB4
331
175F0
  5
16BD3
331
175F1
  5
16BF2
331
175F2
  5
16BF3
331
175F3
  5
16BF4
331
175F4
  5
16BF5
331
175F5
  5
16BF6
331
175F6
  5
16BF7
331
175F7
  5
16CBA
331
175F8
  5
16CBB
331
175F9
  5
16CBC
331
175FA
  5
16CBD
331
175FB
  5
16CBE
331
175FC
  5
16CBF
331
175FD
  5
16CC0
331
175FE
  5
16CC4
331
175FF
  5
16CC5
331
17600
  5
16CC6
331
17601
  5
16CC7
331
17602
  5
16CC8
331
17603
  5
16CC9
331
17604
  5
16CCA
331
17605
  5
16CCE
331
17606
  5
16CCF
331
17607
  5
16CD0
331
17608
  5
16CD1
331
17609
  5
16CD2
331
1760A
  5
16CD4
331
1760B
  5
16CD5
331
1760C
  5
16CD9
331
1760D
  5
16CDA
331
1760E
  5
16CDB
331
1760F
  5
16CDC
331
17610
  5
16CDD
331
17611
  5
16CDE
331
17612
  5
16CDF
331
17613
  5
1760B
331
17614
  5
1760C
331
17615
  5
1760D
331
17616
  5
1760E
331
17617
  5
1760F
331
17618
  5
17610
331
17619
  5
17611
331
1761A
  5
17615
331
1761B
  5
17616
331
1761C
  5
17617
331
1761D
  5
17618
331
1761E
  5
17619
331
1761F
  5
1761A
331
17620
  5
1761B
331
17621
  5
1761D
331
17622
  5
1761E
331
17623
  5
1761F
331
17624
  5
17620
  0
SORTENTSTABLE
  5
59C
102
{ACAD_REACTORS
330
59B
102
}
330
59B
100
AcDbSortentsTable
330
15
331
57
  5
57
331
0
  5
70
331
0
  5
15E0C
331
0
  5
15E0D
331
0
  5
15E0E
331
0
  5
15E0F
331
0
  5
15E10
331
0
  5
15E11
331
0
  5
15E12
331
0
  5
15E13
331
0
  5
15E14
331
0
  5
15E15
331
0
  5
15E16
331
0
  5
15E17
331
0
  5
15E18
331
0
  5
15E19
331
0
  5
15E1A
331
0
  5
15FEC
331
0
  5
15FED
331
0
  5
15FEE
331
0
  5
15FEF
331
0
  5
15E1C
331
0
  5
15E1D
331
0
  5
15E1E
331
0
  5
15E1F
331
0
  5
15E20
331
0
  5
15E21
331
0
  5
15E22
331
0
  5
15E23
331
0
  5
15E24
331
0
  5
15E25
331
0
  5
15E26
331
0
  5
15E27
331
0
  5
15E28
331
0
  5
15E29
331
0
  5
15E2A
331
0
  5
15E2B
331
0
  5
15E2C
331
0
  5
15E2D
331
0
  5
15E2E
331
0
  5
15E2F
331
0
  5
15E30
331
0
  5
15E31
331
0
  5
15E32
331
0
  5
15E33
331
0
  5
15E34
331
0
  5
15E35
331
0
  5
15E36
331
0
  5
15E37
331
0
  5
15E38
331
0
  5
15E39
331
0
  5
15E3A
331
0
  5
15E3B
331
0
  5
15E3C
331
0
  5
15E3D
331
0
  5
15E3E
331
0
  5
15E3F
331
0
  5
15E40
331
0
  5
15E41
331
0
  5
15E42
331
0
  5
15E43
331
0
  5
15E44
331
0
  5
15E45
331
0
  5
15E46
331
0
  5
15E47
331
0
  5
15E48
331
0
  5
15E49
331
0
  5
15E4A
331
0
  5
15E4B
331
0
  5
15E4C
331
0
  5
15E4D
331
0
  5
15E4E
331
0
  5
15E4F
331
0
  5
15E50
331
0
  5
15E51
331
0
  5
15E52
331
0
  5
15E53
331
0
  5
15E54
331
0
  5
15E55
331
0
  5
15E56
331
0
  5
15E57
331
0
  5
15E58
331
0
  5
15E59
331
0
  5
15E5A
331
0
  5
15E5B
331
0
  5
15E5C
331
0
  5
15FCD
331
0
  5
15FCE
331
0
  5
15FCF
331
0
  5
15FD0
331
0
  5
15FD1
331
0
  5
15FD2
331
0
  5
15FD3
331
0
  5
15FD4
331
0
  5
15FD5
331
0
  5
15FD6
331
0
  5
15FD7
331
0
  5
15FD8
331
0
  5
15FD9
331
0
  5
15FDA
331
0
  5
15FDB
331
0
  5
15FDC
331
0
  5
15FDD
331
0
  5
15FDE
331
0
  5
15FDF
331
0
  5
15FE0
331
0
  5
15FE1
331
0
  5
15FE2
331
0
  5
15FE3
331
0
  5
15FE4
331
0
  5
15FE5
331
0
  5
15FE6
331
0
  5
15FE7
331
0
  5
15FE8
331
0
  5
15FE9
331
0
  5
15FEA
331
0
  5
15FEB
331
0
  5
15F8E
331
0
  5
15F8F
331
0
  5
15F90
331
0
  5
15F91
331
0
  5
15F92
331
0
  5
15F93
331
0
  5
15F94
331
0
  5
15F95
331
0
  5
15F96
331
0
  5
15F97
331
0
  5
15F98
331
0
  5
15F99
331
0
  5
15F9A
331
0
  5
15F9B
331
0
  5
15F9C
331
0
  5
15F9D
331
0
  5
15F9E
331
0
  5
15F9F
331
0
  5
15FA0
331
0
  5
15FA1
331
0
  5
15FA2
331
0
  5
15FA3
331
0
  5
15FA4
331
0
  5
15FA5
331
0
  5
15FA6
331
0
  5
15FA7
331
0
  5
15FA8
331
0
  5
15FA9
331
0
  5
15FAA
331
0
  5
15FAB
331
0
  5
15FAC
331
0
  5
15FAD
331
0
  5
15FAE
331
0
  5
15FAF
331
0
  5
15FB0
331
0
  5
15FB1
331
0
  5
15FB2
331
0
  5
15FB3
331
0
  5
15FB4
331
0
  5
15FB5
331
0
  5
15FB6
331
0
  5
15FB7
331
0
  5
15FB8
331
0
  5
15FB9
331
0
  5
15FBA
331
0
  5
15FBB
331
0
  5
15FBC
331
0
  5
15FBD
331
0
  5
15FBE
331
0
  5
15FBF
331
0
  5
15FC0
331
0
  5
15FC1
331
0
  5
15FC2
331
0
  5
15FC3
331
0
  5
15FC4
331
0
  5
15FC5
331
0
  5
15FC6
331
0
  5
15FC7
331
0
  5
15FC8
331
0
  5
15FC9
331
0
  5
15FCA
331
0
  5
15FCB
331
0
  5
15FCC
331
0
  5
15F51
331
0
  5
15F52
331
0
  5
15F53
331
0
  5
15F54
331
0
  5
15F55
331
0
  5
15F56
331
0
  5
15F57
331
0
  5
15F58
331
0
  5
15F59
331
0
  5
15F5A
331
0
  5
15F5B
331
0
  5
15F5C
331
0
  5
15F5D
331
0
  5
15F5E
331
0
  5
15F5F
331
0
  5
15F60
331
0
  5
15F61
331
0
  5
15F62
331
0
  5
15F63
331
0
  5
15F64
331
0
  5
15F65
331
0
  5
15F66
331
0
  5
15F67
331
0
  5
15F68
331
0
  5
15F69
331
0
  5
15F6A
331
0
  5
15F6B
331
0
  5
15F6C
331
0
  5
15F6D
331
0
  5
15F6E
331
0
  5
15F6F
331
0
  5
15F70
331
0
  5
15F71
331
0
  5
15F72
331
0
  5
15F73
331
0
  5
15F74
331
0
  5
15F75
331
0
  5
15F76
331
0
  5
15F77
331
0
  5
15F78
331
0
  5
15F79
331
0
  5
15F7A
331
0
  5
15F7B
331
0
  5
15F7C
331
0
  5
15F7D
331
0
  5
15F7E
331
0
  5
15F7F
331
0
  5
15F80
331
0
  5
15F81
331
0
  5
15F82
331
0
  5
15F83
331
0
  5
15F84
331
0
  5
15F85
331
0
  5
15F86
331
0
  5
15F87
331
0
  5
15F88
331
0
  5
15F89
331
0
  5
15F8A
331
0
  5
15F8B
331
0
  5
15F8C
331
0
  5
15F8D
331
0
  5
15F01
331
0
  5
15F02
331
0
  5
15F03
331
0
  5
15F04
331
0
  5
15F05
331
0
  5
15F06
331
0
  5
15F07
331
0
  5
15F08
331
0
  5
15F09
331
0
  5
15F0A
331
0
  5
15F0B
331
0
  5
15F0C
331
0
  5
15F0D
331
0
  5
15F0E
331
0
  5
15F0F
331
0
  5
15F10
331
0
  5
15F11
331
0
  5
15F12
331
0
  5
15F13
331
0
  5
15F14
331
0
  5
15F15
331
0
  5
15F16
331
0
  5
15F17
331
0
  5
15F18
331
0
  5
15F19
331
0
  5
15F1A
331
0
  5
15F1B
331
0
  5
15F1C
331
0
  5
15F1D
331
0
  5
15F1E
331
0
  5
15F1F
331
0
  5
15F20
331
0
  5
15F21
331
0
  5
15F22
331
0
  5
15F23
331
0
  5
15F24
331
0
  5
15F25
331
0
  5
15F26
331
0
  5
15F27
331
0
  5
15F28
331
0
  5
15F29
331
0
  5
15F2A
331
0
  5
15F2B
331
0
  5
15F2C
331
0
  5
15F2D
331
0
  5
15F2E
331
0
  5
15F2F
331
0
  5
15F30
331
0
  5
15F31
331
0
  5
15F32
331
0
  5
15F33
331
0
  5
15F34
331
0
  5
15F35
331
0
  5
15F36
331
0
  5
15F37
331
0
  5
15F38
331
0
  5
15F39
331
0
  5
15F3A
331
0
  5
15F3B
331
0
  5
15F3C
331
0
  5
15F3D
331
0
  5
15F3E
331
0
  5
15F3F
331
0
  5
15F40
331
0
  5
15F41
331
0
  5
15F42
331
0
  5
15F43
331
0
  5
15F44
331
0
  5
15F45
331
0
  5
15F46
331
0
  5
15F47
331
0
  5
15F48
331
0
  5
15F49
331
0
  5
15F4A
331
0
  5
15F4B
331
0
  5
15F4C
331
0
  5
15F4D
331
0
  5
15F4E
331
0
  5
15F4F
331
0
  5
15F50
331
0
  5
15EB0
331
0
  5
15EB1
331
0
  5
15EB2
331
0
  5
15EB3
331
0
  5
15EB4
331
0
  5
15EB5
331
0
  5
15EB6
331
0
  5
15EB7
331
0
  5
15EB8
331
0
  5
15EB9
331
0
  5
15EBA
331
0
  5
15EBB
331
0
  5
15EBC
331
0
  5
15EBD
331
0
  5
15EBE
331
0
  5
15EBF
331
0
  5
15EC0
331
0
  5
15EC1
331
0
  5
15EC2
331
0
  5
15EC3
331
0
  5
15EC4
331
0
  5
15EC5
331
0
  5
15EC6
331
0
  5
15EC7
331
0
  5
15EC8
331
0
  5
15EC9
331
0
  5
15ECA
331
0
  5
15ECB
331
0
  5
15ECC
331
0
  5
15ECD
331
0
  5
15ECE
331
0
  5
15ECF
331
0
  5
15ED0
331
0
  5
15ED1
331
0
  5
15ED2
331
0
  5
15ED3
331
0
  5
15ED4
331
0
  5
15ED5
331
0
  5
15ED6
331
0
  5
15ED7
331
0
  5
15ED8
331
0
  5
15ED9
331
0
  5
15EDA
331
0
  5
15EDB
331
0
  5
15EDC
331
0
  5
15EDD
331
0
  5
15EDE
331
0
  5
15EDF
331
0
  5
15EE0
331
0
  5
15EE1
331
0
  5
15EE2
331
0
  5
15EE3
331
0
  5
15EE4
331
0
  5
15EE5
331
0
  5
15EE6
331
0
  5
15EE7
331
0
  5
15EE8
331
0
  5
15EE9
331
0
  5
15EEA
331
0
  5
15EEB
331
0
  5
15EEC
331
0
  5
15EED
331
0
  5
15EEE
331
0
  5
15EEF
331
0
  5
15EF0
331
0
  5
15EF1
331
0
  5
15EF2
331
0
  5
15EF3
331
0
  5
15EF4
331
0
  5
15EF5
331
0
  5
15EF6
331
0
  5
15EF7
331
0
  5
15EF8
331
0
  5
15EF9
331
0
  5
15EFA
331
0
  5
15EFB
331
0
  5
15EFC
331
0
  5
15EFD
331
0
  5
15EFE
331
0
  5
15EFF
331
0
  5
15F00
331
0
  5
15E63
331
0
  5
15E64
331
0
  5
15E65
331
0
  5
15E66
331
0
  5
15E67
331
0
  5
15E68
331
0
  5
15E69
331
0
  5
15E6A
331
0
  5
15E6B
331
0
  5
15E6C
331
0
  5
15E6D
331
0
  5
15E6E
331
0
  5
15E6F
331
0
  5
15E70
331
0
  5
15E71
331
0
  5
15E72
331
0
  5
15E73
331
0
  5
15E74
331
0
  5
15E75
331
0
  5
15E76
331
0
  5
15E77
331
0
  5
15E78
331
0
  5
15E79
331
0
  5
15E7A
331
0
  5
15E7B
331
0
  5
15E7C
331
0
  5
15E7D
331
0
  5
15E7E
331
0
  5
15E7F
331
0
  5
15E80
331
0
  5
15E81
331
0
  5
15E82
331
0
  5
15E83
331
0
  5
15E84
331
0
  5
15E85
331
0
  5
15E86
331
0
  5
15E87
331
0
  5
15E88
331
0
  5
15E89
331
0
  5
15E8A
331
0
  5
15E8B
331
0
  5
15E8C
331
0
  5
15E8D
331
0
  5
15E8E
331
0
  5
15E8F
331
0
  5
15E90
331
0
  5
15E91
331
0
  5
15E92
331
0
  5
15E93
331
0
  5
15E94
331
0
  5
15E95
331
0
  5
15E96
331
0
  5
15E97
331
0
  5
15E98
331
0
  5
15E99
331
0
  5
15E9A
331
0
  5
15E9B
331
0
  5
15E9C
331
0
  5
15E9D
331
0
  5
15E9E
331
0
  5
15E9F
331
0
  5
15EA0
331
0
  5
15EA1
331
0
  5
15EA2
331
0
  5
15EA3
331
0
  5
15EA4
331
0
  5
15EA5
331
0
  5
15EA6
331
0
  5
15EA7
331
0
  5
15EA8
331
0
  5
15EA9
331
0
  5
15EAA
331
0
  5
15EAB
331
0
  5
15EAC
331
0
  5
15EAD
331
0
  5
15EAE
331
0
  5
15EAF
  0
GROUP
  5
16D17
102
{ACAD_REACTORS
330
D
102
}
330
D
100
AcDbGroup
300

 70
     1
 71
     1
340
16D16
340
16D15
340
16D14
340
16D13
340
16D12
340
16D11
340
16D10
340
16D0F
340
16D0E
340
16D0D
340
16D0C
340
16D0B
340
16D0A
340
16D09
340
16D08
340
16D07
340
16D06
340
16D05
340
16D04
340
16D03
340
16D02
340
16D01
340
16D00
340
16CFF
340
16CFE
340
16CFD
340
16CFC
340
16CFB
340
16CFA
340
16CF9
340
16CF8
340
16CF7
340
16CF6
340
16CF5
340
16CF4
340
16CF3
340
16CF2
340
16CF1
340
16CF0
340
16CEF
340
16CEE
340
16CED
340
16CEC
340
16CEB
340
16CEA
340
16CE9
340
16CE8
340
16CE7
340
16CE6
340
16CE5
340
16CE4
340
16CE3
340
16CE2
340
16CE1
340
16CE0
340
16CDF
340
16CDE
340
16CDD
340
16CDC
340
16CDB
340
16CDA
340
16CD9
340
16CD8
340
16CD7
340
16CD6
340
16CD5
340
16CD4
  0
GROUP
  5
16CD3
102
{ACAD_REACTORS
330
D
102
}
330
D
100
AcDbGroup
300

 70
     1
 71
     1
340
16CD2
340
16CD1
340
16CD0
340
16CCF
340
16CCE
340
16CCD
340
16CCC
340
16CCB
340
16CCA
340
16CC9
340
16CC8
340
16CC7
340
16CC6
340
16CC5
340
16CC4
340
16CC3
340
16CC2
340
16CC1
340
16CC0
340
16CBF
340
16CBE
340
16CBD
340
16CBC
340
16CBB
340
16CBA
340
16CB9
340
16CB8
340
16CB7
340
16CB6
340
16CB5
340
16CB4
340
16CB3
340
16CB2
340
16CB1
340
16CB0
340
16CAF
340
16CAE
340
16CAD
340
16CAC
340
16CAB
340
16CAA
340
16CA9
340
16CA8
340
16CA7
340
16CA6
340
16CA5
340
16CA4
340
16CA3
340
16CA2
340
16CA1
340
16CA0
340
16C9F
340
16C9E
340
16C9D
340
16C9C
340
16C9B
340
16C9A
340
16C99
340
16C98
340
16C97
340
16C96
340
16C95
340
16C94
340
16C93
340
16C92
340
16C91
340
16C90
  0
MATERIAL
  5
15B55
102
{ACAD_REACTORS
330
2CF
102
}
102
{ACAD_XDICTIONARY
360
17630
102
}
330
2CF
100
AcDbMaterial
  1
BYBLOCK
 72
     0
 73
     2
 43
0.0208333333333333
 43
0.0
 43
0.0
 43
0.0
 43
0.0
 43
0.0208333333333333
 43
0.0
 43
0.0
 43
0.0
 43
0.0
 43
1.0
 43
0.0
 43
0.0
 43
0.0
 43
0.0
 43
1.0
 77
     0
 78
     2
 47
0.0208333333333333
 47
0.0
 47
0.0
 47
0.0
 47
0.0
 47
0.0208333333333333
 47
0.0
 47
0.0
 47
0.0
 47
0.0
 47
1.0
 47
0.0
 47
0.0
 47
0.0
 47
0.0
 47
1.0
171
     0
172
     2
 49
0.0208333333333333
 49
0.0
 49
0.0
 49
0.0
 49
0.0
 49
0.0208333333333333
 49
0.0
 49
0.0
 49
0.0
 49
0.0
 49
1.0
 49
0.0
 49
0.0
 49
0.0
 49
0.0
 49
1.0
175
     0
176
     2
142
0.0208333333333333
142
0.0
142
0.0
142
0.0
142
0.0
142
0.0208333333333333
142
0.0
142
0.0
142
0.0
142
0.0
142
1.0
142
0.0
142
0.0
142
0.0
142
0.0
142
1.0
179
     0
270
     2
144
0.0208333333333333
144
0.0
144
0.0
144
0.0
144
0.0
144
0.0208333333333333
144
0.0
144
0.0
144
0.0
144
0.0
144
1.0
144
0.0
144
0.0
144
0.0
144
0.0
144
1.0
274
     2
147
0.0208333333333333
147
0.0
147
0.0
147
0.0
147
0.0
147
0.0208333333333333
147
0.0
147
0.0
147
0.0
147
0.0
147
1.0
147
0.0
147
0.0
147
0.0
147
0.0
147
1.0
  0
MATERIAL
  5
15B4D
102
{ACAD_REACTORS
330
2CF
102
}
102
{ACAD_XDICTIONARY
360
17632
102
}
330
2CF
100
AcDbMaterial
  1
BYLAYER
 72
     0
 73
     2
 43
0.0208333333333333
 43
0.0
 43
0.0
 43
0.0
 43
0.0
 43
0.0208333333333333
 43
0.0
 43
0.0
 43
0.0
 43
0.0
 43
1.0
 43
0.0
 43
0.0
 43
0.0
 43
0.0
 43
1.0
 77
     0
 78
     2
 47
0.0208333333333333
 47
0.0
 47
0.0
 47
0.0
 47
0.0
 47
0.0208333333333333
 47
0.0
 47
0.0
 47
0.0
 47
0.0
 47
1.0
 47
0.0
 47
0.0
 47
0.0
 47
0.0
 47
1.0
171
     0
172
     2
 49
0.0208333333333333
 49
0.0
 49
0.0
 49
0.0
 49
0.0
 49
0.0208333333333333
 49
0.0
 49
0.0
 49
0.0
 49
0.0
 49
1.0
 49
0.0
 49
0.0
 49
0.0
 49
0.0
 49
1.0
175
     0
176
     2
142
0.0208333333333333
142
0.0
142
0.0
142
0.0
142
0.0
142
0.0208333333333333
142
0.0
142
0.0
142
0.0
142
0.0
142
1.0
142
0.0
142
0.0
142
0.0
142
0.0
142
1.0
179
     0
270
     2
144
0.0208333333333333
144
0.0
144
0.0
144
0.0
144
0.0
144
0.0208333333333333
144
0.0
144
0.0
144
0.0
144
0.0
144
1.0
144
0.0
144
0.0
144
0.0
144
0.0
144
1.0
274
     2
147
0.0208333333333333
147
0.0
147
0.0
147
0.0
147
0.0
147
0.0208333333333333
147
0.0
147
0.0
147
0.0
147
0.0
147
1.0
147
0.0
147
0.0
147
0.0
147
0.0
147
1.0
  0
MATERIAL
  5
15B5D
102
{ACAD_REACTORS
330
2CF
102
}
102
{ACAD_XDICTIONARY
360
17634
102
}
330
2CF
100
AcDbMaterial
  1
GLOBAL
 72
     0
 73
     2
 43
0.0208333333333333
 43
0.0
 43
0.0
 43
0.0
 43
0.0
 43
0.0208333333333333
 43
0.0
 43
0.0
 43
0.0
 43
0.0
 43
1.0
 43
0.0
 43
0.0
 43
0.0
 43
0.0
 43
1.0
 77
     0
 78
     2
 47
0.0208333333333333
 47
0.0
 47
0.0
 47
0.0
 47
0.0
 47
0.0208333333333333
 47
0.0
 47
0.0
 47
0.0
 47
0.0
 47
1.0
 47
0.0
 47
0.0
 47
0.0
 47
0.0
 47
1.0
171
     0
172
     2
 49
0.0208333333333333
 49
0.0
 49
0.0
 49
0.0
 49
0.0
 49
0.0208333333333333
 49
0.0
 49
0.0
 49
0.0
 49
0.0
 49
1.0
 49
0.0
 49
0.0
 49
0.0
 49
0.0
 49
1.0
175
     0
176
     2
142
0.0208333333333333
142
0.0
142
0.0
142
0.0
142
0.0
142
0.0208333333333333
142
0.0
142
0.0
142
0.0
142
0.0
142
1.0
142
0.0
142
0.0
142
0.0
142
0.0
142
1.0
179
     0
270
     2
144
0.0208333333333333
144
0.0
144
0.0
144
0.0
144
0.0
144
0.0208333333333333
144
0.0
144
0.0
144
0.0
144
0.0
144
1.0
144
0.0
144
0.0
144
0.0
144
0.0
144
1.0
274
     2
147
0.0208333333333333
147
0.0
147
0.0
147
0.0
147
0.0
147
0.0208333333333333
147
0.0
147
0.0
147
0.0
147
0.0
147
1.0
147
0.0
147
0.0
147
0.0
147
0.0
147
1.0
  0
ACAD_PROXY_OBJECT
  5
15B99
102
{ACAD_REACTORS
330
15B98
102
}
330
15B98
100
AcDbZombieObject
 90
      499
 91
      512
 93
      610
310
40901902A4063FBFFFFFE000000000000002040AD7A3703D0AD73F4214DD185B99185C990000000000000104090141901A00000000000004100000000000000041025764000000000000300FC0
340
12
340
0
340
F
340
0
 94
        0
1001
ACAD_MLEADERVER
1070
     2
  0
MLINESTYLE
  5
1C
102
{ACAD_REACTORS
330
1B
102
}
330
1B
100
AcDbMlineStyle
  2
STANDARD
 70
     0
  3

 62
   256
 51
90.0
 52
90.0
 71
     2
 49
0.5
 62
   256
  6
BYLAYER
 49
-0.5
 62
   256
  6
BYLAYER
  0
ACAD_PROXY_OBJECT
  5
15B77
102
{ACAD_REACTORS
330
15B76
102
}
330
15B76
100
AcDbZombieObject
 90
      499
 91
      511
 93
       41
310
903313A31580
  0
ACAD_PROXY_OBJECT
  5
15B78
102
{ACAD_REACTORS
330
15B76
102
}
330
15B76
100
AcDbZombieObject
 90
      499
 91
      511
 93
      105
310
903313A324000000000000004000
  0
ACAD_PROXY_OBJECT
  5
15B79
102
{ACAD_REACTORS
330
15B76
102
}
330
15B76
100
AcDbZombieObject
 90
      499
 91
      511
 93
      105
310
903313A344000000000000104000
  0
ACAD_PROXY_OBJECT
  5
15B7A
102
{ACAD_REACTORS
330
15B76
102
}
330
15B76
100
AcDbZombieObject
 90
      499
 91
      511
 93
      105
310
903313A354000000000000144000
  0
ACAD_PROXY_OBJECT
  5
15B7B
102
{ACAD_REACTORS
330
15B76
102
}
330
15B76
100
AcDbZombieObject
 90
      499
 91
      511
 93
      105
310
903313A384000000000000204000
  0
ACAD_PROXY_OBJECT
  5
15B7C
102
{ACAD_REACTORS
330
15B76
102
}
330
15B76
100
AcDbZombieObject
 90
      499
 91
      511
 93
      113
310
904313A31304000000000000244000
  0
ACAD_PROXY_OBJECT
  5
15B7D
102
{ACAD_REACTORS
330
15B76
102
}
330
15B76
100
AcDbZombieObject
 90
      499
 91
      511
 93
      113
310
904313A31364000000000000304000
  0
ACAD_PROXY_OBJECT
  5
15B7E
102
{ACAD_REACTORS
330
15B76
102
}
330
15B76
100
AcDbZombieObject
 90
      499
 91
      511
 93
      113
310
904313A32304000000000000344000
  0
ACAD_PROXY_OBJECT
  5
15B7F
102
{ACAD_REACTORS
330
15B76
102
}
330
15B76
100
AcDbZombieObject
 90
      499
 91
      511
 93
      113
310
904313A333040000000000003E4000
  0
ACAD_PROXY_OBJECT
  5
15B80
102
{ACAD_REACTORS
330
15B76
102
}
330
15B76
100
AcDbZombieObject
 90
      499
 91
      511
 93
      113
310
904313A34304000000000000444000
  0
ACAD_PROXY_OBJECT
  5
15B81
102
{ACAD_REACTORS
330
15B76
102
}
330
15B76
100
AcDbZombieObject
 90
      499
 91
      511
 93
      113
310
904313A35304000000000000494000
  0
ACAD_PROXY_OBJECT
  5
15B82
102
{ACAD_REACTORS
330
15B76
102
}
330
15B76
100
AcDbZombieObject
 90
      499
 91
      511
 93
      121
310
905313A3130304000000000000594000
  0
ACAD_PROXY_OBJECT
  5
15B83
102
{ACAD_REACTORS
330
15B76
102
}
330
15B76
100
AcDbZombieObject
 90
      499
 91
      511
 93
      105
310
903323A310000000000000010100
  0
ACAD_PROXY_OBJECT
  5
15B84
102
{ACAD_REACTORS
330
15B76
102
}
330
15B76
100
AcDbZombieObject
 90
      499
 91
      511
 93
      105
310
903343A310000000000000410100
  0
ACAD_PROXY_OBJECT
  5
15B85
102
{ACAD_REACTORS
330
15B76
102
}
330
15B76
100
AcDbZombieObject
 90
      499
 91
      511
 93
      105
310
903383A310000000000000810100
  0
ACAD_PROXY_OBJECT
  5
15B86
102
{ACAD_REACTORS
330
15B76
102
}
330
15B76
100
AcDbZombieObject
 90
      499
 91
      511
 93
      113
310
90431303A310000000000000910100
  0
ACAD_PROXY_OBJECT
  5
15B87
102
{ACAD_REACTORS
330
15B76
102
}
330
15B76
100
AcDbZombieObject
 90
      499
 91
      511
 93
      121
310
9053130303A310000000000001650100
  0
ACAD_PROXY_OBJECT
  5
15B88
102
{ACAD_REACTORS
330
15B76
102
}
330
15B76
100
AcDbZombieObject
 90
      499
 91
      511
 93
      257
310
90E312F31323822203D2031272D3022000000000000200FC000000000000284000
  0
ACAD_PROXY_OBJECT
  5
15B89
102
{ACAD_REACTORS
330
15B76
102
}
330
15B76
100
AcDbZombieObject
 90
      499
 91
      511
 93
      249
310
90D312F363422203D2031272D3022000000000000240FC000000000000284000
  0
ACAD_PROXY_OBJECT
  5
15B8A
102
{ACAD_REACTORS
330
15B76
102
}
330
15B76
100
AcDbZombieObject
 90
      499
 91
      511
 93
      249
310
90D312F333222203D2031272D3022000000000000280FC000000000000284000
  0
ACAD_PROXY_OBJECT
  5
15B8B
102
{ACAD_REACTORS
330
15B76
102
}
330
15B76
100
AcDbZombieObject
 90
      499
 91
      511
 93
      249
310
90D312F313622203D2031272D30220000000000002C0FC000000000000284000
  0
ACAD_PROXY_OBJECT
  5
15B8C
102
{ACAD_REACTORS
330
15B76
102
}
330
15B76
100
AcDbZombieObject
 90
      499
 91
      511
 93
      249
310
90D332F333222203D2031272D30220000000000002E0FC000000000000284000
  0
ACAD_PROXY_OBJECT
  5
15B8D
102
{ACAD_REACTORS
330
15B76
102
}
330
15B76
100
AcDbZombieObject
 90
      499
 91
      511
 93
      241
310
90C312F3822203D2031272D3022000000000000300FC000000000000284000
  0
ACAD_PROXY_OBJECT
  5
15B8E
102
{ACAD_REACTORS
330
15B76
102
}
330
15B76
100
AcDbZombieObject
 90
      499
 91
      511
 93
      249
310
90D332F313622203D2031272D3022000000000000320FC000000000000284000
  0
ACAD_PROXY_OBJECT
  5
15B8F
102
{ACAD_REACTORS
330
15B76
102
}
330
15B76
100
AcDbZombieObject
 90
      499
 91
      511
 93
      241
310
90C312F3422203D2031272D3022000000000000340FC000000000000284000
  0
ACAD_PROXY_OBJECT
  5
15B90
102
{ACAD_REACTORS
330
15B76
102
}
330
15B76
100
AcDbZombieObject
 90
      499
 91
      511
 93
      241
310
90C332F3822203D2031272D3022000000000000360FC000000000000284000
  0
ACAD_PROXY_OBJECT
  5
15B91
102
{ACAD_REACTORS
330
15B76
102
}
330
15B76
100
AcDbZombieObject
 90
      499
 91
      511
 93
      241
310
90C312F3222203D2031272D3022000000000000380FC000000000000284000
  0
ACAD_PROXY_OBJECT
  5
15B92
102
{ACAD_REACTORS
330
15B76
102
}
330
15B76
100
AcDbZombieObject
 90
      499
 91
      511
 93
      241
310
90C332F3422203D2031272D30220000000000003A0FC000000000000284000
  0
ACAD_PROXY_OBJECT
  5
15B93
102
{ACAD_REACTORS
330
15B76
102
}
330
15B76
100
AcDbZombieObject
 90
      499
 91
      511
 93
      161
310
90A3122203D2031272D30224000000000000284000
  0
ACAD_PROXY_OBJECT
  5
15B94
102
{ACAD_REACTORS
330
15B76
102
}
330
15B76
100
AcDbZombieObject
 90
      499
 91
      511
 93
      257
310
90E312D312F3222203D2031272D30220000000000003E0FC000000000000284000
  0
ACAD_PROXY_OBJECT
  5
15B95
102
{ACAD_REACTORS
330
15B76
102
}
330
15B76
100
AcDbZombieObject
 90
      499
 91
      511
 93
      225
310
90A3322203D2031272D302200000000000002100000000000000284000
  0
ACAD_PROXY_OBJECT
  5
15B96
102
{ACAD_REACTORS
330
15B76
102
}
330
15B76
100
AcDbZombieObject
 90
      499
 91
      511
 93
      225
310
90A3622203D2031272D302200000000000006100000000000000284000
  0
ACAD_PROXY_OBJECT
  5
15B97
102
{ACAD_REACTORS
330
15B76
102
}
330
15B76
100
AcDbZombieObject
 90
      499
 91
      511
 93
      249
310
90D31272D3022203D2031272D30220000000000000A100000000000000284000
  0
ACAD_PROXY_OBJECT
  5
15B6B
102
{ACAD_REACTORS
330
15B65
102
}
330
15B65
100
AcDbZombieObject
 90
      499
 91
      510
 93
      436
310
42CC9915DA5C99599C985B595049028333333333333E3BF0000000000000FB0107901411070040501600405405064090741402480A0340
1001
ACAD
1000
AcDbSavedByObjectVersion
1070
     0
  0
ACAD_PROXY_OBJECT
  5
15B6D
102
{ACAD_REACTORS
330
15B65
102
}
330
15B65
100
AcDbZombieObject
 90
      499
 91
      510
 93
      500
310
424CD108121A5919195B90640502408333333333333E3BF0000000000000FB01079024090700405020000000000001110200405405064090740C02480A0340
1001
ACAD
1000
AcDbSavedByObjectVersion
1070
     0
  0
ACAD_PROXY_OBJECT
  5
15B6C
102
{ACAD_REACTORS
330
15B65
102
}
330
15B65
100
AcDbZombieObject
 90
      499
 91
      510
 93
      436
310
42CCD915DA5C99599C985B595059028333333333333E3BF0000000000000FB0107901411070040501600405405064090741402480A0340
1001
ACAD
1000
AcDbSavedByObjectVersion
1070
     0
  0
ACAD_PROXY_OBJECT
  5
15B6A
102
{ACAD_REACTORS
330
15B65
102
}
330
15B65
100
AcDbZombieObject
 90
      499
 91
      510
 93
      388
310
4150985CDA58D07406404333333333333E3BF0000000000000FB0107A41107004050150841D405064090741402480A0350
1001
ACAD
1000
AcDbSavedByObjectVersion
1070
     0
  0
ACAD_PROXY_OBJECT
  5
15B71
102
{ACAD_REACTORS
330
15B65
102
}
330
15B65
100
AcDbZombieObject
 90
      499
 91
      510
 93
      428
310
42109C9A59DA1D195B90C409028333333333333E3BF0000000000000FB010790141107004050150841D405064090741402480A029950
1001
ACAD
1000
AcDbSavedByObjectVersion
1070
     0
  0
ACAD_PROXY_OBJECT
  5
15B75
102
{ACAD_REACTORS
330
15B65
102
}
330
15B65
100
AcDbZombieObject
 90
      499
 91
      510
 93
      452
310
42D0DBDB1BDC90DA185B99D95104090240C333333333333E3BF0000000000000FB0108901411070040501508421405064090741402480A0350
1001
ACAD
1000
AcDbSavedByObjectVersion
1070
     0
  0
ACAD_PROXY_OBJECT
  5
15B6E
102
{ACAD_REACTORS
330
15B65
102
}
330
15B65
100
AcDbZombieObject
 90
      499
 91
      510
 93
      500
310
4290DBDB98D95C1D1D585B10940D028333333333333E3BF0000000000000FB0107902409070040501000000000000111010841D405064090740C02480A0340
1001
ACAD
1000
AcDbSavedByObjectVersion
1070
     0
  0
ACAD_PROXY_OBJECT
  5
15B70
102
{ACAD_REACTORS
330
15B65
102
}
330
15B65
100
AcDbZombieObject
 90
      499
 91
      510
 93
      412
310
40D11A5B50B409028333333333333E3BF0000000000000FB010790141107004050150841D405064090741402480A02677FFFFFD0
1001
ACAD
1000
AcDbSavedByObjectVersion
1070
     0
  0
ACAD_PROXY_OBJECT
  5
174DC
102
{ACAD_REACTORS
330
15B65
102
}
330
15B65
100
AcDbZombieObject
 90
      499
 91
      510
 93
      452
310
43115919D950DBDB1BDC93D999916409028333333333333E33F0000000000000F9010790141107004050150841D405064090741402480A0350
1001
ACAD
1000
AcDbSavedByObjectVersion
1070
     0
  0
ACAD_PROXY_OBJECT
  5
15B74
102
{ACAD_REACTORS
330
15B65
102
}
330
15B65
100
AcDbZombieObject
 90
      499
 91
      510
 93
      444
310
42D19858D95C185D1D195C9B90F409028333333333333E3BF0000000000000FB010790141107004050150841D405064090741402480A0350
1001
ACAD
1000
AcDbSavedByObjectVersion
1070
     0
  0
ACAD_PROXY_OBJECT
  5
15B66
102
{ACAD_REACTORS
330
15B65
102
}
330
15B65
100
AcDbZombieObject
 90
      499
 91
      510
 93
      388
310
41119B185D240901404333333333333E3BF0000000000000F9010740A41107004050150841D405064090741402480A1B50
1001
ACAD
1000
AcDbSavedByObjectVersion
1070
     0
  0
ACAD_PROXY_OBJECT
  5
15B67
102
{ACAD_REACTORS
330
15B65
102
}
330
15B65
100
AcDbZombieObject
 90
      499
 91
      510
 93
      476
310
43519B185D15DA5D1A115919D95CD0140901404333333333333E3BF0000000000000F9010740901411070040501600405405064090741402480A1B50
1001
ACAD
1000
AcDbSavedByObjectVersion
1070
     0
  0
ACAD_PROXY_OBJECT
  5
15B68
102
{ACAD_REACTORS
330
15B65
102
}
330
15B65
100
AcDbZombieObject
 90
      499
 91
      510
 93
      412
310
41D1DBDD5C985D5910240902404333333333333E3BF0000000000000F9010740A411070040501641D405064090741402480A1B50
1001
ACAD
1000
AcDbSavedByObjectVersion
1070
     0
  0
ACAD_PROXY_OBJECT
  5
15B69
102
{ACAD_REACTORS
330
15B65
102
}
330
15B65
100
AcDbZombieObject
 90
      499
 91
      510
 93
      500
310
4411DBDD5C985D5915DA5D1A115919D95CD0340902404333333333333E3BF0000000000000F9010740901411070040501600405405064090741402480A1B50
1001
ACAD
1000
AcDbSavedByObjectVersion
1070
     0
  0
ACAD_PROXY_OBJECT
  5
174D9
102
{ACAD_REACTORS
330
15B65
102
}
330
15B65
100
AcDbZombieObject
 90
      499
 91
      510
 93
      476
310
41921A5919195B90640502408333333333333E33F0000000000000F901079024090700405020000000000001110200405405064090740C02480A0340
1001
ACAD
1000
AcDbSavedByObjectVersion
1070
     0
  0
ACAD_PROXY_OBJECT
  5
174DA
102
{ACAD_REACTORS
330
15B65
102
}
330
15B65
100
AcDbZombieObject
 90
      499
 91
      510
 93
      428
310
42529A5D1D195C93D999914409028333333333333E33F0000000000000F9010790141107004050150A41D405064090741402480A0350
1001
ACAD
1000
AcDbSavedByObjectVersion
1070
     0
  0
ACAD_PROXY_OBJECT
  5
15B73
102
{ACAD_REACTORS
330
15B65
102
}
330
15B65
100
AcDbZombieObject
 90
      499
 91
      510
 93
      444
310
42D31A5B995C185D1D195C9B90E409028333333333333E3BF0000000000000FB010790141107004050750841D405064090741402483A0350
1001
ACAD
1000
AcDbSavedByObjectVersion
1070
     0
  0
ACAD_PROXY_OBJECT
  5
174E2
102
{ACAD_REACTORS
330
15B65
102
}
330
15B65
100
AcDbZombieObject
 90
      499
 91
      510
 93
      484
310
42135BD9195B1A5B99D0A409038333333333333E33F0000000000000F901074090290700405010000000000201990108421405064090741402480A1B40
1001
ACAD
1000
AcDbSavedByObjectVersion
1070
     0
  0
ACAD_PROXY_OBJECT
  5
174DB
102
{ACAD_REACTORS
330
15B65
102
}
330
15B65
100
AcDbZombieObject
 90
      499
 91
      510
 93
      444
310
42D3DD995C9A185B99D3D999915409028333333333333E33F0000000000000F9010790141107004050150941D405064090741402480A0350
1001
ACAD
1000
AcDbSavedByObjectVersion
1070
     0
  0
ACAD_PROXY_OBJECT
  5
15B6F
102
{ACAD_REACTORS
330
15B65
102
}
330
15B65
100
AcDbZombieObject
 90
      499
 91
      510
 93
      420
310
425499585B1A5CDD1A58D08409028333333333333E3BF0000000000000FB01079019070040501508421405064090741402480A1B40
1001
ACAD
1000
AcDbSavedByObjectVersion
1070
     0
  0
ACAD_PROXY_OBJECT
  5
174E1
102
{ACAD_REACTORS
330
15B65
102
}
330
15B65
100
AcDbZombieObject
 90
      499
 91
      510
 93
      420
310
4194DA1859195911B40902404333333333333E33F0000000000000F9010740A41107004050150800405405064090840C02480A0B40
1001
ACAD
1000
AcDbSavedByObjectVersion
1070
     0
  0
ACAD_PROXY_OBJECT
  5
174E0
102
{ACAD_REACTORS
330
15B65
102
}
330
15B65
100
AcDbZombieObject
 90
      499
 91
      510
 93
      516
310
4454DA18591959081DDA5D1A08195919D95CD1A40902404333333333333E33F0000000000000F901074090142907004050250800405405064090740C02480A0B40
1001
ACAD
1000
AcDbSavedByObjectVersion
1070
     0
  0
ACAD_PROXY_OBJECT
  5
174DD
102
{ACAD_REACTORS
330
15B65
102
}
330
15B65
100
AcDbZombieObject
 90
      499
 91
      510
 93
      532
310
4394DA1859195CC81BD98811DC985E5174090240C333333333333E33F0000000000000F901079024090741D01000000000000111010841D405064090740C02480A0340
1001
ACAD
1000
AcDbSavedByObjectVersion
1070
     0
  0
ACAD_PROXY_OBJECT
  5
174DE
102
{ACAD_REACTORS
330
15B65
102
}
330
15B65
100
AcDbZombieObject
 90
      499
 91
      510
 93
      476
310
41D4DAD95D18DA1E51840502408333333333333E33F0000000000000F901079024090741D01000000000000111010B41D405064090741802480A0340
1001
ACAD
1000
AcDbSavedByObjectVersion
1070
     0
  0
ACAD_PROXY_OBJECT
  5
15B72
102
{ACAD_REACTORS
330
15B65
102
}
330
15B65
100
AcDbZombieObject
 90
      499
 91
      510
 93
      412
310
41D51A1A58DAD95B90D409028333333333333E3BF0000000000000FB010790141107004050150C41D405064090741402480A0350
1001
ACAD
1000
AcDbSavedByObjectVersion
1070
     0
  0
ACAD_PROXY_OBJECT
  5
174D8
102
{ACAD_REACTORS
330
15B65
102
}
330
15B65
100
AcDbZombieObject
 90
      499
 91
      510
 93
      420
310
4255DA5C99599C985B595059028333333333333E33F0000000000000F90107901411070040501600405405064090740C02480A0340
1001
ACAD
1000
AcDbSavedByObjectVersion
1070
     0
  0
ACAD_PROXY_OBJECT
  5
174DF
102
{ACAD_REACTORS
330
15B65
102
}
330
15B65
100
AcDbZombieObject
 90
      499
 91
      510
 93
      404
310
41560B54985E51940902404000000000000E03F0000000000000F9010740501907004050150841D405064090740C02480A1B40
1001
ACAD
1000
AcDbSavedByObjectVersion
1070
     0
  0
XRECORD
  5
1762D
102
{ACAD_REACTORS
330
1762C
102
}
330
1762C
100
AcDbXrecord
340
2D0
  0
XRECORD
  5
1762E
102
{ACAD_REACTORS
330
1762C
102
}
330
1762C
100
AcDbXrecord
340
2CF
  0
DICTIONARYVAR
  5
17552
102
{ACAD_REACTORS
330
37
102
}
330
37
100
DictionaryVariables
280
     0
  1
1:1
  0
DICTIONARYVAR
  5
15C4B
102
{ACAD_REACTORS
330
37
102
}
330
37
100
DictionaryVariables
280
     0
  1
Standard
  0
DICTIONARYVAR
  5
4F1
102
{ACAD_REACTORS
330
37
102
}
330
37
100
DictionaryVariables
280
     0
  1
Standard
  0
DICTIONARYVAR
  5
38
102
{ACAD_REACTORS
330
37
102
}
330
37
100
DictionaryVariables
280
     0
  1
-1
  0
DICTIONARYVAR
  5
408
102
{ACAD_REACTORS
330
37
102
}
330
37
100
DictionaryVariables
280
     0
  1
2
  0
DICTIONARYVAR
  5
1891
102
{ACAD_REACTORS
330
37
102
}
330
37
100
DictionaryVariables
280
     0
  1
1
  0
DICTIONARYVAR
  5
15C4E
102
{ACAD_REACTORS
330
37
102
}
330
37
100
DictionaryVariables
280
     0
  1
0
  0
DICTIONARYVAR
  5
1895
102
{ACAD_REACTORS
330
37
102
}
330
37
100
DictionaryVariables
280
     0
  1
8
  0
DICTIONARYVAR
  5
1894
102
{ACAD_REACTORS
330
37
102
}
330
37
100
DictionaryVariables
280
     0
  1
1
  0
DICTIONARYVAR
  5
1759C
102
{ACAD_REACTORS
330
37
102
}
330
37
100
DictionaryVariables
280
     0
  1
0
  0
DICTIONARYVAR
  5
1892
102
{ACAD_REACTORS
330
37
102
}
330
37
100
DictionaryVariables
280
     0
  1
8
  0
DICTIONARYVAR
  5
1893
102
{ACAD_REACTORS
330
37
102
}
330
37
100
DictionaryVariables
280
     0
  1
2
  0
DICTIONARYVAR
  5
409
102
{ACAD_REACTORS
330
37
102
}
330
37
100
DictionaryVariables
280
     0
  1

  0
DICTIONARYVAR
  5
15C4D
102
{ACAD_REACTORS
330
37
102
}
330
37
100
DictionaryVariables
280
     0
  1
127
  0
DICTIONARYVAR
  5
17553
102
{ACAD_REACTORS
330
37
102
}
330
37
100
DictionaryVariables
280
     0
  1
2
  0
DICTIONARY
  5
17630
330
15B55
100
AcDbDictionary
  3
ACAD_XREC_ROUNDTRIP
360
17631
1001
ACAD
1000
TREAT_AS_HARD
1070
     1
  0
DICTIONARY
  5
17632
330
15B4D
100
AcDbDictionary
  3
ACAD_XREC_ROUNDTRIP
360
17633
1001
ACAD
1000
TREAT_AS_HARD
1070
     1
  0
DICTIONARY
  5
17634
330
15B5D
100
AcDbDictionary
  3
ACAD_XREC_ROUNDTRIP
360
17635
1001
ACAD
1000
TREAT_AS_HARD
1070
     1
  0
XRECORD
  5
17631
102
{ACAD_REACTORS
330
17630
102
}
330
17630
100
AcDbXrecord
102
MATERIAL
148
0.0
149
0.0
149
0.0
 93
        0
 94
      127
282
     0
 72
     0
 77
     0
171
     0
175
     0
179
     0
273
     0
  0
XRECORD
  5
17633
102
{ACAD_REACTORS
330
17632
102
}
330
17632
100
AcDbXrecord
102
MATERIAL
148
0.0
149
0.0
149
0.0
 93
        0
 94
      127
282
     0
 72
     0
 77
     0
171
     0
175
     0
179
     0
273
     0
  0
XRECORD
  5
17635
102
{ACAD_REACTORS
330
17634
102
}
330
17634
100
AcDbXrecord
102
MATERIAL
148
0.0
149
0.0
149
0.0
 93
        0
 94
      127
282
     0
 72
     0
 77
     0
171
     0
175
     0
179
     0
273
     0
  0
ENDSEC
  0
EOF
