  0
SECTION
  2
HEADER
  9
$ACADVER
  1
AC1012
  9
$DWGCODEPAGE
  3
ansi_932
  9
$INSBASE
 10
0.0
 20
0.0
 30
0.0
  9
$EXTMIN
 10
1.000000000000000E+20
 20
1.000000000000000E+20
 30
1.000000000000000E+20
  9
$EXTMAX
 10
-1.000000000000000E+20
 20
-1.000000000000000E+20
 30
-1.000000000000000E+20
  9
$LIMMIN
 10
0.0
 20
0.0
  9
$LIMMAX
 10
420.0
 20
297.0
  9
$ORTHOMODE
 70
     0
  9
$REGENMODE
 70
     1
  9
$FILLMODE
 70
     1
  9
$QTEXTMODE
 70
     0
  9
$MIRRTEXT
 70
     0
  9
$DRAGMODE
 70
     2
  9
$LTSCALE
 40
0.5
  9
$OSMODE
 70
 14591
  9
$ATTMODE
 70
     1
  9
$TEXTSIZE
 40
4.0
  9
$TRACEWID
 40
1.0
  9
$TEXTSTYLE
  7
STANDARD
  9
$CLAYER
  8
1TEXT
  9
$CELTYPE
  6
BYLAYER
  9
$CECOLOR
 62
   256
  9
$CELTSCALE
 40
1.0
  9
$DELOBJ
 70
     1
  9
$DISPSILH
 70
     0
  9
$DIMSCALE
 40
1.0
  9
$DIMASZ
 40
2.0
  9
$DIMEXO
 40
0.0
  9
$DIMDLI
 40
7.0
  9
$DIMRND
 40
0.0
  9
$DIMDLE
 40
0.0
  9
$DIMEXE
 40
1.0
  9
$DIMTP
 40
0.0
  9
$DIMTM
 40
0.0
  9
$DIMTXT
 40
3.5
  9
$DIMCEN
 40
0.0
  9
$DIMTSZ
 40
0.0
  9
$DIMTOL
 70
     0
  9
$DIMLIM
 70
     0
  9
$DIMTIH
 70
     0
  9
$DIMTOH
 70
     0
  9
$DIMSE1
 70
     0
  9
$DIMSE2
 70
     0
  9
$DIMTAD
 70
     1
  9
$DIMZIN
 70
     8
  9
$DIMBLK
  1

  9
$DIMASO
 70
     1
  9
$DIMSHO
 70
     1
  9
$DIMPOST
  1
 
  9
$DIMAPOST
  1

  9
$DIMALT
 70
     0
  9
$DIMALTD
 70
     2
  9
$DIMALTF
 40
25.4
  9
$DIMLFAC
 40
1.0
  9
$DIMTOFL
 70
     1
  9
$DIMTVP
 40
0.0
  9
$DIMTIX
 70
     0
  9
$DIMSOXD
 70
     0
  9
$DIMSAH
 70
     1
  9
$DIMBLK1
  1
OPEN30
  9
$DIMBLK2
  1
OPEN30
  9
$DIMSTYLE
  2
NEWX10
  9
$DIMCLRD
 70
   256
  9
$DIMCLRE
 70
   256
  9
$DIMCLRT
 70
   201
  9
$DIMTFAC
 40
0.7
  9
$DIMGAP
 40
0.7
  9
$DIMJUST
 70
     0
  9
$DIMSD1
 70
     0
  9
$DIMSD2
 70
     0
  9
$DIMTOLJ
 70
     1
  9
$DIMTZIN
 70
     8
  9
$DIMALTZ
 70
     0
  9
$DIMALTTZ
 70
     0
  9
$DIMFIT
 70
     2
  9
$DIMUPT
 70
     0
  9
$DIMUNIT
 70
     2
  9
$DIMDEC
 70
     2
  9
$DIMTDEC
 70
     4
  9
$DIMALTU
 70
     2
  9
$DIMALTTD
 70
     2
  9
$DIMTXSTY
  7
STANDARD
  9
$DIMAUNIT
 70
     0
  9
$LUNITS
 70
     2
  9
$LUPREC
 70
     4
  9
$SKETCHINC
 40
1.0
  9
$FILLETRAD
 40
0.0
  9
$AUNITS
 70
     0
  9
$AUPREC
 70
     2
  9
$MENU
  1
acad
  9
$ELEVATION
 40
0.0
  9
$PELEVATION
 40
0.0
  9
$THICKNESS
 40
0.0
  9
$LIMCHECK
 70
     0
  9
$CHAMFERA
 40
10.0
  9
$CHAMFERB
 40
10.0
  9
$CHAMFERC
 40
20.0
  9
$CHAMFERD
 40
0.0
  9
$SKPOLY
 70
     0
  9
$TDCREATE
 40
2453033.732663484
  9
$TDUPDATE
 40
2458040.725266655
  9
$TDINDWG
 40
1.9038934259
  9
$TDUSRTIMER
 40
1.9038934259
  9
$USRTIMER
 70
     1
  9
$ANGBASE
 50
0.0
  9
$ANGDIR
 70
     0
  9
$PDMODE
 70
     0
  9
$PDSIZE
 40
0.0
  9
$PLINEWID
 40
0.0
  9
$COORDS
 70
     2
  9
$SPLFRAME
 70
     0
  9
$SPLINETYPE
 70
     6
  9
$SPLINESEGS
 70
     8
  9
$ATTDIA
 70
     0
  9
$ATTREQ
 70
     1
  9
$HANDLING
 70
     1
  9
$HANDSEED
  5
16B5F
  9
$SURFTAB1
 70
     6
  9
$SURFTAB2
 70
     6
  9
$SURFTYPE
 70
     6
  9
$SURFU
 70
     6
  9
$SURFV
 70
     6
  9
$UCSNAME
  2

  9
$UCSORG
 10
0.0
 20
0.0
 30
0.0
  9
$UCSXDIR
 10
1.0
 20
0.0
 30
0.0
  9
$UCSYDIR
 10
0.0
 20
1.0
 30
0.0
  9
$PUCSNAME
  2

  9
$PUCSORG
 10
0.0
 20
0.0
 30
0.0
  9
$PUCSXDIR
 10
1.0
 20
0.0
 30
0.0
  9
$PUCSYDIR
 10
0.0
 20
1.0
 30
0.0
  9
$USERI1
 70
     0
  9
$USERI2
 70
     0
  9
$USERI3
 70
     0
  9
$USERI4
 70
     0
  9
$USERI5
 70
     0
  9
$USERR1
 40
0.0
  9
$USERR2
 40
0.0
  9
$USERR3
 40
0.0
  9
$USERR4
 40
0.0
  9
$USERR5
 40
0.0
  9
$WORLDVIEW
 70
     1
  9
$SHADEDGE
 70
     3
  9
$SHADEDIF
 70
    70
  9
$TILEMODE
 70
     1
  9
$MAXACTVP
 70
    48
  9
$PINSBASE
 10
0.0
 20
0.0
 30
0.0
  9
$PLIMCHECK
 70
     0
  9
$PEXTMIN
 10
1.000000000000000E+20
 20
1.000000000000000E+20
 30
1.000000000000000E+20
  9
$PEXTMAX
 10
-1.000000000000000E+20
 20
-1.000000000000000E+20
 30
-1.000000000000000E+20
  9
$PLIMMIN
 10
0.0
 20
0.0
  9
$PLIMMAX
 10
420.0
 20
297.0
  9
$UNITMODE
 70
     0
  9
$VISRETAIN
 70
     1
  9
$PLINEGEN
 70
     0
  9
$PSLTSCALE
 70
     1
  9
$TREEDEPTH
 70
  3020
  9
$PICKSTYLE
 70
     1
  9
$CMLSTYLE
  2
STANDARD
  9
$CMLJUST
 70
     0
  9
$CMLSCALE
 40
20.0
  9
$SAVEIMAGES
 70
     1
  0
ENDSEC
  0
SECTION
  2
CLASSES
  0
CLASS
  1
DICTIONARYVAR
  2
AcDbDictionaryVar
  3
ObjectDBX Classes
 90
        0
280
     0
281
     0
  0
CLASS
  1
IDBUFFER
  2
AcDbIdBuffer
  3
ObjectDBX Classes
 90
    32768
280
     0
281
     0
  0
CLASS
  1
LWPOLYLINE
  2
AcDbPolyline
  3
ObjectDBX Classes
 90
    32768
280
     0
281
     1
  0
CLASS
  1
ACDBDICTIONARYWDFLT
  2
AcDbDictionaryWithDefault
  3
ObjectDBX Classes
 90
    32768
280
     0
281
     0
  0
CLASS
  1
ACDBPLACEHOLDER
  2
AcDbPlaceHolder
  3
ObjectDBX Classes
 90
        0
280
     0
281
     0
  0
CLASS
  1
LAYOUT
  2
AcDbLayout
  3
ObjectDBX Classes
 90
        0
280
     0
281
     0
  0
CLASS
  1
TABLESTYLE
  2
AcDbTableStyle
  3
ObjectDBX Classes
 90
     4095
280
     0
281
     0
  0
CLASS
  1
SORTENTSTABLE
  2
AcDbSortentsTable
  3
ObjectDBX Classes
 90
    32768
280
     0
281
     0
  0
CLASS
  1
DIMASSOC
  2
AcDbDimAssoc
  3
"AcDbDimAssoc|Product Desc:     AcDim ARX App For Dimension|Company:          Autodesk, Inc.|WEB Address:      www.autodesk.com"
 90
        0
280
     0
281
     0
  0
CLASS
  1
MATERIAL
  2
AcDbMaterial
  3
ObjectDBX Classes
 90
     1153
280
     0
281
     0
  0
CLASS
  1
VISUALSTYLE
  2
AcDbVisualStyle
  3
ObjectDBX Classes
 90
     4095
280
     0
281
     0
  0
CLASS
  1
SCALE
  2
AcDbScale
  3
ObjectDBX Classes
 90
     1153
280
     0
281
     0
  0
CLASS
  1
MLEADERSTYLE
  2
AcDbMLeaderStyle
  3
ACDB_MLEADERSTYLE_CLASS
 90
     4095
280
     0
281
     0
  0
CLASS
  1
CELLSTYLEMAP
  2
AcDbCellStyleMap
  3
ObjectDBX Classes
 90
     1152
280
     0
281
     0
  0
CLASS
  1
EXACXREFPANELOBJECT
  2
ExAcXREFPanelObject
  3
EXAC_ESW
 90
     1025
280
     1
281
     0
  0
CLASS
  1
NPOCOLLECTION
  2
AcDbImpNonPersistentObjectsCollection
  3
ObjectDBX Classes
 90
     1153
280
     1
281
     0
  0
CLASS
  1
SUN
  2
AcDbSun
  3
SCENEOE
 90
     1153
280
     0
281
     0
  0
CLASS
  1
XRECORD
  2
AcDbXrecord
  3
ObjectDBX Classes
 90
    32768
280
     0
281
     0
  0
CLASS
  1
HATCH
  2
AcDbHatch
  3
ObjectDBX Classes
 90
    32768
280
     0
281
     1
  0
ENDSEC
  0
SECTION
  2
TABLES
  0
TABLE
  2
VPORT
  5
8
330
0
100
AcDbSymbolTable
 70
     1
  0
VPORT
  5
15B17
330
8
100
AcDbSymbolTableRecord
100
AcDbViewportTableRecord
  2
*ACTIVE
 70
     0
 10
0.0
 20
0.0
 11
1.0
 21
1.0
 12
2387.268290499701
 22
-1854.908557100522
 13
0.0
 23
0.0
 14
10.0
 24
10.0
 15
10.0
 25
10.0
 16
0.0
 26
0.0
 36
1.0
 17
0.0
 27
0.0
 37
0.0
 40
201.777483517048
 41
2.020775623268698
 42
50.0
 43
0.0
 44
0.0
 50
0.0
 51
0.0
 71
    16
 72
   100
 73
     1
 74
     1
 75
     0
 76
     0
 77
     0
 78
     0
  0
ENDTAB
  0
TABLE
  2
LTYPE
  5
5
330
0
100
AcDbSymbolTable
 70
     4
  0
LTYPE
  5
12
330
5
100
AcDbSymbolTableRecord
100
AcDbLinetypeTableRecord
  2
BYBLOCK
 70
     0
  3

 72
    65
 73
     0
 40
0.0
  0
LTYPE
  5
13
330
5
100
AcDbSymbolTableRecord
100
AcDbLinetypeTableRecord
  2
BYLAYER
 70
     0
  3

 72
    65
 73
     0
 40
0.0
  0
LTYPE
  5
14
330
5
100
AcDbSymbolTableRecord
100
AcDbLinetypeTableRecord
  2
CONTINUOUS
 70
     0
  3
Solid line
 72
    65
 73
     0
 40
0.0
  0
LTYPE
  5
26
330
5
100
AcDbSymbolTableRecord
100
AcDbLinetypeTableRecord
  2
CENTER2
 70
     0
  3
Center (.5x) ___ _ ___ _ ___ _ ___ _ ___ _ ___
 72
    65
 73
     4
 40
28.575
 49
19.05
 74
     0
 49
-3.175
 74
     0
 49
3.175
 74
     0
 49
-3.175
 74
     0
  0
LTYPE
  5
FF
330
5
100
AcDbSymbolTableRecord
100
AcDbLinetypeTableRecord
  2
HIDDEN
 70
     0
  3
Hidden __ __ __ __ __ __ __ __ __ __ __ __ __ _
 72
    65
 73
     2
 40
9.524999999999999
 49
6.35
 74
     0
 49
-3.175
 74
     0
  0
LTYPE
  5
100
330
5
100
AcDbSymbolTableRecord
100
AcDbLinetypeTableRecord
  2
PHANTOM2
 70
     0
  3
Phantom (0.5x) ___ _ _ ___ _ _ ___ _ _ ___ _ _
 72
    65
 73
     6
 40
31.75
 49
15.875
 74
     0
 49
-3.175
 74
     0
 49
3.175
 74
     0
 49
-3.175
 74
     0
 49
3.175
 74
     0
 49
-3.175
 74
     0
  0
ENDTAB
  0
TABLE
  2
LAYER
  5
2
102
{ACAD_XDICTIONARY
360
14EC2
102
}
330
0
100
AcDbSymbolTable
 70
     8
  0
LAYER
  5
E
102
{ACAD_XDICTIONARY
360
15BB5
102
}
330
2
100
AcDbSymbolTableRecord
100
AcDbLayerTableRecord
  2
0
 70
     0
 62
     7
  6
CONTINUOUS
  0
LAYER
  5
29
102
{ACAD_XDICTIONARY
360
15BB7
102
}
330
2
100
AcDbSymbolTableRecord
100
AcDbLayerTableRecord
  2
1CENTER
 70
     0
 62
     7
  6
CENTER2
  0
LAYER
  5
31
102
{ACAD_XDICTIONARY
360
15BB9
102
}
330
2
100
AcDbSymbolTableRecord
100
AcDbLayerTableRecord
  2
1TEXT
 70
     0
 62
     7
  6
CONTINUOUS
  0
LAYER
  5
101
102
{ACAD_XDICTIONARY
360
15BC3
102
}
330
2
100
AcDbSymbolTableRecord
100
AcDbLayerTableRecord
  2
1DIM
 70
     0
 62
     7
  6
CONTINUOUS
  0
LAYER
  5
102
102
{ACAD_XDICTIONARY
360
15BC5
102
}
330
2
100
AcDbSymbolTableRecord
100
AcDbLayerTableRecord
  2
1HIDDEN
 70
     0
 62
     7
  6
HIDDEN
  0
LAYER
  5
103
102
{ACAD_XDICTIONARY
360
15BC7
102
}
330
2
100
AcDbSymbolTableRecord
100
AcDbLayerTableRecord
  2
1PHANTOM
 70
     0
 62
     7
  6
PHANTOM2
  0
LAYER
  5
25F
102
{ACAD_XDICTIONARY
360
15BCB
102
}
330
2
100
AcDbSymbolTableRecord
100
AcDbLayerTableRecord
  2
01
 70
     0
 62
     1
  6
CONTINUOUS
  0
LAYER
  5
26D
102
{ACAD_XDICTIONARY
360
15BE7
102
}
330
2
100
AcDbSymbolTableRecord
100
AcDbLayerTableRecord
  2
1HATCH
 70
     0
 62
     7
  6
CONTINUOUS
  0
ENDTAB
  0
TABLE
  2
STYLE
  5
3
330
0
100
AcDbSymbolTable
 70
     1
  0
STYLE
  5
F
330
3
100
AcDbSymbolTableRecord
100
AcDbTextStyleTableRecord
  2
STANDARD
 70
     0
 40
0.0
 41
1.0
 50
0.0
 71
     0
 42
4.0
  3
txt.shx
  4
extfont.shx
  0
ENDTAB
  0
TABLE
  2
VIEW
  5
6
330
0
100
AcDbSymbolTable
 70
     0
  0
ENDTAB
  0
TABLE
  2
UCS
  5
7
330
0
100
AcDbSymbolTable
 70
     0
  0
ENDTAB
  0
TABLE
  2
APPID
  5
9
330
0
100
AcDbSymbolTable
 70
    11
  0
APPID
  5
10
330
9
100
AcDbSymbolTableRecord
100
AcDbRegAppTableRecord
  2
ACAD
 70
     0
  0
APPID
  5
21
330
9
100
AcDbSymbolTableRecord
100
AcDbRegAppTableRecord
  2
DRAWINGVARIABLESXDATA
 70
     0
  0
APPID
  5
64
330
9
100
AcDbSymbolTableRecord
100
AcDbRegAppTableRecord
  2
CONTENTTABDATA
 70
     0
  0
APPID
  5
65
330
9
100
AcDbSymbolTableRecord
100
AcDbRegAppTableRecord
  2
CONTENTCURRENTTAB
 70
     0
  0
APPID
  5
66
330
9
100
AcDbSymbolTableRecord
100
AcDbRegAppTableRecord
  2
CONTENTBLOCKDESCRIPTION
 70
     0
  0
APPID
  5
67
330
9
100
AcDbSymbolTableRecord
100
AcDbRegAppTableRecord
  2
CONTENTBLOCKICON
 70
     0
  0
APPID
  5
68
330
9
100
AcDbSymbolTableRecord
100
AcDbRegAppTableRecord
  2
CONTENTLONGBLOCKNAME
 70
     0
  0
APPID
  5
5A9
330
9
100
AcDbSymbolTableRecord
100
AcDbRegAppTableRecord
  2
ACAD_PSEXT
 70
     0
  0
APPID
  5
18AC
330
9
100
AcDbSymbolTableRecord
100
AcDbRegAppTableRecord
  2
ACAD_DSTYLE_DIMTEXT_FILL
 70
     0
  0
APPID
  5
15B9A
330
9
100
AcDbSymbolTableRecord
100
AcDbRegAppTableRecord
  2
ACAD_MLEADERVER
 70
     0
  0
APPID
  5
16A7F
330
9
100
AcDbSymbolTableRecord
100
AcDbRegAppTableRecord
  2
ACAD_OBJECT_CHANGE_GUID
 70
     0
  0
ENDTAB
  0
TABLE
  2
DIMSTYLE
  5
A
330
0
100
AcDbSymbolTable
 70
     1
  0
DIMSTYLE
105
48
330
A
100
AcDbSymbolTableRecord
100
AcDbDimStyleTableRecord
  2
NEWX10
 70
     0
  3
 
  4

  5

  6
OPEN30
  7
OPEN30
 40
1.0
 41
2.0
 42
0.0
 43
7.0
 44
1.0
 45
0.0
 46
0.0
 47
0.0
 48
0.0
140
3.5
141
0.0
142
0.0
143
25.4
144
1.0
145
0.0
146
0.7
147
0.7
 71
     0
 72
     0
 73
     0
 74
     0
 75
     0
 76
     0
 77
     1
 78
     8
170
     0
171
     2
172
     1
173
     1
174
     0
175
     0
176
   256
177
   256
178
   201
179
     2
270
     2
271
     2
272
     4
273
     2
274
     2
340
F
275
     0
280
     0
281
     0
282
     0
283
     1
284
     8
285
     0
286
     0
287
     2
288
     0
  0
ENDTAB
  0
TABLE
  2
BLOCK_RECORD
  5
1
330
0
100
AcDbSymbolTable
 70
     1
  0
BLOCK_RECORD
  5
18
102
{ACAD_XDICTIONARY
360
6E9
102
}
330
1
100
AcDbSymbolTableRecord
100
AcDbBlockTableRecord
  2
*MODEL_SPACE
  0
BLOCK_RECORD
  5
15
102
{ACAD_XDICTIONARY
360
59B
102
}
330
1
100
AcDbSymbolTableRecord
100
AcDbBlockTableRecord
  2
*PAPER_SPACE
  0
BLOCK_RECORD
  5
42
330
1
100
AcDbSymbolTableRecord
100
AcDbBlockTableRecord
  2
_OPEN30
  0
ENDTAB
  0
ENDSEC
  0
SECTION
  2
BLOCKS
  0
BLOCK
  5
19
330
18
100
AcDbEntity
  8
0
100
AcDbBlockBegin
  2
*MODEL_SPACE
 70
     0
 10
0.0
 20
0.0
 30
0.0
  3
*MODEL_SPACE
  1

  0
ENDBLK
  5
1A
330
18
100
AcDbEntity
  8
0
100
AcDbBlockEnd
  0
BLOCK
  5
16
330
15
100
AcDbEntity
 67
     1
  8
0
100
AcDbBlockBegin
  2
*PAPER_SPACE
 70
     0
 10
0.0
 20
0.0
 30
0.0
  3
*PAPER_SPACE
  1

  0
ENDBLK
  5
17
330
15
100
AcDbEntity
 67
     1
  8
0
100
AcDbBlockEnd
  0
BLOCK
  5
43
330
42
100
AcDbEntity
  8
0
100
AcDbBlockBegin
  2
_OPEN30
 70
     0
 10
0.0
 20
0.0
 30
0.0
  3
_OPEN30
  1

  0
LINE
  5
44
330
42
100
AcDbEntity
  8
0
  6
BYBLOCK
 62
     0
100
AcDbLine
 10
-1.0
 20
0.26794919
 30
0.0
 11
0.0
 21
0.0
 31
0.0
  0
LINE
  5
45
330
42
100
AcDbEntity
  8
0
  6
BYBLOCK
 62
     0
100
AcDbLine
 10
0.0
 20
0.0
 30
0.0
 11
-1.0
 21
-0.26794919
 31
0.0
  0
LINE
  5
46
330
42
100
AcDbEntity
  8
0
  6
BYBLOCK
 62
     0
100
AcDbLine
 10
0.0
 20
0.0
 30
0.0
 11
-1.0
 21
0.0
 31
0.0
  0
ENDBLK
  5
47
330
42
100
AcDbEntity
  8
0
100
AcDbBlockEnd
  0
ENDSEC
  0
SECTION
  2
ENTITIES
  0
LINE
  5
16503
330
18
100
AcDbEntity
  8
1DIM
100
AcDbLine
 10
2427.736682380698
 20
-1813.592276240178
 30
0.0
 11
2497.736682380699
 21
-1813.592276240177
 31
0.0
  0
LINE
  5
16504
330
18
100
AcDbEntity
  8
1DIM
100
AcDbLine
 10
2427.736682380698
 20
-1806.592276240178
 30
0.0
 11
2497.736682380699
 21
-1806.592276240177
 31
0.0
  0
TEXT
  5
16505
330
18
100
AcDbEntity
  8
1TEXT
100
AcDbText
 10
2473.270015714032
 20
-1812.092276240178
 30
0.0
 40
4.0
  1
コード
 72
     1
 11
2480.136682380699
 21
-1812.092276240178
 31
0.0
100
AcDbText
  0
TEXT
  5
16506
330
18
100
AcDbEntity
  8
1TEXT
100
AcDbText
 10
2436.796682380699
 20
-1812.092276240178
 30
0.0
 40
4.0
  1
表面処理
 41
0.9
 72
     1
 11
2445.136682380699
 21
-1812.092276240178
 31
0.0
100
AcDbText
  0
LINE
  5
16507
330
18
100
AcDbEntity
  8
1DIM
100
AcDbLine
 10
2427.736682380699
 20
-1820.592276240178
 30
0.0
 11
2497.736682380699
 21
-1820.592276240178
 31
0.0
  0
TEXT
  5
16508
330
18
100
AcDbEntity
  8
1TEXT
100
AcDbText
 10
2438.2166823807
 20
-1819.306633223827
 30
0.0
 40
4.0
  1
ヘアライン
 41
0.6
 72
     1
 11
2445.1366823807
 21
-1819.306633223827
 31
0.0
100
AcDbText
  0
LINE
  5
16509
330
18
100
AcDbEntity
  8
1DIM
100
AcDbLine
 10
2427.736682380699
 20
-1806.592276240178
 30
0.0
 11
2427.736682380699
 21
-1820.592276240178
 31
0.0
  0
LINE
  5
1650A
330
18
100
AcDbEntity
  8
1DIM
100
AcDbLine
 10
2462.736682380699
 20
-1806.592276240177
 30
0.0
 11
2462.736682380699
 21
-1820.592276240178
 31
0.0
  0
LINE
  5
1650B
330
18
100
AcDbEntity
  8
1DIM
100
AcDbLine
 10
2497.736682380699
 20
-1806.592276240177
 30
0.0
 11
2497.736682380699
 21
-1820.592276240178
 31
0.0
  0
TEXT
  5
1650C
330
18
100
AcDbEntity
  8
1TEXT
100
AcDbText
 10
2467.122793491811
 20
-1819.306633223827
 30
0.0
 40
4.0
  1
GP073XT
 72
     1
 11
2480.1366823807
 21
-1819.306633223827
 31
0.0
100
AcDbText
  0
TEXT
  5
1650D
330
18
100
AcDbEntity
  8
1TEXT
100
AcDbText
 10
2426.535392897639
 20
-1797.592276240178
 30
0.0
 40
8.0
  1
GP073
100
AcDbText
  0
LINE
  5
16695
330
18
100
AcDbEntity
  8
01
100
AcDbLine
 10
2257.787833204127
 20
-1886.104458968865
 30
0.0
 11
2257.787833204127
 21
-1906.104458968865
 31
0.0
  0
ARC
  5
16696
330
18
100
AcDbEntity
  8
01
100
AcDbCircle
 10
2258.787833204127
 20
-1886.104458968865
 30
0.0
 40
1.0
100
AcDbArc
 50
90.0
 51
180.0
  0
LINE
  5
16697
330
18
100
AcDbEntity
  8
01
100
AcDbLine
 10
2258.787833204127
 20
-1907.104458968865
 30
0.0
 11
2325.287833204128
 21
-1907.104458968865
 31
0.0
  0
LINE
  5
16698
330
18
100
AcDbEntity
  8
01
100
AcDbLine
 10
2325.287833204128
 20
-1907.104458968866
 30
0.0
 11
2391.787833204128
 21
-1907.104458968865
 31
0.0
  0
ARC
  5
16699
330
18
100
AcDbEntity
  8
01
100
AcDbCircle
 10
2258.787833204127
 20
-1906.104458968865
 30
0.0
 40
1.0
100
AcDbArc
 50
180.0
 51
270.0
  0
LINE
  5
1669A
330
18
100
AcDbEntity
  8
01
100
AcDbLine
 10
2258.787833204127
 20
-1885.104458968865
 30
0.0
 11
2391.787833204129
 21
-1885.104458968866
 31
0.0
  0
ARC
  5
1669B
330
18
100
AcDbEntity
  8
01
100
AcDbCircle
 10
2391.787833204129
 20
-1886.104458968866
 30
0.0
 40
1.0
100
AcDbArc
 50
0.0
 51
90.0
  0
LINE
  5
1669C
330
18
100
AcDbEntity
  8
01
100
AcDbLine
 10
2392.787833204129
 20
-1886.104458968866
 30
0.0
 11
2392.787833204128
 21
-1906.104458968865
 31
0.0
  0
ARC
  5
1669D
330
18
100
AcDbEntity
  8
01
100
AcDbCircle
 10
2391.787833204128
 20
-1906.104458968865
 30
0.0
 40
1.0
100
AcDbArc
 50
270.0
 51
0.0
  0
LINE
  5
1669F
330
18
100
AcDbEntity
  8
01
100
AcDbLine
 10
2444.787833204129
 20
-1885.104458968865
 30
0.0
 11
2484.787833204129
 21
-1885.104458968866
 31
0.0
  0
LINE
  5
166A1
330
18
100
AcDbEntity
  8
01
100
AcDbLine
 10
2484.787833204129
 20
-1885.104458968866
 30
0.0
 11
2484.787833204129
 21
-1907.104458968865
 31
0.0
  0
LINE
  5
166A2
330
18
100
AcDbEntity
  8
1CENTER
100
AcDbLine
 10
2454.787833204129
 20
-1900.520268664862
 30
0.0
 11
2454.787833204129
 21
-1908.677054350241
 31
0.0
  0
LINE
  5
166A4
330
18
100
AcDbEntity
  8
01
100
AcDbLine
 10
2444.787833204129
 20
-1885.104458968866
 30
0.0
 11
2444.787833204129
 21
-1907.104458968865
 31
0.0
  0
LINE
  5
166A6
330
18
100
AcDbEntity
  8
01
100
AcDbLine
 10
2444.787833204129
 20
-1907.104458968865
 30
0.0
 11
2484.787833204129
 21
-1907.104458968865
 31
0.0
  0
LINE
  5
166A7
330
18
100
AcDbEntity
  8
1PHANTOM
100
AcDbLine
 10
2445.787833204129
 20
-1906.104458968865
 30
0.0
 11
2464.787833204129
 21
-1906.104458968865
 31
0.0
  0
ARC
  5
166AC
330
18
100
AcDbEntity
  8
1HIDDEN
100
AcDbCircle
 10
2292.787833204128
 20
-1896.604458968866
 30
0.0
 40
2.25
100
AcDbArc
 50
180.0
 51
0.0
  0
ARC
  5
166AD
330
18
100
AcDbEntity
  8
1HIDDEN
100
AcDbCircle
 10
2292.787833204128
 20
-1895.604458968866
 30
0.0
 40
2.25
100
AcDbArc
 50
0.0
 51
180.0
  0
LINE
  5
166AE
330
18
100
AcDbEntity
  8
1HIDDEN
100
AcDbLine
 10
2290.537833204128
 20
-1896.604458968866
 30
0.0
 11
2290.537833204128
 21
-1895.604458968866
 31
0.0
  0
LINE
  5
166AF
330
18
100
AcDbEntity
  8
1HIDDEN
100
AcDbLine
 10
2295.037833204128
 20
-1896.604458968866
 30
0.0
 11
2295.037833204128
 21
-1895.604458968866
 31
0.0
  0
ARC
  5
166B0
330
18
100
AcDbEntity
  8
1HIDDEN
100
AcDbCircle
 10
2357.787833204125
 20
-1896.604458968866
 30
0.0
 40
2.25
100
AcDbArc
 50
180.0
 51
0.0
  0
ARC
  5
166B1
330
18
100
AcDbEntity
  8
1HIDDEN
100
AcDbCircle
 10
2357.787833204125
 20
-1895.604458968866
 30
0.0
 40
2.25
100
AcDbArc
 50
0.0
 51
180.0
  0
LINE
  5
166B2
330
18
100
AcDbEntity
  8
1HIDDEN
100
AcDbLine
 10
2355.537833204125
 20
-1896.604458968866
 30
0.0
 11
2355.537833204125
 21
-1895.604458968866
 31
0.0
  0
LINE
  5
166B3
330
18
100
AcDbEntity
  8
1HIDDEN
100
AcDbLine
 10
2360.037833204125
 20
-1896.604458968866
 30
0.0
 11
2360.037833204125
 21
-1895.604458968866
 31
0.0
  0
LINE
  5
166B4
330
18
100
AcDbEntity
  8
1HATCH
100
AcDbLine
 10
2452.787833204129
 20
-1906.104458968865
 30
0.0
 11
2452.787833204129
 21
-1903.104458968865
 31
0.0
  0
LINE
  5
166B5
330
18
100
AcDbEntity
  8
01
  6
BYBLOCK
100
AcDbLine
 10
2453.137833204129
 20
-1906.104458968865
 30
0.0
 11
2453.137833204129
 21
-1903.104458968865
 31
0.0
  0
LINE
  5
166B7
330
18
100
AcDbEntity
  8
1HATCH
100
AcDbLine
 10
2456.787833204129
 20
-1906.104458968865
 30
0.0
 11
2456.787833204129
 21
-1903.104458968865
 31
0.0
  0
LINE
  5
166B8
330
18
100
AcDbEntity
  8
01
  6
BYBLOCK
100
AcDbLine
 10
2456.437833204129
 20
-1906.104458968865
 30
0.0
 11
2456.437833204128
 21
-1903.104458968865
 31
0.0
  0
LINE
  5
166BA
330
18
100
AcDbEntity
  8
1CENTER
100
AcDbLine
 10
2454.787833204129
 20
-1900.520268664862
 30
0.0
 11
2454.787833204129
 21
-1908.677054350241
 31
0.0
  0
LINE
  5
166BC
330
18
100
AcDbEntity
  8
01
  6
BYBLOCK
100
AcDbLine
 10
2457.037833204129
 20
-1906.104458968865
 30
0.0
 11
2457.037833204129
 21
-1907.104458968865
 31
0.0
  0
LINE
  5
166BD
330
18
100
AcDbEntity
  8
01
  6
BYBLOCK
100
AcDbLine
 10
2452.537833204129
 20
-1906.104458968865
 30
0.0
 11
2452.537833204129
 21
-1907.104458968865
 31
0.0
  0
LINE
  5
166BE
330
18
100
AcDbEntity
  8
1PHANTOM
100
AcDbLine
 10
2464.787833204129
 20
-1906.104458968865
 30
0.0
 11
2464.787833204129
 21
-1907.104458968865
 31
0.0
  0
LINE
  5
166BF
330
18
100
AcDbEntity
  8
01
100
AcDbLine
 10
2444.787833204129
 20
-1885.104458968866
 30
0.0
 11
2444.787833204129
 21
-1907.104458968865
 31
0.0
  0
ARC
  5
166C0
330
18
100
AcDbEntity
  8
1PHANTOM
100
AcDbCircle
 10
2445.787833204129
 20
-1906.104458968865
 30
0.0
 40
1.0
100
AcDbArc
 50
180.0
 51
270.0
  0
LINE
  5
166C1
330
18
100
AcDbEntity
  8
1PHANTOM
100
AcDbLine
 10
2445.787833204129
 20
-1897.104458968865
 30
0.0
 11
2445.787833204129
 21
-1906.104458968865
 31
0.0
  0
LINE
  5
166C2
330
18
100
AcDbEntity
  8
01
  6
BYBLOCK
100
AcDbLine
 10
2442.787833204129
 20
-1885.104458968866
 30
0.0
 11
2442.787833204129
 21
-1907.104458968865
 31
0.0
  0
LINE
  5
166C3
330
18
100
AcDbEntity
  8
01
100
AcDbLine
 10
2445.787833204129
 20
-1907.104458968865
 30
0.0
 11
2464.787833204129
 21
-1907.104458968865
 31
0.0
  0
LINE
  5
166C4
330
18
100
AcDbEntity
  8
1PHANTOM
100
AcDbLine
 10
2444.787833204129
 20
-1897.104458968865
 30
0.0
 11
2445.787833204129
 21
-1897.104458968865
 31
0.0
  0
LINE
  5
166C5
330
18
100
AcDbEntity
  8
1PHANTOM
100
AcDbLine
 10
2445.787833204129
 20
-1906.104458968865
 30
0.0
 11
2464.787833204129
 21
-1906.104458968865
 31
0.0
  0
LINE
  5
166C6
330
18
100
AcDbEntity
  8
01
  6
BYBLOCK
100
AcDbLine
 10
2444.787833204129
 20
-1885.104458968865
 30
0.0
 11
2442.787833204129
 21
-1885.104458968865
 31
0.0
  0
LINE
  5
166C7
330
18
100
AcDbEntity
  8
01
  6
BYBLOCK
100
AcDbLine
 10
2444.787833204129
 20
-1907.104458968865
 30
0.0
 11
2442.787833204129
 21
-1907.104458968865
 31
0.0
  0
LINE
  5
166D5
330
18
100
AcDbEntity
  8
1PHANTOM
100
AcDbLine
 10
2456.787833204129
 20
-1901.454458968866
 30
0.0
 11
2456.787833204129
 21
-1907.104458968865
 31
0.0
  0
LINE
  5
166D6
330
18
100
AcDbEntity
  8
1PHANTOM
100
AcDbLine
 10
2456.787833204129
 20
-1901.454458968865
 30
0.0
 11
2456.437833204129
 21
-1901.104458968865
 31
0.0
  0
LINE
  5
166D7
330
18
100
AcDbEntity
  8
01
100
AcDbLine
 10
2458.287833204129
 20
-1907.104458968865
 30
0.0
 11
2456.787833204129
 21
-1907.104458968865
 31
0.0
  0
LINE
  5
166D8
330
18
100
AcDbEntity
  8
1PHANTOM
100
AcDbLine
 10
2456.437833204129
 20
-1901.104458968865
 30
0.0
 11
2453.137833204129
 21
-1901.104458968865
 31
0.0
  0
LINE
  5
166D9
330
18
100
AcDbEntity
  8
01
100
AcDbLine
 10
2458.287833204129
 20
-1907.104458968865
 30
0.0
 11
2458.287833204129
 21
-1907.704458968865
 31
0.0
  0
LINE
  5
166DA
330
18
100
AcDbEntity
  8
1PHANTOM
100
AcDbLine
 10
2453.137833204129
 20
-1901.104458968865
 30
0.0
 11
2452.787833204129
 21
-1901.454458968865
 31
0.0
  0
ARC
  5
166DB
330
18
100
AcDbEntity
  8
01
100
AcDbCircle
 10
2456.287833204129
 20
-1907.704458968865
 30
0.0
 40
2.0
100
AcDbArc
 50
270.0
 51
0.0
  0
LINE
  5
166DC
330
18
100
AcDbEntity
  8
1PHANTOM
100
AcDbLine
 10
2452.787833204129
 20
-1901.454458968865
 30
0.0
 11
2452.787833204129
 21
-1907.104458968865
 31
0.0
  0
LINE
  5
166DD
330
18
100
AcDbEntity
  8
01
100
AcDbLine
 10
2456.287833204129
 20
-1909.704458968865
 30
0.0
 11
2453.287833204129
 21
-1909.704458968865
 31
0.0
  0
LINE
  5
166DE
330
18
100
AcDbEntity
  8
01
100
AcDbLine
 10
2452.787833204129
 20
-1907.104458968865
 30
0.0
 11
2451.287833204129
 21
-1907.104458968865
 31
0.0
  0
ARC
  5
166DF
330
18
100
AcDbEntity
  8
01
100
AcDbCircle
 10
2453.287833204129
 20
-1907.704458968865
 30
0.0
 40
2.0
100
AcDbArc
 50
180.0
 51
270.0
  0
LINE
  5
166E0
330
18
100
AcDbEntity
  8
01
100
AcDbLine
 10
2451.287833204129
 20
-1907.104458968865
 30
0.0
 11
2451.287833204129
 21
-1907.704458968865
 31
0.0
  0
LINE
  5
166E1
330
18
100
AcDbEntity
  8
1PHANTOM
100
AcDbLine
 10
2456.437833204129
 20
-1901.104458968865
 30
0.0
 11
2456.437833204129
 21
-1907.104458968865
 31
0.0
  0
LINE
  5
166E2
330
18
100
AcDbEntity
  8
1PHANTOM
100
AcDbLine
 10
2453.137833204129
 20
-1901.104458968865
 30
0.0
 11
2453.137833204129
 21
-1907.104458968865
 31
0.0
  0
LINE
  5
166E3
330
18
100
AcDbEntity
  8
1CENTER
100
AcDbLine
 10
2454.787833204129
 20
-1896.078578602431
 30
0.0
 11
2454.787833204129
 21
-1910.955149615576
 31
0.0
  0
LINE
  5
166E4
330
18
100
AcDbEntity
  8
1PHANTOM
100
AcDbLine
 10
2456.787833204129
 20
-1901.454458968865
 30
0.0
 11
2452.787833204129
 21
-1901.454458968865
 31
0.0
  0
LINE
  5
166E5
330
18
100
AcDbEntity
  8
01
100
AcDbLine
 10
2456.787833204129
 20
-1907.104458968865
 30
0.0
 11
2452.787833204129
 21
-1907.104458968865
 31
0.0
  0
LINE
  5
16736
330
18
100
AcDbEntity
  8
01
100
AcDbLine
 10
2257.787833204127
 20
-1833.104458968868
 30
0.0
 11
2257.787833204127
 21
-1793.104458968868
 31
0.0
  0
LINE
  5
16737
330
18
100
AcDbEntity
  8
01
100
AcDbLine
 10
2257.787833204127
 20
-1793.104458968868
 30
0.0
 11
2392.787833204128
 21
-1793.104458968868
 31
0.0
  0
LINE
  5
1673A
330
18
100
AcDbEntity
  8
01
100
AcDbLine
 10
2392.787833204129
 20
-1833.104458968868
 30
0.0
 11
2392.787833204128
 21
-1793.104458968868
 31
0.0
  0
LINE
  5
1673D
330
18
100
AcDbEntity
  8
01
100
AcDbLine
 10
2257.787833204127
 20
-1835.104458968866
 30
0.0
 11
2257.787833204127
 21
-1833.104458968866
 31
0.0
  0
LINE
  5
1673E
330
18
100
AcDbEntity
  8
01
100
AcDbLine
 10
2257.787833204127
 20
-1833.104458968866
 30
0.0
 11
2392.787833204129
 21
-1833.104458968866
 31
0.0
  0
LINE
  5
16740
330
18
100
AcDbEntity
  8
01
100
AcDbLine
 10
2257.787833204127
 20
-1835.104458968866
 30
0.0
 11
2392.787833204129
 21
-1835.104458968866
 31
0.0
  0
LINE
  5
16741
330
18
100
AcDbEntity
  8
01
100
AcDbLine
 10
2392.787833204129
 20
-1835.104458968866
 30
0.0
 11
2392.787833204129
 21
-1833.104458968866
 31
0.0
  0
LINE
  5
1674A
330
18
100
AcDbEntity
  8
1PHANTOM
100
AcDbLine
 10
2357.78783320413
 20
-1763.904467112813
 30
0.0
 11
2356.28783320413
 21
-1769.204463622674
 31
0.0
  0
LINE
  5
1674B
330
18
100
AcDbEntity
  8
1PHANTOM
100
AcDbLine
 10
2356.28783320413
 20
-1769.204463622674
 30
0.0
 11
2356.28783320413
 21
-1793.104458968868
 31
0.0
  0
LINE
  5
1674C
330
18
100
AcDbEntity
  8
1PHANTOM
100
AcDbLine
 10
2357.78783320413
 20
-1763.904467112813
 30
0.0
 11
2359.28783320413
 21
-1769.204470603058
 31
0.0
  0
LINE
  5
1674E
330
18
100
AcDbEntity
  8
1PHANTOM
100
AcDbLine
 10
2359.28783320413
 20
-1769.204470603058
 30
0.0
 11
2359.28783320413
 21
-1793.104458968868
 31
0.0
  0
LINE
  5
16755
330
18
100
AcDbEntity
  8
1PHANTOM
100
AcDbLine
 10
2357.787786668232
 20
-1760.943552521504
 30
0.0
 11
2357.787786668232
 21
-1793.104458968868
 31
0.0
  0
LINE
  5
16756
330
18
100
AcDbEntity
  8
1PHANTOM
100
AcDbLine
 10
2356.693462854237
 20
-1766.004464566491
 30
0.0
 11
2358.655797943113
 21
-1765.204469132439
 31
0.0
  0
LINE
  5
16757
330
18
100
AcDbEntity
  8
1PHANTOM
100
AcDbLine
 10
2358.655797943113
 20
-1765.204469132439
 30
0.0
 11
2358.06752136807
 21
-1764.892699276188
 31
0.0
  0
LINE
  5
16758
330
18
100
AcDbEntity
  8
1PHANTOM
100
AcDbLine
 10
2355.78783320413
 20
-1788.40446245928
 30
0.0
 11
2359.78783320413
 21
-1787.604471766462
 31
0.0
  0
LINE
  5
16759
330
18
100
AcDbEntity
  8
1PHANTOM
100
AcDbLine
 10
2355.78783320413
 20
-1777.204462459276
 30
0.0
 11
2359.78783320413
 21
-1776.404471766453
 31
0.0
  0
LINE
  5
1675A
330
18
100
AcDbEntity
  8
1PHANTOM
100
AcDbLine
 10
2355.78783320413
 20
-1774.004462459276
 30
0.0
 11
2359.78783320413
 21
-1773.204471766453
 31
0.0
  0
LINE
  5
1675B
330
18
100
AcDbEntity
  8
1PHANTOM
100
AcDbLine
 10
2359.78783320413
 20
-1773.204471766453
 30
0.0
 11
2359.28783320413
 21
-1773.104470603057
 31
0.0
  0
LINE
  5
1675C
330
18
100
AcDbEntity
  8
1PHANTOM
100
AcDbLine
 10
2356.28783320413
 20
-1772.504463622673
 30
0.0
 11
2355.78783320413
 21
-1772.404462459276
 31
0.0
  0
LINE
  5
1675D
330
18
100
AcDbEntity
  8
1PHANTOM
100
AcDbLine
 10
2359.78783320413
 20
-1776.404471766453
 30
0.0
 11
2359.28783320413
 21
-1776.304470603056
 31
0.0
  0
LINE
  5
1675E
330
18
100
AcDbEntity
  8
1PHANTOM
100
AcDbLine
 10
2359.78783320413
 20
-1774.804471766453
 30
0.0
 11
2359.28783320413
 21
-1774.704470603056
 31
0.0
  0
LINE
  5
1675F
330
18
100
AcDbEntity
  8
1PHANTOM
100
AcDbLine
 10
2356.28783320413
 20
-1774.104463622673
 30
0.0
 11
2355.78783320413
 21
-1774.004462459276
 31
0.0
  0
LINE
  5
16760
330
18
100
AcDbEntity
  8
1PHANTOM
100
AcDbLine
 10
2356.28783320413
 20
-1775.704463622673
 30
0.0
 11
2355.78783320413
 21
-1775.604462459276
 31
0.0
  0
LINE
  5
16761
330
18
100
AcDbEntity
  8
1PHANTOM
100
AcDbLine
 10
2355.78783320413
 20
-1775.604462459276
 30
0.0
 11
2359.78783320413
 21
-1774.804471766453
 31
0.0
  0
LINE
  5
16762
330
18
100
AcDbEntity
  8
1PHANTOM
100
AcDbLine
 10
2359.108612047519
 20
-1766.804470186045
 30
0.0
 11
2358.556862583716
 21
-1766.621706043417
 31
0.0
  0
LINE
  5
16763
330
18
100
AcDbEntity
  8
1PHANTOM
100
AcDbLine
 10
2359.78783320413
 20
-1770.004471766454
 30
0.0
 11
2359.28783320413
 21
-1769.904470603056
 31
0.0
  0
LINE
  5
16764
330
18
100
AcDbEntity
  8
1PHANTOM
100
AcDbLine
 10
2359.78783320413
 20
-1771.604471766454
 30
0.0
 11
2359.28783320413
 21
-1771.504470603056
 31
0.0
  0
LINE
  5
16765
330
18
100
AcDbEntity
  8
1PHANTOM
100
AcDbLine
 10
2359.561426151926
 20
-1768.404471239651
 30
0.0
 11
2359.024832416655
 21
-1768.275200542021
 31
0.0
  0
LINE
  5
16766
330
18
100
AcDbEntity
  8
1PHANTOM
100
AcDbLine
 10
2356.708747801339
 20
-1767.717233025237
 30
0.0
 11
2356.240649346189
 21
-1767.604463512886
 31
0.0
  0
LINE
  5
16767
330
18
100
AcDbEntity
  8
1PHANTOM
100
AcDbLine
 10
2356.28783320413
 20
-1770.904463622673
 30
0.0
 11
2355.78783320413
 21
-1770.804462459276
 31
0.0
  0
LINE
  5
16768
330
18
100
AcDbEntity
  8
1PHANTOM
100
AcDbLine
 10
2356.28783320413
 20
-1769.304463622673
 30
0.0
 11
2355.78783320413
 21
-1769.204462459276
 31
0.0
  0
LINE
  5
16769
330
18
100
AcDbEntity
  8
1PHANTOM
100
AcDbLine
 10
2357.150634694868
 20
-1766.155900362931
 30
0.0
 11
2356.693462854237
 21
-1766.004464566491
 31
0.0
  0
LINE
  5
1676A
330
18
100
AcDbEntity
  8
1PHANTOM
100
AcDbLine
 10
2356.240649346189
 20
-1767.604463512886
 30
0.0
 11
2359.108612047519
 21
-1766.804470186045
 31
0.0
  0
LINE
  5
1676B
330
18
100
AcDbEntity
  8
1PHANTOM
100
AcDbLine
 10
2355.78783320413
 20
-1770.804462459276
 30
0.0
 11
2359.78783320413
 21
-1770.004471766454
 31
0.0
  0
LINE
  5
1676C
330
18
100
AcDbEntity
  8
1PHANTOM
100
AcDbLine
 10
2355.78783320413
 20
-1769.204462459276
 30
0.0
 11
2359.561426151926
 21
-1768.404471239651
 31
0.0
  0
LINE
  5
1676D
330
18
100
AcDbEntity
  8
1PHANTOM
100
AcDbLine
 10
2355.78783320413
 20
-1772.404462459276
 30
0.0
 11
2359.78783320413
 21
-1771.604471766454
 31
0.0
  0
LINE
  5
1676E
330
18
100
AcDbEntity
  8
1PHANTOM
100
AcDbLine
 10
2355.78783320413
 20
-1785.20446245928
 30
0.0
 11
2359.78783320413
 21
-1784.404471766462
 31
0.0
  0
LINE
  5
1676F
330
18
100
AcDbEntity
  8
1PHANTOM
100
AcDbLine
 10
2359.78783320413
 20
-1784.404471766462
 30
0.0
 11
2359.28783320413
 21
-1784.304470603065
 31
0.0
  0
LINE
  5
16770
330
18
100
AcDbEntity
  8
1PHANTOM
100
AcDbLine
 10
2356.28783320413
 20
-1783.704463622674
 30
0.0
 11
2355.78783320413
 21
-1783.604462459276
 31
0.0
  0
LINE
  5
16771
330
18
100
AcDbEntity
  8
1PHANTOM
100
AcDbLine
 10
2359.78783320413
 20
-1786.004471766462
 30
0.0
 11
2359.28783320413
 21
-1785.904470603065
 31
0.0
  0
LINE
  5
16772
330
18
100
AcDbEntity
  8
1PHANTOM
100
AcDbLine
 10
2359.78783320413
 20
-1787.604471766462
 30
0.0
 11
2359.28783320413
 21
-1787.504470603064
 31
0.0
  0
LINE
  5
16773
330
18
100
AcDbEntity
  8
1PHANTOM
100
AcDbLine
 10
2356.28783320413
 20
-1785.304463622678
 30
0.0
 11
2355.78783320413
 21
-1785.20446245928
 31
0.0
  0
LINE
  5
16774
330
18
100
AcDbEntity
  8
1PHANTOM
100
AcDbLine
 10
2356.28783320413
 20
-1786.904463622679
 30
0.0
 11
2355.78783320413
 21
-1786.804462459281
 31
0.0
  0
LINE
  5
16775
330
18
100
AcDbEntity
  8
1PHANTOM
100
AcDbLine
 10
2355.78783320413
 20
-1786.804462459281
 30
0.0
 11
2359.78783320413
 21
-1786.004471766462
 31
0.0
  0
LINE
  5
16776
330
18
100
AcDbEntity
  8
1PHANTOM
100
AcDbLine
 10
2359.78783320413
 20
-1779.604471766458
 30
0.0
 11
2359.28783320413
 21
-1779.50447060306
 31
0.0
  0
LINE
  5
16777
330
18
100
AcDbEntity
  8
1PHANTOM
100
AcDbLine
 10
2359.78783320413
 20
-1778.004471766454
 30
0.0
 11
2359.28783320413
 21
-1777.904470603056
 31
0.0
  0
LINE
  5
16778
330
18
100
AcDbEntity
  8
1PHANTOM
100
AcDbLine
 10
2359.78783320413
 20
-1782.804471766458
 30
0.0
 11
2359.28783320413
 21
-1782.70447060306
 31
0.0
  0
LINE
  5
16779
330
18
100
AcDbEntity
  8
1PHANTOM
100
AcDbLine
 10
2359.78783320413
 20
-1781.204471766458
 30
0.0
 11
2359.28783320413
 21
-1781.10447060306
 31
0.0
  0
LINE
  5
1677A
330
18
100
AcDbEntity
  8
1PHANTOM
100
AcDbLine
 10
2356.28783320413
 20
-1777.304463622673
 30
0.0
 11
2355.78783320413
 21
-1777.204462459276
 31
0.0
  0
LINE
  5
1677B
330
18
100
AcDbEntity
  8
1PHANTOM
100
AcDbLine
 10
2356.28783320413
 20
-1778.904463622674
 30
0.0
 11
2355.78783320413
 21
-1778.804462459276
 31
0.0
  0
LINE
  5
1677C
330
18
100
AcDbEntity
  8
1PHANTOM
100
AcDbLine
 10
2356.28783320413
 20
-1782.104463622674
 30
0.0
 11
2355.78783320413
 21
-1782.004462459276
 31
0.0
  0
LINE
  5
1677D
330
18
100
AcDbEntity
  8
1PHANTOM
100
AcDbLine
 10
2356.28783320413
 20
-1780.504463622673
 30
0.0
 11
2355.78783320413
 21
-1780.404462459276
 31
0.0
  0
LINE
  5
1677E
330
18
100
AcDbEntity
  8
1PHANTOM
100
AcDbLine
 10
2355.78783320413
 20
-1780.404462459276
 30
0.0
 11
2359.78783320413
 21
-1779.604471766458
 31
0.0
  0
LINE
  5
1677F
330
18
100
AcDbEntity
  8
1PHANTOM
100
AcDbLine
 10
2355.78783320413
 20
-1778.804462459276
 30
0.0
 11
2359.78783320413
 21
-1778.004471766454
 31
0.0
  0
LINE
  5
16780
330
18
100
AcDbEntity
  8
1PHANTOM
100
AcDbLine
 10
2355.78783320413
 20
-1782.004462459276
 30
0.0
 11
2359.78783320413
 21
-1781.204471766458
 31
0.0
  0
LINE
  5
16781
330
18
100
AcDbEntity
  8
1PHANTOM
100
AcDbLine
 10
2355.78783320413
 20
-1783.604462459276
 30
0.0
 11
2359.78783320413
 21
-1782.804471766458
 31
0.0
  0
LINE
  5
16784
330
18
100
AcDbEntity
  8
1PHANTOM
100
AcDbLine
 10
2356.28783320413
 20
-1793.104463622682
 30
0.0
 11
2359.78783320413
 21
-1792.404471766466
 31
0.0
  0
LINE
  5
16785
330
18
100
AcDbEntity
  8
1PHANTOM
100
AcDbLine
 10
2359.78783320413
 20
-1792.404471766466
 30
0.0
 11
2359.28783320413
 21
-1792.304470603069
 31
0.0
  0
LINE
  5
16786
330
18
100
AcDbEntity
  8
1PHANTOM
100
AcDbLine
 10
2356.28783320413
 20
-1791.704463622682
 30
0.0
 11
2355.78783320413
 21
-1791.604462459285
 31
0.0
  0
LINE
  5
16787
330
18
100
AcDbEntity
  8
1PHANTOM
100
AcDbLine
 10
2356.28783320413
 20
-1790.104463622682
 30
0.0
 11
2355.78783320413
 21
-1790.004462459285
 31
0.0
  0
LINE
  5
16788
330
18
100
AcDbEntity
  8
1PHANTOM
100
AcDbLine
 10
2355.78783320413
 20
-1790.004462459285
 30
0.0
 11
2359.78783320413
 21
-1789.204471766467
 31
0.0
  0
LINE
  5
16789
330
18
100
AcDbEntity
  8
1PHANTOM
100
AcDbLine
 10
2359.78783320413
 20
-1790.804471766467
 30
0.0
 11
2359.28783320413
 21
-1790.704470603069
 31
0.0
  0
LINE
  5
1678A
330
18
100
AcDbEntity
  8
1PHANTOM
100
AcDbLine
 10
2359.78783320413
 20
-1789.204471766467
 30
0.0
 11
2359.28783320413
 21
-1789.104470603069
 31
0.0
  0
LINE
  5
1678B
330
18
100
AcDbEntity
  8
1PHANTOM
100
AcDbLine
 10
2355.78783320413
 20
-1791.604462459285
 30
0.0
 11
2359.78783320413
 21
-1790.804471766467
 31
0.0
  0
LINE
  5
1678C
330
18
100
AcDbEntity
  8
1PHANTOM
100
AcDbLine
 10
2356.28783320413
 20
-1788.504463622678
 30
0.0
 11
2355.78783320413
 21
-1788.40446245928
 31
0.0
  0
LINE
  5
1679E
330
18
100
AcDbEntity
  8
01
100
AcDbLine
 10
2422.787833204129
 20
-1886.104458968866
 30
0.0
 11
2422.787833204128
 21
-1906.104458968866
 31
0.0
  0
LINE
  5
167BD
330
18
100
AcDbEntity
  8
1CENTER
100
AcDbLine
 10
2353.28783320413
 20
-1896.104458968866
 30
0.0
 11
2362.28783320413
 21
-1896.104458968866
 31
0.0
  0
LINE
  5
167BE
330
18
100
AcDbEntity
  8
1CENTER
100
AcDbLine
 10
2357.78783320413
 20
-1900.604458968866
 30
0.0
 11
2357.78783320413
 21
-1891.604458968866
 31
0.0
  0
LINE
  5
167BF
330
18
100
AcDbEntity
  8
1CENTER
100
AcDbLine
 10
2297.287833204126
 20
-1896.104458968866
 30
0.0
 11
2288.287833204126
 21
-1896.104458968866
 31
0.0
  0
LINE
  5
167C0
330
18
100
AcDbEntity
  8
1CENTER
100
AcDbLine
 10
2292.787833204126
 20
-1900.604458968866
 30
0.0
 11
2292.787833204126
 21
-1891.604458968866
 31
0.0
  0
LINE
  5
16810
330
18
100
AcDbEntity
  8
01
100
AcDbLine
 10
2499.787833204129
 20
-1843.335356258191
 30
0.0
 11
2499.787833204129
 21
-1948.873561679539
 31
0.0
  0
LINE
  5
16811
330
18
100
AcDbEntity
  8
01
100
AcDbLine
 10
2484.787833204129
 20
-1843.335356258191
 30
0.0
 11
2484.787833204129
 21
-1948.873561679539
 31
0.0
  0
LINE
  5
16917
330
18
100
AcDbEntity
  8
1PHANTOM
100
AcDbLine
 10
2513.787833203966
 20
-1896.104505504764
 30
0.0
 11
2508.487836694105
 21
-1894.604505504764
 31
0.0
  0
LINE
  5
16918
330
18
100
AcDbEntity
  8
1PHANTOM
100
AcDbLine
 10
2508.487836694105
 20
-1894.604505504764
 30
0.0
 11
2483.787836694213
 21
-1894.604505504764
 31
0.0
  0
LINE
  5
16919
330
18
100
AcDbEntity
  8
1PHANTOM
100
AcDbLine
 10
2513.787833203966
 20
-1896.104505504764
 30
0.0
 11
2508.487829713721
 21
-1897.604505504764
 31
0.0
  0
LINE
  5
1691A
330
18
100
AcDbEntity
  8
1PHANTOM
100
AcDbLine
 10
2483.787841347911
 20
-1892.604458968866
 30
0.0
 11
2483.787836694213
 21
-1894.604505504764
 31
0.0
  0
LINE
  5
1691B
330
18
100
AcDbEntity
  8
1PHANTOM
100
AcDbLine
 10
2508.487829713721
 20
-1897.604505504764
 30
0.0
 11
2483.787829713828
 21
-1897.604505504764
 31
0.0
  0
LINE
  5
1691C
330
18
100
AcDbEntity
  8
1PHANTOM
100
AcDbLine
 10
2483.787841347911
 20
-1892.604458968866
 30
0.0
 11
2482.687837857716
 21
-1892.604458968866
 31
0.0
  0
LINE
  5
1691D
330
18
100
AcDbEntity
  8
1PHANTOM
100
AcDbLine
 10
2483.787829713828
 20
-1897.604505504764
 30
0.0
 11
2483.787825060346
 21
-1899.604458968866
 31
0.0
  0
ARC
  5
1691E
330
18
100
AcDbEntity
  8
1PHANTOM
100
AcDbCircle
 10
2482.687837857716
 20
-1894.104458968866
 30
0.0
 40
1.5
100
AcDbArc
 50
90.0
 51
179.9998666844664
  0
LINE
  5
1691F
330
18
100
AcDbEntity
  8
1PHANTOM
100
AcDbLine
 10
2483.787825060346
 20
-1899.604458968866
 30
0.0
 11
2482.687828550536
 21
-1899.604458968866
 31
0.0
  0
LINE
  5
16920
330
18
100
AcDbEntity
  8
1PHANTOM
100
AcDbLine
 10
2481.187837857719
 20
-1894.104455478673
 30
0.0
 11
2481.18782855054
 21
-1898.104455478673
 31
0.0
  0
ARC
  5
16921
330
18
100
AcDbEntity
  8
1PHANTOM
100
AcDbCircle
 10
2482.687828550536
 20
-1898.104458968866
 30
0.0
 40
1.5
100
AcDbArc
 50
179.9998666844664
 51
270.0
  0
LINE
  5
16922
330
18
100
AcDbEntity
  8
1PHANTOM
100
AcDbLine
 10
2516.748747795275
 20
-1896.104458968866
 30
0.0
 11
2480.11755679482
 21
-1896.104458968866
 31
0.0
  0
LINE
  5
16923
330
18
100
AcDbEntity
  8
1PHANTOM
100
AcDbLine
 10
2511.687835750288
 20
-1895.010135154871
 30
0.0
 11
2512.487831184339
 21
-1896.972470243746
 31
0.0
  0
LINE
  5
16924
330
18
100
AcDbEntity
  8
1PHANTOM
100
AcDbLine
 10
2512.487831184339
 20
-1896.972470243746
 30
0.0
 11
2512.799601040591
 21
-1896.384193668704
 31
0.0
  0
LINE
  5
16925
330
18
100
AcDbEntity
  8
1PHANTOM
100
AcDbLine
 10
2489.287837857499
 20
-1894.104505504764
 30
0.0
 11
2490.087828550317
 21
-1898.104505504764
 31
0.0
  0
LINE
  5
16926
330
18
100
AcDbEntity
  8
1PHANTOM
100
AcDbLine
 10
2500.487837857503
 20
-1894.104505504764
 30
0.0
 11
2501.287828550326
 21
-1898.104505504764
 31
0.0
  0
LINE
  5
16927
330
18
100
AcDbEntity
  8
1PHANTOM
100
AcDbLine
 10
2503.687837857503
 20
-1894.104505504764
 30
0.0
 11
2504.487828550326
 21
-1898.104505504764
 31
0.0
  0
LINE
  5
16928
330
18
100
AcDbEntity
  8
1PHANTOM
100
AcDbLine
 10
2504.487828550326
 20
-1898.104505504764
 30
0.0
 11
2504.587829713722
 21
-1897.604505504764
 31
0.0
  0
LINE
  5
16929
330
18
100
AcDbEntity
  8
1PHANTOM
100
AcDbLine
 10
2505.187836694105
 20
-1894.604505504764
 30
0.0
 11
2505.287837857503
 21
-1894.104505504764
 31
0.0
  0
LINE
  5
1692A
330
18
100
AcDbEntity
  8
1PHANTOM
100
AcDbLine
 10
2501.287828550326
 20
-1898.104505504764
 30
0.0
 11
2501.387829713723
 21
-1897.604505504764
 31
0.0
  0
LINE
  5
1692B
330
18
100
AcDbEntity
  8
1PHANTOM
100
AcDbLine
 10
2502.887828550326
 20
-1898.104505504764
 30
0.0
 11
2502.987829713723
 21
-1897.604505504764
 31
0.0
  0
LINE
  5
1692C
330
18
100
AcDbEntity
  8
1PHANTOM
100
AcDbLine
 10
2503.587836694106
 20
-1894.604505504764
 30
0.0
 11
2503.687837857503
 21
-1894.104505504764
 31
0.0
  0
LINE
  5
1692D
330
18
100
AcDbEntity
  8
1PHANTOM
100
AcDbLine
 10
2501.987836694106
 20
-1894.604505504764
 30
0.0
 11
2502.087837857503
 21
-1894.104505504764
 31
0.0
  0
LINE
  5
1692E
330
18
100
AcDbEntity
  8
1PHANTOM
100
AcDbLine
 10
2502.087837857503
 20
-1894.104505504764
 30
0.0
 11
2502.887828550326
 21
-1898.104505504764
 31
0.0
  0
LINE
  5
1692F
330
18
100
AcDbEntity
  8
1PHANTOM
100
AcDbLine
 10
2510.887830130734
 20
-1897.425284348153
 30
0.0
 11
2511.070594273362
 21
-1896.87353488435
 31
0.0
  0
LINE
  5
16930
330
18
100
AcDbEntity
  8
1PHANTOM
100
AcDbLine
 10
2507.687828550325
 20
-1898.104505504764
 30
0.0
 11
2507.787829713723
 21
-1897.604505504764
 31
0.0
  0
LINE
  5
16931
330
18
100
AcDbEntity
  8
1PHANTOM
100
AcDbLine
 10
2506.087828550325
 20
-1898.104505504764
 30
0.0
 11
2506.187829713723
 21
-1897.604505504764
 31
0.0
  0
LINE
  5
16932
330
18
100
AcDbEntity
  8
1PHANTOM
100
AcDbLine
 10
2509.287829077128
 20
-1897.87809845256
 30
0.0
 11
2509.417099774758
 21
-1897.341504717289
 31
0.0
  0
LINE
  5
16933
330
18
100
AcDbEntity
  8
1PHANTOM
100
AcDbLine
 10
2509.975067291542
 20
-1895.025420101972
 30
0.0
 11
2510.087836803893
 21
-1894.557321646823
 31
0.0
  0
LINE
  5
16934
330
18
100
AcDbEntity
  8
1PHANTOM
100
AcDbLine
 10
2506.787836694106
 20
-1894.604505504764
 30
0.0
 11
2506.887837857503
 21
-1894.104505504764
 31
0.0
  0
LINE
  5
16935
330
18
100
AcDbEntity
  8
1PHANTOM
100
AcDbLine
 10
2508.387836694106
 20
-1894.604505504764
 30
0.0
 11
2508.487837857503
 21
-1894.104505504764
 31
0.0
  0
LINE
  5
16936
330
18
100
AcDbEntity
  8
1PHANTOM
100
AcDbLine
 10
2511.536399953848
 20
-1895.467306995502
 30
0.0
 11
2511.687835750288
 21
-1895.010135154871
 31
0.0
  0
LINE
  5
16937
330
18
100
AcDbEntity
  8
1PHANTOM
100
AcDbLine
 10
2510.087836803893
 20
-1894.557321646823
 30
0.0
 11
2510.887830130734
 21
-1897.425284348153
 31
0.0
  0
LINE
  5
16938
330
18
100
AcDbEntity
  8
1PHANTOM
100
AcDbLine
 10
2506.887837857503
 20
-1894.104505504764
 30
0.0
 11
2507.687828550325
 21
-1898.104505504764
 31
0.0
  0
LINE
  5
16939
330
18
100
AcDbEntity
  8
1PHANTOM
100
AcDbLine
 10
2508.487837857503
 20
-1894.104505504764
 30
0.0
 11
2509.287829077128
 21
-1897.87809845256
 31
0.0
  0
LINE
  5
1693A
330
18
100
AcDbEntity
  8
1PHANTOM
100
AcDbLine
 10
2505.287837857503
 20
-1894.104505504764
 30
0.0
 11
2506.087828550325
 21
-1898.104505504764
 31
0.0
  0
LINE
  5
1693B
330
18
100
AcDbEntity
  8
1PHANTOM
100
AcDbLine
 10
2492.487837857499
 20
-1894.104505504764
 30
0.0
 11
2493.287828550317
 21
-1898.104505504764
 31
0.0
  0
LINE
  5
1693C
330
18
100
AcDbEntity
  8
1PHANTOM
100
AcDbLine
 10
2493.287828550317
 20
-1898.104505504764
 30
0.0
 11
2493.387829713714
 21
-1897.604505504764
 31
0.0
  0
LINE
  5
1693D
330
18
100
AcDbEntity
  8
1PHANTOM
100
AcDbLine
 10
2493.987836694105
 20
-1894.604505504764
 30
0.0
 11
2494.087837857503
 21
-1894.104505504764
 31
0.0
  0
LINE
  5
1693E
330
18
100
AcDbEntity
  8
1PHANTOM
100
AcDbLine
 10
2491.687828550317
 20
-1898.104505504764
 30
0.0
 11
2491.787829713714
 21
-1897.604505504764
 31
0.0
  0
LINE
  5
1693F
330
18
100
AcDbEntity
  8
1PHANTOM
100
AcDbLine
 10
2490.087828550317
 20
-1898.104505504764
 30
0.0
 11
2490.187829713715
 21
-1897.604505504764
 31
0.0
  0
LINE
  5
16940
330
18
100
AcDbEntity
  8
1PHANTOM
100
AcDbLine
 10
2492.387836694101
 20
-1894.604505504764
 30
0.0
 11
2492.487837857499
 21
-1894.104505504764
 31
0.0
  0
LINE
  5
16941
330
18
100
AcDbEntity
  8
1PHANTOM
100
AcDbLine
 10
2490.7878366941
 20
-1894.604505504764
 30
0.0
 11
2490.887837857498
 21
-1894.104505504764
 31
0.0
  0
LINE
  5
16942
330
18
100
AcDbEntity
  8
1PHANTOM
100
AcDbLine
 10
2490.887837857498
 20
-1894.104505504764
 30
0.0
 11
2491.687828550317
 21
-1898.104505504764
 31
0.0
  0
LINE
  5
16943
330
18
100
AcDbEntity
  8
1PHANTOM
100
AcDbLine
 10
2498.087828550321
 20
-1898.104505504764
 30
0.0
 11
2498.187829713719
 21
-1897.604505504764
 31
0.0
  0
LINE
  5
16944
330
18
100
AcDbEntity
  8
1PHANTOM
100
AcDbLine
 10
2499.687828550325
 20
-1898.104505504764
 30
0.0
 11
2499.787829713723
 21
-1897.604505504764
 31
0.0
  0
LINE
  5
16945
330
18
100
AcDbEntity
  8
1PHANTOM
100
AcDbLine
 10
2494.887828550321
 20
-1898.104505504764
 30
0.0
 11
2494.987829713719
 21
-1897.604505504764
 31
0.0
  0
LINE
  5
16946
330
18
100
AcDbEntity
  8
1PHANTOM
100
AcDbLine
 10
2496.487828550321
 20
-1898.104505504764
 30
0.0
 11
2496.587829713719
 21
-1897.604505504764
 31
0.0
  0
LINE
  5
16947
330
18
100
AcDbEntity
  8
1PHANTOM
100
AcDbLine
 10
2500.387836694106
 20
-1894.604505504764
 30
0.0
 11
2500.487837857503
 21
-1894.104505504764
 31
0.0
  0
LINE
  5
16948
330
18
100
AcDbEntity
  8
1PHANTOM
100
AcDbLine
 10
2498.787836694105
 20
-1894.604505504764
 30
0.0
 11
2498.887837857503
 21
-1894.104505504764
 31
0.0
  0
LINE
  5
16949
330
18
100
AcDbEntity
  8
1PHANTOM
100
AcDbLine
 10
2495.587836694105
 20
-1894.604505504764
 30
0.0
 11
2495.687837857503
 21
-1894.104505504764
 31
0.0
  0
LINE
  5
1694A
330
18
100
AcDbEntity
  8
1PHANTOM
100
AcDbLine
 10
2497.187836694105
 20
-1894.604505504764
 30
0.0
 11
2497.287837857503
 21
-1894.104505504764
 31
0.0
  0
LINE
  5
1694B
330
18
100
AcDbEntity
  8
1PHANTOM
100
AcDbLine
 10
2497.287837857503
 20
-1894.104505504764
 30
0.0
 11
2498.087828550321
 21
-1898.104505504764
 31
0.0
  0
LINE
  5
1694C
330
18
100
AcDbEntity
  8
1PHANTOM
100
AcDbLine
 10
2498.887837857503
 20
-1894.104505504764
 30
0.0
 11
2499.687828550325
 21
-1898.104505504764
 31
0.0
  0
LINE
  5
1694D
330
18
100
AcDbEntity
  8
1PHANTOM
100
AcDbLine
 10
2495.687837857503
 20
-1894.104505504764
 30
0.0
 11
2496.487828550321
 21
-1898.104505504764
 31
0.0
  0
LINE
  5
1694E
330
18
100
AcDbEntity
  8
1PHANTOM
100
AcDbLine
 10
2494.087837857503
 20
-1894.104505504764
 30
0.0
 11
2494.887828550321
 21
-1898.104505504764
 31
0.0
  0
LINE
  5
1694F
330
18
100
AcDbEntity
  8
1PHANTOM
100
AcDbLine
 10
2483.787829713828
 20
-1897.604505504764
 30
0.0
 11
2483.787836694213
 21
-1894.604505504764
 31
0.0
  0
LINE
  5
16950
330
18
100
AcDbEntity
  8
1PHANTOM
100
AcDbLine
 10
2484.387836694097
 20
-1894.604505504764
 30
0.0
 11
2484.487837857494
 21
-1894.104505504764
 31
0.0
  0
LINE
  5
16951
330
18
100
AcDbEntity
  8
1PHANTOM
100
AcDbLine
 10
2484.487837857494
 20
-1894.104505504764
 30
0.0
 11
2485.287828550312
 21
-1898.104505504764
 31
0.0
  0
LINE
  5
16952
330
18
100
AcDbEntity
  8
1PHANTOM
100
AcDbLine
 10
2485.287828550312
 20
-1898.104505504764
 30
0.0
 11
2485.38782971371
 21
-1897.604505504764
 31
0.0
  0
LINE
  5
16953
330
18
100
AcDbEntity
  8
1PHANTOM
100
AcDbLine
 10
2485.987836694097
 20
-1894.604505504764
 30
0.0
 11
2486.087837857494
 21
-1894.104505504764
 31
0.0
  0
LINE
  5
16954
330
18
100
AcDbEntity
  8
1PHANTOM
100
AcDbLine
 10
2487.587836694096
 20
-1894.604505504764
 30
0.0
 11
2487.687837857494
 21
-1894.104505504764
 31
0.0
  0
LINE
  5
16955
330
18
100
AcDbEntity
  8
1PHANTOM
100
AcDbLine
 10
2487.687837857494
 20
-1894.104505504764
 30
0.0
 11
2488.487828550312
 21
-1898.104505504764
 31
0.0
  0
LINE
  5
16956
330
18
100
AcDbEntity
  8
1PHANTOM
100
AcDbLine
 10
2486.887828550312
 20
-1898.104505504764
 30
0.0
 11
2486.98782971371
 21
-1897.604505504764
 31
0.0
  0
LINE
  5
16957
330
18
100
AcDbEntity
  8
1PHANTOM
100
AcDbLine
 10
2488.487828550312
 20
-1898.104505504764
 30
0.0
 11
2488.58782971371
 21
-1897.604505504764
 31
0.0
  0
LINE
  5
16958
330
18
100
AcDbEntity
  8
1PHANTOM
100
AcDbLine
 10
2486.087837857494
 20
-1894.104505504764
 30
0.0
 11
2486.887828550312
 21
-1898.104505504764
 31
0.0
  0
LINE
  5
16959
330
18
100
AcDbEntity
  8
1PHANTOM
100
AcDbLine
 10
2489.187836694101
 20
-1894.604505504764
 30
0.0
 11
2489.287837857499
 21
-1894.104505504764
 31
0.0
  0
LINE
  5
1695C
330
18
100
AcDbEntity
  8
1PHANTOM
100
AcDbLine
 10
2292.78783320413
 20
-1763.904467112813
 30
0.0
 11
2291.28783320413
 21
-1769.204463622674
 31
0.0
  0
LINE
  5
1695D
330
18
100
AcDbEntity
  8
1PHANTOM
100
AcDbLine
 10
2291.28783320413
 20
-1769.204463622674
 30
0.0
 11
2291.28783320413
 21
-1793.104458968868
 31
0.0
  0
LINE
  5
1695E
330
18
100
AcDbEntity
  8
1PHANTOM
100
AcDbLine
 10
2292.78783320413
 20
-1763.904467112813
 30
0.0
 11
2294.28783320413
 21
-1769.204470603058
 31
0.0
  0
LINE
  5
16960
330
18
100
AcDbEntity
  8
1PHANTOM
100
AcDbLine
 10
2294.28783320413
 20
-1769.204470603058
 30
0.0
 11
2294.28783320413
 21
-1793.104458968868
 31
0.0
  0
LINE
  5
16967
330
18
100
AcDbEntity
  8
1PHANTOM
100
AcDbLine
 10
2292.787786668232
 20
-1760.943552521504
 30
0.0
 11
2292.787786668232
 21
-1793.104458968868
 31
0.0
  0
LINE
  5
16968
330
18
100
AcDbEntity
  8
1PHANTOM
100
AcDbLine
 10
2291.693462854237
 20
-1766.004464566491
 30
0.0
 11
2293.655797943113
 21
-1765.204469132439
 31
0.0
  0
LINE
  5
16969
330
18
100
AcDbEntity
  8
1PHANTOM
100
AcDbLine
 10
2293.655797943113
 20
-1765.204469132439
 30
0.0
 11
2293.06752136807
 21
-1764.892699276188
 31
0.0
  0
LINE
  5
1696A
330
18
100
AcDbEntity
  8
1PHANTOM
100
AcDbLine
 10
2290.78783320413
 20
-1788.40446245928
 30
0.0
 11
2294.78783320413
 21
-1787.604471766462
 31
0.0
  0
LINE
  5
1696B
330
18
100
AcDbEntity
  8
1PHANTOM
100
AcDbLine
 10
2290.78783320413
 20
-1777.204462459276
 30
0.0
 11
2294.78783320413
 21
-1776.404471766453
 31
0.0
  0
LINE
  5
1696C
330
18
100
AcDbEntity
  8
1PHANTOM
100
AcDbLine
 10
2290.78783320413
 20
-1774.004462459276
 30
0.0
 11
2294.78783320413
 21
-1773.204471766453
 31
0.0
  0
LINE
  5
1696D
330
18
100
AcDbEntity
  8
1PHANTOM
100
AcDbLine
 10
2294.78783320413
 20
-1773.204471766453
 30
0.0
 11
2294.28783320413
 21
-1773.104470603057
 31
0.0
  0
LINE
  5
1696E
330
18
100
AcDbEntity
  8
1PHANTOM
100
AcDbLine
 10
2291.28783320413
 20
-1772.504463622673
 30
0.0
 11
2290.78783320413
 21
-1772.404462459276
 31
0.0
  0
LINE
  5
1696F
330
18
100
AcDbEntity
  8
1PHANTOM
100
AcDbLine
 10
2294.78783320413
 20
-1776.404471766453
 30
0.0
 11
2294.28783320413
 21
-1776.304470603056
 31
0.0
  0
LINE
  5
16970
330
18
100
AcDbEntity
  8
1PHANTOM
100
AcDbLine
 10
2294.78783320413
 20
-1774.804471766453
 30
0.0
 11
2294.28783320413
 21
-1774.704470603056
 31
0.0
  0
LINE
  5
16971
330
18
100
AcDbEntity
  8
1PHANTOM
100
AcDbLine
 10
2291.28783320413
 20
-1774.104463622673
 30
0.0
 11
2290.78783320413
 21
-1774.004462459276
 31
0.0
  0
LINE
  5
16972
330
18
100
AcDbEntity
  8
1PHANTOM
100
AcDbLine
 10
2291.28783320413
 20
-1775.704463622673
 30
0.0
 11
2290.78783320413
 21
-1775.604462459276
 31
0.0
  0
LINE
  5
16973
330
18
100
AcDbEntity
  8
1PHANTOM
100
AcDbLine
 10
2290.78783320413
 20
-1775.604462459276
 30
0.0
 11
2294.78783320413
 21
-1774.804471766453
 31
0.0
  0
LINE
  5
16974
330
18
100
AcDbEntity
  8
1PHANTOM
100
AcDbLine
 10
2294.108612047519
 20
-1766.804470186045
 30
0.0
 11
2293.556862583716
 21
-1766.621706043417
 31
0.0
  0
LINE
  5
16975
330
18
100
AcDbEntity
  8
1PHANTOM
100
AcDbLine
 10
2294.78783320413
 20
-1770.004471766454
 30
0.0
 11
2294.28783320413
 21
-1769.904470603056
 31
0.0
  0
LINE
  5
16976
330
18
100
AcDbEntity
  8
1PHANTOM
100
AcDbLine
 10
2294.78783320413
 20
-1771.604471766454
 30
0.0
 11
2294.28783320413
 21
-1771.504470603056
 31
0.0
  0
LINE
  5
16977
330
18
100
AcDbEntity
  8
1PHANTOM
100
AcDbLine
 10
2294.561426151926
 20
-1768.404471239651
 30
0.0
 11
2294.024832416655
 21
-1768.275200542021
 31
0.0
  0
LINE
  5
16978
330
18
100
AcDbEntity
  8
1PHANTOM
100
AcDbLine
 10
2291.708747801339
 20
-1767.717233025237
 30
0.0
 11
2291.240649346189
 21
-1767.604463512886
 31
0.0
  0
LINE
  5
16979
330
18
100
AcDbEntity
  8
1PHANTOM
100
AcDbLine
 10
2291.28783320413
 20
-1770.904463622673
 30
0.0
 11
2290.78783320413
 21
-1770.804462459276
 31
0.0
  0
LINE
  5
1697A
330
18
100
AcDbEntity
  8
1PHANTOM
100
AcDbLine
 10
2291.28783320413
 20
-1769.304463622673
 30
0.0
 11
2290.78783320413
 21
-1769.204462459276
 31
0.0
  0
LINE
  5
1697B
330
18
100
AcDbEntity
  8
1PHANTOM
100
AcDbLine
 10
2292.150634694868
 20
-1766.155900362931
 30
0.0
 11
2291.693462854237
 21
-1766.004464566491
 31
0.0
  0
LINE
  5
1697C
330
18
100
AcDbEntity
  8
1PHANTOM
100
AcDbLine
 10
2291.240649346189
 20
-1767.604463512886
 30
0.0
 11
2294.108612047519
 21
-1766.804470186045
 31
0.0
  0
LINE
  5
1697D
330
18
100
AcDbEntity
  8
1PHANTOM
100
AcDbLine
 10
2290.78783320413
 20
-1770.804462459276
 30
0.0
 11
2294.78783320413
 21
-1770.004471766454
 31
0.0
  0
LINE
  5
1697E
330
18
100
AcDbEntity
  8
1PHANTOM
100
AcDbLine
 10
2290.78783320413
 20
-1769.204462459276
 30
0.0
 11
2294.561426151926
 21
-1768.404471239651
 31
0.0
  0
LINE
  5
1697F
330
18
100
AcDbEntity
  8
1PHANTOM
100
AcDbLine
 10
2290.78783320413
 20
-1772.404462459276
 30
0.0
 11
2294.78783320413
 21
-1771.604471766454
 31
0.0
  0
LINE
  5
16980
330
18
100
AcDbEntity
  8
1PHANTOM
100
AcDbLine
 10
2290.78783320413
 20
-1785.20446245928
 30
0.0
 11
2294.78783320413
 21
-1784.404471766462
 31
0.0
  0
LINE
  5
16981
330
18
100
AcDbEntity
  8
1PHANTOM
100
AcDbLine
 10
2294.78783320413
 20
-1784.404471766462
 30
0.0
 11
2294.28783320413
 21
-1784.304470603065
 31
0.0
  0
LINE
  5
16982
330
18
100
AcDbEntity
  8
1PHANTOM
100
AcDbLine
 10
2291.28783320413
 20
-1783.704463622674
 30
0.0
 11
2290.78783320413
 21
-1783.604462459276
 31
0.0
  0
LINE
  5
16983
330
18
100
AcDbEntity
  8
1PHANTOM
100
AcDbLine
 10
2294.78783320413
 20
-1786.004471766462
 30
0.0
 11
2294.28783320413
 21
-1785.904470603065
 31
0.0
  0
LINE
  5
16984
330
18
100
AcDbEntity
  8
1PHANTOM
100
AcDbLine
 10
2294.78783320413
 20
-1787.604471766462
 30
0.0
 11
2294.28783320413
 21
-1787.504470603064
 31
0.0
  0
LINE
  5
16985
330
18
100
AcDbEntity
  8
1PHANTOM
100
AcDbLine
 10
2291.28783320413
 20
-1785.304463622678
 30
0.0
 11
2290.78783320413
 21
-1785.20446245928
 31
0.0
  0
LINE
  5
16986
330
18
100
AcDbEntity
  8
1PHANTOM
100
AcDbLine
 10
2291.28783320413
 20
-1786.904463622679
 30
0.0
 11
2290.78783320413
 21
-1786.804462459281
 31
0.0
  0
LINE
  5
16987
330
18
100
AcDbEntity
  8
1PHANTOM
100
AcDbLine
 10
2290.78783320413
 20
-1786.804462459281
 30
0.0
 11
2294.78783320413
 21
-1786.004471766462
 31
0.0
  0
LINE
  5
16988
330
18
100
AcDbEntity
  8
1PHANTOM
100
AcDbLine
 10
2294.78783320413
 20
-1779.604471766458
 30
0.0
 11
2294.28783320413
 21
-1779.50447060306
 31
0.0
  0
LINE
  5
16989
330
18
100
AcDbEntity
  8
1PHANTOM
100
AcDbLine
 10
2294.78783320413
 20
-1778.004471766454
 30
0.0
 11
2294.28783320413
 21
-1777.904470603056
 31
0.0
  0
LINE
  5
1698A
330
18
100
AcDbEntity
  8
1PHANTOM
100
AcDbLine
 10
2294.78783320413
 20
-1782.804471766458
 30
0.0
 11
2294.28783320413
 21
-1782.70447060306
 31
0.0
  0
LINE
  5
1698B
330
18
100
AcDbEntity
  8
1PHANTOM
100
AcDbLine
 10
2294.78783320413
 20
-1781.204471766458
 30
0.0
 11
2294.28783320413
 21
-1781.10447060306
 31
0.0
  0
LINE
  5
1698C
330
18
100
AcDbEntity
  8
1PHANTOM
100
AcDbLine
 10
2291.28783320413
 20
-1777.304463622673
 30
0.0
 11
2290.78783320413
 21
-1777.204462459276
 31
0.0
  0
LINE
  5
1698D
330
18
100
AcDbEntity
  8
1PHANTOM
100
AcDbLine
 10
2291.28783320413
 20
-1778.904463622674
 30
0.0
 11
2290.78783320413
 21
-1778.804462459276
 31
0.0
  0
LINE
  5
1698E
330
18
100
AcDbEntity
  8
1PHANTOM
100
AcDbLine
 10
2291.28783320413
 20
-1782.104463622674
 30
0.0
 11
2290.78783320413
 21
-1782.004462459276
 31
0.0
  0
LINE
  5
1698F
330
18
100
AcDbEntity
  8
1PHANTOM
100
AcDbLine
 10
2291.28783320413
 20
-1780.504463622673
 30
0.0
 11
2290.78783320413
 21
-1780.404462459276
 31
0.0
  0
LINE
  5
16990
330
18
100
AcDbEntity
  8
1PHANTOM
100
AcDbLine
 10
2290.78783320413
 20
-1780.404462459276
 30
0.0
 11
2294.78783320413
 21
-1779.604471766458
 31
0.0
  0
LINE
  5
16991
330
18
100
AcDbEntity
  8
1PHANTOM
100
AcDbLine
 10
2290.78783320413
 20
-1778.804462459276
 30
0.0
 11
2294.78783320413
 21
-1778.004471766454
 31
0.0
  0
LINE
  5
16992
330
18
100
AcDbEntity
  8
1PHANTOM
100
AcDbLine
 10
2290.78783320413
 20
-1782.004462459276
 30
0.0
 11
2294.78783320413
 21
-1781.204471766458
 31
0.0
  0
LINE
  5
16993
330
18
100
AcDbEntity
  8
1PHANTOM
100
AcDbLine
 10
2290.78783320413
 20
-1783.604462459276
 30
0.0
 11
2294.78783320413
 21
-1782.804471766458
 31
0.0
  0
LINE
  5
16996
330
18
100
AcDbEntity
  8
1PHANTOM
100
AcDbLine
 10
2291.287856473475
 20
-1793.104458968868
 30
0.0
 11
2294.78783320413
 21
-1792.404471766466
 31
0.0
  0
LINE
  5
16997
330
18
100
AcDbEntity
  8
1PHANTOM
100
AcDbLine
 10
2294.78783320413
 20
-1792.404471766466
 30
0.0
 11
2294.28783320413
 21
-1792.304470603069
 31
0.0
  0
LINE
  5
16998
330
18
100
AcDbEntity
  8
1PHANTOM
100
AcDbLine
 10
2291.28783320413
 20
-1791.704463622682
 30
0.0
 11
2290.78783320413
 21
-1791.604462459285
 31
0.0
  0
LINE
  5
16999
330
18
100
AcDbEntity
  8
1PHANTOM
100
AcDbLine
 10
2291.28783320413
 20
-1790.104463622682
 30
0.0
 11
2290.78783320413
 21
-1790.004462459285
 31
0.0
  0
LINE
  5
1699A
330
18
100
AcDbEntity
  8
1PHANTOM
100
AcDbLine
 10
2290.78783320413
 20
-1790.004462459285
 30
0.0
 11
2294.78783320413
 21
-1789.204471766467
 31
0.0
  0
LINE
  5
1699B
330
18
100
AcDbEntity
  8
1PHANTOM
100
AcDbLine
 10
2294.78783320413
 20
-1790.804471766467
 30
0.0
 11
2294.28783320413
 21
-1790.704470603069
 31
0.0
  0
LINE
  5
1699C
330
18
100
AcDbEntity
  8
1PHANTOM
100
AcDbLine
 10
2294.78783320413
 20
-1789.204471766467
 30
0.0
 11
2294.28783320413
 21
-1789.104470603069
 31
0.0
  0
LINE
  5
1699D
330
18
100
AcDbEntity
  8
1PHANTOM
100
AcDbLine
 10
2290.78783320413
 20
-1791.604462459285
 30
0.0
 11
2294.78783320413
 21
-1790.804471766467
 31
0.0
  0
LINE
  5
1699E
330
18
100
AcDbEntity
  8
1PHANTOM
100
AcDbLine
 10
2291.28783320413
 20
-1788.504463622678
 30
0.0
 11
2290.78783320413
 21
-1788.40446245928
 31
0.0
  0
SOLID
  5
16AFD
330
18
100
AcDbEntity
  8
1DIM
100
AcDbTrace
 10
2458.635075036491
 20
-1883.693730375476
 30
0.0
 11
2459.622321189073
 21
-1885.464734651395
 31
0.0
 12
2458.114059928224
 22
-1884.109648277714
 32
0.0
 13
2458.114059928224
 23
-1884.109648277714
 33
0.0
  0
LINE
  5
16AFE
330
18
100
AcDbEntity
  8
1DIM
100
AcDbLine
 10
2458.374567482358
 20
-1883.901689326595
 30
0.0
 11
2442.171137526678
 21
-1863.603857068796
 31
0.0
  0
LINE
  5
16AFF
330
18
100
AcDbEntity
  8
1DIM
100
AcDbLine
 10
2442.171137526678
 20
-1863.603857068796
 30
0.0
 11
2407.154470860011
 21
-1863.603857068796
 31
0.0
  0
TEXT
  5
16B00
330
18
100
AcDbEntity
  8
1DIM
  6
CONTINUOUS
100
AcDbText
 10
2406.921137526679
 20
-1857.070523735463
 30
0.0
 40
3.5
  1
材質：ステンレス
100
AcDbText
  0
TEXT
  5
16B01
330
18
100
AcDbEntity
  8
1DIM
  6
CONTINUOUS
100
AcDbText
 10
2410.771137526678
 20
-1862.903857068796
 30
0.0
 40
3.5
  1
仕上：各種仕上
100
AcDbText
  0
LINE
  5
16B02
330
18
100
AcDbEntity
  8
1DIM
100
AcDbLine
 10
2257.787833204127
 20
-1886.104458968865
 30
0.0
 11
2257.787833204127
 21
-1854.104458968866
 31
0.0
  0
LINE
  5
16B03
330
18
100
AcDbEntity
  8
1DIM
100
AcDbLine
 10
2392.787833204129
 20
-1886.104458968866
 30
0.0
 11
2392.787833204129
 21
-1854.104458968866
 31
0.0
  0
LINE
  5
16B04
330
18
100
AcDbEntity
  8
1DIM
100
AcDbLine
 10
2259.787833204127
 20
-1855.104458968866
 30
0.0
 11
2390.787833204129
 21
-1855.104458968866
 31
0.0
  0
LINE
  5
16B08
330
18
100
AcDbEntity
  8
1DIM
100
AcDbLine
 10
2391.787833204128
 20
-1907.104458968865
 30
0.0
 11
2423.787833204129
 21
-1907.104458968865
 31
0.0
  0
LINE
  5
16B09
330
18
100
AcDbEntity
  8
1DIM
100
AcDbLine
 10
2391.787833204129
 20
-1885.104458968866
 30
0.0
 11
2423.787833204129
 21
-1885.104458968866
 31
0.0
  0
LINE
  5
16B0A
330
18
100
AcDbEntity
  8
1DIM
100
AcDbLine
 10
2422.787833204129
 20
-1905.104458968865
 30
0.0
 11
2422.787833204129
 21
-1887.104458968866
 31
0.0
  0
LINE
  5
16B0E
330
18
100
AcDbEntity
  8
1DIM
100
AcDbLine
 10
2292.787833204126
 20
-1891.604458968866
 30
0.0
 11
2292.787833204126
 21
-1864.104458968866
 31
0.0
  0
LINE
  5
16B0F
330
18
100
AcDbEntity
  8
1DIM
100
AcDbLine
 10
2357.78783320413
 20
-1891.604458968866
 30
0.0
 11
2357.78783320413
 21
-1864.104458968866
 31
0.0
  0
LINE
  5
16B10
330
18
100
AcDbEntity
  8
1DIM
100
AcDbLine
 10
2294.787833204126
 20
-1865.104458968866
 30
0.0
 11
2355.78783320413
 21
-1865.104458968866
 31
0.0
  0
LINE
  5
16B14
330
18
100
AcDbEntity
  8
1DIM
100
AcDbLine
 10
2362.28783320413
 20
-1896.104458968866
 30
0.0
 11
2413.787833204128
 21
-1896.104458968866
 31
0.0
  0
LINE
  5
16B15
330
18
100
AcDbEntity
  8
1DIM
100
AcDbLine
 10
2391.787833204129
 20
-1885.104458968866
 30
0.0
 11
2413.787833204128
 21
-1885.104458968866
 31
0.0
  0
LINE
  5
16B16
330
18
100
AcDbEntity
  8
1DIM
100
AcDbLine
 10
2412.787833204128
 20
-1894.104458968866
 30
0.0
 11
2412.787833204128
 21
-1887.104458968866
 31
0.0
  0
LINE
  5
16B1A
330
18
100
AcDbEntity
  8
1DIM
100
AcDbLine
 10
2392.787833204128
 20
-1793.104458968868
 30
0.0
 11
2413.787833204128
 21
-1793.104458968868
 31
0.0
  0
LINE
  5
16B1B
330
18
100
AcDbEntity
  8
1DIM
100
AcDbLine
 10
2392.787833204129
 20
-1835.104458968866
 30
0.0
 11
2413.787833204128
 21
-1835.104458968866
 31
0.0
  0
LINE
  5
16B1C
330
18
100
AcDbEntity
  8
1DIM
100
AcDbLine
 10
2412.787833204128
 20
-1795.104458968868
 30
0.0
 11
2412.787833204128
 21
-1833.104458968866
 31
0.0
  0
SOLID
  5
16B20
330
18
100
AcDbEntity
  8
1DIM
100
AcDbTrace
 10
2441.637297204698
 20
-1903.478658734824
 30
0.0
 11
2443.05649521227
 21
-1902.030560628197
 31
0.0
 12
2442.183664050499
 22
-1903.860663596381
 32
0.0
 13
2442.183664050499
 23
-1903.860663596381
 33
0.0
  0
LINE
  5
16B21
330
18
100
AcDbEntity
  8
1DIM
100
AcDbLine
 10
2441.910480627599
 20
-1903.669661165602
 30
0.0
 11
2425.605311549875
 21
-1926.990316727277
 31
0.0
  0
LINE
  5
16B22
330
18
100
AcDbEntity
  8
1DIM
100
AcDbLine
 10
2425.605311549875
 20
-1926.990316727277
 30
0.0
 11
2390.588644883208
 21
-1926.990316727277
 31
0.0
  0
TEXT
  5
16B23
330
18
100
AcDbEntity
  8
1DIM
  6
CONTINUOUS
100
AcDbText
 10
2390.355311549876
 20
-1920.456983393944
 30
0.0
 40
3.5
  1
材質：ステンレス
100
AcDbText
  0
TEXT
  5
16B24
330
18
100
AcDbEntity
  8
1DIM
  6
CONTINUOUS
100
AcDbText
 10
2394.205311549875
 20
-1926.290316727277
 30
0.0
 40
3.5
  1
仕上：各種仕上
100
AcDbText
  0
LINE
  5
16B25
330
18
100
AcDbEntity
  8
1DIM
100
AcDbLine
 10
2454.787833204129
 20
-1910.955149615576
 30
0.0
 11
2454.787833204129
 21
-1922.521985249432
 31
0.0
  0
LINE
  5
16B26
330
18
100
AcDbEntity
  8
1DIM
100
AcDbLine
 10
2484.787833204129
 20
-1907.104458968865
 30
0.0
 11
2484.787833204129
 21
-1922.521985249432
 31
0.0
  0
LINE
  5
16B27
330
18
100
AcDbEntity
  8
1DIM
100
AcDbLine
 10
2456.787833204129
 20
-1921.521985249432
 30
0.0
 11
2482.787833204129
 21
-1921.521985249432
 31
0.0
  0
LINE
  5
16B2B
330
18
100
AcDbEntity
  8
0
  6
BYBLOCK
100
AcDbLine
 10
2259.787833204127
 20
-1855.640357348866
 30
0.0
 11
2257.787833204127
 21
-1855.104458968866
 31
0.0
  0
LINE
  5
16B2C
330
18
100
AcDbEntity
  8
0
  6
BYBLOCK
100
AcDbLine
 10
2257.787833204127
 20
-1855.104458968866
 30
0.0
 11
2259.787833204127
 21
-1854.568560588866
 31
0.0
  0
LINE
  5
16B2D
330
18
100
AcDbEntity
  8
0
  6
BYBLOCK
100
AcDbLine
 10
2257.787833204127
 20
-1855.104458968866
 30
0.0
 11
2259.787833204127
 21
-1855.104458968866
 31
0.0
  0
LINE
  5
16B2E
330
18
100
AcDbEntity
  8
0
  6
BYBLOCK
100
AcDbLine
 10
2390.787833204129
 20
-1854.568560588866
 30
0.0
 11
2392.787833204129
 21
-1855.104458968866
 31
0.0
  0
LINE
  5
16B2F
330
18
100
AcDbEntity
  8
0
  6
BYBLOCK
100
AcDbLine
 10
2392.787833204129
 20
-1855.104458968866
 30
0.0
 11
2390.787833204129
 21
-1855.640357348866
 31
0.0
  0
LINE
  5
16B30
330
18
100
AcDbEntity
  8
0
  6
BYBLOCK
100
AcDbLine
 10
2392.787833204129
 20
-1855.104458968866
 30
0.0
 11
2390.787833204129
 21
-1855.104458968866
 31
0.0
  0
TEXT
  5
16B31
330
18
100
AcDbEntity
  8
1DIM
  6
CONTINUOUS
100
AcDbText
 10
2321.204499870795
 20
-1854.404458968866
 30
0.0
 40
3.5
  1
135
100
AcDbText
  0
LINE
  5
16B32
330
18
100
AcDbEntity
  8
0
  6
BYBLOCK
100
AcDbLine
 10
2423.323731584129
 20
-1905.104458968865
 30
0.0
 11
2422.787833204129
 21
-1907.104458968865
 31
0.0
  0
LINE
  5
16B33
330
18
100
AcDbEntity
  8
0
  6
BYBLOCK
100
AcDbLine
 10
2422.787833204129
 20
-1907.104458968865
 30
0.0
 11
2422.251934824129
 21
-1905.104458968865
 31
0.0
  0
LINE
  5
16B34
330
18
100
AcDbEntity
  8
0
  6
BYBLOCK
100
AcDbLine
 10
2422.787833204129
 20
-1907.104458968865
 30
0.0
 11
2422.787833204129
 21
-1905.104458968865
 31
0.0
  0
LINE
  5
16B35
330
18
100
AcDbEntity
  8
0
  6
BYBLOCK
100
AcDbLine
 10
2422.251934824129
 20
-1887.104458968866
 30
0.0
 11
2422.787833204129
 21
-1885.104458968866
 31
0.0
  0
LINE
  5
16B36
330
18
100
AcDbEntity
  8
0
  6
BYBLOCK
100
AcDbLine
 10
2422.787833204129
 20
-1885.104458968866
 30
0.0
 11
2423.323731584129
 21
-1887.104458968866
 31
0.0
  0
LINE
  5
16B37
330
18
100
AcDbEntity
  8
0
  6
BYBLOCK
100
AcDbLine
 10
2422.787833204129
 20
-1885.104458968866
 30
0.0
 11
2422.787833204129
 21
-1887.104458968866
 31
0.0
  0
TEXT
  5
16B38
330
18
100
AcDbEntity
  8
1DIM
  6
CONTINUOUS
100
AcDbText
 10
2422.087833204129
 20
-1899.021125635532
 30
0.0
 40
3.5
  1
22
 50
90.0
100
AcDbText
  0
LINE
  5
16B39
330
18
100
AcDbEntity
  8
0
  6
BYBLOCK
100
AcDbLine
 10
2294.787833204126
 20
-1865.640357348866
 30
0.0
 11
2292.787833204126
 21
-1865.104458968866
 31
0.0
  0
LINE
  5
16B3A
330
18
100
AcDbEntity
  8
0
  6
BYBLOCK
100
AcDbLine
 10
2292.787833204126
 20
-1865.104458968866
 30
0.0
 11
2294.787833204126
 21
-1864.568560588866
 31
0.0
  0
LINE
  5
16B3B
330
18
100
AcDbEntity
  8
0
  6
BYBLOCK
100
AcDbLine
 10
2292.787833204126
 20
-1865.104458968866
 30
0.0
 11
2294.787833204126
 21
-1865.104458968866
 31
0.0
  0
LINE
  5
16B3C
330
18
100
AcDbEntity
  8
0
  6
BYBLOCK
100
AcDbLine
 10
2355.78783320413
 20
-1864.568560588866
 30
0.0
 11
2357.78783320413
 21
-1865.104458968866
 31
0.0
  0
LINE
  5
16B3D
330
18
100
AcDbEntity
  8
0
  6
BYBLOCK
100
AcDbLine
 10
2357.78783320413
 20
-1865.104458968866
 30
0.0
 11
2355.78783320413
 21
-1865.640357348866
 31
0.0
  0
LINE
  5
16B3E
330
18
100
AcDbEntity
  8
0
  6
BYBLOCK
100
AcDbLine
 10
2357.78783320413
 20
-1865.104458968866
 30
0.0
 11
2355.78783320413
 21
-1865.104458968866
 31
0.0
  0
TEXT
  5
16B3F
330
18
100
AcDbEntity
  8
1DIM
  6
CONTINUOUS
100
AcDbText
 10
2318.859013759684
 20
-1864.404458968866
 30
0.0
 40
3.5
  1
P=65
100
AcDbText
  0
LINE
  5
16B40
330
18
100
AcDbEntity
  8
0
  6
BYBLOCK
100
AcDbLine
 10
2413.323731584128
 20
-1894.104458968866
 30
0.0
 11
2412.787833204128
 21
-1896.104458968866
 31
0.0
  0
LINE
  5
16B41
330
18
100
AcDbEntity
  8
0
  6
BYBLOCK
100
AcDbLine
 10
2412.787833204128
 20
-1896.104458968866
 30
0.0
 11
2412.251934824128
 21
-1894.104458968866
 31
0.0
  0
LINE
  5
16B42
330
18
100
AcDbEntity
  8
0
  6
BYBLOCK
100
AcDbLine
 10
2412.787833204128
 20
-1896.104458968866
 30
0.0
 11
2412.787833204128
 21
-1894.104458968866
 31
0.0
  0
LINE
  5
16B43
330
18
100
AcDbEntity
  8
0
  6
BYBLOCK
100
AcDbLine
 10
2412.251934824128
 20
-1887.104458968866
 30
0.0
 11
2412.787833204128
 21
-1885.104458968866
 31
0.0
  0
LINE
  5
16B44
330
18
100
AcDbEntity
  8
0
  6
BYBLOCK
100
AcDbLine
 10
2412.787833204128
 20
-1885.104458968866
 30
0.0
 11
2413.323731584128
 21
-1887.104458968866
 31
0.0
  0
LINE
  5
16B45
330
18
100
AcDbEntity
  8
0
  6
BYBLOCK
100
AcDbLine
 10
2412.787833204128
 20
-1885.104458968866
 30
0.0
 11
2412.787833204128
 21
-1887.104458968866
 31
0.0
  0
TEXT
  5
16B46
330
18
100
AcDbEntity
  8
1DIM
  6
CONTINUOUS
100
AcDbText
 10
2412.087833204129
 20
-1892.354458968866
 30
0.0
 40
3.5
  1
11
 50
90.0
100
AcDbText
  0
LINE
  5
16B47
330
18
100
AcDbEntity
  8
0
  6
BYBLOCK
100
AcDbLine
 10
2412.251934824128
 20
-1795.104458968868
 30
0.0
 11
2412.787833204128
 21
-1793.104458968868
 31
0.0
  0
LINE
  5
16B48
330
18
100
AcDbEntity
  8
0
  6
BYBLOCK
100
AcDbLine
 10
2412.787833204128
 20
-1793.104458968868
 30
0.0
 11
2413.323731584128
 21
-1795.104458968868
 31
0.0
  0
LINE
  5
16B49
330
18
100
AcDbEntity
  8
0
  6
BYBLOCK
100
AcDbLine
 10
2412.787833204128
 20
-1793.104458968868
 30
0.0
 11
2412.787833204128
 21
-1795.104458968868
 31
0.0
  0
LINE
  5
16B4A
330
18
100
AcDbEntity
  8
0
  6
BYBLOCK
100
AcDbLine
 10
2413.323731584128
 20
-1833.104458968866
 30
0.0
 11
2412.787833204128
 21
-1835.104458968866
 31
0.0
  0
LINE
  5
16B4B
330
18
100
AcDbEntity
  8
0
  6
BYBLOCK
100
AcDbLine
 10
2412.787833204128
 20
-1835.104458968866
 30
0.0
 11
2412.251934824128
 21
-1833.104458968866
 31
0.0
  0
LINE
  5
16B4C
330
18
100
AcDbEntity
  8
0
  6
BYBLOCK
100
AcDbLine
 10
2412.787833204128
 20
-1835.104458968866
 30
0.0
 11
2412.787833204128
 21
-1833.104458968866
 31
0.0
  0
TEXT
  5
16B4D
330
18
100
AcDbEntity
  8
1DIM
  6
CONTINUOUS
100
AcDbText
 10
2412.087833204129
 20
-1817.021125635533
 30
0.0
 40
3.5
  1
42
 50
90.0
100
AcDbText
  0
LINE
  5
16B4E
330
18
100
AcDbEntity
  8
0
  6
BYBLOCK
100
AcDbLine
 10
2456.787833204129
 20
-1922.057883629432
 30
0.0
 11
2454.787833204129
 21
-1921.521985249432
 31
0.0
  0
LINE
  5
16B4F
330
18
100
AcDbEntity
  8
0
  6
BYBLOCK
100
AcDbLine
 10
2454.787833204129
 20
-1921.521985249432
 30
0.0
 11
2456.787833204129
 21
-1920.986086869432
 31
0.0
  0
LINE
  5
16B50
330
18
100
AcDbEntity
  8
0
  6
BYBLOCK
100
AcDbLine
 10
2454.787833204129
 20
-1921.521985249432
 30
0.0
 11
2456.787833204129
 21
-1921.521985249432
 31
0.0
  0
LINE
  5
16B51
330
18
100
AcDbEntity
  8
0
  6
BYBLOCK
100
AcDbLine
 10
2482.787833204129
 20
-1920.986086869432
 30
0.0
 11
2484.787833204129
 21
-1921.521985249432
 31
0.0
  0
LINE
  5
16B52
330
18
100
AcDbEntity
  8
0
  6
BYBLOCK
100
AcDbLine
 10
2484.787833204129
 20
-1921.521985249432
 30
0.0
 11
2482.787833204129
 21
-1922.057883629432
 31
0.0
  0
LINE
  5
16B53
330
18
100
AcDbEntity
  8
0
  6
BYBLOCK
100
AcDbLine
 10
2484.787833204129
 20
-1921.521985249432
 30
0.0
 11
2482.787833204129
 21
-1921.521985249432
 31
0.0
  0
TEXT
  5
16B54
330
18
100
AcDbEntity
  8
1DIM
  6
CONTINUOUS
100
AcDbText
 10
2467.089916537462
 20
-1920.821985249432
 30
0.0
 40
3.5
  1
30
100
AcDbText
  0
VIEWPORT
  5
57
330
15
100
AcDbEntity
 67
     1
  8
0
100
AcDbViewport
 68
     1
 10
0.0
 20
0.0
 30
0.0
 40
600.1703601108032
 41
297.0
 68
     1
 69
     1
1001
ACAD
1000
MVIEW
1002
{
1070
    16
1010
0.0
1020
0.0
1030
0.0
1010
0.0
1020
0.0
1030
1.0
1040
0.0
1040
297.0
1040
-4.272048862584541
1040
18.33904653606845
1040
50.0
1040
0.0
1040
0.0
1070
    16
1070
   100
1070
     0
1070
     1
1070
     0
1070
     0
1070
     0
1070
     0
1040
0.0
1040
0.0
1040
0.0
1040
10.0
1040
10.0
1040
10.0
1040
10.0
1070
     0
1002
{
1002
}
1002
}
  0
ENDSEC
  0
SECTION
  2
OBJECTS
  0
DICTIONARY
  5
C
330
0
100
AcDbDictionary
  3
ACAD_COLOR
350
2D0
  3
ACAD_GROUP
350
D
  3
ACAD_LAYOUT
350
2D1
  3
ACAD_MATERIAL
350
2CF
  3
ACAD_MLEADERSTYLE
350
15B98
  3
ACAD_MLINESTYLE
350
1B
  3
ACAD_PLOTSETTINGS
350
2D2
  3
ACAD_SCALELIST
350
15B76
  3
ACAD_VISUALSTYLE
350
15B65
  3
ACDBHEADERROUNDTRIPXREC
350
16B55
  3
ACDBVARIABLEDICTIONARY
350
37
  3
CONTENTDICTIONARY
350
D8
  3
DRAWINGVARIABLESDICT
350
20
  3
DWGPROPS
350
16B58
1001
ACAD
1000
TREAT_AS_HARD
1070
     0
  0
DICTIONARY
  5
14EC2
330
2
100
AcDbDictionary
  3
ACAD_LAYERSTATES
360
14EC3
1001
ACAD
1000
TREAT_AS_HARD
1070
     1
  0
DICTIONARY
  5
15BB5
330
E
100
AcDbDictionary
  3
ADSK_XREC_LAYER_RECONCILED
360
15BB6
1001
ACAD
1000
TREAT_AS_HARD
1070
     1
  0
DICTIONARY
  5
15BB7
330
29
100
AcDbDictionary
  3
ADSK_XREC_LAYER_RECONCILED
360
15BB8
1001
ACAD
1000
TREAT_AS_HARD
1070
     1
  0
DICTIONARY
  5
15BB9
330
31
100
AcDbDictionary
  3
ADSK_XREC_LAYER_RECONCILED
360
15BBA
1001
ACAD
1000
TREAT_AS_HARD
1070
     1
  0
DICTIONARY
  5
15BC3
330
101
100
AcDbDictionary
  3
ADSK_XREC_LAYER_RECONCILED
360
15BC4
1001
ACAD
1000
TREAT_AS_HARD
1070
     1
  0
DICTIONARY
  5
15BC5
330
102
100
AcDbDictionary
  3
ADSK_XREC_LAYER_RECONCILED
360
15BC6
1001
ACAD
1000
TREAT_AS_HARD
1070
     1
  0
DICTIONARY
  5
15BC7
330
103
100
AcDbDictionary
  3
ADSK_XREC_LAYER_RECONCILED
360
15BC8
1001
ACAD
1000
TREAT_AS_HARD
1070
     1
  0
DICTIONARY
  5
15BCB
330
25F
100
AcDbDictionary
  3
ADSK_XREC_LAYER_RECONCILED
360
15BCC
1001
ACAD
1000
TREAT_AS_HARD
1070
     1
  0
DICTIONARY
  5
15BE7
330
26D
100
AcDbDictionary
  3
ADSK_XREC_LAYER_RECONCILED
360
15BE8
1001
ACAD
1000
TREAT_AS_HARD
1070
     1
  0
DICTIONARY
  5
6E9
330
18
100
AcDbDictionary
  3
ACAD_SORTENTS
360
6EA
1001
ACAD
1000
TREAT_AS_HARD
1070
     1
  0
DICTIONARY
  5
59B
330
15
100
AcDbDictionary
  3
ACAD_SORTENTS
360
59C
1001
ACAD
1000
TREAT_AS_HARD
1070
     1
  0
DICTIONARY
  5
2D0
102
{ACAD_REACTORS
330
C
102
}
330
C
100
AcDbDictionary
1001
ACAD
1000
TREAT_AS_HARD
1070
     0
  0
DICTIONARY
  5
D
102
{ACAD_REACTORS
330
C
102
}
330
C
100
AcDbDictionary
1001
ACAD
1000
TREAT_AS_HARD
1070
     0
  0
DICTIONARY
  5
2D1
102
{ACAD_REACTORS
330
C
102
}
330
C
100
AcDbDictionary
1001
ACAD
1000
TREAT_AS_HARD
1070
     0
  0
DICTIONARY
  5
2CF
102
{ACAD_REACTORS
330
C
102
}
330
C
100
AcDbDictionary
  3
BYBLOCK
350
15B55
  3
BYLAYER
350
15B4D
  3
GLOBAL
350
15B5D
1001
ACAD
1000
TREAT_AS_HARD
1070
     0
  0
DICTIONARY
  5
15B98
102
{ACAD_REACTORS
330
C
102
}
330
C
100
AcDbDictionary
  3
STANDARD
350
15B99
1001
ACAD
1000
TREAT_AS_HARD
1070
     0
  0
DICTIONARY
  5
1B
102
{ACAD_REACTORS
330
C
102
}
330
C
100
AcDbDictionary
  3
STANDARD
350
1C
1001
ACAD
1000
TREAT_AS_HARD
1070
     0
  0
DICTIONARY
  5
2D2
102
{ACAD_REACTORS
330
C
102
}
330
C
100
AcDbDictionary
1001
ACAD
1000
TREAT_AS_HARD
1070
     0
  0
DICTIONARY
  5
15B76
102
{ACAD_REACTORS
330
C
102
}
330
C
100
AcDbDictionary
  3
A0
350
15B77
  3
A1
350
15B78
  3
A2
350
15B79
  3
A3
350
15B7A
  3
A4
350
15B7B
  3
A5
350
15B7C
  3
A6
350
15B7D
  3
A7
350
15B7E
  3
A8
350
15B7F
  3
A9
350
15B80
  3
B0
350
15B81
  3
B1
350
15B82
  3
B2
350
15B83
  3
B3
350
15B84
  3
B4
350
15B85
  3
B5
350
15B86
  3
B6
350
15B87
  3
B7
350
15B88
  3
B8
350
15B89
  3
B9
350
15B8A
  3
C0
350
15B8B
  3
C1
350
15B8C
  3
C2
350
15B8D
  3
C3
350
15B8E
  3
C4
350
15B8F
  3
C5
350
15B90
  3
C6
350
15B91
  3
C7
350
15B92
  3
C8
350
15B93
  3
C9
350
15B94
  3
D0
350
15B95
  3
D1
350
15B96
  3
D2
350
15B97
1001
ACAD
1000
TREAT_AS_HARD
1070
     0
  0
DICTIONARY
  5
15B65
102
{ACAD_REACTORS
330
C
102
}
330
C
100
AcDbDictionary
  3
2DWIREFRAME
350
15B6B
  3
3D_HIDDEN
350
15B6D
  3
3DWIREFRAME
350
15B6C
  3
BASIC
350
15B6A
  3
BRIGHTEN
350
15B71
  3
COLORCHANGE
350
15B75
  3
CONCEPTUAL
350
15B6E
  3
DIM
350
15B70
  3
EDGECOLOROFF
350
16A3B
  3
FACEPATTERN
350
15B74
  3
FLAT
350
15B66
  3
FLATWITHEDGES
350
15B67
  3
GOURAUD
350
15B68
  3
GOURAUDWITHEDGES
350
15B69
  3
HIDDEN
350
16A38
  3
JITTEROFF
350
16A39
  3
LINEPATTERN
350
15B73
  3
MODELING
350
16A41
  3
OVERHANGOFF
350
16A3A
  3
REALISTIC
350
15B6F
  3
SHADED
350
16A40
  3
SHADED_WITH_EDGES
350
16A3F
  3
SHADES_OF_GRAY
350
16A3C
  3
SKETCHY
350
16A3D
  3
THICKEN
350
15B72
  3
WIREFRAME
350
16A37
  3
X-RAY
350
16A3E
1001
ACAD
1000
TREAT_AS_HARD
1070
     0
  0
DICTIONARY
  5
16B55
102
{ACAD_REACTORS
330
C
102
}
330
C
100
AcDbDictionary
  3
COLORDICT
350
16B56
  3
MATERIALDICT
350
16B57
1001
ACAD
1000
TREAT_AS_HARD
1070
     0
  0
DICTIONARY
  5
37
102
{ACAD_REACTORS
330
C
102
}
330
C
100
AcDbDictionary
  3
CANNOSCALE
350
16AAF
  3
CMLEADERSTYLE
350
15C4B
  3
CTABLESTYLE
350
4F1
  3
DIMADEC
350
38
  3
DIMASSOC
350
408
  3
HIDETEXT
350
1891
  3
INDEXCTL
350
15C4E
  3
INTERSECTIONCOLOR
350
1895
  3
INTERSECTIONDISPLAY
350
1894
  3
MSLTSCALE
350
16AF9
  3
OBSCOLOR
350
1892
  3
OBSLTYPE
350
1893
  3
PROJECTNAME
350
409
  3
SORTENTS
350
15C4D
  3
XCLIPFRAME
350
16AB0
1001
ACAD
1000
TREAT_AS_HARD
1070
     0
  0
DICTIONARY
  5
D8
102
{ACAD_REACTORS
330
C
102
}
330
C
100
AcDbDictionary
1001
CONTENTTABDATA
1070
    11
1000
Child
1000
D:\ACLT\TABset\CHILDREN.dwg
1070
     0
1070
     0
1070
     1
1000
PK
1000
D:\ACLT\TABset\PK.dwg
1070
     0
1070
     0
1070
     1
1000
Lev1
1000
D:\ACLT\TABset\Lever01.dwg
1070
     0
1070
     0
1070
     1
1000
Lev2
1000
D:\ACLT\TABset\Lever02.dwg
1070
     0
1070
     0
1070
     1
1000
L3
1000
D:\Aclt\TABset\Lever03.dwg
1070
     0
1070
     0
1070
     1
1000
Form
1000
D:\ACLT\FORMAT
1070
     1
1070
     0
1070
     1
1000
Jnt
1000
D:\ACLT\TABset\JOINTPARTS.dwg
1070
     0
1070
     0
1070
     1
1000
ISO
1000
D:\ACLT\TABset\Isome01.dwg
1070
     0
1070
     0
1070
     1
1000
R
1000
D:\ACLT\TABset\REGION.dwg
1070
     0
1070
     0
1070
     1
1000
std
1000
D:\ACLT\TABset\std_sym_all.dwg
1070
     0
1070
     0
1070
     1
1000
丸
1000
D:\Aclt\TABset\MARU.dwg
1070
     0
1070
     0
1070
     1
1001
CONTENTCURRENTTAB
1070
     0
1001
ACAD
1000
TREAT_AS_HARD
1070
     0
  0
DICTIONARY
  5
20
102
{ACAD_REACTORS
330
C
102
}
330
C
100
AcDbDictionary
1001
DRAWINGVARIABLESXDATA
1000
POLARANG
1000
0.261799387799149410000000
1000
POLARMODE
1000
1
1000
POLARSTYLE
1000
1
1001
ACAD
1000
TREAT_AS_HARD
1070
     0
  0
XRECORD
  5
16B58
102
{ACAD_REACTORS
330
C
102
}
330
C
100
AcDbXrecord
  1
DWGPROPS COOKIE
  2

  3

  4

  6

  7

  8
619
  9

300
=
301
=
302
=
303
=
304
=
305
=
306
=
307
=
308
=
309
=
 40
0.0
 41
2453033.357663484
 42
2458040.350266655
  1

 90
        0
  0
DICTIONARY
  5
14EC3
102
{ACAD_REACTORS
330
14EC2
102
}
330
14EC2
100
AcDbDictionary
1001
ACAD
1000
TREAT_AS_HARD
1070
     0
  0
ACAD_PROXY_OBJECT
  5
15BB6
102
{ACAD_REACTORS
330
15BB5
102
}
330
15BB5
100
AcDbZombieObject
 90
      499
 91
      517
 93
       34
310
40C8804040
  0
ACAD_PROXY_OBJECT
  5
15BB8
102
{ACAD_REACTORS
330
15BB7
102
}
330
15BB7
100
AcDbZombieObject
 90
      499
 91
      517
 93
       34
310
40C8804040
  0
ACAD_PROXY_OBJECT
  5
15BBA
102
{ACAD_REACTORS
330
15BB9
102
}
330
15BB9
100
AcDbZombieObject
 90
      499
 91
      517
 93
       34
310
40C8804040
  0
ACAD_PROXY_OBJECT
  5
15BC4
102
{ACAD_REACTORS
330
15BC3
102
}
330
15BC3
100
AcDbZombieObject
 90
      499
 91
      517
 93
       34
310
40C8804040
  0
ACAD_PROXY_OBJECT
  5
15BC6
102
{ACAD_REACTORS
330
15BC5
102
}
330
15BC5
100
AcDbZombieObject
 90
      499
 91
      517
 93
       34
310
40C8804040
  0
ACAD_PROXY_OBJECT
  5
15BC8
102
{ACAD_REACTORS
330
15BC7
102
}
330
15BC7
100
AcDbZombieObject
 90
      499
 91
      517
 93
       34
310
40C8804040
  0
ACAD_PROXY_OBJECT
  5
15BCC
102
{ACAD_REACTORS
330
15BCB
102
}
330
15BCB
100
AcDbZombieObject
 90
      499
 91
      517
 93
       34
310
40C8804040
  0
ACAD_PROXY_OBJECT
  5
15BE8
102
{ACAD_REACTORS
330
15BE7
102
}
330
15BE7
100
AcDbZombieObject
 90
      499
 91
      517
 93
       34
310
40C8804040
  0
SORTENTSTABLE
  5
6EA
102
{ACAD_REACTORS
330
6E9
102
}
330
6E9
100
AcDbSortentsTable
330
18
331
16695
  5
1669A
331
16696
  5
166A2
331
16697
  5
166A4
331
16698
  5
166AC
331
16699
  5
166AD
331
1669A
  5
166AE
331
1669B
  5
166AF
331
1669C
  5
166B0
331
1669D
  5
166B2
331
1669F
  5
166B3
331
166A1
  5
166B4
331
166A2
  5
166B5
331
166A4
  5
166B7
331
166A6
  5
166B8
331
166A7
  5
166BA
331
166AC
  5
166BC
331
166AD
  5
166BD
331
166AE
  5
166BE
331
166AF
  5
166BF
331
166B0
  5
166C0
331
166B1
  5
166C1
331
166B2
  5
166C2
331
166B3
  5
166C3
331
166B4
  5
166C4
331
166B5
  5
166C5
331
166B7
  5
166C6
331
166B8
  5
166C7
331
166BA
  5
166CA
331
166BC
  5
166CB
331
166BD
  5
166CC
331
166BE
  5
166D5
331
166BF
  5
166D6
331
166C0
  5
166D7
331
166C1
  5
166D8
331
166C2
  5
166D9
331
166C3
  5
166DD
331
166C4
  5
166DE
331
166C5
  5
166DF
331
166C6
  5
166E0
331
166C7
  5
166E1
331
0
  5
166DA
331
0
  5
166DB
331
166D5
  5
16760
331
166D6
  5
16761
331
166D7
  5
16762
331
166D8
  5
16763
331
166D9
  5
16764
331
166DA
  5
16765
331
166DB
  5
16766
331
166DC
  5
16767
331
166DD
  5
16768
331
166DE
  5
16769
331
166DF
  5
1676A
331
166E0
  5
1676B
331
166E1
  5
1676C
331
166E2
  5
1676D
331
166E3
  5
1676E
331
166E4
  5
1676F
331
166E5
  5
16770
331
16736
  5
16771
331
16737
  5
16772
331
1673A
  5
16773
331
1673D
  5
16774
331
1673E
  5
16775
331
16740
  5
16776
331
16741
  5
16777
331
1674A
  5
16778
331
1674B
  5
16779
331
1674C
  5
1677A
331
1674E
  5
1677B
331
16755
  5
1677C
331
16756
  5
1677D
331
16757
  5
1677E
331
16758
  5
1677F
331
16759
  5
16780
331
1675A
  5
16781
331
1675B
  5
16782
331
1675C
  5
16783
331
1675D
  5
16784
331
1675E
  5
16785
331
1675F
  5
16786
331
16760
  5
16787
331
16761
  5
16788
331
16762
  5
16789
331
16763
  5
1678C
331
16764
  5
1678D
331
16765
  5
1678E
331
16766
  5
16790
331
16767
  5
16791
331
16768
  5
16792
331
16769
  5
1679C
331
1676A
  5
1679D
331
1676B
  5
1679E
331
1676C
  5
167BD
331
1676D
  5
167BE
331
1676E
  5
167BF
331
1676F
  5
167C0
331
16770
  5
16810
331
16771
  5
16811
331
16772
  5
16917
331
16773
  5
16918
331
16774
  5
16919
331
16775
  5
1691A
331
16776
  5
1691B
331
16777
  5
1691C
331
16778
  5
1691D
331
16779
  5
1691E
331
1677A
  5
1691F
331
1677B
  5
16920
331
1677C
  5
16921
331
1677D
  5
16922
331
1677E
  5
16923
331
1677F
  5
16924
331
16780
  5
16925
331
16781
  5
16926
331
16784
  5
16927
331
16785
  5
16928
331
16786
  5
1692C
331
16787
  5
1692D
331
16788
  5
1692E
331
16789
  5
16932
331
1678A
  5
16933
331
1678B
  5
16934
331
1678C
  5
16938
331
1679E
  5
166B1
331
167BD
  5
16939
331
167BE
  5
1693A
331
167BF
  5
1693B
331
167C0
  5
1693C
331
16810
  5
16967
331
16811
  5
16968
331
16917
  5
16978
331
16918
  5
16979
331
16919
  5
1697A
331
1691A
  5
1697B
331
1691B
  5
1697C
331
1691C
  5
1697D
331
1691D
  5
1697E
331
1691E
  5
1697F
331
1691F
  5
16980
331
16920
  5
16981
331
16921
  5
16982
331
16922
  5
16983
331
16923
  5
16984
331
16924
  5
16985
331
16925
  5
16986
331
16926
  5
16987
331
16927
  5
16988
331
16928
  5
16989
331
16929
  5
1698A
331
1692A
  5
1698B
331
1692B
  5
1698C
331
1692C
  5
1698D
331
1692D
  5
1698E
331
1692E
  5
1698F
331
1692F
  5
16990
331
16930
  5
16991
331
16931
  5
16992
331
16932
  5
16993
331
16933
  5
16996
331
16934
  5
16997
331
16935
  5
16998
331
16936
  5
16999
331
16937
  5
1699A
331
16938
  5
1699B
331
16939
  5
1699C
331
1693A
  5
1699D
331
1693B
  5
1699E
331
1693C
  5
16AFD
331
1693D
  5
16AFE
331
1693E
  5
16AFF
331
1693F
  5
16B00
331
16940
  5
16B01
331
16941
  5
16B02
331
16942
  5
16B03
331
16943
  5
16B04
331
16944
  5
16B05
331
16945
  5
16B06
331
16946
  5
16B07
331
16947
  5
16B08
331
16948
  5
16B09
331
16949
  5
16B0A
331
1694A
  5
16B0B
331
1694B
  5
16B0C
331
1694C
  5
16B0D
331
1694D
  5
16B0E
331
1694E
  5
16B0F
331
1694F
  5
16B10
331
16950
  5
16B11
331
16951
  5
16B12
331
16952
  5
16B13
331
16953
  5
16B14
331
16954
  5
16B15
331
16955
  5
16B16
331
16956
  5
16B17
331
16957
  5
16B18
331
16958
  5
16B19
331
16959
  5
16B1A
331
1695C
  5
16B1B
331
1695D
  5
16B1C
331
1695E
  5
16B1D
331
16960
  5
16B1E
331
16967
  5
16B1F
331
16968
  5
16B20
331
16969
  5
16B21
331
1696A
  5
16B22
331
1696B
  5
16B23
331
1696C
  5
16B24
331
1696D
  5
16B25
331
1696E
  5
16B26
331
1696F
  5
16B27
331
16970
  5
16B28
331
16971
  5
16B29
331
16972
  5
16B2A
331
16973
  5
16B2B
331
16974
  5
16B2C
331
16975
  5
16B2D
331
16976
  5
16B2E
331
16977
  5
16B2F
331
16978
  5
16B30
331
16979
  5
16B31
331
1697A
  5
16B32
331
1697B
  5
16B33
331
1697C
  5
16B34
331
1697D
  5
16B35
331
1697E
  5
16B36
331
1697F
  5
16B37
331
16980
  5
16B38
331
16981
  5
16B39
331
16982
  5
16B3A
331
16983
  5
16B3B
331
16984
  5
16B3C
331
16985
  5
16B3D
331
16986
  5
16B3E
331
16987
  5
16B3F
331
16988
  5
16B40
331
16989
  5
16B41
331
1698A
  5
16B42
331
1698B
  5
16B43
331
1698C
  5
16B44
331
1698D
  5
16B45
331
1698E
  5
16B46
331
1698F
  5
16B47
331
16990
  5
16B48
331
16991
  5
16B49
331
16992
  5
16B4A
331
16993
  5
16B4B
331
16996
  5
16B4C
331
16997
  5
16B4D
331
16998
  5
16B4E
331
16999
  5
16B4F
331
1699A
  5
16B50
331
1699B
  5
16B51
331
1699C
  5
16B52
331
1699D
  5
16B53
331
1699E
  5
16B54
331
16AFD
  5
16695
331
16AFE
  5
16696
331
16AFF
  5
16697
331
16B00
  5
16698
331
16B01
  5
16699
331
16B02
  5
166E2
331
16B03
  5
166E3
331
16B04
  5
166E4
331
0
  5
166E5
331
0
  5
16736
331
0
  5
16737
331
16B08
  5
1674D
331
16B09
  5
1674E
331
16B0A
  5
1674F
331
0
  5
16740
331
0
  5
16741
331
0
  5
16748
331
16B0E
  5
1693D
331
16B0F
  5
1693E
331
16B10
  5
1693F
331
0
  5
16929
331
0
  5
1692A
331
0
  5
1692B
331
16B14
  5
1694A
331
16B15
  5
1694B
331
16B16
  5
1694C
331
0
  5
1692F
331
0
  5
16930
331
0
  5
16931
331
16B1A
  5
16954
331
16B1B
  5
16955
331
16B1C
  5
16956
331
0
  5
16935
331
0
  5
16936
331
0
  5
16937
331
16B20
  5
16969
331
16B21
  5
1696A
331
16B22
  5
1696B
331
16B23
  5
1696C
331
16B24
  5
1696D
331
16B25
  5
1696E
331
16B26
  5
1696F
331
16B27
  5
16970
331
0
  5
16942
331
0
  5
16943
331
0
  5
16944
331
16B2B
  5
1673A
331
16B2C
  5
1673D
331
16B2D
  5
1673E
331
16B2E
  5
16749
331
16B2F
  5
1674A
331
16B30
  5
1674B
331
16B31
  5
1674C
331
16B32
  5
16752
331
16B33
  5
16753
331
16B34
  5
16754
331
16B35
  5
16756
331
16B36
  5
1675D
331
16B37
  5
1675E
331
16B38
  5
1675F
331
16B39
  5
16940
331
16B3A
  5
16941
331
16B3B
  5
16945
331
16B3C
  5
16946
331
16B3D
  5
16947
331
16B3E
  5
16948
331
16B3F
  5
16949
331
16B40
  5
1694D
331
16B41
  5
1694E
331
16B42
  5
1694F
331
16B43
  5
16950
331
16B44
  5
16951
331
16B45
  5
16952
331
16B46
  5
16953
331
16B47
  5
16957
331
16B48
  5
16958
331
16B49
  5
16959
331
16B4A
  5
1695C
331
16B4B
  5
1695D
331
16B4C
  5
1695E
331
16B4D
  5
16960
331
16B4E
  5
16971
331
16B4F
  5
16972
331
16B50
  5
16973
331
16B51
  5
16974
331
16B52
  5
16975
331
16B53
  5
16976
331
16B54
  5
16977
  0
SORTENTSTABLE
  5
59C
102
{ACAD_REACTORS
330
59B
102
}
330
59B
100
AcDbSortentsTable
330
15
331
57
  5
57
331
0
  5
70
331
0
  5
15E0C
331
0
  5
15E0D
331
0
  5
15E0E
331
0
  5
15E0F
331
0
  5
15E10
331
0
  5
15E11
331
0
  5
15E12
331
0
  5
15E13
331
0
  5
15E14
331
0
  5
15E15
331
0
  5
15E16
331
0
  5
15E17
331
0
  5
15E18
331
0
  5
15E19
331
0
  5
15E1A
331
0
  5
15FEC
331
0
  5
15FED
331
0
  5
15FEE
331
0
  5
15FEF
331
0
  5
15E1C
331
0
  5
15E1D
331
0
  5
15E1E
331
0
  5
15E1F
331
0
  5
15E20
331
0
  5
15E21
331
0
  5
15E22
331
0
  5
15E23
331
0
  5
15E24
331
0
  5
15E25
331
0
  5
15E26
331
0
  5
15E27
331
0
  5
15E28
331
0
  5
15E29
331
0
  5
15E2A
331
0
  5
15E2B
331
0
  5
15E2C
331
0
  5
15E2D
331
0
  5
15E2E
331
0
  5
15E2F
331
0
  5
15E30
331
0
  5
15E31
331
0
  5
15E32
331
0
  5
15E33
331
0
  5
15E34
331
0
  5
15E35
331
0
  5
15E36
331
0
  5
15E37
331
0
  5
15E38
331
0
  5
15E39
331
0
  5
15E3A
331
0
  5
15E3B
331
0
  5
15E3C
331
0
  5
15E3D
331
0
  5
15E3E
331
0
  5
15E3F
331
0
  5
15E40
331
0
  5
15E41
331
0
  5
15E42
331
0
  5
15E43
331
0
  5
15E44
331
0
  5
15E45
331
0
  5
15E46
331
0
  5
15E47
331
0
  5
15E48
331
0
  5
15E49
331
0
  5
15E4A
331
0
  5
15E4B
331
0
  5
15E4C
331
0
  5
15E4D
331
0
  5
15E4E
331
0
  5
15E4F
331
0
  5
15E50
331
0
  5
15E51
331
0
  5
15E52
331
0
  5
15E53
331
0
  5
15E54
331
0
  5
15E55
331
0
  5
15E56
331
0
  5
15E57
331
0
  5
15E58
331
0
  5
15E59
331
0
  5
15E5A
331
0
  5
15E5B
331
0
  5
15E5C
331
0
  5
15FCD
331
0
  5
15FCE
331
0
  5
15FCF
331
0
  5
15FD0
331
0
  5
15FD1
331
0
  5
15FD2
331
0
  5
15FD3
331
0
  5
15FD4
331
0
  5
15FD5
331
0
  5
15FD6
331
0
  5
15FD7
331
0
  5
15FD8
331
0
  5
15FD9
331
0
  5
15FDA
331
0
  5
15FDB
331
0
  5
15FDC
331
0
  5
15FDD
331
0
  5
15FDE
331
0
  5
15FDF
331
0
  5
15FE0
331
0
  5
15FE1
331
0
  5
15FE2
331
0
  5
15FE3
331
0
  5
15FE4
331
0
  5
15FE5
331
0
  5
15FE6
331
0
  5
15FE7
331
0
  5
15FE8
331
0
  5
15FE9
331
0
  5
15FEA
331
0
  5
15FEB
331
0
  5
15F8E
331
0
  5
15F8F
331
0
  5
15F90
331
0
  5
15F91
331
0
  5
15F92
331
0
  5
15F93
331
0
  5
15F94
331
0
  5
15F95
331
0
  5
15F96
331
0
  5
15F97
331
0
  5
15F98
331
0
  5
15F99
331
0
  5
15F9A
331
0
  5
15F9B
331
0
  5
15F9C
331
0
  5
15F9D
331
0
  5
15F9E
331
0
  5
15F9F
331
0
  5
15FA0
331
0
  5
15FA1
331
0
  5
15FA2
331
0
  5
15FA3
331
0
  5
15FA4
331
0
  5
15FA5
331
0
  5
15FA6
331
0
  5
15FA7
331
0
  5
15FA8
331
0
  5
15FA9
331
0
  5
15FAA
331
0
  5
15FAB
331
0
  5
15FAC
331
0
  5
15FAD
331
0
  5
15FAE
331
0
  5
15FAF
331
0
  5
15FB0
331
0
  5
15FB1
331
0
  5
15FB2
331
0
  5
15FB3
331
0
  5
15FB4
331
0
  5
15FB5
331
0
  5
15FB6
331
0
  5
15FB7
331
0
  5
15FB8
331
0
  5
15FB9
331
0
  5
15FBA
331
0
  5
15FBB
331
0
  5
15FBC
331
0
  5
15FBD
331
0
  5
15FBE
331
0
  5
15FBF
331
0
  5
15FC0
331
0
  5
15FC1
331
0
  5
15FC2
331
0
  5
15FC3
331
0
  5
15FC4
331
0
  5
15FC5
331
0
  5
15FC6
331
0
  5
15FC7
331
0
  5
15FC8
331
0
  5
15FC9
331
0
  5
15FCA
331
0
  5
15FCB
331
0
  5
15FCC
331
0
  5
15F51
331
0
  5
15F52
331
0
  5
15F53
331
0
  5
15F54
331
0
  5
15F55
331
0
  5
15F56
331
0
  5
15F57
331
0
  5
15F58
331
0
  5
15F59
331
0
  5
15F5A
331
0
  5
15F5B
331
0
  5
15F5C
331
0
  5
15F5D
331
0
  5
15F5E
331
0
  5
15F5F
331
0
  5
15F60
331
0
  5
15F61
331
0
  5
15F62
331
0
  5
15F63
331
0
  5
15F64
331
0
  5
15F65
331
0
  5
15F66
331
0
  5
15F67
331
0
  5
15F68
331
0
  5
15F69
331
0
  5
15F6A
331
0
  5
15F6B
331
0
  5
15F6C
331
0
  5
15F6D
331
0
  5
15F6E
331
0
  5
15F6F
331
0
  5
15F70
331
0
  5
15F71
331
0
  5
15F72
331
0
  5
15F73
331
0
  5
15F74
331
0
  5
15F75
331
0
  5
15F76
331
0
  5
15F77
331
0
  5
15F78
331
0
  5
15F79
331
0
  5
15F7A
331
0
  5
15F7B
331
0
  5
15F7C
331
0
  5
15F7D
331
0
  5
15F7E
331
0
  5
15F7F
331
0
  5
15F80
331
0
  5
15F81
331
0
  5
15F82
331
0
  5
15F83
331
0
  5
15F84
331
0
  5
15F85
331
0
  5
15F86
331
0
  5
15F87
331
0
  5
15F88
331
0
  5
15F89
331
0
  5
15F8A
331
0
  5
15F8B
331
0
  5
15F8C
331
0
  5
15F8D
331
0
  5
15F01
331
0
  5
15F02
331
0
  5
15F03
331
0
  5
15F04
331
0
  5
15F05
331
0
  5
15F06
331
0
  5
15F07
331
0
  5
15F08
331
0
  5
15F09
331
0
  5
15F0A
331
0
  5
15F0B
331
0
  5
15F0C
331
0
  5
15F0D
331
0
  5
15F0E
331
0
  5
15F0F
331
0
  5
15F10
331
0
  5
15F11
331
0
  5
15F12
331
0
  5
15F13
331
0
  5
15F14
331
0
  5
15F15
331
0
  5
15F16
331
0
  5
15F17
331
0
  5
15F18
331
0
  5
15F19
331
0
  5
15F1A
331
0
  5
15F1B
331
0
  5
15F1C
331
0
  5
15F1D
331
0
  5
15F1E
331
0
  5
15F1F
331
0
  5
15F20
331
0
  5
15F21
331
0
  5
15F22
331
0
  5
15F23
331
0
  5
15F24
331
0
  5
15F25
331
0
  5
15F26
331
0
  5
15F27
331
0
  5
15F28
331
0
  5
15F29
331
0
  5
15F2A
331
0
  5
15F2B
331
0
  5
15F2C
331
0
  5
15F2D
331
0
  5
15F2E
331
0
  5
15F2F
331
0
  5
15F30
331
0
  5
15F31
331
0
  5
15F32
331
0
  5
15F33
331
0
  5
15F34
331
0
  5
15F35
331
0
  5
15F36
331
0
  5
15F37
331
0
  5
15F38
331
0
  5
15F39
331
0
  5
15F3A
331
0
  5
15F3B
331
0
  5
15F3C
331
0
  5
15F3D
331
0
  5
15F3E
331
0
  5
15F3F
331
0
  5
15F40
331
0
  5
15F41
331
0
  5
15F42
331
0
  5
15F43
331
0
  5
15F44
331
0
  5
15F45
331
0
  5
15F46
331
0
  5
15F47
331
0
  5
15F48
331
0
  5
15F49
331
0
  5
15F4A
331
0
  5
15F4B
331
0
  5
15F4C
331
0
  5
15F4D
331
0
  5
15F4E
331
0
  5
15F4F
331
0
  5
15F50
331
0
  5
15EB0
331
0
  5
15EB1
331
0
  5
15EB2
331
0
  5
15EB3
331
0
  5
15EB4
331
0
  5
15EB5
331
0
  5
15EB6
331
0
  5
15EB7
331
0
  5
15EB8
331
0
  5
15EB9
331
0
  5
15EBA
331
0
  5
15EBB
331
0
  5
15EBC
331
0
  5
15EBD
331
0
  5
15EBE
331
0
  5
15EBF
331
0
  5
15EC0
331
0
  5
15EC1
331
0
  5
15EC2
331
0
  5
15EC3
331
0
  5
15EC4
331
0
  5
15EC5
331
0
  5
15EC6
331
0
  5
15EC7
331
0
  5
15EC8
331
0
  5
15EC9
331
0
  5
15ECA
331
0
  5
15ECB
331
0
  5
15ECC
331
0
  5
15ECD
331
0
  5
15ECE
331
0
  5
15ECF
331
0
  5
15ED0
331
0
  5
15ED1
331
0
  5
15ED2
331
0
  5
15ED3
331
0
  5
15ED4
331
0
  5
15ED5
331
0
  5
15ED6
331
0
  5
15ED7
331
0
  5
15ED8
331
0
  5
15ED9
331
0
  5
15EDA
331
0
  5
15EDB
331
0
  5
15EDC
331
0
  5
15EDD
331
0
  5
15EDE
331
0
  5
15EDF
331
0
  5
15EE0
331
0
  5
15EE1
331
0
  5
15EE2
331
0
  5
15EE3
331
0
  5
15EE4
331
0
  5
15EE5
331
0
  5
15EE6
331
0
  5
15EE7
331
0
  5
15EE8
331
0
  5
15EE9
331
0
  5
15EEA
331
0
  5
15EEB
331
0
  5
15EEC
331
0
  5
15EED
331
0
  5
15EEE
331
0
  5
15EEF
331
0
  5
15EF0
331
0
  5
15EF1
331
0
  5
15EF2
331
0
  5
15EF3
331
0
  5
15EF4
331
0
  5
15EF5
331
0
  5
15EF6
331
0
  5
15EF7
331
0
  5
15EF8
331
0
  5
15EF9
331
0
  5
15EFA
331
0
  5
15EFB
331
0
  5
15EFC
331
0
  5
15EFD
331
0
  5
15EFE
331
0
  5
15EFF
331
0
  5
15F00
331
0
  5
15E63
331
0
  5
15E64
331
0
  5
15E65
331
0
  5
15E66
331
0
  5
15E67
331
0
  5
15E68
331
0
  5
15E69
331
0
  5
15E6A
331
0
  5
15E6B
331
0
  5
15E6C
331
0
  5
15E6D
331
0
  5
15E6E
331
0
  5
15E6F
331
0
  5
15E70
331
0
  5
15E71
331
0
  5
15E72
331
0
  5
15E73
331
0
  5
15E74
331
0
  5
15E75
331
0
  5
15E76
331
0
  5
15E77
331
0
  5
15E78
331
0
  5
15E79
331
0
  5
15E7A
331
0
  5
15E7B
331
0
  5
15E7C
331
0
  5
15E7D
331
0
  5
15E7E
331
0
  5
15E7F
331
0
  5
15E80
331
0
  5
15E81
331
0
  5
15E82
331
0
  5
15E83
331
0
  5
15E84
331
0
  5
15E85
331
0
  5
15E86
331
0
  5
15E87
331
0
  5
15E88
331
0
  5
15E89
331
0
  5
15E8A
331
0
  5
15E8B
331
0
  5
15E8C
331
0
  5
15E8D
331
0
  5
15E8E
331
0
  5
15E8F
331
0
  5
15E90
331
0
  5
15E91
331
0
  5
15E92
331
0
  5
15E93
331
0
  5
15E94
331
0
  5
15E95
331
0
  5
15E96
331
0
  5
15E97
331
0
  5
15E98
331
0
  5
15E99
331
0
  5
15E9A
331
0
  5
15E9B
331
0
  5
15E9C
331
0
  5
15E9D
331
0
  5
15E9E
331
0
  5
15E9F
331
0
  5
15EA0
331
0
  5
15EA1
331
0
  5
15EA2
331
0
  5
15EA3
331
0
  5
15EA4
331
0
  5
15EA5
331
0
  5
15EA6
331
0
  5
15EA7
331
0
  5
15EA8
331
0
  5
15EA9
331
0
  5
15EAA
331
0
  5
15EAB
331
0
  5
15EAC
331
0
  5
15EAD
331
0
  5
15EAE
331
0
  5
15EAF
  0
MATERIAL
  5
15B55
102
{ACAD_REACTORS
330
2CF
102
}
102
{ACAD_XDICTIONARY
360
16B59
102
}
330
2CF
100
AcDbMaterial
  1
BYBLOCK
 72
     0
 73
     2
 43
0.0208333333333333
 43
0.0
 43
0.0
 43
0.0
 43
0.0
 43
0.0208333333333333
 43
0.0
 43
0.0
 43
0.0
 43
0.0
 43
1.0
 43
0.0
 43
0.0
 43
0.0
 43
0.0
 43
1.0
 77
     0
 78
     2
 47
0.0208333333333333
 47
0.0
 47
0.0
 47
0.0
 47
0.0
 47
0.0208333333333333
 47
0.0
 47
0.0
 47
0.0
 47
0.0
 47
1.0
 47
0.0
 47
0.0
 47
0.0
 47
0.0
 47
1.0
171
     0
172
     2
 49
0.0208333333333333
 49
0.0
 49
0.0
 49
0.0
 49
0.0
 49
0.0208333333333333
 49
0.0
 49
0.0
 49
0.0
 49
0.0
 49
1.0
 49
0.0
 49
0.0
 49
0.0
 49
0.0
 49
1.0
175
     0
176
     2
142
0.0208333333333333
142
0.0
142
0.0
142
0.0
142
0.0
142
0.0208333333333333
142
0.0
142
0.0
142
0.0
142
0.0
142
1.0
142
0.0
142
0.0
142
0.0
142
0.0
142
1.0
179
     0
270
     2
144
0.0208333333333333
144
0.0
144
0.0
144
0.0
144
0.0
144
0.0208333333333333
144
0.0
144
0.0
144
0.0
144
0.0
144
1.0
144
0.0
144
0.0
144
0.0
144
0.0
144
1.0
274
     2
147
0.0208333333333333
147
0.0
147
0.0
147
0.0
147
0.0
147
0.0208333333333333
147
0.0
147
0.0
147
0.0
147
0.0
147
1.0
147
0.0
147
0.0
147
0.0
147
0.0
147
1.0
  0
MATERIAL
  5
15B4D
102
{ACAD_REACTORS
330
2CF
102
}
102
{ACAD_XDICTIONARY
360
16B5B
102
}
330
2CF
100
AcDbMaterial
  1
BYLAYER
 72
     0
 73
     2
 43
0.0208333333333333
 43
0.0
 43
0.0
 43
0.0
 43
0.0
 43
0.0208333333333333
 43
0.0
 43
0.0
 43
0.0
 43
0.0
 43
1.0
 43
0.0
 43
0.0
 43
0.0
 43
0.0
 43
1.0
 77
     0
 78
     2
 47
0.0208333333333333
 47
0.0
 47
0.0
 47
0.0
 47
0.0
 47
0.0208333333333333
 47
0.0
 47
0.0
 47
0.0
 47
0.0
 47
1.0
 47
0.0
 47
0.0
 47
0.0
 47
0.0
 47
1.0
171
     0
172
     2
 49
0.0208333333333333
 49
0.0
 49
0.0
 49
0.0
 49
0.0
 49
0.0208333333333333
 49
0.0
 49
0.0
 49
0.0
 49
0.0
 49
1.0
 49
0.0
 49
0.0
 49
0.0
 49
0.0
 49
1.0
175
     0
176
     2
142
0.0208333333333333
142
0.0
142
0.0
142
0.0
142
0.0
142
0.0208333333333333
142
0.0
142
0.0
142
0.0
142
0.0
142
1.0
142
0.0
142
0.0
142
0.0
142
0.0
142
1.0
179
     0
270
     2
144
0.0208333333333333
144
0.0
144
0.0
144
0.0
144
0.0
144
0.0208333333333333
144
0.0
144
0.0
144
0.0
144
0.0
144
1.0
144
0.0
144
0.0
144
0.0
144
0.0
144
1.0
274
     2
147
0.0208333333333333
147
0.0
147
0.0
147
0.0
147
0.0
147
0.0208333333333333
147
0.0
147
0.0
147
0.0
147
0.0
147
1.0
147
0.0
147
0.0
147
0.0
147
0.0
147
1.0
  0
MATERIAL
  5
15B5D
102
{ACAD_REACTORS
330
2CF
102
}
102
{ACAD_XDICTIONARY
360
16B5D
102
}
330
2CF
100
AcDbMaterial
  1
GLOBAL
 72
     0
 73
     2
 43
0.0208333333333333
 43
0.0
 43
0.0
 43
0.0
 43
0.0
 43
0.0208333333333333
 43
0.0
 43
0.0
 43
0.0
 43
0.0
 43
1.0
 43
0.0
 43
0.0
 43
0.0
 43
0.0
 43
1.0
 77
     0
 78
     2
 47
0.0208333333333333
 47
0.0
 47
0.0
 47
0.0
 47
0.0
 47
0.0208333333333333
 47
0.0
 47
0.0
 47
0.0
 47
0.0
 47
1.0
 47
0.0
 47
0.0
 47
0.0
 47
0.0
 47
1.0
171
     0
172
     2
 49
0.0208333333333333
 49
0.0
 49
0.0
 49
0.0
 49
0.0
 49
0.0208333333333333
 49
0.0
 49
0.0
 49
0.0
 49
0.0
 49
1.0
 49
0.0
 49
0.0
 49
0.0
 49
0.0
 49
1.0
175
     0
176
     2
142
0.0208333333333333
142
0.0
142
0.0
142
0.0
142
0.0
142
0.0208333333333333
142
0.0
142
0.0
142
0.0
142
0.0
142
1.0
142
0.0
142
0.0
142
0.0
142
0.0
142
1.0
179
     0
270
     2
144
0.0208333333333333
144
0.0
144
0.0
144
0.0
144
0.0
144
0.0208333333333333
144
0.0
144
0.0
144
0.0
144
0.0
144
1.0
144
0.0
144
0.0
144
0.0
144
0.0
144
1.0
274
     2
147
0.0208333333333333
147
0.0
147
0.0
147
0.0
147
0.0
147
0.0208333333333333
147
0.0
147
0.0
147
0.0
147
0.0
147
1.0
147
0.0
147
0.0
147
0.0
147
0.0
147
1.0
  0
ACAD_PROXY_OBJECT
  5
15B99
102
{ACAD_REACTORS
330
15B98
102
}
330
15B98
100
AcDbZombieObject
 90
      499
 91
      512
 93
      610
310
40901902A4063FBFFFFFE000000000000002040AD7A3703D0AD73F4214DD185B99185C990000000000000104090141901A00000000000004100000000000000041025764000000000000300FC0
340
12
340
0
340
F
340
0
 94
        0
1001
ACAD_MLEADERVER
1070
     2
  0
MLINESTYLE
  5
1C
102
{ACAD_REACTORS
330
1B
102
}
330
1B
100
AcDbMlineStyle
  2
STANDARD
 70
     0
  3

 62
   256
 51
90.0
 52
90.0
 71
     2
 49
0.5
 62
   256
  6
BYLAYER
 49
-0.5
 62
   256
  6
BYLAYER
  0
ACAD_PROXY_OBJECT
  5
15B77
102
{ACAD_REACTORS
330
15B76
102
}
330
15B76
100
AcDbZombieObject
 90
      499
 91
      511
 93
       41
310
903313A31580
  0
ACAD_PROXY_OBJECT
  5
15B78
102
{ACAD_REACTORS
330
15B76
102
}
330
15B76
100
AcDbZombieObject
 90
      499
 91
      511
 93
      105
310
903313A324000000000000004000
  0
ACAD_PROXY_OBJECT
  5
15B79
102
{ACAD_REACTORS
330
15B76
102
}
330
15B76
100
AcDbZombieObject
 90
      499
 91
      511
 93
      105
310
903313A344000000000000104000
  0
ACAD_PROXY_OBJECT
  5
15B7A
102
{ACAD_REACTORS
330
15B76
102
}
330
15B76
100
AcDbZombieObject
 90
      499
 91
      511
 93
      105
310
903313A354000000000000144000
  0
ACAD_PROXY_OBJECT
  5
15B7B
102
{ACAD_REACTORS
330
15B76
102
}
330
15B76
100
AcDbZombieObject
 90
      499
 91
      511
 93
      105
310
903313A384000000000000204000
  0
ACAD_PROXY_OBJECT
  5
15B7C
102
{ACAD_REACTORS
330
15B76
102
}
330
15B76
100
AcDbZombieObject
 90
      499
 91
      511
 93
      113
310
904313A31304000000000000244000
  0
ACAD_PROXY_OBJECT
  5
15B7D
102
{ACAD_REACTORS
330
15B76
102
}
330
15B76
100
AcDbZombieObject
 90
      499
 91
      511
 93
      113
310
904313A31364000000000000304000
  0
ACAD_PROXY_OBJECT
  5
15B7E
102
{ACAD_REACTORS
330
15B76
102
}
330
15B76
100
AcDbZombieObject
 90
      499
 91
      511
 93
      113
310
904313A32304000000000000344000
  0
ACAD_PROXY_OBJECT
  5
15B7F
102
{ACAD_REACTORS
330
15B76
102
}
330
15B76
100
AcDbZombieObject
 90
      499
 91
      511
 93
      113
310
904313A333040000000000003E4000
  0
ACAD_PROXY_OBJECT
  5
15B80
102
{ACAD_REACTORS
330
15B76
102
}
330
15B76
100
AcDbZombieObject
 90
      499
 91
      511
 93
      113
310
904313A34304000000000000444000
  0
ACAD_PROXY_OBJECT
  5
15B81
102
{ACAD_REACTORS
330
15B76
102
}
330
15B76
100
AcDbZombieObject
 90
      499
 91
      511
 93
      113
310
904313A35304000000000000494000
  0
ACAD_PROXY_OBJECT
  5
15B82
102
{ACAD_REACTORS
330
15B76
102
}
330
15B76
100
AcDbZombieObject
 90
      499
 91
      511
 93
      121
310
905313A3130304000000000000594000
  0
ACAD_PROXY_OBJECT
  5
15B83
102
{ACAD_REACTORS
330
15B76
102
}
330
15B76
100
AcDbZombieObject
 90
      499
 91
      511
 93
      105
310
903323A310000000000000010100
  0
ACAD_PROXY_OBJECT
  5
15B84
102
{ACAD_REACTORS
330
15B76
102
}
330
15B76
100
AcDbZombieObject
 90
      499
 91
      511
 93
      105
310
903343A310000000000000410100
  0
ACAD_PROXY_OBJECT
  5
15B85
102
{ACAD_REACTORS
330
15B76
102
}
330
15B76
100
AcDbZombieObject
 90
      499
 91
      511
 93
      105
310
903383A310000000000000810100
  0
ACAD_PROXY_OBJECT
  5
15B86
102
{ACAD_REACTORS
330
15B76
102
}
330
15B76
100
AcDbZombieObject
 90
      499
 91
      511
 93
      113
310
90431303A310000000000000910100
  0
ACAD_PROXY_OBJECT
  5
15B87
102
{ACAD_REACTORS
330
15B76
102
}
330
15B76
100
AcDbZombieObject
 90
      499
 91
      511
 93
      121
310
9053130303A310000000000001650100
  0
ACAD_PROXY_OBJECT
  5
15B88
102
{ACAD_REACTORS
330
15B76
102
}
330
15B76
100
AcDbZombieObject
 90
      499
 91
      511
 93
      257
310
90E312F31323822203D2031272D3022000000000000200FC000000000000284000
  0
ACAD_PROXY_OBJECT
  5
15B89
102
{ACAD_REACTORS
330
15B76
102
}
330
15B76
100
AcDbZombieObject
 90
      499
 91
      511
 93
      249
310
90D312F363422203D2031272D3022000000000000240FC000000000000284000
  0
ACAD_PROXY_OBJECT
  5
15B8A
102
{ACAD_REACTORS
330
15B76
102
}
330
15B76
100
AcDbZombieObject
 90
      499
 91
      511
 93
      249
310
90D312F333222203D2031272D3022000000000000280FC000000000000284000
  0
ACAD_PROXY_OBJECT
  5
15B8B
102
{ACAD_REACTORS
330
15B76
102
}
330
15B76
100
AcDbZombieObject
 90
      499
 91
      511
 93
      249
310
90D312F313622203D2031272D30220000000000002C0FC000000000000284000
  0
ACAD_PROXY_OBJECT
  5
15B8C
102
{ACAD_REACTORS
330
15B76
102
}
330
15B76
100
AcDbZombieObject
 90
      499
 91
      511
 93
      249
310
90D332F333222203D2031272D30220000000000002E0FC000000000000284000
  0
ACAD_PROXY_OBJECT
  5
15B8D
102
{ACAD_REACTORS
330
15B76
102
}
330
15B76
100
AcDbZombieObject
 90
      499
 91
      511
 93
      241
310
90C312F3822203D2031272D3022000000000000300FC000000000000284000
  0
ACAD_PROXY_OBJECT
  5
15B8E
102
{ACAD_REACTORS
330
15B76
102
}
330
15B76
100
AcDbZombieObject
 90
      499
 91
      511
 93
      249
310
90D332F313622203D2031272D3022000000000000320FC000000000000284000
  0
ACAD_PROXY_OBJECT
  5
15B8F
102
{ACAD_REACTORS
330
15B76
102
}
330
15B76
100
AcDbZombieObject
 90
      499
 91
      511
 93
      241
310
90C312F3422203D2031272D3022000000000000340FC000000000000284000
  0
ACAD_PROXY_OBJECT
  5
15B90
102
{ACAD_REACTORS
330
15B76
102
}
330
15B76
100
AcDbZombieObject
 90
      499
 91
      511
 93
      241
310
90C332F3822203D2031272D3022000000000000360FC000000000000284000
  0
ACAD_PROXY_OBJECT
  5
15B91
102
{ACAD_REACTORS
330
15B76
102
}
330
15B76
100
AcDbZombieObject
 90
      499
 91
      511
 93
      241
310
90C312F3222203D2031272D3022000000000000380FC000000000000284000
  0
ACAD_PROXY_OBJECT
  5
15B92
102
{ACAD_REACTORS
330
15B76
102
}
330
15B76
100
AcDbZombieObject
 90
      499
 91
      511
 93
      241
310
90C332F3422203D2031272D30220000000000003A0FC000000000000284000
  0
ACAD_PROXY_OBJECT
  5
15B93
102
{ACAD_REACTORS
330
15B76
102
}
330
15B76
100
AcDbZombieObject
 90
      499
 91
      511
 93
      161
310
90A3122203D2031272D30224000000000000284000
  0
ACAD_PROXY_OBJECT
  5
15B94
102
{ACAD_REACTORS
330
15B76
102
}
330
15B76
100
AcDbZombieObject
 90
      499
 91
      511
 93
      257
310
90E312D312F3222203D2031272D30220000000000003E0FC000000000000284000
  0
ACAD_PROXY_OBJECT
  5
15B95
102
{ACAD_REACTORS
330
15B76
102
}
330
15B76
100
AcDbZombieObject
 90
      499
 91
      511
 93
      225
310
90A3322203D2031272D302200000000000002100000000000000284000
  0
ACAD_PROXY_OBJECT
  5
15B96
102
{ACAD_REACTORS
330
15B76
102
}
330
15B76
100
AcDbZombieObject
 90
      499
 91
      511
 93
      225
310
90A3622203D2031272D302200000000000006100000000000000284000
  0
ACAD_PROXY_OBJECT
  5
15B97
102
{ACAD_REACTORS
330
15B76
102
}
330
15B76
100
AcDbZombieObject
 90
      499
 91
      511
 93
      249
310
90D31272D3022203D2031272D30220000000000000A100000000000000284000
  0
ACAD_PROXY_OBJECT
  5
15B6B
102
{ACAD_REACTORS
330
15B65
102
}
330
15B65
100
AcDbZombieObject
 90
      499
 91
      510
 93
      436
310
42CC9915DA5C99599C985B595049028333333333333E3BF0000000000000FB0107901411070040501600405405064090741402480A0340
1001
ACAD
1000
AcDbSavedByObjectVersion
1070
     0
  0
ACAD_PROXY_OBJECT
  5
15B6D
102
{ACAD_REACTORS
330
15B65
102
}
330
15B65
100
AcDbZombieObject
 90
      499
 91
      510
 93
      500
310
424CD108121A5919195B90640502408333333333333E3BF0000000000000FB01079024090700405020000000000001110200405405064090740C02480A0340
1001
ACAD
1000
AcDbSavedByObjectVersion
1070
     0
  0
ACAD_PROXY_OBJECT
  5
15B6C
102
{ACAD_REACTORS
330
15B65
102
}
330
15B65
100
AcDbZombieObject
 90
      499
 91
      510
 93
      436
310
42CCD915DA5C99599C985B595059028333333333333E3BF0000000000000FB0107901411070040501600405405064090741402480A0340
1001
ACAD
1000
AcDbSavedByObjectVersion
1070
     0
  0
ACAD_PROXY_OBJECT
  5
15B6A
102
{ACAD_REACTORS
330
15B65
102
}
330
15B65
100
AcDbZombieObject
 90
      499
 91
      510
 93
      388
310
4150985CDA58D07406404333333333333E3BF0000000000000FB0107A41107004050150841D405064090741402480A0350
1001
ACAD
1000
AcDbSavedByObjectVersion
1070
     0
  0
ACAD_PROXY_OBJECT
  5
15B71
102
{ACAD_REACTORS
330
15B65
102
}
330
15B65
100
AcDbZombieObject
 90
      499
 91
      510
 93
      428
310
42109C9A59DA1D195B90C409028333333333333E3BF0000000000000FB010790141107004050150841D405064090741402480A029950
1001
ACAD
1000
AcDbSavedByObjectVersion
1070
     0
  0
ACAD_PROXY_OBJECT
  5
15B75
102
{ACAD_REACTORS
330
15B65
102
}
330
15B65
100
AcDbZombieObject
 90
      499
 91
      510
 93
      452
310
42D0DBDB1BDC90DA185B99D95104090240C333333333333E3BF0000000000000FB0108901411070040501508421405064090741402480A0350
1001
ACAD
1000
AcDbSavedByObjectVersion
1070
     0
  0
ACAD_PROXY_OBJECT
  5
15B6E
102
{ACAD_REACTORS
330
15B65
102
}
330
15B65
100
AcDbZombieObject
 90
      499
 91
      510
 93
      500
310
4290DBDB98D95C1D1D585B10940D028333333333333E3BF0000000000000FB0107902409070040501000000000000111010841D405064090740C02480A0340
1001
ACAD
1000
AcDbSavedByObjectVersion
1070
     0
  0
ACAD_PROXY_OBJECT
  5
15B70
102
{ACAD_REACTORS
330
15B65
102
}
330
15B65
100
AcDbZombieObject
 90
      499
 91
      510
 93
      412
310
40D11A5B50B409028333333333333E3BF0000000000000FB010790141107004050150841D405064090741402480A02677FFFFFD0
1001
ACAD
1000
AcDbSavedByObjectVersion
1070
     0
  0
ACAD_PROXY_OBJECT
  5
16A3B
102
{ACAD_REACTORS
330
15B65
102
}
330
15B65
100
AcDbZombieObject
 90
      499
 91
      510
 93
      452
310
43115919D950DBDB1BDC93D999916409028333333333333E33F0000000000000F9010790141107004050150841D405064090741402480A0350
1001
ACAD
1000
AcDbSavedByObjectVersion
1070
     0
  0
ACAD_PROXY_OBJECT
  5
15B74
102
{ACAD_REACTORS
330
15B65
102
}
330
15B65
100
AcDbZombieObject
 90
      499
 91
      510
 93
      444
310
42D19858D95C185D1D195C9B90F409028333333333333E3BF0000000000000FB010790141107004050150841D405064090741402480A0350
1001
ACAD
1000
AcDbSavedByObjectVersion
1070
     0
  0
ACAD_PROXY_OBJECT
  5
15B66
102
{ACAD_REACTORS
330
15B65
102
}
330
15B65
100
AcDbZombieObject
 90
      499
 91
      510
 93
      388
310
41119B185D240901404333333333333E3BF0000000000000F9010740A41107004050150841D405064090741402480A1B50
1001
ACAD
1000
AcDbSavedByObjectVersion
1070
     0
  0
ACAD_PROXY_OBJECT
  5
15B67
102
{ACAD_REACTORS
330
15B65
102
}
330
15B65
100
AcDbZombieObject
 90
      499
 91
      510
 93
      476
310
43519B185D15DA5D1A115919D95CD0140901404333333333333E3BF0000000000000F9010740901411070040501600405405064090741402480A1B50
1001
ACAD
1000
AcDbSavedByObjectVersion
1070
     0
  0
ACAD_PROXY_OBJECT
  5
15B68
102
{ACAD_REACTORS
330
15B65
102
}
330
15B65
100
AcDbZombieObject
 90
      499
 91
      510
 93
      412
310
41D1DBDD5C985D5910240902404333333333333E3BF0000000000000F9010740A411070040501641D405064090741402480A1B50
1001
ACAD
1000
AcDbSavedByObjectVersion
1070
     0
  0
ACAD_PROXY_OBJECT
  5
15B69
102
{ACAD_REACTORS
330
15B65
102
}
330
15B65
100
AcDbZombieObject
 90
      499
 91
      510
 93
      500
310
4411DBDD5C985D5915DA5D1A115919D95CD0340902404333333333333E3BF0000000000000F9010740901411070040501600405405064090741402480A1B50
1001
ACAD
1000
AcDbSavedByObjectVersion
1070
     0
  0
ACAD_PROXY_OBJECT
  5
16A38
102
{ACAD_REACTORS
330
15B65
102
}
330
15B65
100
AcDbZombieObject
 90
      499
 91
      510
 93
      476
310
41921A5919195B90640502408333333333333E33F0000000000000F901079024090700405020000000000001110200405405064090740C02480A0340
1001
ACAD
1000
AcDbSavedByObjectVersion
1070
     0
  0
ACAD_PROXY_OBJECT
  5
16A39
102
{ACAD_REACTORS
330
15B65
102
}
330
15B65
100
AcDbZombieObject
 90
      499
 91
      510
 93
      428
310
42529A5D1D195C93D999914409028333333333333E33F0000000000000F9010790141107004050150A41D405064090741402480A0350
1001
ACAD
1000
AcDbSavedByObjectVersion
1070
     0
  0
ACAD_PROXY_OBJECT
  5
15B73
102
{ACAD_REACTORS
330
15B65
102
}
330
15B65
100
AcDbZombieObject
 90
      499
 91
      510
 93
      444
310
42D31A5B995C185D1D195C9B90E409028333333333333E3BF0000000000000FB010790141107004050750841D405064090741402483A0350
1001
ACAD
1000
AcDbSavedByObjectVersion
1070
     0
  0
ACAD_PROXY_OBJECT
  5
16A41
102
{ACAD_REACTORS
330
15B65
102
}
330
15B65
100
AcDbZombieObject
 90
      499
 91
      510
 93
      484
310
42135BD9195B1A5B99D0A409038333333333333E33F0000000000000F901074090290700405010000000000201990108421405064090741402480A1B40
1001
ACAD
1000
AcDbSavedByObjectVersion
1070
     0
  0
ACAD_PROXY_OBJECT
  5
16A3A
102
{ACAD_REACTORS
330
15B65
102
}
330
15B65
100
AcDbZombieObject
 90
      499
 91
      510
 93
      444
310
42D3DD995C9A185B99D3D999915409028333333333333E33F0000000000000F9010790141107004050150941D405064090741402480A0350
1001
ACAD
1000
AcDbSavedByObjectVersion
1070
     0
  0
ACAD_PROXY_OBJECT
  5
15B6F
102
{ACAD_REACTORS
330
15B65
102
}
330
15B65
100
AcDbZombieObject
 90
      499
 91
      510
 93
      420
310
425499585B1A5CDD1A58D08409028333333333333E3BF0000000000000FB01079019070040501508421405064090741402480A1B40
1001
ACAD
1000
AcDbSavedByObjectVersion
1070
     0
  0
ACAD_PROXY_OBJECT
  5
16A40
102
{ACAD_REACTORS
330
15B65
102
}
330
15B65
100
AcDbZombieObject
 90
      499
 91
      510
 93
      420
310
4194DA1859195911B40902404333333333333E33F0000000000000F9010740A41107004050150800405405064090840C02480A0B40
1001
ACAD
1000
AcDbSavedByObjectVersion
1070
     0
  0
ACAD_PROXY_OBJECT
  5
16A3F
102
{ACAD_REACTORS
330
15B65
102
}
330
15B65
100
AcDbZombieObject
 90
      499
 91
      510
 93
      516
310
4454DA18591959081DDA5D1A08195919D95CD1A40902404333333333333E33F0000000000000F901074090142907004050250800405405064090740C02480A0B40
1001
ACAD
1000
AcDbSavedByObjectVersion
1070
     0
  0
ACAD_PROXY_OBJECT
  5
16A3C
102
{ACAD_REACTORS
330
15B65
102
}
330
15B65
100
AcDbZombieObject
 90
      499
 91
      510
 93
      532
310
4394DA1859195CC81BD98811DC985E5174090240C333333333333E33F0000000000000F901079024090741D01000000000000111010841D405064090740C02480A0340
1001
ACAD
1000
AcDbSavedByObjectVersion
1070
     0
  0
ACAD_PROXY_OBJECT
  5
16A3D
102
{ACAD_REACTORS
330
15B65
102
}
330
15B65
100
AcDbZombieObject
 90
      499
 91
      510
 93
      476
310
41D4DAD95D18DA1E51840502408333333333333E33F0000000000000F901079024090741D01000000000000111010B41D405064090741802480A0340
1001
ACAD
1000
AcDbSavedByObjectVersion
1070
     0
  0
ACAD_PROXY_OBJECT
  5
15B72
102
{ACAD_REACTORS
330
15B65
102
}
330
15B65
100
AcDbZombieObject
 90
      499
 91
      510
 93
      412
310
41D51A1A58DAD95B90D409028333333333333E3BF0000000000000FB010790141107004050150C41D405064090741402480A0350
1001
ACAD
1000
AcDbSavedByObjectVersion
1070
     0
  0
ACAD_PROXY_OBJECT
  5
16A37
102
{ACAD_REACTORS
330
15B65
102
}
330
15B65
100
AcDbZombieObject
 90
      499
 91
      510
 93
      420
310
4255DA5C99599C985B595059028333333333333E33F0000000000000F90107901411070040501600405405064090740C02480A0340
1001
ACAD
1000
AcDbSavedByObjectVersion
1070
     0
  0
ACAD_PROXY_OBJECT
  5
16A3E
102
{ACAD_REACTORS
330
15B65
102
}
330
15B65
100
AcDbZombieObject
 90
      499
 91
      510
 93
      404
310
41560B54985E51940902404000000000000E03F0000000000000F9010740501907004050150841D405064090740C02480A1B40
1001
ACAD
1000
AcDbSavedByObjectVersion
1070
     0
  0
XRECORD
  5
16B56
102
{ACAD_REACTORS
330
16B55
102
}
330
16B55
100
AcDbXrecord
340
2D0
  0
XRECORD
  5
16B57
102
{ACAD_REACTORS
330
16B55
102
}
330
16B55
100
AcDbXrecord
340
2CF
  0
DICTIONARYVAR
  5
16AAF
102
{ACAD_REACTORS
330
37
102
}
330
37
100
DictionaryVariables
280
     0
  1
1:1
  0
DICTIONARYVAR
  5
15C4B
102
{ACAD_REACTORS
330
37
102
}
330
37
100
DictionaryVariables
280
     0
  1
Standard
  0
DICTIONARYVAR
  5
4F1
102
{ACAD_REACTORS
330
37
102
}
330
37
100
DictionaryVariables
280
     0
  1
Standard
  0
DICTIONARYVAR
  5
38
102
{ACAD_REACTORS
330
37
102
}
330
37
100
DictionaryVariables
280
     0
  1
-1
  0
DICTIONARYVAR
  5
408
102
{ACAD_REACTORS
330
37
102
}
330
37
100
DictionaryVariables
280
     0
  1
2
  0
DICTIONARYVAR
  5
1891
102
{ACAD_REACTORS
330
37
102
}
330
37
100
DictionaryVariables
280
     0
  1
1
  0
DICTIONARYVAR
  5
15C4E
102
{ACAD_REACTORS
330
37
102
}
330
37
100
DictionaryVariables
280
     0
  1
0
  0
DICTIONARYVAR
  5
1895
102
{ACAD_REACTORS
330
37
102
}
330
37
100
DictionaryVariables
280
     0
  1
8
  0
DICTIONARYVAR
  5
1894
102
{ACAD_REACTORS
330
37
102
}
330
37
100
DictionaryVariables
280
     0
  1
1
  0
DICTIONARYVAR
  5
16AF9
102
{ACAD_REACTORS
330
37
102
}
330
37
100
DictionaryVariables
280
     0
  1
0
  0
DICTIONARYVAR
  5
1892
102
{ACAD_REACTORS
330
37
102
}
330
37
100
DictionaryVariables
280
     0
  1
8
  0
DICTIONARYVAR
  5
1893
102
{ACAD_REACTORS
330
37
102
}
330
37
100
DictionaryVariables
280
     0
  1
2
  0
DICTIONARYVAR
  5
409
102
{ACAD_REACTORS
330
37
102
}
330
37
100
DictionaryVariables
280
     0
  1

  0
DICTIONARYVAR
  5
15C4D
102
{ACAD_REACTORS
330
37
102
}
330
37
100
DictionaryVariables
280
     0
  1
127
  0
DICTIONARYVAR
  5
16AB0
102
{ACAD_REACTORS
330
37
102
}
330
37
100
DictionaryVariables
280
     0
  1
2
  0
DICTIONARY
  5
16B59
330
15B55
100
AcDbDictionary
  3
ACAD_XREC_ROUNDTRIP
360
16B5A
1001
ACAD
1000
TREAT_AS_HARD
1070
     1
  0
DICTIONARY
  5
16B5B
330
15B4D
100
AcDbDictionary
  3
ACAD_XREC_ROUNDTRIP
360
16B5C
1001
ACAD
1000
TREAT_AS_HARD
1070
     1
  0
DICTIONARY
  5
16B5D
330
15B5D
100
AcDbDictionary
  3
ACAD_XREC_ROUNDTRIP
360
16B5E
1001
ACAD
1000
TREAT_AS_HARD
1070
     1
  0
XRECORD
  5
16B5A
102
{ACAD_REACTORS
330
16B59
102
}
330
16B59
100
AcDbXrecord
102
MATERIAL
148
0.0
149
0.0
149
0.0
 93
        0
 94
      127
282
     0
 72
     0
 77
     0
171
     0
175
     0
179
     0
273
     0
  0
XRECORD
  5
16B5C
102
{ACAD_REACTORS
330
16B5B
102
}
330
16B5B
100
AcDbXrecord
102
MATERIAL
148
0.0
149
0.0
149
0.0
 93
        0
 94
      127
282
     0
 72
     0
 77
     0
171
     0
175
     0
179
     0
273
     0
  0
XRECORD
  5
16B5E
102
{ACAD_REACTORS
330
16B5D
102
}
330
16B5D
100
AcDbXrecord
102
MATERIAL
148
0.0
149
0.0
149
0.0
 93
        0
 94
      127
282
     0
 72
     0
 77
     0
171
     0
175
     0
179
     0
273
     0
  0
ENDSEC
  0
EOF
