  0
SECTION
  2
HEADER
  9
$ACADVER
  1
AC1012
  9
$DWGCODEPAGE
  3
ansi_932
  9
$INSBASE
 10
0.0
 20
0.0
 30
0.0
  9
$EXTMIN
 10
1.000000000000000E+20
 20
1.000000000000000E+20
 30
1.000000000000000E+20
  9
$EXTMAX
 10
-1.000000000000000E+20
 20
-1.000000000000000E+20
 30
-1.000000000000000E+20
  9
$LIMMIN
 10
0.0
 20
0.0
  9
$LIMMAX
 10
420.0
 20
297.0
  9
$ORTHOMODE
 70
     0
  9
$REGENMODE
 70
     1
  9
$FILLMODE
 70
     1
  9
$QTEXTMODE
 70
     0
  9
$MIRRTEXT
 70
     0
  9
$DRAGMODE
 70
     2
  9
$LTSCALE
 40
0.5
  9
$OSMODE
 70
 14591
  9
$ATTMODE
 70
     1
  9
$TEXTSIZE
 40
4.0
  9
$TRACEWID
 40
1.0
  9
$TEXTSTYLE
  7
STANDARD
  9
$CLAYER
  8
1TEXT
  9
$CELTYPE
  6
BYLAYER
  9
$CECOLOR
 62
   256
  9
$CELTSCALE
 40
1.0
  9
$DELOBJ
 70
     1
  9
$DISPSILH
 70
     0
  9
$DIMSCALE
 40
1.0
  9
$DIMASZ
 40
2.0
  9
$DIMEXO
 40
0.0
  9
$DIMDLI
 40
7.0
  9
$DIMRND
 40
0.0
  9
$DIMDLE
 40
0.0
  9
$DIMEXE
 40
1.0
  9
$DIMTP
 40
0.0
  9
$DIMTM
 40
0.0
  9
$DIMTXT
 40
3.5
  9
$DIMCEN
 40
0.0
  9
$DIMTSZ
 40
0.0
  9
$DIMTOL
 70
     0
  9
$DIMLIM
 70
     0
  9
$DIMTIH
 70
     0
  9
$DIMTOH
 70
     0
  9
$DIMSE1
 70
     0
  9
$DIMSE2
 70
     0
  9
$DIMTAD
 70
     1
  9
$DIMZIN
 70
     8
  9
$DIMBLK
  1

  9
$DIMASO
 70
     1
  9
$DIMSHO
 70
     1
  9
$DIMPOST
  1
 
  9
$DIMAPOST
  1

  9
$DIMALT
 70
     0
  9
$DIMALTD
 70
     2
  9
$DIMALTF
 40
25.4
  9
$DIMLFAC
 40
1.0
  9
$DIMTOFL
 70
     1
  9
$DIMTVP
 40
0.0
  9
$DIMTIX
 70
     0
  9
$DIMSOXD
 70
     0
  9
$DIMSAH
 70
     1
  9
$DIMBLK1
  1
OPEN30
  9
$DIMBLK2
  1
OPEN30
  9
$DIMSTYLE
  2
NEWX10
  9
$DIMCLRD
 70
   256
  9
$DIMCLRE
 70
   256
  9
$DIMCLRT
 70
   201
  9
$DIMTFAC
 40
0.7
  9
$DIMGAP
 40
0.7
  9
$DIMJUST
 70
     0
  9
$DIMSD1
 70
     0
  9
$DIMSD2
 70
     0
  9
$DIMTOLJ
 70
     1
  9
$DIMTZIN
 70
     8
  9
$DIMALTZ
 70
     0
  9
$DIMALTTZ
 70
     0
  9
$DIMFIT
 70
     2
  9
$DIMUPT
 70
     0
  9
$DIMUNIT
 70
     2
  9
$DIMDEC
 70
     2
  9
$DIMTDEC
 70
     4
  9
$DIMALTU
 70
     2
  9
$DIMALTTD
 70
     2
  9
$DIMTXSTY
  7
STANDARD
  9
$DIMAUNIT
 70
     0
  9
$LUNITS
 70
     2
  9
$LUPREC
 70
     4
  9
$SKETCHINC
 40
1.0
  9
$FILLETRAD
 40
0.0
  9
$AUNITS
 70
     0
  9
$AUPREC
 70
     2
  9
$MENU
  1
acad
  9
$ELEVATION
 40
0.0
  9
$PELEVATION
 40
0.0
  9
$THICKNESS
 40
0.0
  9
$LIMCHECK
 70
     0
  9
$CHAMFERA
 40
10.0
  9
$CHAMFERB
 40
10.0
  9
$CHAMFERC
 40
20.0
  9
$CHAMFERD
 40
0.0
  9
$SKPOLY
 70
     0
  9
$TDCREATE
 40
2453033.732663484
  9
$TDUPDATE
 40
2458040.725232396
  9
$TDINDWG
 40
1.9746067708
  9
$TDUSRTIMER
 40
1.9746067708
  9
$USRTIMER
 70
     1
  9
$ANGBASE
 50
0.0
  9
$ANGDIR
 70
     0
  9
$PDMODE
 70
     0
  9
$PDSIZE
 40
0.0
  9
$PLINEWID
 40
0.0
  9
$COORDS
 70
     2
  9
$SPLFRAME
 70
     0
  9
$SPLINETYPE
 70
     6
  9
$SPLINESEGS
 70
     8
  9
$ATTDIA
 70
     0
  9
$ATTREQ
 70
     1
  9
$HANDLING
 70
     1
  9
$HANDSEED
  5
191B1
  9
$SURFTAB1
 70
     6
  9
$SURFTAB2
 70
     6
  9
$SURFTYPE
 70
     6
  9
$SURFU
 70
     6
  9
$SURFV
 70
     6
  9
$UCSNAME
  2

  9
$UCSORG
 10
0.0
 20
0.0
 30
0.0
  9
$UCSXDIR
 10
1.0
 20
0.0
 30
0.0
  9
$UCSYDIR
 10
0.0
 20
1.0
 30
0.0
  9
$PUCSNAME
  2

  9
$PUCSORG
 10
0.0
 20
0.0
 30
0.0
  9
$PUCSXDIR
 10
1.0
 20
0.0
 30
0.0
  9
$PUCSYDIR
 10
0.0
 20
1.0
 30
0.0
  9
$USERI1
 70
     0
  9
$USERI2
 70
     0
  9
$USERI3
 70
     0
  9
$USERI4
 70
     0
  9
$USERI5
 70
     0
  9
$USERR1
 40
0.0
  9
$USERR2
 40
0.0
  9
$USERR3
 40
0.0
  9
$USERR4
 40
0.0
  9
$USERR5
 40
0.0
  9
$WORLDVIEW
 70
     1
  9
$SHADEDGE
 70
     3
  9
$SHADEDIF
 70
    70
  9
$TILEMODE
 70
     1
  9
$MAXACTVP
 70
    48
  9
$PINSBASE
 10
0.0
 20
0.0
 30
0.0
  9
$PLIMCHECK
 70
     0
  9
$PEXTMIN
 10
1.000000000000000E+20
 20
1.000000000000000E+20
 30
1.000000000000000E+20
  9
$PEXTMAX
 10
-1.000000000000000E+20
 20
-1.000000000000000E+20
 30
-1.000000000000000E+20
  9
$PLIMMIN
 10
0.0
 20
0.0
  9
$PLIMMAX
 10
420.0
 20
297.0
  9
$UNITMODE
 70
     0
  9
$VISRETAIN
 70
     1
  9
$PLINEGEN
 70
     0
  9
$PSLTSCALE
 70
     1
  9
$TREEDEPTH
 70
  3020
  9
$PICKSTYLE
 70
     1
  9
$CMLSTYLE
  2
STANDARD
  9
$CMLJUST
 70
     0
  9
$CMLSCALE
 40
20.0
  9
$SAVEIMAGES
 70
     1
  0
ENDSEC
  0
SECTION
  2
CLASSES
  0
CLASS
  1
DICTIONARYVAR
  2
AcDbDictionaryVar
  3
ObjectDBX Classes
 90
        0
280
     0
281
     0
  0
CLASS
  1
IDBUFFER
  2
AcDbIdBuffer
  3
ObjectDBX Classes
 90
    32768
280
     0
281
     0
  0
CLASS
  1
LWPOLYLINE
  2
AcDbPolyline
  3
ObjectDBX Classes
 90
    32768
280
     0
281
     1
  0
CLASS
  1
ACDBDICTIONARYWDFLT
  2
AcDbDictionaryWithDefault
  3
ObjectDBX Classes
 90
    32768
280
     0
281
     0
  0
CLASS
  1
ACDBPLACEHOLDER
  2
AcDbPlaceHolder
  3
ObjectDBX Classes
 90
        0
280
     0
281
     0
  0
CLASS
  1
LAYOUT
  2
AcDbLayout
  3
ObjectDBX Classes
 90
        0
280
     0
281
     0
  0
CLASS
  1
TABLESTYLE
  2
AcDbTableStyle
  3
ObjectDBX Classes
 90
     4095
280
     0
281
     0
  0
CLASS
  1
SORTENTSTABLE
  2
AcDbSortentsTable
  3
ObjectDBX Classes
 90
    32768
280
     0
281
     0
  0
CLASS
  1
DIMASSOC
  2
AcDbDimAssoc
  3
"AcDbDimAssoc|Product Desc:     AcDim ARX App For Dimension|Company:          Autodesk, Inc.|WEB Address:      www.autodesk.com"
 90
        0
280
     0
281
     0
  0
CLASS
  1
MATERIAL
  2
AcDbMaterial
  3
ObjectDBX Classes
 90
     1153
280
     0
281
     0
  0
CLASS
  1
VISUALSTYLE
  2
AcDbVisualStyle
  3
ObjectDBX Classes
 90
     4095
280
     0
281
     0
  0
CLASS
  1
SCALE
  2
AcDbScale
  3
ObjectDBX Classes
 90
     1153
280
     0
281
     0
  0
CLASS
  1
MLEADERSTYLE
  2
AcDbMLeaderStyle
  3
ACDB_MLEADERSTYLE_CLASS
 90
     4095
280
     0
281
     0
  0
CLASS
  1
CELLSTYLEMAP
  2
AcDbCellStyleMap
  3
ObjectDBX Classes
 90
     1152
280
     0
281
     0
  0
CLASS
  1
EXACXREFPANELOBJECT
  2
ExAcXREFPanelObject
  3
EXAC_ESW
 90
     1025
280
     1
281
     0
  0
CLASS
  1
NPOCOLLECTION
  2
AcDbImpNonPersistentObjectsCollection
  3
ObjectDBX Classes
 90
     1153
280
     1
281
     0
  0
CLASS
  1
SUN
  2
AcDbSun
  3
SCENEOE
 90
     1153
280
     0
281
     0
  0
CLASS
  1
XRECORD
  2
AcDbXrecord
  3
ObjectDBX Classes
 90
    32768
280
     0
281
     0
  0
CLASS
  1
HATCH
  2
AcDbHatch
  3
ObjectDBX Classes
 90
    32768
280
     0
281
     1
  0
ENDSEC
  0
SECTION
  2
TABLES
  0
TABLE
  2
VPORT
  5
8
330
0
100
AcDbSymbolTable
 70
     1
  0
VPORT
  5
15B17
330
8
100
AcDbSymbolTableRecord
100
AcDbViewportTableRecord
  2
*ACTIVE
 70
     0
 10
0.0
 20
0.0
 11
1.0
 21
1.0
 12
2660.014064387349
 22
-1735.344511923038
 13
0.0
 23
0.0
 14
10.0
 24
10.0
 15
10.0
 25
10.0
 16
0.0
 26
0.0
 36
1.0
 17
0.0
 27
0.0
 37
0.0
 40
286.1587129655603
 41
2.020775623268698
 42
50.0
 43
0.0
 44
0.0
 50
0.0
 51
0.0
 71
    16
 72
   100
 73
     1
 74
     1
 75
     0
 76
     0
 77
     0
 78
     0
  0
ENDTAB
  0
TABLE
  2
LTYPE
  5
5
330
0
100
AcDbSymbolTable
 70
     3
  0
LTYPE
  5
12
330
5
100
AcDbSymbolTableRecord
100
AcDbLinetypeTableRecord
  2
BYBLOCK
 70
     0
  3

 72
    65
 73
     0
 40
0.0
  0
LTYPE
  5
13
330
5
100
AcDbSymbolTableRecord
100
AcDbLinetypeTableRecord
  2
BYLAYER
 70
     0
  3

 72
    65
 73
     0
 40
0.0
  0
LTYPE
  5
14
330
5
100
AcDbSymbolTableRecord
100
AcDbLinetypeTableRecord
  2
CONTINUOUS
 70
     0
  3
Solid line
 72
    65
 73
     0
 40
0.0
  0
LTYPE
  5
26
330
5
100
AcDbSymbolTableRecord
100
AcDbLinetypeTableRecord
  2
CENTER2
 70
     0
  3
Center (.5x) ___ _ ___ _ ___ _ ___ _ ___ _ ___
 72
    65
 73
     4
 40
28.575
 49
19.05
 74
     0
 49
-3.175
 74
     0
 49
3.175
 74
     0
 49
-3.175
 74
     0
  0
LTYPE
  5
100
330
5
100
AcDbSymbolTableRecord
100
AcDbLinetypeTableRecord
  2
PHANTOM2
 70
     0
  3
Phantom (0.5x) ___ _ _ ___ _ _ ___ _ _ ___ _ _
 72
    65
 73
     6
 40
31.75
 49
15.875
 74
     0
 49
-3.175
 74
     0
 49
3.175
 74
     0
 49
-3.175
 74
     0
 49
3.175
 74
     0
 49
-3.175
 74
     0
  0
ENDTAB
  0
TABLE
  2
LAYER
  5
2
102
{ACAD_XDICTIONARY
360
14EC2
102
}
330
0
100
AcDbSymbolTable
 70
     7
  0
LAYER
  5
E
102
{ACAD_XDICTIONARY
360
15BB5
102
}
330
2
100
AcDbSymbolTableRecord
100
AcDbLayerTableRecord
  2
0
 70
     0
 62
     7
  6
CONTINUOUS
  0
LAYER
  5
29
102
{ACAD_XDICTIONARY
360
15BB7
102
}
330
2
100
AcDbSymbolTableRecord
100
AcDbLayerTableRecord
  2
1CENTER
 70
     0
 62
     7
  6
CENTER2
  0
LAYER
  5
31
102
{ACAD_XDICTIONARY
360
15BB9
102
}
330
2
100
AcDbSymbolTableRecord
100
AcDbLayerTableRecord
  2
1TEXT
 70
     0
 62
     7
  6
CONTINUOUS
  0
LAYER
  5
101
102
{ACAD_XDICTIONARY
360
15BC3
102
}
330
2
100
AcDbSymbolTableRecord
100
AcDbLayerTableRecord
  2
1DIM
 70
     0
 62
     7
  6
CONTINUOUS
  0
LAYER
  5
103
102
{ACAD_XDICTIONARY
360
15BC7
102
}
330
2
100
AcDbSymbolTableRecord
100
AcDbLayerTableRecord
  2
1PHANTOM
 70
     0
 62
     7
  6
PHANTOM2
  0
LAYER
  5
25F
102
{ACAD_XDICTIONARY
360
15BCB
102
}
330
2
100
AcDbSymbolTableRecord
100
AcDbLayerTableRecord
  2
01
 70
     0
 62
     1
  6
CONTINUOUS
  0
LAYER
  5
26D
102
{ACAD_XDICTIONARY
360
15BE7
102
}
330
2
100
AcDbSymbolTableRecord
100
AcDbLayerTableRecord
  2
1HATCH
 70
     0
 62
     7
  6
CONTINUOUS
  0
ENDTAB
  0
TABLE
  2
STYLE
  5
3
330
0
100
AcDbSymbolTable
 70
     1
  0
STYLE
  5
F
330
3
100
AcDbSymbolTableRecord
100
AcDbTextStyleTableRecord
  2
STANDARD
 70
     0
 40
0.0
 41
1.0
 50
0.0
 71
     0
 42
4.0
  3
txt.shx
  4
extfont.shx
  0
ENDTAB
  0
TABLE
  2
VIEW
  5
6
330
0
100
AcDbSymbolTable
 70
     0
  0
ENDTAB
  0
TABLE
  2
UCS
  5
7
330
0
100
AcDbSymbolTable
 70
     0
  0
ENDTAB
  0
TABLE
  2
APPID
  5
9
330
0
100
AcDbSymbolTable
 70
    13
  0
APPID
  5
10
330
9
100
AcDbSymbolTableRecord
100
AcDbRegAppTableRecord
  2
ACAD
 70
     0
  0
APPID
  5
21
330
9
100
AcDbSymbolTableRecord
100
AcDbRegAppTableRecord
  2
DRAWINGVARIABLESXDATA
 70
     0
  0
APPID
  5
64
330
9
100
AcDbSymbolTableRecord
100
AcDbRegAppTableRecord
  2
CONTENTTABDATA
 70
     0
  0
APPID
  5
65
330
9
100
AcDbSymbolTableRecord
100
AcDbRegAppTableRecord
  2
CONTENTCURRENTTAB
 70
     0
  0
APPID
  5
66
330
9
100
AcDbSymbolTableRecord
100
AcDbRegAppTableRecord
  2
CONTENTBLOCKDESCRIPTION
 70
     0
  0
APPID
  5
67
330
9
100
AcDbSymbolTableRecord
100
AcDbRegAppTableRecord
  2
CONTENTBLOCKICON
 70
     0
  0
APPID
  5
68
330
9
100
AcDbSymbolTableRecord
100
AcDbRegAppTableRecord
  2
CONTENTLONGBLOCKNAME
 70
     0
  0
APPID
  5
5A9
330
9
100
AcDbSymbolTableRecord
100
AcDbRegAppTableRecord
  2
ACAD_PSEXT
 70
     0
  0
APPID
  5
18AC
330
9
100
AcDbSymbolTableRecord
100
AcDbRegAppTableRecord
  2
ACAD_DSTYLE_DIMTEXT_FILL
 70
     0
  0
APPID
  5
15B9A
330
9
100
AcDbSymbolTableRecord
100
AcDbRegAppTableRecord
  2
ACAD_MLEADERVER
 70
     0
  0
APPID
  5
16C54
330
9
100
AcDbSymbolTableRecord
100
AcDbRegAppTableRecord
  2
ACADANNOTATIVE
 70
     0
  0
APPID
  5
16DCF
330
9
100
AcDbSymbolTableRecord
100
AcDbRegAppTableRecord
  2
ACAD_DSTYLE_DIMRADIAL_EXTE
 70
     0
  0
APPID
  5
18F8A
330
9
100
AcDbSymbolTableRecord
100
AcDbRegAppTableRecord
  2
ACAD_OBJECT_CHANGE_GUID
 70
     0
  0
ENDTAB
  0
TABLE
  2
DIMSTYLE
  5
A
330
0
100
AcDbSymbolTable
 70
     1
  0
DIMSTYLE
105
48
330
A
100
AcDbSymbolTableRecord
100
AcDbDimStyleTableRecord
  2
NEWX10
 70
     0
  3
 
  4

  5

  6
OPEN30
  7
OPEN30
 40
1.0
 41
2.0
 42
0.0
 43
7.0
 44
1.0
 45
0.0
 46
0.0
 47
0.0
 48
0.0
140
3.5
141
0.0
142
0.0
143
25.4
144
1.0
145
0.0
146
0.7
147
0.7
 71
     0
 72
     0
 73
     0
 74
     0
 75
     0
 76
     0
 77
     1
 78
     8
170
     0
171
     2
172
     1
173
     1
174
     0
175
     0
176
   256
177
   256
178
   201
179
     2
270
     2
271
     2
272
     4
273
     2
274
     2
340
F
275
     0
280
     0
281
     0
282
     0
283
     1
284
     8
285
     0
286
     0
287
     2
288
     0
  0
ENDTAB
  0
TABLE
  2
BLOCK_RECORD
  5
1
330
0
100
AcDbSymbolTable
 70
     1
  0
BLOCK_RECORD
  5
18
102
{ACAD_XDICTIONARY
360
6E9
102
}
330
1
100
AcDbSymbolTableRecord
100
AcDbBlockTableRecord
  2
*MODEL_SPACE
  0
BLOCK_RECORD
  5
15
102
{ACAD_XDICTIONARY
360
59B
102
}
330
1
100
AcDbSymbolTableRecord
100
AcDbBlockTableRecord
  2
*PAPER_SPACE
  0
BLOCK_RECORD
  5
42
330
1
100
AcDbSymbolTableRecord
100
AcDbBlockTableRecord
  2
_OPEN30
  0
ENDTAB
  0
ENDSEC
  0
SECTION
  2
BLOCKS
  0
BLOCK
  5
19
330
18
100
AcDbEntity
  8
0
100
AcDbBlockBegin
  2
*MODEL_SPACE
 70
     0
 10
0.0
 20
0.0
 30
0.0
  3
*MODEL_SPACE
  1

  0
ENDBLK
  5
1A
330
18
100
AcDbEntity
  8
0
100
AcDbBlockEnd
  0
BLOCK
  5
16
330
15
100
AcDbEntity
 67
     1
  8
0
100
AcDbBlockBegin
  2
*PAPER_SPACE
 70
     0
 10
0.0
 20
0.0
 30
0.0
  3
*PAPER_SPACE
  1

  0
ENDBLK
  5
17
330
15
100
AcDbEntity
 67
     1
  8
0
100
AcDbBlockEnd
  0
BLOCK
  5
43
330
42
100
AcDbEntity
  8
0
100
AcDbBlockBegin
  2
_OPEN30
 70
     0
 10
0.0
 20
0.0
 30
0.0
  3
_OPEN30
  1

  0
LINE
  5
44
330
42
100
AcDbEntity
  8
0
  6
BYBLOCK
 62
     0
100
AcDbLine
 10
-1.0
 20
0.26794919
 30
0.0
 11
0.0
 21
0.0
 31
0.0
  0
LINE
  5
45
330
42
100
AcDbEntity
  8
0
  6
BYBLOCK
 62
     0
100
AcDbLine
 10
0.0
 20
0.0
 30
0.0
 11
-1.0
 21
-0.26794919
 31
0.0
  0
LINE
  5
46
330
42
100
AcDbEntity
  8
0
  6
BYBLOCK
 62
     0
100
AcDbLine
 10
0.0
 20
0.0
 30
0.0
 11
-1.0
 21
0.0
 31
0.0
  0
ENDBLK
  5
47
330
42
100
AcDbEntity
  8
0
100
AcDbBlockEnd
  0
ENDSEC
  0
SECTION
  2
ENTITIES
  0
LINE
  5
16503
330
18
100
AcDbEntity
  8
1DIM
100
AcDbLine
 10
2713.52903783502
 20
-1644.053719039255
 30
0.0
 11
2783.529037835021
 21
-1644.053719039255
 31
0.0
  0
LINE
  5
16504
330
18
100
AcDbEntity
  8
1DIM
100
AcDbLine
 10
2713.52903783502
 20
-1637.053719039255
 30
0.0
 11
2783.529037835021
 21
-1637.053719039255
 31
0.0
  0
TEXT
  5
16505
330
18
100
AcDbEntity
  8
1TEXT
100
AcDbText
 10
2759.062371168353
 20
-1642.553719039255
 30
0.0
 40
4.0
  1
コード
 72
     1
 11
2765.92903783502
 21
-1642.553719039255
 31
0.0
100
AcDbText
  0
TEXT
  5
16506
330
18
100
AcDbEntity
  8
1TEXT
100
AcDbText
 10
2722.58903783502
 20
-1642.553719039255
 30
0.0
 40
4.0
  1
表面処理
 41
0.9
 72
     1
 11
2730.92903783502
 21
-1642.553719039255
 31
0.0
100
AcDbText
  0
LINE
  5
16507
330
18
100
AcDbEntity
  8
1DIM
100
AcDbLine
 10
2713.52903783502
 20
-1651.053719039255
 30
0.0
 11
2783.529037835021
 21
-1651.053719039255
 31
0.0
  0
TEXT
  5
16508
330
18
100
AcDbEntity
  8
1TEXT
100
AcDbText
 10
2724.009037835021
 20
-1649.768076022905
 30
0.0
 40
4.0
  1
ヘアライン
 41
0.6
 72
     1
 11
2730.929037835021
 21
-1649.768076022905
 31
0.0
100
AcDbText
  0
LINE
  5
16509
330
18
100
AcDbEntity
  8
1DIM
100
AcDbLine
 10
2713.52903783502
 20
-1637.053719039255
 30
0.0
 11
2713.52903783502
 21
-1651.053719039255
 31
0.0
  0
LINE
  5
1650A
330
18
100
AcDbEntity
  8
1DIM
100
AcDbLine
 10
2748.52903783502
 20
-1637.053719039255
 30
0.0
 11
2748.52903783502
 21
-1651.053719039255
 31
0.0
  0
LINE
  5
1650B
330
18
100
AcDbEntity
  8
1DIM
100
AcDbLine
 10
2783.529037835021
 20
-1637.053719039255
 30
0.0
 11
2783.52903783502
 21
-1651.053719039255
 31
0.0
  0
TEXT
  5
1650C
330
18
100
AcDbEntity
  8
1TEXT
100
AcDbText
 10
2752.901260057243
 20
-1649.768076022905
 30
0.0
 40
4.0
  1
GP075XT
 72
     1
 11
2765.929037835021
 21
-1649.768076022905
 31
0.0
100
AcDbText
  0
TEXT
  5
1650D
330
18
100
AcDbEntity
  8
1TEXT
100
AcDbText
 10
2712.327748351961
 20
-1628.053719039255
 30
0.0
 40
8.0
  1
GP075
100
AcDbText
  0
LINE
  5
16FBA
102
{ACAD_REACTORS
330
18C86
102
}
330
18
100
AcDbEntity
  8
1CENTER
100
AcDbLine
 10
2762.243967320562
 20
-1727.298594948355
 30
0.0
 11
2762.243967320562
 21
-1733.830139526664
 31
0.0
  0
LINE
  5
16FD5
102
{ACAD_REACTORS
330
18C86
102
}
330
18
100
AcDbEntity
  8
1CENTER
100
AcDbLine
 10
2762.243967320562
 20
-1721.616960572893
 30
0.0
 11
2762.243967320562
 21
-1736.346512186762
 31
0.0
  0
LINE
  5
1775A
102
{ACAD_REACTORS
330
18C86
102
}
330
18
100
AcDbEntity
  8
1PHANTOM
100
AcDbLine
 10
2760.243967320562
 20
-1734.420968218528
 30
0.0
 11
2760.243967320562
 21
-1728.770968218528
 31
0.0
  0
LINE
  5
1775B
102
{ACAD_REACTORS
330
18C86
102
}
330
18
100
AcDbEntity
  8
1PHANTOM
100
AcDbLine
 10
2764.243967320562
 20
-1734.420968218528
 30
0.0
 11
2764.243967320562
 21
-1728.770968218528
 31
0.0
  0
LINE
  5
1775C
102
{ACAD_REACTORS
330
18C86
102
}
330
18
100
AcDbEntity
  8
1PHANTOM
100
AcDbLine
 10
2760.593967320562
 20
-1734.770968218528
 30
0.0
 11
2760.593967320562
 21
-1728.770968218528
 31
0.0
  0
LINE
  5
1775D
102
{ACAD_REACTORS
330
18C86
102
}
330
18
100
AcDbEntity
  8
1PHANTOM
100
AcDbLine
 10
2763.893967320562
 20
-1734.770968218528
 30
0.0
 11
2763.893967320562
 21
-1728.770968218528
 31
0.0
  0
LINE
  5
1775E
102
{ACAD_REACTORS
330
18C86
102
}
330
18
100
AcDbEntity
  8
1PHANTOM
100
AcDbLine
 10
2760.243967320562
 20
-1734.420968218528
 30
0.0
 11
2760.593967320562
 21
-1734.770968218528
 31
0.0
  0
LINE
  5
1775F
102
{ACAD_REACTORS
330
18C86
102
}
330
18
100
AcDbEntity
  8
1PHANTOM
100
AcDbLine
 10
2760.593967320562
 20
-1734.770968218528
 30
0.0
 11
2763.893967320562
 21
-1734.770968218528
 31
0.0
  0
LINE
  5
17760
102
{ACAD_REACTORS
330
18C86
102
}
330
18
100
AcDbEntity
  8
1PHANTOM
100
AcDbLine
 10
2763.893967320562
 20
-1734.770968218528
 30
0.0
 11
2764.243967320562
 21
-1734.420968218528
 31
0.0
  0
LINE
  5
17761
102
{ACAD_REACTORS
330
18C86
102
}
330
18
100
AcDbEntity
  8
1PHANTOM
100
AcDbLine
 10
2760.243967320562
 20
-1734.420968218528
 30
0.0
 11
2764.243967320562
 21
-1734.420968218528
 31
0.0
  0
LINE
  5
17762
102
{ACAD_REACTORS
330
18C86
102
}
330
18
100
AcDbEntity
  8
01
100
AcDbLine
 10
2756.243967320562
 20
-1728.770968218528
 30
0.0
 11
2756.743967320562
 21
-1723.770968218528
 31
0.0
  0
LINE
  5
17763
102
{ACAD_REACTORS
330
18C86
102
}
330
18
100
AcDbEntity
  8
1HATCH
100
AcDbLine
 10
2758.243967320562
 20
-1728.770968218528
 30
0.0
 11
2758.243967320562
 21
-1723.770968218528
 31
0.0
  0
LINE
  5
17764
102
{ACAD_REACTORS
330
18C86
102
}
330
18
100
AcDbEntity
  8
1HATCH
100
AcDbLine
 10
2757.243967320562
 20
-1728.770968218528
 30
0.0
 11
2757.243967320562
 21
-1723.770968218528
 31
0.0
  0
LINE
  5
17765
102
{ACAD_REACTORS
330
18C86
102
}
330
18
100
AcDbEntity
  8
01
100
AcDbLine
 10
2768.243967320562
 20
-1728.770968218528
 30
0.0
 11
2767.743967320562
 21
-1723.770968218528
 31
0.0
  0
LINE
  5
17766
102
{ACAD_REACTORS
330
18C86
102
}
330
18
100
AcDbEntity
  8
1HATCH
100
AcDbLine
 10
2767.243967320562
 20
-1728.770968218528
 30
0.0
 11
2767.243967320562
 21
-1723.770968218528
 31
0.0
  0
LINE
  5
17767
102
{ACAD_REACTORS
330
18C86
102
}
330
18
100
AcDbEntity
  8
1HATCH
100
AcDbLine
 10
2766.243967320562
 20
-1728.770968218528
 30
0.0
 11
2766.243967320562
 21
-1723.770968218528
 31
0.0
  0
LINE
  5
17768
102
{ACAD_REACTORS
330
18C86
102
}
330
18
100
AcDbEntity
  8
1HATCH
100
AcDbLine
 10
2765.243967320562
 20
-1728.770968218528
 30
0.0
 11
2765.243967320562
 21
-1723.770968218528
 31
0.0
  0
LINE
  5
17769
102
{ACAD_REACTORS
330
18C86
102
}
330
18
100
AcDbEntity
  8
1HATCH
100
AcDbLine
 10
2764.243967320562
 20
-1728.770968218528
 30
0.0
 11
2764.243967320562
 21
-1723.770968218528
 31
0.0
  0
LINE
  5
1776A
102
{ACAD_REACTORS
330
18C86
102
}
330
18
100
AcDbEntity
  8
1HATCH
100
AcDbLine
 10
2763.243967320562
 20
-1728.770968218528
 30
0.0
 11
2763.243967320562
 21
-1723.770968218528
 31
0.0
  0
LINE
  5
1776B
102
{ACAD_REACTORS
330
18C86
102
}
330
18
100
AcDbEntity
  8
1HATCH
100
AcDbLine
 10
2761.243967320562
 20
-1728.770968218528
 30
0.0
 11
2761.243967320562
 21
-1723.770968218528
 31
0.0
  0
LINE
  5
1776C
102
{ACAD_REACTORS
330
18C86
102
}
330
18
100
AcDbEntity
  8
1HATCH
100
AcDbLine
 10
2760.243967320562
 20
-1728.770968218528
 30
0.0
 11
2760.243967320562
 21
-1723.770968218528
 31
0.0
  0
LINE
  5
1776D
102
{ACAD_REACTORS
330
18C86
102
}
330
18
100
AcDbEntity
  8
1HATCH
100
AcDbLine
 10
2759.243967320562
 20
-1728.770968218528
 30
0.0
 11
2759.243967320562
 21
-1723.770968218528
 31
0.0
  0
LINE
  5
1776E
102
{ACAD_REACTORS
330
18C86
102
}
330
18
100
AcDbEntity
  8
1HATCH
100
AcDbLine
 10
2762.243967320562
 20
-1723.770968218528
 30
0.0
 11
2762.243967320562
 21
-1728.770968218528
 31
0.0
  0
LINE
  5
1776F
102
{ACAD_REACTORS
330
18C86
102
}
330
18
100
AcDbEntity
  8
01
100
AcDbLine
 10
2756.743967320562
 20
-1723.770968218528
 30
0.0
 11
2767.743967320562
 21
-1723.770968218528
 31
0.0
  0
LINE
  5
17770
102
{ACAD_REACTORS
330
18C86
102
}
330
18
100
AcDbEntity
  8
01
100
AcDbLine
 10
2756.243967320562
 20
-1728.770968218528
 30
0.0
 11
2768.243967320562
 21
-1728.770968218528
 31
0.0
  0
LINE
  5
186C1
330
18
100
AcDbEntity
  8
01
100
AcDbLine
 10
2550.743967320561
 20
-1865.570968218528
 30
0.0
 11
2682.743967320561
 21
-1865.570968218528
 31
0.0
  0
ARC
  5
186C2
330
18
100
AcDbEntity
  8
01
100
AcDbCircle
 10
2550.743967320561
 20
-1864.070968218528
 30
0.0
 40
1.5
100
AcDbArc
 50
180.0
 51
270.0
  0
LINE
  5
186C3
330
18
100
AcDbEntity
  8
01
100
AcDbLine
 10
2550.743967320561
 20
-1730.570968218528
 30
0.0
 11
2682.743967320561
 21
-1730.570968218528
 31
0.0
  0
ARC
  5
186C4
330
18
100
AcDbEntity
  8
01
100
AcDbCircle
 10
2682.743967320561
 20
-1732.070968218528
 30
0.0
 40
1.5
100
AcDbArc
 50
0.0
 51
90.0
  0
LINE
  5
186C5
330
18
100
AcDbEntity
  8
01
100
AcDbLine
 10
2684.243967320561
 20
-1864.070968218528
 30
0.0
 11
2684.243967320561
 21
-1732.070968218528
 31
0.0
  0
ARC
  5
186C6
330
18
100
AcDbEntity
  8
01
100
AcDbCircle
 10
2682.743967320561
 20
-1864.070968218528
 30
0.0
 40
1.5
100
AcDbArc
 50
270.0
 51
0.0
  0
LINE
  5
186C7
330
18
100
AcDbEntity
  8
01
100
AcDbLine
 10
2549.243967320561
 20
-1864.070968218528
 30
0.0
 11
2549.243967320561
 21
-1732.070968218528
 31
0.0
  0
ARC
  5
186C8
330
18
100
AcDbEntity
  8
01
100
AcDbCircle
 10
2550.743967320561
 20
-1732.070968218528
 30
0.0
 40
1.5
100
AcDbArc
 50
90.0
 51
180.0
  0
LINE
  5
186C9
330
18
100
AcDbEntity
  8
01
100
AcDbLine
 10
2684.243967320561
 20
-1682.245241554732
 30
0.0
 11
2684.243967320561
 21
-1680.245241554732
 31
0.0
  0
LINE
  5
186CA
330
18
100
AcDbEntity
  8
01
100
AcDbLine
 10
2684.243967320561
 20
-1680.245241554732
 30
0.0
 11
2549.243967320561
 21
-1680.245241554732
 31
0.0
  0
LINE
  5
186CB
330
18
100
AcDbEntity
  8
01
100
AcDbLine
 10
2648.443967320561
 20
-1679.445241554732
 30
0.0
 11
2636.743967320561
 21
-1679.445241554731
 31
0.0
  0
LINE
  5
186CC
330
18
100
AcDbEntity
  8
01
100
AcDbLine
 10
2596.743967320561
 20
-1679.445241554732
 30
0.0
 11
2585.043967320561
 21
-1679.445241554732
 31
0.0
  0
LINE
  5
186CD
330
18
100
AcDbEntity
  8
01
100
AcDbLine
 10
2684.243967320561
 20
-1682.245241554732
 30
0.0
 11
2549.243967320561
 21
-1682.245241554732
 31
0.0
  0
LINE
  5
186CE
330
18
100
AcDbEntity
  8
01
100
AcDbLine
 10
2549.243967320561
 20
-1682.245241554732
 30
0.0
 11
2549.243967320561
 21
-1680.245241554731
 31
0.0
  0
LINE
  5
186CF
330
18
100
AcDbEntity
  8
1CENTER
100
AcDbLine
 10
2616.743967320561
 20
-1868.60469688249
 30
0.0
 11
2616.743967320561
 21
-1720.538683804592
 31
0.0
  0
LINE
  5
186EE
330
18
100
AcDbEntity
  8
01
  6
BYBLOCK
100
AcDbLine
 10
2636.74396732056
 20
-1730.570968218528
 30
0.0
 11
2636.743967320561
 21
-1728.770968218528
 31
0.0
  0
LINE
  5
186EF
330
18
100
AcDbEntity
  8
01
  6
BYBLOCK
100
AcDbLine
 10
2596.74396732056
 20
-1730.570968218529
 30
0.0
 11
2596.74396732056
 21
-1728.770968218528
 31
0.0
  0
LINE
  5
186F0
330
18
100
AcDbEntity
  8
01
100
AcDbLine
 10
2596.74396732056
 20
-1728.770968218528
 30
0.0
 11
2636.743967320561
 21
-1728.770968218528
 31
0.0
  0
LINE
  5
186F3
330
18
100
AcDbEntity
  8
01
100
AcDbLine
 10
2726.243967320561
 20
-1730.570968218528
 30
0.0
 11
2726.243967320561
 21
-1865.570968218528
 31
0.0
  0
LINE
  5
186F4
330
18
100
AcDbEntity
  8
01
100
AcDbLine
 10
2738.243967320561
 20
-1747.570914702244
 30
0.0
 11
2738.243967320561
 21
-1845.570968218529
 31
0.0
  0
LINE
  5
186F7
330
18
100
AcDbEntity
  8
01
100
AcDbLine
 10
2727.043967320561
 20
-1747.570914702244
 30
0.0
 11
2727.043967320562
 21
-1845.570968218529
 31
0.0
  0
LINE
  5
186FE
330
18
100
AcDbEntity
  8
01
100
AcDbLine
 10
2769.243967320561
 20
-1728.770968218528
 30
0.0
 11
2769.243967320561
 21
-1729.570968218528
 31
0.0
  0
LINE
  5
186FF
330
18
100
AcDbEntity
  8
01
100
AcDbLine
 10
2724.243967320561
 20
-1730.570968218528
 30
0.0
 11
2724.243967320561
 21
-1865.570968218528
 31
0.0
  0
LINE
  5
18700
330
18
100
AcDbEntity
  8
01
100
AcDbLine
 10
2724.243967320561
 20
-1865.570968218528
 30
0.0
 11
2726.243967320561
 21
-1865.570968218528
 31
0.0
  0
LINE
  5
18701
330
18
100
AcDbEntity
  8
01
100
AcDbLine
 10
2724.243967320561
 20
-1730.570968218528
 30
0.0
 11
2726.243967320561
 21
-1730.570968218528
 31
0.0
  0
LINE
  5
18702
330
18
100
AcDbEntity
  8
01
100
AcDbLine
 10
2736.243967320562
 20
-1728.770968218528
 30
0.0
 11
2769.243967320561
 21
-1728.770968218528
 31
0.0
  0
LINE
  5
18703
330
18
100
AcDbEntity
  8
01
100
AcDbLine
 10
2736.575338170461
 20
-1729.570968218527
 30
0.0
 11
2769.243967320561
 21
-1729.570968218528
 31
0.0
  0
LINE
  5
18708
330
18
100
AcDbEntity
  8
01
  6
BYBLOCK
100
AcDbLine
 10
2726.243967320561
 20
-1860.570968218529
 30
0.0
 11
2747.24396732056
 21
-1860.570968218529
 31
0.0
  0
LINE
  5
18709
330
18
100
AcDbEntity
  8
01
  6
BYBLOCK
100
AcDbLine
 10
2726.243967320561
 20
-1845.570968218529
 30
0.0
 11
2738.243967320561
 21
-1845.570968218529
 31
0.0
  0
LINE
  5
1870B
330
18
100
AcDbEntity
  8
01
  6
BYBLOCK
100
AcDbLine
 10
2736.243967320561
 20
-1728.770968218528
 30
0.0
 11
2732.443967320561
 21
-1732.570968218528
 31
0.0
  0
LINE
  5
1870C
330
18
100
AcDbEntity
  8
01
  6
BYBLOCK
100
AcDbLine
 10
2736.575338170461
 20
-1729.570968218527
 30
0.0
 11
2733.57533817046
 21
-1732.570968218528
 31
0.0
  0
LINE
  5
1870D
330
18
100
AcDbEntity
  8
01
  6
BYBLOCK
100
AcDbLine
 10
2752.243967320562
 20
-1855.570968218528
 30
0.0
 11
2747.243967320561
 21
-1860.570968218529
 31
0.0
  0
LINE
  5
18710
330
18
100
AcDbEntity
  8
01
  6
BYBLOCK
100
AcDbLine
 10
2726.243967320561
 20
-1732.570968218528
 30
0.0
 11
2752.243967320562
 21
-1732.570968218528
 31
0.0
  0
LINE
  5
18711
330
18
100
AcDbEntity
  8
01
  6
BYBLOCK
100
AcDbLine
 10
2726.243967320561
 20
-1747.570914702244
 30
0.0
 11
2738.243967320561
 21
-1747.570914702244
 31
0.0
  0
LINE
  5
18713
330
18
100
AcDbEntity
  8
01
  6
BYBLOCK
100
AcDbLine
 10
2649.243967320561
 20
-1680.245241554732
 30
0.0
 11
2649.243967320561
 21
-1653.445241554731
 31
0.0
  0
LINE
  5
18714
330
18
100
AcDbEntity
  8
01
  6
BYBLOCK
100
AcDbLine
 10
2648.443967320561
 20
-1679.445241554732
 30
0.0
 11
2648.443967320562
 21
-1653.445241554732
 31
0.0
  0
LINE
  5
18715
330
18
100
AcDbEntity
  8
01
  6
BYBLOCK
100
AcDbLine
 10
2584.243967320561
 20
-1680.245241554732
 30
0.0
 11
2584.243967320561
 21
-1653.445241554768
 31
0.0
  0
LINE
  5
18716
330
18
100
AcDbEntity
  8
01
  6
BYBLOCK
100
AcDbLine
 10
2585.043967320561
 20
-1679.445241554732
 30
0.0
 11
2585.043967320562
 21
-1653.445241554768
 31
0.0
  0
LINE
  5
18717
330
18
100
AcDbEntity
  8
01
100
AcDbLine
 10
2634.743967320561
 20
-1637.245241554732
 30
0.0
 11
2598.74396732056
 21
-1637.245241554732
 31
0.0
  0
ARC
  5
18718
330
18
100
AcDbEntity
  8
01
100
AcDbCircle
 10
2634.743967320561
 20
-1639.245241554732
 30
0.0
 40
2.0
100
AcDbArc
 50
0.0
 51
90.0
  0
LINE
  5
18719
330
18
100
AcDbEntity
  8
01
100
AcDbLine
 10
2596.743967320561
 20
-1680.245241554732
 30
0.0
 11
2596.74396732056
 21
-1639.245241554732
 31
0.0
  0
ARC
  5
1871A
330
18
100
AcDbEntity
  8
01
100
AcDbCircle
 10
2598.74396732056
 20
-1639.245241554732
 30
0.0
 40
2.0
100
AcDbArc
 50
90.0
 51
180.0
  0
LINE
  5
1871B
330
18
100
AcDbEntity
  8
01
100
AcDbLine
 10
2594.743967320561
 20
-1680.245241554732
 30
0.0
 11
2594.743967320561
 21
-1679.445241554732
 31
0.0
  0
LINE
  5
1871C
330
18
100
AcDbEntity
  8
01
100
AcDbLine
 10
2636.743967320561
 20
-1680.245241554732
 30
0.0
 11
2636.743967320561
 21
-1639.245241554732
 31
0.0
  0
LINE
  5
1871D
330
18
100
AcDbEntity
  8
01
100
AcDbLine
 10
2638.743967320561
 20
-1680.245241554732
 30
0.0
 11
2638.743967320561
 21
-1679.445241554731
 31
0.0
  0
LINE
  5
1871E
330
18
100
AcDbEntity
  8
01
100
AcDbLine
 10
2636.743967320561
 20
-1670.245241554732
 30
0.0
 11
2596.743967320561
 21
-1670.245241554732
 31
0.0
  0
LINE
  5
18721
330
18
100
AcDbEntity
  8
01
100
AcDbLine
 10
2649.243967320561
 20
-1654.245241554731
 30
0.0
 11
2648.443967320562
 21
-1654.245241554731
 31
0.0
  0
LINE
  5
18722
330
18
100
AcDbEntity
  8
01
100
AcDbLine
 10
2585.043967320562
 20
-1654.245241554731
 30
0.0
 11
2584.243967320561
 21
-1654.245241554731
 31
0.0
  0
LINE
  5
18743
330
18
100
AcDbEntity
  8
01
100
AcDbLine
 10
2729.543967320561
 20
-1747.570914702244
 30
0.0
 11
2729.543967320562
 21
-1750.535069833668
 31
0.0
  0
LINE
  5
18747
330
18
100
AcDbEntity
  8
01
100
AcDbLine
 10
2732.243948124256
 20
-1748.821024643288
 30
0.0
 11
2732.243956850504
 21
-1747.570914702244
 31
0.0
  0
LINE
  5
18748
330
18
100
AcDbEntity
  8
01
100
AcDbLine
 10
2732.243948124256
 20
-1748.821024643288
 30
0.0
 11
2731.993951032721
 21
-1749.071021734823
 31
0.0
  0
LINE
  5
18749
330
18
100
AcDbEntity
  8
01
100
AcDbLine
 10
2731.993951032721
 20
-1749.071021734823
 30
0.0
 11
2729.543967320562
 21
-1749.070998932385
 31
0.0
  0
LINE
  5
1874A
330
18
100
AcDbEntity
  8
1HATCH
100
AcDbLine
 10
2732.243948705959
 20
-1748.821024061586
 30
0.0
 11
2729.543967320561
 21
-1748.820998932374
 31
0.0
  0
LINE
  5
1874D
330
18
100
AcDbEntity
  8
1HATCH
100
AcDbLine
 10
2731.993951032721
 20
-1749.071021734823
 30
0.0
 11
2731.993956850124
 21
-1747.570914702244
 31
0.0
  0
LINE
  5
1874E
330
18
100
AcDbEntity
  8
01
100
AcDbLine
 10
2729.043967320562
 20
-1751.035069833668
 30
0.0
 11
2727.043967320562
 21
-1751.035069833668
 31
0.0
  0
LINE
  5
1874F
330
18
100
AcDbEntity
  8
01
100
AcDbLine
 10
2729.543967320562
 20
-1750.535069833668
 30
0.0
 11
2729.043967320562
 21
-1751.035069833668
 31
0.0
  0
ARC
  5
187AB
330
18
100
AcDbEntity
  8
01
100
AcDbCircle
 10
2616.743967320558
 20
-1649.495241554732
 30
0.0
 40
2.5
100
AcDbArc
 50
184.780191847171
 51
355.2198081527605
  0
LINE
  5
18B4E
330
18
100
AcDbEntity
  8
01
100
AcDbLine
 10
2684.243967320561
 20
-1634.245241554732
 30
0.0
 11
2549.243967320562
 21
-1634.245241554732
 31
0.0
  0
LINE
  5
18B4F
330
18
100
AcDbEntity
  8
01
100
AcDbLine
 10
2684.243967320561
 20
-1653.445241554731
 30
0.0
 11
2684.243967320561
 21
-1634.245241554732
 31
0.0
  0
LINE
  5
18B50
330
18
100
AcDbEntity
  8
01
100
AcDbLine
 10
2683.443967320561
 20
-1654.245241554732
 30
0.0
 11
2683.443967320561
 21
-1634.245241554732
 31
0.0
  0
LINE
  5
18B51
330
18
100
AcDbEntity
  8
01
100
AcDbLine
 10
2549.243967320561
 20
-1653.445241554731
 30
0.0
 11
2549.243967320562
 21
-1634.245241554732
 31
0.0
  0
ARC
  5
18B52
330
18
100
AcDbEntity
  8
01
100
AcDbCircle
 10
2550.043967320561
 20
-1653.445241554731
 30
0.0
 40
0.8
100
AcDbArc
 50
180.0
 51
270.0
  0
LINE
  5
18B53
330
18
100
AcDbEntity
  8
01
100
AcDbLine
 10
2550.043967320562
 20
-1654.245241554732
 30
0.0
 11
2550.043967320562
 21
-1634.245241554732
 31
0.0
  0
LINE
  5
18B54
330
18
100
AcDbEntity
  8
01
100
AcDbLine
 10
2683.443967320561
 20
-1654.245241554732
 30
0.0
 11
2650.343967320562
 21
-1654.245241554732
 31
0.0
  0
ARC
  5
18B55
330
18
100
AcDbEntity
  8
01
100
AcDbCircle
 10
2683.443967320561
 20
-1653.445241554731
 30
0.0
 40
0.8
100
AcDbArc
 50
270.0
 51
0.0
  0
LINE
  5
18B56
330
18
100
AcDbEntity
  8
01
100
AcDbLine
 10
2583.14396732056
 20
-1654.24524155473
 30
0.0
 11
2550.043967320561
 21
-1654.245241554731
 31
0.0
  0
LINE
  5
18B57
330
18
100
AcDbEntity
  8
01
100
AcDbLine
 10
2583.943967320561
 20
-1653.44524155473
 30
0.0
 11
2583.94396732056
 21
-1653.445241554731
 31
0.0
  0
ARC
  5
18B58
330
18
100
AcDbEntity
  8
01
100
AcDbCircle
 10
2583.14396732056
 20
-1653.44524155473
 30
0.0
 40
0.8
100
AcDbArc
 50
270.0
 51
0.0
  0
LINE
  5
18B59
330
18
100
AcDbEntity
  8
01
100
AcDbLine
 10
2649.543967320561
 20
-1653.445241554731
 30
0.0
 11
2649.543967320561
 21
-1653.445241554731
 31
0.0
  0
ARC
  5
18B5A
330
18
100
AcDbEntity
  8
01
100
AcDbCircle
 10
2650.343967320562
 20
-1653.445241554731
 30
0.0
 40
0.8
100
AcDbArc
 50
180.0
 51
270.0
  0
LINE
  5
18B5B
330
18
100
AcDbEntity
  8
01
100
AcDbLine
 10
2583.94396732056
 20
-1653.445241554769
 30
0.0
 11
2596.743967320561
 21
-1653.445241554761
 31
0.0
  0
LINE
  5
18B5F
330
18
100
AcDbEntity
  8
01
100
AcDbLine
 10
2752.243967320563
 20
-1731.370968218528
 30
0.0
 11
2752.243967320562
 21
-1864.770968218528
 31
0.0
  0
LINE
  5
18B62
330
18
100
AcDbEntity
  8
01
100
AcDbLine
 10
2753.043967320562
 20
-1865.570968218528
 30
0.0
 11
2772.243967320561
 21
-1865.570968218528
 31
0.0
  0
ARC
  5
18B63
330
18
100
AcDbEntity
  8
01
100
AcDbCircle
 10
2753.043967320562
 20
-1864.770968218528
 30
0.0
 40
0.8
100
AcDbArc
 50
180.0
 51
270.0
  0
ARC
  5
18B6A
330
18
100
AcDbEntity
  8
01
100
AcDbCircle
 10
2753.043967320562
 20
-1731.370968218528
 30
0.0
 40
0.8
100
AcDbArc
 50
90.0
 51
180.0
  0
LINE
  5
18B6B
330
18
100
AcDbEntity
  8
01
100
AcDbLine
 10
2753.043967320562
 20
-1730.570968218527
 30
0.0
 11
2772.243967320562
 21
-1730.570968218528
 31
0.0
  0
LINE
  5
18B6D
330
18
100
AcDbEntity
  8
01
100
AcDbLine
 10
2764.293967320562
 20
-1731.370968218528
 30
0.0
 11
2772.243967320562
 21
-1731.370968218528
 31
0.0
  0
LINE
  5
18B99
330
18
100
AcDbEntity
  8
01
  6
BYBLOCK
100
AcDbLine
 10
2731.443967320561
 20
-1775.170968218524
 30
0.0
 11
2738.243967320561
 21
-1775.170968218524
 31
0.0
  0
LINE
  5
18B9B
330
18
100
AcDbEntity
  8
01
  6
BYBLOCK
100
AcDbLine
 10
2731.443967320561
 20
-1774.370968218524
 30
0.0
 11
2738.243967320561
 21
-1774.370968218524
 31
0.0
  0
LINE
  5
18BA0
330
18
100
AcDbEntity
  8
01
100
AcDbLine
 10
2731.443967320561
 20
-1774.370968218524
 30
0.0
 11
2731.443967320561
 21
-1775.170968218524
 31
0.0
  0
LINE
  5
18C59
330
18
100
AcDbEntity
  8
01
100
AcDbLine
 10
2636.743967320561
 20
-1653.445241554739
 30
0.0
 11
2649.543967320561
 21
-1653.445241554731
 31
0.0
  0
LINE
  5
18C84
330
18
100
AcDbEntity
  8
01
100
AcDbLine
 10
2772.243967320561
 20
-1730.570968218528
 30
0.0
 11
2772.243967320561
 21
-1865.570968218528
 31
0.0
  0
CIRCLE
  5
18C8D
330
18
100
AcDbEntity
  8
01
100
AcDbCircle
 10
2616.743967320561
 20
-1644.245241554733
 30
0.0
 40
5.5
  0
CIRCLE
  5
18C8E
330
18
100
AcDbEntity
  8
01
100
AcDbCircle
 10
2616.743967320561
 20
-1644.245241554732
 30
0.0
 40
6.0
  0
LINE
  5
18CF3
330
18
100
AcDbEntity
  8
01
  6
BYBLOCK
100
AcDbLine
 10
2736.443967320562
 20
-1779.870968218529
 30
0.0
 11
2738.243967320561
 21
-1779.870968218528
 31
0.0
  0
LINE
  5
18CF6
330
18
100
AcDbEntity
  8
01
  6
BYBLOCK
100
AcDbLine
 10
2736.443967320562
 20
-1775.170968218524
 30
0.0
 11
2736.443967320562
 21
-1779.870968218529
 31
0.0
  0
SPLINE
  5
18CFD
330
18
100
AcDbEntity
  8
01
100
AcDbSpline
210
0.0
220
0.0
230
1.0
 70
     8
 71
     3
 72
     9
 73
     5
 74
     0
 42
0.0000000001
 43
0.0000000001
 40
45.55824241773284
 40
45.55824241773284
 40
45.55824241773284
 40
45.55824241773284
 40
47.73056588643972
 40
52.8908057004467
 40
52.8908057004467
 40
52.8908057004467
 40
52.8908057004467
 10
2779.643967320562
 20
-1762.206774765904
 30
0.0
 10
2780.411171523048
 20
-1762.090517128849
 30
0.0
 10
2782.963504475584
 20
-1761.60621705269
 30
0.0
 10
2785.265740596281
 20
-1760.928163929106
 30
0.0
 10
2786.885923066342
 20
-1760.450988814562
 30
0.0
  0
SPLINE
  5
18CFF
330
18
100
AcDbEntity
  8
01
100
AcDbSpline
210
0.0
220
0.0
230
1.0
 70
     8
 71
     3
 72
    14
 73
    10
 74
     0
 42
0.0000000001
 43
0.0000000001
 40
45.94246356193858
 40
45.94246356193858
 40
45.94246356193858
 40
45.94246356193858
 40
46.10175724510373
 40
46.10175724510373
 40
48.27912140193641
 40
48.27912140193641
 40
50.45648555876909
 40
50.45648555876909
 40
52.8908057004467
 40
52.8908057004467
 40
52.8908057004467
 40
52.8908057004467
 10
2779.643967320561
 20
-1759.675771379364
 30
0.0
 10
2779.695674898007
 20
-1759.667263510945
 30
0.0
 10
2779.747354572302
 20
-1759.658622400537
 30
0.0
 10
2780.504949831223
 20
-1759.529959842855
 30
0.0
 10
2781.20315530635
 20
-1759.38624061415
 30
0.0
 10
2782.569606716388
 20
-1759.067871372065
 30
0.0
 10
2783.241636485252
 20
-1758.892565631116
 30
0.0
 10
2784.664504516464
 20
-1758.498954023692
 30
0.0
 10
2785.415306760971
 20
-1758.277941247612
 30
0.0
 10
2786.179620622771
 20
-1758.052836013299
 30
0.0
  0
SPLINE
  5
18D02
330
18
100
AcDbEntity
  8
01
100
AcDbSpline
210
0.0
220
0.0
230
1.0
 70
     8
 71
     3
 72
     8
 73
     4
 74
     0
 42
0.0000000001
 43
0.0000000001
 40
53.30899069625806
 40
53.30899069625806
 40
53.30899069625806
 40
53.30899069625806
 40
60.63220998043035
 40
60.63220998043035
 40
60.63220998043035
 40
60.63220998043035
 10
2779.643967320561
 20
-1763.338903672711
 30
0.0
 10
2782.364185005993
 20
-1763.685381603776
 30
0.0
 10
2785.353073759504
 20
-1763.820288786839
 30
0.0
 10
2788.341962513015
 20
-1763.955195969903
 30
0.0
  0
SPLINE
  5
18D04
330
18
100
AcDbEntity
  8
01
100
AcDbSpline
210
0.0
220
0.0
230
1.0
 70
     8
 71
     3
 72
    10
 73
     6
 74
     0
 42
0.0000000001
 43
0.0000000001
 40
53.57696304473036
 40
53.57696304473036
 40
53.57696304473036
 40
53.57696304473036
 40
56.41861027100114
 40
56.41861027100114
 40
60.63220998043035
 40
60.63220998043035
 40
60.63220998043035
 40
60.63220998043035
 10
2779.643967320559
 20
-1765.858696400968
 30
0.0
 10
2780.761324407684
 20
-1765.993806151728
 30
0.0
 10
2781.903060537026
 20
-1766.094206469293
 30
0.0
 10
2784.769793597583
 20
-1766.296808491883
 30
0.0
 10
2786.50950384414
 20
-1766.37503098993
 30
0.0
 10
2788.229236695856
 20
-1766.452653254852
 30
0.0
  0
LINE
  5
18D0A
330
18
100
AcDbEntity
  8
01
  6
BYBLOCK
100
AcDbLine
 10
2772.243967320561
 20
-1757.970976865181
 30
0.0
 11
2772.743960390527
 21
-1757.970976865181
 31
0.0
  0
LINE
  5
18D0B
330
18
100
AcDbEntity
  8
01
  6
BYBLOCK
100
AcDbLine
 10
2772.843966494043
 20
-1757.620970761666
 30
0.0
 11
2773.543963442285
 21
-1757.620970761666
 31
0.0
  0
LINE
  5
18D0C
330
18
100
AcDbEntity
  8
01
  6
BYBLOCK
100
AcDbLine
 10
2772.844023863513
 20
-1757.620958046007
 30
0.0
 11
2772.744021741091
 21
-1757.970964149523
 31
0.0
  0
LINE
  5
18D0F
330
18
100
AcDbEntity
  8
01
  6
BYBLOCK
100
AcDbLine
 10
2772.743973424076
 20
-1757.970974322049
 30
0.0
 11
2772.743973424076
 21
-1770.771094776121
 31
0.0
  0
LINE
  5
18D10
330
18
100
AcDbEntity
  8
01
  6
BYBLOCK
100
AcDbLine
 10
2772.843964268802
 20
-1757.620968218533
 30
0.0
 11
2772.843964268802
 21
-1771.120955502877
 31
0.0
  0
LINE
  5
18D11
330
18
100
AcDbEntity
  8
01
  6
BYBLOCK
100
AcDbLine
 10
2773.543976475833
 20
-1757.620968218533
 30
0.0
 11
2773.543976475833
 21
-1771.12103935455
 31
0.0
  0
LINE
  5
18D14
330
18
100
AcDbEntity
  8
01
  6
BYBLOCK
100
AcDbLine
 10
2772.243967320561
 20
-1770.770962115017
 30
0.0
 11
2772.743962933658
 21
-1770.770962115017
 31
0.0
  0
LINE
  5
18D18
330
18
100
AcDbEntity
  8
01
  6
BYBLOCK
100
AcDbLine
 10
2772.843969037174
 20
-1771.120968218533
 30
0.0
 11
2773.543965985416
 21
-1771.120968218533
 31
0.0
  0
LINE
  5
18D19
330
18
100
AcDbEntity
  8
01
  6
BYBLOCK
100
AcDbLine
 10
2772.843933771093
 20
-1771.120955502877
 30
0.0
 11
2772.743931524495
 21
-1770.770948127795
 31
0.0
  0
LINE
  5
18D1B
330
18
100
AcDbEntity
  8
01
  6
BYBLOCK
100
AcDbLine
 10
2779.64396732056
 20
-1758.721070961047
 30
0.0
 11
2773.543976475833
 21
-1757.62089446772
 31
0.0
  0
LINE
  5
18D1C
330
18
100
AcDbEntity
  8
01
  6
BYBLOCK
100
AcDbLine
 10
2779.64396732056
 20
-1758.721070961047
 30
0.0
 11
2779.64396732056
 21
-1770.020862932888
 31
0.0
  0
LINE
  5
18D1D
330
18
100
AcDbEntity
  8
01
  6
BYBLOCK
100
AcDbLine
 10
2779.64396732056
 20
-1770.020862932888
 30
0.0
 11
2773.54397607847
 21
-1771.121039426216
 31
0.0
  0
LINE
  5
18D25
330
18
100
AcDbEntity
  8
01
  6
BYBLOCK
100
AcDbLine
 10
2738.043967320561
 20
-1774.370968218523
 30
0.0
 11
2738.043967320561
 21
-1747.870968218529
 31
0.0
  0
LINE
  5
18D26
330
18
100
AcDbEntity
  8
01
  6
BYBLOCK
100
AcDbLine
 10
2738.043967320561
 20
-1747.870968218529
 30
0.0
 11
2738.243967320561
 21
-1747.870968218529
 31
0.0
  0
LINE
  5
18D2E
330
18
100
AcDbEntity
  8
1CENTER
100
AcDbLine
 10
2585.243967320561
 20
-1737.570968218529
 30
0.0
 11
2594.243967320561
 21
-1737.570968218529
 31
0.0
  0
LINE
  5
18D2F
330
18
100
AcDbEntity
  8
1CENTER
100
AcDbLine
 10
2589.743967320561
 20
-1742.070968218529
 30
0.0
 11
2589.743967320561
 21
-1733.070968218529
 31
0.0
  0
LINE
  5
18D30
330
18
100
AcDbEntity
  8
1CENTER
100
AcDbLine
 10
2648.243967320561
 20
-1737.570968218529
 30
0.0
 11
2639.243967320561
 21
-1737.570968218529
 31
0.0
  0
LINE
  5
18D31
330
18
100
AcDbEntity
  8
1CENTER
100
AcDbLine
 10
2643.743967320561
 20
-1742.070968218529
 30
0.0
 11
2643.743967320561
 21
-1733.070968218529
 31
0.0
  0
LINE
  5
18D32
330
18
100
AcDbEntity
  8
1CENTER
100
AcDbLine
 10
2585.243967320561
 20
-1837.570968218529
 30
0.0
 11
2594.243967320561
 21
-1837.570968218529
 31
0.0
  0
LINE
  5
18D33
330
18
100
AcDbEntity
  8
1CENTER
100
AcDbLine
 10
2589.743967320561
 20
-1842.070968218529
 30
0.0
 11
2589.743967320561
 21
-1833.070968218529
 31
0.0
  0
LINE
  5
18D34
330
18
100
AcDbEntity
  8
1CENTER
100
AcDbLine
 10
2648.243967320561
 20
-1837.570968218529
 30
0.0
 11
2639.243967320561
 21
-1837.570968218529
 31
0.0
  0
LINE
  5
18D35
330
18
100
AcDbEntity
  8
1CENTER
100
AcDbLine
 10
2643.743967320561
 20
-1842.070968218529
 30
0.0
 11
2643.743967320561
 21
-1833.070968218529
 31
0.0
  0
CIRCLE
  5
18D36
330
18
100
AcDbEntity
  8
1PHANTOM
100
AcDbCircle
 10
2589.743967320561
 20
-1737.570968218529
 30
0.0
 40
2.25
  0
CIRCLE
  5
18D37
330
18
100
AcDbEntity
  8
1PHANTOM
100
AcDbCircle
 10
2643.743967320561
 20
-1737.570968218529
 30
0.0
 40
2.25
  0
CIRCLE
  5
18D38
330
18
100
AcDbEntity
  8
1PHANTOM
100
AcDbCircle
 10
2589.743967320561
 20
-1837.570968218529
 30
0.0
 40
2.25
  0
CIRCLE
  5
18D39
330
18
100
AcDbEntity
  8
1PHANTOM
100
AcDbCircle
 10
2643.743967320561
 20
-1837.570968218529
 30
0.0
 40
2.25
  0
LINE
  5
18D5E
330
18
100
AcDbEntity
  8
01
100
AcDbLine
 10
2610.743967320561
 20
-1728.770968218528
 30
0.0
 11
2611.243967320561
 21
-1723.770968218528
 31
0.0
  0
LINE
  5
18D5F
330
18
100
AcDbEntity
  8
1HATCH
100
AcDbLine
 10
2612.743967320561
 20
-1728.770968218528
 30
0.0
 11
2612.743967320561
 21
-1723.770968218528
 31
0.0
  0
LINE
  5
18D60
330
18
100
AcDbEntity
  8
1HATCH
100
AcDbLine
 10
2611.743967320561
 20
-1728.770968218528
 30
0.0
 11
2611.743967320561
 21
-1723.770968218528
 31
0.0
  0
LINE
  5
18D61
330
18
100
AcDbEntity
  8
01
100
AcDbLine
 10
2622.743967320561
 20
-1728.770968218528
 30
0.0
 11
2622.243967320561
 21
-1723.770968218528
 31
0.0
  0
LINE
  5
18D62
330
18
100
AcDbEntity
  8
1HATCH
100
AcDbLine
 10
2621.743967320561
 20
-1728.770968218528
 30
0.0
 11
2621.743967320561
 21
-1723.770968218528
 31
0.0
  0
LINE
  5
18D63
330
18
100
AcDbEntity
  8
1HATCH
100
AcDbLine
 10
2620.743967320561
 20
-1728.770968218528
 30
0.0
 11
2620.743967320561
 21
-1723.770968218528
 31
0.0
  0
LINE
  5
18D64
330
18
100
AcDbEntity
  8
1HATCH
100
AcDbLine
 10
2619.743967320561
 20
-1728.770968218528
 30
0.0
 11
2619.743967320561
 21
-1723.770968218528
 31
0.0
  0
LINE
  5
18D65
330
18
100
AcDbEntity
  8
1HATCH
100
AcDbLine
 10
2618.743967320561
 20
-1728.770968218528
 30
0.0
 11
2618.743967320561
 21
-1723.770968218528
 31
0.0
  0
LINE
  5
18D66
330
18
100
AcDbEntity
  8
1HATCH
100
AcDbLine
 10
2617.743967320561
 20
-1728.770968218528
 30
0.0
 11
2617.743967320561
 21
-1723.770968218528
 31
0.0
  0
LINE
  5
18D67
330
18
100
AcDbEntity
  8
1HATCH
100
AcDbLine
 10
2615.743967320561
 20
-1728.770968218528
 30
0.0
 11
2615.743967320561
 21
-1723.770968218528
 31
0.0
  0
LINE
  5
18D68
330
18
100
AcDbEntity
  8
1HATCH
100
AcDbLine
 10
2614.743967320561
 20
-1728.770968218528
 30
0.0
 11
2614.743967320561
 21
-1723.770968218528
 31
0.0
  0
LINE
  5
18D69
330
18
100
AcDbEntity
  8
1HATCH
100
AcDbLine
 10
2613.743967320561
 20
-1728.770968218528
 30
0.0
 11
2613.743967320561
 21
-1723.770968218528
 31
0.0
  0
LINE
  5
18D6A
330
18
100
AcDbEntity
  8
1HATCH
100
AcDbLine
 10
2616.743967320561
 20
-1723.770968218528
 30
0.0
 11
2616.743967320561
 21
-1728.770968218528
 31
0.0
  0
LINE
  5
18D6B
330
18
100
AcDbEntity
  8
01
100
AcDbLine
 10
2611.243967320561
 20
-1723.770968218528
 30
0.0
 11
2622.243967320561
 21
-1723.770968218528
 31
0.0
  0
LINE
  5
18D6C
330
18
100
AcDbEntity
  8
01
100
AcDbLine
 10
2610.743967320561
 20
-1728.770968218528
 30
0.0
 11
2622.743967320561
 21
-1728.770968218528
 31
0.0
  0
LINE
  5
18D7B
330
18
100
AcDbEntity
  8
1PHANTOM
100
AcDbLine
 10
2715.68365432878
 20
-1671.259266475088
 30
0.0
 11
2772.243967320562
 21
-1671.259266475088
 31
0.0
  0
CIRCLE
  5
18E41
330
18
100
AcDbEntity
  8
1PHANTOM
100
AcDbCircle
 10
2616.743967320563
 20
-1787.570968216441
 30
0.0
 40
45.0
  0
LINE
  5
18E43
330
18
100
AcDbEntity
  8
1CENTER
100
AcDbLine
 10
2560.493967320562
 20
-1787.570968216439
 30
0.0
 11
2672.993967320562
 21
-1787.570968216439
 31
0.0
  0
LINE
  5
18E6B
330
18
100
AcDbEntity
  8
1PHANTOM
100
AcDbLine
 10
2643.744013856459
 20
-1605.045241554894
 30
0.0
 11
2642.244013856459
 21
-1610.345238064756
 31
0.0
  0
LINE
  5
18E6C
330
18
100
AcDbEntity
  8
1PHANTOM
100
AcDbLine
 10
2642.244013856459
 20
-1610.345238064756
 30
0.0
 11
2642.244013856459
 21
-1634.245241554732
 31
0.0
  0
LINE
  5
18E6D
330
18
100
AcDbEntity
  8
1PHANTOM
100
AcDbLine
 10
2643.744013856459
 20
-1605.045241554894
 30
0.0
 11
2645.244013856459
 21
-1610.345245045139
 31
0.0
  0
LINE
  5
18E6E
330
18
100
AcDbEntity
  8
1PHANTOM
100
AcDbLine
 10
2645.244013856459
 20
-1610.345245045139
 30
0.0
 11
2645.244013856459
 21
-1634.245241554732
 31
0.0
  0
LINE
  5
18E6F
330
18
100
AcDbEntity
  8
1PHANTOM
100
AcDbLine
 10
2643.743967320561
 20
-1602.084326963585
 30
0.0
 11
2643.743967320561
 21
-1638.71551796404
 31
0.0
  0
LINE
  5
18E70
330
18
100
AcDbEntity
  8
1PHANTOM
100
AcDbLine
 10
2642.649643506566
 20
-1607.145239008572
 30
0.0
 11
2644.611978595442
 21
-1606.345243574521
 31
0.0
  0
LINE
  5
18E71
330
18
100
AcDbEntity
  8
1PHANTOM
100
AcDbLine
 10
2644.611978595442
 20
-1606.345243574521
 30
0.0
 11
2644.023702020399
 21
-1606.033473718269
 31
0.0
  0
LINE
  5
18E72
330
18
100
AcDbEntity
  8
1PHANTOM
100
AcDbLine
 10
2641.744013856459
 20
-1629.545236901362
 30
0.0
 11
2645.744013856459
 21
-1628.745246208543
 31
0.0
  0
LINE
  5
18E73
330
18
100
AcDbEntity
  8
1PHANTOM
100
AcDbLine
 10
2641.744013856459
 20
-1618.345236901357
 30
0.0
 11
2645.744013856459
 21
-1617.545246208535
 31
0.0
  0
LINE
  5
18E74
330
18
100
AcDbEntity
  8
1PHANTOM
100
AcDbLine
 10
2641.744013856459
 20
-1615.145236901357
 30
0.0
 11
2645.744013856459
 21
-1614.345246208535
 31
0.0
  0
LINE
  5
18E75
330
18
100
AcDbEntity
  8
1PHANTOM
100
AcDbLine
 10
2645.744013856459
 20
-1614.345246208535
 30
0.0
 11
2645.244013856459
 21
-1614.245245045138
 31
0.0
  0
LINE
  5
18E76
330
18
100
AcDbEntity
  8
1PHANTOM
100
AcDbLine
 10
2642.244013856459
 20
-1613.645238064754
 30
0.0
 11
2641.744013856459
 21
-1613.545236901357
 31
0.0
  0
LINE
  5
18E77
330
18
100
AcDbEntity
  8
1PHANTOM
100
AcDbLine
 10
2645.744013856459
 20
-1617.545246208535
 30
0.0
 11
2645.244013856459
 21
-1617.445245045138
 31
0.0
  0
LINE
  5
18E78
330
18
100
AcDbEntity
  8
1PHANTOM
100
AcDbLine
 10
2645.744013856459
 20
-1615.945246208535
 30
0.0
 11
2645.244013856459
 21
-1615.845245045138
 31
0.0
  0
LINE
  5
18E79
330
18
100
AcDbEntity
  8
1PHANTOM
100
AcDbLine
 10
2642.244013856459
 20
-1615.245238064754
 30
0.0
 11
2641.744013856459
 21
-1615.145236901357
 31
0.0
  0
LINE
  5
18E7A
330
18
100
AcDbEntity
  8
1PHANTOM
100
AcDbLine
 10
2642.244013856459
 20
-1616.845238064754
 30
0.0
 11
2641.744013856459
 21
-1616.745236901357
 31
0.0
  0
LINE
  5
18E7B
330
18
100
AcDbEntity
  8
1PHANTOM
100
AcDbLine
 10
2641.744013856459
 20
-1616.745236901357
 30
0.0
 11
2645.744013856459
 21
-1615.945246208535
 31
0.0
  0
LINE
  5
18E7C
330
18
100
AcDbEntity
  8
1PHANTOM
100
AcDbLine
 10
2645.064792699849
 20
-1607.945244628126
 30
0.0
 11
2644.513043236045
 21
-1607.762480485498
 31
0.0
  0
LINE
  5
18E7D
330
18
100
AcDbEntity
  8
1PHANTOM
100
AcDbLine
 10
2645.744013856459
 20
-1611.145246208535
 30
0.0
 11
2645.244013856459
 21
-1611.045245045138
 31
0.0
  0
LINE
  5
18E7E
330
18
100
AcDbEntity
  8
1PHANTOM
100
AcDbLine
 10
2645.744013856459
 20
-1612.745246208535
 30
0.0
 11
2645.244013856459
 21
-1612.645245045138
 31
0.0
  0
LINE
  5
18E7F
330
18
100
AcDbEntity
  8
1PHANTOM
100
AcDbLine
 10
2645.517606804255
 20
-1609.545245681732
 30
0.0
 11
2644.981013068984
 21
-1609.415974984102
 31
0.0
  0
LINE
  5
18E80
330
18
100
AcDbEntity
  8
1PHANTOM
100
AcDbLine
 10
2642.664928453668
 20
-1608.858007467318
 30
0.0
 11
2642.196829998518
 21
-1608.745237954967
 31
0.0
  0
LINE
  5
18E81
330
18
100
AcDbEntity
  8
1PHANTOM
100
AcDbLine
 10
2642.244013856459
 20
-1612.045238064754
 30
0.0
 11
2641.744013856459
 21
-1611.945236901357
 31
0.0
  0
LINE
  5
18E82
330
18
100
AcDbEntity
  8
1PHANTOM
100
AcDbLine
 10
2642.244013856459
 20
-1610.445238064754
 30
0.0
 11
2641.744013856459
 21
-1610.345236901357
 31
0.0
  0
LINE
  5
18E83
330
18
100
AcDbEntity
  8
1PHANTOM
100
AcDbLine
 10
2643.106815347197
 20
-1607.296674805012
 30
0.0
 11
2642.649643506566
 21
-1607.145239008572
 31
0.0
  0
LINE
  5
18E84
330
18
100
AcDbEntity
  8
1PHANTOM
100
AcDbLine
 10
2642.196829998518
 20
-1608.745237954967
 30
0.0
 11
2645.064792699849
 21
-1607.945244628126
 31
0.0
  0
LINE
  5
18E85
330
18
100
AcDbEntity
  8
1PHANTOM
100
AcDbLine
 10
2641.744013856459
 20
-1611.945236901357
 30
0.0
 11
2645.744013856459
 21
-1611.145246208535
 31
0.0
  0
LINE
  5
18E86
330
18
100
AcDbEntity
  8
1PHANTOM
100
AcDbLine
 10
2641.744013856459
 20
-1610.345236901357
 30
0.0
 11
2645.517606804255
 21
-1609.545245681732
 31
0.0
  0
LINE
  5
18E87
330
18
100
AcDbEntity
  8
1PHANTOM
100
AcDbLine
 10
2641.744013856459
 20
-1613.545236901357
 30
0.0
 11
2645.744013856459
 21
-1612.745246208535
 31
0.0
  0
LINE
  5
18E88
330
18
100
AcDbEntity
  8
1PHANTOM
100
AcDbLine
 10
2641.744013856459
 20
-1626.345236901362
 30
0.0
 11
2645.744013856459
 21
-1625.545246208543
 31
0.0
  0
LINE
  5
18E89
330
18
100
AcDbEntity
  8
1PHANTOM
100
AcDbLine
 10
2645.744013856459
 20
-1625.545246208543
 30
0.0
 11
2645.244013856459
 21
-1625.445245045146
 31
0.0
  0
LINE
  5
18E8A
330
18
100
AcDbEntity
  8
1PHANTOM
100
AcDbLine
 10
2642.244013856459
 20
-1624.845238064755
 30
0.0
 11
2641.744013856459
 21
-1624.745236901357
 31
0.0
  0
LINE
  5
18E8B
330
18
100
AcDbEntity
  8
1PHANTOM
100
AcDbLine
 10
2645.744013856459
 20
-1627.145246208544
 30
0.0
 11
2645.244013856459
 21
-1627.045245045146
 31
0.0
  0
LINE
  5
18E8C
330
18
100
AcDbEntity
  8
1PHANTOM
100
AcDbLine
 10
2645.744013856459
 20
-1628.745246208543
 30
0.0
 11
2645.244013856459
 21
-1628.645245045146
 31
0.0
  0
LINE
  5
18E8D
330
18
100
AcDbEntity
  8
1PHANTOM
100
AcDbLine
 10
2642.244013856459
 20
-1626.445238064759
 30
0.0
 11
2641.744013856459
 21
-1626.345236901362
 31
0.0
  0
LINE
  5
18E8E
330
18
100
AcDbEntity
  8
1PHANTOM
100
AcDbLine
 10
2642.244013856459
 20
-1628.04523806476
 30
0.0
 11
2641.744013856459
 21
-1627.945236901362
 31
0.0
  0
LINE
  5
18E8F
330
18
100
AcDbEntity
  8
1PHANTOM
100
AcDbLine
 10
2641.744013856459
 20
-1627.945236901362
 30
0.0
 11
2645.744013856459
 21
-1627.145246208544
 31
0.0
  0
LINE
  5
18E90
330
18
100
AcDbEntity
  8
1PHANTOM
100
AcDbLine
 10
2645.744013856459
 20
-1620.745246208539
 30
0.0
 11
2645.244013856459
 21
-1620.645245045141
 31
0.0
  0
LINE
  5
18E91
330
18
100
AcDbEntity
  8
1PHANTOM
100
AcDbLine
 10
2645.744013856459
 20
-1619.145246208535
 30
0.0
 11
2645.244013856459
 21
-1619.045245045138
 31
0.0
  0
LINE
  5
18E92
330
18
100
AcDbEntity
  8
1PHANTOM
100
AcDbLine
 10
2645.744013856459
 20
-1623.945246208539
 30
0.0
 11
2645.244013856459
 21
-1623.845245045141
 31
0.0
  0
LINE
  5
18E93
330
18
100
AcDbEntity
  8
1PHANTOM
100
AcDbLine
 10
2645.744013856459
 20
-1622.345246208539
 30
0.0
 11
2645.244013856459
 21
-1622.245245045141
 31
0.0
  0
LINE
  5
18E94
330
18
100
AcDbEntity
  8
1PHANTOM
100
AcDbLine
 10
2642.244013856459
 20
-1618.445238064754
 30
0.0
 11
2641.744013856459
 21
-1618.345236901357
 31
0.0
  0
LINE
  5
18E95
330
18
100
AcDbEntity
  8
1PHANTOM
100
AcDbLine
 10
2642.244013856459
 20
-1620.045238064755
 30
0.0
 11
2641.744013856459
 21
-1619.945236901357
 31
0.0
  0
LINE
  5
18E96
330
18
100
AcDbEntity
  8
1PHANTOM
100
AcDbLine
 10
2642.244013856459
 20
-1623.245238064755
 30
0.0
 11
2641.744013856459
 21
-1623.145236901358
 31
0.0
  0
LINE
  5
18E97
330
18
100
AcDbEntity
  8
1PHANTOM
100
AcDbLine
 10
2642.244013856459
 20
-1621.645238064755
 30
0.0
 11
2641.744013856459
 21
-1621.545236901357
 31
0.0
  0
LINE
  5
18E98
330
18
100
AcDbEntity
  8
1PHANTOM
100
AcDbLine
 10
2641.744013856459
 20
-1621.545236901357
 30
0.0
 11
2645.744013856459
 21
-1620.745246208539
 31
0.0
  0
LINE
  5
18E99
330
18
100
AcDbEntity
  8
1PHANTOM
100
AcDbLine
 10
2641.744013856459
 20
-1619.945236901357
 30
0.0
 11
2645.744013856459
 21
-1619.145246208535
 31
0.0
  0
LINE
  5
18E9A
330
18
100
AcDbEntity
  8
1PHANTOM
100
AcDbLine
 10
2641.744013856459
 20
-1623.145236901358
 30
0.0
 11
2645.744013856459
 21
-1622.345246208539
 31
0.0
  0
LINE
  5
18E9B
330
18
100
AcDbEntity
  8
1PHANTOM
100
AcDbLine
 10
2641.744013856459
 20
-1624.745236901357
 30
0.0
 11
2645.744013856459
 21
-1623.945246208539
 31
0.0
  0
LINE
  5
18E9C
330
18
100
AcDbEntity
  8
1PHANTOM
100
AcDbLine
 10
2642.243996406416
 20
-1634.245241554732
 30
0.0
 11
2645.744013856459
 21
-1633.545246208548
 31
0.0
  0
LINE
  5
18E9D
330
18
100
AcDbEntity
  8
1PHANTOM
100
AcDbLine
 10
2645.744013856459
 20
-1633.545246208548
 30
0.0
 11
2645.244013856459
 21
-1633.44524504515
 31
0.0
  0
LINE
  5
18E9E
330
18
100
AcDbEntity
  8
1PHANTOM
100
AcDbLine
 10
2642.244013856459
 20
-1632.845238064764
 30
0.0
 11
2641.744013856459
 21
-1632.745236901366
 31
0.0
  0
LINE
  5
18E9F
330
18
100
AcDbEntity
  8
1PHANTOM
100
AcDbLine
 10
2642.244013856459
 20
-1631.245238064764
 30
0.0
 11
2641.744013856459
 21
-1631.145236901366
 31
0.0
  0
LINE
  5
18EA0
330
18
100
AcDbEntity
  8
1PHANTOM
100
AcDbLine
 10
2641.744013856459
 20
-1631.145236901366
 30
0.0
 11
2645.744013856459
 21
-1630.345246208548
 31
0.0
  0
LINE
  5
18EA1
330
18
100
AcDbEntity
  8
1PHANTOM
100
AcDbLine
 10
2645.744013856459
 20
-1631.945246208548
 30
0.0
 11
2645.244013856459
 21
-1631.84524504515
 31
0.0
  0
LINE
  5
18EA2
330
18
100
AcDbEntity
  8
1PHANTOM
100
AcDbLine
 10
2645.744013856459
 20
-1630.345246208548
 30
0.0
 11
2645.244013856459
 21
-1630.24524504515
 31
0.0
  0
LINE
  5
18EA3
330
18
100
AcDbEntity
  8
1PHANTOM
100
AcDbLine
 10
2641.744013856459
 20
-1632.745236901366
 30
0.0
 11
2645.744013856459
 21
-1631.945246208548
 31
0.0
  0
LINE
  5
18EA4
330
18
100
AcDbEntity
  8
1PHANTOM
100
AcDbLine
 10
2642.244013856459
 20
-1629.645238064759
 30
0.0
 11
2641.744013856459
 21
-1629.545236901362
 31
0.0
  0
LINE
  5
18EA5
330
18
100
AcDbEntity
  8
1PHANTOM
100
AcDbLine
 10
2589.744013856459
 20
-1605.045241554894
 30
0.0
 11
2588.244013856459
 21
-1610.345238064756
 31
0.0
  0
LINE
  5
18EA6
330
18
100
AcDbEntity
  8
1PHANTOM
100
AcDbLine
 10
2588.244013856459
 20
-1610.345238064756
 30
0.0
 11
2588.244013856459
 21
-1634.245241554732
 31
0.0
  0
LINE
  5
18EA7
330
18
100
AcDbEntity
  8
1PHANTOM
100
AcDbLine
 10
2589.744013856459
 20
-1605.045241554894
 30
0.0
 11
2591.244013856459
 21
-1610.345245045139
 31
0.0
  0
LINE
  5
18EA8
330
18
100
AcDbEntity
  8
1PHANTOM
100
AcDbLine
 10
2591.244013856459
 20
-1610.345245045139
 30
0.0
 11
2591.244013856459
 21
-1634.245241554732
 31
0.0
  0
LINE
  5
18EA9
330
18
100
AcDbEntity
  8
1PHANTOM
100
AcDbLine
 10
2589.743967320561
 20
-1602.084326963585
 30
0.0
 11
2589.743967320561
 21
-1638.71551796404
 31
0.0
  0
LINE
  5
18EAA
330
18
100
AcDbEntity
  8
1PHANTOM
100
AcDbLine
 10
2588.649643506566
 20
-1607.145239008572
 30
0.0
 11
2590.611978595442
 21
-1606.345243574521
 31
0.0
  0
LINE
  5
18EAB
330
18
100
AcDbEntity
  8
1PHANTOM
100
AcDbLine
 10
2590.611978595442
 20
-1606.345243574521
 30
0.0
 11
2590.023702020399
 21
-1606.033473718269
 31
0.0
  0
LINE
  5
18EAC
330
18
100
AcDbEntity
  8
1PHANTOM
100
AcDbLine
 10
2587.744013856459
 20
-1629.545236901362
 30
0.0
 11
2591.744013856459
 21
-1628.745246208543
 31
0.0
  0
LINE
  5
18EAD
330
18
100
AcDbEntity
  8
1PHANTOM
100
AcDbLine
 10
2587.744013856459
 20
-1618.345236901357
 30
0.0
 11
2591.744013856459
 21
-1617.545246208535
 31
0.0
  0
LINE
  5
18EAE
330
18
100
AcDbEntity
  8
1PHANTOM
100
AcDbLine
 10
2587.744013856459
 20
-1615.145236901357
 30
0.0
 11
2591.744013856459
 21
-1614.345246208535
 31
0.0
  0
LINE
  5
18EAF
330
18
100
AcDbEntity
  8
1PHANTOM
100
AcDbLine
 10
2591.744013856459
 20
-1614.345246208535
 30
0.0
 11
2591.244013856459
 21
-1614.245245045138
 31
0.0
  0
LINE
  5
18EB0
330
18
100
AcDbEntity
  8
1PHANTOM
100
AcDbLine
 10
2588.244013856459
 20
-1613.645238064754
 30
0.0
 11
2587.744013856459
 21
-1613.545236901357
 31
0.0
  0
LINE
  5
18EB1
330
18
100
AcDbEntity
  8
1PHANTOM
100
AcDbLine
 10
2591.744013856459
 20
-1617.545246208535
 30
0.0
 11
2591.244013856459
 21
-1617.445245045138
 31
0.0
  0
LINE
  5
18EB2
330
18
100
AcDbEntity
  8
1PHANTOM
100
AcDbLine
 10
2591.744013856459
 20
-1615.945246208535
 30
0.0
 11
2591.244013856459
 21
-1615.845245045138
 31
0.0
  0
LINE
  5
18EB3
330
18
100
AcDbEntity
  8
1PHANTOM
100
AcDbLine
 10
2588.244013856459
 20
-1615.245238064754
 30
0.0
 11
2587.744013856459
 21
-1615.145236901357
 31
0.0
  0
LINE
  5
18EB4
330
18
100
AcDbEntity
  8
1PHANTOM
100
AcDbLine
 10
2588.244013856459
 20
-1616.845238064754
 30
0.0
 11
2587.744013856459
 21
-1616.745236901357
 31
0.0
  0
LINE
  5
18EB5
330
18
100
AcDbEntity
  8
1PHANTOM
100
AcDbLine
 10
2587.744013856459
 20
-1616.745236901357
 30
0.0
 11
2591.744013856459
 21
-1615.945246208535
 31
0.0
  0
LINE
  5
18EB6
330
18
100
AcDbEntity
  8
1PHANTOM
100
AcDbLine
 10
2591.064792699849
 20
-1607.945244628126
 30
0.0
 11
2590.513043236045
 21
-1607.762480485498
 31
0.0
  0
LINE
  5
18EB7
330
18
100
AcDbEntity
  8
1PHANTOM
100
AcDbLine
 10
2591.744013856459
 20
-1611.145246208535
 30
0.0
 11
2591.244013856459
 21
-1611.045245045138
 31
0.0
  0
LINE
  5
18EB8
330
18
100
AcDbEntity
  8
1PHANTOM
100
AcDbLine
 10
2591.744013856459
 20
-1612.745246208535
 30
0.0
 11
2591.244013856459
 21
-1612.645245045138
 31
0.0
  0
LINE
  5
18EB9
330
18
100
AcDbEntity
  8
1PHANTOM
100
AcDbLine
 10
2591.517606804255
 20
-1609.545245681732
 30
0.0
 11
2590.981013068984
 21
-1609.415974984102
 31
0.0
  0
LINE
  5
18EBA
330
18
100
AcDbEntity
  8
1PHANTOM
100
AcDbLine
 10
2588.664928453668
 20
-1608.858007467318
 30
0.0
 11
2588.196829998518
 21
-1608.745237954967
 31
0.0
  0
LINE
  5
18EBB
330
18
100
AcDbEntity
  8
1PHANTOM
100
AcDbLine
 10
2588.244013856459
 20
-1612.045238064754
 30
0.0
 11
2587.744013856459
 21
-1611.945236901357
 31
0.0
  0
LINE
  5
18EBC
330
18
100
AcDbEntity
  8
1PHANTOM
100
AcDbLine
 10
2588.244013856459
 20
-1610.445238064754
 30
0.0
 11
2587.744013856459
 21
-1610.345236901357
 31
0.0
  0
LINE
  5
18EBD
330
18
100
AcDbEntity
  8
1PHANTOM
100
AcDbLine
 10
2589.106815347197
 20
-1607.296674805012
 30
0.0
 11
2588.649643506566
 21
-1607.145239008572
 31
0.0
  0
LINE
  5
18EBE
330
18
100
AcDbEntity
  8
1PHANTOM
100
AcDbLine
 10
2588.196829998518
 20
-1608.745237954967
 30
0.0
 11
2591.064792699849
 21
-1607.945244628126
 31
0.0
  0
LINE
  5
18EBF
330
18
100
AcDbEntity
  8
1PHANTOM
100
AcDbLine
 10
2587.744013856459
 20
-1611.945236901357
 30
0.0
 11
2591.744013856459
 21
-1611.145246208535
 31
0.0
  0
LINE
  5
18EC0
330
18
100
AcDbEntity
  8
1PHANTOM
100
AcDbLine
 10
2587.744013856459
 20
-1610.345236901357
 30
0.0
 11
2591.517606804255
 21
-1609.545245681732
 31
0.0
  0
LINE
  5
18EC1
330
18
100
AcDbEntity
  8
1PHANTOM
100
AcDbLine
 10
2587.744013856459
 20
-1613.545236901357
 30
0.0
 11
2591.744013856459
 21
-1612.745246208535
 31
0.0
  0
LINE
  5
18EC2
330
18
100
AcDbEntity
  8
1PHANTOM
100
AcDbLine
 10
2587.744013856459
 20
-1626.345236901362
 30
0.0
 11
2591.744013856459
 21
-1625.545246208543
 31
0.0
  0
LINE
  5
18EC3
330
18
100
AcDbEntity
  8
1PHANTOM
100
AcDbLine
 10
2591.744013856459
 20
-1625.545246208543
 30
0.0
 11
2591.244013856459
 21
-1625.445245045146
 31
0.0
  0
LINE
  5
18EC4
330
18
100
AcDbEntity
  8
1PHANTOM
100
AcDbLine
 10
2588.244013856459
 20
-1624.845238064755
 30
0.0
 11
2587.744013856459
 21
-1624.745236901357
 31
0.0
  0
LINE
  5
18EC5
330
18
100
AcDbEntity
  8
1PHANTOM
100
AcDbLine
 10
2591.744013856459
 20
-1627.145246208544
 30
0.0
 11
2591.244013856459
 21
-1627.045245045146
 31
0.0
  0
LINE
  5
18EC6
330
18
100
AcDbEntity
  8
1PHANTOM
100
AcDbLine
 10
2591.744013856459
 20
-1628.745246208543
 30
0.0
 11
2591.244013856459
 21
-1628.645245045146
 31
0.0
  0
LINE
  5
18EC7
330
18
100
AcDbEntity
  8
1PHANTOM
100
AcDbLine
 10
2588.244013856459
 20
-1626.445238064759
 30
0.0
 11
2587.744013856459
 21
-1626.345236901362
 31
0.0
  0
LINE
  5
18EC8
330
18
100
AcDbEntity
  8
1PHANTOM
100
AcDbLine
 10
2588.244013856459
 20
-1628.04523806476
 30
0.0
 11
2587.744013856459
 21
-1627.945236901362
 31
0.0
  0
LINE
  5
18EC9
330
18
100
AcDbEntity
  8
1PHANTOM
100
AcDbLine
 10
2587.744013856459
 20
-1627.945236901362
 30
0.0
 11
2591.744013856459
 21
-1627.145246208544
 31
0.0
  0
LINE
  5
18ECA
330
18
100
AcDbEntity
  8
1PHANTOM
100
AcDbLine
 10
2591.744013856459
 20
-1620.745246208539
 30
0.0
 11
2591.244013856459
 21
-1620.645245045141
 31
0.0
  0
LINE
  5
18ECB
330
18
100
AcDbEntity
  8
1PHANTOM
100
AcDbLine
 10
2591.744013856459
 20
-1619.145246208535
 30
0.0
 11
2591.244013856459
 21
-1619.045245045138
 31
0.0
  0
LINE
  5
18ECC
330
18
100
AcDbEntity
  8
1PHANTOM
100
AcDbLine
 10
2591.744013856459
 20
-1623.945246208539
 30
0.0
 11
2591.244013856459
 21
-1623.845245045141
 31
0.0
  0
LINE
  5
18ECD
330
18
100
AcDbEntity
  8
1PHANTOM
100
AcDbLine
 10
2591.744013856459
 20
-1622.345246208539
 30
0.0
 11
2591.244013856459
 21
-1622.245245045141
 31
0.0
  0
LINE
  5
18ECE
330
18
100
AcDbEntity
  8
1PHANTOM
100
AcDbLine
 10
2588.244013856459
 20
-1618.445238064754
 30
0.0
 11
2587.744013856459
 21
-1618.345236901357
 31
0.0
  0
LINE
  5
18ECF
330
18
100
AcDbEntity
  8
1PHANTOM
100
AcDbLine
 10
2588.244013856459
 20
-1620.045238064755
 30
0.0
 11
2587.744013856459
 21
-1619.945236901357
 31
0.0
  0
LINE
  5
18ED0
330
18
100
AcDbEntity
  8
1PHANTOM
100
AcDbLine
 10
2588.244013856459
 20
-1623.245238064755
 30
0.0
 11
2587.744013856459
 21
-1623.145236901358
 31
0.0
  0
LINE
  5
18ED1
330
18
100
AcDbEntity
  8
1PHANTOM
100
AcDbLine
 10
2588.244013856459
 20
-1621.645238064755
 30
0.0
 11
2587.744013856459
 21
-1621.545236901357
 31
0.0
  0
LINE
  5
18ED2
330
18
100
AcDbEntity
  8
1PHANTOM
100
AcDbLine
 10
2587.744013856459
 20
-1621.545236901357
 30
0.0
 11
2591.744013856459
 21
-1620.745246208539
 31
0.0
  0
LINE
  5
18ED3
330
18
100
AcDbEntity
  8
1PHANTOM
100
AcDbLine
 10
2587.744013856459
 20
-1619.945236901357
 30
0.0
 11
2591.744013856459
 21
-1619.145246208535
 31
0.0
  0
LINE
  5
18ED4
330
18
100
AcDbEntity
  8
1PHANTOM
100
AcDbLine
 10
2587.744013856459
 20
-1623.145236901358
 30
0.0
 11
2591.744013856459
 21
-1622.345246208539
 31
0.0
  0
LINE
  5
18ED5
330
18
100
AcDbEntity
  8
1PHANTOM
100
AcDbLine
 10
2587.744013856459
 20
-1624.745236901357
 30
0.0
 11
2591.744013856459
 21
-1623.945246208539
 31
0.0
  0
LINE
  5
18ED6
330
18
100
AcDbEntity
  8
1PHANTOM
100
AcDbLine
 10
2588.243996406416
 20
-1634.245241554732
 30
0.0
 11
2591.744013856459
 21
-1633.545246208548
 31
0.0
  0
LINE
  5
18ED7
330
18
100
AcDbEntity
  8
1PHANTOM
100
AcDbLine
 10
2591.744013856459
 20
-1633.545246208548
 30
0.0
 11
2591.244013856459
 21
-1633.44524504515
 31
0.0
  0
LINE
  5
18ED8
330
18
100
AcDbEntity
  8
1PHANTOM
100
AcDbLine
 10
2588.244013856459
 20
-1632.845238064764
 30
0.0
 11
2587.744013856459
 21
-1632.745236901366
 31
0.0
  0
LINE
  5
18ED9
330
18
100
AcDbEntity
  8
1PHANTOM
100
AcDbLine
 10
2588.244013856459
 20
-1631.245238064764
 30
0.0
 11
2587.744013856459
 21
-1631.145236901366
 31
0.0
  0
LINE
  5
18EDA
330
18
100
AcDbEntity
  8
1PHANTOM
100
AcDbLine
 10
2587.744013856459
 20
-1631.145236901366
 30
0.0
 11
2591.744013856459
 21
-1630.345246208548
 31
0.0
  0
LINE
  5
18EDB
330
18
100
AcDbEntity
  8
1PHANTOM
100
AcDbLine
 10
2591.744013856459
 20
-1631.945246208548
 30
0.0
 11
2591.244013856459
 21
-1631.84524504515
 31
0.0
  0
LINE
  5
18EDC
330
18
100
AcDbEntity
  8
1PHANTOM
100
AcDbLine
 10
2591.744013856459
 20
-1630.345246208548
 30
0.0
 11
2591.244013856459
 21
-1630.24524504515
 31
0.0
  0
LINE
  5
18EDD
330
18
100
AcDbEntity
  8
1PHANTOM
100
AcDbLine
 10
2587.744013856459
 20
-1632.745236901366
 30
0.0
 11
2591.744013856459
 21
-1631.945246208548
 31
0.0
  0
LINE
  5
18EDE
330
18
100
AcDbEntity
  8
1PHANTOM
100
AcDbLine
 10
2588.244013856459
 20
-1629.645238064759
 30
0.0
 11
2587.744013856459
 21
-1629.545236901362
 31
0.0
  0
LINE
  5
19084
330
18
100
AcDbEntity
  8
1CENTER
100
AcDbLine
 10
2804.404881911815
 20
-1837.570968218529
 30
0.0
 11
2767.773690911361
 21
-1837.570968218529
 31
0.0
  0
LINE
  5
19085
330
18
100
AcDbEntity
  8
0
100
AcDbLine
 10
2799.343969866829
 20
-1836.476644404534
 30
0.0
 11
2800.14396530088
 21
-1838.438979493409
 31
0.0
  0
LINE
  5
19086
330
18
100
AcDbEntity
  8
0
100
AcDbLine
 10
2800.14396530088
 20
-1838.438979493409
 30
0.0
 11
2800.455735157132
 21
-1837.850702918367
 31
0.0
  0
LINE
  5
19087
330
18
100
AcDbEntity
  8
0
100
AcDbLine
 10
2776.943971974039
 20
-1835.571014754427
 30
0.0
 11
2777.743962666857
 21
-1839.571014754427
 31
0.0
  0
LINE
  5
19088
330
18
100
AcDbEntity
  8
0
100
AcDbLine
 10
2788.143971974043
 20
-1835.571014754427
 30
0.0
 11
2788.943962666866
 21
-1839.571014754427
 31
0.0
  0
LINE
  5
19089
330
18
100
AcDbEntity
  8
0
100
AcDbLine
 10
2791.343971974044
 20
-1835.571014754427
 30
0.0
 11
2792.143962666866
 21
-1839.571014754427
 31
0.0
  0
LINE
  5
1908A
330
18
100
AcDbEntity
  8
0
100
AcDbLine
 10
2792.143962666866
 20
-1839.571014754427
 30
0.0
 11
2792.243963830264
 21
-1839.071014754427
 31
0.0
  0
LINE
  5
1908B
330
18
100
AcDbEntity
  8
0
100
AcDbLine
 10
2792.843970810646
 20
-1836.071014754427
 30
0.0
 11
2792.943971974044
 21
-1835.571014754427
 31
0.0
  0
LINE
  5
1908C
330
18
100
AcDbEntity
  8
0
100
AcDbLine
 10
2788.943962666866
 20
-1839.571014754427
 30
0.0
 11
2789.043963830263
 21
-1839.071014754427
 31
0.0
  0
LINE
  5
1908D
330
18
100
AcDbEntity
  8
0
100
AcDbLine
 10
2790.543962666866
 20
-1839.571014754427
 30
0.0
 11
2790.643963830263
 21
-1839.071014754427
 31
0.0
  0
LINE
  5
1908E
330
18
100
AcDbEntity
  8
0
100
AcDbLine
 10
2791.243970810646
 20
-1836.071014754427
 30
0.0
 11
2791.343971974044
 21
-1835.571014754427
 31
0.0
  0
LINE
  5
1908F
330
18
100
AcDbEntity
  8
0
100
AcDbLine
 10
2789.643970810646
 20
-1836.071014754427
 30
0.0
 11
2789.743971974044
 21
-1835.571014754427
 31
0.0
  0
LINE
  5
19090
330
18
100
AcDbEntity
  8
0
100
AcDbLine
 10
2789.743971974044
 20
-1835.571014754427
 30
0.0
 11
2790.543962666866
 21
-1839.571014754427
 31
0.0
  0
LINE
  5
19091
330
18
100
AcDbEntity
  8
0
100
AcDbLine
 10
2798.543964247274
 20
-1838.891793597816
 30
0.0
 11
2798.726728389902
 21
-1838.340044134012
 31
0.0
  0
LINE
  5
19092
330
18
100
AcDbEntity
  8
0
100
AcDbLine
 10
2795.343962666866
 20
-1839.571014754427
 30
0.0
 11
2795.443963830263
 21
-1839.071014754427
 31
0.0
  0
LINE
  5
19093
330
18
100
AcDbEntity
  8
0
100
AcDbLine
 10
2793.743962666866
 20
-1839.571014754427
 30
0.0
 11
2793.843963830263
 21
-1839.071014754427
 31
0.0
  0
LINE
  5
19094
330
18
100
AcDbEntity
  8
0
100
AcDbLine
 10
2796.943963193669
 20
-1839.344607702223
 30
0.0
 11
2797.073233891299
 21
-1838.808013966951
 31
0.0
  0
LINE
  5
19095
330
18
100
AcDbEntity
  8
0
100
AcDbLine
 10
2797.631201408083
 20
-1836.491929351635
 30
0.0
 11
2797.743970920433
 21
-1836.023830896485
 31
0.0
  0
LINE
  5
19096
330
18
100
AcDbEntity
  8
0
100
AcDbLine
 10
2794.443970810647
 20
-1836.071014754427
 30
0.0
 11
2794.543971974043
 21
-1835.571014754427
 31
0.0
  0
LINE
  5
19097
330
18
100
AcDbEntity
  8
0
100
AcDbLine
 10
2796.043970810646
 20
-1836.071014754427
 30
0.0
 11
2796.143971974043
 21
-1835.571014754427
 31
0.0
  0
LINE
  5
19098
330
18
100
AcDbEntity
  8
0
100
AcDbLine
 10
2799.192534070389
 20
-1836.933816245165
 30
0.0
 11
2799.343969866829
 21
-1836.476644404534
 31
0.0
  0
LINE
  5
19099
330
18
100
AcDbEntity
  8
0
100
AcDbLine
 10
2797.743970920433
 20
-1836.023830896485
 30
0.0
 11
2798.543964247274
 21
-1838.891793597816
 31
0.0
  0
LINE
  5
1909A
330
18
100
AcDbEntity
  8
0
100
AcDbLine
 10
2794.543971974043
 20
-1835.571014754427
 30
0.0
 11
2795.343962666866
 21
-1839.571014754427
 31
0.0
  0
LINE
  5
1909B
330
18
100
AcDbEntity
  8
0
100
AcDbLine
 10
2796.143971974043
 20
-1835.571014754427
 30
0.0
 11
2796.943963193669
 21
-1839.344607702223
 31
0.0
  0
LINE
  5
1909C
330
18
100
AcDbEntity
  8
0
100
AcDbLine
 10
2792.943971974044
 20
-1835.571014754427
 30
0.0
 11
2793.743962666866
 21
-1839.571014754427
 31
0.0
  0
LINE
  5
1909D
330
18
100
AcDbEntity
  8
0
100
AcDbLine
 10
2780.143971974039
 20
-1835.571014754427
 30
0.0
 11
2780.943962666857
 21
-1839.571014754427
 31
0.0
  0
LINE
  5
1909E
330
18
100
AcDbEntity
  8
0
100
AcDbLine
 10
2780.943962666857
 20
-1839.571014754427
 30
0.0
 11
2781.043963830255
 21
-1839.071014754427
 31
0.0
  0
LINE
  5
1909F
330
18
100
AcDbEntity
  8
0
100
AcDbLine
 10
2781.643970810646
 20
-1836.071014754427
 30
0.0
 11
2781.743971974044
 21
-1835.571014754427
 31
0.0
  0
LINE
  5
190A0
330
18
100
AcDbEntity
  8
0
100
AcDbLine
 10
2779.343962666857
 20
-1839.571014754427
 30
0.0
 11
2779.443963830255
 21
-1839.071014754427
 31
0.0
  0
LINE
  5
190A1
330
18
100
AcDbEntity
  8
0
100
AcDbLine
 10
2777.743962666857
 20
-1839.571014754427
 30
0.0
 11
2777.843963830255
 21
-1839.071014754427
 31
0.0
  0
LINE
  5
190A2
330
18
100
AcDbEntity
  8
0
100
AcDbLine
 10
2780.043970810641
 20
-1836.071014754427
 30
0.0
 11
2780.143971974039
 21
-1835.571014754427
 31
0.0
  0
LINE
  5
190A3
330
18
100
AcDbEntity
  8
0
100
AcDbLine
 10
2778.443970810642
 20
-1836.071014754427
 30
0.0
 11
2778.543971974039
 21
-1835.571014754427
 31
0.0
  0
LINE
  5
190A4
330
18
100
AcDbEntity
  8
0
100
AcDbLine
 10
2778.543971974039
 20
-1835.571014754427
 30
0.0
 11
2779.343962666857
 21
-1839.571014754427
 31
0.0
  0
LINE
  5
190A5
330
18
100
AcDbEntity
  8
0
100
AcDbLine
 10
2785.743962666862
 20
-1839.571014754427
 30
0.0
 11
2785.843963830259
 21
-1839.071014754427
 31
0.0
  0
LINE
  5
190A6
330
18
100
AcDbEntity
  8
0
100
AcDbLine
 10
2787.343962666866
 20
-1839.571014754427
 30
0.0
 11
2787.443963830263
 21
-1839.071014754427
 31
0.0
  0
LINE
  5
190A7
330
18
100
AcDbEntity
  8
0
100
AcDbLine
 10
2782.543962666862
 20
-1839.571014754427
 30
0.0
 11
2782.64396383026
 21
-1839.071014754427
 31
0.0
  0
LINE
  5
190A8
330
18
100
AcDbEntity
  8
0
100
AcDbLine
 10
2784.143962666862
 20
-1839.571014754427
 30
0.0
 11
2784.243963830259
 21
-1839.071014754427
 31
0.0
  0
LINE
  5
190A9
330
18
100
AcDbEntity
  8
0
100
AcDbLine
 10
2788.043970810646
 20
-1836.071014754427
 30
0.0
 11
2788.143971974043
 21
-1835.571014754427
 31
0.0
  0
LINE
  5
190AA
330
18
100
AcDbEntity
  8
0
100
AcDbLine
 10
2786.443970810646
 20
-1836.071014754427
 30
0.0
 11
2786.543971974043
 21
-1835.571014754427
 31
0.0
  0
LINE
  5
190AB
330
18
100
AcDbEntity
  8
0
100
AcDbLine
 10
2783.243970810646
 20
-1836.071014754427
 30
0.0
 11
2783.343971974044
 21
-1835.571014754427
 31
0.0
  0
LINE
  5
190AC
330
18
100
AcDbEntity
  8
0
100
AcDbLine
 10
2784.843970810646
 20
-1836.071014754427
 30
0.0
 11
2784.943971974044
 21
-1835.571014754427
 31
0.0
  0
LINE
  5
190AD
330
18
100
AcDbEntity
  8
0
100
AcDbLine
 10
2784.943971974044
 20
-1835.571014754427
 30
0.0
 11
2785.743962666862
 21
-1839.571014754427
 31
0.0
  0
LINE
  5
190AE
330
18
100
AcDbEntity
  8
0
100
AcDbLine
 10
2786.543971974043
 20
-1835.571014754427
 30
0.0
 11
2787.343962666866
 21
-1839.571014754427
 31
0.0
  0
LINE
  5
190AF
330
18
100
AcDbEntity
  8
0
100
AcDbLine
 10
2783.343971974044
 20
-1835.571014754427
 30
0.0
 11
2784.143962666862
 21
-1839.571014754427
 31
0.0
  0
LINE
  5
190B0
330
18
100
AcDbEntity
  8
0
100
AcDbLine
 10
2781.743971974044
 20
-1835.571014754427
 30
0.0
 11
2782.543962666862
 21
-1839.571014754427
 31
0.0
  0
LINE
  5
190B1
330
18
100
AcDbEntity
  8
0
100
AcDbLine
 10
2771.443963830369
 20
-1839.071014754426
 30
0.0
 11
2771.443970810753
 21
-1836.071014754427
 31
0.0
  0
LINE
  5
190B2
330
18
100
AcDbEntity
  8
0
100
AcDbLine
 10
2772.043970810637
 20
-1836.071014754426
 30
0.0
 11
2772.143971974035
 21
-1835.571014754426
 31
0.0
  0
LINE
  5
190B3
330
18
100
AcDbEntity
  8
0
100
AcDbLine
 10
2772.143971974035
 20
-1835.571014754426
 30
0.0
 11
2772.943962666853
 21
-1839.571014754426
 31
0.0
  0
LINE
  5
190B4
330
18
100
AcDbEntity
  8
0
100
AcDbLine
 10
2772.943962666853
 20
-1839.571014754426
 30
0.0
 11
2773.043963830251
 21
-1839.071014754427
 31
0.0
  0
LINE
  5
190B5
330
18
100
AcDbEntity
  8
0
100
AcDbLine
 10
2773.643970810637
 20
-1836.071014754427
 30
0.0
 11
2773.743971974035
 21
-1835.571014754427
 31
0.0
  0
LINE
  5
190B6
330
18
100
AcDbEntity
  8
0
100
AcDbLine
 10
2775.243970810637
 20
-1836.071014754427
 30
0.0
 11
2775.343971974035
 21
-1835.571014754427
 31
0.0
  0
LINE
  5
190B7
330
18
100
AcDbEntity
  8
0
100
AcDbLine
 10
2775.343971974035
 20
-1835.571014754427
 30
0.0
 11
2776.143962666853
 21
-1839.571014754427
 31
0.0
  0
LINE
  5
190B8
330
18
100
AcDbEntity
  8
0
100
AcDbLine
 10
2774.543962666853
 20
-1839.571014754427
 30
0.0
 11
2774.643963830251
 21
-1839.071014754427
 31
0.0
  0
LINE
  5
190B9
330
18
100
AcDbEntity
  8
0
100
AcDbLine
 10
2776.143962666853
 20
-1839.571014754427
 30
0.0
 11
2776.243963830251
 21
-1839.071014754427
 31
0.0
  0
LINE
  5
190BA
330
18
100
AcDbEntity
  8
0
100
AcDbLine
 10
2773.743971974035
 20
-1835.571014754427
 30
0.0
 11
2774.543962666853
 21
-1839.571014754427
 31
0.0
  0
LINE
  5
190BB
330
18
100
AcDbEntity
  8
0
100
AcDbLine
 10
2776.843970810642
 20
-1836.071014754427
 30
0.0
 11
2776.943971974039
 21
-1835.571014754427
 31
0.0
  0
LINE
  5
190BD
330
18
100
AcDbEntity
  8
1CENTER
100
AcDbLine
 10
2804.404881911815
 20
-1737.570968218529
 30
0.0
 11
2767.773690911361
 21
-1737.570968218529
 31
0.0
  0
LINE
  5
190BE
330
18
100
AcDbEntity
  8
0
100
AcDbLine
 10
2799.343969866829
 20
-1736.476644404534
 30
0.0
 11
2800.14396530088
 21
-1738.438979493409
 31
0.0
  0
LINE
  5
190BF
330
18
100
AcDbEntity
  8
0
100
AcDbLine
 10
2800.14396530088
 20
-1738.438979493409
 30
0.0
 11
2800.455735157132
 21
-1737.850702918367
 31
0.0
  0
LINE
  5
190C0
330
18
100
AcDbEntity
  8
0
100
AcDbLine
 10
2776.943971974039
 20
-1735.571014754427
 30
0.0
 11
2777.743962666857
 21
-1739.571014754427
 31
0.0
  0
LINE
  5
190C1
330
18
100
AcDbEntity
  8
0
100
AcDbLine
 10
2788.143971974043
 20
-1735.571014754427
 30
0.0
 11
2788.943962666866
 21
-1739.571014754427
 31
0.0
  0
LINE
  5
190C2
330
18
100
AcDbEntity
  8
0
100
AcDbLine
 10
2791.343971974044
 20
-1735.571014754427
 30
0.0
 11
2792.143962666866
 21
-1739.571014754427
 31
0.0
  0
LINE
  5
190C3
330
18
100
AcDbEntity
  8
0
100
AcDbLine
 10
2792.143962666866
 20
-1739.571014754427
 30
0.0
 11
2792.243963830264
 21
-1739.071014754427
 31
0.0
  0
LINE
  5
190C4
330
18
100
AcDbEntity
  8
0
100
AcDbLine
 10
2792.843970810646
 20
-1736.071014754427
 30
0.0
 11
2792.943971974044
 21
-1735.571014754427
 31
0.0
  0
LINE
  5
190C5
330
18
100
AcDbEntity
  8
0
100
AcDbLine
 10
2788.943962666866
 20
-1739.571014754427
 30
0.0
 11
2789.043963830263
 21
-1739.071014754427
 31
0.0
  0
LINE
  5
190C6
330
18
100
AcDbEntity
  8
0
100
AcDbLine
 10
2790.543962666866
 20
-1739.571014754427
 30
0.0
 11
2790.643963830263
 21
-1739.071014754427
 31
0.0
  0
LINE
  5
190C7
330
18
100
AcDbEntity
  8
0
100
AcDbLine
 10
2791.243970810646
 20
-1736.071014754427
 30
0.0
 11
2791.343971974044
 21
-1735.571014754427
 31
0.0
  0
LINE
  5
190C8
330
18
100
AcDbEntity
  8
0
100
AcDbLine
 10
2789.643970810646
 20
-1736.071014754427
 30
0.0
 11
2789.743971974044
 21
-1735.571014754427
 31
0.0
  0
LINE
  5
190C9
330
18
100
AcDbEntity
  8
0
100
AcDbLine
 10
2789.743971974044
 20
-1735.571014754427
 30
0.0
 11
2790.543962666866
 21
-1739.571014754427
 31
0.0
  0
LINE
  5
190CA
330
18
100
AcDbEntity
  8
0
100
AcDbLine
 10
2798.543964247274
 20
-1738.891793597816
 30
0.0
 11
2798.726728389902
 21
-1738.340044134012
 31
0.0
  0
LINE
  5
190CB
330
18
100
AcDbEntity
  8
0
100
AcDbLine
 10
2795.343962666866
 20
-1739.571014754427
 30
0.0
 11
2795.443963830263
 21
-1739.071014754427
 31
0.0
  0
LINE
  5
190CC
330
18
100
AcDbEntity
  8
0
100
AcDbLine
 10
2793.743962666866
 20
-1739.571014754427
 30
0.0
 11
2793.843963830263
 21
-1739.071014754427
 31
0.0
  0
LINE
  5
190CD
330
18
100
AcDbEntity
  8
0
100
AcDbLine
 10
2796.943963193669
 20
-1739.344607702223
 30
0.0
 11
2797.073233891299
 21
-1738.808013966951
 31
0.0
  0
LINE
  5
190CE
330
18
100
AcDbEntity
  8
0
100
AcDbLine
 10
2797.631201408083
 20
-1736.491929351635
 30
0.0
 11
2797.743970920433
 21
-1736.023830896485
 31
0.0
  0
LINE
  5
190CF
330
18
100
AcDbEntity
  8
0
100
AcDbLine
 10
2794.443970810647
 20
-1736.071014754427
 30
0.0
 11
2794.543971974043
 21
-1735.571014754427
 31
0.0
  0
LINE
  5
190D0
330
18
100
AcDbEntity
  8
0
100
AcDbLine
 10
2796.043970810646
 20
-1736.071014754427
 30
0.0
 11
2796.143971974043
 21
-1735.571014754427
 31
0.0
  0
LINE
  5
190D1
330
18
100
AcDbEntity
  8
0
100
AcDbLine
 10
2799.192534070389
 20
-1736.933816245165
 30
0.0
 11
2799.343969866829
 21
-1736.476644404534
 31
0.0
  0
LINE
  5
190D2
330
18
100
AcDbEntity
  8
0
100
AcDbLine
 10
2797.743970920433
 20
-1736.023830896485
 30
0.0
 11
2798.543964247274
 21
-1738.891793597816
 31
0.0
  0
LINE
  5
190D3
330
18
100
AcDbEntity
  8
0
100
AcDbLine
 10
2794.543971974043
 20
-1735.571014754427
 30
0.0
 11
2795.343962666866
 21
-1739.571014754427
 31
0.0
  0
LINE
  5
190D4
330
18
100
AcDbEntity
  8
0
100
AcDbLine
 10
2796.143971974043
 20
-1735.571014754427
 30
0.0
 11
2796.943963193669
 21
-1739.344607702223
 31
0.0
  0
LINE
  5
190D5
330
18
100
AcDbEntity
  8
0
100
AcDbLine
 10
2792.943971974044
 20
-1735.571014754427
 30
0.0
 11
2793.743962666866
 21
-1739.571014754427
 31
0.0
  0
LINE
  5
190D6
330
18
100
AcDbEntity
  8
0
100
AcDbLine
 10
2780.143971974039
 20
-1735.571014754427
 30
0.0
 11
2780.943962666857
 21
-1739.571014754427
 31
0.0
  0
LINE
  5
190D7
330
18
100
AcDbEntity
  8
0
100
AcDbLine
 10
2780.943962666857
 20
-1739.571014754427
 30
0.0
 11
2781.043963830255
 21
-1739.071014754427
 31
0.0
  0
LINE
  5
190D8
330
18
100
AcDbEntity
  8
0
100
AcDbLine
 10
2781.643970810646
 20
-1736.071014754427
 30
0.0
 11
2781.743971974044
 21
-1735.571014754427
 31
0.0
  0
LINE
  5
190D9
330
18
100
AcDbEntity
  8
0
100
AcDbLine
 10
2779.343962666857
 20
-1739.571014754427
 30
0.0
 11
2779.443963830255
 21
-1739.071014754427
 31
0.0
  0
LINE
  5
190DA
330
18
100
AcDbEntity
  8
0
100
AcDbLine
 10
2777.743962666857
 20
-1739.571014754427
 30
0.0
 11
2777.843963830255
 21
-1739.071014754427
 31
0.0
  0
LINE
  5
190DB
330
18
100
AcDbEntity
  8
0
100
AcDbLine
 10
2780.043970810641
 20
-1736.071014754427
 30
0.0
 11
2780.143971974039
 21
-1735.571014754427
 31
0.0
  0
LINE
  5
190DC
330
18
100
AcDbEntity
  8
0
100
AcDbLine
 10
2778.443970810642
 20
-1736.071014754427
 30
0.0
 11
2778.543971974039
 21
-1735.571014754427
 31
0.0
  0
LINE
  5
190DD
330
18
100
AcDbEntity
  8
0
100
AcDbLine
 10
2778.543971974039
 20
-1735.571014754427
 30
0.0
 11
2779.343962666857
 21
-1739.571014754427
 31
0.0
  0
LINE
  5
190DE
330
18
100
AcDbEntity
  8
0
100
AcDbLine
 10
2785.743962666862
 20
-1739.571014754427
 30
0.0
 11
2785.843963830259
 21
-1739.071014754427
 31
0.0
  0
LINE
  5
190DF
330
18
100
AcDbEntity
  8
0
100
AcDbLine
 10
2787.343962666866
 20
-1739.571014754427
 30
0.0
 11
2787.443963830263
 21
-1739.071014754427
 31
0.0
  0
LINE
  5
190E0
330
18
100
AcDbEntity
  8
0
100
AcDbLine
 10
2782.543962666862
 20
-1739.571014754427
 30
0.0
 11
2782.64396383026
 21
-1739.071014754427
 31
0.0
  0
LINE
  5
190E1
330
18
100
AcDbEntity
  8
0
100
AcDbLine
 10
2784.143962666862
 20
-1739.571014754427
 30
0.0
 11
2784.243963830259
 21
-1739.071014754427
 31
0.0
  0
LINE
  5
190E2
330
18
100
AcDbEntity
  8
0
100
AcDbLine
 10
2788.043970810646
 20
-1736.071014754427
 30
0.0
 11
2788.143971974043
 21
-1735.571014754427
 31
0.0
  0
LINE
  5
190E3
330
18
100
AcDbEntity
  8
0
100
AcDbLine
 10
2786.443970810646
 20
-1736.071014754427
 30
0.0
 11
2786.543971974043
 21
-1735.571014754427
 31
0.0
  0
LINE
  5
190E4
330
18
100
AcDbEntity
  8
0
100
AcDbLine
 10
2783.243970810646
 20
-1736.071014754427
 30
0.0
 11
2783.343971974044
 21
-1735.571014754427
 31
0.0
  0
LINE
  5
190E5
330
18
100
AcDbEntity
  8
0
100
AcDbLine
 10
2784.843970810646
 20
-1736.071014754427
 30
0.0
 11
2784.943971974044
 21
-1735.571014754427
 31
0.0
  0
LINE
  5
190E6
330
18
100
AcDbEntity
  8
0
100
AcDbLine
 10
2784.943971974044
 20
-1735.571014754427
 30
0.0
 11
2785.743962666862
 21
-1739.571014754427
 31
0.0
  0
LINE
  5
190E7
330
18
100
AcDbEntity
  8
0
100
AcDbLine
 10
2786.543971974043
 20
-1735.571014754427
 30
0.0
 11
2787.343962666866
 21
-1739.571014754427
 31
0.0
  0
LINE
  5
190E8
330
18
100
AcDbEntity
  8
0
100
AcDbLine
 10
2783.343971974044
 20
-1735.571014754427
 30
0.0
 11
2784.143962666862
 21
-1739.571014754427
 31
0.0
  0
LINE
  5
190E9
330
18
100
AcDbEntity
  8
0
100
AcDbLine
 10
2781.743971974044
 20
-1735.571014754427
 30
0.0
 11
2782.543962666862
 21
-1739.571014754427
 31
0.0
  0
LINE
  5
190EA
330
18
100
AcDbEntity
  8
0
100
AcDbLine
 10
2771.443963830369
 20
-1739.071014754426
 30
0.0
 11
2771.443970810753
 21
-1736.071014754427
 31
0.0
  0
LINE
  5
190EB
330
18
100
AcDbEntity
  8
0
100
AcDbLine
 10
2772.043970810637
 20
-1736.071014754426
 30
0.0
 11
2772.143971974035
 21
-1735.571014754426
 31
0.0
  0
LINE
  5
190EC
330
18
100
AcDbEntity
  8
0
100
AcDbLine
 10
2772.143971974035
 20
-1735.571014754426
 30
0.0
 11
2772.943962666853
 21
-1739.571014754426
 31
0.0
  0
LINE
  5
190ED
330
18
100
AcDbEntity
  8
0
100
AcDbLine
 10
2772.943962666853
 20
-1739.571014754426
 30
0.0
 11
2773.043963830251
 21
-1739.071014754427
 31
0.0
  0
LINE
  5
190EE
330
18
100
AcDbEntity
  8
0
100
AcDbLine
 10
2773.643970810637
 20
-1736.071014754427
 30
0.0
 11
2773.743971974035
 21
-1735.571014754427
 31
0.0
  0
LINE
  5
190EF
330
18
100
AcDbEntity
  8
0
100
AcDbLine
 10
2775.243970810637
 20
-1736.071014754427
 30
0.0
 11
2775.343971974035
 21
-1735.571014754427
 31
0.0
  0
LINE
  5
190F0
330
18
100
AcDbEntity
  8
0
100
AcDbLine
 10
2775.343971974035
 20
-1735.571014754427
 30
0.0
 11
2776.143962666853
 21
-1739.571014754427
 31
0.0
  0
LINE
  5
190F1
330
18
100
AcDbEntity
  8
0
100
AcDbLine
 10
2774.543962666853
 20
-1739.571014754427
 30
0.0
 11
2774.643963830251
 21
-1739.071014754427
 31
0.0
  0
LINE
  5
190F2
330
18
100
AcDbEntity
  8
0
100
AcDbLine
 10
2776.143962666853
 20
-1739.571014754427
 30
0.0
 11
2776.243963830251
 21
-1739.071014754427
 31
0.0
  0
LINE
  5
190F3
330
18
100
AcDbEntity
  8
0
100
AcDbLine
 10
2773.743971974035
 20
-1735.571014754427
 30
0.0
 11
2774.543962666853
 21
-1739.571014754427
 31
0.0
  0
LINE
  5
190F4
330
18
100
AcDbEntity
  8
0
100
AcDbLine
 10
2776.843970810642
 20
-1736.071014754427
 30
0.0
 11
2776.943971974039
 21
-1735.571014754427
 31
0.0
  0
SOLID
  5
190F5
330
18
100
AcDbEntity
  8
1DIM
100
AcDbTrace
 10
2722.721963767637
 20
-1732.564025729647
 30
0.0
 11
2724.16341540702
 21
-1733.989973934327
 31
0.0
 12
2722.337410384464
 22
-1733.10860183997
 32
0.0
 13
2722.337410384464
 23
-1733.10860183997
 33
0.0
  0
LINE
  5
190F6
330
18
100
AcDbEntity
  8
1DIM
100
AcDbLine
 10
2722.52968707605
 20
-1732.836313784808
 30
0.0
 11
2686.012492621509
 21
-1707.049632354491
 31
0.0
  0
LINE
  5
190F7
330
18
100
AcDbEntity
  8
1DIM
100
AcDbLine
 10
2686.012492621509
 20
-1707.049632354491
 30
0.0
 11
2650.995825954843
 21
-1707.049632354491
 31
0.0
  0
TEXT
  5
190F8
330
18
100
AcDbEntity
  8
1DIM
  6
CONTINUOUS
100
AcDbText
 10
2650.76249262151
 20
-1700.516299021158
 30
0.0
 40
3.5
  1
材質：ステンレス
100
AcDbText
  0
TEXT
  5
190F9
330
18
100
AcDbEntity
  8
1DIM
  6
CONTINUOUS
100
AcDbText
 10
2654.612492621509
 20
-1706.349632354491
 30
0.0
 40
3.5
  1
仕上：各種仕上
100
AcDbText
  0
LINE
  5
190FA
330
18
100
AcDbEntity
  8
1DIM
100
AcDbLine
 10
2724.243967320559
 20
-1730.570968218528
 30
0.0
 11
2724.243967320559
 21
-1699.570968218528
 31
0.0
  0
LINE
  5
190FB
330
18
100
AcDbEntity
  8
1DIM
100
AcDbLine
 10
2772.243967320561
 20
-1730.570968218528
 30
0.0
 11
2772.243967320561
 21
-1699.570968218528
 31
0.0
  0
LINE
  5
190FC
330
18
100
AcDbEntity
  8
1DIM
100
AcDbLine
 10
2726.243967320559
 20
-1700.570968218528
 30
0.0
 11
2770.243967320561
 21
-1700.570968218528
 31
0.0
  0
LINE
  5
19100
330
18
100
AcDbEntity
  8
1DIM
100
AcDbLine
 10
2752.24396732056
 20
-1731.370968218528
 30
0.0
 11
2752.24396732056
 21
-1709.570968218528
 31
0.0
  0
LINE
  5
19101
330
18
100
AcDbEntity
  8
1DIM
100
AcDbLine
 10
2772.243967320561
 20
-1730.570968218528
 30
0.0
 11
2772.243967320561
 21
-1709.570968218528
 31
0.0
  0
LINE
  5
19102
330
18
100
AcDbEntity
  8
1DIM
100
AcDbLine
 10
2754.24396732056
 20
-1710.570968218528
 30
0.0
 11
2770.243967320561
 21
-1710.570968218528
 31
0.0
  0
LINE
  5
19106
330
18
100
AcDbEntity
  8
1DIM
100
AcDbLine
 10
2762.243967320559
 20
-1725.570968218528
 30
0.0
 11
2762.243967320559
 21
-1719.570968218528
 31
0.0
  0
LINE
  5
19107
330
18
100
AcDbEntity
  8
1DIM
100
AcDbLine
 10
2772.243967320561
 20
-1730.570968218528
 30
0.0
 11
2772.243967320561
 21
-1719.570968218528
 31
0.0
  0
LINE
  5
19108
330
18
100
AcDbEntity
  8
1DIM
100
AcDbLine
 10
2764.243967320559
 20
-1720.570968218528
 30
0.0
 11
2770.243967320561
 21
-1720.570968218528
 31
0.0
  0
LINE
  5
1910C
330
18
100
AcDbEntity
  8
1DIM
100
AcDbLine
 10
2549.243967320559
 20
-1732.070968218528
 30
0.0
 11
2549.243967320559
 21
-1709.570968218528
 31
0.0
1001
ACAD
1000
DSTYLE
1002
{
1070
     3
1000
□<>
1002
}
  0
LINE
  5
1910D
330
18
100
AcDbEntity
  8
1DIM
100
AcDbLine
 10
2684.243967320561
 20
-1732.070968218528
 30
0.0
 11
2684.243967320561
 21
-1709.570968218528
 31
0.0
1001
ACAD
1000
DSTYLE
1002
{
1070
     3
1000
□<>
1002
}
  0
LINE
  5
1910E
330
18
100
AcDbEntity
  8
1DIM
100
AcDbLine
 10
2551.243967320559
 20
-1710.570968218528
 30
0.0
 11
2682.243967320561
 21
-1710.570968218528
 31
0.0
1001
ACAD
1000
DSTYLE
1002
{
1070
     3
1000
□<>
1002
}
  0
LINE
  5
19112
330
18
100
AcDbEntity
  8
1DIM
100
AcDbLine
 10
2648.243967320559
 20
-1837.570968218528
 30
0.0
 11
2695.243967320559
 21
-1837.570968218528
 31
0.0
  0
LINE
  5
19113
330
18
100
AcDbEntity
  8
1DIM
100
AcDbLine
 10
2648.243967320559
 20
-1737.570968218528
 30
0.0
 11
2695.243967320559
 21
-1737.570968218528
 31
0.0
  0
LINE
  5
19114
330
18
100
AcDbEntity
  8
1DIM
100
AcDbLine
 10
2694.243967320559
 20
-1835.570968218528
 30
0.0
 11
2694.243967320559
 21
-1739.570968218528
 31
0.0
  0
LINE
  5
19118
330
18
100
AcDbEntity
  8
1DIM
100
AcDbLine
 10
2589.743967320559
 20
-1733.070968218528
 30
0.0
 11
2589.743967320559
 21
-1719.570968218528
 31
0.0
  0
LINE
  5
19119
330
18
100
AcDbEntity
  8
1DIM
100
AcDbLine
 10
2643.743967320559
 20
-1733.070968218528
 30
0.0
 11
2643.743967320559
 21
-1719.570968218528
 31
0.0
  0
LINE
  5
1911A
330
18
100
AcDbEntity
  8
1DIM
100
AcDbLine
 10
2591.743967320559
 20
-1720.570968218528
 30
0.0
 11
2641.743967320559
 21
-1720.570968218528
 31
0.0
  0
SOLID
  5
1911E
330
18
100
AcDbEntity
  8
1DIM
100
AcDbTrace
 10
2750.741078023292
 20
-1737.104302558571
 30
0.0
 11
2751.729369025267
 21
-1738.874723979173
 31
0.0
 12
2750.220308427528
 22
-1737.52052782519
 32
0.0
 13
2750.220308427528
 23
-1737.52052782519
 33
0.0
  0
LINE
  5
1911F
330
18
100
AcDbEntity
  8
1DIM
100
AcDbLine
 10
2750.48069322541
 20
-1737.312415191881
 30
0.0
 11
2718.029777693559
 21
-1696.710722985698
 31
0.0
  0
LINE
  5
19120
330
18
100
AcDbEntity
  8
1DIM
100
AcDbLine
 10
2718.029777693559
 20
-1696.710722985698
 30
0.0
 11
2683.013111026892
 21
-1696.710722985698
 31
0.0
  0
TEXT
  5
19121
330
18
100
AcDbEntity
  8
1DIM
  6
CONTINUOUS
100
AcDbText
 10
2682.779777693559
 20
-1690.177389652365
 30
0.0
 40
3.5
  1
材質：ステンレス
100
AcDbText
  0
TEXT
  5
19122
330
18
100
AcDbEntity
  8
1DIM
  6
CONTINUOUS
100
AcDbText
 10
2686.629777693558
 20
-1696.010722985698
 30
0.0
 40
3.5
  1
仕上：各種仕上
100
AcDbText
  0
LINE
  5
19123
330
18
100
AcDbEntity
  8
1DIM
100
AcDbLine
 10
2648.243967320559
 20
-1737.570968218528
 30
0.0
 11
2695.243967320559
 21
-1737.570968218528
 31
0.0
  0
LINE
  5
19124
330
18
100
AcDbEntity
  8
1DIM
100
AcDbLine
 10
2682.743967320561
 20
-1730.570968218528
 30
0.0
 11
2695.243967320559
 21
-1730.570968218528
 31
0.0
  0
LINE
  5
19125
330
18
100
AcDbEntity
  8
1DIM
100
AcDbLine
 10
2694.243967320559
 20
-1735.570968218528
 30
0.0
 11
2694.243967320559
 21
-1732.570968218528
 31
0.0
  0
LINE
  5
19129
330
18
100
AcDbEntity
  8
1DIM
100
AcDbLine
 10
2772.243967320561
 20
-1730.570968218528
 30
0.0
 11
2784.818742019955
 21
-1730.570968218528
 31
0.0
  0
LINE
  5
1912A
330
18
100
AcDbEntity
  8
1DIM
100
AcDbLine
 10
2772.243967320562
 20
-1671.259266475088
 30
0.0
 11
2784.818742019955
 21
-1671.259266475088
 31
0.0
  0
LINE
  5
1912B
330
18
100
AcDbEntity
  8
1DIM
100
AcDbLine
 10
2783.818742019955
 20
-1728.570968218528
 30
0.0
 11
2783.818742019955
 21
-1673.259266475088
 31
0.0
  0
TEXT
  5
1912F
330
18
100
AcDbEntity
  8
1DIM
  6
CONTINUOUS
100
AcDbText
 10
2718.928019737814
 20
-1676.122516779701
 30
0.0
 40
3.5
  1
製品の取り付け、電球交換のため
100
AcDbText
  0
TEXT
  5
19130
330
18
100
AcDbEntity
  8
1DIM
  6
CONTINUOUS
100
AcDbText
 10
2719.161353071147
 20
-1681.960711224145
 30
0.0
 40
3.5
  1
上部に150ミリ以上の空間が必要
100
AcDbText
  0
LINE
  5
19131
330
18
100
AcDbEntity
  8
1DIM
100
AcDbLine
 10
2658.458475621365
 20
-1777.135461653633
 30
0.0
 11
2575.029459019761
 21
-1798.006474779248
 31
0.0
1001
ACAD_DSTYLE_DIMRADIAL_EXTE
1070
   387
1070
     1
1070
   388
1040
0.0
1070
   390
1040
0.0
1001
ACAD
1000
DSTYLE
1002
{
1070
    40
1040
1.0
1002
}
  0
LINE
  5
19132
330
18
100
AcDbEntity
  8
1DIM
100
AcDbLine
 10
2573.089249331351
 20
-1798.491847177518
 30
0.0
 11
2515.695441588964
 21
-1812.849764404813
 31
0.0
1001
ACAD_DSTYLE_DIMRADIAL_EXTE
1070
   387
1070
     1
1070
   388
1040
0.0
1070
   390
1040
0.0
1001
ACAD
1000
DSTYLE
1002
{
1070
    40
1040
1.0
1002
}
  0
LINE
  5
19136
330
18
100
AcDbEntity
  8
1DIM
100
AcDbLine
 10
2560.493967320562
 20
-1787.570968216439
 30
0.0
 11
2537.98644448386
 21
-1787.570968216439
 31
0.0
  0
LINE
  5
19137
330
18
100
AcDbEntity
  8
1DIM
100
AcDbLine
 10
2549.243967320561
 20
-1730.570968218528
 30
0.0
 11
2537.98644448386
 21
-1730.570968218528
 31
0.0
  0
LINE
  5
19138
330
18
100
AcDbEntity
  8
1DIM
100
AcDbLine
 10
2538.98644448386
 20
-1785.570968216439
 30
0.0
 11
2538.98644448386
 21
-1732.570968218528
 31
0.0
  0
LINE
  5
1913C
330
18
100
AcDbEntity
  8
1DIM
100
AcDbLine
 10
2684.243967320561
 20
-1682.24524155473
 30
0.0
 11
2695.243967320561
 21
-1682.24524155473
 31
0.0
  0
LINE
  5
1913D
330
18
100
AcDbEntity
  8
1DIM
100
AcDbLine
 10
2684.243967320561
 20
-1634.245241554732
 30
0.0
 11
2695.243967320561
 21
-1634.245241554732
 31
0.0
  0
LINE
  5
1913E
330
18
100
AcDbEntity
  8
1DIM
100
AcDbLine
 10
2694.243967320561
 20
-1680.24524155473
 30
0.0
 11
2694.243967320561
 21
-1636.245241554732
 31
0.0
  0
LINE
  5
19142
330
18
100
AcDbEntity
  8
0
100
AcDbLine
 10
2801.443967320507
 20
-1837.571014754426
 30
0.0
 11
2796.143970810645
 21
-1836.071014754426
 31
0.0
  0
LINE
  5
19143
330
18
100
AcDbEntity
  8
0
100
AcDbLine
 10
2796.143970810645
 20
-1836.071014754426
 30
0.0
 11
2771.443970810753
 21
-1836.071014754427
 31
0.0
  0
LINE
  5
19144
330
18
100
AcDbEntity
  8
0
100
AcDbLine
 10
2771.443970810753
 20
-1836.071014754427
 30
0.0
 11
2771.443975464451
 21
-1834.070968218529
 31
0.0
  0
LINE
  5
19145
330
18
100
AcDbEntity
  8
0
100
AcDbLine
 10
2771.443975464451
 20
-1834.070968218529
 30
0.0
 11
2770.343971974256
 21
-1834.070968218529
 31
0.0
  0
ARC
  5
19146
330
18
100
AcDbEntity
  8
0
100
AcDbCircle
 10
2770.343971974256
 20
-1835.570968218529
 30
0.0
 40
1.5
100
AcDbArc
 50
90.0
 51
179.9998666844663
  0
LINE
  5
19147
330
18
100
AcDbEntity
  8
0
100
AcDbLine
 10
2768.84397197426
 20
-1835.570964728336
 30
0.0
 11
2768.843962667081
 21
-1839.570964728336
 31
0.0
  0
ARC
  5
19148
330
18
100
AcDbEntity
  8
0
100
AcDbCircle
 10
2770.343962667077
 20
-1839.570968218529
 30
0.0
 40
1.5
100
AcDbArc
 50
179.9998666844663
 51
270.0
  0
LINE
  5
19149
330
18
100
AcDbEntity
  8
0
100
AcDbLine
 10
2770.343962667077
 20
-1841.070968218529
 30
0.0
 11
2771.443959176887
 21
-1841.070968218529
 31
0.0
  0
LINE
  5
1914A
330
18
100
AcDbEntity
  8
0
100
AcDbLine
 10
2771.443959176887
 20
-1841.070968218529
 30
0.0
 11
2771.443963830369
 21
-1839.071014754426
 31
0.0
  0
LINE
  5
1914B
330
18
100
AcDbEntity
  8
0
100
AcDbLine
 10
2771.443963830369
 20
-1839.071014754426
 30
0.0
 11
2796.143963830262
 21
-1839.071014754427
 31
0.0
  0
LINE
  5
1914C
330
18
100
AcDbEntity
  8
0
100
AcDbLine
 10
2796.143963830262
 20
-1839.071014754427
 30
0.0
 11
2801.443967320507
 21
-1837.571014754426
 31
0.0
  0
LINE
  5
1914D
330
18
100
AcDbEntity
  8
0
100
AcDbLine
 10
2801.443967320507
 20
-1737.571014754426
 30
0.0
 11
2796.143970810645
 21
-1736.071014754426
 31
0.0
  0
LINE
  5
1914E
330
18
100
AcDbEntity
  8
0
100
AcDbLine
 10
2796.143970810645
 20
-1736.071014754426
 30
0.0
 11
2771.443970810753
 21
-1736.071014754427
 31
0.0
  0
LINE
  5
1914F
330
18
100
AcDbEntity
  8
0
100
AcDbLine
 10
2771.443970810753
 20
-1736.071014754427
 30
0.0
 11
2771.443975464451
 21
-1734.070968218529
 31
0.0
  0
LINE
  5
19150
330
18
100
AcDbEntity
  8
0
100
AcDbLine
 10
2771.443975464451
 20
-1734.070968218529
 30
0.0
 11
2770.343971974256
 21
-1734.070968218529
 31
0.0
  0
ARC
  5
19151
330
18
100
AcDbEntity
  8
0
100
AcDbCircle
 10
2770.343971974256
 20
-1735.570968218529
 30
0.0
 40
1.5
100
AcDbArc
 50
90.0
 51
179.9998666844663
  0
LINE
  5
19152
330
18
100
AcDbEntity
  8
0
100
AcDbLine
 10
2768.84397197426
 20
-1735.570964728336
 30
0.0
 11
2768.843962667081
 21
-1739.570964728336
 31
0.0
  0
ARC
  5
19153
330
18
100
AcDbEntity
  8
0
100
AcDbCircle
 10
2770.343962667077
 20
-1739.570968218529
 30
0.0
 40
1.5
100
AcDbArc
 50
179.9998666844663
 51
270.0
  0
LINE
  5
19154
330
18
100
AcDbEntity
  8
0
100
AcDbLine
 10
2770.343962667077
 20
-1741.070968218529
 30
0.0
 11
2771.443959176887
 21
-1741.070968218529
 31
0.0
  0
LINE
  5
19155
330
18
100
AcDbEntity
  8
0
100
AcDbLine
 10
2771.443959176887
 20
-1741.070968218529
 30
0.0
 11
2771.443963830369
 21
-1739.071014754426
 31
0.0
  0
LINE
  5
19156
330
18
100
AcDbEntity
  8
0
100
AcDbLine
 10
2771.443963830369
 20
-1739.071014754426
 30
0.0
 11
2796.143963830262
 21
-1739.071014754427
 31
0.0
  0
LINE
  5
19157
330
18
100
AcDbEntity
  8
0
100
AcDbLine
 10
2796.143963830262
 20
-1739.071014754427
 30
0.0
 11
2801.443967320507
 21
-1737.571014754426
 31
0.0
  0
LINE
  5
19158
330
18
100
AcDbEntity
  8
0
  6
BYBLOCK
100
AcDbLine
 10
2726.243967320559
 20
-1701.106866598528
 30
0.0
 11
2724.243967320559
 21
-1700.570968218528
 31
0.0
  0
LINE
  5
19159
330
18
100
AcDbEntity
  8
0
  6
BYBLOCK
100
AcDbLine
 10
2724.243967320559
 20
-1700.570968218528
 30
0.0
 11
2726.243967320559
 21
-1700.035069838528
 31
0.0
  0
LINE
  5
1915A
330
18
100
AcDbEntity
  8
0
  6
BYBLOCK
100
AcDbLine
 10
2724.243967320559
 20
-1700.570968218528
 30
0.0
 11
2726.243967320559
 21
-1700.570968218528
 31
0.0
  0
LINE
  5
1915B
330
18
100
AcDbEntity
  8
0
  6
BYBLOCK
100
AcDbLine
 10
2770.243967320561
 20
-1700.035069838528
 30
0.0
 11
2772.243967320561
 21
-1700.570968218528
 31
0.0
  0
LINE
  5
1915C
330
18
100
AcDbEntity
  8
0
  6
BYBLOCK
100
AcDbLine
 10
2772.243967320561
 20
-1700.570968218528
 30
0.0
 11
2770.243967320561
 21
-1701.106866598528
 31
0.0
  0
LINE
  5
1915D
330
18
100
AcDbEntity
  8
0
  6
BYBLOCK
100
AcDbLine
 10
2772.243967320561
 20
-1700.570968218528
 30
0.0
 11
2770.243967320561
 21
-1700.570968218528
 31
0.0
  0
TEXT
  5
1915E
330
18
100
AcDbEntity
  8
1DIM
  6
CONTINUOUS
100
AcDbText
 10
2745.327300653893
 20
-1699.870968218528
 30
0.0
 40
3.5
  1
48
100
AcDbText
  0
LINE
  5
1915F
330
18
100
AcDbEntity
  8
0
  6
BYBLOCK
100
AcDbLine
 10
2754.24396732056
 20
-1711.106866598528
 30
0.0
 11
2752.24396732056
 21
-1710.570968218528
 31
0.0
  0
LINE
  5
19160
330
18
100
AcDbEntity
  8
0
  6
BYBLOCK
100
AcDbLine
 10
2752.24396732056
 20
-1710.570968218528
 30
0.0
 11
2754.24396732056
 21
-1710.035069838528
 31
0.0
  0
LINE
  5
19161
330
18
100
AcDbEntity
  8
0
  6
BYBLOCK
100
AcDbLine
 10
2752.24396732056
 20
-1710.570968218528
 30
0.0
 11
2754.24396732056
 21
-1710.570968218528
 31
0.0
  0
LINE
  5
19162
330
18
100
AcDbEntity
  8
0
  6
BYBLOCK
100
AcDbLine
 10
2770.243967320561
 20
-1710.035069838528
 30
0.0
 11
2772.243967320561
 21
-1710.570968218528
 31
0.0
  0
LINE
  5
19163
330
18
100
AcDbEntity
  8
0
  6
BYBLOCK
100
AcDbLine
 10
2772.243967320561
 20
-1710.570968218528
 30
0.0
 11
2770.243967320561
 21
-1711.106866598528
 31
0.0
  0
LINE
  5
19164
330
18
100
AcDbEntity
  8
0
  6
BYBLOCK
100
AcDbLine
 10
2772.243967320561
 20
-1710.570968218528
 30
0.0
 11
2770.243967320561
 21
-1710.570968218528
 31
0.0
  0
TEXT
  5
19165
330
18
100
AcDbEntity
  8
1DIM
  6
CONTINUOUS
100
AcDbText
 10
2759.546050653894
 20
-1709.870968218528
 30
0.0
 40
3.5
  1
20
100
AcDbText
  0
LINE
  5
19166
330
18
100
AcDbEntity
  8
0
  6
BYBLOCK
100
AcDbLine
 10
2764.243967320559
 20
-1721.106866598528
 30
0.0
 11
2762.243967320559
 21
-1720.570968218528
 31
0.0
  0
LINE
  5
19167
330
18
100
AcDbEntity
  8
0
  6
BYBLOCK
100
AcDbLine
 10
2762.243967320559
 20
-1720.570968218528
 30
0.0
 11
2764.243967320559
 21
-1720.035069838528
 31
0.0
  0
LINE
  5
19168
330
18
100
AcDbEntity
  8
0
  6
BYBLOCK
100
AcDbLine
 10
2762.243967320559
 20
-1720.570968218528
 30
0.0
 11
2764.243967320559
 21
-1720.570968218528
 31
0.0
  0
LINE
  5
19169
330
18
100
AcDbEntity
  8
0
  6
BYBLOCK
100
AcDbLine
 10
2770.243967320561
 20
-1720.035069838528
 30
0.0
 11
2772.243967320561
 21
-1720.570968218528
 31
0.0
  0
LINE
  5
1916A
330
18
100
AcDbEntity
  8
0
  6
BYBLOCK
100
AcDbLine
 10
2772.243967320561
 20
-1720.570968218528
 30
0.0
 11
2770.243967320561
 21
-1721.106866598528
 31
0.0
  0
LINE
  5
1916B
330
18
100
AcDbEntity
  8
0
  6
BYBLOCK
100
AcDbLine
 10
2772.243967320561
 20
-1720.570968218528
 30
0.0
 11
2770.243967320561
 21
-1720.570968218528
 31
0.0
  0
TEXT
  5
1916C
330
18
100
AcDbEntity
  8
1DIM
  6
CONTINUOUS
100
AcDbText
 10
2765.129383987226
 20
-1719.870968218528
 30
0.0
 40
3.5
  1
10
100
AcDbText
  0
LINE
  5
1916D
330
18
100
AcDbEntity
  8
0
  6
BYBLOCK
100
AcDbLine
 10
2551.243967320559
 20
-1711.106866598528
 30
0.0
 11
2549.243967320559
 21
-1710.570968218528
 31
0.0
  0
LINE
  5
1916E
330
18
100
AcDbEntity
  8
0
  6
BYBLOCK
100
AcDbLine
 10
2549.243967320559
 20
-1710.570968218528
 30
0.0
 11
2551.243967320559
 21
-1710.035069838528
 31
0.0
  0
LINE
  5
1916F
330
18
100
AcDbEntity
  8
0
  6
BYBLOCK
100
AcDbLine
 10
2549.243967320559
 20
-1710.570968218528
 30
0.0
 11
2551.243967320559
 21
-1710.570968218528
 31
0.0
  0
LINE
  5
19170
330
18
100
AcDbEntity
  8
0
  6
BYBLOCK
100
AcDbLine
 10
2682.243967320561
 20
-1710.035069838528
 30
0.0
 11
2684.243967320561
 21
-1710.570968218528
 31
0.0
  0
LINE
  5
19171
330
18
100
AcDbEntity
  8
0
  6
BYBLOCK
100
AcDbLine
 10
2684.243967320561
 20
-1710.570968218528
 30
0.0
 11
2682.243967320561
 21
-1711.106866598528
 31
0.0
  0
LINE
  5
19172
330
18
100
AcDbEntity
  8
0
  6
BYBLOCK
100
AcDbLine
 10
2684.243967320561
 20
-1710.570968218528
 30
0.0
 11
2682.243967320561
 21
-1710.570968218528
 31
0.0
  0
TEXT
  5
19173
330
18
100
AcDbEntity
  8
1DIM
  6
CONTINUOUS
100
AcDbText
 10
2610.44396732056
 20
-1709.870968218528
 30
0.0
 40
3.5
  1
□135
100
AcDbText
1001
ACAD
1000
DSTYLE
1002
{
1070
     3
1000
□<>
1002
}
  0
LINE
  5
19174
330
18
100
AcDbEntity
  8
0
  6
BYBLOCK
100
AcDbLine
 10
2694.779865700559
 20
-1835.570968218528
 30
0.0
 11
2694.243967320559
 21
-1837.570968218528
 31
0.0
  0
LINE
  5
19175
330
18
100
AcDbEntity
  8
0
  6
BYBLOCK
100
AcDbLine
 10
2694.243967320559
 20
-1837.570968218528
 30
0.0
 11
2693.708068940558
 21
-1835.570968218528
 31
0.0
  0
LINE
  5
19176
330
18
100
AcDbEntity
  8
0
  6
BYBLOCK
100
AcDbLine
 10
2694.243967320559
 20
-1837.570968218528
 30
0.0
 11
2694.243967320559
 21
-1835.570968218528
 31
0.0
  0
LINE
  5
19177
330
18
100
AcDbEntity
  8
0
  6
BYBLOCK
100
AcDbLine
 10
2693.708068940558
 20
-1739.570968218528
 30
0.0
 11
2694.243967320559
 21
-1737.570968218528
 31
0.0
  0
LINE
  5
19178
330
18
100
AcDbEntity
  8
0
  6
BYBLOCK
100
AcDbLine
 10
2694.243967320559
 20
-1737.570968218528
 30
0.0
 11
2694.779865700559
 21
-1739.570968218528
 31
0.0
  0
LINE
  5
19179
330
18
100
AcDbEntity
  8
0
  6
BYBLOCK
100
AcDbLine
 10
2694.243967320559
 20
-1737.570968218528
 30
0.0
 11
2694.243967320559
 21
-1739.570968218528
 31
0.0
  0
TEXT
  5
1917A
330
18
100
AcDbEntity
  8
1DIM
  6
CONTINUOUS
100
AcDbText
 10
2693.543967320559
 20
-1794.643884885194
 30
0.0
 40
3.5
  1
P=100
 50
90.0
100
AcDbText
  0
LINE
  5
1917B
330
18
100
AcDbEntity
  8
0
  6
BYBLOCK
100
AcDbLine
 10
2591.743967320559
 20
-1721.106866598528
 30
0.0
 11
2589.743967320559
 21
-1720.570968218528
 31
0.0
  0
LINE
  5
1917C
330
18
100
AcDbEntity
  8
0
  6
BYBLOCK
100
AcDbLine
 10
2589.743967320559
 20
-1720.570968218528
 30
0.0
 11
2591.743967320559
 21
-1720.035069838528
 31
0.0
  0
LINE
  5
1917D
330
18
100
AcDbEntity
  8
0
  6
BYBLOCK
100
AcDbLine
 10
2589.743967320559
 20
-1720.570968218528
 30
0.0
 11
2591.743967320559
 21
-1720.570968218528
 31
0.0
  0
LINE
  5
1917E
330
18
100
AcDbEntity
  8
0
  6
BYBLOCK
100
AcDbLine
 10
2641.743967320559
 20
-1720.035069838528
 30
0.0
 11
2643.743967320559
 21
-1720.570968218528
 31
0.0
  0
LINE
  5
1917F
330
18
100
AcDbEntity
  8
0
  6
BYBLOCK
100
AcDbLine
 10
2643.743967320559
 20
-1720.570968218528
 30
0.0
 11
2641.743967320559
 21
-1721.106866598528
 31
0.0
  0
LINE
  5
19180
330
18
100
AcDbEntity
  8
0
  6
BYBLOCK
100
AcDbLine
 10
2643.743967320559
 20
-1720.570968218528
 30
0.0
 11
2641.743967320559
 21
-1720.570968218528
 31
0.0
  0
TEXT
  5
19181
330
18
100
AcDbEntity
  8
1DIM
  6
CONTINUOUS
100
AcDbText
 10
2610.315147876115
 20
-1719.870968218528
 30
0.0
 40
3.5
  1
P=54
100
AcDbText
  0
LINE
  5
19182
330
18
100
AcDbEntity
  8
0
  6
BYBLOCK
100
AcDbLine
 10
2694.779865700559
 20
-1735.570968218528
 30
0.0
 11
2694.243967320559
 21
-1737.570968218528
 31
0.0
  0
LINE
  5
19183
330
18
100
AcDbEntity
  8
0
  6
BYBLOCK
100
AcDbLine
 10
2694.243967320559
 20
-1737.570968218528
 30
0.0
 11
2693.708068940558
 21
-1735.570968218528
 31
0.0
  0
LINE
  5
19184
330
18
100
AcDbEntity
  8
0
  6
BYBLOCK
100
AcDbLine
 10
2694.243967320559
 20
-1737.570968218528
 30
0.0
 11
2694.243967320559
 21
-1735.570968218528
 31
0.0
  0
LINE
  5
19185
330
18
100
AcDbEntity
  8
0
  6
BYBLOCK
100
AcDbLine
 10
2693.708068940558
 20
-1732.570968218528
 30
0.0
 11
2694.243967320559
 21
-1730.570968218528
 31
0.0
  0
LINE
  5
19186
330
18
100
AcDbEntity
  8
0
  6
BYBLOCK
100
AcDbLine
 10
2694.243967320559
 20
-1730.570968218528
 30
0.0
 11
2694.779865700559
 21
-1732.570968218528
 31
0.0
  0
LINE
  5
19187
330
18
100
AcDbEntity
  8
0
  6
BYBLOCK
100
AcDbLine
 10
2694.243967320559
 20
-1730.570968218528
 30
0.0
 11
2694.243967320559
 21
-1732.570968218528
 31
0.0
  0
TEXT
  5
19188
330
18
100
AcDbEntity
  8
1DIM
  6
CONTINUOUS
100
AcDbText
 10
2693.543967320559
 20
-1735.237634885194
 30
0.0
 40
3.5
  1
7
 50
90.0
100
AcDbText
  0
LINE
  5
19189
330
18
100
AcDbEntity
  8
0
  6
BYBLOCK
100
AcDbLine
 10
2784.354640399955
 20
-1728.570968218528
 30
0.0
 11
2783.818742019955
 21
-1730.570968218528
 31
0.0
  0
LINE
  5
1918A
330
18
100
AcDbEntity
  8
0
  6
BYBLOCK
100
AcDbLine
 10
2783.818742019955
 20
-1730.570968218528
 30
0.0
 11
2783.282843639955
 21
-1728.570968218528
 31
0.0
  0
LINE
  5
1918B
330
18
100
AcDbEntity
  8
0
  6
BYBLOCK
100
AcDbLine
 10
2783.818742019955
 20
-1730.570968218528
 30
0.0
 11
2783.818742019955
 21
-1728.570968218528
 31
0.0
  0
LINE
  5
1918C
330
18
100
AcDbEntity
  8
0
  6
BYBLOCK
100
AcDbLine
 10
2783.282843639955
 20
-1673.259266475088
 30
0.0
 11
2783.818742019955
 21
-1671.259266475088
 31
0.0
  0
LINE
  5
1918D
330
18
100
AcDbEntity
  8
0
  6
BYBLOCK
100
AcDbLine
 10
2783.818742019955
 20
-1671.259266475088
 30
0.0
 11
2784.354640399955
 21
-1673.259266475088
 31
0.0
  0
LINE
  5
1918E
330
18
100
AcDbEntity
  8
0
  6
BYBLOCK
100
AcDbLine
 10
2783.818742019955
 20
-1671.259266475088
 30
0.0
 11
2783.818742019955
 21
-1673.259266475088
 31
0.0
  0
TEXT
  5
1918F
330
18
100
AcDbEntity
  8
1DIM
  6
CONTINUOUS
100
AcDbText
 10
2783.118742019956
 20
-1704.791853457918
 30
0.0
 40
3.5
  1
150
 50
90.0
100
AcDbText
  0
LINE
  5
19190
330
18
100
AcDbEntity
  8
0
  6
BYBLOCK
100
AcDbLine
 10
2658.328420480401
 20
-1776.615584039193
 30
0.0
 11
2660.398685309775
 21
-1776.650089255363
 31
0.0
  0
LINE
  5
19191
330
18
100
AcDbEntity
  8
0
  6
BYBLOCK
100
AcDbLine
 10
2660.398685309775
 20
-1776.650089255363
 30
0.0
 11
2658.58853076233
 21
-1777.655339268072
 31
0.0
  0
LINE
  5
19192
330
18
100
AcDbEntity
  8
0
  6
BYBLOCK
100
AcDbLine
 10
2660.398685309775
 20
-1776.650089255363
 30
0.0
 11
2658.458475621366
 21
-1777.135461653633
 31
0.0
  0
LINE
  5
19193
330
18
100
AcDbEntity
  8
0
  6
BYBLOCK
100
AcDbLine
 10
2575.159514160725
 20
-1798.526352393688
 30
0.0
 11
2573.089249331351
 21
-1798.491847177518
 31
0.0
  0
LINE
  5
19194
330
18
100
AcDbEntity
  8
0
  6
BYBLOCK
100
AcDbLine
 10
2573.089249331351
 20
-1798.491847177518
 30
0.0
 11
2574.899403878796
 21
-1797.486597164809
 31
0.0
  0
LINE
  5
19195
330
18
100
AcDbEntity
  8
0
  6
BYBLOCK
100
AcDbLine
 10
2573.089249331351
 20
-1798.491847177518
 30
0.0
 11
2575.02945901976
 21
-1798.006474779248
 31
0.0
  0
TEXT
  5
19196
330
18
100
AcDbEntity
  8
1DIM
  6
CONTINUOUS
100
AcDbText
 10
2516.359469661365
 20
-1811.962076384127
 30
0.0
 40
3.5
  1
逃げ穴寸法\U+220590
 50
14.04513641692984
100
AcDbText
1001
ACAD_DSTYLE_DIMRADIAL_EXTE
1070
   387
1070
     1
1070
   388
1040
0.0
1070
   390
1040
0.0
1001
ACAD
1000
DSTYLE
1002
{
1070
    40
1040
1.0
1002
}
  0
LINE
  5
19197
330
18
100
AcDbEntity
  8
0
  6
BYBLOCK
100
AcDbLine
 10
2539.522342863861
 20
-1785.570968216439
 30
0.0
 11
2538.98644448386
 21
-1787.570968216439
 31
0.0
  0
LINE
  5
19198
330
18
100
AcDbEntity
  8
0
  6
BYBLOCK
100
AcDbLine
 10
2538.98644448386
 20
-1787.570968216439
 30
0.0
 11
2538.45054610386
 21
-1785.570968216439
 31
0.0
  0
LINE
  5
19199
330
18
100
AcDbEntity
  8
0
  6
BYBLOCK
100
AcDbLine
 10
2538.98644448386
 20
-1787.570968216439
 30
0.0
 11
2538.98644448386
 21
-1785.570968216439
 31
0.0
  0
LINE
  5
1919A
330
18
100
AcDbEntity
  8
0
  6
BYBLOCK
100
AcDbLine
 10
2538.45054610386
 20
-1732.570968218528
 30
0.0
 11
2538.98644448386
 21
-1730.570968218528
 31
0.0
  0
LINE
  5
1919B
330
18
100
AcDbEntity
  8
0
  6
BYBLOCK
100
AcDbLine
 10
2538.98644448386
 20
-1730.570968218528
 30
0.0
 11
2539.522342863861
 21
-1732.570968218528
 31
0.0
  0
LINE
  5
1919C
330
18
100
AcDbEntity
  8
0
  6
BYBLOCK
100
AcDbLine
 10
2538.98644448386
 20
-1730.570968218528
 30
0.0
 11
2538.98644448386
 21
-1732.570968218528
 31
0.0
  0
TEXT
  5
1919D
330
18
100
AcDbEntity
  8
1DIM
  6
CONTINUOUS
100
AcDbText
 10
2526.617347261638
 20
-1795.529301550817
 30
0.0
 40
3.5
  1
OF-CSW-1N-O（未来工業（株））
 50
90.0
100
AcDbText
  0
TEXT
  5
1919E
330
18
100
AcDbEntity
  8
1DIM
  6
CONTINUOUS
100
AcDbText
 10
2532.509013928305
 20
-1789.229301550817
 30
0.0
 40
3.5
  1
鉄製セーリスボックス1個用又は
 50
90.0
100
AcDbText
  0
TEXT
  5
1919F
330
18
100
AcDbEntity
  8
1DIM
  6
CONTINUOUS
100
AcDbText
 10
2538.344777817194
 20
-1772.558120995262
 30
0.0
 40
3.5
  1
逃げ穴中心57
 50
90.0
100
AcDbText
  0
LINE
  5
191A0
330
18
100
AcDbEntity
  8
0
  6
BYBLOCK
100
AcDbLine
 10
2694.779865700561
 20
-1680.24524155473
 30
0.0
 11
2694.243967320561
 21
-1682.24524155473
 31
0.0
  0
LINE
  5
191A1
330
18
100
AcDbEntity
  8
0
  6
BYBLOCK
100
AcDbLine
 10
2694.243967320561
 20
-1682.24524155473
 30
0.0
 11
2693.708068940561
 21
-1680.24524155473
 31
0.0
  0
LINE
  5
191A2
330
18
100
AcDbEntity
  8
0
  6
BYBLOCK
100
AcDbLine
 10
2694.243967320561
 20
-1682.24524155473
 30
0.0
 11
2694.243967320561
 21
-1680.24524155473
 31
0.0
  0
LINE
  5
191A3
330
18
100
AcDbEntity
  8
0
  6
BYBLOCK
100
AcDbLine
 10
2693.708068940561
 20
-1636.245241554732
 30
0.0
 11
2694.243967320561
 21
-1634.245241554732
 31
0.0
  0
LINE
  5
191A4
330
18
100
AcDbEntity
  8
0
  6
BYBLOCK
100
AcDbLine
 10
2694.243967320561
 20
-1634.245241554732
 30
0.0
 11
2694.779865700561
 21
-1636.245241554732
 31
0.0
  0
LINE
  5
191A5
330
18
100
AcDbEntity
  8
0
  6
BYBLOCK
100
AcDbLine
 10
2694.243967320561
 20
-1634.245241554732
 30
0.0
 11
2694.243967320561
 21
-1636.245241554732
 31
0.0
  0
TEXT
  5
191A6
330
18
100
AcDbEntity
  8
1DIM
  6
CONTINUOUS
100
AcDbText
 10
2693.543967320562
 20
-1661.161908221397
 30
0.0
 40
3.5
  1
48
 50
90.0
100
AcDbText
  0
VIEWPORT
  5
57
330
15
100
AcDbEntity
 67
     1
  8
0
100
AcDbViewport
 68
     1
 10
0.0
 20
0.0
 30
0.0
 40
600.1703601108032
 41
297.0
 68
     1
 69
     1
1001
ACAD
1000
MVIEW
1002
{
1070
    16
1010
0.0
1020
0.0
1030
0.0
1010
0.0
1020
0.0
1030
1.0
1040
0.0
1040
297.0
1040
-4.272048862584541
1040
18.33904653606845
1040
50.0
1040
0.0
1040
0.0
1070
    16
1070
   100
1070
     0
1070
     1
1070
     0
1070
     0
1070
     0
1070
     0
1040
0.0
1040
0.0
1040
0.0
1040
10.0
1040
10.0
1040
10.0
1040
10.0
1070
     0
1002
{
1002
}
1002
}
  0
ENDSEC
  0
SECTION
  2
OBJECTS
  0
DICTIONARY
  5
C
330
0
100
AcDbDictionary
  3
ACAD_COLOR
350
2D0
  3
ACAD_GROUP
350
D
  3
ACAD_LAYOUT
350
2D1
  3
ACAD_MATERIAL
350
2CF
  3
ACAD_MLEADERSTYLE
350
15B98
  3
ACAD_MLINESTYLE
350
1B
  3
ACAD_PLOTSETTINGS
350
2D2
  3
ACAD_SCALELIST
350
15B76
  3
ACAD_VISUALSTYLE
350
15B65
  3
ACDBHEADERROUNDTRIPXREC
350
191A7
  3
ACDBVARIABLEDICTIONARY
350
37
  3
CONTENTDICTIONARY
350
D8
  3
DRAWINGVARIABLESDICT
350
20
  3
DWGPROPS
350
191AA
1001
ACAD
1000
TREAT_AS_HARD
1070
     0
  0
DICTIONARY
  5
14EC2
330
2
100
AcDbDictionary
  3
ACAD_LAYERSTATES
360
14EC3
1001
ACAD
1000
TREAT_AS_HARD
1070
     1
  0
DICTIONARY
  5
15BB5
330
E
100
AcDbDictionary
  3
ADSK_XREC_LAYER_RECONCILED
360
15BB6
1001
ACAD
1000
TREAT_AS_HARD
1070
     1
  0
DICTIONARY
  5
15BB7
330
29
100
AcDbDictionary
  3
ADSK_XREC_LAYER_RECONCILED
360
15BB8
1001
ACAD
1000
TREAT_AS_HARD
1070
     1
  0
DICTIONARY
  5
15BB9
330
31
100
AcDbDictionary
  3
ADSK_XREC_LAYER_RECONCILED
360
15BBA
1001
ACAD
1000
TREAT_AS_HARD
1070
     1
  0
DICTIONARY
  5
15BC3
330
101
100
AcDbDictionary
  3
ADSK_XREC_LAYER_RECONCILED
360
15BC4
1001
ACAD
1000
TREAT_AS_HARD
1070
     1
  0
DICTIONARY
  5
15BC7
330
103
100
AcDbDictionary
  3
ADSK_XREC_LAYER_RECONCILED
360
15BC8
1001
ACAD
1000
TREAT_AS_HARD
1070
     1
  0
DICTIONARY
  5
15BCB
330
25F
100
AcDbDictionary
  3
ADSK_XREC_LAYER_RECONCILED
360
15BCC
1001
ACAD
1000
TREAT_AS_HARD
1070
     1
  0
DICTIONARY
  5
15BE7
330
26D
100
AcDbDictionary
  3
ADSK_XREC_LAYER_RECONCILED
360
15BE8
1001
ACAD
1000
TREAT_AS_HARD
1070
     1
  0
DICTIONARY
  5
6E9
330
18
100
AcDbDictionary
  3
ACAD_SORTENTS
360
6EA
1001
ACAD
1000
TREAT_AS_HARD
1070
     1
  0
DICTIONARY
  5
59B
330
15
100
AcDbDictionary
  3
ACAD_SORTENTS
360
59C
1001
ACAD
1000
TREAT_AS_HARD
1070
     1
  0
DICTIONARY
  5
2D0
102
{ACAD_REACTORS
330
C
102
}
330
C
100
AcDbDictionary
1001
ACAD
1000
TREAT_AS_HARD
1070
     0
  0
DICTIONARY
  5
D
102
{ACAD_REACTORS
330
C
102
}
330
C
100
AcDbDictionary
  3
*A1
350
18C86
1001
ACAD
1000
TREAT_AS_HARD
1070
     0
  0
DICTIONARY
  5
2D1
102
{ACAD_REACTORS
330
C
102
}
330
C
100
AcDbDictionary
1001
ACAD
1000
TREAT_AS_HARD
1070
     0
  0
DICTIONARY
  5
2CF
102
{ACAD_REACTORS
330
C
102
}
330
C
100
AcDbDictionary
  3
BYBLOCK
350
15B55
  3
BYLAYER
350
15B4D
  3
GLOBAL
350
15B5D
1001
ACAD
1000
TREAT_AS_HARD
1070
     0
  0
DICTIONARY
  5
15B98
102
{ACAD_REACTORS
330
C
102
}
330
C
100
AcDbDictionary
  3
STANDARD
350
15B99
1001
ACAD
1000
TREAT_AS_HARD
1070
     0
  0
DICTIONARY
  5
1B
102
{ACAD_REACTORS
330
C
102
}
330
C
100
AcDbDictionary
  3
STANDARD
350
1C
1001
ACAD
1000
TREAT_AS_HARD
1070
     0
  0
DICTIONARY
  5
2D2
102
{ACAD_REACTORS
330
C
102
}
330
C
100
AcDbDictionary
1001
ACAD
1000
TREAT_AS_HARD
1070
     0
  0
DICTIONARY
  5
15B76
102
{ACAD_REACTORS
330
C
102
}
330
C
100
AcDbDictionary
  3
A0
350
15B77
  3
A1
350
15B78
  3
A2
350
15B79
  3
A3
350
15B7A
  3
A4
350
15B7B
  3
A5
350
15B7C
  3
A6
350
15B7D
  3
A7
350
15B7E
  3
A8
350
15B7F
  3
A9
350
15B80
  3
B0
350
15B81
  3
B1
350
15B82
  3
B2
350
15B83
  3
B3
350
15B84
  3
B4
350
15B85
  3
B5
350
15B86
  3
B6
350
15B87
  3
B7
350
15B88
  3
B8
350
15B89
  3
B9
350
15B8A
  3
C0
350
15B8B
  3
C1
350
15B8C
  3
C2
350
15B8D
  3
C3
350
15B8E
  3
C4
350
15B8F
  3
C5
350
15B90
  3
C6
350
15B91
  3
C7
350
15B92
  3
C8
350
15B93
  3
C9
350
15B94
  3
D0
350
15B95
  3
D1
350
15B96
  3
D2
350
15B97
1001
ACAD
1000
TREAT_AS_HARD
1070
     0
  0
DICTIONARY
  5
15B65
102
{ACAD_REACTORS
330
C
102
}
330
C
100
AcDbDictionary
  3
2DWIREFRAME
350
15B6B
  3
3D_HIDDEN
350
15B6D
  3
3DWIREFRAME
350
15B6C
  3
BASIC
350
15B6A
  3
BRIGHTEN
350
15B71
  3
COLORCHANGE
350
15B75
  3
CONCEPTUAL
350
15B6E
  3
DIM
350
15B70
  3
EDGECOLOROFF
350
18F46
  3
FACEPATTERN
350
15B74
  3
FLAT
350
15B66
  3
FLATWITHEDGES
350
15B67
  3
GOURAUD
350
15B68
  3
GOURAUDWITHEDGES
350
15B69
  3
HIDDEN
350
18F43
  3
JITTEROFF
350
18F44
  3
LINEPATTERN
350
15B73
  3
MODELING
350
18F4C
  3
OVERHANGOFF
350
18F45
  3
REALISTIC
350
15B6F
  3
SHADED
350
18F4B
  3
SHADED_WITH_EDGES
350
18F4A
  3
SHADES_OF_GRAY
350
18F47
  3
SKETCHY
350
18F48
  3
THICKEN
350
15B72
  3
WIREFRAME
350
18F42
  3
X-RAY
350
18F49
1001
ACAD
1000
TREAT_AS_HARD
1070
     0
  0
DICTIONARY
  5
191A7
102
{ACAD_REACTORS
330
C
102
}
330
C
100
AcDbDictionary
  3
COLORDICT
350
191A8
  3
MATERIALDICT
350
191A9
1001
ACAD
1000
TREAT_AS_HARD
1070
     0
  0
DICTIONARY
  5
37
102
{ACAD_REACTORS
330
C
102
}
330
C
100
AcDbDictionary
  3
CANNOSCALE
350
18FBA
  3
CMLEADERSTYLE
350
15C4B
  3
CTABLESTYLE
350
4F1
  3
DIMADEC
350
38
  3
DIMASSOC
350
408
  3
HIDETEXT
350
1891
  3
INDEXCTL
350
15C4E
  3
INTERSECTIONCOLOR
350
1895
  3
INTERSECTIONDISPLAY
350
1894
  3
MSLTSCALE
350
19004
  3
OBSCOLOR
350
1892
  3
OBSLTYPE
350
1893
  3
PROJECTNAME
350
409
  3
SORTENTS
350
15C4D
  3
XCLIPFRAME
350
18FBB
1001
ACAD
1000
TREAT_AS_HARD
1070
     0
  0
DICTIONARY
  5
D8
102
{ACAD_REACTORS
330
C
102
}
330
C
100
AcDbDictionary
1001
CONTENTTABDATA
1070
    11
1000
Child
1000
D:\ACLT\TABset\CHILDREN.dwg
1070
     0
1070
     0
1070
     1
1000
PK
1000
D:\ACLT\TABset\PK.dwg
1070
     0
1070
     0
1070
     1
1000
Lev1
1000
D:\ACLT\TABset\Lever01.dwg
1070
     0
1070
     0
1070
     1
1000
Lev2
1000
D:\ACLT\TABset\Lever02.dwg
1070
     0
1070
     0
1070
     1
1000
L3
1000
D:\Aclt\TABset\Lever03.dwg
1070
     0
1070
     0
1070
     1
1000
Form
1000
D:\ACLT\FORMAT
1070
     1
1070
     0
1070
     1
1000
Jnt
1000
D:\ACLT\TABset\JOINTPARTS.dwg
1070
     0
1070
     0
1070
     1
1000
ISO
1000
D:\ACLT\TABset\Isome01.dwg
1070
     0
1070
     0
1070
     1
1000
R
1000
D:\ACLT\TABset\REGION.dwg
1070
     0
1070
     0
1070
     1
1000
std
1000
D:\ACLT\TABset\std_sym_all.dwg
1070
     0
1070
     0
1070
     1
1000
丸
1000
D:\Aclt\TABset\MARU.dwg
1070
     0
1070
     0
1070
     1
1001
CONTENTCURRENTTAB
1070
     0
1001
ACAD
1000
TREAT_AS_HARD
1070
     0
  0
DICTIONARY
  5
20
102
{ACAD_REACTORS
330
C
102
}
330
C
100
AcDbDictionary
1001
DRAWINGVARIABLESXDATA
1000
POLARANG
1000
0.261799387799149410000000
1000
POLARMODE
1000
1
1000
POLARSTYLE
1000
1
1001
ACAD
1000
TREAT_AS_HARD
1070
     0
  0
XRECORD
  5
191AA
102
{ACAD_REACTORS
330
C
102
}
330
C
100
AcDbXrecord
  1
DWGPROPS COOKIE
  2

  3

  4

  6

  7

  8
619
  9

300
=
301
=
302
=
303
=
304
=
305
=
306
=
307
=
308
=
309
=
 40
0.0
 41
2453033.357663484
 42
2458040.350232396
  1

 90
        0
  0
DICTIONARY
  5
14EC3
102
{ACAD_REACTORS
330
14EC2
102
}
330
14EC2
100
AcDbDictionary
1001
ACAD
1000
TREAT_AS_HARD
1070
     0
  0
ACAD_PROXY_OBJECT
  5
15BB6
102
{ACAD_REACTORS
330
15BB5
102
}
330
15BB5
100
AcDbZombieObject
 90
      499
 91
      517
 93
       34
310
40C8804040
  0
ACAD_PROXY_OBJECT
  5
15BB8
102
{ACAD_REACTORS
330
15BB7
102
}
330
15BB7
100
AcDbZombieObject
 90
      499
 91
      517
 93
       34
310
40C8804040
  0
ACAD_PROXY_OBJECT
  5
15BBA
102
{ACAD_REACTORS
330
15BB9
102
}
330
15BB9
100
AcDbZombieObject
 90
      499
 91
      517
 93
       34
310
40C8804040
  0
ACAD_PROXY_OBJECT
  5
15BC4
102
{ACAD_REACTORS
330
15BC3
102
}
330
15BC3
100
AcDbZombieObject
 90
      499
 91
      517
 93
       34
310
40C8804040
  0
ACAD_PROXY_OBJECT
  5
15BC8
102
{ACAD_REACTORS
330
15BC7
102
}
330
15BC7
100
AcDbZombieObject
 90
      499
 91
      517
 93
       34
310
40C8804040
  0
ACAD_PROXY_OBJECT
  5
15BCC
102
{ACAD_REACTORS
330
15BCB
102
}
330
15BCB
100
AcDbZombieObject
 90
      499
 91
      517
 93
       34
310
40C8804040
  0
ACAD_PROXY_OBJECT
  5
15BE8
102
{ACAD_REACTORS
330
15BE7
102
}
330
15BE7
100
AcDbZombieObject
 90
      499
 91
      517
 93
       34
310
40C8804040
  0
SORTENTSTABLE
  5
6EA
102
{ACAD_REACTORS
330
6E9
102
}
330
6E9
100
AcDbSortentsTable
330
18
331
16FBA
  5
16FBF
331
16FD5
  5
16FDF
331
1775A
  5
17065
331
1775B
  5
17066
331
1775C
  5
17067
331
1775D
  5
17068
331
1775E
  5
17069
331
1775F
  5
1706A
331
17760
  5
1706B
331
17761
  5
1706C
331
17762
  5
1706D
331
17763
  5
1706E
331
17764
  5
1706F
331
17765
  5
17070
331
17766
  5
17071
331
17767
  5
17072
331
17768
  5
17073
331
17769
  5
17074
331
1776A
  5
17075
331
1776B
  5
17076
331
1776C
  5
17077
331
1776D
  5
17078
331
1776E
  5
17079
331
1776F
  5
1707C
331
17770
  5
1707F
331
0
  5
179DA
331
0
  5
179DB
331
186C1
  5
18E6D
331
186C2
  5
18E6E
331
186C3
  5
18E6F
331
186C4
  5
18E70
331
186C5
  5
18E71
331
186C6
  5
18E72
331
186C7
  5
18E73
331
186C8
  5
18E74
331
186C9
  5
18E75
331
186CA
  5
18E76
331
186CB
  5
18E77
331
186CC
  5
18E78
331
186CD
  5
18E79
331
186CE
  5
18E7A
331
186CF
  5
18E7B
331
186EE
  5
18E7C
331
186EF
  5
18E7D
331
186F0
  5
18E7E
331
186F3
  5
18E7F
331
186F4
  5
18E80
331
186F7
  5
18E81
331
186FE
  5
18E82
331
186FF
  5
18E83
331
18700
  5
18E85
331
18701
  5
18E86
331
18702
  5
18E87
331
18703
  5
18E88
331
18708
  5
18E89
331
18709
  5
18E8A
331
1870B
  5
18E8B
331
1870C
  5
18E8C
331
1870D
  5
18E8D
331
18710
  5
18E8E
331
18711
  5
18E8F
331
18713
  5
18E90
331
18714
  5
18E91
331
18715
  5
18E92
331
18716
  5
18E93
331
18717
  5
18E94
331
18718
  5
18E95
331
18719
  5
18E96
331
1871A
  5
18E97
331
1871B
  5
18E98
331
1871C
  5
18E99
331
1871D
  5
18E9A
331
1871E
  5
18E9B
331
18721
  5
18E9C
331
18722
  5
18E9D
331
18743
  5
18E9E
331
18747
  5
18E9F
331
18748
  5
18EA0
331
18749
  5
18EA1
331
1874A
  5
18EA2
331
1874D
  5
18EA3
331
1874E
  5
18EA4
331
1874F
  5
18EA5
331
187AB
  5
18EA6
331
18B4E
  5
18EA7
331
18B4F
  5
18EA8
331
18B50
  5
18EA9
331
18B51
  5
18EAA
331
18B52
  5
18EAB
331
18B53
  5
18EAC
331
18B54
  5
18EAD
331
18B55
  5
18EAE
331
18B56
  5
18EAF
331
18B57
  5
18EB0
331
18B58
  5
18EB1
331
18B59
  5
18EB2
331
18B5A
  5
18EB3
331
18B5B
  5
18EB4
331
18B5F
  5
18EB6
331
18B62
  5
18EB7
331
18B63
  5
18EB8
331
18B6A
  5
18EB9
331
18B6B
  5
18EBA
331
18B6D
  5
18EBB
331
18B99
  5
18EBC
331
18B9B
  5
18EBD
331
18BA0
  5
18EBE
331
18C59
  5
18EB5
331
18C84
  5
18E84
331
18C8D
  5
18EBF
331
18C8E
  5
18EC0
331
18CF3
  5
18EC1
331
18CF6
  5
18EC2
331
18CFD
  5
18EC3
331
18CFF
  5
18EC4
331
18D02
  5
18EC5
331
18D04
  5
18EC6
331
18D0A
  5
18EC7
331
18D0B
  5
18EC8
331
18D0C
  5
18EC9
331
18D0F
  5
18ECA
331
18D10
  5
18ECB
331
18D11
  5
18ECC
331
18D14
  5
18ECD
331
18D18
  5
18ECE
331
18D19
  5
18ECF
331
18D1B
  5
18ED0
331
18D1C
  5
18ED1
331
18D1D
  5
18ED2
331
18D25
  5
18ED3
331
18D26
  5
18ED4
331
18D2E
  5
18ED5
331
18D2F
  5
18ED6
331
18D30
  5
18ED7
331
18D31
  5
18ED8
331
18D32
  5
18ED9
331
18D33
  5
18EDA
331
18D34
  5
18EDB
331
18D35
  5
18EDC
331
18D36
  5
18EDD
331
18D37
  5
18EDE
331
18D38
  5
19083
331
18D39
  5
19084
331
18D5E
  5
19085
331
18D5F
  5
19089
331
18D60
  5
1908A
331
18D61
  5
1908B
331
18D62
  5
1908F
331
18D63
  5
19090
331
18D64
  5
19091
331
18D65
  5
19095
331
18D66
  5
19096
331
18D67
  5
19097
331
18D68
  5
1909B
331
18D69
  5
1909C
331
18D6A
  5
1909D
331
18D6B
  5
190A1
331
18D6C
  5
190A2
331
18D7B
  5
19102
331
18E41
  5
1910F
331
18E43
  5
19119
331
18E6B
  5
19126
331
18E6C
  5
19127
331
18E6D
  5
19128
331
18E6E
  5
19129
331
18E6F
  5
1912A
331
18E70
  5
1912B
331
18E71
  5
1912C
331
18E72
  5
1912D
331
18E73
  5
1912E
331
18E74
  5
1912F
331
18E75
  5
19130
331
18E76
  5
19131
331
18E77
  5
19132
331
18E78
  5
19133
331
18E79
  5
19134
331
18E7A
  5
19135
331
18E7B
  5
19136
331
18E7C
  5
19137
331
18E7D
  5
19138
331
18E7E
  5
19139
331
18E7F
  5
1913A
331
18E80
  5
1913B
331
18E81
  5
1913C
331
18E82
  5
1913D
331
18E83
  5
1913E
331
18E84
  5
19142
331
18E85
  5
19143
331
18E86
  5
19144
331
18E87
  5
19145
331
18E88
  5
19146
331
18E89
  5
19147
331
18E8A
  5
19148
331
18E8B
  5
19149
331
18E8C
  5
1914A
331
18E8D
  5
1914B
331
18E8E
  5
1914C
331
18E8F
  5
1914D
331
18E90
  5
1914E
331
18E91
  5
1914F
331
18E92
  5
19150
331
18E93
  5
19151
331
18E94
  5
19152
331
18E95
  5
19153
331
18E96
  5
19154
331
18E97
  5
19155
331
18E98
  5
19156
331
18E99
  5
19157
331
18E9A
  5
19158
331
18E9B
  5
19159
331
18E9C
  5
1915A
331
18E9D
  5
1915B
331
18E9E
  5
1915C
331
18E9F
  5
1915D
331
18EA0
  5
1915E
331
18EA1
  5
1915F
331
18EA2
  5
19160
331
18EA3
  5
19161
331
18EA4
  5
19162
331
18EA5
  5
19163
331
18EA6
  5
19164
331
18EA7
  5
19165
331
18EA8
  5
19166
331
18EA9
  5
19167
331
18EAA
  5
19168
331
18EAB
  5
19169
331
18EAC
  5
1916A
331
18EAD
  5
1916B
331
18EAE
  5
1916C
331
18EAF
  5
1916D
331
18EB0
  5
1916E
331
18EB1
  5
1916F
331
18EB2
  5
19170
331
18EB3
  5
19171
331
18EB4
  5
19172
331
18EB5
  5
19173
331
18EB6
  5
19174
331
18EB7
  5
19175
331
18EB8
  5
19176
331
18EB9
  5
19177
331
18EBA
  5
19178
331
18EBB
  5
19179
331
18EBC
  5
1917A
331
18EBD
  5
1917B
331
18EBE
  5
1917C
331
18EBF
  5
1917D
331
18EC0
  5
1917E
331
18EC1
  5
1917F
331
18EC2
  5
19180
331
18EC3
  5
19181
331
18EC4
  5
19182
331
18EC5
  5
19183
331
18EC6
  5
19184
331
18EC7
  5
19185
331
18EC8
  5
19186
331
18EC9
  5
19187
331
18ECA
  5
19188
331
18ECB
  5
19189
331
18ECC
  5
1918A
331
18ECD
  5
1918B
331
18ECE
  5
1918C
331
18ECF
  5
1918D
331
18ED0
  5
1918E
331
18ED1
  5
1918F
331
18ED2
  5
19190
331
18ED3
  5
19191
331
18ED4
  5
19192
331
18ED5
  5
19193
331
18ED6
  5
19194
331
18ED7
  5
19195
331
18ED8
  5
19196
331
18ED9
  5
19197
331
18EDA
  5
19198
331
18EDB
  5
19199
331
18EDC
  5
1919A
331
18EDD
  5
1919B
331
18EDE
  5
1919C
331
0
  5
186C1
331
19084
  5
186D0
331
19085
  5
186D1
331
19086
  5
186EF
331
19087
  5
186F1
331
19088
  5
186F4
331
19089
  5
186F5
331
1908A
  5
186F8
331
1908B
  5
186FF
331
1908C
  5
18700
331
1908D
  5
18701
331
1908E
  5
18702
331
1908F
  5
18703
331
19090
  5
18704
331
19091
  5
18705
331
19092
  5
1870A
331
19093
  5
1870B
331
19094
  5
1870D
331
19095
  5
1870E
331
19096
  5
1870F
331
19097
  5
18712
331
19098
  5
18713
331
19099
  5
18715
331
1909A
  5
18716
331
1909B
  5
18717
331
1909C
  5
18718
331
1909D
  5
18719
331
1909E
  5
1871A
331
1909F
  5
1871B
331
190A0
  5
1871C
331
190A1
  5
1871D
331
190A2
  5
1871E
331
190A3
  5
1871F
331
190A4
  5
18722
331
190A5
  5
18723
331
190A6
  5
18724
331
190A7
  5
18745
331
190A8
  5
18749
331
190A9
  5
1874A
331
190AA
  5
1874B
331
190AB
  5
1874D
331
190AC
  5
18750
331
190AD
  5
18757
331
190AE
  5
18758
331
190AF
  5
18B3F
331
190B0
  5
18B43
331
190B1
  5
18B54
331
190B2
  5
18B55
331
190B3
  5
18B56
331
190B4
  5
18B57
331
190B5
  5
18B58
331
190B6
  5
18B59
331
190B7
  5
18B5A
331
190B8
  5
18B5B
331
190B9
  5
18B5C
331
190BA
  5
18B5D
331
190BB
  5
18B5E
331
0
  5
18B44
331
190BD
  5
18BAF
331
190BE
  5
18BB0
331
190BF
  5
18CF3
331
190C0
  5
18CF8
331
190C1
  5
18CFE
331
190C2
  5
18D00
331
190C3
  5
18D03
331
190C4
  5
18D05
331
190C5
  5
18D0B
331
190C6
  5
18D0C
331
190C7
  5
18D0D
331
190C8
  5
18D10
331
190C9
  5
18D11
331
190CA
  5
18D12
331
190CB
  5
18D15
331
190CC
  5
18D19
331
190CD
  5
18D1A
331
190CE
  5
18D1C
331
190CF
  5
18D1D
331
190D0
  5
18D1E
331
190D1
  5
18D26
331
190D2
  5
18D28
331
190D3
  5
18D2E
331
190D4
  5
18D2F
331
190D5
  5
18D30
331
190D6
  5
18D31
331
190D7
  5
18D32
331
190D8
  5
18D33
331
190D9
  5
18D34
331
190DA
  5
18D35
331
190DB
  5
18D36
331
190DC
  5
18D37
331
190DD
  5
18D38
331
190DE
  5
18D39
331
190DF
  5
18D5E
331
190E0
  5
18D5F
331
190E1
  5
18D60
331
190E2
  5
18D61
331
190E3
  5
18D62
331
190E4
  5
18D63
331
190E5
  5
18D64
331
190E6
  5
18D65
331
190E7
  5
18D66
331
190E8
  5
18D67
331
190E9
  5
18D68
331
190EA
  5
18D69
331
190EB
  5
18D6A
331
190EC
  5
18D6B
331
190ED
  5
18D6C
331
190EE
  5
18D6E
331
190EF
  5
18D6F
331
190F0
  5
18D7B
331
190F1
  5
18E41
331
190F2
  5
18E43
331
190F3
  5
18E6B
331
190F4
  5
18E6C
331
190F5
  5
190A3
331
190F6
  5
190A7
331
190F7
  5
190A8
331
190F8
  5
190A9
331
190F9
  5
190AA
331
190FA
  5
190AB
331
190FB
  5
190AC
331
190FC
  5
190AD
331
0
  5
19086
331
0
  5
19087
331
0
  5
19088
331
19100
  5
190BB
331
19101
  5
190BC
331
19102
  5
190BD
331
0
  5
1908C
331
0
  5
1908D
331
0
  5
1908E
331
19106
  5
190CB
331
19107
  5
190CC
331
19108
  5
190CD
331
0
  5
19092
331
0
  5
19093
331
0
  5
19094
331
1910C
  5
190D5
331
1910D
  5
190D6
331
1910E
  5
190D7
331
0
  5
19098
331
0
  5
19099
331
0
  5
1909A
331
19112
  5
190DF
331
19113
  5
190E0
331
19114
  5
190E1
331
0
  5
1909E
331
0
  5
1909F
331
0
  5
190A0
331
19118
  5
190E9
331
19119
  5
190EA
331
1911A
  5
190EB
331
0
  5
190A4
331
0
  5
190A5
331
0
  5
190A6
331
1911E
  5
190F3
331
1911F
  5
190F4
331
19120
  5
190F5
331
19121
  5
190F6
331
19122
  5
190F7
331
19123
  5
190F8
331
19124
  5
190F9
331
19125
  5
190FA
331
0
  5
190AF
331
0
  5
190B0
331
0
  5
190B1
331
19129
  5
19103
331
1912A
  5
19104
331
1912B
  5
19105
331
0
  5
190B6
331
0
  5
190B7
331
0
  5
190B8
331
1912F
  5
1910D
331
19130
  5
1910E
331
19131
  5
19110
331
19132
  5
19111
331
0
  5
190BE
331
0
  5
190BF
331
0
  5
190C0
331
19136
  5
1911A
331
19137
  5
1911B
331
19138
  5
1911C
331
0
  5
190C5
331
0
  5
190C6
331
0
  5
190C7
331
1913C
  5
1919D
331
1913D
  5
1919E
331
1913E
  5
1919F
331
19142
  5
186C2
331
19143
  5
186C3
331
19144
  5
186C4
331
19145
  5
186C5
331
19146
  5
186C8
331
19147
  5
186C9
331
19148
  5
186CA
331
19149
  5
186CB
331
1914A
  5
186CC
331
1914B
  5
186CD
331
1914C
  5
186CF
331
1914D
  5
18B60
331
1914E
  5
18B61
331
1914F
  5
18B65
331
19150
  5
18B67
331
19151
  5
18B68
331
19152
  5
18B71
331
19153
  5
18B7B
331
19154
  5
18B7C
331
19155
  5
18B7F
331
19156
  5
18B80
331
19157
  5
18BAD
331
19158
  5
190AE
331
19159
  5
190B2
331
1915A
  5
190B3
331
1915B
  5
190B4
331
1915C
  5
190B5
331
1915D
  5
190B9
331
1915E
  5
190BA
331
1915F
  5
190C1
331
19160
  5
190C2
331
19161
  5
190C3
331
19162
  5
190C4
331
19163
  5
190C8
331
19164
  5
190C9
331
19165
  5
190CA
331
19166
  5
190CE
331
19167
  5
190CF
331
19168
  5
190D0
331
19169
  5
190D1
331
1916A
  5
190D2
331
1916B
  5
190D3
331
1916C
  5
190D4
331
1916D
  5
190D8
331
1916E
  5
190D9
331
1916F
  5
190DA
331
19170
  5
190DB
331
19171
  5
190DC
331
19172
  5
190DD
331
19173
  5
190DE
331
19174
  5
190E2
331
19175
  5
190E3
331
19176
  5
190E4
331
19177
  5
190E5
331
19178
  5
190E6
331
19179
  5
190E7
331
1917A
  5
190E8
331
1917B
  5
190EC
331
1917C
  5
190ED
331
1917D
  5
190EE
331
1917E
  5
190EF
331
1917F
  5
190F0
331
19180
  5
190F1
331
19181
  5
190F2
331
19182
  5
190FB
331
19183
  5
190FC
331
19184
  5
190FD
331
19185
  5
190FE
331
19186
  5
190FF
331
19187
  5
19100
331
19188
  5
19101
331
19189
  5
19106
331
1918A
  5
19107
331
1918B
  5
19108
331
1918C
  5
19109
331
1918D
  5
1910A
331
1918E
  5
1910B
331
1918F
  5
1910C
331
19190
  5
19112
331
19191
  5
19113
331
19192
  5
19114
331
19193
  5
19115
331
19194
  5
19116
331
19195
  5
19117
331
19196
  5
19118
331
19197
  5
1911D
331
19198
  5
1911E
331
19199
  5
1911F
331
1919A
  5
19120
331
1919B
  5
19121
331
1919C
  5
19122
331
1919D
  5
19123
331
1919E
  5
19124
331
1919F
  5
19125
  0
SORTENTSTABLE
  5
59C
102
{ACAD_REACTORS
330
59B
102
}
330
59B
100
AcDbSortentsTable
330
15
331
57
  5
57
331
0
  5
70
331
0
  5
15E0C
331
0
  5
15E0D
331
0
  5
15E0E
331
0
  5
15E0F
331
0
  5
15E10
331
0
  5
15E11
331
0
  5
15E12
331
0
  5
15E13
331
0
  5
15E14
331
0
  5
15E15
331
0
  5
15E16
331
0
  5
15E17
331
0
  5
15E18
331
0
  5
15E19
331
0
  5
15E1A
331
0
  5
15FEC
331
0
  5
15FED
331
0
  5
15FEE
331
0
  5
15FEF
331
0
  5
15E1C
331
0
  5
15E1D
331
0
  5
15E1E
331
0
  5
15E1F
331
0
  5
15E20
331
0
  5
15E21
331
0
  5
15E22
331
0
  5
15E23
331
0
  5
15E24
331
0
  5
15E25
331
0
  5
15E26
331
0
  5
15E27
331
0
  5
15E28
331
0
  5
15E29
331
0
  5
15E2A
331
0
  5
15E2B
331
0
  5
15E2C
331
0
  5
15E2D
331
0
  5
15E2E
331
0
  5
15E2F
331
0
  5
15E30
331
0
  5
15E31
331
0
  5
15E32
331
0
  5
15E33
331
0
  5
15E34
331
0
  5
15E35
331
0
  5
15E36
331
0
  5
15E37
331
0
  5
15E38
331
0
  5
15E39
331
0
  5
15E3A
331
0
  5
15E3B
331
0
  5
15E3C
331
0
  5
15E3D
331
0
  5
15E3E
331
0
  5
15E3F
331
0
  5
15E40
331
0
  5
15E41
331
0
  5
15E42
331
0
  5
15E43
331
0
  5
15E44
331
0
  5
15E45
331
0
  5
15E46
331
0
  5
15E47
331
0
  5
15E48
331
0
  5
15E49
331
0
  5
15E4A
331
0
  5
15E4B
331
0
  5
15E4C
331
0
  5
15E4D
331
0
  5
15E4E
331
0
  5
15E4F
331
0
  5
15E50
331
0
  5
15E51
331
0
  5
15E52
331
0
  5
15E53
331
0
  5
15E54
331
0
  5
15E55
331
0
  5
15E56
331
0
  5
15E57
331
0
  5
15E58
331
0
  5
15E59
331
0
  5
15E5A
331
0
  5
15E5B
331
0
  5
15E5C
331
0
  5
15FCD
331
0
  5
15FCE
331
0
  5
15FCF
331
0
  5
15FD0
331
0
  5
15FD1
331
0
  5
15FD2
331
0
  5
15FD3
331
0
  5
15FD4
331
0
  5
15FD5
331
0
  5
15FD6
331
0
  5
15FD7
331
0
  5
15FD8
331
0
  5
15FD9
331
0
  5
15FDA
331
0
  5
15FDB
331
0
  5
15FDC
331
0
  5
15FDD
331
0
  5
15FDE
331
0
  5
15FDF
331
0
  5
15FE0
331
0
  5
15FE1
331
0
  5
15FE2
331
0
  5
15FE3
331
0
  5
15FE4
331
0
  5
15FE5
331
0
  5
15FE6
331
0
  5
15FE7
331
0
  5
15FE8
331
0
  5
15FE9
331
0
  5
15FEA
331
0
  5
15FEB
331
0
  5
15F8E
331
0
  5
15F8F
331
0
  5
15F90
331
0
  5
15F91
331
0
  5
15F92
331
0
  5
15F93
331
0
  5
15F94
331
0
  5
15F95
331
0
  5
15F96
331
0
  5
15F97
331
0
  5
15F98
331
0
  5
15F99
331
0
  5
15F9A
331
0
  5
15F9B
331
0
  5
15F9C
331
0
  5
15F9D
331
0
  5
15F9E
331
0
  5
15F9F
331
0
  5
15FA0
331
0
  5
15FA1
331
0
  5
15FA2
331
0
  5
15FA3
331
0
  5
15FA4
331
0
  5
15FA5
331
0
  5
15FA6
331
0
  5
15FA7
331
0
  5
15FA8
331
0
  5
15FA9
331
0
  5
15FAA
331
0
  5
15FAB
331
0
  5
15FAC
331
0
  5
15FAD
331
0
  5
15FAE
331
0
  5
15FAF
331
0
  5
15FB0
331
0
  5
15FB1
331
0
  5
15FB2
331
0
  5
15FB3
331
0
  5
15FB4
331
0
  5
15FB5
331
0
  5
15FB6
331
0
  5
15FB7
331
0
  5
15FB8
331
0
  5
15FB9
331
0
  5
15FBA
331
0
  5
15FBB
331
0
  5
15FBC
331
0
  5
15FBD
331
0
  5
15FBE
331
0
  5
15FBF
331
0
  5
15FC0
331
0
  5
15FC1
331
0
  5
15FC2
331
0
  5
15FC3
331
0
  5
15FC4
331
0
  5
15FC5
331
0
  5
15FC6
331
0
  5
15FC7
331
0
  5
15FC8
331
0
  5
15FC9
331
0
  5
15FCA
331
0
  5
15FCB
331
0
  5
15FCC
331
0
  5
15F51
331
0
  5
15F52
331
0
  5
15F53
331
0
  5
15F54
331
0
  5
15F55
331
0
  5
15F56
331
0
  5
15F57
331
0
  5
15F58
331
0
  5
15F59
331
0
  5
15F5A
331
0
  5
15F5B
331
0
  5
15F5C
331
0
  5
15F5D
331
0
  5
15F5E
331
0
  5
15F5F
331
0
  5
15F60
331
0
  5
15F61
331
0
  5
15F62
331
0
  5
15F63
331
0
  5
15F64
331
0
  5
15F65
331
0
  5
15F66
331
0
  5
15F67
331
0
  5
15F68
331
0
  5
15F69
331
0
  5
15F6A
331
0
  5
15F6B
331
0
  5
15F6C
331
0
  5
15F6D
331
0
  5
15F6E
331
0
  5
15F6F
331
0
  5
15F70
331
0
  5
15F71
331
0
  5
15F72
331
0
  5
15F73
331
0
  5
15F74
331
0
  5
15F75
331
0
  5
15F76
331
0
  5
15F77
331
0
  5
15F78
331
0
  5
15F79
331
0
  5
15F7A
331
0
  5
15F7B
331
0
  5
15F7C
331
0
  5
15F7D
331
0
  5
15F7E
331
0
  5
15F7F
331
0
  5
15F80
331
0
  5
15F81
331
0
  5
15F82
331
0
  5
15F83
331
0
  5
15F84
331
0
  5
15F85
331
0
  5
15F86
331
0
  5
15F87
331
0
  5
15F88
331
0
  5
15F89
331
0
  5
15F8A
331
0
  5
15F8B
331
0
  5
15F8C
331
0
  5
15F8D
331
0
  5
15F01
331
0
  5
15F02
331
0
  5
15F03
331
0
  5
15F04
331
0
  5
15F05
331
0
  5
15F06
331
0
  5
15F07
331
0
  5
15F08
331
0
  5
15F09
331
0
  5
15F0A
331
0
  5
15F0B
331
0
  5
15F0C
331
0
  5
15F0D
331
0
  5
15F0E
331
0
  5
15F0F
331
0
  5
15F10
331
0
  5
15F11
331
0
  5
15F12
331
0
  5
15F13
331
0
  5
15F14
331
0
  5
15F15
331
0
  5
15F16
331
0
  5
15F17
331
0
  5
15F18
331
0
  5
15F19
331
0
  5
15F1A
331
0
  5
15F1B
331
0
  5
15F1C
331
0
  5
15F1D
331
0
  5
15F1E
331
0
  5
15F1F
331
0
  5
15F20
331
0
  5
15F21
331
0
  5
15F22
331
0
  5
15F23
331
0
  5
15F24
331
0
  5
15F25
331
0
  5
15F26
331
0
  5
15F27
331
0
  5
15F28
331
0
  5
15F29
331
0
  5
15F2A
331
0
  5
15F2B
331
0
  5
15F2C
331
0
  5
15F2D
331
0
  5
15F2E
331
0
  5
15F2F
331
0
  5
15F30
331
0
  5
15F31
331
0
  5
15F32
331
0
  5
15F33
331
0
  5
15F34
331
0
  5
15F35
331
0
  5
15F36
331
0
  5
15F37
331
0
  5
15F38
331
0
  5
15F39
331
0
  5
15F3A
331
0
  5
15F3B
331
0
  5
15F3C
331
0
  5
15F3D
331
0
  5
15F3E
331
0
  5
15F3F
331
0
  5
15F40
331
0
  5
15F41
331
0
  5
15F42
331
0
  5
15F43
331
0
  5
15F44
331
0
  5
15F45
331
0
  5
15F46
331
0
  5
15F47
331
0
  5
15F48
331
0
  5
15F49
331
0
  5
15F4A
331
0
  5
15F4B
331
0
  5
15F4C
331
0
  5
15F4D
331
0
  5
15F4E
331
0
  5
15F4F
331
0
  5
15F50
331
0
  5
15EB0
331
0
  5
15EB1
331
0
  5
15EB2
331
0
  5
15EB3
331
0
  5
15EB4
331
0
  5
15EB5
331
0
  5
15EB6
331
0
  5
15EB7
331
0
  5
15EB8
331
0
  5
15EB9
331
0
  5
15EBA
331
0
  5
15EBB
331
0
  5
15EBC
331
0
  5
15EBD
331
0
  5
15EBE
331
0
  5
15EBF
331
0
  5
15EC0
331
0
  5
15EC1
331
0
  5
15EC2
331
0
  5
15EC3
331
0
  5
15EC4
331
0
  5
15EC5
331
0
  5
15EC6
331
0
  5
15EC7
331
0
  5
15EC8
331
0
  5
15EC9
331
0
  5
15ECA
331
0
  5
15ECB
331
0
  5
15ECC
331
0
  5
15ECD
331
0
  5
15ECE
331
0
  5
15ECF
331
0
  5
15ED0
331
0
  5
15ED1
331
0
  5
15ED2
331
0
  5
15ED3
331
0
  5
15ED4
331
0
  5
15ED5
331
0
  5
15ED6
331
0
  5
15ED7
331
0
  5
15ED8
331
0
  5
15ED9
331
0
  5
15EDA
331
0
  5
15EDB
331
0
  5
15EDC
331
0
  5
15EDD
331
0
  5
15EDE
331
0
  5
15EDF
331
0
  5
15EE0
331
0
  5
15EE1
331
0
  5
15EE2
331
0
  5
15EE3
331
0
  5
15EE4
331
0
  5
15EE5
331
0
  5
15EE6
331
0
  5
15EE7
331
0
  5
15EE8
331
0
  5
15EE9
331
0
  5
15EEA
331
0
  5
15EEB
331
0
  5
15EEC
331
0
  5
15EED
331
0
  5
15EEE
331
0
  5
15EEF
331
0
  5
15EF0
331
0
  5
15EF1
331
0
  5
15EF2
331
0
  5
15EF3
331
0
  5
15EF4
331
0
  5
15EF5
331
0
  5
15EF6
331
0
  5
15EF7
331
0
  5
15EF8
331
0
  5
15EF9
331
0
  5
15EFA
331
0
  5
15EFB
331
0
  5
15EFC
331
0
  5
15EFD
331
0
  5
15EFE
331
0
  5
15EFF
331
0
  5
15F00
331
0
  5
15E63
331
0
  5
15E64
331
0
  5
15E65
331
0
  5
15E66
331
0
  5
15E67
331
0
  5
15E68
331
0
  5
15E69
331
0
  5
15E6A
331
0
  5
15E6B
331
0
  5
15E6C
331
0
  5
15E6D
331
0
  5
15E6E
331
0
  5
15E6F
331
0
  5
15E70
331
0
  5
15E71
331
0
  5
15E72
331
0
  5
15E73
331
0
  5
15E74
331
0
  5
15E75
331
0
  5
15E76
331
0
  5
15E77
331
0
  5
15E78
331
0
  5
15E79
331
0
  5
15E7A
331
0
  5
15E7B
331
0
  5
15E7C
331
0
  5
15E7D
331
0
  5
15E7E
331
0
  5
15E7F
331
0
  5
15E80
331
0
  5
15E81
331
0
  5
15E82
331
0
  5
15E83
331
0
  5
15E84
331
0
  5
15E85
331
0
  5
15E86
331
0
  5
15E87
331
0
  5
15E88
331
0
  5
15E89
331
0
  5
15E8A
331
0
  5
15E8B
331
0
  5
15E8C
331
0
  5
15E8D
331
0
  5
15E8E
331
0
  5
15E8F
331
0
  5
15E90
331
0
  5
15E91
331
0
  5
15E92
331
0
  5
15E93
331
0
  5
15E94
331
0
  5
15E95
331
0
  5
15E96
331
0
  5
15E97
331
0
  5
15E98
331
0
  5
15E99
331
0
  5
15E9A
331
0
  5
15E9B
331
0
  5
15E9C
331
0
  5
15E9D
331
0
  5
15E9E
331
0
  5
15E9F
331
0
  5
15EA0
331
0
  5
15EA1
331
0
  5
15EA2
331
0
  5
15EA3
331
0
  5
15EA4
331
0
  5
15EA5
331
0
  5
15EA6
331
0
  5
15EA7
331
0
  5
15EA8
331
0
  5
15EA9
331
0
  5
15EAA
331
0
  5
15EAB
331
0
  5
15EAC
331
0
  5
15EAD
331
0
  5
15EAE
331
0
  5
15EAF
  0
GROUP
  5
18C86
102
{ACAD_REACTORS
330
D
102
}
330
D
100
AcDbGroup
300

 70
     1
 71
     1
340
17770
340
1776F
340
1776E
340
1776D
340
1776C
340
1776B
340
1776A
340
17769
340
17768
340
17767
340
17766
340
17765
340
17764
340
17763
340
17762
340
17761
340
17760
340
1775F
340
1775E
340
1775D
340
1775C
340
1775B
340
1775A
340
16FD5
340
16FBA
  0
MATERIAL
  5
15B55
102
{ACAD_REACTORS
330
2CF
102
}
102
{ACAD_XDICTIONARY
360
191AB
102
}
330
2CF
100
AcDbMaterial
  1
BYBLOCK
 72
     0
 73
     2
 43
0.0208333333333333
 43
0.0
 43
0.0
 43
0.0
 43
0.0
 43
0.0208333333333333
 43
0.0
 43
0.0
 43
0.0
 43
0.0
 43
1.0
 43
0.0
 43
0.0
 43
0.0
 43
0.0
 43
1.0
 77
     0
 78
     2
 47
0.0208333333333333
 47
0.0
 47
0.0
 47
0.0
 47
0.0
 47
0.0208333333333333
 47
0.0
 47
0.0
 47
0.0
 47
0.0
 47
1.0
 47
0.0
 47
0.0
 47
0.0
 47
0.0
 47
1.0
171
     0
172
     2
 49
0.0208333333333333
 49
0.0
 49
0.0
 49
0.0
 49
0.0
 49
0.0208333333333333
 49
0.0
 49
0.0
 49
0.0
 49
0.0
 49
1.0
 49
0.0
 49
0.0
 49
0.0
 49
0.0
 49
1.0
175
     0
176
     2
142
0.0208333333333333
142
0.0
142
0.0
142
0.0
142
0.0
142
0.0208333333333333
142
0.0
142
0.0
142
0.0
142
0.0
142
1.0
142
0.0
142
0.0
142
0.0
142
0.0
142
1.0
179
     0
270
     2
144
0.0208333333333333
144
0.0
144
0.0
144
0.0
144
0.0
144
0.0208333333333333
144
0.0
144
0.0
144
0.0
144
0.0
144
1.0
144
0.0
144
0.0
144
0.0
144
0.0
144
1.0
274
     2
147
0.0208333333333333
147
0.0
147
0.0
147
0.0
147
0.0
147
0.0208333333333333
147
0.0
147
0.0
147
0.0
147
0.0
147
1.0
147
0.0
147
0.0
147
0.0
147
0.0
147
1.0
  0
MATERIAL
  5
15B4D
102
{ACAD_REACTORS
330
2CF
102
}
102
{ACAD_XDICTIONARY
360
191AD
102
}
330
2CF
100
AcDbMaterial
  1
BYLAYER
 72
     0
 73
     2
 43
0.0208333333333333
 43
0.0
 43
0.0
 43
0.0
 43
0.0
 43
0.0208333333333333
 43
0.0
 43
0.0
 43
0.0
 43
0.0
 43
1.0
 43
0.0
 43
0.0
 43
0.0
 43
0.0
 43
1.0
 77
     0
 78
     2
 47
0.0208333333333333
 47
0.0
 47
0.0
 47
0.0
 47
0.0
 47
0.0208333333333333
 47
0.0
 47
0.0
 47
0.0
 47
0.0
 47
1.0
 47
0.0
 47
0.0
 47
0.0
 47
0.0
 47
1.0
171
     0
172
     2
 49
0.0208333333333333
 49
0.0
 49
0.0
 49
0.0
 49
0.0
 49
0.0208333333333333
 49
0.0
 49
0.0
 49
0.0
 49
0.0
 49
1.0
 49
0.0
 49
0.0
 49
0.0
 49
0.0
 49
1.0
175
     0
176
     2
142
0.0208333333333333
142
0.0
142
0.0
142
0.0
142
0.0
142
0.0208333333333333
142
0.0
142
0.0
142
0.0
142
0.0
142
1.0
142
0.0
142
0.0
142
0.0
142
0.0
142
1.0
179
     0
270
     2
144
0.0208333333333333
144
0.0
144
0.0
144
0.0
144
0.0
144
0.0208333333333333
144
0.0
144
0.0
144
0.0
144
0.0
144
1.0
144
0.0
144
0.0
144
0.0
144
0.0
144
1.0
274
     2
147
0.0208333333333333
147
0.0
147
0.0
147
0.0
147
0.0
147
0.0208333333333333
147
0.0
147
0.0
147
0.0
147
0.0
147
1.0
147
0.0
147
0.0
147
0.0
147
0.0
147
1.0
  0
MATERIAL
  5
15B5D
102
{ACAD_REACTORS
330
2CF
102
}
102
{ACAD_XDICTIONARY
360
191AF
102
}
330
2CF
100
AcDbMaterial
  1
GLOBAL
 72
     0
 73
     2
 43
0.0208333333333333
 43
0.0
 43
0.0
 43
0.0
 43
0.0
 43
0.0208333333333333
 43
0.0
 43
0.0
 43
0.0
 43
0.0
 43
1.0
 43
0.0
 43
0.0
 43
0.0
 43
0.0
 43
1.0
 77
     0
 78
     2
 47
0.0208333333333333
 47
0.0
 47
0.0
 47
0.0
 47
0.0
 47
0.0208333333333333
 47
0.0
 47
0.0
 47
0.0
 47
0.0
 47
1.0
 47
0.0
 47
0.0
 47
0.0
 47
0.0
 47
1.0
171
     0
172
     2
 49
0.0208333333333333
 49
0.0
 49
0.0
 49
0.0
 49
0.0
 49
0.0208333333333333
 49
0.0
 49
0.0
 49
0.0
 49
0.0
 49
1.0
 49
0.0
 49
0.0
 49
0.0
 49
0.0
 49
1.0
175
     0
176
     2
142
0.0208333333333333
142
0.0
142
0.0
142
0.0
142
0.0
142
0.0208333333333333
142
0.0
142
0.0
142
0.0
142
0.0
142
1.0
142
0.0
142
0.0
142
0.0
142
0.0
142
1.0
179
     0
270
     2
144
0.0208333333333333
144
0.0
144
0.0
144
0.0
144
0.0
144
0.0208333333333333
144
0.0
144
0.0
144
0.0
144
0.0
144
1.0
144
0.0
144
0.0
144
0.0
144
0.0
144
1.0
274
     2
147
0.0208333333333333
147
0.0
147
0.0
147
0.0
147
0.0
147
0.0208333333333333
147
0.0
147
0.0
147
0.0
147
0.0
147
1.0
147
0.0
147
0.0
147
0.0
147
0.0
147
1.0
  0
ACAD_PROXY_OBJECT
  5
15B99
102
{ACAD_REACTORS
330
15B98
102
}
330
15B98
100
AcDbZombieObject
 90
      499
 91
      512
 93
      610
310
40901902A4063FBFFFFFE000000000000002040AD7A3703D0AD73F4214DD185B99185C990000000000000104090141901A00000000000004100000000000000041025764000000000000300FC0
340
12
340
0
340
F
340
0
 94
        0
1001
ACAD_MLEADERVER
1070
     2
  0
MLINESTYLE
  5
1C
102
{ACAD_REACTORS
330
1B
102
}
330
1B
100
AcDbMlineStyle
  2
STANDARD
 70
     0
  3

 62
   256
 51
90.0
 52
90.0
 71
     2
 49
0.5
 62
   256
  6
BYLAYER
 49
-0.5
 62
   256
  6
BYLAYER
  0
ACAD_PROXY_OBJECT
  5
15B77
102
{ACAD_REACTORS
330
15B76
102
}
330
15B76
100
AcDbZombieObject
 90
      499
 91
      511
 93
       41
310
903313A31580
  0
ACAD_PROXY_OBJECT
  5
15B78
102
{ACAD_REACTORS
330
15B76
102
}
330
15B76
100
AcDbZombieObject
 90
      499
 91
      511
 93
      105
310
903313A324000000000000004000
  0
ACAD_PROXY_OBJECT
  5
15B79
102
{ACAD_REACTORS
330
15B76
102
}
330
15B76
100
AcDbZombieObject
 90
      499
 91
      511
 93
      105
310
903313A344000000000000104000
  0
ACAD_PROXY_OBJECT
  5
15B7A
102
{ACAD_REACTORS
330
15B76
102
}
330
15B76
100
AcDbZombieObject
 90
      499
 91
      511
 93
      105
310
903313A354000000000000144000
  0
ACAD_PROXY_OBJECT
  5
15B7B
102
{ACAD_REACTORS
330
15B76
102
}
330
15B76
100
AcDbZombieObject
 90
      499
 91
      511
 93
      105
310
903313A384000000000000204000
  0
ACAD_PROXY_OBJECT
  5
15B7C
102
{ACAD_REACTORS
330
15B76
102
}
330
15B76
100
AcDbZombieObject
 90
      499
 91
      511
 93
      113
310
904313A31304000000000000244000
  0
ACAD_PROXY_OBJECT
  5
15B7D
102
{ACAD_REACTORS
330
15B76
102
}
330
15B76
100
AcDbZombieObject
 90
      499
 91
      511
 93
      113
310
904313A31364000000000000304000
  0
ACAD_PROXY_OBJECT
  5
15B7E
102
{ACAD_REACTORS
330
15B76
102
}
330
15B76
100
AcDbZombieObject
 90
      499
 91
      511
 93
      113
310
904313A32304000000000000344000
  0
ACAD_PROXY_OBJECT
  5
15B7F
102
{ACAD_REACTORS
330
15B76
102
}
330
15B76
100
AcDbZombieObject
 90
      499
 91
      511
 93
      113
310
904313A333040000000000003E4000
  0
ACAD_PROXY_OBJECT
  5
15B80
102
{ACAD_REACTORS
330
15B76
102
}
330
15B76
100
AcDbZombieObject
 90
      499
 91
      511
 93
      113
310
904313A34304000000000000444000
  0
ACAD_PROXY_OBJECT
  5
15B81
102
{ACAD_REACTORS
330
15B76
102
}
330
15B76
100
AcDbZombieObject
 90
      499
 91
      511
 93
      113
310
904313A35304000000000000494000
  0
ACAD_PROXY_OBJECT
  5
15B82
102
{ACAD_REACTORS
330
15B76
102
}
330
15B76
100
AcDbZombieObject
 90
      499
 91
      511
 93
      121
310
905313A3130304000000000000594000
  0
ACAD_PROXY_OBJECT
  5
15B83
102
{ACAD_REACTORS
330
15B76
102
}
330
15B76
100
AcDbZombieObject
 90
      499
 91
      511
 93
      105
310
903323A310000000000000010100
  0
ACAD_PROXY_OBJECT
  5
15B84
102
{ACAD_REACTORS
330
15B76
102
}
330
15B76
100
AcDbZombieObject
 90
      499
 91
      511
 93
      105
310
903343A310000000000000410100
  0
ACAD_PROXY_OBJECT
  5
15B85
102
{ACAD_REACTORS
330
15B76
102
}
330
15B76
100
AcDbZombieObject
 90
      499
 91
      511
 93
      105
310
903383A310000000000000810100
  0
ACAD_PROXY_OBJECT
  5
15B86
102
{ACAD_REACTORS
330
15B76
102
}
330
15B76
100
AcDbZombieObject
 90
      499
 91
      511
 93
      113
310
90431303A310000000000000910100
  0
ACAD_PROXY_OBJECT
  5
15B87
102
{ACAD_REACTORS
330
15B76
102
}
330
15B76
100
AcDbZombieObject
 90
      499
 91
      511
 93
      121
310
9053130303A310000000000001650100
  0
ACAD_PROXY_OBJECT
  5
15B88
102
{ACAD_REACTORS
330
15B76
102
}
330
15B76
100
AcDbZombieObject
 90
      499
 91
      511
 93
      257
310
90E312F31323822203D2031272D3022000000000000200FC000000000000284000
  0
ACAD_PROXY_OBJECT
  5
15B89
102
{ACAD_REACTORS
330
15B76
102
}
330
15B76
100
AcDbZombieObject
 90
      499
 91
      511
 93
      249
310
90D312F363422203D2031272D3022000000000000240FC000000000000284000
  0
ACAD_PROXY_OBJECT
  5
15B8A
102
{ACAD_REACTORS
330
15B76
102
}
330
15B76
100
AcDbZombieObject
 90
      499
 91
      511
 93
      249
310
90D312F333222203D2031272D3022000000000000280FC000000000000284000
  0
ACAD_PROXY_OBJECT
  5
15B8B
102
{ACAD_REACTORS
330
15B76
102
}
330
15B76
100
AcDbZombieObject
 90
      499
 91
      511
 93
      249
310
90D312F313622203D2031272D30220000000000002C0FC000000000000284000
  0
ACAD_PROXY_OBJECT
  5
15B8C
102
{ACAD_REACTORS
330
15B76
102
}
330
15B76
100
AcDbZombieObject
 90
      499
 91
      511
 93
      249
310
90D332F333222203D2031272D30220000000000002E0FC000000000000284000
  0
ACAD_PROXY_OBJECT
  5
15B8D
102
{ACAD_REACTORS
330
15B76
102
}
330
15B76
100
AcDbZombieObject
 90
      499
 91
      511
 93
      241
310
90C312F3822203D2031272D3022000000000000300FC000000000000284000
  0
ACAD_PROXY_OBJECT
  5
15B8E
102
{ACAD_REACTORS
330
15B76
102
}
330
15B76
100
AcDbZombieObject
 90
      499
 91
      511
 93
      249
310
90D332F313622203D2031272D3022000000000000320FC000000000000284000
  0
ACAD_PROXY_OBJECT
  5
15B8F
102
{ACAD_REACTORS
330
15B76
102
}
330
15B76
100
AcDbZombieObject
 90
      499
 91
      511
 93
      241
310
90C312F3422203D2031272D3022000000000000340FC000000000000284000
  0
ACAD_PROXY_OBJECT
  5
15B90
102
{ACAD_REACTORS
330
15B76
102
}
330
15B76
100
AcDbZombieObject
 90
      499
 91
      511
 93
      241
310
90C332F3822203D2031272D3022000000000000360FC000000000000284000
  0
ACAD_PROXY_OBJECT
  5
15B91
102
{ACAD_REACTORS
330
15B76
102
}
330
15B76
100
AcDbZombieObject
 90
      499
 91
      511
 93
      241
310
90C312F3222203D2031272D3022000000000000380FC000000000000284000
  0
ACAD_PROXY_OBJECT
  5
15B92
102
{ACAD_REACTORS
330
15B76
102
}
330
15B76
100
AcDbZombieObject
 90
      499
 91
      511
 93
      241
310
90C332F3422203D2031272D30220000000000003A0FC000000000000284000
  0
ACAD_PROXY_OBJECT
  5
15B93
102
{ACAD_REACTORS
330
15B76
102
}
330
15B76
100
AcDbZombieObject
 90
      499
 91
      511
 93
      161
310
90A3122203D2031272D30224000000000000284000
  0
ACAD_PROXY_OBJECT
  5
15B94
102
{ACAD_REACTORS
330
15B76
102
}
330
15B76
100
AcDbZombieObject
 90
      499
 91
      511
 93
      257
310
90E312D312F3222203D2031272D30220000000000003E0FC000000000000284000
  0
ACAD_PROXY_OBJECT
  5
15B95
102
{ACAD_REACTORS
330
15B76
102
}
330
15B76
100
AcDbZombieObject
 90
      499
 91
      511
 93
      225
310
90A3322203D2031272D302200000000000002100000000000000284000
  0
ACAD_PROXY_OBJECT
  5
15B96
102
{ACAD_REACTORS
330
15B76
102
}
330
15B76
100
AcDbZombieObject
 90
      499
 91
      511
 93
      225
310
90A3622203D2031272D302200000000000006100000000000000284000
  0
ACAD_PROXY_OBJECT
  5
15B97
102
{ACAD_REACTORS
330
15B76
102
}
330
15B76
100
AcDbZombieObject
 90
      499
 91
      511
 93
      249
310
90D31272D3022203D2031272D30220000000000000A100000000000000284000
  0
ACAD_PROXY_OBJECT
  5
15B6B
102
{ACAD_REACTORS
330
15B65
102
}
330
15B65
100
AcDbZombieObject
 90
      499
 91
      510
 93
      436
310
42CC9915DA5C99599C985B595049028333333333333E3BF0000000000000FB0107901411070040501600405405064090741402480A0340
1001
ACAD
1000
AcDbSavedByObjectVersion
1070
     0
  0
ACAD_PROXY_OBJECT
  5
15B6D
102
{ACAD_REACTORS
330
15B65
102
}
330
15B65
100
AcDbZombieObject
 90
      499
 91
      510
 93
      500
310
424CD108121A5919195B90640502408333333333333E3BF0000000000000FB01079024090700405020000000000001110200405405064090740C02480A0340
1001
ACAD
1000
AcDbSavedByObjectVersion
1070
     0
  0
ACAD_PROXY_OBJECT
  5
15B6C
102
{ACAD_REACTORS
330
15B65
102
}
330
15B65
100
AcDbZombieObject
 90
      499
 91
      510
 93
      436
310
42CCD915DA5C99599C985B595059028333333333333E3BF0000000000000FB0107901411070040501600405405064090741402480A0340
1001
ACAD
1000
AcDbSavedByObjectVersion
1070
     0
  0
ACAD_PROXY_OBJECT
  5
15B6A
102
{ACAD_REACTORS
330
15B65
102
}
330
15B65
100
AcDbZombieObject
 90
      499
 91
      510
 93
      388
310
4150985CDA58D07406404333333333333E3BF0000000000000FB0107A41107004050150841D405064090741402480A0350
1001
ACAD
1000
AcDbSavedByObjectVersion
1070
     0
  0
ACAD_PROXY_OBJECT
  5
15B71
102
{ACAD_REACTORS
330
15B65
102
}
330
15B65
100
AcDbZombieObject
 90
      499
 91
      510
 93
      428
310
42109C9A59DA1D195B90C409028333333333333E3BF0000000000000FB010790141107004050150841D405064090741402480A029950
1001
ACAD
1000
AcDbSavedByObjectVersion
1070
     0
  0
ACAD_PROXY_OBJECT
  5
15B75
102
{ACAD_REACTORS
330
15B65
102
}
330
15B65
100
AcDbZombieObject
 90
      499
 91
      510
 93
      452
310
42D0DBDB1BDC90DA185B99D95104090240C333333333333E3BF0000000000000FB0108901411070040501508421405064090741402480A0350
1001
ACAD
1000
AcDbSavedByObjectVersion
1070
     0
  0
ACAD_PROXY_OBJECT
  5
15B6E
102
{ACAD_REACTORS
330
15B65
102
}
330
15B65
100
AcDbZombieObject
 90
      499
 91
      510
 93
      500
310
4290DBDB98D95C1D1D585B10940D028333333333333E3BF0000000000000FB0107902409070040501000000000000111010841D405064090740C02480A0340
1001
ACAD
1000
AcDbSavedByObjectVersion
1070
     0
  0
ACAD_PROXY_OBJECT
  5
15B70
102
{ACAD_REACTORS
330
15B65
102
}
330
15B65
100
AcDbZombieObject
 90
      499
 91
      510
 93
      412
310
40D11A5B50B409028333333333333E3BF0000000000000FB010790141107004050150841D405064090741402480A02677FFFFFD0
1001
ACAD
1000
AcDbSavedByObjectVersion
1070
     0
  0
ACAD_PROXY_OBJECT
  5
18F46
102
{ACAD_REACTORS
330
15B65
102
}
330
15B65
100
AcDbZombieObject
 90
      499
 91
      510
 93
      452
310
43115919D950DBDB1BDC93D999916409028333333333333E33F0000000000000F9010790141107004050150841D405064090741402480A0350
1001
ACAD
1000
AcDbSavedByObjectVersion
1070
     0
  0
ACAD_PROXY_OBJECT
  5
15B74
102
{ACAD_REACTORS
330
15B65
102
}
330
15B65
100
AcDbZombieObject
 90
      499
 91
      510
 93
      444
310
42D19858D95C185D1D195C9B90F409028333333333333E3BF0000000000000FB010790141107004050150841D405064090741402480A0350
1001
ACAD
1000
AcDbSavedByObjectVersion
1070
     0
  0
ACAD_PROXY_OBJECT
  5
15B66
102
{ACAD_REACTORS
330
15B65
102
}
330
15B65
100
AcDbZombieObject
 90
      499
 91
      510
 93
      388
310
41119B185D240901404333333333333E3BF0000000000000F9010740A41107004050150841D405064090741402480A1B50
1001
ACAD
1000
AcDbSavedByObjectVersion
1070
     0
  0
ACAD_PROXY_OBJECT
  5
15B67
102
{ACAD_REACTORS
330
15B65
102
}
330
15B65
100
AcDbZombieObject
 90
      499
 91
      510
 93
      476
310
43519B185D15DA5D1A115919D95CD0140901404333333333333E3BF0000000000000F9010740901411070040501600405405064090741402480A1B50
1001
ACAD
1000
AcDbSavedByObjectVersion
1070
     0
  0
ACAD_PROXY_OBJECT
  5
15B68
102
{ACAD_REACTORS
330
15B65
102
}
330
15B65
100
AcDbZombieObject
 90
      499
 91
      510
 93
      412
310
41D1DBDD5C985D5910240902404333333333333E3BF0000000000000F9010740A411070040501641D405064090741402480A1B50
1001
ACAD
1000
AcDbSavedByObjectVersion
1070
     0
  0
ACAD_PROXY_OBJECT
  5
15B69
102
{ACAD_REACTORS
330
15B65
102
}
330
15B65
100
AcDbZombieObject
 90
      499
 91
      510
 93
      500
310
4411DBDD5C985D5915DA5D1A115919D95CD0340902404333333333333E3BF0000000000000F9010740901411070040501600405405064090741402480A1B50
1001
ACAD
1000
AcDbSavedByObjectVersion
1070
     0
  0
ACAD_PROXY_OBJECT
  5
18F43
102
{ACAD_REACTORS
330
15B65
102
}
330
15B65
100
AcDbZombieObject
 90
      499
 91
      510
 93
      476
310
41921A5919195B90640502408333333333333E33F0000000000000F901079024090700405020000000000001110200405405064090740C02480A0340
1001
ACAD
1000
AcDbSavedByObjectVersion
1070
     0
  0
ACAD_PROXY_OBJECT
  5
18F44
102
{ACAD_REACTORS
330
15B65
102
}
330
15B65
100
AcDbZombieObject
 90
      499
 91
      510
 93
      428
310
42529A5D1D195C93D999914409028333333333333E33F0000000000000F9010790141107004050150A41D405064090741402480A0350
1001
ACAD
1000
AcDbSavedByObjectVersion
1070
     0
  0
ACAD_PROXY_OBJECT
  5
15B73
102
{ACAD_REACTORS
330
15B65
102
}
330
15B65
100
AcDbZombieObject
 90
      499
 91
      510
 93
      444
310
42D31A5B995C185D1D195C9B90E409028333333333333E3BF0000000000000FB010790141107004050750841D405064090741402483A0350
1001
ACAD
1000
AcDbSavedByObjectVersion
1070
     0
  0
ACAD_PROXY_OBJECT
  5
18F4C
102
{ACAD_REACTORS
330
15B65
102
}
330
15B65
100
AcDbZombieObject
 90
      499
 91
      510
 93
      484
310
42135BD9195B1A5B99D0A409038333333333333E33F0000000000000F901074090290700405010000000000201990108421405064090741402480A1B40
1001
ACAD
1000
AcDbSavedByObjectVersion
1070
     0
  0
ACAD_PROXY_OBJECT
  5
18F45
102
{ACAD_REACTORS
330
15B65
102
}
330
15B65
100
AcDbZombieObject
 90
      499
 91
      510
 93
      444
310
42D3DD995C9A185B99D3D999915409028333333333333E33F0000000000000F9010790141107004050150941D405064090741402480A0350
1001
ACAD
1000
AcDbSavedByObjectVersion
1070
     0
  0
ACAD_PROXY_OBJECT
  5
15B6F
102
{ACAD_REACTORS
330
15B65
102
}
330
15B65
100
AcDbZombieObject
 90
      499
 91
      510
 93
      420
310
425499585B1A5CDD1A58D08409028333333333333E3BF0000000000000FB01079019070040501508421405064090741402480A1B40
1001
ACAD
1000
AcDbSavedByObjectVersion
1070
     0
  0
ACAD_PROXY_OBJECT
  5
18F4B
102
{ACAD_REACTORS
330
15B65
102
}
330
15B65
100
AcDbZombieObject
 90
      499
 91
      510
 93
      420
310
4194DA1859195911B40902404333333333333E33F0000000000000F9010740A41107004050150800405405064090840C02480A0B40
1001
ACAD
1000
AcDbSavedByObjectVersion
1070
     0
  0
ACAD_PROXY_OBJECT
  5
18F4A
102
{ACAD_REACTORS
330
15B65
102
}
330
15B65
100
AcDbZombieObject
 90
      499
 91
      510
 93
      516
310
4454DA18591959081DDA5D1A08195919D95CD1A40902404333333333333E33F0000000000000F901074090142907004050250800405405064090740C02480A0B40
1001
ACAD
1000
AcDbSavedByObjectVersion
1070
     0
  0
ACAD_PROXY_OBJECT
  5
18F47
102
{ACAD_REACTORS
330
15B65
102
}
330
15B65
100
AcDbZombieObject
 90
      499
 91
      510
 93
      532
310
4394DA1859195CC81BD98811DC985E5174090240C333333333333E33F0000000000000F901079024090741D01000000000000111010841D405064090740C02480A0340
1001
ACAD
1000
AcDbSavedByObjectVersion
1070
     0
  0
ACAD_PROXY_OBJECT
  5
18F48
102
{ACAD_REACTORS
330
15B65
102
}
330
15B65
100
AcDbZombieObject
 90
      499
 91
      510
 93
      476
310
41D4DAD95D18DA1E51840502408333333333333E33F0000000000000F901079024090741D01000000000000111010B41D405064090741802480A0340
1001
ACAD
1000
AcDbSavedByObjectVersion
1070
     0
  0
ACAD_PROXY_OBJECT
  5
15B72
102
{ACAD_REACTORS
330
15B65
102
}
330
15B65
100
AcDbZombieObject
 90
      499
 91
      510
 93
      412
310
41D51A1A58DAD95B90D409028333333333333E3BF0000000000000FB010790141107004050150C41D405064090741402480A0350
1001
ACAD
1000
AcDbSavedByObjectVersion
1070
     0
  0
ACAD_PROXY_OBJECT
  5
18F42
102
{ACAD_REACTORS
330
15B65
102
}
330
15B65
100
AcDbZombieObject
 90
      499
 91
      510
 93
      420
310
4255DA5C99599C985B595059028333333333333E33F0000000000000F90107901411070040501600405405064090740C02480A0340
1001
ACAD
1000
AcDbSavedByObjectVersion
1070
     0
  0
ACAD_PROXY_OBJECT
  5
18F49
102
{ACAD_REACTORS
330
15B65
102
}
330
15B65
100
AcDbZombieObject
 90
      499
 91
      510
 93
      404
310
41560B54985E51940902404000000000000E03F0000000000000F9010740501907004050150841D405064090740C02480A1B40
1001
ACAD
1000
AcDbSavedByObjectVersion
1070
     0
  0
XRECORD
  5
191A8
102
{ACAD_REACTORS
330
191A7
102
}
330
191A7
100
AcDbXrecord
340
2D0
  0
XRECORD
  5
191A9
102
{ACAD_REACTORS
330
191A7
102
}
330
191A7
100
AcDbXrecord
340
2CF
  0
DICTIONARYVAR
  5
18FBA
102
{ACAD_REACTORS
330
37
102
}
330
37
100
DictionaryVariables
280
     0
  1
1:1
  0
DICTIONARYVAR
  5
15C4B
102
{ACAD_REACTORS
330
37
102
}
330
37
100
DictionaryVariables
280
     0
  1
Standard
  0
DICTIONARYVAR
  5
4F1
102
{ACAD_REACTORS
330
37
102
}
330
37
100
DictionaryVariables
280
     0
  1
Standard
  0
DICTIONARYVAR
  5
38
102
{ACAD_REACTORS
330
37
102
}
330
37
100
DictionaryVariables
280
     0
  1
-1
  0
DICTIONARYVAR
  5
408
102
{ACAD_REACTORS
330
37
102
}
330
37
100
DictionaryVariables
280
     0
  1
2
  0
DICTIONARYVAR
  5
1891
102
{ACAD_REACTORS
330
37
102
}
330
37
100
DictionaryVariables
280
     0
  1
1
  0
DICTIONARYVAR
  5
15C4E
102
{ACAD_REACTORS
330
37
102
}
330
37
100
DictionaryVariables
280
     0
  1
0
  0
DICTIONARYVAR
  5
1895
102
{ACAD_REACTORS
330
37
102
}
330
37
100
DictionaryVariables
280
     0
  1
8
  0
DICTIONARYVAR
  5
1894
102
{ACAD_REACTORS
330
37
102
}
330
37
100
DictionaryVariables
280
     0
  1
1
  0
DICTIONARYVAR
  5
19004
102
{ACAD_REACTORS
330
37
102
}
330
37
100
DictionaryVariables
280
     0
  1
0
  0
DICTIONARYVAR
  5
1892
102
{ACAD_REACTORS
330
37
102
}
330
37
100
DictionaryVariables
280
     0
  1
8
  0
DICTIONARYVAR
  5
1893
102
{ACAD_REACTORS
330
37
102
}
330
37
100
DictionaryVariables
280
     0
  1
2
  0
DICTIONARYVAR
  5
409
102
{ACAD_REACTORS
330
37
102
}
330
37
100
DictionaryVariables
280
     0
  1

  0
DICTIONARYVAR
  5
15C4D
102
{ACAD_REACTORS
330
37
102
}
330
37
100
DictionaryVariables
280
     0
  1
127
  0
DICTIONARYVAR
  5
18FBB
102
{ACAD_REACTORS
330
37
102
}
330
37
100
DictionaryVariables
280
     0
  1
2
  0
DICTIONARY
  5
191AB
330
15B55
100
AcDbDictionary
  3
ACAD_XREC_ROUNDTRIP
360
191AC
1001
ACAD
1000
TREAT_AS_HARD
1070
     1
  0
DICTIONARY
  5
191AD
330
15B4D
100
AcDbDictionary
  3
ACAD_XREC_ROUNDTRIP
360
191AE
1001
ACAD
1000
TREAT_AS_HARD
1070
     1
  0
DICTIONARY
  5
191AF
330
15B5D
100
AcDbDictionary
  3
ACAD_XREC_ROUNDTRIP
360
191B0
1001
ACAD
1000
TREAT_AS_HARD
1070
     1
  0
XRECORD
  5
191AC
102
{ACAD_REACTORS
330
191AB
102
}
330
191AB
100
AcDbXrecord
102
MATERIAL
148
0.0
149
0.0
149
0.0
 93
        0
 94
      127
282
     0
 72
     0
 77
     0
171
     0
175
     0
179
     0
273
     0
  0
XRECORD
  5
191AE
102
{ACAD_REACTORS
330
191AD
102
}
330
191AD
100
AcDbXrecord
102
MATERIAL
148
0.0
149
0.0
149
0.0
 93
        0
 94
      127
282
     0
 72
     0
 77
     0
171
     0
175
     0
179
     0
273
     0
  0
XRECORD
  5
191B0
102
{ACAD_REACTORS
330
191AF
102
}
330
191AF
100
AcDbXrecord
102
MATERIAL
148
0.0
149
0.0
149
0.0
 93
        0
 94
      127
282
     0
 72
     0
 77
     0
171
     0
175
     0
179
     0
273
     0
  0
ENDSEC
  0
EOF
