  0
SECTION
  2
HEADER
  9
$ACADVER
  1
AC1012
  9
$DWGCODEPAGE
  3
ansi_932
  9
$INSBASE
 10
0.0
 20
0.0
 30
0.0
  9
$EXTMIN
 10
1.000000000000000E+20
 20
1.000000000000000E+20
 30
1.000000000000000E+20
  9
$EXTMAX
 10
-1.000000000000000E+20
 20
-1.000000000000000E+20
 30
-1.000000000000000E+20
  9
$LIMMIN
 10
0.0
 20
0.0
  9
$LIMMAX
 10
420.0
 20
297.0
  9
$ORTHOMODE
 70
     0
  9
$REGENMODE
 70
     1
  9
$FILLMODE
 70
     1
  9
$QTEXTMODE
 70
     0
  9
$MIRRTEXT
 70
     0
  9
$DRAGMODE
 70
     2
  9
$LTSCALE
 40
0.5
  9
$OSMODE
 70
 14591
  9
$ATTMODE
 70
     1
  9
$TEXTSIZE
 40
4.0
  9
$TRACEWID
 40
1.0
  9
$TEXTSTYLE
  7
STANDARD
  9
$CLAYER
  8
1TEXT
  9
$CELTYPE
  6
BYLAYER
  9
$CECOLOR
 62
   256
  9
$CELTSCALE
 40
1.0
  9
$DELOBJ
 70
     1
  9
$DISPSILH
 70
     0
  9
$DIMSCALE
 40
1.0
  9
$DIMASZ
 40
2.0
  9
$DIMEXO
 40
0.0
  9
$DIMDLI
 40
7.0
  9
$DIMRND
 40
0.0
  9
$DIMDLE
 40
0.0
  9
$DIMEXE
 40
1.0
  9
$DIMTP
 40
0.0
  9
$DIMTM
 40
0.0
  9
$DIMTXT
 40
3.5
  9
$DIMCEN
 40
0.0
  9
$DIMTSZ
 40
0.0
  9
$DIMTOL
 70
     0
  9
$DIMLIM
 70
     0
  9
$DIMTIH
 70
     0
  9
$DIMTOH
 70
     0
  9
$DIMSE1
 70
     0
  9
$DIMSE2
 70
     0
  9
$DIMTAD
 70
     1
  9
$DIMZIN
 70
     8
  9
$DIMBLK
  1

  9
$DIMASO
 70
     1
  9
$DIMSHO
 70
     1
  9
$DIMPOST
  1
 
  9
$DIMAPOST
  1

  9
$DIMALT
 70
     0
  9
$DIMALTD
 70
     2
  9
$DIMALTF
 40
25.4
  9
$DIMLFAC
 40
1.0
  9
$DIMTOFL
 70
     1
  9
$DIMTVP
 40
0.0
  9
$DIMTIX
 70
     0
  9
$DIMSOXD
 70
     0
  9
$DIMSAH
 70
     1
  9
$DIMBLK1
  1
OPEN30
  9
$DIMBLK2
  1
OPEN30
  9
$DIMSTYLE
  2
NEWX10
  9
$DIMCLRD
 70
   256
  9
$DIMCLRE
 70
   256
  9
$DIMCLRT
 70
   201
  9
$DIMTFAC
 40
0.7
  9
$DIMGAP
 40
0.7
  9
$DIMJUST
 70
     0
  9
$DIMSD1
 70
     0
  9
$DIMSD2
 70
     0
  9
$DIMTOLJ
 70
     1
  9
$DIMTZIN
 70
     8
  9
$DIMALTZ
 70
     0
  9
$DIMALTTZ
 70
     0
  9
$DIMFIT
 70
     2
  9
$DIMUPT
 70
     0
  9
$DIMUNIT
 70
     2
  9
$DIMDEC
 70
     2
  9
$DIMTDEC
 70
     4
  9
$DIMALTU
 70
     2
  9
$DIMALTTD
 70
     2
  9
$DIMTXSTY
  7
STANDARD
  9
$DIMAUNIT
 70
     0
  9
$LUNITS
 70
     2
  9
$LUPREC
 70
     4
  9
$SKETCHINC
 40
1.0
  9
$FILLETRAD
 40
0.0
  9
$AUNITS
 70
     0
  9
$AUPREC
 70
     2
  9
$MENU
  1
acad
  9
$ELEVATION
 40
0.0
  9
$PELEVATION
 40
0.0
  9
$THICKNESS
 40
0.0
  9
$LIMCHECK
 70
     0
  9
$CHAMFERA
 40
10.0
  9
$CHAMFERB
 40
10.0
  9
$CHAMFERC
 40
20.0
  9
$CHAMFERD
 40
0.0
  9
$SKPOLY
 70
     0
  9
$TDCREATE
 40
2453033.732663484
  9
$TDUPDATE
 40
2458040.725194549
  9
$TDINDWG
 40
1.9144096759
  9
$TDUSRTIMER
 40
1.9144096759
  9
$USRTIMER
 70
     1
  9
$ANGBASE
 50
0.0
  9
$ANGDIR
 70
     0
  9
$PDMODE
 70
     0
  9
$PDSIZE
 40
0.0
  9
$PLINEWID
 40
0.0
  9
$COORDS
 70
     2
  9
$SPLFRAME
 70
     0
  9
$SPLINETYPE
 70
     6
  9
$SPLINESEGS
 70
     8
  9
$ATTDIA
 70
     0
  9
$ATTREQ
 70
     1
  9
$HANDLING
 70
     1
  9
$HANDSEED
  5
16D1D
  9
$SURFTAB1
 70
     6
  9
$SURFTAB2
 70
     6
  9
$SURFTYPE
 70
     6
  9
$SURFU
 70
     6
  9
$SURFV
 70
     6
  9
$UCSNAME
  2

  9
$UCSORG
 10
0.0
 20
0.0
 30
0.0
  9
$UCSXDIR
 10
1.0
 20
0.0
 30
0.0
  9
$UCSYDIR
 10
0.0
 20
1.0
 30
0.0
  9
$PUCSNAME
  2

  9
$PUCSORG
 10
0.0
 20
0.0
 30
0.0
  9
$PUCSXDIR
 10
1.0
 20
0.0
 30
0.0
  9
$PUCSYDIR
 10
0.0
 20
1.0
 30
0.0
  9
$USERI1
 70
     0
  9
$USERI2
 70
     0
  9
$USERI3
 70
     0
  9
$USERI4
 70
     0
  9
$USERI5
 70
     0
  9
$USERR1
 40
0.0
  9
$USERR2
 40
0.0
  9
$USERR3
 40
0.0
  9
$USERR4
 40
0.0
  9
$USERR5
 40
0.0
  9
$WORLDVIEW
 70
     1
  9
$SHADEDGE
 70
     3
  9
$SHADEDIF
 70
    70
  9
$TILEMODE
 70
     1
  9
$MAXACTVP
 70
    48
  9
$PINSBASE
 10
0.0
 20
0.0
 30
0.0
  9
$PLIMCHECK
 70
     0
  9
$PEXTMIN
 10
1.000000000000000E+20
 20
1.000000000000000E+20
 30
1.000000000000000E+20
  9
$PEXTMAX
 10
-1.000000000000000E+20
 20
-1.000000000000000E+20
 30
-1.000000000000000E+20
  9
$PLIMMIN
 10
0.0
 20
0.0
  9
$PLIMMAX
 10
420.0
 20
297.0
  9
$UNITMODE
 70
     0
  9
$VISRETAIN
 70
     1
  9
$PLINEGEN
 70
     0
  9
$PSLTSCALE
 70
     1
  9
$TREEDEPTH
 70
  3020
  9
$PICKSTYLE
 70
     1
  9
$CMLSTYLE
  2
STANDARD
  9
$CMLJUST
 70
     0
  9
$CMLSCALE
 40
20.0
  9
$SAVEIMAGES
 70
     1
  0
ENDSEC
  0
SECTION
  2
CLASSES
  0
CLASS
  1
DICTIONARYVAR
  2
AcDbDictionaryVar
  3
ObjectDBX Classes
 90
        0
280
     0
281
     0
  0
CLASS
  1
IDBUFFER
  2
AcDbIdBuffer
  3
ObjectDBX Classes
 90
    32768
280
     0
281
     0
  0
CLASS
  1
LWPOLYLINE
  2
AcDbPolyline
  3
ObjectDBX Classes
 90
    32768
280
     0
281
     1
  0
CLASS
  1
ACDBDICTIONARYWDFLT
  2
AcDbDictionaryWithDefault
  3
ObjectDBX Classes
 90
    32768
280
     0
281
     0
  0
CLASS
  1
ACDBPLACEHOLDER
  2
AcDbPlaceHolder
  3
ObjectDBX Classes
 90
        0
280
     0
281
     0
  0
CLASS
  1
LAYOUT
  2
AcDbLayout
  3
ObjectDBX Classes
 90
        0
280
     0
281
     0
  0
CLASS
  1
TABLESTYLE
  2
AcDbTableStyle
  3
ObjectDBX Classes
 90
     4095
280
     0
281
     0
  0
CLASS
  1
SORTENTSTABLE
  2
AcDbSortentsTable
  3
ObjectDBX Classes
 90
    32768
280
     0
281
     0
  0
CLASS
  1
DIMASSOC
  2
AcDbDimAssoc
  3
"AcDbDimAssoc|Product Desc:     AcDim ARX App For Dimension|Company:          Autodesk, Inc.|WEB Address:      www.autodesk.com"
 90
        0
280
     0
281
     0
  0
CLASS
  1
MATERIAL
  2
AcDbMaterial
  3
ObjectDBX Classes
 90
     1153
280
     0
281
     0
  0
CLASS
  1
VISUALSTYLE
  2
AcDbVisualStyle
  3
ObjectDBX Classes
 90
     4095
280
     0
281
     0
  0
CLASS
  1
SCALE
  2
AcDbScale
  3
ObjectDBX Classes
 90
     1153
280
     0
281
     0
  0
CLASS
  1
MLEADERSTYLE
  2
AcDbMLeaderStyle
  3
ACDB_MLEADERSTYLE_CLASS
 90
     4095
280
     0
281
     0
  0
CLASS
  1
CELLSTYLEMAP
  2
AcDbCellStyleMap
  3
ObjectDBX Classes
 90
     1152
280
     0
281
     0
  0
CLASS
  1
EXACXREFPANELOBJECT
  2
ExAcXREFPanelObject
  3
EXAC_ESW
 90
     1025
280
     1
281
     0
  0
CLASS
  1
NPOCOLLECTION
  2
AcDbImpNonPersistentObjectsCollection
  3
ObjectDBX Classes
 90
     1153
280
     1
281
     0
  0
CLASS
  1
SUN
  2
AcDbSun
  3
SCENEOE
 90
     1153
280
     0
281
     0
  0
CLASS
  1
XRECORD
  2
AcDbXrecord
  3
ObjectDBX Classes
 90
    32768
280
     0
281
     0
  0
CLASS
  1
HATCH
  2
AcDbHatch
  3
ObjectDBX Classes
 90
    32768
280
     0
281
     1
  0
ENDSEC
  0
SECTION
  2
TABLES
  0
TABLE
  2
VPORT
  5
8
330
0
100
AcDbSymbolTable
 70
     1
  0
VPORT
  5
15B17
330
8
100
AcDbSymbolTableRecord
100
AcDbViewportTableRecord
  2
*ACTIVE
 70
     0
 10
0.0
 20
0.0
 11
1.0
 21
1.0
 12
2387.577459825762
 22
-1907.520881091056
 13
0.0
 23
0.0
 14
10.0
 24
10.0
 15
10.0
 25
10.0
 16
0.0
 26
0.0
 36
1.0
 17
0.0
 27
0.0
 37
0.0
 40
213.6915865623988
 41
2.020775623268698
 42
50.0
 43
0.0
 44
0.0
 50
0.0
 51
0.0
 71
    16
 72
   100
 73
     1
 74
     1
 75
     0
 76
     0
 77
     0
 78
     0
  0
ENDTAB
  0
TABLE
  2
LTYPE
  5
5
330
0
100
AcDbSymbolTable
 70
     3
  0
LTYPE
  5
12
330
5
100
AcDbSymbolTableRecord
100
AcDbLinetypeTableRecord
  2
BYBLOCK
 70
     0
  3

 72
    65
 73
     0
 40
0.0
  0
LTYPE
  5
13
330
5
100
AcDbSymbolTableRecord
100
AcDbLinetypeTableRecord
  2
BYLAYER
 70
     0
  3

 72
    65
 73
     0
 40
0.0
  0
LTYPE
  5
14
330
5
100
AcDbSymbolTableRecord
100
AcDbLinetypeTableRecord
  2
CONTINUOUS
 70
     0
  3
Solid line
 72
    65
 73
     0
 40
0.0
  0
LTYPE
  5
26
330
5
100
AcDbSymbolTableRecord
100
AcDbLinetypeTableRecord
  2
CENTER2
 70
     0
  3
Center (.5x) ___ _ ___ _ ___ _ ___ _ ___ _ ___
 72
    65
 73
     4
 40
28.575
 49
19.05
 74
     0
 49
-3.175
 74
     0
 49
3.175
 74
     0
 49
-3.175
 74
     0
  0
LTYPE
  5
100
330
5
100
AcDbSymbolTableRecord
100
AcDbLinetypeTableRecord
  2
PHANTOM2
 70
     0
  3
Phantom (0.5x) ___ _ _ ___ _ _ ___ _ _ ___ _ _
 72
    65
 73
     6
 40
31.75
 49
15.875
 74
     0
 49
-3.175
 74
     0
 49
3.175
 74
     0
 49
-3.175
 74
     0
 49
3.175
 74
     0
 49
-3.175
 74
     0
  0
ENDTAB
  0
TABLE
  2
LAYER
  5
2
102
{ACAD_XDICTIONARY
360
14EC2
102
}
330
0
100
AcDbSymbolTable
 70
     7
  0
LAYER
  5
E
102
{ACAD_XDICTIONARY
360
15BB5
102
}
330
2
100
AcDbSymbolTableRecord
100
AcDbLayerTableRecord
  2
0
 70
     0
 62
     7
  6
CONTINUOUS
  0
LAYER
  5
29
102
{ACAD_XDICTIONARY
360
15BB7
102
}
330
2
100
AcDbSymbolTableRecord
100
AcDbLayerTableRecord
  2
1CENTER
 70
     0
 62
     7
  6
CENTER2
  0
LAYER
  5
31
102
{ACAD_XDICTIONARY
360
15BB9
102
}
330
2
100
AcDbSymbolTableRecord
100
AcDbLayerTableRecord
  2
1TEXT
 70
     0
 62
     7
  6
CONTINUOUS
  0
LAYER
  5
101
102
{ACAD_XDICTIONARY
360
15BC3
102
}
330
2
100
AcDbSymbolTableRecord
100
AcDbLayerTableRecord
  2
1DIM
 70
     0
 62
     7
  6
CONTINUOUS
  0
LAYER
  5
103
102
{ACAD_XDICTIONARY
360
15BC7
102
}
330
2
100
AcDbSymbolTableRecord
100
AcDbLayerTableRecord
  2
1PHANTOM
 70
     0
 62
     7
  6
PHANTOM2
  0
LAYER
  5
25F
102
{ACAD_XDICTIONARY
360
15BCB
102
}
330
2
100
AcDbSymbolTableRecord
100
AcDbLayerTableRecord
  2
01
 70
     0
 62
     1
  6
CONTINUOUS
  0
LAYER
  5
26D
102
{ACAD_XDICTIONARY
360
15BE7
102
}
330
2
100
AcDbSymbolTableRecord
100
AcDbLayerTableRecord
  2
1HATCH
 70
     0
 62
     7
  6
CONTINUOUS
  0
ENDTAB
  0
TABLE
  2
STYLE
  5
3
330
0
100
AcDbSymbolTable
 70
     1
  0
STYLE
  5
F
330
3
100
AcDbSymbolTableRecord
100
AcDbTextStyleTableRecord
  2
STANDARD
 70
     0
 40
0.0
 41
1.0
 50
0.0
 71
     0
 42
4.0
  3
txt.shx
  4
extfont.shx
  0
ENDTAB
  0
TABLE
  2
VIEW
  5
6
330
0
100
AcDbSymbolTable
 70
     0
  0
ENDTAB
  0
TABLE
  2
UCS
  5
7
330
0
100
AcDbSymbolTable
 70
     0
  0
ENDTAB
  0
TABLE
  2
APPID
  5
9
330
0
100
AcDbSymbolTable
 70
    12
  0
APPID
  5
10
330
9
100
AcDbSymbolTableRecord
100
AcDbRegAppTableRecord
  2
ACAD
 70
     0
  0
APPID
  5
21
330
9
100
AcDbSymbolTableRecord
100
AcDbRegAppTableRecord
  2
DRAWINGVARIABLESXDATA
 70
     0
  0
APPID
  5
64
330
9
100
AcDbSymbolTableRecord
100
AcDbRegAppTableRecord
  2
CONTENTTABDATA
 70
     0
  0
APPID
  5
65
330
9
100
AcDbSymbolTableRecord
100
AcDbRegAppTableRecord
  2
CONTENTCURRENTTAB
 70
     0
  0
APPID
  5
66
330
9
100
AcDbSymbolTableRecord
100
AcDbRegAppTableRecord
  2
CONTENTBLOCKDESCRIPTION
 70
     0
  0
APPID
  5
67
330
9
100
AcDbSymbolTableRecord
100
AcDbRegAppTableRecord
  2
CONTENTBLOCKICON
 70
     0
  0
APPID
  5
68
330
9
100
AcDbSymbolTableRecord
100
AcDbRegAppTableRecord
  2
CONTENTLONGBLOCKNAME
 70
     0
  0
APPID
  5
5A9
330
9
100
AcDbSymbolTableRecord
100
AcDbRegAppTableRecord
  2
ACAD_PSEXT
 70
     0
  0
APPID
  5
18AC
330
9
100
AcDbSymbolTableRecord
100
AcDbRegAppTableRecord
  2
ACAD_DSTYLE_DIMTEXT_FILL
 70
     0
  0
APPID
  5
15B9A
330
9
100
AcDbSymbolTableRecord
100
AcDbRegAppTableRecord
  2
ACAD_MLEADERVER
 70
     0
  0
APPID
  5
1680A
330
9
100
AcDbSymbolTableRecord
100
AcDbRegAppTableRecord
  2
ACADANNOTATIVE
 70
     0
  0
APPID
  5
16C0F
330
9
100
AcDbSymbolTableRecord
100
AcDbRegAppTableRecord
  2
ACAD_OBJECT_CHANGE_GUID
 70
     0
  0
ENDTAB
  0
TABLE
  2
DIMSTYLE
  5
A
330
0
100
AcDbSymbolTable
 70
     1
  0
DIMSTYLE
105
48
330
A
100
AcDbSymbolTableRecord
100
AcDbDimStyleTableRecord
  2
NEWX10
 70
     0
  3
 
  4

  5

  6
OPEN30
  7
OPEN30
 40
1.0
 41
2.0
 42
0.0
 43
7.0
 44
1.0
 45
0.0
 46
0.0
 47
0.0
 48
0.0
140
3.5
141
0.0
142
0.0
143
25.4
144
1.0
145
0.0
146
0.7
147
0.7
 71
     0
 72
     0
 73
     0
 74
     0
 75
     0
 76
     0
 77
     1
 78
     8
170
     0
171
     2
172
     1
173
     1
174
     0
175
     0
176
   256
177
   256
178
   201
179
     2
270
     2
271
     2
272
     4
273
     2
274
     2
340
F
275
     0
280
     0
281
     0
282
     0
283
     1
284
     8
285
     0
286
     0
287
     2
288
     0
  0
ENDTAB
  0
TABLE
  2
BLOCK_RECORD
  5
1
330
0
100
AcDbSymbolTable
 70
     1
  0
BLOCK_RECORD
  5
18
102
{ACAD_XDICTIONARY
360
6E9
102
}
330
1
100
AcDbSymbolTableRecord
100
AcDbBlockTableRecord
  2
*MODEL_SPACE
  0
BLOCK_RECORD
  5
15
102
{ACAD_XDICTIONARY
360
59B
102
}
330
1
100
AcDbSymbolTableRecord
100
AcDbBlockTableRecord
  2
*PAPER_SPACE
  0
BLOCK_RECORD
  5
42
330
1
100
AcDbSymbolTableRecord
100
AcDbBlockTableRecord
  2
_OPEN30
  0
ENDTAB
  0
ENDSEC
  0
SECTION
  2
BLOCKS
  0
BLOCK
  5
19
330
18
100
AcDbEntity
  8
0
100
AcDbBlockBegin
  2
*MODEL_SPACE
 70
     0
 10
0.0
 20
0.0
 30
0.0
  3
*MODEL_SPACE
  1

  0
ENDBLK
  5
1A
330
18
100
AcDbEntity
  8
0
100
AcDbBlockEnd
  0
BLOCK
  5
16
330
15
100
AcDbEntity
 67
     1
  8
0
100
AcDbBlockBegin
  2
*PAPER_SPACE
 70
     0
 10
0.0
 20
0.0
 30
0.0
  3
*PAPER_SPACE
  1

  0
ENDBLK
  5
17
330
15
100
AcDbEntity
 67
     1
  8
0
100
AcDbBlockEnd
  0
BLOCK
  5
43
330
42
100
AcDbEntity
  8
0
100
AcDbBlockBegin
  2
_OPEN30
 70
     0
 10
0.0
 20
0.0
 30
0.0
  3
_OPEN30
  1

  0
LINE
  5
44
330
42
100
AcDbEntity
  8
0
  6
BYBLOCK
 62
     0
100
AcDbLine
 10
-1.0
 20
0.26794919
 30
0.0
 11
0.0
 21
0.0
 31
0.0
  0
LINE
  5
45
330
42
100
AcDbEntity
  8
0
  6
BYBLOCK
 62
     0
100
AcDbLine
 10
0.0
 20
0.0
 30
0.0
 11
-1.0
 21
-0.26794919
 31
0.0
  0
LINE
  5
46
330
42
100
AcDbEntity
  8
0
  6
BYBLOCK
 62
     0
100
AcDbLine
 10
0.0
 20
0.0
 30
0.0
 11
-1.0
 21
0.0
 31
0.0
  0
ENDBLK
  5
47
330
42
100
AcDbEntity
  8
0
100
AcDbBlockEnd
  0
ENDSEC
  0
SECTION
  2
ENTITIES
  0
LINE
  5
1601D
330
18
100
AcDbEntity
  8
1PHANTOM
100
AcDbLine
 10
2383.811276412657
 20
-1808.007642250723
 30
0.0
 11
2383.811276412658
 21
-1837.540017220715
 31
0.0
  0
LINE
  5
1601E
330
18
100
AcDbEntity
  8
1PHANTOM
100
AcDbLine
 10
2382.716952598662
 20
-1811.640014674556
 30
0.0
 11
2384.679287687538
 21
-1810.840019240505
 31
0.0
  0
LINE
  5
1601F
330
18
100
AcDbEntity
  8
1PHANTOM
100
AcDbLine
 10
2384.679287687538
 20
-1810.840019240505
 30
0.0
 11
2384.091011112495
 21
-1810.528249384253
 31
0.0
  0
LINE
  5
1602A
330
18
100
AcDbEntity
  8
1PHANTOM
100
AcDbLine
 10
2385.132101791944
 20
-1812.44002029411
 30
0.0
 11
2384.580352328141
 21
-1812.257256151482
 31
0.0
  0
LINE
  5
1602B
330
18
100
AcDbEntity
  8
1PHANTOM
100
AcDbLine
 10
2385.811322948555
 20
-1835.640021874519
 30
0.0
 11
2385.311322948555
 21
-1835.540020711122
 31
0.0
  0
LINE
  5
1602C
330
18
100
AcDbEntity
  8
1PHANTOM
100
AcDbLine
 10
2385.811322948555
 20
-1837.240021874519
 30
0.0
 11
2385.311322948555
 21
-1837.140020711121
 31
0.0
  0
LINE
  5
1602D
330
18
100
AcDbEntity
  8
1PHANTOM
100
AcDbLine
 10
2385.584915896352
 20
-1814.040021347716
 30
0.0
 11
2385.04832216108
 21
-1813.910750650086
 31
0.0
  0
LINE
  5
1602E
330
18
100
AcDbEntity
  8
1PHANTOM
100
AcDbLine
 10
2382.732237545764
 20
-1813.352783133302
 30
0.0
 11
2382.264139090614
 21
-1813.240013620951
 31
0.0
  0
LINE
  5
1602F
330
18
100
AcDbEntity
  8
1PHANTOM
100
AcDbLine
 10
2382.311322948555
 20
-1836.540013730738
 30
0.0
 11
2381.811322948555
 21
-1836.440012567341
 31
0.0
  0
LINE
  5
16030
330
18
100
AcDbEntity
  8
1PHANTOM
100
AcDbLine
 10
2382.311322948555
 20
-1814.940013730738
 30
0.0
 11
2381.811322948555
 21
-1814.840012567341
 31
0.0
  0
LINE
  5
16031
330
18
100
AcDbEntity
  8
1PHANTOM
100
AcDbLine
 10
2383.174124439293
 20
-1811.791450470996
 30
0.0
 11
2382.716952598662
 21
-1811.640014674556
 31
0.0
  0
LINE
  5
16032
330
18
100
AcDbEntity
  8
1PHANTOM
100
AcDbLine
 10
2382.264139090614
 20
-1813.240013620951
 30
0.0
 11
2385.132101791944
 21
-1812.44002029411
 31
0.0
  0
LINE
  5
16033
330
18
100
AcDbEntity
  8
1PHANTOM
100
AcDbLine
 10
2381.811322948555
 20
-1836.440012567341
 30
0.0
 11
2385.811322948555
 21
-1835.640021874519
 31
0.0
  0
LINE
  5
16034
330
18
100
AcDbEntity
  8
1PHANTOM
100
AcDbLine
 10
2381.811322948555
 20
-1814.840012567341
 30
0.0
 11
2385.584915896352
 21
-1814.040021347716
 31
0.0
  0
LINE
  5
1606F
330
18
100
AcDbEntity
  8
1PHANTOM
100
AcDbLine
 10
2383.811322948555
 20
-1809.540017220878
 30
0.0
 11
2382.311322948555
 21
-1814.840013730739
 31
0.0
  0
LINE
  5
16070
330
18
100
AcDbEntity
  8
1PHANTOM
100
AcDbLine
 10
2382.311322948555
 20
-1814.840013730739
 30
0.0
 11
2382.311322948556
 21
-1837.540017220716
 31
0.0
  0
LINE
  5
16071
330
18
100
AcDbEntity
  8
1PHANTOM
100
AcDbLine
 10
2383.811322948555
 20
-1809.540017220878
 30
0.0
 11
2385.311322948555
 21
-1814.840020711123
 31
0.0
  0
LINE
  5
16073
330
18
100
AcDbEntity
  8
1PHANTOM
100
AcDbLine
 10
2385.311322948556
 20
-1814.840020711124
 30
0.0
 11
2385.311322948555
 21
-1837.540017220715
 31
0.0
  0
LINE
  5
164DF
330
18
100
AcDbEntity
  8
01
100
AcDbLine
 10
2507.811276412657
 20
-1901.495914510041
 30
0.0
 11
2507.811276412658
 21
-2007.034119931389
 31
0.0
  0
LINE
  5
164E0
330
18
100
AcDbEntity
  8
01
100
AcDbLine
 10
2492.811276412657
 20
-1901.495914510041
 30
0.0
 11
2492.811276412658
 21
-2007.034119931389
 31
0.0
  0
LINE
  5
1674E
330
18
100
AcDbEntity
  8
01
100
AcDbLine
 10
2252.811276412656
 20
-1942.540017220716
 30
0.0
 11
2252.811276412656
 21
-1962.540017220716
 31
0.0
  0
LINE
  5
1674F
330
18
100
AcDbEntity
  8
01
100
AcDbLine
 10
2253.811276412656
 20
-1943.540017220716
 30
0.0
 11
2253.811276412656
 21
-1961.540017220716
 31
0.0
  0
ARC
  5
16750
330
18
100
AcDbEntity
  8
01
100
AcDbCircle
 10
2254.811276412656
 20
-1943.540017220716
 30
0.0
 40
1.0
100
AcDbArc
 50
90.0
 51
180.0
  0
ARC
  5
16751
330
18
100
AcDbEntity
  8
01
100
AcDbCircle
 10
2253.811276412656
 20
-1962.540017220716
 30
0.0
 40
1.0
100
AcDbArc
 50
180.0
 51
270.0
  0
LINE
  5
16752
330
18
100
AcDbEntity
  8
01
100
AcDbLine
 10
2253.811276412656
 20
-1963.540017220716
 30
0.0
 11
2388.811276412657
 21
-1963.540017220716
 31
0.0
  0
LINE
  5
16753
330
18
100
AcDbEntity
  8
01
100
AcDbLine
 10
2254.811276412656
 20
-1962.540017220716
 30
0.0
 11
2387.811276412657
 21
-1962.540017220716
 31
0.0
  0
ARC
  5
16754
330
18
100
AcDbEntity
  8
01
100
AcDbCircle
 10
2254.811276412656
 20
-1961.540017220716
 30
0.0
 40
1.0
100
AcDbArc
 50
180.0
 51
270.0
  0
ARC
  5
16755
330
18
100
AcDbEntity
  8
01
100
AcDbCircle
 10
2388.811276412657
 20
-1962.540017220716
 30
0.0
 40
1.0
100
AcDbArc
 50
270.0
 51
0.0
  0
LINE
  5
16756
330
18
100
AcDbEntity
  8
01
100
AcDbLine
 10
2253.811276412656
 20
-1941.540017220716
 30
0.0
 11
2388.811276412657
 21
-1941.540017220716
 31
0.0
  0
LINE
  5
16757
330
18
100
AcDbEntity
  8
01
100
AcDbLine
 10
2254.811276412656
 20
-1942.540017220716
 30
0.0
 11
2387.811276412657
 21
-1942.540017220715
 31
0.0
  0
ARC
  5
16758
330
18
100
AcDbEntity
  8
01
100
AcDbCircle
 10
2387.811276412657
 20
-1943.540017220715
 30
0.0
 40
1.0
100
AcDbArc
 50
0.0
 51
90.0
  0
ARC
  5
16759
330
18
100
AcDbEntity
  8
01
100
AcDbCircle
 10
2253.811276412656
 20
-1942.540017220716
 30
0.0
 40
1.0
100
AcDbArc
 50
90.0
 51
180.0
  0
LINE
  5
1675A
330
18
100
AcDbEntity
  8
01
100
AcDbLine
 10
2389.811276412657
 20
-1942.540017220716
 30
0.0
 11
2389.811276412657
 21
-1962.540017220716
 31
0.0
  0
LINE
  5
1675B
330
18
100
AcDbEntity
  8
01
100
AcDbLine
 10
2388.811276412657
 20
-1943.540017220715
 30
0.0
 11
2388.811276412657
 21
-1961.540017220716
 31
0.0
  0
ARC
  5
1675C
330
18
100
AcDbEntity
  8
01
100
AcDbCircle
 10
2387.811276412657
 20
-1961.540017220716
 30
0.0
 40
1.0
100
AcDbArc
 50
270.0
 51
0.0
  0
ARC
  5
1675D
330
18
100
AcDbEntity
  8
01
100
AcDbCircle
 10
2388.811276412657
 20
-1942.540017220716
 30
0.0
 40
1.0
100
AcDbArc
 50
0.0
 51
90.0
  0
LINE
  5
1675E
330
18
100
AcDbEntity
  8
01
100
AcDbLine
 10
2490.811276412657
 20
-1941.540017220716
 30
0.0
 11
2492.811276412657
 21
-1941.540017220716
 31
0.0
  0
LINE
  5
1675F
330
18
100
AcDbEntity
  8
1PHANTOM
100
AcDbLine
 10
2471.311276412657
 20
-1961.540017220716
 30
0.0
 11
2490.811276412657
 21
-1961.540017220716
 31
0.0
  0
LINE
  5
16765
330
18
100
AcDbEntity
  8
01
100
AcDbLine
 10
2490.811276412657
 20
-1962.540017220715
 30
0.0
 11
2439.811276412657
 21
-1962.540017220716
 31
0.0
  0
ARC
  5
16768
330
18
100
AcDbEntity
  8
1PHANTOM
100
AcDbCircle
 10
2449.811276412657
 20
-1961.540017220716
 30
0.0
 40
1.0
100
AcDbArc
 50
270.0
 51
0.0
  0
LINE
  5
16769
330
18
100
AcDbEntity
  8
01
100
AcDbLine
 10
2490.811276412657
 20
-1942.540017220716
 30
0.0
 11
2439.811276412657
 21
-1942.540017220716
 31
0.0
  0
ARC
  5
1676B
330
18
100
AcDbEntity
  8
01
100
AcDbCircle
 10
2439.811276412657
 20
-1943.540017220716
 30
0.0
 40
1.0
100
AcDbArc
 50
90.0
 51
180.0
  0
LINE
  5
1676C
330
18
100
AcDbEntity
  8
01
100
AcDbLine
 10
2438.811276412657
 20
-1943.540017220716
 30
0.0
 11
2438.811276412657
 21
-1961.540017220716
 31
0.0
  0
ARC
  5
1676D
330
18
100
AcDbEntity
  8
01
100
AcDbCircle
 10
2439.811276412657
 20
-1961.540017220716
 30
0.0
 40
1.0
100
AcDbArc
 50
180.0
 51
270.0
  0
LINE
  5
1676E
330
18
100
AcDbEntity
  8
1PHANTOM
100
AcDbLine
 10
2450.811276412657
 20
-1943.540017220716
 30
0.0
 11
2450.811276412657
 21
-1961.540017220716
 31
0.0
  0
ARC
  5
1676F
330
18
100
AcDbEntity
  8
1PHANTOM
100
AcDbCircle
 10
2449.811276412657
 20
-1943.540017220716
 30
0.0
 40
1.0
100
AcDbArc
 50
0.0
 51
90.0
  0
LINE
  5
16779
330
18
100
AcDbEntity
  8
01
  6
BYBLOCK
100
AcDbLine
 10
2388.811276412657
 20
-1890.540017220716
 30
0.0
 11
2388.811276412657
 21
-1839.540017220716
 31
0.0
  0
ARC
  5
1677A
330
18
100
AcDbEntity
  8
01
  6
BYBLOCK
100
AcDbCircle
 10
2387.811276412657
 20
-1890.540017220716
 30
0.0
 40
1.0
100
AcDbArc
 50
270.0
 51
0.0
  0
LINE
  5
1677B
330
18
100
AcDbEntity
  8
01
  6
BYBLOCK
100
AcDbLine
 10
2378.811276412657
 20
-1880.540017220715
 30
0.0
 11
2378.811276412657
 21
-1839.540017220716
 31
0.0
  0
LINE
  5
1677C
330
18
100
AcDbEntity
  8
01
  6
BYBLOCK
100
AcDbLine
 10
2389.811276412657
 20
-1837.540017220716
 30
0.0
 11
2252.811276412656
 21
-1837.540017220716
 31
0.0
  0
LINE
  5
1677D
330
18
100
AcDbEntity
  8
01
  6
BYBLOCK
100
AcDbLine
 10
2389.811276412657
 20
-1839.540017220716
 30
0.0
 11
2252.811276412656
 21
-1839.540017220716
 31
0.0
  0
LINE
  5
1677E
330
18
100
AcDbEntity
  8
01
  6
BYBLOCK
100
AcDbLine
 10
2387.811276412657
 20
-1891.540017220716
 30
0.0
 11
2254.811276412656
 21
-1891.540017220715
 31
0.0
  0
LINE
  5
1677F
330
18
100
AcDbEntity
  8
01
  6
BYBLOCK
100
AcDbLine
 10
2377.811276412657
 20
-1881.540017220715
 30
0.0
 11
2264.811276412656
 21
-1881.540017220716
 31
0.0
  0
ARC
  5
16780
330
18
100
AcDbEntity
  8
01
  6
BYBLOCK
100
AcDbCircle
 10
2377.811276412657
 20
-1880.540017220715
 30
0.0
 40
1.0
100
AcDbArc
 50
270.0
 51
0.0
  0
LINE
  5
16781
330
18
100
AcDbEntity
  8
01
100
AcDbLine
 10
2253.811276412656
 20
-1890.540017220715
 30
0.0
 11
2253.811276412656
 21
-1839.540017220716
 31
0.0
  0
ARC
  5
16782
330
18
100
AcDbEntity
  8
01
100
AcDbCircle
 10
2254.811276412656
 20
-1890.540017220715
 30
0.0
 40
1.0
100
AcDbArc
 50
180.0
 51
270.0
  0
LINE
  5
16783
330
18
100
AcDbEntity
  8
01
100
AcDbLine
 10
2263.811276412656
 20
-1880.540017220716
 30
0.0
 11
2263.811276412657
 21
-1839.540017220716
 31
0.0
  0
ARC
  5
16784
330
18
100
AcDbEntity
  8
01
100
AcDbCircle
 10
2264.811276412656
 20
-1880.540017220716
 30
0.0
 40
1.0
100
AcDbArc
 50
180.0
 51
270.0
  0
LINE
  5
16788
330
18
100
AcDbEntity
  8
01
100
AcDbLine
 10
2477.811276412657
 20
-1962.540017168864
 30
0.0
 11
2471.811276412657
 21
-1962.540017168864
 31
0.0
  0
LINE
  5
16789
330
18
100
AcDbEntity
  8
1PHANTOM
100
AcDbLine
 10
2470.811276412657
 20
-1944.440017220716
 30
0.0
 11
2470.811276412657
 21
-1961.040017220716
 31
0.0
  0
LINE
  5
1678A
330
18
100
AcDbEntity
  8
1PHANTOM
100
AcDbLine
 10
2471.311276412657
 20
-1961.540017220716
 30
0.0
 11
2470.811276412657
 21
-1961.040017220716
 31
0.0
  0
LINE
  5
1678B
330
18
100
AcDbEntity
  8
1PHANTOM
100
AcDbLine
 10
2470.811276412657
 20
-1944.440017220716
 30
0.0
 11
2471.311276412657
 21
-1943.940017220716
 31
0.0
  0
LINE
  5
1678C
330
18
100
AcDbEntity
  8
1PHANTOM
100
AcDbLine
 10
2471.311276412657
 20
-1943.940017220716
 30
0.0
 11
2490.811276412657
 21
-1943.940017220716
 31
0.0
  0
LINE
  5
1678D
330
18
100
AcDbEntity
  8
1PHANTOM
100
AcDbLine
 10
2471.311276412657
 20
-1961.540017220716
 30
0.0
 11
2490.811276412657
 21
-1961.540017220716
 31
0.0
  0
LINE
  5
1678E
330
18
100
AcDbEntity
  8
1PHANTOM
100
AcDbLine
 10
2470.811276412657
 20
-1950.290017220716
 30
0.0
 11
2490.811276412657
 21
-1950.290017220716
 31
0.0
  0
LINE
  5
1678F
330
18
100
AcDbEntity
  8
1PHANTOM
100
AcDbLine
 10
2470.811276412657
 20
-1954.790017220716
 30
0.0
 11
2490.811276412657
 21
-1954.790017220716
 31
0.0
  0
LINE
  5
1679D
330
18
100
AcDbEntity
  8
01
100
AcDbLine
 10
2490.811276412657
 20
-1962.540017220716
 30
0.0
 11
2490.811276412657
 21
-1942.940017220716
 31
0.0
  0
LINE
  5
1679F
330
18
100
AcDbEntity
  8
01
100
AcDbLine
 10
2490.811276412657
 20
-1963.540017220715
 30
0.0
 11
2490.811276412657
 21
-1941.540017220716
 31
0.0
  0
LINE
  5
167A0
330
18
100
AcDbEntity
  8
01
100
AcDbLine
 10
2492.811276412657
 20
-1963.540017220715
 30
0.0
 11
2492.811276412657
 21
-1941.540017220716
 31
0.0
  0
LINE
  5
167A1
330
18
100
AcDbEntity
  8
01
100
AcDbLine
 10
2490.811276412657
 20
-1941.540017220716
 30
0.0
 11
2492.811276412657
 21
-1941.540017220715
 31
0.0
  0
LINE
  5
167A2
330
18
100
AcDbEntity
  8
01
100
AcDbLine
 10
2490.811276412657
 20
-1963.540017220715
 30
0.0
 11
2492.811276412657
 21
-1963.540017220715
 31
0.0
  0
LINE
  5
167A3
330
18
100
AcDbEntity
  8
1PHANTOM
100
AcDbLine
 10
2490.811276412657
 20
-1955.040017220715
 30
0.0
 11
2492.811276412657
 21
-1955.040017220715
 31
0.0
  0
LINE
  5
167A4
330
18
100
AcDbEntity
  8
1PHANTOM
100
AcDbLine
 10
2490.811276412658
 20
-1950.040017220715
 30
0.0
 11
2492.811276412657
 21
-1950.040017220715
 31
0.0
  0
LINE
  5
167BB
330
18
100
AcDbEntity
  8
01
  6
BYBLOCK
100
AcDbLine
 10
2252.811276412656
 20
-1839.540017220716
 30
0.0
 11
2252.811276412656
 21
-1837.540017220716
 31
0.0
  0
LINE
  5
167BC
330
18
100
AcDbEntity
  8
01
100
AcDbLine
 10
2389.811276412657
 20
-1839.540017220716
 30
0.0
 11
2389.811276412657
 21
-1837.540017220716
 31
0.0
  0
LINE
  5
16819
330
18
100
AcDbEntity
  8
1PHANTOM
100
AcDbLine
 10
2381.811322948555
 20
-1825.240012567337
 30
0.0
 11
2385.811322948555
 21
-1824.440021874515
 31
0.0
  0
LINE
  5
1681A
330
18
100
AcDbEntity
  8
1PHANTOM
100
AcDbLine
 10
2381.811322948555
 20
-1822.040012567337
 30
0.0
 11
2385.811322948555
 21
-1821.240021874515
 31
0.0
  0
LINE
  5
1681B
330
18
100
AcDbEntity
  8
1PHANTOM
100
AcDbLine
 10
2385.811322948555
 20
-1821.240021874515
 30
0.0
 11
2385.311322948555
 21
-1821.140020711118
 31
0.0
  0
LINE
  5
1681C
330
18
100
AcDbEntity
  8
1PHANTOM
100
AcDbLine
 10
2382.311322948555
 20
-1820.540013730735
 30
0.0
 11
2381.811322948555
 21
-1820.440012567337
 31
0.0
  0
LINE
  5
1681D
330
18
100
AcDbEntity
  8
1PHANTOM
100
AcDbLine
 10
2385.811322948555
 20
-1824.440021874515
 30
0.0
 11
2385.311322948555
 21
-1824.340020711118
 31
0.0
  0
LINE
  5
1681E
330
18
100
AcDbEntity
  8
1PHANTOM
100
AcDbLine
 10
2385.811322948555
 20
-1822.840021874515
 30
0.0
 11
2385.311322948555
 21
-1822.740020711117
 31
0.0
  0
LINE
  5
1681F
330
18
100
AcDbEntity
  8
1PHANTOM
100
AcDbLine
 10
2382.311322948555
 20
-1822.140013730734
 30
0.0
 11
2381.811322948555
 21
-1822.040012567337
 31
0.0
  0
LINE
  5
16820
330
18
100
AcDbEntity
  8
1PHANTOM
100
AcDbLine
 10
2382.311322948555
 20
-1823.740013730735
 30
0.0
 11
2381.811322948555
 21
-1823.640012567337
 31
0.0
  0
LINE
  5
16821
330
18
100
AcDbEntity
  8
1PHANTOM
100
AcDbLine
 10
2381.811322948555
 20
-1823.640012567337
 30
0.0
 11
2385.811322948555
 21
-1822.840021874515
 31
0.0
  0
LINE
  5
16822
330
18
100
AcDbEntity
  8
1PHANTOM
100
AcDbLine
 10
2385.811322948555
 20
-1818.040021874515
 30
0.0
 11
2385.311322948555
 21
-1817.940020711118
 31
0.0
  0
LINE
  5
16823
330
18
100
AcDbEntity
  8
1PHANTOM
100
AcDbLine
 10
2385.811322948555
 20
-1819.640021874515
 30
0.0
 11
2385.311322948555
 21
-1819.540020711117
 31
0.0
  0
LINE
  5
16824
330
18
100
AcDbEntity
  8
1PHANTOM
100
AcDbLine
 10
2382.311322948555
 20
-1818.940013730734
 30
0.0
 11
2381.811322948555
 21
-1818.840012567337
 31
0.0
  0
LINE
  5
16825
330
18
100
AcDbEntity
  8
1PHANTOM
100
AcDbLine
 10
2381.811322948555
 20
-1818.840012567337
 30
0.0
 11
2385.811322948555
 21
-1818.040021874515
 31
0.0
  0
LINE
  5
16826
330
18
100
AcDbEntity
  8
1PHANTOM
100
AcDbLine
 10
2381.811322948555
 20
-1820.440012567337
 30
0.0
 11
2385.811322948555
 21
-1819.640021874515
 31
0.0
  0
LINE
  5
16827
330
18
100
AcDbEntity
  8
1PHANTOM
100
AcDbLine
 10
2381.811322948555
 20
-1833.240012567342
 30
0.0
 11
2385.811322948555
 21
-1832.440021874524
 31
0.0
  0
LINE
  5
16828
330
18
100
AcDbEntity
  8
1PHANTOM
100
AcDbLine
 10
2385.811322948555
 20
-1832.440021874524
 30
0.0
 11
2385.311322948555
 21
-1832.340020711126
 31
0.0
  0
LINE
  5
16829
330
18
100
AcDbEntity
  8
1PHANTOM
100
AcDbLine
 10
2382.311322948555
 20
-1831.740013730735
 30
0.0
 11
2381.811322948555
 21
-1831.640012567338
 31
0.0
  0
LINE
  5
1682A
330
18
100
AcDbEntity
  8
1PHANTOM
100
AcDbLine
 10
2385.811322948555
 20
-1834.040021874524
 30
0.0
 11
2385.311322948555
 21
-1833.940020711126
 31
0.0
  0
LINE
  5
1682B
330
18
100
AcDbEntity
  8
1PHANTOM
100
AcDbLine
 10
2382.311322948555
 20
-1833.340013730739
 30
0.0
 11
2381.811322948555
 21
-1833.240012567342
 31
0.0
  0
LINE
  5
1682C
330
18
100
AcDbEntity
  8
1PHANTOM
100
AcDbLine
 10
2382.311322948555
 20
-1834.94001373074
 30
0.0
 11
2381.811322948555
 21
-1834.840012567342
 31
0.0
  0
LINE
  5
1682D
330
18
100
AcDbEntity
  8
1PHANTOM
100
AcDbLine
 10
2381.811322948555
 20
-1834.840012567342
 30
0.0
 11
2385.811322948555
 21
-1834.040021874524
 31
0.0
  0
LINE
  5
1682E
330
18
100
AcDbEntity
  8
1PHANTOM
100
AcDbLine
 10
2385.811322948555
 20
-1827.640021874519
 30
0.0
 11
2385.311322948555
 21
-1827.540020711121
 31
0.0
  0
LINE
  5
1682F
330
18
100
AcDbEntity
  8
1PHANTOM
100
AcDbLine
 10
2385.811322948555
 20
-1826.040021874515
 30
0.0
 11
2385.311322948555
 21
-1825.940020711118
 31
0.0
  0
LINE
  5
16830
330
18
100
AcDbEntity
  8
1PHANTOM
100
AcDbLine
 10
2385.811322948555
 20
-1830.840021874519
 30
0.0
 11
2385.311322948555
 21
-1830.740020711121
 31
0.0
  0
LINE
  5
16831
330
18
100
AcDbEntity
  8
1PHANTOM
100
AcDbLine
 10
2385.811322948555
 20
-1829.240021874519
 30
0.0
 11
2385.311322948555
 21
-1829.140020711121
 31
0.0
  0
LINE
  5
16832
330
18
100
AcDbEntity
  8
1PHANTOM
100
AcDbLine
 10
2382.311322948555
 20
-1825.340013730734
 30
0.0
 11
2381.811322948555
 21
-1825.240012567337
 31
0.0
  0
LINE
  5
16833
330
18
100
AcDbEntity
  8
1PHANTOM
100
AcDbLine
 10
2382.311322948555
 20
-1826.940013730735
 30
0.0
 11
2381.811322948555
 21
-1826.840012567337
 31
0.0
  0
LINE
  5
16834
330
18
100
AcDbEntity
  8
1PHANTOM
100
AcDbLine
 10
2382.311322948555
 20
-1830.140013730735
 30
0.0
 11
2381.811322948555
 21
-1830.040012567337
 31
0.0
  0
LINE
  5
16835
330
18
100
AcDbEntity
  8
1PHANTOM
100
AcDbLine
 10
2382.311322948555
 20
-1828.540013730735
 30
0.0
 11
2381.811322948555
 21
-1828.440012567337
 31
0.0
  0
LINE
  5
16836
330
18
100
AcDbEntity
  8
1PHANTOM
100
AcDbLine
 10
2381.811322948555
 20
-1828.440012567337
 30
0.0
 11
2385.811322948555
 21
-1827.640021874519
 31
0.0
  0
LINE
  5
16837
330
18
100
AcDbEntity
  8
1PHANTOM
100
AcDbLine
 10
2381.811322948555
 20
-1826.840012567337
 30
0.0
 11
2385.811322948555
 21
-1826.040021874515
 31
0.0
  0
LINE
  5
16838
330
18
100
AcDbEntity
  8
1PHANTOM
100
AcDbLine
 10
2381.811322948555
 20
-1830.040012567337
 30
0.0
 11
2385.811322948555
 21
-1829.240021874519
 31
0.0
  0
LINE
  5
16839
330
18
100
AcDbEntity
  8
1PHANTOM
100
AcDbLine
 10
2381.811322948555
 20
-1831.640012567338
 30
0.0
 11
2385.811322948555
 21
-1830.840021874519
 31
0.0
  0
LINE
  5
1683A
330
18
100
AcDbEntity
  8
1PHANTOM
100
AcDbLine
 10
2385.811322948555
 20
-1816.440021874515
 30
0.0
 11
2385.311322948555
 21
-1816.340020711118
 31
0.0
  0
LINE
  5
1683B
330
18
100
AcDbEntity
  8
1PHANTOM
100
AcDbLine
 10
2382.311322948555
 20
-1817.340013730734
 30
0.0
 11
2381.811322948555
 21
-1817.240012567338
 31
0.0
  0
LINE
  5
1683C
330
18
100
AcDbEntity
  8
1PHANTOM
100
AcDbLine
 10
2381.811322948555
 20
-1817.240012567338
 30
0.0
 11
2385.811322948555
 21
-1816.440021874515
 31
0.0
  0
CIRCLE
  5
16842
330
18
100
AcDbEntity
  8
1PHANTOM
100
AcDbCircle
 10
2383.811276412657
 20
-1952.540017220715
 30
0.0
 40
2.25
  0
LINE
  5
16843
330
18
100
AcDbEntity
  8
1CENTER
100
AcDbLine
 10
2388.311276412657
 20
-1952.540017220714
 30
0.0
 11
2379.311276412657
 21
-1952.540017220714
 31
0.0
  0
LINE
  5
16844
330
18
100
AcDbEntity
  8
1CENTER
100
AcDbLine
 10
2383.811276412657
 20
-1957.040017220714
 30
0.0
 11
2383.811276412657
 21
-1948.040017220714
 31
0.0
  0
CIRCLE
  5
16845
330
18
100
AcDbEntity
  8
1PHANTOM
100
AcDbCircle
 10
2258.811276412656
 20
-1952.540017220715
 30
0.0
 40
2.25
  0
LINE
  5
16846
330
18
100
AcDbEntity
  8
1CENTER
100
AcDbLine
 10
2254.311276412656
 20
-1952.540017220714
 30
0.0
 11
2263.311276412656
 21
-1952.540017220714
 31
0.0
  0
LINE
  5
16847
330
18
100
AcDbEntity
  8
1CENTER
100
AcDbLine
 10
2258.811276412656
 20
-1957.040017220714
 30
0.0
 11
2258.811276412656
 21
-1948.040017220714
 31
0.0
  0
LINE
  5
16870
330
18
100
AcDbEntity
  8
01
100
AcDbLine
 10
2419.811276412657
 20
-1942.540017220716
 30
0.0
 11
2419.811276412657
 21
-1962.540017220716
 31
0.0
  0
LINE
  5
168FA
102
{ACAD_REACTORS
330
16961
102
}
330
18
100
AcDbEntity
  8
1PHANTOM
100
AcDbLine
 10
2520.811268268712
 20
-1952.540063756613
 30
0.0
 11
2515.511271758851
 21
-1951.040063756613
 31
0.0
  0
LINE
  5
168FB
102
{ACAD_REACTORS
330
16961
102
}
330
18
100
AcDbEntity
  8
1PHANTOM
100
AcDbLine
 10
2515.511271758851
 20
-1951.040063756613
 30
0.0
 11
2470.811271758959
 21
-1951.040063756613
 31
0.0
  0
LINE
  5
168FC
102
{ACAD_REACTORS
330
16961
102
}
330
18
100
AcDbEntity
  8
1PHANTOM
100
AcDbLine
 10
2520.811268268712
 20
-1952.540063756613
 30
0.0
 11
2515.511264778467
 21
-1954.040063756613
 31
0.0
  0
LINE
  5
168FD
102
{ACAD_REACTORS
330
16961
102
}
330
18
100
AcDbEntity
  8
1PHANTOM
100
AcDbLine
 10
2470.811276412657
 20
-1949.040017220715
 30
0.0
 11
2470.811271758959
 21
-1951.040063756613
 31
0.0
  0
LINE
  5
168FE
102
{ACAD_REACTORS
330
16961
102
}
330
18
100
AcDbEntity
  8
1PHANTOM
100
AcDbLine
 10
2515.511264778466
 20
-1954.040063756614
 30
0.0
 11
2470.811264778574
 21
-1954.040063756613
 31
0.0
  0
LINE
  5
168FF
102
{ACAD_REACTORS
330
16961
102
}
330
18
100
AcDbEntity
  8
1PHANTOM
100
AcDbLine
 10
2470.811276412657
 20
-1949.040017220715
 30
0.0
 11
2469.711272922462
 21
-1949.040017220715
 31
0.0
  0
LINE
  5
16900
102
{ACAD_REACTORS
330
16961
102
}
330
18
100
AcDbEntity
  8
1PHANTOM
100
AcDbLine
 10
2470.811264778574
 20
-1954.040063756613
 30
0.0
 11
2470.811260125092
 21
-1956.040017220715
 31
0.0
  0
ARC
  5
16901
102
{ACAD_REACTORS
330
16961
102
}
330
18
100
AcDbEntity
  8
1PHANTOM
100
AcDbCircle
 10
2469.711272922462
 20
-1950.540017220715
 30
0.0
 40
1.5
100
AcDbArc
 50
90.0
 51
179.9998666844664
  0
LINE
  5
16902
102
{ACAD_REACTORS
330
16961
102
}
330
18
100
AcDbEntity
  8
1PHANTOM
100
AcDbLine
 10
2470.811260125092
 20
-1956.040017220715
 30
0.0
 11
2469.711263615282
 21
-1956.040017220715
 31
0.0
  0
LINE
  5
16903
102
{ACAD_REACTORS
330
16961
102
}
330
18
100
AcDbEntity
  8
1PHANTOM
100
AcDbLine
 10
2468.211272922465
 20
-1950.540013730523
 30
0.0
 11
2468.211263615286
 21
-1954.540013730523
 31
0.0
  0
ARC
  5
16904
102
{ACAD_REACTORS
330
16961
102
}
330
18
100
AcDbEntity
  8
1PHANTOM
100
AcDbCircle
 10
2469.711263615282
 20
-1954.540017220715
 30
0.0
 40
1.5
100
AcDbArc
 50
179.9998666844664
 51
270.0
  0
LINE
  5
16905
102
{ACAD_REACTORS
330
16961
102
}
330
18
100
AcDbEntity
  8
1PHANTOM
100
AcDbLine
 10
2522.343643238867
 20
-1952.540017220715
 30
0.0
 11
2467.140991859566
 21
-1952.540017220715
 31
0.0
  0
LINE
  5
16906
102
{ACAD_REACTORS
330
16961
102
}
330
18
100
AcDbEntity
  8
1PHANTOM
100
AcDbLine
 10
2518.711270815034
 20
-1951.44569340672
 30
0.0
 11
2519.511266249086
 21
-1953.408028495596
 31
0.0
  0
LINE
  5
16907
102
{ACAD_REACTORS
330
16961
102
}
330
18
100
AcDbEntity
  8
1PHANTOM
100
AcDbLine
 10
2519.511266249086
 20
-1953.408028495596
 30
0.0
 11
2519.823036105337
 21
-1952.819751920553
 31
0.0
  0
LINE
  5
16908
102
{ACAD_REACTORS
330
16961
102
}
330
18
100
AcDbEntity
  8
1PHANTOM
100
AcDbLine
 10
2476.311272922245
 20
-1950.540063756613
 30
0.0
 11
2477.111263615063
 21
-1954.540063756613
 31
0.0
  0
LINE
  5
16909
102
{ACAD_REACTORS
330
16961
102
}
330
18
100
AcDbEntity
  8
1PHANTOM
100
AcDbLine
 10
2487.511272922249
 20
-1950.540063756613
 30
0.0
 11
2488.311263615072
 21
-1954.540063756613
 31
0.0
  0
LINE
  5
1690A
102
{ACAD_REACTORS
330
16961
102
}
330
18
100
AcDbEntity
  8
1PHANTOM
100
AcDbLine
 10
2490.711272922249
 20
-1950.540063756613
 30
0.0
 11
2491.511263615072
 21
-1954.540063756613
 31
0.0
  0
LINE
  5
1690B
102
{ACAD_REACTORS
330
16961
102
}
330
18
100
AcDbEntity
  8
1PHANTOM
100
AcDbLine
 10
2491.511263615072
 20
-1954.540063756613
 30
0.0
 11
2491.611264778468
 21
-1954.040063756613
 31
0.0
  0
LINE
  5
1690C
102
{ACAD_REACTORS
330
16961
102
}
330
18
100
AcDbEntity
  8
1PHANTOM
100
AcDbLine
 10
2492.211271758852
 20
-1951.040063756613
 30
0.0
 11
2492.311272922249
 21
-1950.540063756613
 31
0.0
  0
LINE
  5
1690D
102
{ACAD_REACTORS
330
16961
102
}
330
18
100
AcDbEntity
  8
1PHANTOM
100
AcDbLine
 10
2488.311263615072
 20
-1954.540063756613
 30
0.0
 11
2488.411264778469
 21
-1954.040063756613
 31
0.0
  0
LINE
  5
1690E
102
{ACAD_REACTORS
330
16961
102
}
330
18
100
AcDbEntity
  8
1PHANTOM
100
AcDbLine
 10
2489.911263615072
 20
-1954.540063756613
 30
0.0
 11
2490.011264778469
 21
-1954.040063756613
 31
0.0
  0
LINE
  5
1690F
102
{ACAD_REACTORS
330
16961
102
}
330
18
100
AcDbEntity
  8
1PHANTOM
100
AcDbLine
 10
2490.611271758852
 20
-1951.040063756613
 30
0.0
 11
2490.711272922249
 21
-1950.540063756613
 31
0.0
  0
LINE
  5
16910
102
{ACAD_REACTORS
330
16961
102
}
330
18
100
AcDbEntity
  8
1PHANTOM
100
AcDbLine
 10
2489.011271758852
 20
-1951.040063756613
 30
0.0
 11
2489.111272922249
 21
-1950.540063756613
 31
0.0
  0
LINE
  5
16911
102
{ACAD_REACTORS
330
16961
102
}
330
18
100
AcDbEntity
  8
1PHANTOM
100
AcDbLine
 10
2489.111272922249
 20
-1950.540063756613
 30
0.0
 11
2489.911263615072
 21
-1954.540063756613
 31
0.0
  0
LINE
  5
16912
102
{ACAD_REACTORS
330
16961
102
}
330
18
100
AcDbEntity
  8
1PHANTOM
100
AcDbLine
 10
2517.91126519548
 20
-1953.860842600002
 30
0.0
 11
2518.094029338108
 21
-1953.309093136199
 31
0.0
  0
LINE
  5
16913
102
{ACAD_REACTORS
330
16961
102
}
330
18
100
AcDbEntity
  8
1PHANTOM
100
AcDbLine
 10
2494.711263615071
 20
-1954.540063756613
 30
0.0
 11
2494.811264778469
 21
-1954.040063756613
 31
0.0
  0
LINE
  5
16914
102
{ACAD_REACTORS
330
16961
102
}
330
18
100
AcDbEntity
  8
1PHANTOM
100
AcDbLine
 10
2493.111263615071
 20
-1954.540063756613
 30
0.0
 11
2493.211264778469
 21
-1954.040063756613
 31
0.0
  0
LINE
  5
16915
102
{ACAD_REACTORS
330
16961
102
}
330
18
100
AcDbEntity
  8
1PHANTOM
100
AcDbLine
 10
2516.311264141874
 20
-1954.313656704409
 30
0.0
 11
2516.440534839504
 21
-1953.777062969138
 31
0.0
  0
LINE
  5
16916
102
{ACAD_REACTORS
330
16961
102
}
330
18
100
AcDbEntity
  8
1PHANTOM
100
AcDbLine
 10
2516.998502356289
 20
-1951.460978353822
 30
0.0
 11
2517.111271868639
 21
-1950.992879898672
 31
0.0
  0
LINE
  5
16917
102
{ACAD_REACTORS
330
16961
102
}
330
18
100
AcDbEntity
  8
1PHANTOM
100
AcDbLine
 10
2493.811271758852
 20
-1951.040063756613
 30
0.0
 11
2493.911272922249
 21
-1950.540063756613
 31
0.0
  0
LINE
  5
16918
102
{ACAD_REACTORS
330
16961
102
}
330
18
100
AcDbEntity
  8
1PHANTOM
100
AcDbLine
 10
2515.411271758852
 20
-1951.040063756613
 30
0.0
 11
2515.511272922249
 21
-1950.540063756613
 31
0.0
  0
LINE
  5
16919
102
{ACAD_REACTORS
330
16961
102
}
330
18
100
AcDbEntity
  8
1PHANTOM
100
AcDbLine
 10
2518.559835018594
 20
-1951.902865247351
 30
0.0
 11
2518.711270815034
 21
-1951.44569340672
 31
0.0
  0
LINE
  5
1691A
102
{ACAD_REACTORS
330
16961
102
}
330
18
100
AcDbEntity
  8
1PHANTOM
100
AcDbLine
 10
2517.111271868639
 20
-1950.992879898672
 30
0.0
 11
2517.91126519548
 21
-1953.860842600002
 31
0.0
  0
LINE
  5
1691B
102
{ACAD_REACTORS
330
16961
102
}
330
18
100
AcDbEntity
  8
1PHANTOM
100
AcDbLine
 10
2493.911272922249
 20
-1950.540063756613
 30
0.0
 11
2494.711263615071
 21
-1954.540063756613
 31
0.0
  0
LINE
  5
1691C
102
{ACAD_REACTORS
330
16961
102
}
330
18
100
AcDbEntity
  8
1PHANTOM
100
AcDbLine
 10
2515.511272922249
 20
-1950.540063756613
 30
0.0
 11
2516.311264141874
 21
-1954.313656704409
 31
0.0
  0
LINE
  5
1691D
102
{ACAD_REACTORS
330
16961
102
}
330
18
100
AcDbEntity
  8
1PHANTOM
100
AcDbLine
 10
2492.311272922249
 20
-1950.540063756613
 30
0.0
 11
2493.111263615071
 21
-1954.540063756613
 31
0.0
  0
LINE
  5
1691E
102
{ACAD_REACTORS
330
16961
102
}
330
18
100
AcDbEntity
  8
1PHANTOM
100
AcDbLine
 10
2479.511272922245
 20
-1950.540063756613
 30
0.0
 11
2480.311263615063
 21
-1954.540063756613
 31
0.0
  0
LINE
  5
1691F
102
{ACAD_REACTORS
330
16961
102
}
330
18
100
AcDbEntity
  8
1PHANTOM
100
AcDbLine
 10
2480.311263615063
 20
-1954.540063756613
 30
0.0
 11
2480.41126477846
 21
-1954.040063756613
 31
0.0
  0
LINE
  5
16920
102
{ACAD_REACTORS
330
16961
102
}
330
18
100
AcDbEntity
  8
1PHANTOM
100
AcDbLine
 10
2481.011271758851
 20
-1951.040063756613
 30
0.0
 11
2481.111272922249
 21
-1950.540063756613
 31
0.0
  0
LINE
  5
16921
102
{ACAD_REACTORS
330
16961
102
}
330
18
100
AcDbEntity
  8
1PHANTOM
100
AcDbLine
 10
2478.711263615063
 20
-1954.540063756613
 30
0.0
 11
2478.81126477846
 21
-1954.040063756613
 31
0.0
  0
LINE
  5
16922
102
{ACAD_REACTORS
330
16961
102
}
330
18
100
AcDbEntity
  8
1PHANTOM
100
AcDbLine
 10
2477.111263615063
 20
-1954.540063756613
 30
0.0
 11
2477.211264778461
 21
-1954.040063756613
 31
0.0
  0
LINE
  5
16923
102
{ACAD_REACTORS
330
16961
102
}
330
18
100
AcDbEntity
  8
1PHANTOM
100
AcDbLine
 10
2479.411271758847
 20
-1951.040063756613
 30
0.0
 11
2479.511272922245
 21
-1950.540063756613
 31
0.0
  0
LINE
  5
16924
102
{ACAD_REACTORS
330
16961
102
}
330
18
100
AcDbEntity
  8
1PHANTOM
100
AcDbLine
 10
2477.811271758846
 20
-1951.040063756613
 30
0.0
 11
2477.911272922244
 21
-1950.540063756613
 31
0.0
  0
LINE
  5
16925
102
{ACAD_REACTORS
330
16961
102
}
330
18
100
AcDbEntity
  8
1PHANTOM
100
AcDbLine
 10
2477.911272922244
 20
-1950.540063756613
 30
0.0
 11
2478.711263615063
 21
-1954.540063756613
 31
0.0
  0
LINE
  5
16926
102
{ACAD_REACTORS
330
16961
102
}
330
18
100
AcDbEntity
  8
1PHANTOM
100
AcDbLine
 10
2485.111263615067
 20
-1954.540063756613
 30
0.0
 11
2485.211264778465
 21
-1954.040063756613
 31
0.0
  0
LINE
  5
16927
102
{ACAD_REACTORS
330
16961
102
}
330
18
100
AcDbEntity
  8
1PHANTOM
100
AcDbLine
 10
2486.711263615071
 20
-1954.540063756613
 30
0.0
 11
2486.811264778469
 21
-1954.040063756613
 31
0.0
  0
LINE
  5
16928
102
{ACAD_REACTORS
330
16961
102
}
330
18
100
AcDbEntity
  8
1PHANTOM
100
AcDbLine
 10
2481.911263615067
 20
-1954.540063756613
 30
0.0
 11
2482.011264778465
 21
-1954.040063756613
 31
0.0
  0
LINE
  5
16929
102
{ACAD_REACTORS
330
16961
102
}
330
18
100
AcDbEntity
  8
1PHANTOM
100
AcDbLine
 10
2483.511263615067
 20
-1954.540063756613
 30
0.0
 11
2483.611264778465
 21
-1954.040063756613
 31
0.0
  0
LINE
  5
1692A
102
{ACAD_REACTORS
330
16961
102
}
330
18
100
AcDbEntity
  8
1PHANTOM
100
AcDbLine
 10
2487.411271758852
 20
-1951.040063756613
 30
0.0
 11
2487.511272922249
 21
-1950.540063756613
 31
0.0
  0
LINE
  5
1692B
102
{ACAD_REACTORS
330
16961
102
}
330
18
100
AcDbEntity
  8
1PHANTOM
100
AcDbLine
 10
2485.811271758851
 20
-1951.040063756613
 30
0.0
 11
2485.911272922249
 21
-1950.540063756613
 31
0.0
  0
LINE
  5
1692C
102
{ACAD_REACTORS
330
16961
102
}
330
18
100
AcDbEntity
  8
1PHANTOM
100
AcDbLine
 10
2482.611271758851
 20
-1951.040063756613
 30
0.0
 11
2482.711272922249
 21
-1950.540063756613
 31
0.0
  0
LINE
  5
1692D
102
{ACAD_REACTORS
330
16961
102
}
330
18
100
AcDbEntity
  8
1PHANTOM
100
AcDbLine
 10
2484.211271758852
 20
-1951.040063756613
 30
0.0
 11
2484.311272922249
 21
-1950.540063756613
 31
0.0
  0
LINE
  5
1692E
102
{ACAD_REACTORS
330
16961
102
}
330
18
100
AcDbEntity
  8
1PHANTOM
100
AcDbLine
 10
2484.311272922249
 20
-1950.540063756613
 30
0.0
 11
2485.111263615067
 21
-1954.540063756613
 31
0.0
  0
LINE
  5
1692F
102
{ACAD_REACTORS
330
16961
102
}
330
18
100
AcDbEntity
  8
1PHANTOM
100
AcDbLine
 10
2485.911272922249
 20
-1950.540063756613
 30
0.0
 11
2486.711263615071
 21
-1954.540063756613
 31
0.0
  0
LINE
  5
16930
102
{ACAD_REACTORS
330
16961
102
}
330
18
100
AcDbEntity
  8
1PHANTOM
100
AcDbLine
 10
2482.711272922249
 20
-1950.540063756613
 30
0.0
 11
2483.511263615067
 21
-1954.540063756613
 31
0.0
  0
LINE
  5
16931
102
{ACAD_REACTORS
330
16961
102
}
330
18
100
AcDbEntity
  8
1PHANTOM
100
AcDbLine
 10
2481.111272922249
 20
-1950.540063756613
 30
0.0
 11
2481.911263615067
 21
-1954.540063756613
 31
0.0
  0
LINE
  5
16932
102
{ACAD_REACTORS
330
16961
102
}
330
18
100
AcDbEntity
  8
1PHANTOM
100
AcDbLine
 10
2470.811264778574
 20
-1954.040063756613
 30
0.0
 11
2470.811271758959
 21
-1951.040063756613
 31
0.0
  0
LINE
  5
16933
102
{ACAD_REACTORS
330
16961
102
}
330
18
100
AcDbEntity
  8
1PHANTOM
100
AcDbLine
 10
2471.411271758843
 20
-1951.040063756613
 30
0.0
 11
2471.51127292224
 21
-1950.540063756613
 31
0.0
  0
LINE
  5
16934
102
{ACAD_REACTORS
330
16961
102
}
330
18
100
AcDbEntity
  8
1PHANTOM
100
AcDbLine
 10
2471.51127292224
 20
-1950.540063756613
 30
0.0
 11
2472.311263615059
 21
-1954.540063756613
 31
0.0
  0
LINE
  5
16935
102
{ACAD_REACTORS
330
16961
102
}
330
18
100
AcDbEntity
  8
1PHANTOM
100
AcDbLine
 10
2472.311263615059
 20
-1954.540063756613
 30
0.0
 11
2472.411264778456
 21
-1954.040063756613
 31
0.0
  0
LINE
  5
16936
102
{ACAD_REACTORS
330
16961
102
}
330
18
100
AcDbEntity
  8
1PHANTOM
100
AcDbLine
 10
2473.011271758843
 20
-1951.040063756613
 30
0.0
 11
2473.11127292224
 21
-1950.540063756613
 31
0.0
  0
LINE
  5
16937
102
{ACAD_REACTORS
330
16961
102
}
330
18
100
AcDbEntity
  8
1PHANTOM
100
AcDbLine
 10
2474.611271758843
 20
-1951.040063756613
 30
0.0
 11
2474.71127292224
 21
-1950.540063756613
 31
0.0
  0
LINE
  5
16938
102
{ACAD_REACTORS
330
16961
102
}
330
18
100
AcDbEntity
  8
1PHANTOM
100
AcDbLine
 10
2474.71127292224
 20
-1950.540063756613
 30
0.0
 11
2475.511263615058
 21
-1954.540063756613
 31
0.0
  0
LINE
  5
16939
102
{ACAD_REACTORS
330
16961
102
}
330
18
100
AcDbEntity
  8
1PHANTOM
100
AcDbLine
 10
2473.911263615058
 20
-1954.540063756613
 30
0.0
 11
2474.011264778456
 21
-1954.040063756613
 31
0.0
  0
LINE
  5
1693A
102
{ACAD_REACTORS
330
16961
102
}
330
18
100
AcDbEntity
  8
1PHANTOM
100
AcDbLine
 10
2475.511263615058
 20
-1954.540063756613
 30
0.0
 11
2475.611264778456
 21
-1954.040063756613
 31
0.0
  0
LINE
  5
1693B
102
{ACAD_REACTORS
330
16961
102
}
330
18
100
AcDbEntity
  8
1PHANTOM
100
AcDbLine
 10
2473.11127292224
 20
-1950.540063756613
 30
0.0
 11
2473.911263615058
 21
-1954.540063756613
 31
0.0
  0
LINE
  5
1693C
102
{ACAD_REACTORS
330
16961
102
}
330
18
100
AcDbEntity
  8
1PHANTOM
100
AcDbLine
 10
2476.211271758847
 20
-1951.040063756613
 30
0.0
 11
2476.311272922245
 21
-1950.540063756613
 31
0.0
  0
LINE
  5
1693D
102
{ACAD_REACTORS
330
16961
102
}
330
18
100
AcDbEntity
  8
1PHANTOM
100
AcDbLine
 10
2505.111272922253
 20
-1950.540063756613
 30
0.0
 11
2505.911263615076
 21
-1954.540063756613
 31
0.0
  0
LINE
  5
1693E
102
{ACAD_REACTORS
330
16961
102
}
330
18
100
AcDbEntity
  8
1PHANTOM
100
AcDbLine
 10
2508.311272922253
 20
-1950.540063756613
 30
0.0
 11
2509.111263615076
 21
-1954.540063756613
 31
0.0
  0
LINE
  5
1693F
102
{ACAD_REACTORS
330
16961
102
}
330
18
100
AcDbEntity
  8
1PHANTOM
100
AcDbLine
 10
2509.111263615076
 20
-1954.540063756613
 30
0.0
 11
2509.211264778472
 21
-1954.040063756613
 31
0.0
  0
LINE
  5
16940
102
{ACAD_REACTORS
330
16961
102
}
330
18
100
AcDbEntity
  8
1PHANTOM
100
AcDbLine
 10
2509.811271758856
 20
-1951.040063756613
 30
0.0
 11
2509.911272922253
 21
-1950.540063756613
 31
0.0
  0
LINE
  5
16941
102
{ACAD_REACTORS
330
16961
102
}
330
18
100
AcDbEntity
  8
1PHANTOM
100
AcDbLine
 10
2505.911263615076
 20
-1954.540063756613
 30
0.0
 11
2506.011264778473
 21
-1954.040063756613
 31
0.0
  0
LINE
  5
16942
102
{ACAD_REACTORS
330
16961
102
}
330
18
100
AcDbEntity
  8
1PHANTOM
100
AcDbLine
 10
2507.511263615076
 20
-1954.540063756613
 30
0.0
 11
2507.611264778473
 21
-1954.040063756613
 31
0.0
  0
LINE
  5
16943
102
{ACAD_REACTORS
330
16961
102
}
330
18
100
AcDbEntity
  8
1PHANTOM
100
AcDbLine
 10
2508.211271758856
 20
-1951.040063756613
 30
0.0
 11
2508.311272922253
 21
-1950.540063756613
 31
0.0
  0
LINE
  5
16944
102
{ACAD_REACTORS
330
16961
102
}
330
18
100
AcDbEntity
  8
1PHANTOM
100
AcDbLine
 10
2506.611271758856
 20
-1951.040063756613
 30
0.0
 11
2506.711272922253
 21
-1950.540063756613
 31
0.0
  0
LINE
  5
16945
102
{ACAD_REACTORS
330
16961
102
}
330
18
100
AcDbEntity
  8
1PHANTOM
100
AcDbLine
 10
2506.711272922253
 20
-1950.540063756613
 30
0.0
 11
2507.511263615076
 21
-1954.540063756613
 31
0.0
  0
LINE
  5
16946
102
{ACAD_REACTORS
330
16961
102
}
330
18
100
AcDbEntity
  8
1PHANTOM
100
AcDbLine
 10
2512.311263615075
 20
-1954.540063756613
 30
0.0
 11
2512.411264778473
 21
-1954.040063756613
 31
0.0
  0
LINE
  5
16947
102
{ACAD_REACTORS
330
16961
102
}
330
18
100
AcDbEntity
  8
1PHANTOM
100
AcDbLine
 10
2510.711263615075
 20
-1954.540063756613
 30
0.0
 11
2510.811264778473
 21
-1954.040063756613
 31
0.0
  0
LINE
  5
16948
102
{ACAD_REACTORS
330
16961
102
}
330
18
100
AcDbEntity
  8
1PHANTOM
100
AcDbLine
 10
2511.411271758856
 20
-1951.040063756613
 30
0.0
 11
2511.511272922253
 21
-1950.540063756613
 31
0.0
  0
LINE
  5
16949
102
{ACAD_REACTORS
330
16961
102
}
330
18
100
AcDbEntity
  8
1PHANTOM
100
AcDbLine
 10
2511.511272922253
 20
-1950.540063756613
 30
0.0
 11
2512.311263615075
 21
-1954.540063756613
 31
0.0
  0
LINE
  5
1694A
102
{ACAD_REACTORS
330
16961
102
}
330
18
100
AcDbEntity
  8
1PHANTOM
100
AcDbLine
 10
2509.911272922253
 20
-1950.540063756613
 30
0.0
 11
2510.711263615075
 21
-1954.540063756613
 31
0.0
  0
LINE
  5
1694B
102
{ACAD_REACTORS
330
16961
102
}
330
18
100
AcDbEntity
  8
1PHANTOM
100
AcDbLine
 10
2497.111272922249
 20
-1950.540063756613
 30
0.0
 11
2497.911263615067
 21
-1954.540063756613
 31
0.0
  0
LINE
  5
1694C
102
{ACAD_REACTORS
330
16961
102
}
330
18
100
AcDbEntity
  8
1PHANTOM
100
AcDbLine
 10
2497.911263615067
 20
-1954.540063756613
 30
0.0
 11
2498.011264778464
 21
-1954.040063756613
 31
0.0
  0
LINE
  5
1694D
102
{ACAD_REACTORS
330
16961
102
}
330
18
100
AcDbEntity
  8
1PHANTOM
100
AcDbLine
 10
2498.611271758855
 20
-1951.040063756613
 30
0.0
 11
2498.711272922253
 21
-1950.540063756613
 31
0.0
  0
LINE
  5
1694E
102
{ACAD_REACTORS
330
16961
102
}
330
18
100
AcDbEntity
  8
1PHANTOM
100
AcDbLine
 10
2496.311263615067
 20
-1954.540063756613
 30
0.0
 11
2496.411264778464
 21
-1954.040063756613
 31
0.0
  0
LINE
  5
1694F
102
{ACAD_REACTORS
330
16961
102
}
330
18
100
AcDbEntity
  8
1PHANTOM
100
AcDbLine
 10
2497.011271758851
 20
-1951.040063756613
 30
0.0
 11
2497.111272922249
 21
-1950.540063756613
 31
0.0
  0
LINE
  5
16950
102
{ACAD_REACTORS
330
16961
102
}
330
18
100
AcDbEntity
  8
1PHANTOM
100
AcDbLine
 10
2495.41127175885
 20
-1951.040063756613
 30
0.0
 11
2495.511272922248
 21
-1950.540063756613
 31
0.0
  0
LINE
  5
16951
102
{ACAD_REACTORS
330
16961
102
}
330
18
100
AcDbEntity
  8
1PHANTOM
100
AcDbLine
 10
2495.511272922248
 20
-1950.540063756613
 30
0.0
 11
2496.311263615067
 21
-1954.540063756613
 31
0.0
  0
LINE
  5
16952
102
{ACAD_REACTORS
330
16961
102
}
330
18
100
AcDbEntity
  8
1PHANTOM
100
AcDbLine
 10
2502.711263615071
 20
-1954.540063756613
 30
0.0
 11
2502.811264778469
 21
-1954.040063756613
 31
0.0
  0
LINE
  5
16953
102
{ACAD_REACTORS
330
16961
102
}
330
18
100
AcDbEntity
  8
1PHANTOM
100
AcDbLine
 10
2504.311263615075
 20
-1954.540063756613
 30
0.0
 11
2504.411264778473
 21
-1954.040063756613
 31
0.0
  0
LINE
  5
16954
102
{ACAD_REACTORS
330
16961
102
}
330
18
100
AcDbEntity
  8
1PHANTOM
100
AcDbLine
 10
2499.511263615071
 20
-1954.540063756613
 30
0.0
 11
2499.611264778469
 21
-1954.040063756613
 31
0.0
  0
LINE
  5
16955
102
{ACAD_REACTORS
330
16961
102
}
330
18
100
AcDbEntity
  8
1PHANTOM
100
AcDbLine
 10
2501.111263615071
 20
-1954.540063756613
 30
0.0
 11
2501.211264778469
 21
-1954.040063756613
 31
0.0
  0
LINE
  5
16956
102
{ACAD_REACTORS
330
16961
102
}
330
18
100
AcDbEntity
  8
1PHANTOM
100
AcDbLine
 10
2505.011271758856
 20
-1951.040063756613
 30
0.0
 11
2505.111272922253
 21
-1950.540063756613
 31
0.0
  0
LINE
  5
16957
102
{ACAD_REACTORS
330
16961
102
}
330
18
100
AcDbEntity
  8
1PHANTOM
100
AcDbLine
 10
2503.411271758855
 20
-1951.040063756613
 30
0.0
 11
2503.511272922253
 21
-1950.540063756613
 31
0.0
  0
LINE
  5
16958
102
{ACAD_REACTORS
330
16961
102
}
330
18
100
AcDbEntity
  8
1PHANTOM
100
AcDbLine
 10
2500.211271758855
 20
-1951.040063756613
 30
0.0
 11
2500.311272922253
 21
-1950.540063756613
 31
0.0
  0
LINE
  5
16959
102
{ACAD_REACTORS
330
16961
102
}
330
18
100
AcDbEntity
  8
1PHANTOM
100
AcDbLine
 10
2501.811271758856
 20
-1951.040063756613
 30
0.0
 11
2501.911272922253
 21
-1950.540063756613
 31
0.0
  0
LINE
  5
1695A
102
{ACAD_REACTORS
330
16961
102
}
330
18
100
AcDbEntity
  8
1PHANTOM
100
AcDbLine
 10
2501.911272922253
 20
-1950.540063756613
 30
0.0
 11
2502.711263615071
 21
-1954.540063756613
 31
0.0
  0
LINE
  5
1695B
102
{ACAD_REACTORS
330
16961
102
}
330
18
100
AcDbEntity
  8
1PHANTOM
100
AcDbLine
 10
2503.511272922253
 20
-1950.540063756613
 30
0.0
 11
2504.311263615075
 21
-1954.540063756613
 31
0.0
  0
LINE
  5
1695C
102
{ACAD_REACTORS
330
16961
102
}
330
18
100
AcDbEntity
  8
1PHANTOM
100
AcDbLine
 10
2500.311272922253
 20
-1950.540063756613
 30
0.0
 11
2501.111263615071
 21
-1954.540063756613
 31
0.0
  0
LINE
  5
1695D
102
{ACAD_REACTORS
330
16961
102
}
330
18
100
AcDbEntity
  8
1PHANTOM
100
AcDbLine
 10
2498.711272922253
 20
-1950.540063756613
 30
0.0
 11
2499.511263615071
 21
-1954.540063756613
 31
0.0
  0
LINE
  5
1695E
102
{ACAD_REACTORS
330
16961
102
}
330
18
100
AcDbEntity
  8
1PHANTOM
100
AcDbLine
 10
2513.911263615075
 20
-1954.540063756613
 30
0.0
 11
2514.011264778473
 21
-1954.040063756613
 31
0.0
  0
LINE
  5
1695F
102
{ACAD_REACTORS
330
16961
102
}
330
18
100
AcDbEntity
  8
1PHANTOM
100
AcDbLine
 10
2513.011271758856
 20
-1951.040063756613
 30
0.0
 11
2513.111272922253
 21
-1950.540063756613
 31
0.0
  0
LINE
  5
16960
102
{ACAD_REACTORS
330
16961
102
}
330
18
100
AcDbEntity
  8
1PHANTOM
100
AcDbLine
 10
2513.111272922253
 20
-1950.540063756613
 30
0.0
 11
2513.911263615075
 21
-1954.540063756613
 31
0.0
  0
LINE
  5
16966
330
18
100
AcDbEntity
  8
1PHANTOM
100
AcDbLine
 10
2384.311328766681
 20
-1837.540017220716
 30
0.0
 11
2385.811322948555
 21
-1837.240021874519
 31
0.0
  0
LINE
  5
1696A
330
18
100
AcDbEntity
  8
1PHANTOM
100
AcDbLine
 10
2258.811322948554
 20
-1809.540017220878
 30
0.0
 11
2257.311322948554
 21
-1814.840013730739
 31
0.0
  0
LINE
  5
1696B
330
18
100
AcDbEntity
  8
1PHANTOM
100
AcDbLine
 10
2257.311322948554
 20
-1814.840013730739
 30
0.0
 11
2257.311322948555
 21
-1837.540017220716
 31
0.0
  0
LINE
  5
1696C
330
18
100
AcDbEntity
  8
1PHANTOM
100
AcDbLine
 10
2258.811322948554
 20
-1809.540017220878
 30
0.0
 11
2260.311322948554
 21
-1814.840020711123
 31
0.0
  0
LINE
  5
1696D
330
18
100
AcDbEntity
  8
1PHANTOM
100
AcDbLine
 10
2260.311322948555
 20
-1814.840020711124
 30
0.0
 11
2260.311322948554
 21
-1837.540017220715
 31
0.0
  0
LINE
  5
1696E
330
18
100
AcDbEntity
  8
1PHANTOM
100
AcDbLine
 10
2258.811276412656
 20
-1808.007642250723
 30
0.0
 11
2258.811276412657
 21
-1837.540017220715
 31
0.0
  0
LINE
  5
1696F
330
18
100
AcDbEntity
  8
1PHANTOM
100
AcDbLine
 10
2257.716952598661
 20
-1811.640014674556
 30
0.0
 11
2259.679287687537
 21
-1810.840019240505
 31
0.0
  0
LINE
  5
16970
330
18
100
AcDbEntity
  8
1PHANTOM
100
AcDbLine
 10
2259.679287687537
 20
-1810.840019240505
 30
0.0
 11
2259.091011112494
 21
-1810.528249384253
 31
0.0
  0
LINE
  5
16971
330
18
100
AcDbEntity
  8
1PHANTOM
100
AcDbLine
 10
2260.132101791944
 20
-1812.44002029411
 30
0.0
 11
2259.58035232814
 21
-1812.257256151482
 31
0.0
  0
LINE
  5
16972
330
18
100
AcDbEntity
  8
1PHANTOM
100
AcDbLine
 10
2260.811322948554
 20
-1835.640021874519
 30
0.0
 11
2260.311322948554
 21
-1835.540020711122
 31
0.0
  0
LINE
  5
16973
330
18
100
AcDbEntity
  8
1PHANTOM
100
AcDbLine
 10
2260.811322948554
 20
-1837.240021874519
 30
0.0
 11
2260.311322948554
 21
-1837.140020711121
 31
0.0
  0
LINE
  5
16974
330
18
100
AcDbEntity
  8
1PHANTOM
100
AcDbLine
 10
2260.584915896351
 20
-1814.040021347716
 30
0.0
 11
2260.048322161079
 21
-1813.910750650086
 31
0.0
  0
LINE
  5
16975
330
18
100
AcDbEntity
  8
1PHANTOM
100
AcDbLine
 10
2257.732237545763
 20
-1813.352783133302
 30
0.0
 11
2257.264139090613
 21
-1813.240013620951
 31
0.0
  0
LINE
  5
16976
330
18
100
AcDbEntity
  8
1PHANTOM
100
AcDbLine
 10
2257.311322948554
 20
-1836.540013730738
 30
0.0
 11
2256.811322948554
 21
-1836.440012567341
 31
0.0
  0
LINE
  5
16977
330
18
100
AcDbEntity
  8
1PHANTOM
100
AcDbLine
 10
2257.311322948554
 20
-1814.940013730738
 30
0.0
 11
2256.811322948554
 21
-1814.840012567341
 31
0.0
  0
LINE
  5
16978
330
18
100
AcDbEntity
  8
1PHANTOM
100
AcDbLine
 10
2258.174124439292
 20
-1811.791450470996
 30
0.0
 11
2257.716952598661
 21
-1811.640014674556
 31
0.0
  0
LINE
  5
16979
330
18
100
AcDbEntity
  8
1PHANTOM
100
AcDbLine
 10
2257.264139090613
 20
-1813.240013620951
 30
0.0
 11
2260.132101791944
 21
-1812.44002029411
 31
0.0
  0
LINE
  5
1697A
330
18
100
AcDbEntity
  8
1PHANTOM
100
AcDbLine
 10
2256.811322948554
 20
-1836.440012567341
 30
0.0
 11
2260.811322948554
 21
-1835.640021874519
 31
0.0
  0
LINE
  5
1697B
330
18
100
AcDbEntity
  8
1PHANTOM
100
AcDbLine
 10
2256.811322948554
 20
-1814.840012567341
 30
0.0
 11
2260.584915896351
 21
-1814.040021347716
 31
0.0
  0
LINE
  5
1697C
330
18
100
AcDbEntity
  8
1PHANTOM
100
AcDbLine
 10
2259.31132876668
 20
-1837.540017220716
 30
0.0
 11
2260.811322948554
 21
-1837.240021874519
 31
0.0
  0
LINE
  5
1697D
330
18
100
AcDbEntity
  8
1PHANTOM
100
AcDbLine
 10
2256.811322948554
 20
-1825.240012567337
 30
0.0
 11
2260.811322948554
 21
-1824.440021874515
 31
0.0
  0
LINE
  5
1697E
330
18
100
AcDbEntity
  8
1PHANTOM
100
AcDbLine
 10
2256.811322948554
 20
-1822.040012567337
 30
0.0
 11
2260.811322948554
 21
-1821.240021874515
 31
0.0
  0
LINE
  5
1697F
330
18
100
AcDbEntity
  8
1PHANTOM
100
AcDbLine
 10
2260.811322948554
 20
-1821.240021874515
 30
0.0
 11
2260.311322948554
 21
-1821.140020711118
 31
0.0
  0
LINE
  5
16980
330
18
100
AcDbEntity
  8
1PHANTOM
100
AcDbLine
 10
2257.311322948554
 20
-1820.540013730735
 30
0.0
 11
2256.811322948554
 21
-1820.440012567337
 31
0.0
  0
LINE
  5
16981
330
18
100
AcDbEntity
  8
1PHANTOM
100
AcDbLine
 10
2260.811322948554
 20
-1824.440021874515
 30
0.0
 11
2260.311322948554
 21
-1824.340020711118
 31
0.0
  0
LINE
  5
16982
330
18
100
AcDbEntity
  8
1PHANTOM
100
AcDbLine
 10
2260.811322948554
 20
-1822.840021874515
 30
0.0
 11
2260.311322948554
 21
-1822.740020711117
 31
0.0
  0
LINE
  5
16983
330
18
100
AcDbEntity
  8
1PHANTOM
100
AcDbLine
 10
2257.311322948554
 20
-1822.140013730734
 30
0.0
 11
2256.811322948554
 21
-1822.040012567337
 31
0.0
  0
LINE
  5
16984
330
18
100
AcDbEntity
  8
1PHANTOM
100
AcDbLine
 10
2257.311322948554
 20
-1823.740013730735
 30
0.0
 11
2256.811322948554
 21
-1823.640012567337
 31
0.0
  0
LINE
  5
16985
330
18
100
AcDbEntity
  8
1PHANTOM
100
AcDbLine
 10
2256.811322948554
 20
-1823.640012567337
 30
0.0
 11
2260.811322948554
 21
-1822.840021874515
 31
0.0
  0
LINE
  5
16986
330
18
100
AcDbEntity
  8
1PHANTOM
100
AcDbLine
 10
2260.811322948554
 20
-1818.040021874515
 30
0.0
 11
2260.311322948554
 21
-1817.940020711118
 31
0.0
  0
LINE
  5
16987
330
18
100
AcDbEntity
  8
1PHANTOM
100
AcDbLine
 10
2260.811322948554
 20
-1819.640021874515
 30
0.0
 11
2260.311322948554
 21
-1819.540020711117
 31
0.0
  0
LINE
  5
16988
330
18
100
AcDbEntity
  8
1PHANTOM
100
AcDbLine
 10
2257.311322948554
 20
-1818.940013730734
 30
0.0
 11
2256.811322948554
 21
-1818.840012567337
 31
0.0
  0
LINE
  5
16989
330
18
100
AcDbEntity
  8
1PHANTOM
100
AcDbLine
 10
2256.811322948554
 20
-1818.840012567337
 30
0.0
 11
2260.811322948554
 21
-1818.040021874515
 31
0.0
  0
LINE
  5
1698A
330
18
100
AcDbEntity
  8
1PHANTOM
100
AcDbLine
 10
2256.811322948554
 20
-1820.440012567337
 30
0.0
 11
2260.811322948554
 21
-1819.640021874515
 31
0.0
  0
LINE
  5
1698B
330
18
100
AcDbEntity
  8
1PHANTOM
100
AcDbLine
 10
2256.811322948554
 20
-1833.240012567342
 30
0.0
 11
2260.811322948554
 21
-1832.440021874524
 31
0.0
  0
LINE
  5
1698C
330
18
100
AcDbEntity
  8
1PHANTOM
100
AcDbLine
 10
2260.811322948554
 20
-1832.440021874524
 30
0.0
 11
2260.311322948554
 21
-1832.340020711126
 31
0.0
  0
LINE
  5
1698D
330
18
100
AcDbEntity
  8
1PHANTOM
100
AcDbLine
 10
2257.311322948554
 20
-1831.740013730735
 30
0.0
 11
2256.811322948554
 21
-1831.640012567338
 31
0.0
  0
LINE
  5
1698E
330
18
100
AcDbEntity
  8
1PHANTOM
100
AcDbLine
 10
2260.811322948554
 20
-1834.040021874524
 30
0.0
 11
2260.311322948554
 21
-1833.940020711126
 31
0.0
  0
LINE
  5
1698F
330
18
100
AcDbEntity
  8
1PHANTOM
100
AcDbLine
 10
2257.311322948554
 20
-1833.340013730739
 30
0.0
 11
2256.811322948554
 21
-1833.240012567342
 31
0.0
  0
LINE
  5
16990
330
18
100
AcDbEntity
  8
1PHANTOM
100
AcDbLine
 10
2257.311322948554
 20
-1834.94001373074
 30
0.0
 11
2256.811322948554
 21
-1834.840012567342
 31
0.0
  0
LINE
  5
16991
330
18
100
AcDbEntity
  8
1PHANTOM
100
AcDbLine
 10
2256.811322948554
 20
-1834.840012567342
 30
0.0
 11
2260.811322948554
 21
-1834.040021874524
 31
0.0
  0
LINE
  5
16992
330
18
100
AcDbEntity
  8
1PHANTOM
100
AcDbLine
 10
2260.811322948554
 20
-1827.640021874519
 30
0.0
 11
2260.311322948554
 21
-1827.540020711121
 31
0.0
  0
LINE
  5
16993
330
18
100
AcDbEntity
  8
1PHANTOM
100
AcDbLine
 10
2260.811322948554
 20
-1826.040021874515
 30
0.0
 11
2260.311322948554
 21
-1825.940020711118
 31
0.0
  0
LINE
  5
16994
330
18
100
AcDbEntity
  8
1PHANTOM
100
AcDbLine
 10
2260.811322948554
 20
-1830.840021874519
 30
0.0
 11
2260.311322948554
 21
-1830.740020711121
 31
0.0
  0
LINE
  5
16995
330
18
100
AcDbEntity
  8
1PHANTOM
100
AcDbLine
 10
2260.811322948554
 20
-1829.240021874519
 30
0.0
 11
2260.311322948554
 21
-1829.140020711121
 31
0.0
  0
LINE
  5
16996
330
18
100
AcDbEntity
  8
1PHANTOM
100
AcDbLine
 10
2257.311322948554
 20
-1825.340013730734
 30
0.0
 11
2256.811322948554
 21
-1825.240012567337
 31
0.0
  0
LINE
  5
16997
330
18
100
AcDbEntity
  8
1PHANTOM
100
AcDbLine
 10
2257.311322948554
 20
-1826.940013730735
 30
0.0
 11
2256.811322948554
 21
-1826.840012567337
 31
0.0
  0
LINE
  5
16998
330
18
100
AcDbEntity
  8
1PHANTOM
100
AcDbLine
 10
2257.311322948554
 20
-1830.140013730735
 30
0.0
 11
2256.811322948554
 21
-1830.040012567337
 31
0.0
  0
LINE
  5
16999
330
18
100
AcDbEntity
  8
1PHANTOM
100
AcDbLine
 10
2257.311322948554
 20
-1828.540013730735
 30
0.0
 11
2256.811322948554
 21
-1828.440012567337
 31
0.0
  0
LINE
  5
1699A
330
18
100
AcDbEntity
  8
1PHANTOM
100
AcDbLine
 10
2256.811322948554
 20
-1828.440012567337
 30
0.0
 11
2260.811322948554
 21
-1827.640021874519
 31
0.0
  0
LINE
  5
1699B
330
18
100
AcDbEntity
  8
1PHANTOM
100
AcDbLine
 10
2256.811322948554
 20
-1826.840012567337
 30
0.0
 11
2260.811322948554
 21
-1826.040021874515
 31
0.0
  0
LINE
  5
1699C
330
18
100
AcDbEntity
  8
1PHANTOM
100
AcDbLine
 10
2256.811322948554
 20
-1830.040012567337
 30
0.0
 11
2260.811322948554
 21
-1829.240021874519
 31
0.0
  0
LINE
  5
1699D
330
18
100
AcDbEntity
  8
1PHANTOM
100
AcDbLine
 10
2256.811322948554
 20
-1831.640012567338
 30
0.0
 11
2260.811322948554
 21
-1830.840021874519
 31
0.0
  0
LINE
  5
1699E
330
18
100
AcDbEntity
  8
1PHANTOM
100
AcDbLine
 10
2260.811322948554
 20
-1816.440021874515
 30
0.0
 11
2260.311322948554
 21
-1816.340020711118
 31
0.0
  0
LINE
  5
1699F
330
18
100
AcDbEntity
  8
1PHANTOM
100
AcDbLine
 10
2257.311322948554
 20
-1817.340013730734
 30
0.0
 11
2256.811322948554
 21
-1817.240012567338
 31
0.0
  0
LINE
  5
169A0
330
18
100
AcDbEntity
  8
1PHANTOM
100
AcDbLine
 10
2256.811322948554
 20
-1817.240012567338
 30
0.0
 11
2260.811322948554
 21
-1816.440021874515
 31
0.0
  0
LINE
  5
169AF
330
18
100
AcDbEntity
  8
1DIM
100
AcDbLine
 10
2438.719078948353
 20
-1846.351696177923
 30
0.0
 11
2508.719078948354
 21
-1846.351696177923
 31
0.0
  0
LINE
  5
169B0
330
18
100
AcDbEntity
  8
1DIM
100
AcDbLine
 10
2438.719078948353
 20
-1839.351696177923
 30
0.0
 11
2508.719078948354
 21
-1839.351696177923
 31
0.0
  0
TEXT
  5
169B1
330
18
100
AcDbEntity
  8
1TEXT
100
AcDbText
 10
2484.252412281687
 20
-1844.851696177923
 30
0.0
 40
4.0
  1
コード
 72
     1
 11
2491.119078948354
 21
-1844.851696177923
 31
0.0
100
AcDbText
  0
TEXT
  5
169B2
330
18
100
AcDbEntity
  8
1TEXT
100
AcDbText
 10
2447.779078948354
 20
-1844.851696177923
 30
0.0
 40
4.0
  1
表面処理
 41
0.9
 72
     1
 11
2456.119078948354
 21
-1844.851696177923
 31
0.0
100
AcDbText
  0
LINE
  5
169B3
330
18
100
AcDbEntity
  8
1DIM
100
AcDbLine
 10
2438.719078948354
 20
-1853.351696177923
 30
0.0
 11
2508.719078948354
 21
-1853.351696177923
 31
0.0
  0
TEXT
  5
169B4
330
18
100
AcDbEntity
  8
1TEXT
100
AcDbText
 10
2449.199078948355
 20
-1852.066053161573
 30
0.0
 40
4.0
  1
ヘアライン
 41
0.6
 72
     1
 11
2456.119078948355
 21
-1852.066053161573
 31
0.0
100
AcDbText
  0
LINE
  5
169B5
330
18
100
AcDbEntity
  8
1DIM
100
AcDbLine
 10
2438.719078948354
 20
-1839.351696177923
 30
0.0
 11
2438.719078948354
 21
-1853.351696177923
 31
0.0
  0
LINE
  5
169B6
330
18
100
AcDbEntity
  8
1DIM
100
AcDbLine
 10
2473.719078948354
 20
-1839.351696177923
 30
0.0
 11
2473.719078948354
 21
-1853.351696177923
 31
0.0
  0
LINE
  5
169B7
330
18
100
AcDbEntity
  8
1DIM
100
AcDbLine
 10
2508.719078948354
 20
-1839.351696177923
 30
0.0
 11
2508.719078948354
 21
-1853.351696177923
 31
0.0
  0
TEXT
  5
169B8
330
18
100
AcDbEntity
  8
1TEXT
100
AcDbText
 10
2478.091301170577
 20
-1852.066053161573
 30
0.0
 40
4.0
  1
GP076XT
 72
     1
 11
2491.119078948355
 21
-1852.066053161573
 31
0.0
100
AcDbText
  0
TEXT
  5
169B9
330
18
100
AcDbEntity
  8
1TEXT
100
AcDbText
 10
2437.517789465294
 20
-1830.351696177923
 30
0.0
 40
8.0
  1
GP-076-X
100
AcDbText
  0
SOLID
  5
16C8D
330
18
100
AcDbEntity
  8
1DIM
100
AcDbTrace
 10
2445.266568969495
 20
-1964.246282347924
 30
0.0
 11
2446.075274374085
 21
-1962.386952716122
 31
0.0
 12
2445.913308601679
 22
-1964.408060877424
 32
0.0
 13
2445.913308601679
 23
-1964.408060877424
 33
0.0
  0
LINE
  5
16C8E
330
18
100
AcDbEntity
  8
1DIM
100
AcDbLine
 10
2445.589938785587
 20
-1964.327171612674
 30
0.0
 11
2440.553273236756
 21
-1984.462174907375
 31
0.0
  0
LINE
  5
16C8F
330
18
100
AcDbEntity
  8
1DIM
100
AcDbLine
 10
2440.553273236756
 20
-1984.462174907375
 30
0.0
 11
2405.536606570089
 21
-1984.462174907375
 31
0.0
  0
TEXT
  5
16C90
330
18
100
AcDbEntity
  8
1DIM
  6
CONTINUOUS
100
AcDbText
 10
2405.303273236756
 20
-1977.928841574042
 30
0.0
 40
3.5
  1
材質：ステンレス
100
AcDbText
  0
TEXT
  5
16C91
330
18
100
AcDbEntity
  8
1DIM
  6
CONTINUOUS
100
AcDbText
 10
2409.153273236756
 20
-1983.762174907375
 30
0.0
 40
3.5
  1
仕上：各種仕上
100
AcDbText
  0
LINE
  5
16C92
330
18
100
AcDbEntity
  8
1DIM
100
AcDbLine
 10
2387.811276412657
 20
-1891.540017220716
 30
0.0
 11
2420.811276412657
 21
-1891.540017220716
 31
0.0
  0
LINE
  5
16C93
330
18
100
AcDbEntity
  8
1DIM
100
AcDbLine
 10
2389.811276412657
 20
-1837.540017220716
 30
0.0
 11
2420.811276412657
 21
-1837.540017220716
 31
0.0
  0
LINE
  5
16C94
330
18
100
AcDbEntity
  8
1DIM
100
AcDbLine
 10
2419.811276412657
 20
-1889.540017220716
 30
0.0
 11
2419.811276412657
 21
-1839.540017220716
 31
0.0
  0
LINE
  5
16C98
330
18
100
AcDbEntity
  8
1DIM
100
AcDbLine
 10
2388.811276412657
 20
-1963.540017220716
 30
0.0
 11
2420.811276412657
 21
-1963.540017220716
 31
0.0
  0
LINE
  5
16C99
330
18
100
AcDbEntity
  8
1DIM
100
AcDbLine
 10
2388.811276412657
 20
-1941.540017220716
 30
0.0
 11
2420.811276412657
 21
-1941.540017220716
 31
0.0
  0
LINE
  5
16C9A
330
18
100
AcDbEntity
  8
1DIM
100
AcDbLine
 10
2419.811276412657
 20
-1961.540017220716
 30
0.0
 11
2419.811276412657
 21
-1943.540017220716
 31
0.0
  0
LINE
  5
16C9E
330
18
100
AcDbEntity
  8
1HATCH
100
AcDbLine
 10
2476.461276412657
 20
-1960.890017220715
 30
0.0
 11
2476.811276412657
 21
-1961.240017046641
 31
0.0
  0
LINE
  5
16C9F
330
18
100
AcDbEntity
  8
1HATCH
100
AcDbLine
 10
2472.811276412657
 20
-1961.240017046641
 30
0.0
 11
2473.161276412657
 21
-1960.890017220715
 31
0.0
  0
LINE
  5
16CA0
330
18
100
AcDbEntity
  8
1HATCH
100
AcDbLine
 10
2477.811276412657
 20
-1962.240017210715
 30
0.0
 11
2471.811276412657
 21
-1962.240017210715
 31
0.0
  0
LINE
  5
16CA1
330
18
100
AcDbEntity
  8
1HATCH
100
AcDbLine
 10
2476.811276412657
 20
-1954.890017220715
 30
0.0
 11
2472.811276412657
 21
-1954.890017220715
 31
0.0
  0
LINE
  5
16CA3
330
18
100
AcDbEntity
  8
1HATCH
100
AcDbLine
 10
2473.161276412657
 20
-1954.540017220716
 30
0.0
 11
2473.161276412657
 21
-1960.890017220715
 31
0.0
  0
LINE
  5
16CA4
330
18
100
AcDbEntity
  8
1HATCH
100
AcDbLine
 10
2476.461276412657
 20
-1954.540017220716
 30
0.0
 11
2476.461276412657
 21
-1960.890017220715
 31
0.0
  0
LINE
  5
16CA5
330
18
100
AcDbEntity
  8
1CENTER
100
AcDbLine
 10
2474.811276412657
 20
-1952.938342220716
 30
0.0
 11
2474.811276412657
 21
-1964.098786120715
 31
0.0
  0
LINE
  5
16CA6
330
18
100
AcDbEntity
  8
1DIM
100
AcDbLine
 10
2388.311276412657
 20
-1952.540017220714
 30
0.0
 11
2410.811276412657
 21
-1952.540017220714
 31
0.0
  0
LINE
  5
16CA7
330
18
100
AcDbEntity
  8
1DIM
100
AcDbLine
 10
2388.311276412657
 20
-1941.540017220716
 30
0.0
 11
2410.811276412657
 21
-1941.540017220716
 31
0.0
  0
LINE
  5
16CA8
330
18
100
AcDbEntity
  8
1DIM
100
AcDbLine
 10
2409.811276412657
 20
-1950.540017220714
 30
0.0
 11
2409.811276412657
 21
-1943.540017220716
 31
0.0
  0
LINE
  5
16CAC
330
18
100
AcDbEntity
  8
1DIM
100
AcDbLine
 10
2252.811276412656
 20
-1942.540017220716
 30
0.0
 11
2252.811276412656
 21
-1910.540017220716
 31
0.0
  0
LINE
  5
16CAD
330
18
100
AcDbEntity
  8
1DIM
100
AcDbLine
 10
2389.811276412657
 20
-1942.540017220716
 30
0.0
 11
2389.811276412657
 21
-1910.540017220716
 31
0.0
  0
LINE
  5
16CAE
330
18
100
AcDbEntity
  8
1DIM
100
AcDbLine
 10
2254.811276412656
 20
-1911.540017220716
 30
0.0
 11
2387.811276412657
 21
-1911.540017220716
 31
0.0
  0
LINE
  5
16CB2
330
18
100
AcDbEntity
  8
1DIM
100
AcDbLine
 10
2383.811276412657
 20
-1948.040017220714
 30
0.0
 11
2383.811276412657
 21
-1920.540017220716
 31
0.0
  0
LINE
  5
16CB3
330
18
100
AcDbEntity
  8
1DIM
100
AcDbLine
 10
2258.811276412656
 20
-1948.040017220714
 30
0.0
 11
2258.811276412656
 21
-1920.540017220716
 31
0.0
  0
LINE
  5
16CB4
330
18
100
AcDbEntity
  8
1DIM
100
AcDbLine
 10
2381.811276412657
 20
-1921.540017220716
 30
0.0
 11
2260.811276412656
 21
-1921.540017220716
 31
0.0
  0
LINE
  5
16CB8
330
18
100
AcDbEntity
  8
1DIM
100
AcDbLine
 10
2389.811276412657
 20
-1839.540017220716
 30
0.0
 11
2410.811276412657
 21
-1839.540017220716
 31
0.0
  0
LINE
  5
16CB9
330
18
100
AcDbEntity
  8
1DIM
100
AcDbLine
 10
2377.811276412657
 20
-1881.540017220715
 30
0.0
 11
2410.811276412657
 21
-1881.540017220715
 31
0.0
  0
LINE
  5
16CBA
330
18
100
AcDbEntity
  8
1DIM
100
AcDbLine
 10
2409.811276412657
 20
-1841.540017220716
 30
0.0
 11
2409.811276412657
 21
-1879.540017220715
 31
0.0
  0
LINE
  5
16CBE
330
18
100
AcDbEntity
  8
1DIM
100
AcDbLine
 10
2389.811276412657
 20
-1839.540017220716
 30
0.0
 11
2410.811276412657
 21
-1839.540017220716
 31
0.0
  0
LINE
  5
16CBF
330
18
100
AcDbEntity
  8
1DIM
100
AcDbLine
 10
2390.347174797519
 20
-1837.540017220716
 30
0.0
 11
2410.811276412657
 21
-1837.540017220716
 31
0.0
  0
LINE
  5
16CC0
330
18
100
AcDbEntity
  8
1DIM
100
AcDbLine
 10
2409.811276412657
 20
-1841.540017220716
 30
0.0
 11
2409.811276412657
 21
-1843.540017220716
 31
0.0
  0
LINE
  5
16CC1
330
18
100
AcDbEntity
  8
1DIM
100
AcDbLine
 10
2409.811276412657
 20
-1835.540017220716
 30
0.0
 11
2409.811276412657
 21
-1829.806683887382
 31
0.0
  0
LINE
  5
16CC2
330
18
100
AcDbEntity
  8
1DIM
100
AcDbLine
 10
2409.811276412657
 20
-1839.540017220716
 30
0.0
 11
2409.811276412657
 21
-1837.540017220716
 31
0.0
  0
LINE
  5
16CC6
330
18
100
AcDbEntity
  8
1DIM
100
AcDbLine
 10
2474.811276412657
 20
-1964.098786120715
 30
0.0
 11
2474.811276412657
 21
-1976.799065855656
 31
0.0
  0
LINE
  5
16CC7
330
18
100
AcDbEntity
  8
1DIM
100
AcDbLine
 10
2492.811276412658
 20
-1963.540017220715
 30
0.0
 11
2492.811276412658
 21
-1976.799065855656
 31
0.0
  0
LINE
  5
16CC8
330
18
100
AcDbEntity
  8
1DIM
100
AcDbLine
 10
2476.811276412657
 20
-1975.799065855656
 30
0.0
 11
2490.811276412658
 21
-1975.799065855656
 31
0.0
  0
SOLID
  5
16CCC
330
18
100
AcDbEntity
  8
1DIM
100
AcDbTrace
 10
2490.721071837861
 20
-1939.824415208569
 30
0.0
 11
2491.583996779829
 21
-1941.659209926145
 31
0.0
 12
2490.172647872268
 22
-1940.203460850157
 32
0.0
 13
2490.172647872268
 23
-1940.203460850157
 33
0.0
  0
LINE
  5
16CCD
330
18
100
AcDbEntity
  8
1DIM
100
AcDbLine
 10
2490.446859855064
 20
-1940.013938029364
 30
0.0
 11
2478.070442000964
 21
-1922.107059768075
 31
0.0
  0
LINE
  5
16CCE
330
18
100
AcDbEntity
  8
1DIM
100
AcDbLine
 10
2478.070442000964
 20
-1922.107059768075
 30
0.0
 11
2443.053775334297
 21
-1922.107059768075
 31
0.0
  0
TEXT
  5
16CCF
330
18
100
AcDbEntity
  8
1DIM
  6
CONTINUOUS
100
AcDbText
 10
2442.820442000965
 20
-1915.573726434742
 30
0.0
 40
3.5
  1
材質：ステンレス
100
AcDbText
  0
TEXT
  5
16CD0
330
18
100
AcDbEntity
  8
1DIM
  6
CONTINUOUS
100
AcDbText
 10
2446.670442000964
 20
-1921.407059768075
 30
0.0
 40
3.5
  1
仕上：各種仕上
100
AcDbText
  0
LINE
  5
16CD1
330
18
100
AcDbEntity
  8
0
  6
BYBLOCK
100
AcDbLine
 10
2420.347174792657
 20
-1889.540017220716
 30
0.0
 11
2419.811276412657
 21
-1891.540017220716
 31
0.0
  0
LINE
  5
16CD2
330
18
100
AcDbEntity
  8
0
  6
BYBLOCK
100
AcDbLine
 10
2419.811276412657
 20
-1891.540017220716
 30
0.0
 11
2419.275378032657
 21
-1889.540017220716
 31
0.0
  0
LINE
  5
16CD3
330
18
100
AcDbEntity
  8
0
  6
BYBLOCK
100
AcDbLine
 10
2419.811276412657
 20
-1891.540017220716
 30
0.0
 11
2419.811276412657
 21
-1889.540017220716
 31
0.0
  0
LINE
  5
16CD4
330
18
100
AcDbEntity
  8
0
  6
BYBLOCK
100
AcDbLine
 10
2419.275378032657
 20
-1839.540017220716
 30
0.0
 11
2419.811276412657
 21
-1837.540017220716
 31
0.0
  0
LINE
  5
16CD5
330
18
100
AcDbEntity
  8
0
  6
BYBLOCK
100
AcDbLine
 10
2419.811276412657
 20
-1837.540017220716
 30
0.0
 11
2420.347174792657
 21
-1839.540017220716
 31
0.0
  0
LINE
  5
16CD6
330
18
100
AcDbEntity
  8
0
  6
BYBLOCK
100
AcDbLine
 10
2419.811276412657
 20
-1837.540017220716
 30
0.0
 11
2419.811276412657
 21
-1839.540017220716
 31
0.0
  0
TEXT
  5
16CD7
330
18
100
AcDbEntity
  8
1DIM
  6
CONTINUOUS
100
AcDbText
 10
2419.111276412658
 20
-1867.468836665159
 30
0.0
 40
3.5
  1
54
 50
90.0
100
AcDbText
  0
LINE
  5
16CD8
330
18
100
AcDbEntity
  8
0
  6
BYBLOCK
100
AcDbLine
 10
2420.347174792657
 20
-1961.540017220716
 30
0.0
 11
2419.811276412657
 21
-1963.540017220716
 31
0.0
  0
LINE
  5
16CD9
330
18
100
AcDbEntity
  8
0
  6
BYBLOCK
100
AcDbLine
 10
2419.811276412657
 20
-1963.540017220716
 30
0.0
 11
2419.275378032657
 21
-1961.540017220716
 31
0.0
  0
LINE
  5
16CDA
330
18
100
AcDbEntity
  8
0
  6
BYBLOCK
100
AcDbLine
 10
2419.811276412657
 20
-1963.540017220716
 30
0.0
 11
2419.811276412657
 21
-1961.540017220716
 31
0.0
  0
LINE
  5
16CDB
330
18
100
AcDbEntity
  8
0
  6
BYBLOCK
100
AcDbLine
 10
2419.275378032657
 20
-1943.540017220716
 30
0.0
 11
2419.811276412657
 21
-1941.540017220716
 31
0.0
  0
LINE
  5
16CDC
330
18
100
AcDbEntity
  8
0
  6
BYBLOCK
100
AcDbLine
 10
2419.811276412657
 20
-1941.540017220716
 30
0.0
 11
2420.347174792657
 21
-1943.540017220716
 31
0.0
  0
LINE
  5
16CDD
330
18
100
AcDbEntity
  8
0
  6
BYBLOCK
100
AcDbLine
 10
2419.811276412657
 20
-1941.540017220716
 30
0.0
 11
2419.811276412657
 21
-1943.540017220716
 31
0.0
  0
TEXT
  5
16CDE
330
18
100
AcDbEntity
  8
1DIM
  6
CONTINUOUS
100
AcDbText
 10
2419.111276412658
 20
-1955.456683887382
 30
0.0
 40
3.5
  1
22
 50
90.0
100
AcDbText
  0
LINE
  5
16CDF
330
18
100
AcDbEntity
  8
0
100
AcDbLine
 10
2476.811276412657
 20
-1961.240017046641
 30
0.0
 11
2476.811276412657
 21
-1954.890017220715
 31
0.0
  0
LINE
  5
16CE0
330
18
100
AcDbEntity
  8
0
100
AcDbLine
 10
2476.811276412657
 20
-1954.890017220715
 30
0.0
 11
2476.461276412657
 21
-1954.540017220716
 31
0.0
  0
LINE
  5
16CE1
330
18
100
AcDbEntity
  8
0
100
AcDbLine
 10
2476.461276412657
 20
-1954.540017220716
 30
0.0
 11
2473.161276412658
 21
-1954.540017220716
 31
0.0
  0
LINE
  5
16CE2
330
18
100
AcDbEntity
  8
0
100
AcDbLine
 10
2473.161276412658
 20
-1954.540017220716
 30
0.0
 11
2472.811276412657
 21
-1954.890017220715
 31
0.0
  0
LINE
  5
16CE3
330
18
100
AcDbEntity
  8
0
100
AcDbLine
 10
2472.811276412657
 20
-1954.890017220715
 30
0.0
 11
2472.811276412657
 21
-1961.240017046641
 31
0.0
  0
LINE
  5
16CE4
330
18
100
AcDbEntity
  8
0
100
AcDbLine
 10
2472.811276412657
 20
-1961.240017046641
 30
0.0
 11
2471.811276412657
 21
-1962.240017210715
 31
0.0
  0
LINE
  5
16CE5
330
18
100
AcDbEntity
  8
0
100
AcDbLine
 10
2471.811276412657
 20
-1962.240017210715
 30
0.0
 11
2471.811276412657
 21
-1962.540017220716
 31
0.0
  0
LINE
  5
16CE6
330
18
100
AcDbEntity
  8
0
100
AcDbLine
 10
2471.811276412657
 20
-1962.540017220716
 30
0.0
 11
2477.811276412657
 21
-1962.540017220716
 31
0.0
  0
LINE
  5
16CE7
330
18
100
AcDbEntity
  8
0
100
AcDbLine
 10
2477.811276412657
 20
-1962.540017220716
 30
0.0
 11
2477.811276412657
 21
-1962.240017120715
 31
0.0
  0
LINE
  5
16CE8
330
18
100
AcDbEntity
  8
0
100
AcDbLine
 10
2477.811276412657
 20
-1962.240017120715
 30
0.0
 11
2476.811276412657
 21
-1961.240017046641
 31
0.0
  0
LINE
  5
16CE9
330
18
100
AcDbEntity
  8
0
  6
BYBLOCK
100
AcDbLine
 10
2410.347174792657
 20
-1950.540017220714
 30
0.0
 11
2409.811276412657
 21
-1952.540017220714
 31
0.0
  0
LINE
  5
16CEA
330
18
100
AcDbEntity
  8
0
  6
BYBLOCK
100
AcDbLine
 10
2409.811276412657
 20
-1952.540017220714
 30
0.0
 11
2409.275378032657
 21
-1950.540017220714
 31
0.0
  0
LINE
  5
16CEB
330
18
100
AcDbEntity
  8
0
  6
BYBLOCK
100
AcDbLine
 10
2409.811276412657
 20
-1952.540017220714
 30
0.0
 11
2409.811276412657
 21
-1950.540017220714
 31
0.0
  0
LINE
  5
16CEC
330
18
100
AcDbEntity
  8
0
  6
BYBLOCK
100
AcDbLine
 10
2409.275378032657
 20
-1943.540017220716
 30
0.0
 11
2409.811276412657
 21
-1941.540017220716
 31
0.0
  0
LINE
  5
16CED
330
18
100
AcDbEntity
  8
0
  6
BYBLOCK
100
AcDbLine
 10
2409.811276412657
 20
-1941.540017220716
 30
0.0
 11
2410.347174792657
 21
-1943.540017220716
 31
0.0
  0
LINE
  5
16CEE
330
18
100
AcDbEntity
  8
0
  6
BYBLOCK
100
AcDbLine
 10
2409.811276412657
 20
-1941.540017220716
 30
0.0
 11
2409.811276412657
 21
-1943.540017220716
 31
0.0
  0
TEXT
  5
16CEF
330
18
100
AcDbEntity
  8
1DIM
  6
CONTINUOUS
100
AcDbText
 10
2409.111276412658
 20
-1948.790017220715
 30
0.0
 40
3.5
  1
11
 50
90.0
100
AcDbText
  0
LINE
  5
16CF0
330
18
100
AcDbEntity
  8
0
  6
BYBLOCK
100
AcDbLine
 10
2254.811276412656
 20
-1912.075915600715
 30
0.0
 11
2252.811276412656
 21
-1911.540017220716
 31
0.0
  0
LINE
  5
16CF1
330
18
100
AcDbEntity
  8
0
  6
BYBLOCK
100
AcDbLine
 10
2252.811276412656
 20
-1911.540017220716
 30
0.0
 11
2254.811276412656
 21
-1911.004118840716
 31
0.0
  0
LINE
  5
16CF2
330
18
100
AcDbEntity
  8
0
  6
BYBLOCK
100
AcDbLine
 10
2252.811276412656
 20
-1911.540017220716
 30
0.0
 11
2254.811276412656
 21
-1911.540017220716
 31
0.0
  0
LINE
  5
16CF3
330
18
100
AcDbEntity
  8
0
  6
BYBLOCK
100
AcDbLine
 10
2387.811276412657
 20
-1911.004118840716
 30
0.0
 11
2389.811276412657
 21
-1911.540017220716
 31
0.0
  0
LINE
  5
16CF4
330
18
100
AcDbEntity
  8
0
  6
BYBLOCK
100
AcDbLine
 10
2389.811276412657
 20
-1911.540017220716
 30
0.0
 11
2387.811276412657
 21
-1912.075915600715
 31
0.0
  0
LINE
  5
16CF5
330
18
100
AcDbEntity
  8
0
  6
BYBLOCK
100
AcDbLine
 10
2389.811276412657
 20
-1911.540017220716
 30
0.0
 11
2387.811276412657
 21
-1911.540017220716
 31
0.0
  0
TEXT
  5
16CF6
330
18
100
AcDbEntity
  8
1DIM
  6
CONTINUOUS
100
AcDbText
 10
2317.227943079323
 20
-1910.840017220715
 30
0.0
 40
3.5
  1
137
100
AcDbText
  0
LINE
  5
16CF7
330
18
100
AcDbEntity
  8
0
  6
BYBLOCK
100
AcDbLine
 10
2381.811276412657
 20
-1921.004118840716
 30
0.0
 11
2383.811276412657
 21
-1921.540017220716
 31
0.0
  0
LINE
  5
16CF8
330
18
100
AcDbEntity
  8
0
  6
BYBLOCK
100
AcDbLine
 10
2383.811276412657
 20
-1921.540017220716
 30
0.0
 11
2381.811276412657
 21
-1922.075915600715
 31
0.0
  0
LINE
  5
16CF9
330
18
100
AcDbEntity
  8
0
  6
BYBLOCK
100
AcDbLine
 10
2383.811276412657
 20
-1921.540017220716
 30
0.0
 11
2381.811276412657
 21
-1921.540017220716
 31
0.0
  0
LINE
  5
16CFA
330
18
100
AcDbEntity
  8
0
  6
BYBLOCK
100
AcDbLine
 10
2260.811276412656
 20
-1922.075915600715
 30
0.0
 11
2258.811276412656
 21
-1921.540017220716
 31
0.0
  0
LINE
  5
16CFB
330
18
100
AcDbEntity
  8
0
  6
BYBLOCK
100
AcDbLine
 10
2258.811276412656
 20
-1921.540017220716
 30
0.0
 11
2260.811276412656
 21
-1921.004118840716
 31
0.0
  0
LINE
  5
16CFC
330
18
100
AcDbEntity
  8
0
  6
BYBLOCK
100
AcDbLine
 10
2258.811276412656
 20
-1921.540017220716
 30
0.0
 11
2260.811276412656
 21
-1921.540017220716
 31
0.0
  0
TEXT
  5
16CFD
330
18
100
AcDbEntity
  8
1DIM
  6
CONTINUOUS
100
AcDbText
 10
2313.727943079323
 20
-1920.840017220715
 30
0.0
 40
3.5
  1
P=125
100
AcDbText
  0
LINE
  5
16CFE
330
18
100
AcDbEntity
  8
0
  6
BYBLOCK
100
AcDbLine
 10
2409.275378032657
 20
-1841.540017220716
 30
0.0
 11
2409.811276412657
 21
-1839.540017220716
 31
0.0
  0
LINE
  5
16CFF
330
18
100
AcDbEntity
  8
0
  6
BYBLOCK
100
AcDbLine
 10
2409.811276412657
 20
-1839.540017220716
 30
0.0
 11
2410.347174792657
 21
-1841.540017220716
 31
0.0
  0
LINE
  5
16D00
330
18
100
AcDbEntity
  8
0
  6
BYBLOCK
100
AcDbLine
 10
2409.811276412657
 20
-1839.540017220716
 30
0.0
 11
2409.811276412657
 21
-1841.540017220716
 31
0.0
  0
LINE
  5
16D01
330
18
100
AcDbEntity
  8
0
  6
BYBLOCK
100
AcDbLine
 10
2410.347174792657
 20
-1879.540017220715
 30
0.0
 11
2409.811276412657
 21
-1881.540017220715
 31
0.0
  0
LINE
  5
16D02
330
18
100
AcDbEntity
  8
0
  6
BYBLOCK
100
AcDbLine
 10
2409.811276412657
 20
-1881.540017220715
 30
0.0
 11
2409.275378032657
 21
-1879.540017220715
 31
0.0
  0
LINE
  5
16D03
330
18
100
AcDbEntity
  8
0
  6
BYBLOCK
100
AcDbLine
 10
2409.811276412657
 20
-1881.540017220715
 30
0.0
 11
2409.811276412657
 21
-1879.540017220715
 31
0.0
  0
TEXT
  5
16D04
330
18
100
AcDbEntity
  8
1DIM
  6
CONTINUOUS
100
AcDbText
 10
2409.111276412658
 20
-1863.456683887382
 30
0.0
 40
3.5
  1
42
 50
90.0
100
AcDbText
  0
LINE
  5
16D05
330
18
100
AcDbEntity
  8
0
  6
BYBLOCK
100
AcDbLine
 10
2409.275378032657
 20
-1841.540017220716
 30
0.0
 11
2409.811276412657
 21
-1839.540017220716
 31
0.0
  0
LINE
  5
16D06
330
18
100
AcDbEntity
  8
0
  6
BYBLOCK
100
AcDbLine
 10
2409.811276412657
 20
-1839.540017220716
 30
0.0
 11
2410.347174792657
 21
-1841.540017220716
 31
0.0
  0
LINE
  5
16D07
330
18
100
AcDbEntity
  8
0
  6
BYBLOCK
100
AcDbLine
 10
2409.811276412657
 20
-1839.540017220716
 30
0.0
 11
2409.811276412657
 21
-1841.540017220716
 31
0.0
  0
LINE
  5
16D08
330
18
100
AcDbEntity
  8
0
  6
BYBLOCK
100
AcDbLine
 10
2410.347174792657
 20
-1835.540017220716
 30
0.0
 11
2409.811276412657
 21
-1837.540017220716
 31
0.0
  0
LINE
  5
16D09
330
18
100
AcDbEntity
  8
0
  6
BYBLOCK
100
AcDbLine
 10
2409.811276412657
 20
-1837.540017220716
 30
0.0
 11
2409.275378032657
 21
-1835.540017220716
 31
0.0
  0
LINE
  5
16D0A
330
18
100
AcDbEntity
  8
0
  6
BYBLOCK
100
AcDbLine
 10
2409.811276412657
 20
-1837.540017220716
 30
0.0
 11
2409.811276412657
 21
-1835.540017220716
 31
0.0
  0
TEXT
  5
16D0B
330
18
100
AcDbEntity
  8
1DIM
  6
CONTINUOUS
100
AcDbText
 10
2409.111276412658
 20
-1832.840017220715
 30
0.0
 40
3.5
  1
2
 50
90.0
100
AcDbText
  0
LINE
  5
16D0C
330
18
100
AcDbEntity
  8
0
  6
BYBLOCK
100
AcDbLine
 10
2476.811276412657
 20
-1976.334964235656
 30
0.0
 11
2474.811276412657
 21
-1975.799065855656
 31
0.0
  0
LINE
  5
16D0D
330
18
100
AcDbEntity
  8
0
  6
BYBLOCK
100
AcDbLine
 10
2474.811276412657
 20
-1975.799065855656
 30
0.0
 11
2476.811276412657
 21
-1975.263167475656
 31
0.0
  0
LINE
  5
16D0E
330
18
100
AcDbEntity
  8
0
  6
BYBLOCK
100
AcDbLine
 10
2474.811276412657
 20
-1975.799065855656
 30
0.0
 11
2476.811276412657
 21
-1975.799065855656
 31
0.0
  0
LINE
  5
16D0F
330
18
100
AcDbEntity
  8
0
  6
BYBLOCK
100
AcDbLine
 10
2490.811276412658
 20
-1975.263167475656
 30
0.0
 11
2492.811276412658
 21
-1975.799065855656
 31
0.0
  0
LINE
  5
16D10
330
18
100
AcDbEntity
  8
0
  6
BYBLOCK
100
AcDbLine
 10
2492.811276412658
 20
-1975.799065855656
 30
0.0
 11
2490.811276412658
 21
-1976.334964235656
 31
0.0
  0
LINE
  5
16D11
330
18
100
AcDbEntity
  8
0
  6
BYBLOCK
100
AcDbLine
 10
2492.811276412658
 20
-1975.799065855656
 30
0.0
 11
2490.811276412658
 21
-1975.799065855656
 31
0.0
  0
TEXT
  5
16D12
330
18
100
AcDbEntity
  8
1DIM
  6
CONTINUOUS
100
AcDbText
 10
2481.477943079324
 20
-1975.099065855656
 30
0.0
 40
3.5
  1
18
100
AcDbText
  0
VIEWPORT
  5
57
330
15
100
AcDbEntity
 67
     1
  8
0
100
AcDbViewport
 68
     1
 10
0.0
 20
0.0
 30
0.0
 40
600.1703601108032
 41
297.0
 68
     1
 69
     1
1001
ACAD
1000
MVIEW
1002
{
1070
    16
1010
0.0
1020
0.0
1030
0.0
1010
0.0
1020
0.0
1030
1.0
1040
0.0
1040
297.0
1040
-4.272048862584541
1040
18.33904653606845
1040
50.0
1040
0.0
1040
0.0
1070
    16
1070
   100
1070
     0
1070
     1
1070
     0
1070
     0
1070
     0
1070
     0
1040
0.0
1040
0.0
1040
0.0
1040
10.0
1040
10.0
1040
10.0
1040
10.0
1070
     0
1002
{
1002
}
1002
}
  0
ENDSEC
  0
SECTION
  2
OBJECTS
  0
DICTIONARY
  5
C
330
0
100
AcDbDictionary
  3
ACAD_COLOR
350
2D0
  3
ACAD_GROUP
350
D
  3
ACAD_LAYOUT
350
2D1
  3
ACAD_MATERIAL
350
2CF
  3
ACAD_MLEADERSTYLE
350
15B98
  3
ACAD_MLINESTYLE
350
1B
  3
ACAD_PLOTSETTINGS
350
2D2
  3
ACAD_SCALELIST
350
15B76
  3
ACAD_VISUALSTYLE
350
15B65
  3
ACDBHEADERROUNDTRIPXREC
350
16D13
  3
ACDBVARIABLEDICTIONARY
350
37
  3
CONTENTDICTIONARY
350
D8
  3
DRAWINGVARIABLESDICT
350
20
  3
DWGPROPS
350
16D16
1001
ACAD
1000
TREAT_AS_HARD
1070
     0
  0
DICTIONARY
  5
14EC2
330
2
100
AcDbDictionary
  3
ACAD_LAYERSTATES
360
14EC3
1001
ACAD
1000
TREAT_AS_HARD
1070
     1
  0
DICTIONARY
  5
15BB5
330
E
100
AcDbDictionary
  3
ADSK_XREC_LAYER_RECONCILED
360
15BB6
1001
ACAD
1000
TREAT_AS_HARD
1070
     1
  0
DICTIONARY
  5
15BB7
330
29
100
AcDbDictionary
  3
ADSK_XREC_LAYER_RECONCILED
360
15BB8
1001
ACAD
1000
TREAT_AS_HARD
1070
     1
  0
DICTIONARY
  5
15BB9
330
31
100
AcDbDictionary
  3
ADSK_XREC_LAYER_RECONCILED
360
15BBA
1001
ACAD
1000
TREAT_AS_HARD
1070
     1
  0
DICTIONARY
  5
15BC3
330
101
100
AcDbDictionary
  3
ADSK_XREC_LAYER_RECONCILED
360
15BC4
1001
ACAD
1000
TREAT_AS_HARD
1070
     1
  0
DICTIONARY
  5
15BC7
330
103
100
AcDbDictionary
  3
ADSK_XREC_LAYER_RECONCILED
360
15BC8
1001
ACAD
1000
TREAT_AS_HARD
1070
     1
  0
DICTIONARY
  5
15BCB
330
25F
100
AcDbDictionary
  3
ADSK_XREC_LAYER_RECONCILED
360
15BCC
1001
ACAD
1000
TREAT_AS_HARD
1070
     1
  0
DICTIONARY
  5
15BE7
330
26D
100
AcDbDictionary
  3
ADSK_XREC_LAYER_RECONCILED
360
15BE8
1001
ACAD
1000
TREAT_AS_HARD
1070
     1
  0
DICTIONARY
  5
6E9
330
18
100
AcDbDictionary
  3
ACAD_SORTENTS
360
6EA
1001
ACAD
1000
TREAT_AS_HARD
1070
     1
  0
DICTIONARY
  5
59B
330
15
100
AcDbDictionary
  3
ACAD_SORTENTS
360
59C
1001
ACAD
1000
TREAT_AS_HARD
1070
     1
  0
DICTIONARY
  5
2D0
102
{ACAD_REACTORS
330
C
102
}
330
C
100
AcDbDictionary
1001
ACAD
1000
TREAT_AS_HARD
1070
     0
  0
DICTIONARY
  5
D
102
{ACAD_REACTORS
330
C
102
}
330
C
100
AcDbDictionary
  3
*A1
350
16961
1001
ACAD
1000
TREAT_AS_HARD
1070
     0
  0
DICTIONARY
  5
2D1
102
{ACAD_REACTORS
330
C
102
}
330
C
100
AcDbDictionary
1001
ACAD
1000
TREAT_AS_HARD
1070
     0
  0
DICTIONARY
  5
2CF
102
{ACAD_REACTORS
330
C
102
}
330
C
100
AcDbDictionary
  3
BYBLOCK
350
15B55
  3
BYLAYER
350
15B4D
  3
GLOBAL
350
15B5D
1001
ACAD
1000
TREAT_AS_HARD
1070
     0
  0
DICTIONARY
  5
15B98
102
{ACAD_REACTORS
330
C
102
}
330
C
100
AcDbDictionary
  3
STANDARD
350
15B99
1001
ACAD
1000
TREAT_AS_HARD
1070
     0
  0
DICTIONARY
  5
1B
102
{ACAD_REACTORS
330
C
102
}
330
C
100
AcDbDictionary
  3
STANDARD
350
1C
1001
ACAD
1000
TREAT_AS_HARD
1070
     0
  0
DICTIONARY
  5
2D2
102
{ACAD_REACTORS
330
C
102
}
330
C
100
AcDbDictionary
1001
ACAD
1000
TREAT_AS_HARD
1070
     0
  0
DICTIONARY
  5
15B76
102
{ACAD_REACTORS
330
C
102
}
330
C
100
AcDbDictionary
  3
A0
350
15B77
  3
A1
350
15B78
  3
A2
350
15B79
  3
A3
350
15B7A
  3
A4
350
15B7B
  3
A5
350
15B7C
  3
A6
350
15B7D
  3
A7
350
15B7E
  3
A8
350
15B7F
  3
A9
350
15B80
  3
B0
350
15B81
  3
B1
350
15B82
  3
B2
350
15B83
  3
B3
350
15B84
  3
B4
350
15B85
  3
B5
350
15B86
  3
B6
350
15B87
  3
B7
350
15B88
  3
B8
350
15B89
  3
B9
350
15B8A
  3
C0
350
15B8B
  3
C1
350
15B8C
  3
C2
350
15B8D
  3
C3
350
15B8E
  3
C4
350
15B8F
  3
C5
350
15B90
  3
C6
350
15B91
  3
C7
350
15B92
  3
C8
350
15B93
  3
C9
350
15B94
  3
D0
350
15B95
  3
D1
350
15B96
  3
D2
350
15B97
1001
ACAD
1000
TREAT_AS_HARD
1070
     0
  0
DICTIONARY
  5
15B65
102
{ACAD_REACTORS
330
C
102
}
330
C
100
AcDbDictionary
  3
2DWIREFRAME
350
15B6B
  3
3D_HIDDEN
350
15B6D
  3
3DWIREFRAME
350
15B6C
  3
BASIC
350
15B6A
  3
BRIGHTEN
350
15B71
  3
COLORCHANGE
350
15B75
  3
CONCEPTUAL
350
15B6E
  3
DIM
350
15B70
  3
EDGECOLOROFF
350
16BFE
  3
FACEPATTERN
350
15B74
  3
FLAT
350
15B66
  3
FLATWITHEDGES
350
15B67
  3
GOURAUD
350
15B68
  3
GOURAUDWITHEDGES
350
15B69
  3
HIDDEN
350
16BFB
  3
JITTEROFF
350
16BFC
  3
LINEPATTERN
350
15B73
  3
MODELING
350
16C04
  3
OVERHANGOFF
350
16BFD
  3
REALISTIC
350
15B6F
  3
SHADED
350
16C03
  3
SHADED_WITH_EDGES
350
16C02
  3
SHADES_OF_GRAY
350
16BFF
  3
SKETCHY
350
16C00
  3
THICKEN
350
15B72
  3
WIREFRAME
350
16BFA
  3
X-RAY
350
16C01
1001
ACAD
1000
TREAT_AS_HARD
1070
     0
  0
DICTIONARY
  5
16D13
102
{ACAD_REACTORS
330
C
102
}
330
C
100
AcDbDictionary
  3
COLORDICT
350
16D14
  3
MATERIALDICT
350
16D15
1001
ACAD
1000
TREAT_AS_HARD
1070
     0
  0
DICTIONARY
  5
37
102
{ACAD_REACTORS
330
C
102
}
330
C
100
AcDbDictionary
  3
CANNOSCALE
350
16C3F
  3
CMLEADERSTYLE
350
15C4B
  3
CTABLESTYLE
350
4F1
  3
DIMADEC
350
38
  3
DIMASSOC
350
408
  3
HIDETEXT
350
1891
  3
INDEXCTL
350
15C4E
  3
INTERSECTIONCOLOR
350
1895
  3
INTERSECTIONDISPLAY
350
1894
  3
MSLTSCALE
350
16C89
  3
OBSCOLOR
350
1892
  3
OBSLTYPE
350
1893
  3
PROJECTNAME
350
409
  3
SORTENTS
350
15C4D
  3
XCLIPFRAME
350
16C40
1001
ACAD
1000
TREAT_AS_HARD
1070
     0
  0
DICTIONARY
  5
D8
102
{ACAD_REACTORS
330
C
102
}
330
C
100
AcDbDictionary
1001
CONTENTTABDATA
1070
    11
1000
Child
1000
D:\ACLT\TABset\CHILDREN.dwg
1070
     0
1070
     0
1070
     1
1000
PK
1000
D:\ACLT\TABset\PK.dwg
1070
     0
1070
     0
1070
     1
1000
Lev1
1000
D:\ACLT\TABset\Lever01.dwg
1070
     0
1070
     0
1070
     1
1000
Lev2
1000
D:\ACLT\TABset\Lever02.dwg
1070
     0
1070
     0
1070
     1
1000
L3
1000
D:\Aclt\TABset\Lever03.dwg
1070
     0
1070
     0
1070
     1
1000
Form
1000
D:\ACLT\FORMAT
1070
     1
1070
     0
1070
     1
1000
Jnt
1000
D:\ACLT\TABset\JOINTPARTS.dwg
1070
     0
1070
     0
1070
     1
1000
ISO
1000
D:\ACLT\TABset\Isome01.dwg
1070
     0
1070
     0
1070
     1
1000
R
1000
D:\ACLT\TABset\REGION.dwg
1070
     0
1070
     0
1070
     1
1000
std
1000
D:\ACLT\TABset\std_sym_all.dwg
1070
     0
1070
     0
1070
     1
1000
丸
1000
D:\Aclt\TABset\MARU.dwg
1070
     0
1070
     0
1070
     1
1001
CONTENTCURRENTTAB
1070
     0
1001
ACAD
1000
TREAT_AS_HARD
1070
     0
  0
DICTIONARY
  5
20
102
{ACAD_REACTORS
330
C
102
}
330
C
100
AcDbDictionary
1001
DRAWINGVARIABLESXDATA
1000
POLARANG
1000
0.261799387799149410000000
1000
POLARMODE
1000
1
1000
POLARSTYLE
1000
1
1001
ACAD
1000
TREAT_AS_HARD
1070
     0
  0
XRECORD
  5
16D16
102
{ACAD_REACTORS
330
C
102
}
330
C
100
AcDbXrecord
  1
DWGPROPS COOKIE
  2

  3

  4

  6

  7

  8
619
  9

300
=
301
=
302
=
303
=
304
=
305
=
306
=
307
=
308
=
309
=
 40
0.0
 41
2453033.357663484
 42
2458040.350194549
  1

 90
        0
  0
DICTIONARY
  5
14EC3
102
{ACAD_REACTORS
330
14EC2
102
}
330
14EC2
100
AcDbDictionary
1001
ACAD
1000
TREAT_AS_HARD
1070
     0
  0
ACAD_PROXY_OBJECT
  5
15BB6
102
{ACAD_REACTORS
330
15BB5
102
}
330
15BB5
100
AcDbZombieObject
 90
      499
 91
      517
 93
       34
310
40C8804040
  0
ACAD_PROXY_OBJECT
  5
15BB8
102
{ACAD_REACTORS
330
15BB7
102
}
330
15BB7
100
AcDbZombieObject
 90
      499
 91
      517
 93
       34
310
40C8804040
  0
ACAD_PROXY_OBJECT
  5
15BBA
102
{ACAD_REACTORS
330
15BB9
102
}
330
15BB9
100
AcDbZombieObject
 90
      499
 91
      517
 93
       34
310
40C8804040
  0
ACAD_PROXY_OBJECT
  5
15BC4
102
{ACAD_REACTORS
330
15BC3
102
}
330
15BC3
100
AcDbZombieObject
 90
      499
 91
      517
 93
       34
310
40C8804040
  0
ACAD_PROXY_OBJECT
  5
15BC8
102
{ACAD_REACTORS
330
15BC7
102
}
330
15BC7
100
AcDbZombieObject
 90
      499
 91
      517
 93
       34
310
40C8804040
  0
ACAD_PROXY_OBJECT
  5
15BCC
102
{ACAD_REACTORS
330
15BCB
102
}
330
15BCB
100
AcDbZombieObject
 90
      499
 91
      517
 93
       34
310
40C8804040
  0
ACAD_PROXY_OBJECT
  5
15BE8
102
{ACAD_REACTORS
330
15BE7
102
}
330
15BE7
100
AcDbZombieObject
 90
      499
 91
      517
 93
       34
310
40C8804040
  0
SORTENTSTABLE
  5
6EA
102
{ACAD_REACTORS
330
6E9
102
}
330
6E9
100
AcDbSortentsTable
330
18
331
1601D
  5
15A54
331
1601E
  5
15A56
331
1601F
  5
15A57
331
1602A
  5
15ABD
331
1602B
  5
15ABE
331
1602C
  5
15ABF
331
1602D
  5
15AC0
331
1602E
  5
15AC1
331
1602F
  5
15AC2
331
16030
  5
15AC3
331
16031
  5
15AC4
331
16032
  5
15AC5
331
16033
  5
15AC6
331
16034
  5
15AC7
331
1606F
  5
15A45
331
16070
  5
15A46
331
16071
  5
15A49
331
16073
  5
15A4C
331
164DF
  5
16505
331
164E0
  5
16506
331
0
  5
165B5
331
0
  5
1674E
331
1674E
  5
1675B
331
1674F
  5
1675D
331
16750
  5
1675E
331
16751
  5
1675F
331
16752
  5
16769
331
16753
  5
1676B
331
16754
  5
1676C
331
16755
  5
1676D
331
16756
  5
1676E
331
16757
  5
1676F
331
16758
  5
16779
331
16759
  5
1677A
331
1675A
  5
1677B
331
1675B
  5
1677E
331
1675C
  5
1677F
331
1675D
  5
16780
331
1675E
  5
16781
331
1675F
  5
16782
331
16765
  5
16784
331
16768
  5
16786
331
16769
  5
16787
331
1676B
  5
16789
331
1676C
  5
1678B
331
1676D
  5
1678D
331
1676E
  5
1678E
331
1676F
  5
167A0
331
16779
  5
167A2
331
1677A
  5
167A3
331
1677B
  5
167A4
331
1677C
  5
167BB
331
1677D
  5
16816
331
1677E
  5
16819
331
1677F
  5
1681A
331
16780
  5
1681D
331
16781
  5
1681E
331
16782
  5
1681F
331
16783
  5
16820
331
16784
  5
16821
331
0
  5
1681B
331
0
  5
1681C
331
16788
  5
1683E
331
16789
  5
1683F
331
1678A
  5
16842
331
1678B
  5
16843
331
1678C
  5
16844
331
1678D
  5
16845
331
1678E
  5
16846
331
1678F
  5
1685A
331
1679D
  5
1685B
331
1679F
  5
1686E
331
167A0
  5
1686F
331
167A1
  5
16870
331
167A2
  5
16871
331
167A3
  5
16872
331
167A4
  5
16873
331
167BB
  5
16874
331
167BC
  5
16875
331
0
  5
1682E
331
16819
  5
16909
331
1681A
  5
1690A
331
1681B
  5
1690B
331
1681C
  5
1690C
331
1681D
  5
1690D
331
1681E
  5
1690E
331
1681F
  5
1690F
331
16820
  5
16910
331
16821
  5
16911
331
16822
  5
16912
331
16823
  5
16913
331
16824
  5
16914
331
16825
  5
16915
331
16826
  5
16916
331
16827
  5
16917
331
16828
  5
16918
331
16829
  5
16919
331
1682A
  5
1691A
331
1682B
  5
1691B
331
1682C
  5
1691C
331
1682D
  5
1691D
331
1682E
  5
16921
331
1682F
  5
16922
331
16830
  5
16923
331
16831
  5
16927
331
16832
  5
16928
331
16833
  5
16929
331
16834
  5
1692D
331
16835
  5
1692E
331
16836
  5
1692F
331
16837
  5
16933
331
16838
  5
16934
331
16839
  5
16935
331
1683A
  5
16936
331
1683B
  5
16937
331
1683C
  5
1693B
331
16842
  5
1693C
331
16843
  5
1693D
331
16844
  5
1693E
331
16845
  5
1693F
331
16846
  5
16940
331
16847
  5
16941
331
16870
  5
1677D
331
0
  5
168FD
331
0
  5
168FE
331
0
  5
168FF
331
0
  5
16900
331
0
  5
16901
331
168FA
  5
16977
331
168FB
  5
16978
331
168FC
  5
16979
331
168FD
  5
1697A
331
168FE
  5
1697B
331
168FF
  5
1697C
331
16900
  5
1697D
331
16901
  5
1697E
331
16902
  5
1697F
331
16903
  5
16980
331
16904
  5
16981
331
16905
  5
16982
331
16906
  5
16983
331
16907
  5
16984
331
16908
  5
16985
331
16909
  5
16986
331
1690A
  5
16987
331
1690B
  5
16988
331
1690C
  5
16989
331
1690D
  5
1698A
331
1690E
  5
1698B
331
1690F
  5
1698C
331
16910
  5
1698D
331
16911
  5
1698E
331
16912
  5
1698F
331
16913
  5
16990
331
16914
  5
16991
331
16915
  5
16992
331
16916
  5
16993
331
16917
  5
16994
331
16918
  5
16995
331
16919
  5
16996
331
1691A
  5
16997
331
1691B
  5
16998
331
1691C
  5
16999
331
1691D
  5
1699A
331
1691E
  5
1699B
331
1691F
  5
1699C
331
16920
  5
1699D
331
16921
  5
1699E
331
16922
  5
1699F
331
16923
  5
169A0
331
16924
  5
169AF
331
16925
  5
169B0
331
16926
  5
169B1
331
16927
  5
169B2
331
16928
  5
169B3
331
16929
  5
169B4
331
1692A
  5
169B5
331
1692B
  5
169B6
331
1692C
  5
169B7
331
1692D
  5
169B8
331
1692E
  5
169B9
331
1692F
  5
16C8D
331
16930
  5
16C8E
331
16931
  5
16C8F
331
16932
  5
16C90
331
16933
  5
16C91
331
16934
  5
16C92
331
16935
  5
16C93
331
16936
  5
16C94
331
16937
  5
16C95
331
16938
  5
16C96
331
16939
  5
16C97
331
1693A
  5
16C98
331
1693B
  5
16C99
331
1693C
  5
16C9A
331
1693D
  5
16C9B
331
1693E
  5
16C9C
331
1693F
  5
16C9D
331
16940
  5
16C9E
331
16941
  5
16C9F
331
16942
  5
16CA0
331
16943
  5
16CA1
331
16944
  5
16CA2
331
16945
  5
16CA3
331
16946
  5
16CA4
331
16947
  5
16CA5
331
16948
  5
16CA6
331
16949
  5
16CA7
331
1694A
  5
16CA8
331
1694B
  5
16CA9
331
1694C
  5
16CAA
331
1694D
  5
16CAB
331
1694E
  5
16CAC
331
1694F
  5
16CAD
331
16950
  5
16CAE
331
16951
  5
16CAF
331
16952
  5
16CB0
331
16953
  5
16CB1
331
16954
  5
16CB2
331
16955
  5
16CB3
331
16956
  5
16CB4
331
16957
  5
16CB5
331
16958
  5
16CB6
331
16959
  5
16CB7
331
1695A
  5
16CB8
331
1695B
  5
16CB9
331
1695C
  5
16CBA
331
1695D
  5
16CBB
331
1695E
  5
16CBC
331
1695F
  5
16CBD
331
16960
  5
16CBE
331
16966
  5
15AC9
331
1696A
  5
16CBF
331
1696B
  5
16CC0
331
1696C
  5
16CC1
331
1696D
  5
16CC2
331
1696E
  5
16CC3
331
1696F
  5
16CC4
331
16970
  5
16CC5
331
16971
  5
16CC6
331
16972
  5
16CC7
331
16973
  5
16CC8
331
16974
  5
16CCC
331
16975
  5
16CCD
331
16976
  5
16CCE
331
16977
  5
16CCF
331
16978
  5
16CD0
331
16979
  5
16CD1
331
1697A
  5
16CD2
331
1697B
  5
16CD3
331
1697C
  5
16CD4
331
1697D
  5
16CD5
331
1697E
  5
16CD6
331
1697F
  5
16CD7
331
16980
  5
16CD8
331
16981
  5
16CD9
331
16982
  5
16CDA
331
16983
  5
16CDB
331
16984
  5
16CDC
331
16985
  5
16CDD
331
16986
  5
16CDE
331
16987
  5
16CDF
331
16988
  5
16CE0
331
16989
  5
16CE1
331
1698A
  5
16CE2
331
1698B
  5
16CE3
331
1698C
  5
16CE4
331
1698D
  5
16CE5
331
1698E
  5
16CE6
331
1698F
  5
16CE7
331
16990
  5
16CE8
331
16991
  5
16CE9
331
16992
  5
16CEA
331
16993
  5
16CEB
331
16994
  5
16CEC
331
16995
  5
16CED
331
16996
  5
16CEE
331
16997
  5
16CEF
331
16998
  5
16CF0
331
16999
  5
16CF1
331
1699A
  5
16CF2
331
1699B
  5
16CF3
331
1699C
  5
16CF4
331
1699D
  5
16CF5
331
1699E
  5
16CF6
331
1699F
  5
16CF7
331
169A0
  5
16CF8
331
169AF
  5
16CF9
331
169B0
  5
16CFA
331
169B1
  5
16CFB
331
169B2
  5
16CFC
331
169B3
  5
16CFD
331
169B4
  5
16CFE
331
169B5
  5
16CFF
331
169B6
  5
16D00
331
169B7
  5
16D01
331
169B8
  5
16D02
331
169B9
  5
16D03
331
16C8D
  5
16752
331
16C8E
  5
16753
331
16C8F
  5
16754
331
16C90
  5
16755
331
16C91
  5
16756
331
16C92
  5
16822
331
16C93
  5
16823
331
16C94
  5
16824
331
0
  5
16825
331
0
  5
16826
331
0
  5
16827
331
16C98
  5
16833
331
16C99
  5
16834
331
16C9A
  5
16835
331
0
  5
1682B
331
0
  5
1682C
331
0
  5
1682D
331
16C9E
  5
16876
331
16C9F
  5
16877
331
16CA0
  5
1688A
331
16CA1
  5
168A9
331
0
  5
16847
331
16CA3
  5
16906
331
16CA4
  5
16907
331
16CA5
  5
16908
331
16CA6
  5
16942
331
16CA7
  5
16943
331
16CA8
  5
16944
331
0
  5
1691E
331
0
  5
1691F
331
0
  5
16920
331
16CAC
  5
1694C
331
16CAD
  5
1694D
331
16CAE
  5
1694E
331
0
  5
16924
331
0
  5
16925
331
0
  5
16926
331
16CB2
  5
16956
331
16CB3
  5
16957
331
16CB4
  5
16958
331
0
  5
1692A
331
0
  5
1692B
331
0
  5
1692C
331
16CB8
  5
16960
331
16CB9
  5
16962
331
16CBA
  5
16963
331
0
  5
16930
331
0
  5
16931
331
0
  5
16932
331
16CBE
  5
1696B
331
16CBF
  5
1696C
331
16CC0
  5
1696D
331
16CC1
  5
1696E
331
16CC2
  5
1696F
331
0
  5
16938
331
0
  5
16939
331
0
  5
1693A
331
16CC6
  5
16D04
331
16CC7
  5
16D05
331
16CC8
  5
16D06
331
16CCC
  5
16D0E
331
16CCD
  5
16D0F
331
16CCE
  5
16D10
331
16CCF
  5
16D11
331
16CD0
  5
16D12
331
16CD1
  5
16828
331
16CD2
  5
16829
331
16CD3
  5
1682A
331
16CD4
  5
1682F
331
16CD5
  5
16830
331
16CD6
  5
16831
331
16CD7
  5
16832
331
16CD8
  5
16836
331
16CD9
  5
16837
331
16CDA
  5
16838
331
16CDB
  5
16839
331
16CDC
  5
1683A
331
16CDD
  5
1683B
331
16CDE
  5
1683C
331
16CDF
  5
168B6
331
16CE0
  5
168DE
331
16CE1
  5
168EB
331
16CE2
  5
168FA
331
16CE3
  5
168FB
331
16CE4
  5
168FC
331
16CE5
  5
16902
331
16CE6
  5
16903
331
16CE7
  5
16904
331
16CE8
  5
16905
331
16CE9
  5
16945
331
16CEA
  5
16946
331
16CEB
  5
16947
331
16CEC
  5
16948
331
16CED
  5
16949
331
16CEE
  5
1694A
331
16CEF
  5
1694B
331
16CF0
  5
1694F
331
16CF1
  5
16950
331
16CF2
  5
16951
331
16CF3
  5
16952
331
16CF4
  5
16953
331
16CF5
  5
16954
331
16CF6
  5
16955
331
16CF7
  5
16959
331
16CF8
  5
1695A
331
16CF9
  5
1695B
331
16CFA
  5
1695C
331
16CFB
  5
1695D
331
16CFC
  5
1695E
331
16CFD
  5
1695F
331
16CFE
  5
16964
331
16CFF
  5
16965
331
16D00
  5
16966
331
16D01
  5
16967
331
16D02
  5
16968
331
16D03
  5
16969
331
16D04
  5
1696A
331
16D05
  5
16970
331
16D06
  5
16971
331
16D07
  5
16972
331
16D08
  5
16973
331
16D09
  5
16974
331
16D0A
  5
16975
331
16D0B
  5
16976
331
16D0C
  5
16D07
331
16D0D
  5
16D08
331
16D0E
  5
16D09
331
16D0F
  5
16D0A
331
16D10
  5
16D0B
331
16D11
  5
16D0C
331
16D12
  5
16D0D
  0
SORTENTSTABLE
  5
59C
102
{ACAD_REACTORS
330
59B
102
}
330
59B
100
AcDbSortentsTable
330
15
331
57
  5
57
331
0
  5
70
331
0
  5
15E0C
331
0
  5
15E0D
331
0
  5
15E0E
331
0
  5
15E0F
331
0
  5
15E10
331
0
  5
15E11
331
0
  5
15E12
331
0
  5
15E13
331
0
  5
15E14
331
0
  5
15E15
331
0
  5
15E16
331
0
  5
15E17
331
0
  5
15E18
331
0
  5
15E19
331
0
  5
15E1A
331
0
  5
15FEC
331
0
  5
15FED
331
0
  5
15FEE
331
0
  5
15FEF
331
0
  5
15E1C
331
0
  5
15E1D
331
0
  5
15E1E
331
0
  5
15E1F
331
0
  5
15E20
331
0
  5
15E21
331
0
  5
15E22
331
0
  5
15E23
331
0
  5
15E24
331
0
  5
15E25
331
0
  5
15E26
331
0
  5
15E27
331
0
  5
15E28
331
0
  5
15E29
331
0
  5
15E2A
331
0
  5
15E2B
331
0
  5
15E2C
331
0
  5
15E2D
331
0
  5
15E2E
331
0
  5
15E2F
331
0
  5
15E30
331
0
  5
15E31
331
0
  5
15E32
331
0
  5
15E33
331
0
  5
15E34
331
0
  5
15E35
331
0
  5
15E36
331
0
  5
15E37
331
0
  5
15E38
331
0
  5
15E39
331
0
  5
15E3A
331
0
  5
15E3B
331
0
  5
15E3C
331
0
  5
15E3D
331
0
  5
15E3E
331
0
  5
15E3F
331
0
  5
15E40
331
0
  5
15E41
331
0
  5
15E42
331
0
  5
15E43
331
0
  5
15E44
331
0
  5
15E45
331
0
  5
15E46
331
0
  5
15E47
331
0
  5
15E48
331
0
  5
15E49
331
0
  5
15E4A
331
0
  5
15E4B
331
0
  5
15E4C
331
0
  5
15E4D
331
0
  5
15E4E
331
0
  5
15E4F
331
0
  5
15E50
331
0
  5
15E51
331
0
  5
15E52
331
0
  5
15E53
331
0
  5
15E54
331
0
  5
15E55
331
0
  5
15E56
331
0
  5
15E57
331
0
  5
15E58
331
0
  5
15E59
331
0
  5
15E5A
331
0
  5
15E5B
331
0
  5
15E5C
331
0
  5
15FCD
331
0
  5
15FCE
331
0
  5
15FCF
331
0
  5
15FD0
331
0
  5
15FD1
331
0
  5
15FD2
331
0
  5
15FD3
331
0
  5
15FD4
331
0
  5
15FD5
331
0
  5
15FD6
331
0
  5
15FD7
331
0
  5
15FD8
331
0
  5
15FD9
331
0
  5
15FDA
331
0
  5
15FDB
331
0
  5
15FDC
331
0
  5
15FDD
331
0
  5
15FDE
331
0
  5
15FDF
331
0
  5
15FE0
331
0
  5
15FE1
331
0
  5
15FE2
331
0
  5
15FE3
331
0
  5
15FE4
331
0
  5
15FE5
331
0
  5
15FE6
331
0
  5
15FE7
331
0
  5
15FE8
331
0
  5
15FE9
331
0
  5
15FEA
331
0
  5
15FEB
331
0
  5
15F8E
331
0
  5
15F8F
331
0
  5
15F90
331
0
  5
15F91
331
0
  5
15F92
331
0
  5
15F93
331
0
  5
15F94
331
0
  5
15F95
331
0
  5
15F96
331
0
  5
15F97
331
0
  5
15F98
331
0
  5
15F99
331
0
  5
15F9A
331
0
  5
15F9B
331
0
  5
15F9C
331
0
  5
15F9D
331
0
  5
15F9E
331
0
  5
15F9F
331
0
  5
15FA0
331
0
  5
15FA1
331
0
  5
15FA2
331
0
  5
15FA3
331
0
  5
15FA4
331
0
  5
15FA5
331
0
  5
15FA6
331
0
  5
15FA7
331
0
  5
15FA8
331
0
  5
15FA9
331
0
  5
15FAA
331
0
  5
15FAB
331
0
  5
15FAC
331
0
  5
15FAD
331
0
  5
15FAE
331
0
  5
15FAF
331
0
  5
15FB0
331
0
  5
15FB1
331
0
  5
15FB2
331
0
  5
15FB3
331
0
  5
15FB4
331
0
  5
15FB5
331
0
  5
15FB6
331
0
  5
15FB7
331
0
  5
15FB8
331
0
  5
15FB9
331
0
  5
15FBA
331
0
  5
15FBB
331
0
  5
15FBC
331
0
  5
15FBD
331
0
  5
15FBE
331
0
  5
15FBF
331
0
  5
15FC0
331
0
  5
15FC1
331
0
  5
15FC2
331
0
  5
15FC3
331
0
  5
15FC4
331
0
  5
15FC5
331
0
  5
15FC6
331
0
  5
15FC7
331
0
  5
15FC8
331
0
  5
15FC9
331
0
  5
15FCA
331
0
  5
15FCB
331
0
  5
15FCC
331
0
  5
15F51
331
0
  5
15F52
331
0
  5
15F53
331
0
  5
15F54
331
0
  5
15F55
331
0
  5
15F56
331
0
  5
15F57
331
0
  5
15F58
331
0
  5
15F59
331
0
  5
15F5A
331
0
  5
15F5B
331
0
  5
15F5C
331
0
  5
15F5D
331
0
  5
15F5E
331
0
  5
15F5F
331
0
  5
15F60
331
0
  5
15F61
331
0
  5
15F62
331
0
  5
15F63
331
0
  5
15F64
331
0
  5
15F65
331
0
  5
15F66
331
0
  5
15F67
331
0
  5
15F68
331
0
  5
15F69
331
0
  5
15F6A
331
0
  5
15F6B
331
0
  5
15F6C
331
0
  5
15F6D
331
0
  5
15F6E
331
0
  5
15F6F
331
0
  5
15F70
331
0
  5
15F71
331
0
  5
15F72
331
0
  5
15F73
331
0
  5
15F74
331
0
  5
15F75
331
0
  5
15F76
331
0
  5
15F77
331
0
  5
15F78
331
0
  5
15F79
331
0
  5
15F7A
331
0
  5
15F7B
331
0
  5
15F7C
331
0
  5
15F7D
331
0
  5
15F7E
331
0
  5
15F7F
331
0
  5
15F80
331
0
  5
15F81
331
0
  5
15F82
331
0
  5
15F83
331
0
  5
15F84
331
0
  5
15F85
331
0
  5
15F86
331
0
  5
15F87
331
0
  5
15F88
331
0
  5
15F89
331
0
  5
15F8A
331
0
  5
15F8B
331
0
  5
15F8C
331
0
  5
15F8D
331
0
  5
15F01
331
0
  5
15F02
331
0
  5
15F03
331
0
  5
15F04
331
0
  5
15F05
331
0
  5
15F06
331
0
  5
15F07
331
0
  5
15F08
331
0
  5
15F09
331
0
  5
15F0A
331
0
  5
15F0B
331
0
  5
15F0C
331
0
  5
15F0D
331
0
  5
15F0E
331
0
  5
15F0F
331
0
  5
15F10
331
0
  5
15F11
331
0
  5
15F12
331
0
  5
15F13
331
0
  5
15F14
331
0
  5
15F15
331
0
  5
15F16
331
0
  5
15F17
331
0
  5
15F18
331
0
  5
15F19
331
0
  5
15F1A
331
0
  5
15F1B
331
0
  5
15F1C
331
0
  5
15F1D
331
0
  5
15F1E
331
0
  5
15F1F
331
0
  5
15F20
331
0
  5
15F21
331
0
  5
15F22
331
0
  5
15F23
331
0
  5
15F24
331
0
  5
15F25
331
0
  5
15F26
331
0
  5
15F27
331
0
  5
15F28
331
0
  5
15F29
331
0
  5
15F2A
331
0
  5
15F2B
331
0
  5
15F2C
331
0
  5
15F2D
331
0
  5
15F2E
331
0
  5
15F2F
331
0
  5
15F30
331
0
  5
15F31
331
0
  5
15F32
331
0
  5
15F33
331
0
  5
15F34
331
0
  5
15F35
331
0
  5
15F36
331
0
  5
15F37
331
0
  5
15F38
331
0
  5
15F39
331
0
  5
15F3A
331
0
  5
15F3B
331
0
  5
15F3C
331
0
  5
15F3D
331
0
  5
15F3E
331
0
  5
15F3F
331
0
  5
15F40
331
0
  5
15F41
331
0
  5
15F42
331
0
  5
15F43
331
0
  5
15F44
331
0
  5
15F45
331
0
  5
15F46
331
0
  5
15F47
331
0
  5
15F48
331
0
  5
15F49
331
0
  5
15F4A
331
0
  5
15F4B
331
0
  5
15F4C
331
0
  5
15F4D
331
0
  5
15F4E
331
0
  5
15F4F
331
0
  5
15F50
331
0
  5
15EB0
331
0
  5
15EB1
331
0
  5
15EB2
331
0
  5
15EB3
331
0
  5
15EB4
331
0
  5
15EB5
331
0
  5
15EB6
331
0
  5
15EB7
331
0
  5
15EB8
331
0
  5
15EB9
331
0
  5
15EBA
331
0
  5
15EBB
331
0
  5
15EBC
331
0
  5
15EBD
331
0
  5
15EBE
331
0
  5
15EBF
331
0
  5
15EC0
331
0
  5
15EC1
331
0
  5
15EC2
331
0
  5
15EC3
331
0
  5
15EC4
331
0
  5
15EC5
331
0
  5
15EC6
331
0
  5
15EC7
331
0
  5
15EC8
331
0
  5
15EC9
331
0
  5
15ECA
331
0
  5
15ECB
331
0
  5
15ECC
331
0
  5
15ECD
331
0
  5
15ECE
331
0
  5
15ECF
331
0
  5
15ED0
331
0
  5
15ED1
331
0
  5
15ED2
331
0
  5
15ED3
331
0
  5
15ED4
331
0
  5
15ED5
331
0
  5
15ED6
331
0
  5
15ED7
331
0
  5
15ED8
331
0
  5
15ED9
331
0
  5
15EDA
331
0
  5
15EDB
331
0
  5
15EDC
331
0
  5
15EDD
331
0
  5
15EDE
331
0
  5
15EDF
331
0
  5
15EE0
331
0
  5
15EE1
331
0
  5
15EE2
331
0
  5
15EE3
331
0
  5
15EE4
331
0
  5
15EE5
331
0
  5
15EE6
331
0
  5
15EE7
331
0
  5
15EE8
331
0
  5
15EE9
331
0
  5
15EEA
331
0
  5
15EEB
331
0
  5
15EEC
331
0
  5
15EED
331
0
  5
15EEE
331
0
  5
15EEF
331
0
  5
15EF0
331
0
  5
15EF1
331
0
  5
15EF2
331
0
  5
15EF3
331
0
  5
15EF4
331
0
  5
15EF5
331
0
  5
15EF6
331
0
  5
15EF7
331
0
  5
15EF8
331
0
  5
15EF9
331
0
  5
15EFA
331
0
  5
15EFB
331
0
  5
15EFC
331
0
  5
15EFD
331
0
  5
15EFE
331
0
  5
15EFF
331
0
  5
15F00
331
0
  5
15E63
331
0
  5
15E64
331
0
  5
15E65
331
0
  5
15E66
331
0
  5
15E67
331
0
  5
15E68
331
0
  5
15E69
331
0
  5
15E6A
331
0
  5
15E6B
331
0
  5
15E6C
331
0
  5
15E6D
331
0
  5
15E6E
331
0
  5
15E6F
331
0
  5
15E70
331
0
  5
15E71
331
0
  5
15E72
331
0
  5
15E73
331
0
  5
15E74
331
0
  5
15E75
331
0
  5
15E76
331
0
  5
15E77
331
0
  5
15E78
331
0
  5
15E79
331
0
  5
15E7A
331
0
  5
15E7B
331
0
  5
15E7C
331
0
  5
15E7D
331
0
  5
15E7E
331
0
  5
15E7F
331
0
  5
15E80
331
0
  5
15E81
331
0
  5
15E82
331
0
  5
15E83
331
0
  5
15E84
331
0
  5
15E85
331
0
  5
15E86
331
0
  5
15E87
331
0
  5
15E88
331
0
  5
15E89
331
0
  5
15E8A
331
0
  5
15E8B
331
0
  5
15E8C
331
0
  5
15E8D
331
0
  5
15E8E
331
0
  5
15E8F
331
0
  5
15E90
331
0
  5
15E91
331
0
  5
15E92
331
0
  5
15E93
331
0
  5
15E94
331
0
  5
15E95
331
0
  5
15E96
331
0
  5
15E97
331
0
  5
15E98
331
0
  5
15E99
331
0
  5
15E9A
331
0
  5
15E9B
331
0
  5
15E9C
331
0
  5
15E9D
331
0
  5
15E9E
331
0
  5
15E9F
331
0
  5
15EA0
331
0
  5
15EA1
331
0
  5
15EA2
331
0
  5
15EA3
331
0
  5
15EA4
331
0
  5
15EA5
331
0
  5
15EA6
331
0
  5
15EA7
331
0
  5
15EA8
331
0
  5
15EA9
331
0
  5
15EAA
331
0
  5
15EAB
331
0
  5
15EAC
331
0
  5
15EAD
331
0
  5
15EAE
331
0
  5
15EAF
  0
GROUP
  5
16961
102
{ACAD_REACTORS
330
D
102
}
330
D
100
AcDbGroup
300

 70
     1
 71
     1
340
16960
340
1695F
340
1695E
340
1695D
340
1695C
340
1695B
340
1695A
340
16959
340
16958
340
16957
340
16956
340
16955
340
16954
340
16953
340
16952
340
16951
340
16950
340
1694F
340
1694E
340
1694D
340
1694C
340
1694B
340
1694A
340
16949
340
16948
340
16947
340
16946
340
16945
340
16944
340
16943
340
16942
340
16941
340
16940
340
1693F
340
1693E
340
1693D
340
1693C
340
1693B
340
1693A
340
16939
340
16938
340
16937
340
16936
340
16935
340
16934
340
16933
340
16932
340
16931
340
16930
340
1692F
340
1692E
340
1692D
340
1692C
340
1692B
340
1692A
340
16929
340
16928
340
16927
340
16926
340
16925
340
16924
340
16923
340
16922
340
16921
340
16920
340
1691F
340
1691E
340
1691D
340
1691C
340
1691B
340
1691A
340
16919
340
16918
340
16917
340
16916
340
16915
340
16914
340
16913
340
16912
340
16911
340
16910
340
1690F
340
1690E
340
1690D
340
1690C
340
1690B
340
1690A
340
16909
340
16908
340
16907
340
16906
340
16905
340
16904
340
16903
340
16902
340
16901
340
16900
340
168FF
340
168FE
340
168FD
340
168FC
340
168FB
340
168FA
  0
MATERIAL
  5
15B55
102
{ACAD_REACTORS
330
2CF
102
}
102
{ACAD_XDICTIONARY
360
16D17
102
}
330
2CF
100
AcDbMaterial
  1
BYBLOCK
 72
     0
 73
     2
 43
0.0208333333333333
 43
0.0
 43
0.0
 43
0.0
 43
0.0
 43
0.0208333333333333
 43
0.0
 43
0.0
 43
0.0
 43
0.0
 43
1.0
 43
0.0
 43
0.0
 43
0.0
 43
0.0
 43
1.0
 77
     0
 78
     2
 47
0.0208333333333333
 47
0.0
 47
0.0
 47
0.0
 47
0.0
 47
0.0208333333333333
 47
0.0
 47
0.0
 47
0.0
 47
0.0
 47
1.0
 47
0.0
 47
0.0
 47
0.0
 47
0.0
 47
1.0
171
     0
172
     2
 49
0.0208333333333333
 49
0.0
 49
0.0
 49
0.0
 49
0.0
 49
0.0208333333333333
 49
0.0
 49
0.0
 49
0.0
 49
0.0
 49
1.0
 49
0.0
 49
0.0
 49
0.0
 49
0.0
 49
1.0
175
     0
176
     2
142
0.0208333333333333
142
0.0
142
0.0
142
0.0
142
0.0
142
0.0208333333333333
142
0.0
142
0.0
142
0.0
142
0.0
142
1.0
142
0.0
142
0.0
142
0.0
142
0.0
142
1.0
179
     0
270
     2
144
0.0208333333333333
144
0.0
144
0.0
144
0.0
144
0.0
144
0.0208333333333333
144
0.0
144
0.0
144
0.0
144
0.0
144
1.0
144
0.0
144
0.0
144
0.0
144
0.0
144
1.0
274
     2
147
0.0208333333333333
147
0.0
147
0.0
147
0.0
147
0.0
147
0.0208333333333333
147
0.0
147
0.0
147
0.0
147
0.0
147
1.0
147
0.0
147
0.0
147
0.0
147
0.0
147
1.0
  0
MATERIAL
  5
15B4D
102
{ACAD_REACTORS
330
2CF
102
}
102
{ACAD_XDICTIONARY
360
16D19
102
}
330
2CF
100
AcDbMaterial
  1
BYLAYER
 72
     0
 73
     2
 43
0.0208333333333333
 43
0.0
 43
0.0
 43
0.0
 43
0.0
 43
0.0208333333333333
 43
0.0
 43
0.0
 43
0.0
 43
0.0
 43
1.0
 43
0.0
 43
0.0
 43
0.0
 43
0.0
 43
1.0
 77
     0
 78
     2
 47
0.0208333333333333
 47
0.0
 47
0.0
 47
0.0
 47
0.0
 47
0.0208333333333333
 47
0.0
 47
0.0
 47
0.0
 47
0.0
 47
1.0
 47
0.0
 47
0.0
 47
0.0
 47
0.0
 47
1.0
171
     0
172
     2
 49
0.0208333333333333
 49
0.0
 49
0.0
 49
0.0
 49
0.0
 49
0.0208333333333333
 49
0.0
 49
0.0
 49
0.0
 49
0.0
 49
1.0
 49
0.0
 49
0.0
 49
0.0
 49
0.0
 49
1.0
175
     0
176
     2
142
0.0208333333333333
142
0.0
142
0.0
142
0.0
142
0.0
142
0.0208333333333333
142
0.0
142
0.0
142
0.0
142
0.0
142
1.0
142
0.0
142
0.0
142
0.0
142
0.0
142
1.0
179
     0
270
     2
144
0.0208333333333333
144
0.0
144
0.0
144
0.0
144
0.0
144
0.0208333333333333
144
0.0
144
0.0
144
0.0
144
0.0
144
1.0
144
0.0
144
0.0
144
0.0
144
0.0
144
1.0
274
     2
147
0.0208333333333333
147
0.0
147
0.0
147
0.0
147
0.0
147
0.0208333333333333
147
0.0
147
0.0
147
0.0
147
0.0
147
1.0
147
0.0
147
0.0
147
0.0
147
0.0
147
1.0
  0
MATERIAL
  5
15B5D
102
{ACAD_REACTORS
330
2CF
102
}
102
{ACAD_XDICTIONARY
360
16D1B
102
}
330
2CF
100
AcDbMaterial
  1
GLOBAL
 72
     0
 73
     2
 43
0.0208333333333333
 43
0.0
 43
0.0
 43
0.0
 43
0.0
 43
0.0208333333333333
 43
0.0
 43
0.0
 43
0.0
 43
0.0
 43
1.0
 43
0.0
 43
0.0
 43
0.0
 43
0.0
 43
1.0
 77
     0
 78
     2
 47
0.0208333333333333
 47
0.0
 47
0.0
 47
0.0
 47
0.0
 47
0.0208333333333333
 47
0.0
 47
0.0
 47
0.0
 47
0.0
 47
1.0
 47
0.0
 47
0.0
 47
0.0
 47
0.0
 47
1.0
171
     0
172
     2
 49
0.0208333333333333
 49
0.0
 49
0.0
 49
0.0
 49
0.0
 49
0.0208333333333333
 49
0.0
 49
0.0
 49
0.0
 49
0.0
 49
1.0
 49
0.0
 49
0.0
 49
0.0
 49
0.0
 49
1.0
175
     0
176
     2
142
0.0208333333333333
142
0.0
142
0.0
142
0.0
142
0.0
142
0.0208333333333333
142
0.0
142
0.0
142
0.0
142
0.0
142
1.0
142
0.0
142
0.0
142
0.0
142
0.0
142
1.0
179
     0
270
     2
144
0.0208333333333333
144
0.0
144
0.0
144
0.0
144
0.0
144
0.0208333333333333
144
0.0
144
0.0
144
0.0
144
0.0
144
1.0
144
0.0
144
0.0
144
0.0
144
0.0
144
1.0
274
     2
147
0.0208333333333333
147
0.0
147
0.0
147
0.0
147
0.0
147
0.0208333333333333
147
0.0
147
0.0
147
0.0
147
0.0
147
1.0
147
0.0
147
0.0
147
0.0
147
0.0
147
1.0
  0
ACAD_PROXY_OBJECT
  5
15B99
102
{ACAD_REACTORS
330
15B98
102
}
330
15B98
100
AcDbZombieObject
 90
      499
 91
      512
 93
      610
310
40901902A4063FBFFFFFE000000000000002040AD7A3703D0AD73F4214DD185B99185C990000000000000104090141901A00000000000004100000000000000041025764000000000000300FC0
340
12
340
0
340
F
340
0
 94
        0
1001
ACAD_MLEADERVER
1070
     2
  0
MLINESTYLE
  5
1C
102
{ACAD_REACTORS
330
1B
102
}
330
1B
100
AcDbMlineStyle
  2
STANDARD
 70
     0
  3

 62
   256
 51
90.0
 52
90.0
 71
     2
 49
0.5
 62
   256
  6
BYLAYER
 49
-0.5
 62
   256
  6
BYLAYER
  0
ACAD_PROXY_OBJECT
  5
15B77
102
{ACAD_REACTORS
330
15B76
102
}
330
15B76
100
AcDbZombieObject
 90
      499
 91
      511
 93
       41
310
903313A31580
  0
ACAD_PROXY_OBJECT
  5
15B78
102
{ACAD_REACTORS
330
15B76
102
}
330
15B76
100
AcDbZombieObject
 90
      499
 91
      511
 93
      105
310
903313A324000000000000004000
  0
ACAD_PROXY_OBJECT
  5
15B79
102
{ACAD_REACTORS
330
15B76
102
}
330
15B76
100
AcDbZombieObject
 90
      499
 91
      511
 93
      105
310
903313A344000000000000104000
  0
ACAD_PROXY_OBJECT
  5
15B7A
102
{ACAD_REACTORS
330
15B76
102
}
330
15B76
100
AcDbZombieObject
 90
      499
 91
      511
 93
      105
310
903313A354000000000000144000
  0
ACAD_PROXY_OBJECT
  5
15B7B
102
{ACAD_REACTORS
330
15B76
102
}
330
15B76
100
AcDbZombieObject
 90
      499
 91
      511
 93
      105
310
903313A384000000000000204000
  0
ACAD_PROXY_OBJECT
  5
15B7C
102
{ACAD_REACTORS
330
15B76
102
}
330
15B76
100
AcDbZombieObject
 90
      499
 91
      511
 93
      113
310
904313A31304000000000000244000
  0
ACAD_PROXY_OBJECT
  5
15B7D
102
{ACAD_REACTORS
330
15B76
102
}
330
15B76
100
AcDbZombieObject
 90
      499
 91
      511
 93
      113
310
904313A31364000000000000304000
  0
ACAD_PROXY_OBJECT
  5
15B7E
102
{ACAD_REACTORS
330
15B76
102
}
330
15B76
100
AcDbZombieObject
 90
      499
 91
      511
 93
      113
310
904313A32304000000000000344000
  0
ACAD_PROXY_OBJECT
  5
15B7F
102
{ACAD_REACTORS
330
15B76
102
}
330
15B76
100
AcDbZombieObject
 90
      499
 91
      511
 93
      113
310
904313A333040000000000003E4000
  0
ACAD_PROXY_OBJECT
  5
15B80
102
{ACAD_REACTORS
330
15B76
102
}
330
15B76
100
AcDbZombieObject
 90
      499
 91
      511
 93
      113
310
904313A34304000000000000444000
  0
ACAD_PROXY_OBJECT
  5
15B81
102
{ACAD_REACTORS
330
15B76
102
}
330
15B76
100
AcDbZombieObject
 90
      499
 91
      511
 93
      113
310
904313A35304000000000000494000
  0
ACAD_PROXY_OBJECT
  5
15B82
102
{ACAD_REACTORS
330
15B76
102
}
330
15B76
100
AcDbZombieObject
 90
      499
 91
      511
 93
      121
310
905313A3130304000000000000594000
  0
ACAD_PROXY_OBJECT
  5
15B83
102
{ACAD_REACTORS
330
15B76
102
}
330
15B76
100
AcDbZombieObject
 90
      499
 91
      511
 93
      105
310
903323A310000000000000010100
  0
ACAD_PROXY_OBJECT
  5
15B84
102
{ACAD_REACTORS
330
15B76
102
}
330
15B76
100
AcDbZombieObject
 90
      499
 91
      511
 93
      105
310
903343A310000000000000410100
  0
ACAD_PROXY_OBJECT
  5
15B85
102
{ACAD_REACTORS
330
15B76
102
}
330
15B76
100
AcDbZombieObject
 90
      499
 91
      511
 93
      105
310
903383A310000000000000810100
  0
ACAD_PROXY_OBJECT
  5
15B86
102
{ACAD_REACTORS
330
15B76
102
}
330
15B76
100
AcDbZombieObject
 90
      499
 91
      511
 93
      113
310
90431303A310000000000000910100
  0
ACAD_PROXY_OBJECT
  5
15B87
102
{ACAD_REACTORS
330
15B76
102
}
330
15B76
100
AcDbZombieObject
 90
      499
 91
      511
 93
      121
310
9053130303A310000000000001650100
  0
ACAD_PROXY_OBJECT
  5
15B88
102
{ACAD_REACTORS
330
15B76
102
}
330
15B76
100
AcDbZombieObject
 90
      499
 91
      511
 93
      257
310
90E312F31323822203D2031272D3022000000000000200FC000000000000284000
  0
ACAD_PROXY_OBJECT
  5
15B89
102
{ACAD_REACTORS
330
15B76
102
}
330
15B76
100
AcDbZombieObject
 90
      499
 91
      511
 93
      249
310
90D312F363422203D2031272D3022000000000000240FC000000000000284000
  0
ACAD_PROXY_OBJECT
  5
15B8A
102
{ACAD_REACTORS
330
15B76
102
}
330
15B76
100
AcDbZombieObject
 90
      499
 91
      511
 93
      249
310
90D312F333222203D2031272D3022000000000000280FC000000000000284000
  0
ACAD_PROXY_OBJECT
  5
15B8B
102
{ACAD_REACTORS
330
15B76
102
}
330
15B76
100
AcDbZombieObject
 90
      499
 91
      511
 93
      249
310
90D312F313622203D2031272D30220000000000002C0FC000000000000284000
  0
ACAD_PROXY_OBJECT
  5
15B8C
102
{ACAD_REACTORS
330
15B76
102
}
330
15B76
100
AcDbZombieObject
 90
      499
 91
      511
 93
      249
310
90D332F333222203D2031272D30220000000000002E0FC000000000000284000
  0
ACAD_PROXY_OBJECT
  5
15B8D
102
{ACAD_REACTORS
330
15B76
102
}
330
15B76
100
AcDbZombieObject
 90
      499
 91
      511
 93
      241
310
90C312F3822203D2031272D3022000000000000300FC000000000000284000
  0
ACAD_PROXY_OBJECT
  5
15B8E
102
{ACAD_REACTORS
330
15B76
102
}
330
15B76
100
AcDbZombieObject
 90
      499
 91
      511
 93
      249
310
90D332F313622203D2031272D3022000000000000320FC000000000000284000
  0
ACAD_PROXY_OBJECT
  5
15B8F
102
{ACAD_REACTORS
330
15B76
102
}
330
15B76
100
AcDbZombieObject
 90
      499
 91
      511
 93
      241
310
90C312F3422203D2031272D3022000000000000340FC000000000000284000
  0
ACAD_PROXY_OBJECT
  5
15B90
102
{ACAD_REACTORS
330
15B76
102
}
330
15B76
100
AcDbZombieObject
 90
      499
 91
      511
 93
      241
310
90C332F3822203D2031272D3022000000000000360FC000000000000284000
  0
ACAD_PROXY_OBJECT
  5
15B91
102
{ACAD_REACTORS
330
15B76
102
}
330
15B76
100
AcDbZombieObject
 90
      499
 91
      511
 93
      241
310
90C312F3222203D2031272D3022000000000000380FC000000000000284000
  0
ACAD_PROXY_OBJECT
  5
15B92
102
{ACAD_REACTORS
330
15B76
102
}
330
15B76
100
AcDbZombieObject
 90
      499
 91
      511
 93
      241
310
90C332F3422203D2031272D30220000000000003A0FC000000000000284000
  0
ACAD_PROXY_OBJECT
  5
15B93
102
{ACAD_REACTORS
330
15B76
102
}
330
15B76
100
AcDbZombieObject
 90
      499
 91
      511
 93
      161
310
90A3122203D2031272D30224000000000000284000
  0
ACAD_PROXY_OBJECT
  5
15B94
102
{ACAD_REACTORS
330
15B76
102
}
330
15B76
100
AcDbZombieObject
 90
      499
 91
      511
 93
      257
310
90E312D312F3222203D2031272D30220000000000003E0FC000000000000284000
  0
ACAD_PROXY_OBJECT
  5
15B95
102
{ACAD_REACTORS
330
15B76
102
}
330
15B76
100
AcDbZombieObject
 90
      499
 91
      511
 93
      225
310
90A3322203D2031272D302200000000000002100000000000000284000
  0
ACAD_PROXY_OBJECT
  5
15B96
102
{ACAD_REACTORS
330
15B76
102
}
330
15B76
100
AcDbZombieObject
 90
      499
 91
      511
 93
      225
310
90A3622203D2031272D302200000000000006100000000000000284000
  0
ACAD_PROXY_OBJECT
  5
15B97
102
{ACAD_REACTORS
330
15B76
102
}
330
15B76
100
AcDbZombieObject
 90
      499
 91
      511
 93
      249
310
90D31272D3022203D2031272D30220000000000000A100000000000000284000
  0
ACAD_PROXY_OBJECT
  5
15B6B
102
{ACAD_REACTORS
330
15B65
102
}
330
15B65
100
AcDbZombieObject
 90
      499
 91
      510
 93
      436
310
42CC9915DA5C99599C985B595049028333333333333E3BF0000000000000FB0107901411070040501600405405064090741402480A0340
1001
ACAD
1000
AcDbSavedByObjectVersion
1070
     0
  0
ACAD_PROXY_OBJECT
  5
15B6D
102
{ACAD_REACTORS
330
15B65
102
}
330
15B65
100
AcDbZombieObject
 90
      499
 91
      510
 93
      500
310
424CD108121A5919195B90640502408333333333333E3BF0000000000000FB01079024090700405020000000000001110200405405064090740C02480A0340
1001
ACAD
1000
AcDbSavedByObjectVersion
1070
     0
  0
ACAD_PROXY_OBJECT
  5
15B6C
102
{ACAD_REACTORS
330
15B65
102
}
330
15B65
100
AcDbZombieObject
 90
      499
 91
      510
 93
      436
310
42CCD915DA5C99599C985B595059028333333333333E3BF0000000000000FB0107901411070040501600405405064090741402480A0340
1001
ACAD
1000
AcDbSavedByObjectVersion
1070
     0
  0
ACAD_PROXY_OBJECT
  5
15B6A
102
{ACAD_REACTORS
330
15B65
102
}
330
15B65
100
AcDbZombieObject
 90
      499
 91
      510
 93
      388
310
4150985CDA58D07406404333333333333E3BF0000000000000FB0107A41107004050150841D405064090741402480A0350
1001
ACAD
1000
AcDbSavedByObjectVersion
1070
     0
  0
ACAD_PROXY_OBJECT
  5
15B71
102
{ACAD_REACTORS
330
15B65
102
}
330
15B65
100
AcDbZombieObject
 90
      499
 91
      510
 93
      428
310
42109C9A59DA1D195B90C409028333333333333E3BF0000000000000FB010790141107004050150841D405064090741402480A029950
1001
ACAD
1000
AcDbSavedByObjectVersion
1070
     0
  0
ACAD_PROXY_OBJECT
  5
15B75
102
{ACAD_REACTORS
330
15B65
102
}
330
15B65
100
AcDbZombieObject
 90
      499
 91
      510
 93
      452
310
42D0DBDB1BDC90DA185B99D95104090240C333333333333E3BF0000000000000FB0108901411070040501508421405064090741402480A0350
1001
ACAD
1000
AcDbSavedByObjectVersion
1070
     0
  0
ACAD_PROXY_OBJECT
  5
15B6E
102
{ACAD_REACTORS
330
15B65
102
}
330
15B65
100
AcDbZombieObject
 90
      499
 91
      510
 93
      500
310
4290DBDB98D95C1D1D585B10940D028333333333333E3BF0000000000000FB0107902409070040501000000000000111010841D405064090740C02480A0340
1001
ACAD
1000
AcDbSavedByObjectVersion
1070
     0
  0
ACAD_PROXY_OBJECT
  5
15B70
102
{ACAD_REACTORS
330
15B65
102
}
330
15B65
100
AcDbZombieObject
 90
      499
 91
      510
 93
      412
310
40D11A5B50B409028333333333333E3BF0000000000000FB010790141107004050150841D405064090741402480A02677FFFFFD0
1001
ACAD
1000
AcDbSavedByObjectVersion
1070
     0
  0
ACAD_PROXY_OBJECT
  5
16BFE
102
{ACAD_REACTORS
330
15B65
102
}
330
15B65
100
AcDbZombieObject
 90
      499
 91
      510
 93
      452
310
43115919D950DBDB1BDC93D999916409028333333333333E33F0000000000000F9010790141107004050150841D405064090741402480A0350
1001
ACAD
1000
AcDbSavedByObjectVersion
1070
     0
  0
ACAD_PROXY_OBJECT
  5
15B74
102
{ACAD_REACTORS
330
15B65
102
}
330
15B65
100
AcDbZombieObject
 90
      499
 91
      510
 93
      444
310
42D19858D95C185D1D195C9B90F409028333333333333E3BF0000000000000FB010790141107004050150841D405064090741402480A0350
1001
ACAD
1000
AcDbSavedByObjectVersion
1070
     0
  0
ACAD_PROXY_OBJECT
  5
15B66
102
{ACAD_REACTORS
330
15B65
102
}
330
15B65
100
AcDbZombieObject
 90
      499
 91
      510
 93
      388
310
41119B185D240901404333333333333E3BF0000000000000F9010740A41107004050150841D405064090741402480A1B50
1001
ACAD
1000
AcDbSavedByObjectVersion
1070
     0
  0
ACAD_PROXY_OBJECT
  5
15B67
102
{ACAD_REACTORS
330
15B65
102
}
330
15B65
100
AcDbZombieObject
 90
      499
 91
      510
 93
      476
310
43519B185D15DA5D1A115919D95CD0140901404333333333333E3BF0000000000000F9010740901411070040501600405405064090741402480A1B50
1001
ACAD
1000
AcDbSavedByObjectVersion
1070
     0
  0
ACAD_PROXY_OBJECT
  5
15B68
102
{ACAD_REACTORS
330
15B65
102
}
330
15B65
100
AcDbZombieObject
 90
      499
 91
      510
 93
      412
310
41D1DBDD5C985D5910240902404333333333333E3BF0000000000000F9010740A411070040501641D405064090741402480A1B50
1001
ACAD
1000
AcDbSavedByObjectVersion
1070
     0
  0
ACAD_PROXY_OBJECT
  5
15B69
102
{ACAD_REACTORS
330
15B65
102
}
330
15B65
100
AcDbZombieObject
 90
      499
 91
      510
 93
      500
310
4411DBDD5C985D5915DA5D1A115919D95CD0340902404333333333333E3BF0000000000000F9010740901411070040501600405405064090741402480A1B50
1001
ACAD
1000
AcDbSavedByObjectVersion
1070
     0
  0
ACAD_PROXY_OBJECT
  5
16BFB
102
{ACAD_REACTORS
330
15B65
102
}
330
15B65
100
AcDbZombieObject
 90
      499
 91
      510
 93
      476
310
41921A5919195B90640502408333333333333E33F0000000000000F901079024090700405020000000000001110200405405064090740C02480A0340
1001
ACAD
1000
AcDbSavedByObjectVersion
1070
     0
  0
ACAD_PROXY_OBJECT
  5
16BFC
102
{ACAD_REACTORS
330
15B65
102
}
330
15B65
100
AcDbZombieObject
 90
      499
 91
      510
 93
      428
310
42529A5D1D195C93D999914409028333333333333E33F0000000000000F9010790141107004050150A41D405064090741402480A0350
1001
ACAD
1000
AcDbSavedByObjectVersion
1070
     0
  0
ACAD_PROXY_OBJECT
  5
15B73
102
{ACAD_REACTORS
330
15B65
102
}
330
15B65
100
AcDbZombieObject
 90
      499
 91
      510
 93
      444
310
42D31A5B995C185D1D195C9B90E409028333333333333E3BF0000000000000FB010790141107004050750841D405064090741402483A0350
1001
ACAD
1000
AcDbSavedByObjectVersion
1070
     0
  0
ACAD_PROXY_OBJECT
  5
16C04
102
{ACAD_REACTORS
330
15B65
102
}
330
15B65
100
AcDbZombieObject
 90
      499
 91
      510
 93
      484
310
42135BD9195B1A5B99D0A409038333333333333E33F0000000000000F901074090290700405010000000000201990108421405064090741402480A1B40
1001
ACAD
1000
AcDbSavedByObjectVersion
1070
     0
  0
ACAD_PROXY_OBJECT
  5
16BFD
102
{ACAD_REACTORS
330
15B65
102
}
330
15B65
100
AcDbZombieObject
 90
      499
 91
      510
 93
      444
310
42D3DD995C9A185B99D3D999915409028333333333333E33F0000000000000F9010790141107004050150941D405064090741402480A0350
1001
ACAD
1000
AcDbSavedByObjectVersion
1070
     0
  0
ACAD_PROXY_OBJECT
  5
15B6F
102
{ACAD_REACTORS
330
15B65
102
}
330
15B65
100
AcDbZombieObject
 90
      499
 91
      510
 93
      420
310
425499585B1A5CDD1A58D08409028333333333333E3BF0000000000000FB01079019070040501508421405064090741402480A1B40
1001
ACAD
1000
AcDbSavedByObjectVersion
1070
     0
  0
ACAD_PROXY_OBJECT
  5
16C03
102
{ACAD_REACTORS
330
15B65
102
}
330
15B65
100
AcDbZombieObject
 90
      499
 91
      510
 93
      420
310
4194DA1859195911B40902404333333333333E33F0000000000000F9010740A41107004050150800405405064090840C02480A0B40
1001
ACAD
1000
AcDbSavedByObjectVersion
1070
     0
  0
ACAD_PROXY_OBJECT
  5
16C02
102
{ACAD_REACTORS
330
15B65
102
}
330
15B65
100
AcDbZombieObject
 90
      499
 91
      510
 93
      516
310
4454DA18591959081DDA5D1A08195919D95CD1A40902404333333333333E33F0000000000000F901074090142907004050250800405405064090740C02480A0B40
1001
ACAD
1000
AcDbSavedByObjectVersion
1070
     0
  0
ACAD_PROXY_OBJECT
  5
16BFF
102
{ACAD_REACTORS
330
15B65
102
}
330
15B65
100
AcDbZombieObject
 90
      499
 91
      510
 93
      532
310
4394DA1859195CC81BD98811DC985E5174090240C333333333333E33F0000000000000F901079024090741D01000000000000111010841D405064090740C02480A0340
1001
ACAD
1000
AcDbSavedByObjectVersion
1070
     0
  0
ACAD_PROXY_OBJECT
  5
16C00
102
{ACAD_REACTORS
330
15B65
102
}
330
15B65
100
AcDbZombieObject
 90
      499
 91
      510
 93
      476
310
41D4DAD95D18DA1E51840502408333333333333E33F0000000000000F901079024090741D01000000000000111010B41D405064090741802480A0340
1001
ACAD
1000
AcDbSavedByObjectVersion
1070
     0
  0
ACAD_PROXY_OBJECT
  5
15B72
102
{ACAD_REACTORS
330
15B65
102
}
330
15B65
100
AcDbZombieObject
 90
      499
 91
      510
 93
      412
310
41D51A1A58DAD95B90D409028333333333333E3BF0000000000000FB010790141107004050150C41D405064090741402480A0350
1001
ACAD
1000
AcDbSavedByObjectVersion
1070
     0
  0
ACAD_PROXY_OBJECT
  5
16BFA
102
{ACAD_REACTORS
330
15B65
102
}
330
15B65
100
AcDbZombieObject
 90
      499
 91
      510
 93
      420
310
4255DA5C99599C985B595059028333333333333E33F0000000000000F90107901411070040501600405405064090740C02480A0340
1001
ACAD
1000
AcDbSavedByObjectVersion
1070
     0
  0
ACAD_PROXY_OBJECT
  5
16C01
102
{ACAD_REACTORS
330
15B65
102
}
330
15B65
100
AcDbZombieObject
 90
      499
 91
      510
 93
      404
310
41560B54985E51940902404000000000000E03F0000000000000F9010740501907004050150841D405064090740C02480A1B40
1001
ACAD
1000
AcDbSavedByObjectVersion
1070
     0
  0
XRECORD
  5
16D14
102
{ACAD_REACTORS
330
16D13
102
}
330
16D13
100
AcDbXrecord
340
2D0
  0
XRECORD
  5
16D15
102
{ACAD_REACTORS
330
16D13
102
}
330
16D13
100
AcDbXrecord
340
2CF
  0
DICTIONARYVAR
  5
16C3F
102
{ACAD_REACTORS
330
37
102
}
330
37
100
DictionaryVariables
280
     0
  1
1:1
  0
DICTIONARYVAR
  5
15C4B
102
{ACAD_REACTORS
330
37
102
}
330
37
100
DictionaryVariables
280
     0
  1
Standard
  0
DICTIONARYVAR
  5
4F1
102
{ACAD_REACTORS
330
37
102
}
330
37
100
DictionaryVariables
280
     0
  1
Standard
  0
DICTIONARYVAR
  5
38
102
{ACAD_REACTORS
330
37
102
}
330
37
100
DictionaryVariables
280
     0
  1
-1
  0
DICTIONARYVAR
  5
408
102
{ACAD_REACTORS
330
37
102
}
330
37
100
DictionaryVariables
280
     0
  1
2
  0
DICTIONARYVAR
  5
1891
102
{ACAD_REACTORS
330
37
102
}
330
37
100
DictionaryVariables
280
     0
  1
1
  0
DICTIONARYVAR
  5
15C4E
102
{ACAD_REACTORS
330
37
102
}
330
37
100
DictionaryVariables
280
     0
  1
0
  0
DICTIONARYVAR
  5
1895
102
{ACAD_REACTORS
330
37
102
}
330
37
100
DictionaryVariables
280
     0
  1
8
  0
DICTIONARYVAR
  5
1894
102
{ACAD_REACTORS
330
37
102
}
330
37
100
DictionaryVariables
280
     0
  1
1
  0
DICTIONARYVAR
  5
16C89
102
{ACAD_REACTORS
330
37
102
}
330
37
100
DictionaryVariables
280
     0
  1
0
  0
DICTIONARYVAR
  5
1892
102
{ACAD_REACTORS
330
37
102
}
330
37
100
DictionaryVariables
280
     0
  1
8
  0
DICTIONARYVAR
  5
1893
102
{ACAD_REACTORS
330
37
102
}
330
37
100
DictionaryVariables
280
     0
  1
2
  0
DICTIONARYVAR
  5
409
102
{ACAD_REACTORS
330
37
102
}
330
37
100
DictionaryVariables
280
     0
  1

  0
DICTIONARYVAR
  5
15C4D
102
{ACAD_REACTORS
330
37
102
}
330
37
100
DictionaryVariables
280
     0
  1
127
  0
DICTIONARYVAR
  5
16C40
102
{ACAD_REACTORS
330
37
102
}
330
37
100
DictionaryVariables
280
     0
  1
2
  0
DICTIONARY
  5
16D17
330
15B55
100
AcDbDictionary
  3
ACAD_XREC_ROUNDTRIP
360
16D18
1001
ACAD
1000
TREAT_AS_HARD
1070
     1
  0
DICTIONARY
  5
16D19
330
15B4D
100
AcDbDictionary
  3
ACAD_XREC_ROUNDTRIP
360
16D1A
1001
ACAD
1000
TREAT_AS_HARD
1070
     1
  0
DICTIONARY
  5
16D1B
330
15B5D
100
AcDbDictionary
  3
ACAD_XREC_ROUNDTRIP
360
16D1C
1001
ACAD
1000
TREAT_AS_HARD
1070
     1
  0
XRECORD
  5
16D18
102
{ACAD_REACTORS
330
16D17
102
}
330
16D17
100
AcDbXrecord
102
MATERIAL
148
0.0
149
0.0
149
0.0
 93
        0
 94
      127
282
     0
 72
     0
 77
     0
171
     0
175
     0
179
     0
273
     0
  0
XRECORD
  5
16D1A
102
{ACAD_REACTORS
330
16D19
102
}
330
16D19
100
AcDbXrecord
102
MATERIAL
148
0.0
149
0.0
149
0.0
 93
        0
 94
      127
282
     0
 72
     0
 77
     0
171
     0
175
     0
179
     0
273
     0
  0
XRECORD
  5
16D1C
102
{ACAD_REACTORS
330
16D1B
102
}
330
16D1B
100
AcDbXrecord
102
MATERIAL
148
0.0
149
0.0
149
0.0
 93
        0
 94
      127
282
     0
 72
     0
 77
     0
171
     0
175
     0
179
     0
273
     0
  0
ENDSEC
  0
EOF
