  0
SECTION
  2
HEADER
  9
$ACADVER
  1
AC1009
  9
$INSBASE
 10
0.0
 20
0.0
 30
0.0
  9
$EXTMIN
 10
2328.3897090431178
 20
-2057.2000962267648
 30
0.0
  9
$EXTMAX
 10
2616.468203188721
 20
-1752.365293368807
 30
0.0
  9
$LIMMIN
 10
0.0
 20
0.0
  9
$LIMMAX
 10
420.0
 20
297.0
  9
$ORTHOMODE
 70
     0
  9
$REGENMODE
 70
     1
  9
$FILLMODE
 70
     1
  9
$QTEXTMODE
 70
     0
  9
$MIRRTEXT
 70
     0
  9
$DRAGMODE
 70
     2
  9
$LTSCALE
 40
0.5
  9
$OSMODE
 70
    55
  9
$ATTMODE
 70
     1
  9
$TEXTSIZE
 40
4.0
  9
$TRACEWID
 40
1.0
  9
$TEXTSTYLE
  7
STANDARD
  9
$CLAYER
  8
1TEXT
  9
$CELTYPE
  6
BYLAYER
  9
$CECOLOR
 62
   256
  9
$DIMSCALE
 40
1.0
  9
$DIMASZ
 40
2.0
  9
$DIMEXO
 40
0.0
  9
$DIMDLI
 40
7.0
  9
$DIMRND
 40
0.0
  9
$DIMDLE
 40
0.0
  9
$DIMEXE
 40
1.0
  9
$DIMTP
 40
0.0
  9
$DIMTM
 40
0.0
  9
$DIMTXT
 40
3.5
  9
$DIMCEN
 40
0.0
  9
$DIMTSZ
 40
0.0
  9
$DIMTOL
 70
     0
  9
$DIMLIM
 70
     0
  9
$DIMTIH
 70
     0
  9
$DIMTOH
 70
     0
  9
$DIMSE1
 70
     0
  9
$DIMSE2
 70
     0
  9
$DIMTAD
 70
     1
  9
$DIMZIN
 70
     8
  9
$DIMBLK
  1

  9
$DIMASO
 70
     1
  9
$DIMSHO
 70
     1
  9
$DIMPOST
  1
 
  9
$DIMAPOST
  1

  9
$DIMALT
 70
     0
  9
$DIMALTD
 70
     2
  9
$DIMALTF
 40
25.399999999999999
  9
$DIMLFAC
 40
1.0
  9
$DIMTOFL
 70
     1
  9
$DIMTVP
 40
0.0
  9
$DIMTIX
 70
     0
  9
$DIMSOXD
 70
     0
  9
$DIMSAH
 70
     1
  9
$DIMBLK1
  1
OPEN30
  9
$DIMBLK2
  1
OPEN30
  9
$DIMSTYLE
  2
NEWX10
  9
$DIMCLRD
 70
   256
  9
$DIMCLRE
 70
   256
  9
$DIMCLRT
 70
   201
  9
$DIMTFAC
 40
0.7
  9
$DIMGAP
 40
0.7
  9
$LUNITS
 70
     2
  9
$LUPREC
 70
     4
  9
$SKETCHINC
 40
1.0
  9
$FILLETRAD
 40
0.0
  9
$AUNITS
 70
     0
  9
$AUPREC
 70
     2
  9
$MENU
  1
acad
  9
$ELEVATION
 40
0.0
  9
$PELEVATION
 40
0.0
  9
$THICKNESS
 40
0.0
  9
$LIMCHECK
 70
     0
  9
$BLIPMODE
 70
     0
  9
$CHAMFERA
 40
10.0
  9
$CHAMFERB
 40
10.0
  9
$SKPOLY
 70
     0
  9
$TDCREATE
 40
2453033.7326634838
  9
$TDUPDATE
 40
2457639.6950450242
  9
$TDINDWG
 40
2.3212449074000001
  9
$TDUSRTIMER
 40
2.3212449074000001
  9
$USRTIMER
 70
     1
  9
$ANGBASE
 50
0.0
  9
$ANGDIR
 70
     0
  9
$PDMODE
 70
     0
  9
$PDSIZE
 40
0.0
  9
$PLINEWID
 40
0.0
  9
$COORDS
 70
     0
  9
$SPLFRAME
 70
     0
  9
$SPLINETYPE
 70
     6
  9
$SPLINESEGS
 70
     8
  9
$ATTDIA
 70
     0
  9
$ATTREQ
 70
     1
  9
$HANDLING
 70
     1
  9
$HANDSEED
  5
1A3D4
  9
$SURFTAB1
 70
     6
  9
$SURFTAB2
 70
     6
  9
$SURFTYPE
 70
     6
  9
$SURFU
 70
     6
  9
$SURFV
 70
     6
  9
$UCSNAME
  2

  9
$UCSORG
 10
0.0
 20
0.0
 30
0.0
  9
$UCSXDIR
 10
1.0
 20
0.0
 30
0.0
  9
$UCSYDIR
 10
0.0
 20
1.0
 30
0.0
  9
$PUCSNAME
  2

  9
$PUCSORG
 10
0.0
 20
0.0
 30
0.0
  9
$PUCSXDIR
 10
1.0
 20
0.0
 30
0.0
  9
$PUCSYDIR
 10
0.0
 20
1.0
 30
0.0
  9
$USERI1
 70
     0
  9
$USERI2
 70
     0
  9
$USERI3
 70
     0
  9
$USERI4
 70
     0
  9
$USERI5
 70
     0
  9
$USERR1
 40
0.0
  9
$USERR2
 40
0.0
  9
$USERR3
 40
0.0
  9
$USERR4
 40
0.0
  9
$USERR5
 40
0.0
  9
$WORLDVIEW
 70
     1
  9
$SHADEDGE
 70
     3
  9
$SHADEDIF
 70
    70
  9
$TILEMODE
 70
     1
  9
$MAXACTVP
 70
    48
  9
$PLIMCHECK
 70
     0
  9
$PEXTMIN
 10
1.0000000000000000E+020
 20
1.0000000000000000E+020
 30
1.0000000000000000E+020
  9
$PEXTMAX
 10
-1.0000000000000000E+020
 20
-1.0000000000000000E+020
 30
-1.0000000000000000E+020
  9
$PLIMMIN
 10
0.0
 20
0.0
  9
$PLIMMAX
 10
420.0
 20
297.0
  9
$UNITMODE
 70
     0
  9
$VISRETAIN
 70
     1
  9
$PLINEGEN
 70
     0
  9
$PSLTSCALE
 70
     1
  0
ENDSEC
  0
SECTION
  2
TABLES
  0
TABLE
  2
VPORT
 70
     1
  0
VPORT
  2
*ACTIVE
 70
     0
 10
0.0
 20
0.0
 11
1.0
 21
1.0
 12
2472.4219265004422
 22
-1904.782016250331
 13
0.0
 23
0.0
 14
10.0
 24
10.0
 15
10.0
 25
10.0
 16
0.0
 26
0.0
 36
1.0
 17
0.0
 27
0.0
 37
0.0
 40
323.43313961492521
 41
2.1885143570536818
 42
50.0
 43
0.0
 44
0.0
 50
0.0
 51
0.0
 71
     0
 72
   100
 73
     1
 74
     1
 75
     0
 76
     0
 77
     0
 78
     0
  0
ENDTAB
  0
TABLE
  2
LTYPE
 70
    15
  0
LTYPE
  2
CONTINUOUS
 70
     0
  3
Solid line
 72
    65
 73
     0
 40
0.0
  0
LTYPE
  2
CENTER2
 70
     0
  3
Center (.5x) ___ _ ___ _ ___ _ ___ _ ___ _ ___
 72
    65
 73
     4
 40
28.574999999999999
 49
19.050000000000001
 49
-3.1749999999999989
 49
3.1749999999999989
 49
-3.1749999999999989
  0
LTYPE
  2
PHANTOM2
 70
     0
  3
Phantom (.5x) ___ _ _ ___ _ _ ___ _ _ ___ _ _
 72
    65
 73
     6
 40
31.75
 49
15.875
 49
-3.1749999999999989
 49
3.1749999999999989
 49
-3.1749999999999989
 49
3.1749999999999989
 49
-3.1749999999999989
  0
ENDTAB
  0
TABLE
  2
LAYER
 70
    45
  0
LAYER
  2
0
 70
     0
 62
     7
  6
CONTINUOUS
  0
LAYER
  2
1CENTER
 70
     0
 62
     7
  6
CENTER2
  0
LAYER
  2
1TEXT
 70
     0
 62
     7
  6
CONTINUOUS
  0
LAYER
  2
1DIM
 70
     0
 62
     7
  6
CONTINUOUS
  0
LAYER
  2
1PHANTOM
 70
     0
 62
     7
  6
PHANTOM2
  0
LAYER
  2
01
 70
     0
 62
     1
  6
CONTINUOUS
  0
ENDTAB
  0
TABLE
  2
STYLE
 70
    23
  0
STYLE
  2
STANDARD
 70
     0
 40
0.0
 41
1.0
 50
0.0
 71
     0
 42
4.0
  3
txt.shx
  4
extfont.shx
  0
ENDTAB
  0
TABLE
  2
VIEW
 70
     5
  0
ENDTAB
  0
TABLE
  2
UCS
 70
     0
  0
ENDTAB
  0
TABLE
  2
APPID
 70
    12
  0
APPID
  2
ACAD
 70
     0
  0
APPID
  2
DRAWINGVARIABLESXDATA
 70
     0
  0
APPID
  2
CONTENTTABDATA
 70
     0
  0
APPID
  2
CONTENTCURRENTTAB
 70
     0
  0
APPID
  2
CONTENTBLOCKDESCRIPTION
 70
     0
  0
APPID
  2
CONTENTBLOCKICON
 70
     0
  0
APPID
  2
CONTENTLONGBLOCKNAME
 70
     0
  0
APPID
  2
ACAD_PSEXT
 70
     0
  0
APPID
  2
ACAD_DSTYLE_DIMTEXT_FILL
 70
     0
  0
APPID
  2
ACAD_MLEADERVER
 70
     0
  0
APPID
  2
ACAD_DSTYLE_DIMRADIAL_EXTENSION
 70
     0
  0
APPID
  2
ACAD_EXEMPT_FROM_CAD_STANDARDS
 70
     0
  0
ENDTAB
  0
TABLE
  2
DIMSTYLE
 70
     9
  0
DIMSTYLE
  2
NEWX10
 70
     0
  3
 
  4

  5

  6
OPEN30
  7
OPEN30
 40
1.0
 41
2.0
 42
0.0
 43
7.0
 44
1.0
 45
0.0
 46
0.0
 47
0.0
 48
0.0
140
3.5
141
0.0
142
0.0
143
25.399999999999999
144
1.0
145
0.0
146
0.7
147
0.7
 71
     0
 72
     0
 73
     0
 74
     0
 75
     0
 76
     0
 77
     1
 78
     8
170
     0
171
     2
172
     1
173
     1
174
     0
175
     0
176
   256
177
   256
178
   201
  0
ENDTAB
  0
ENDSEC
  0
SECTION
  2
BLOCKS
  0
BLOCK
  8
0
  2
$MODEL_SPACE
 70
     0
 10
0.0
 20
0.0
 30
0.0
  3
$MODEL_SPACE
  1

  0
ENDBLK
  5
1A
  8
0
  0
BLOCK
 67
     1
  8
0
  2
$PAPER_SPACE
 70
     0
 10
0.0
 20
0.0
 30
0.0
  3
$PAPER_SPACE
  1

  0
ENDBLK
  5
17
 67
     1
  8
0
  0
BLOCK
  8
0
  2
_OPEN30
 70
     0
 10
0.0
 20
0.0
 30
0.0
  3
_OPEN30
  1

  0
LINE
  5
44
  8
0
  6
BYBLOCK
 62
     0
 10
-1.0
 20
0.26794919
 30
0.0
 11
0.0
 21
0.0
 31
0.0
  0
LINE
  5
45
  8
0
  6
BYBLOCK
 62
     0
 10
0.0
 20
0.0
 30
0.0
 11
-1.0
 21
-0.26794919
 31
0.0
  0
LINE
  5
46
  8
0
  6
BYBLOCK
 62
     0
 10
0.0
 20
0.0
 30
0.0
 11
-1.0
 21
0.0
 31
0.0
  0
ENDBLK
  5
47
  8
0
  0
ENDSEC
  0
SECTION
  2
ENTITIES
  0
LINE
  5
183E2
  8
01
  6
BYBLOCK
 10
2520.2655858337912
 20
-2014.81931429049
 30
0.0
 11
2520.2655858337921
 21
-2013.8193142904911
 31
0.0
  0
LINE
  5
183E3
  8
01
  6
BYBLOCK
 10
2524.7655858337921
 20
-2013.8193142904911
 30
0.0
 11
2524.7655858337921
 21
-2012.635690810404
 31
0.0
  0
ARC
  5
183E4
  8
01
  6
BYBLOCK
 10
2523.7655858337921
 20
-2013.8193142904911
 30
0.0
 40
1.0
 50
270.0
 51
0.0
  0
LINE
  5
183E5
  8
01
  6
BYBLOCK
 10
2523.7655858337912
 20
-2013.8193142904911
 30
0.0
 11
2523.7655858337912
 21
-2012.72317947393
 31
0.0
  0
LINE
  5
183E6
  8
1PHANTOM
 10
2558.7655858337921
 20
-2001.8193142904911
 30
0.0
 11
2524.7655858337921
 21
-2001.8193142904911
 31
0.0
  0
LINE
  5
183E7
  8
1PHANTOM
 10
2558.7655858337912
 20
-2000.81931429049
 30
0.0
 11
2524.7655858337921
 21
-2000.8193142904911
 31
0.0
  0
ARC
  5
183E8
  8
01
  6
BYBLOCK
 10
2524.7655858337912
 20
-2001.8193142904911
 30
0.0
 40
1.0
 50
90.0
 51
180.0
  0
LINE
  5
183E9
  8
1PHANTOM
 10
2558.7655858337921
 20
-1986.8193142904911
 30
0.0
 11
2552.7655858337921
 21
-1986.8193142904911
 31
0.0
  0
ARC
  5
183EA
  8
1PHANTOM
 10
2558.7655858337921
 20
-1987.8193142904911
 30
0.0
 40
1.0
 50
0.0
 51
90.0
  0
LINE
  5
183EB
  8
1PHANTOM
 10
2558.7655858337912
 20
-1987.81931429049
 30
0.0
 11
2552.765585833793
 21
-1987.819314290492
 31
0.0
  0
LINE
  5
183EC
  8
1PHANTOM
 10
2558.7655858337921
 20
-1869.81931429049
 30
0.0
 11
2552.7655858337921
 21
-1869.81931429049
 31
0.0
  0
LINE
  5
183ED
  8
1PHANTOM
 10
2558.7655858337921
 20
-1868.8193142904911
 30
0.0
 11
2552.7655858337921
 21
-1868.8193142904929
 31
0.0
  0
ARC
  5
183EE
  8
1PHANTOM
 10
2552.7655858337921
 20
-1869.819314290492
 30
0.0
 40
1.0
 50
90.0
 51
180.0
  0
LINE
  5
183EF
  8
01
  6
BYBLOCK
 10
2520.2655858337912
 20
-2014.81931429049
 30
0.0
 11
2523.7655858337921
 21
-2014.8193142904911
 31
0.0
  0
LINE
  5
183F0
  8
01
  6
BYBLOCK
 10
2520.2655858337921
 20
-2013.8193142904911
 30
0.0
 11
2523.7655858337912
 21
-2013.8193142904911
 31
0.0
  0
LINE
  5
183F1
  8
1PHANTOM
 10
2559.765585833793
 20
-2000.8193142904911
 30
0.0
 11
2559.765585833793
 21
-1987.8193142904911
 31
0.0
  0
ARC
  5
183F2
  8
1PHANTOM
 10
2558.7655858337921
 20
-2000.8193142904911
 30
0.0
 40
1.0
 50
270.0
 51
0.0
  0
LINE
  5
183F3
  8
1PHANTOM
 10
2558.7655858337912
 20
-2000.81931429049
 30
0.0
 11
2558.7655858337912
 21
-1987.81931429049
 31
0.0
  0
LINE
  5
183F4
  8
1PHANTOM
 10
2559.765585833793
 20
-1868.81931429049
 30
0.0
 11
2559.765585833793
 21
-1855.819314290492
 31
0.0
  0
ARC
  5
183F5
  8
1PHANTOM
 10
2558.7655858337921
 20
-1868.81931429049
 30
0.0
 40
1.0
 50
270.0
 51
0.0
  0
LINE
  5
183F6
  8
1PHANTOM
 10
2558.7655858337921
 20
-1868.8193142904911
 30
0.0
 11
2558.7655858337921
 21
-1855.8193142904911
 31
0.0
  0
LINE
  5
183F7
  8
1PHANTOM
 10
2551.7655858337921
 20
-1869.819314290492
 30
0.0
 11
2551.7655858337921
 21
-1986.8193142904911
 31
0.0
  0
ARC
  5
183F8
  8
1PHANTOM
 10
2552.7655858337921
 20
-1986.8193142904911
 30
0.0
 40
1.0
 50
180.0
 51
270.00000000002598
  0
LINE
  5
183F9
  8
1PHANTOM
 10
2552.7655858337921
 20
-1869.81931429049
 30
0.0
 11
2552.7655858337921
 21
-1986.8193142904911
 31
0.0
  0
LINE
  5
183FE
  8
1PHANTOM
 10
2522.2655858337912
 20
-1854.8193142904911
 30
0.0
 11
2558.7655858337921
 21
-1854.819314290492
 31
0.0
  0
ARC
  5
183FF
  8
1PHANTOM
 10
2558.7655858337921
 20
-1855.819314290492
 30
0.0
 40
1.0
 50
0.0
 51
90.0
  0
LINE
  5
18400
  8
1PHANTOM
 10
2522.2655858337912
 20
-1855.81931429049
 30
0.0
 11
2558.7655858337921
 21
-1855.8193142904911
 31
0.0
  0
LINE
  5
18401
  8
1PHANTOM
 10
2554.7655858337921
 20
-1971.969314290491
 30
0.0
 11
2554.7655858337921
 21
-1965.6693142904919
 31
0.0
  0
LINE
  5
18404
  8
1PHANTOM
 10
2552.7655858337921
 20
-1965.6693142904919
 30
0.0
 11
2554.7655858337921
 21
-1965.6693142904919
 31
0.0
  0
LINE
  5
18407
  8
1PHANTOM
 10
2552.7655858337912
 20
-1971.96931429049
 30
0.0
 11
2554.7655858337912
 21
-1971.969314290491
 31
0.0
  0
LINE
  5
18408
  8
1PHANTOM
 10
2554.7655858337912
 20
-1888.4693142904921
 30
0.0
 11
2554.7655858337921
 21
-1882.1693142904919
 31
0.0
  0
LINE
  5
1840B
  8
1PHANTOM
 10
2552.7655858337921
 20
-1882.169314290491
 30
0.0
 11
2554.7655858337921
 21
-1882.1693142904919
 31
0.0
  0
LINE
  5
1840E
  8
1PHANTOM
 10
2552.7655858337912
 20
-1888.469314290491
 30
0.0
 11
2554.7655858337912
 21
-1888.4693142904921
 31
0.0
  0
LINE
  5
18410
  8
1PHANTOM
 10
2522.2655858337912
 20
-1854.8193142904911
 30
0.0
 11
2522.2655858337912
 21
-1850.0693142904911
 31
0.0
  0
LINE
  5
18411
  8
1PHANTOM
 10
2521.2655858337912
 20
-1854.81931429049
 30
0.0
 11
2521.2655858337912
 21
-1850.0693142904911
 31
0.0
  0
ARC
  5
18412
  8
1PHANTOM
 10
2522.2655858337912
 20
-1854.81931429049
 30
0.0
 40
1.0
 50
180.0
 51
270.0
  0
LINE
  5
18413
  8
1PHANTOM
 10
2521.2655858337912
 20
-1850.0693142904911
 30
0.0
 11
2522.2655858337921
 21
-1850.0693142904911
 31
0.0
  0
LINE
  5
18419
  8
1PHANTOM
 10
2559.765585833793
 20
-2008.569767749455
 30
0.0
 11
2519.7655858337921
 21
-2012.0693142904911
 31
0.0
  0
LINE
  5
1841B
  8
01
 10
2559.8527415765402
 20
-2009.565962447545
 30
0.0
 11
2519.7655858337921
 21
-2013.0731341280341
 31
0.0
  0
ARC
  5
1841D
  8
01
 10
2559.765585833793
 20
-2008.5697677494529
 30
0.0
 40
1.0
 50
275.00000000000063
 51
0.0
  0
LINE
  5
1841E
  8
01
 10
2562.7655858337921
 20
-1996.969314290491
 30
0.0
 11
2562.7655858337921
 21
-1991.6693142904919
 31
0.0
  0
LINE
  5
18421
  8
01
  6
BYBLOCK
 10
2560.7655858337921
 20
-1991.6693142904919
 30
0.0
 11
2562.7655858337921
 21
-1991.6693142904919
 31
0.0
  0
LINE
  5
18424
  8
01
  6
BYBLOCK
 10
2560.7655858337921
 20
-1996.969314290491
 30
0.0
 11
2562.7655858337921
 21
-1996.969314290491
 31
0.0
  0
LINE
  5
18425
  8
01
  6
BYBLOCK
 10
2559.765585833793
 20
-1846.069314290492
 30
0.0
 11
2520.7655858337921
 21
-1846.0693142904911
 31
0.0
  0
LINE
  5
18426
  8
01
  6
BYBLOCK
 10
2559.765585833793
 20
-1845.069314290492
 30
0.0
 11
2520.7655858337921
 21
-1845.0693142904911
 31
0.0
  0
LINE
  5
18427
  8
1PHANTOM
 10
2559.765585833793
 20
-2008.569767749455
 30
0.0
 11
2559.765585833793
 21
-1846.069314290492
 31
0.0
  0
LINE
  5
18428
  8
01
 10
2562.7655858337921
 20
-1864.969314290491
 30
0.0
 11
2562.7655858337921
 21
-1859.6693142904919
 31
0.0
  0
LINE
  5
1842A
  8
01
 10
2560.7655858337921
 20
-2008.5697677494529
 30
0.0
 11
2560.7655858337921
 21
-1846.069314290492
 31
0.0
  0
ARC
  5
1842B
  8
01
 10
2559.765585833793
 20
-1846.069314290492
 30
0.0
 40
1.0
 50
0.0
 51
90.0
  0
LINE
  5
1842C
  8
1PHANTOM
 10
2524.858642521122
 20
-2011.6237295676549
 30
0.0
 11
2524.9457982638692
 21
-2012.6199242657469
 31
0.0
  0
LINE
  5
1842F
  8
01
  6
BYBLOCK
 10
2560.7655858337921
 20
-1859.6693142904919
 30
0.0
 11
2562.7655858337921
 21
-1859.6693142904919
 31
0.0
  0
LINE
  5
18432
  8
01
  6
BYBLOCK
 10
2560.7655858337921
 20
-1864.969314290491
 30
0.0
 11
2562.7655858337921
 21
-1864.969314290491
 31
0.0
  0
LINE
  5
18433
  8
01
 10
2461.7655858337921
 20
-1762.2221679559859
 30
0.0
 11
2353.7655858337921
 21
-1762.222167955985
 31
0.0
  0
ARC
  5
18434
  8
01
 10
2461.7655858337921
 20
-1763.2221679559859
 30
0.0
 40
1.0
 50
0.0
 51
90.0
  0
LINE
  5
18435
  8
01
 10
2462.7655858337921
 20
-1803.2221679559859
 30
0.0
 11
2458.765585833793
 21
-1803.2221679559859
 31
0.0
  0
LINE
  5
18436
  8
01
 10
2356.7655858337921
 20
-1803.2221679559859
 30
0.0
 11
2352.7655858337912
 21
-1803.2221679559859
 31
0.0
  0
LINE
  5
18437
  8
01
 10
2462.7655858337921
 20
-1802.2221679559871
 30
0.0
 11
2352.7655858337912
 21
-1802.222167955985
 31
0.0
  0
LINE
  5
18438
  8
01
 10
2352.7655858337912
 20
-1803.2221679559859
 30
0.0
 11
2352.7655858337912
 21
-1763.222167955985
 31
0.0
  0
LINE
  5
18439
  8
01
 10
2353.7655858337921
 20
-1803.2221679559859
 30
0.0
 11
2353.7655858337921
 21
-1763.222167955985
 31
0.0
  0
ARC
  5
1843A
  8
01
 10
2353.7655858337921
 20
-1763.222167955985
 30
0.0
 40
1.0
 50
90.0
 51
180.0
  0
LINE
  5
1843B
  8
01
 10
2462.7655858337921
 20
-1803.2221679559859
 30
0.0
 11
2462.7655858337921
 21
-1763.2221679559859
 31
0.0
  0
LINE
  5
1843C
  8
01
 10
2461.7655858337921
 20
-1803.2221679559859
 30
0.0
 11
2461.7655858337921
 21
-1763.2221679559859
 31
0.0
  0
LINE
  5
1843D
  8
01
 10
2356.7655858337921
 20
-1803.2221679559859
 30
0.0
 11
2357.765585833793
 21
-1802.222167955985
 31
0.0
  0
LINE
  5
1843E
  8
01
 10
2458.7655858337921
 20
-1803.2221679559859
 30
0.0
 11
2457.7655858337921
 21
-1802.2221679559859
 31
0.0
  0
LINE
  5
1843F
  8
01
 10
2410.4155858337922
 20
-1760.222167955985
 30
0.0
 11
2405.115585833792
 21
-1760.222167955985
 31
0.0
  0
LINE
  5
18441
  8
01
  6
BYBLOCK
 10
2405.115585833792
 20
-1762.2221679559859
 30
0.0
 11
2405.115585833792
 21
-1760.222167955985
 31
0.0
  0
LINE
  5
18442
  8
01
  6
BYBLOCK
 10
2410.4155858337922
 20
-1762.222167955985
 30
0.0
 11
2410.4155858337922
 21
-1760.222167955985
 31
0.0
  0
LINE
  5
18443
  8
01
 10
2519.7655858337921
 20
-2010.0731341280341
 30
0.0
 11
2519.7655858337921
 21
-2013.073134128035
 31
0.0
  0
LINE
  5
18444
  8
01
 10
2520.7655858337921
 20
-1845.0693142904911
 30
0.0
 11
2520.7655858337921
 21
-1853.819314290489
 31
0.0
  0
LINE
  5
18445
  8
01
 10
2524.7655858337921
 20
-1862.81931429049
 30
0.0
 11
2524.7655858337921
 21
-2005.0731341280341
 31
0.0
  0
LINE
  5
18446
  8
01
  6
BYBLOCK
 10
2519.7655858337921
 20
-2010.073134128035
 30
0.0
 11
2524.7655858337921
 21
-2005.0731341280341
 31
0.0
  0
LINE
  5
18447
  8
01
  6
BYBLOCK
 10
2519.7655858337912
 20
-1857.819314290487
 30
0.0
 11
2524.7655858337921
 21
-1862.81931429049
 31
0.0
  0
LINE
  5
18448
  8
01
  6
BYBLOCK
 10
2467.7655858337921
 20
-1803.2221679559859
 30
0.0
 11
2347.7655858337921
 21
-1803.2221679559871
 31
0.0
  0
LINE
  5
18449
  8
01
  6
BYBLOCK
 10
2427.2655858337921
 20
-1802.2221679559871
 30
0.0
 11
2388.2655858337921
 21
-1802.2221679559891
 31
0.0
  0
LINE
  5
1844A
  8
01
  6
BYBLOCK
 10
2467.7655858337921
 20
-1805.2221679559871
 30
0.0
 11
2347.7655858337921
 21
-1805.2221679559871
 31
0.0
  0
LINE
  5
1844B
  8
01
  6
BYBLOCK
 10
2467.7655858337921
 20
-1803.2221679559871
 30
0.0
 11
2467.7655858337921
 21
-1805.2221679559871
 31
0.0
  0
LINE
  5
1844C
  8
01
  6
BYBLOCK
 10
2347.7655858337921
 20
-1803.2221679559871
 30
0.0
 11
2347.7655858337921
 21
-1805.2221679559871
 31
0.0
  0
LINE
  5
1844D
  8
01
 10
2377.7655858337921
 20
-1802.2221679559859
 30
0.0
 11
2377.7655858337921
 21
-1803.2221679559871
 31
0.0
  0
LINE
  5
1844E
  8
01
 10
2437.7655858337921
 20
-1802.2221679559859
 30
0.0
 11
2437.7655858337921
 21
-1803.2221679559859
 31
0.0
  0
LINE
  5
1844F
  8
01
  6
BYBLOCK
 10
2427.2655858337921
 20
-1802.2221679559859
 30
0.0
 11
2427.2655858337921
 21
-1803.2221679559859
 31
0.0
  0
LINE
  5
18450
  8
01
  6
BYBLOCK
 10
2388.2655858337912
 20
-1802.2221679559859
 30
0.0
 11
2388.2655858337921
 21
-1803.2221679559871
 31
0.0
  0
LINE
  5
18453
  8
1PHANTOM
 10
2558.7655858337921
 20
-1865.81931429049
 30
0.0
 11
2558.7655858337921
 21
-1864.31931429049
 31
0.0
  0
LINE
  5
18455
  8
1PHANTOM
 10
2558.7655858337921
 20
-1865.81931429049
 30
0.0
 11
2558.1655858337908
 21
-1865.81931429049
 31
0.0
  0
ARC
  5
18457
  8
1PHANTOM
 10
2558.1655858337908
 20
-1863.8193142904911
 30
0.0
 40
2.0
 50
180.0
 51
270.0
  0
LINE
  5
18459
  8
1PHANTOM
 10
2556.1655858337922
 20
-1863.8193142904911
 30
0.0
 11
2556.1655858337922
 21
-1860.81931429049
 31
0.0
  0
LINE
  5
1845A
  8
1PHANTOM
 10
2558.7655858337921
 20
-1860.3193142904911
 30
0.0
 11
2558.7655858337921
 21
-1858.81931429049
 31
0.0
  0
ARC
  5
1845B
  8
1PHANTOM
 10
2558.1655858337908
 20
-1860.81931429049
 30
0.0
 40
2.0
 50
90.0
 51
180.0
  0
LINE
  5
1845C
  8
1PHANTOM
 10
2558.7655858337921
 20
-1858.81931429049
 30
0.0
 11
2558.1655858337908
 21
-1858.81931429049
 31
0.0
  0
LINE
  5
18463
  8
1PHANTOM
 10
2558.7655858337912
 20
-1997.8193142904911
 30
0.0
 11
2558.7655858337912
 21
-1996.31931429049
 31
0.0
  0
LINE
  5
18465
  8
1PHANTOM
 10
2558.7655858337912
 20
-1997.8193142904911
 30
0.0
 11
2558.1655858337908
 21
-1997.8193142904911
 31
0.0
  0
ARC
  5
18467
  8
1PHANTOM
 10
2558.1655858337908
 20
-1995.8193142904911
 30
0.0
 40
2.0
 50
180.0
 51
270.0
  0
LINE
  5
18469
  8
1PHANTOM
 10
2556.1655858337899
 20
-1995.8193142904911
 30
0.0
 11
2556.1655858337899
 21
-1992.81931429049
 31
0.0
  0
LINE
  5
1846A
  8
1PHANTOM
 10
2558.7655858337912
 20
-1992.31931429049
 30
0.0
 11
2558.7655858337912
 21
-1990.81931429049
 31
0.0
  0
ARC
  5
1846B
  8
1PHANTOM
 10
2558.1655858337908
 20
-1992.81931429049
 30
0.0
 40
2.0
 50
90.0
 51
180.0
  0
LINE
  5
1846C
  8
1PHANTOM
 10
2558.7655858337912
 20
-1990.81931429049
 30
0.0
 11
2558.1655858337908
 21
-1990.81931429049
 31
0.0
  0
LINE
  5
18471
  8
01
  6
BYBLOCK
 10
2520.7655858337912
 20
-1864.5693142904911
 30
0.0
 11
2520.7655858337912
 21
-1858.8193142904879
 31
0.0
  0
LINE
  5
18472
  8
01
  6
BYBLOCK
 10
2520.7655858337912
 20
-1864.5693142904911
 30
0.0
 11
2519.7655858337912
 21
-1864.5693142904911
 31
0.0
  0
LINE
  5
18473
  8
1PHANTOM
 10
2529.7655858337912
 20
-2008.5693142904911
 30
0.0
 11
2529.7655858337912
 21
-2007.5693142904911
 31
0.0
  0
LINE
  5
18474
  8
01
  6
BYBLOCK
 10
2520.7655858337912
 20
-2007.5693142904911
 30
0.0
 11
2520.7655858337912
 21
-1993.5693142904911
 31
0.0
  0
LINE
  5
18475
  8
1PHANTOM
 10
2525.0155858337912
 20
-2008.5693142904911
 30
0.0
 11
2525.0155858337912
 21
-2007.5693142904911
 31
0.0
  0
LINE
  5
18476
  8
01
 10
2519.7655858337912
 20
-2008.5693142904911
 30
0.0
 11
2521.2694056713349
 21
-2008.5693142904911
 31
0.0
  0
LINE
  5
18477
  8
1PHANTOM
 10
2524.7655858337921
 20
-2008.5693142904911
 30
0.0
 11
2529.7655858337912
 21
-2008.5693142904911
 31
0.0
  0
LINE
  5
18478
  8
1PHANTOM
 10
2519.7655858337912
 20
-2006.5693142904911
 30
0.0
 11
2520.7655858337912
 21
-2006.5693142904911
 31
0.0
  0
LINE
  5
18479
  8
01
 10
2520.7655858337912
 20
-2007.5693142904911
 30
0.0
 11
2522.2694056713349
 21
-2007.5693142904911
 31
0.0
  0
LINE
  5
1847A
  8
1PHANTOM
 10
2524.7655858337921
 20
-2007.5693142904911
 30
0.0
 11
2529.7655858337912
 21
-2007.5693142904911
 31
0.0
  0
LINE
  5
1847B
  8
01
 10
2519.7655858337912
 20
-1993.569314290492
 30
0.0
 11
2520.7655858337912
 21
-1993.5693142904911
 31
0.0
  0
LINE
  5
1847C
  8
01
 10
2519.7655858337912
 20
-2000.8358355368
 30
0.0
 11
2519.7655858337912
 21
-1850.6552712694329
 31
0.0
  0
LINE
  5
1847E
  8
01
  6
BYBLOCK
 10
2519.7655858337912
 20
-2014.5693142904911
 30
0.0
 11
2519.7655858337912
 21
-1839.0693142904911
 31
0.0
  0
LINE
  5
1847F
  8
1PHANTOM
 10
2529.7655858337912
 20
-1853.0693142904911
 30
0.0
 11
2529.7655858337912
 21
-1852.0693142904911
 31
0.0
  0
LINE
  5
18480
  8
01
  6
BYBLOCK
 10
2517.7655858337912
 20
-2014.5693142904911
 30
0.0
 11
2517.7655858337912
 21
-1839.0693142904911
 31
0.0
  0
LINE
  5
18481
  8
01
  6
BYBLOCK
 10
2519.7655858337912
 20
-1839.0693142904911
 30
0.0
 11
2517.7655858337912
 21
-1839.06931429049
 31
0.0
  0
LINE
  5
18482
  8
01
  6
BYBLOCK
 10
2519.7655858337912
 20
-2014.5693142904911
 30
0.0
 11
2517.7655858337912
 21
-2014.5693142904911
 31
0.0
  0
LINE
  5
18483
  8
1PHANTOM
 10
2529.7655858337912
 20
-1853.0693142904911
 30
0.0
 11
2522.2655858337912
 21
-1853.0693142904911
 31
0.0
  0
LINE
  5
18484
  8
1PHANTOM
 10
2521.2655858337912
 20
-1853.0693142904911
 30
0.0
 11
2520.7655858337912
 21
-1853.0693142904911
 31
0.0
  0
LINE
  5
18485
  8
1PHANTOM
 10
2529.7655858337912
 20
-1852.0693142904911
 30
0.0
 11
2522.2655858337921
 21
-1852.0693142904911
 31
0.0
  0
LINE
  5
18486
  8
1PHANTOM
 10
2521.2655858337912
 20
-1852.0693142904911
 30
0.0
 11
2520.7655858337921
 21
-1852.0693142904911
 31
0.0
  0
LINE
  5
18487
  8
1PHANTOM
 10
2520.7655858337912
 20
-1857.0693142904911
 30
0.0
 11
2519.7655858337912
 21
-1857.0693142904911
 31
0.0
  0
LINE
  5
18488
  8
01
  6
BYBLOCK
 10
2466.7655858337912
 20
-2014.56931429049
 30
0.0
 11
2348.7655858337912
 21
-2014.5693142904911
 31
0.0
  0
ARC
  5
18489
  8
01
  6
BYBLOCK
 10
2466.7655858337912
 20
-2013.56931429049
 30
0.0
 40
1.0
 50
270.0
 51
0.0
  0
LINE
  5
1848A
  8
01
  6
BYBLOCK
 10
2466.7655858337912
 20
-1839.06931429049
 30
0.0
 11
2348.7655858337921
 21
-1839.06931429049
 31
0.0
  0
ARC
  5
1848B
  8
01
  6
BYBLOCK
 10
2348.7655858337921
 20
-1840.0693142904911
 30
0.0
 40
1.0
 50
90.0
 51
180.0
  0
LINE
  5
1848C
  8
01
  6
BYBLOCK
 10
2467.7655858337912
 20
-1840.06931429049
 30
0.0
 11
2467.7655858337912
 21
-2013.56931429049
 31
0.0
  0
ARC
  5
1848D
  8
01
  6
BYBLOCK
 10
2466.7655858337912
 20
-1840.06931429049
 30
0.0
 40
1.0
 50
0.0
 51
90.0
  0
LINE
  5
1848E
  8
01
  6
BYBLOCK
 10
2347.7655858337921
 20
-1840.0693142904911
 30
0.0
 11
2347.7655858337912
 21
-2013.56931429049
 31
0.0
  0
ARC
  5
1848F
  8
01
  6
BYBLOCK
 10
2348.7655858337912
 20
-2013.56931429049
 30
0.0
 40
1.0
 50
180.0
 51
270.0
  0
LINE
  5
18635
  8
01
 10
2520.7655858337921
 20
-1853.819314290489
 30
0.0
 11
2519.7655858337921
 21
-1854.819314290489
 31
0.0
  0
LINE
  5
187F6
  8
1PHANTOM
 10
2520.7655858337921
 20
-1853.819314290489
 30
0.0
 11
2520.7655858337912
 21
-1858.819314290487
 31
0.0
  0
LINE
  5
187FC
  8
01
 10
2520.7655858337921
 20
-1852.0693142904911
 30
0.0
 11
2519.7655858337912
 21
-1852.0693142904911
 31
0.0
  0
LINE
  5
187FE
  8
1PHANTOM
 10
2522.2694056713349
 20
-2007.5693142904911
 30
0.0
 11
2523.7655858337912
 21
-2007.5693142904911
 31
0.0
  0
LINE
  5
187FF
  8
1PHANTOM
 10
2521.2694056713349
 20
-2008.5693142904911
 30
0.0
 11
2523.7655858337912
 21
-2008.5693142904911
 31
0.0
  0
LINE
  5
18800
  8
1PHANTOM
 10
2524.7655858337921
 20
-2012.635690810404
 30
0.0
 11
2524.7655858337912
 21
-2005.0731341280341
 31
0.0
  0
LINE
  5
18801
  8
1PHANTOM
 10
2523.7655858337912
 20
-2012.72317947393
 30
0.0
 11
2523.7655858337921
 21
-2006.073134128035
 31
0.0
  0
LINE
  5
18802
  8
01
 10
2523.7655858337921
 20
-2006.073134128035
 30
0.0
 11
2523.7655858337921
 21
-2001.8193142904911
 31
0.0
  0
LINE
  5
18803
  8
01
 10
2524.7655858337921
 20
-2023.385983004227
 30
0.0
 11
2524.7655858337912
 21
-1814.771102592392
 31
0.0
  0
LINE
  5
18804
  8
01
 10
2564.7655858337921
 20
-2023.385983004227
 30
0.0
 11
2564.7655858337912
 21
-1814.771102592392
 31
0.0
  0
LINE
  5
188C6
  8
01
  6
BYBLOCK
 10
2356.7655858337912
 20
-1798.2221679559871
 30
0.0
 11
2353.7655858337921
 21
-1798.2221679559871
 31
0.0
  0
LINE
  5
188C7
  8
01
  6
BYBLOCK
 10
2356.7655858337921
 20
-1799.2221679559871
 30
0.0
 11
2353.7655858337921
 21
-1799.2221679559871
 31
0.0
  0
LINE
  5
188C8
  8
01
 10
2356.7655858337921
 20
-1799.2221679559871
 30
0.0
 11
2356.7655858337912
 21
-1798.2221679559871
 31
0.0
  0
LINE
  5
188D0
  8
01
 10
2458.765585833793
 20
-1799.2221679559871
 30
0.0
 11
2458.7655858337939
 21
-1798.2221679559871
 31
0.0
  0
LINE
  5
188D1
  8
01
  6
BYBLOCK
 10
2458.7655858337939
 20
-1798.2221679559871
 30
0.0
 11
2461.765585833793
 21
-1798.2221679559871
 31
0.0
  0
LINE
  5
188D2
  8
01
  6
BYBLOCK
 10
2458.765585833793
 20
-1799.2221679559871
 30
0.0
 11
2461.765585833793
 21
-1799.2221679559871
 31
0.0
  0
LINE
  5
18958
  8
1DIM
 10
2511.4682031887201
 20
-1774.227522720244
 30
0.0
 11
2616.468203188721
 21
-1774.227522720244
 31
0.0
  0
LINE
  5
18959
  8
1DIM
 10
2511.4682031887201
 20
-1767.227522720244
 30
0.0
 11
2616.468203188721
 21
-1767.227522720244
 31
0.0
  0
TEXT
  5
1895A
  8
1TEXT
 10
2557.06820318872
 20
-1772.7275227202449
 30
0.0
 40
4.0
  1
コード
 72
     1
 11
2563.8682031887201
 21
-1772.7275227202449
 31
0.0
  0
TEXT
  5
1895B
  8
1TEXT
 10
2520.7082031887198
 20
-1772.7275227202449
 30
0.0
 40
4.0
  1
表面処理
 41
0.9
 72
     1
 11
2528.8682031887201
 21
-1772.7275227202449
 31
0.0
  0
LINE
  5
1895C
  8
1DIM
 10
2511.4682031887201
 20
-1781.2275227202449
 30
0.0
 11
2581.468203188721
 21
-1781.2275227202449
 31
0.0
  0
LINE
  5
1895D
  8
1DIM
 10
2511.4682031887201
 20
-1767.2275227202449
 30
0.0
 11
2511.4682031887191
 21
-1802.227522720244
 31
0.0
  0
LINE
  5
1895E
  8
1DIM
 10
2546.4682031887201
 20
-1767.227522720244
 30
0.0
 11
2546.4682031887178
 21
-1802.227522720244
 31
0.0
  0
LINE
  5
1895F
  8
1DIM
 10
2581.468203188721
 20
-1767.227522720244
 30
0.0
 11
2581.4682031887191
 21
-1802.2275227202449
 31
0.0
  0
TEXT
  5
18960
  8
1TEXT
 10
2510.266913705661
 20
-1762.936393494153
 30
0.0
 40
8.0
  1
GP-092-X-13
  0
LINE
  5
18961
  8
1DIM
 10
2511.4682031887201
 20
-1788.2275227202449
 30
0.0
 11
2581.4682031887201
 21
-1788.2275227202449
 31
0.0
  0
TEXT
  5
18962
  8
1TEXT
 10
2512.06820318872
 20
-1779.9418797038929
 30
0.0
 40
4.0
  1
ブラストブラック
 41
0.9
 72
     1
 11
2528.8682031887201
 21
-1779.9418797038929
 31
0.0
  0
TEXT
  5
18963
  8
1TEXT
 10
2547.5348698553871
 20
-1779.9418797038929
 30
0.0
 40
4.0
  1
GP092XK13
 72
     1
 11
2563.8682031887201
 21
-1779.9418797038929
 31
0.0
  0
TEXT
  5
18965
  8
1TEXT
 10
2547.5348698553871
 20
-1786.9418797038941
 30
0.0
 40
4.0
  1
GP092XS13
 72
     1
 11
2563.8682031887211
 21
-1786.9418797038941
 31
0.0
  0
TEXT
  5
18966
  8
1TEXT
 10
2589.801536522054
 20
-1772.727522720244
 30
0.0
 40
4.0
  1
対応子機
 72
     1
 11
2598.8682031887211
 21
-1772.727522720244
 31
0.0
  0
TEXT
  5
18967
  8
1TEXT
 10
2590.8682031887211
 20
-1786.9418797038941
 30
0.0
 40
4.0
  1
WJ-DA
 41
0.8
 72
     1
 11
2598.8682031887211
 21
-1786.9418797038941
 31
0.0
  0
TEXT
  5
18968
  8
1TEXT
 10
2589.8015365220549
 20
-1779.9418797038941
 30
0.0
 40
4.0
  1
アイホン
 72
     1
 11
2598.868203188722
 21
-1779.9418797038941
 31
0.0
  0
LINE
  5
1896A
  8
1DIM
 10
2616.468203188721
 20
-1767.227522720244
 30
0.0
 11
2616.4682031887201
 21
-1802.2275227202449
 31
0.0
  0
LINE
  5
1896D
  8
1DIM
 10
2511.4682031887201
 20
-1795.227522720244
 30
0.0
 11
2581.4682031887201
 21
-1795.227522720244
 31
0.0
  0
TEXT
  5
1896E
  8
1TEXT
 10
2512.0548698553871
 20
-1793.9418797038941
 30
0.0
 40
4.0
  1
ブラストダークアンバー
 41
0.65
 72
     1
 11
2528.8682031887211
 21
-1793.9418797038941
 31
0.0
  0
TEXT
  5
1896F
  8
1TEXT
 10
2547.5348698553871
 20
-1793.9418797038941
 30
0.0
 40
4.0
  1
GP0924Q13
 72
     1
 11
2563.8682031887211
 21
-1793.9418797038941
 31
0.0
  0
TEXT
  5
18970
  8
1TEXT
 10
2512.06820318872
 20
-1786.9418797038929
 30
0.0
 40
4.0
  1
ブラストシルバー
 41
0.9
 72
     1
 11
2528.8682031887201
 21
-1786.9418797038929
 31
0.0
  0
LINE
  5
18C59
  8
1PHANTOM
 10
2467.7655858337912
 20
-2012.6356908104051
 30
0.0
 11
2347.7655858337912
 21
-2012.6356908104051
 31
0.0
  0
LINE
  5
18C5A
  8
1PHANTOM
 10
2467.7655858337912
 20
-1845.069314290492
 30
0.0
 11
2347.7655858337921
 21
-1845.0693142904911
 31
0.0
  0
LINE
  5
18C5B
  8
1PHANTOM
 10
2352.7655858337921
 20
-1845.0693142904911
 30
0.0
 11
2352.7655858337921
 21
-2012.635690810404
 31
0.0
  0
LINE
  5
18C5C
  8
1PHANTOM
 10
2462.7655858337921
 20
-1845.0693142904911
 30
0.0
 11
2462.7655858337921
 21
-2012.635690810404
 31
0.0
  0
LINE
  5
18E6C
  8
1DIM
 10
2581.4682031887191
 20
-1802.2275227202449
 30
0.0
 11
2616.4682031887201
 21
-1802.2275227202449
 31
0.0
  0
LINE
  5
18E6D
  8
1DIM
 10
2511.4682031887191
 20
-1802.227522720244
 30
0.0
 11
2581.4682031887201
 21
-1802.227522720244
 31
0.0
  0
TEXT
  5
18E6E
  8
1TEXT
 10
2518.54820318872
 20
-1800.9418797038941
 30
0.0
 40
4.0
  1
ヘアライン
 41
0.9
 72
     1
 11
2528.8682031887201
 21
-1800.9418797038941
 31
0.0
  0
TEXT
  5
18E6F
  8
1TEXT
 10
2547.5348698553871
 20
-1800.9418797038941
 30
0.0
 40
4.0
  1
GP092XT13
 72
     1
 11
2563.8682031887201
 21
-1800.9418797038941
 31
0.0
  0
CIRCLE
  5
18FB5
  8
01
 10
2554.7655858337912
 20
-1875.0693142904911
 30
0.0
 40
2.0
  0
CIRCLE
  5
18FB6
  8
1DIM
 10
2554.7655858337912
 20
-1875.0693142904911
 30
0.0
 40
1.649999999999636
  0
CIRCLE
  5
18FB7
  8
01
 10
2554.7655858337912
 20
-1985.0693142904911
 30
0.0
 40
2.0
  0
CIRCLE
  5
18FB8
  8
1DIM
 10
2554.7655858337912
 20
-1985.0693142904911
 30
0.0
 40
1.649999999999636
  0
LINE
  5
19B3A
  8
1PHANTOM
 10
2370.2655858337912
 20
-1945.0712242092641
 30
0.0
 11
2370.2655858337912
 21
-1943.0712242092629
 31
0.0
  0
LINE
  5
19B3B
  8
1PHANTOM
 10
2370.2655858337912
 20
-1915.071224209262
 30
0.0
 11
2370.2655858337912
 21
-1913.0712242092629
 31
0.0
  0
LINE
  5
19B3C
  8
1PHANTOM
 10
2372.2655858337898
 20
-1945.0712242092629
 30
0.0
 11
2372.2655858337898
 21
-1943.0712242092629
 31
0.0
  0
LINE
  5
19B3D
  8
1PHANTOM
 10
2372.2655858337912
 20
-1915.071224209262
 30
0.0
 11
2372.2655858337898
 21
-1913.0712242092629
 31
0.0
  0
LINE
  5
19B3E
  8
1PHANTOM
 10
2358.2655858337912
 20
-1945.0712242092629
 30
0.0
 11
2358.2655858337912
 21
-1913.071224209262
 31
0.0
  0
LINE
  5
19B3F
  8
1PHANTOM
 10
2360.2655858337898
 20
-1943.0712242092629
 30
0.0
 11
2360.2655858337912
 21
-1915.071224209262
 31
0.0
  0
LINE
  5
19B40
  8
1PHANTOM
 10
2384.2655858337898
 20
-1945.0712242092629
 30
0.0
 11
2384.2655858337912
 21
-1913.071224209262
 31
0.0
  0
LINE
  5
19B41
  8
1PHANTOM
 10
2382.2655858337898
 20
-1943.0712242092629
 30
0.0
 11
2382.2655858337889
 21
-1915.071224209262
 31
0.0
  0
LINE
  5
19B42
  8
1PHANTOM
 10
2358.2655858337912
 20
-1945.0712242092629
 30
0.0
 11
2370.2655858337912
 21
-1945.0712242092641
 31
0.0
  0
LINE
  5
19B43
  8
1PHANTOM
 10
2372.2655858337898
 20
-1945.0712242092629
 30
0.0
 11
2384.2655858337898
 21
-1945.0712242092629
 31
0.0
  0
LINE
  5
19B44
  8
1PHANTOM
 10
2360.2655858337898
 20
-1943.0712242092629
 30
0.0
 11
2370.2655858337912
 21
-1943.0712242092629
 31
0.0
  0
LINE
  5
19B45
  8
1PHANTOM
 10
2372.2655858337898
 20
-1943.0712242092629
 30
0.0
 11
2382.2655858337898
 21
-1943.0712242092629
 31
0.0
  0
LINE
  5
19B46
  8
1PHANTOM
 10
2358.2655858337912
 20
-1913.071224209262
 30
0.0
 11
2370.2655858337912
 21
-1913.071224209262
 31
0.0
  0
LINE
  5
19B47
  8
1PHANTOM
 10
2372.2655858337898
 20
-1913.071224209262
 30
0.0
 11
2384.2655858337898
 21
-1913.071224209262
 31
0.0
  0
LINE
  5
19B48
  8
1PHANTOM
 10
2360.2655858337912
 20
-1915.071224209262
 30
0.0
 11
2370.2655858337898
 21
-1915.071224209262
 31
0.0
  0
LINE
  5
19B49
  8
1PHANTOM
 10
2372.2655858337898
 20
-1915.071224209262
 30
0.0
 11
2382.2655858337889
 21
-1915.071224209262
 31
0.0
  0
LINE
  5
19B4A
  8
1CENTER
 10
2355.769746785124
 20
-1929.071224209262
 30
0.0
 11
2386.761424882457
 21
-1929.071224209262
 31
0.0
  0
LINE
  5
19B4B
  8
1CENTER
 10
2371.2655858337898
 20
-1909.67330468503
 30
0.0
 11
2371.2655858337898
 21
-1948.469143733495
 31
0.0
  0
LINE
  5
19B4C
  8
1CENTER
 10
2428.7697467851249
 20
-1929.071224209262
 30
0.0
 11
2459.761424882458
 21
-1929.071224209262
 31
0.0
  0
LINE
  5
19B4D
  8
1CENTER
 10
2444.2655858337912
 20
-1909.67330468503
 30
0.0
 11
2444.2655858337912
 21
-1948.469143733495
 31
0.0
  0
LINE
  5
19B4E
  8
1PHANTOM
 10
2443.2655858337921
 20
-1945.0712242092641
 30
0.0
 11
2443.2655858337921
 21
-1943.0712242092629
 31
0.0
  0
LINE
  5
19B4F
  8
1PHANTOM
 10
2443.2655858337921
 20
-1915.071224209262
 30
0.0
 11
2443.2655858337921
 21
-1913.0712242092629
 31
0.0
  0
LINE
  5
19B50
  8
1PHANTOM
 10
2445.2655858337912
 20
-1945.0712242092629
 30
0.0
 11
2445.2655858337912
 21
-1943.0712242092629
 31
0.0
  0
LINE
  5
19B51
  8
1PHANTOM
 10
2445.2655858337921
 20
-1915.071224209262
 30
0.0
 11
2445.2655858337912
 21
-1913.0712242092629
 31
0.0
  0
LINE
  5
19B52
  8
1PHANTOM
 10
2431.2655858337912
 20
-1945.0712242092629
 30
0.0
 11
2431.265585833793
 21
-1913.071224209262
 31
0.0
  0
LINE
  5
19B53
  8
1PHANTOM
 10
2433.2655858337912
 20
-1943.0712242092629
 30
0.0
 11
2433.265585833793
 21
-1915.071224209262
 31
0.0
  0
LINE
  5
19B54
  8
1PHANTOM
 10
2457.2655858337921
 20
-1945.0712242092629
 30
0.0
 11
2457.2655858337921
 21
-1913.071224209262
 31
0.0
  0
LINE
  5
19B55
  8
1PHANTOM
 10
2455.2655858337912
 20
-1943.0712242092629
 30
0.0
 11
2455.2655858337912
 21
-1915.071224209262
 31
0.0
  0
LINE
  5
19B56
  8
1PHANTOM
 10
2431.2655858337912
 20
-1945.0712242092629
 30
0.0
 11
2443.2655858337921
 21
-1945.0712242092641
 31
0.0
  0
LINE
  5
19B57
  8
1PHANTOM
 10
2445.2655858337912
 20
-1945.0712242092629
 30
0.0
 11
2457.2655858337921
 21
-1945.0712242092629
 31
0.0
  0
LINE
  5
19B58
  8
1PHANTOM
 10
2433.2655858337912
 20
-1943.0712242092629
 30
0.0
 11
2443.2655858337921
 21
-1943.0712242092629
 31
0.0
  0
LINE
  5
19B59
  8
1PHANTOM
 10
2445.2655858337912
 20
-1943.0712242092629
 30
0.0
 11
2455.2655858337912
 21
-1943.0712242092629
 31
0.0
  0
LINE
  5
19B5A
  8
1PHANTOM
 10
2431.265585833793
 20
-1913.071224209262
 30
0.0
 11
2443.2655858337921
 21
-1913.071224209262
 31
0.0
  0
LINE
  5
19B5B
  8
1PHANTOM
 10
2445.2655858337912
 20
-1913.071224209262
 30
0.0
 11
2457.2655858337921
 21
-1913.071224209262
 31
0.0
  0
LINE
  5
19B5C
  8
1PHANTOM
 10
2433.265585833793
 20
-1915.071224209262
 30
0.0
 11
2443.2655858337912
 21
-1915.071224209262
 31
0.0
  0
LINE
  5
19B5D
  8
1PHANTOM
 10
2445.2655858337912
 20
-1915.071224209262
 30
0.0
 11
2455.2655858337912
 21
-1915.071224209262
 31
0.0
  0
LINE
  5
19D3E
  8
1DIM
 10
2407.7655858337921
 20
-1926.81931429049
 30
0.0
 11
2337.4230423764502
 21
-1926.81931429049
 31
0.0
  0
LINE
  5
19D3F
  8
1DIM
 10
2338.4230423764502
 20
-1928.81931429049
 30
0.0
 11
2338.4230423764502
 21
-2057.2000962267648
 31
0.0
  0
LINE
  5
1A10F
  8
01
 10
2433.7655858337912
 20
-1874.3193142904911
 30
0.0
 11
2433.7655858337912
 21
-1978.31931429049
 31
0.0
  0
LINE
  5
1A110
  8
01
 10
2381.7655858337912
 20
-1874.3193142904911
 30
0.0
 11
2381.7655858337912
 21
-1978.31931429049
 31
0.0
  0
LINE
  5
1A111
  8
01
 10
2433.7655858337912
 20
-1874.3193142904911
 30
0.0
 11
2381.7655858337912
 21
-1874.3193142904911
 31
0.0
  0
LINE
  5
1A112
  8
01
 10
2433.7655858337912
 20
-1978.31931429049
 30
0.0
 11
2381.7655858337912
 21
-1978.31931429049
 31
0.0
  0
LINE
  5
1A113
  8
01
  6
BYBLOCK
 10
2441.5655858337909
 20
-1900.31931429049
 30
0.0
 11
2441.5655858337909
 21
-1883.31931429049
 31
0.0
  0
LINE
  5
1A114
  8
01
  6
BYBLOCK
 10
2439.2655858337921
 20
-1900.31931429049
 30
0.0
 11
2439.2655858337921
 21
-1883.31931429049
 31
0.0
  0
LINE
  5
1A115
  8
01
  6
BYBLOCK
 10
2441.5655858337909
 20
-1883.31931429049
 30
0.0
 11
2439.2655858337921
 21
-1883.31931429049
 31
0.0
  0
LINE
  5
1A116
  8
01
  6
BYBLOCK
 10
2441.5655858337909
 20
-1900.31931429049
 30
0.0
 11
2439.2655858337921
 21
-1900.31931429049
 31
0.0
  0
TEXT
  5
1A25A
  8
1TEXT
 10
2590.8682031887201
 20
-1793.9418797038941
 30
0.0
 40
4.0
  1
WK-DA
 41
0.8
 72
     1
 11
2598.8682031887201
 21
-1793.9418797038941
 31
0.0
  0
TEXT
  5
1A25B
  8
1TEXT
 10
2591.401536522053
 20
-1800.941879703895
 30
0.0
 40
4.0
  1
JH-DB
 41
0.8
 72
     1
 11
2598.8682031887201
 21
-1800.941879703895
 31
0.0
  0
TEXT
  5
1A2B4
  8
1DIM
 10
2331.8897090431169
 20
-2013.426371925294
 30
0.0
 40
3.5
  1
地面からの推奨高さは
 50
90.0
  0
TEXT
  5
1A2B5
  8
1DIM
 10
2337.7230423764508
 20
-2008.9930385919611
 30
0.0
 40
3.5
  1
子機の推奨に従う
 50
90.0
  0
LINE
  5
1A2B6
  8
0
  6
BYBLOCK
 10
2337.88714399645
 20
-1928.81931429049
 30
0.0
 11
2338.4230423764502
 21
-1926.81931429049
 31
0.0
  0
LINE
  5
1A2B7
  8
0
  6
BYBLOCK
 10
2338.4230423764502
 20
-1926.81931429049
 30
0.0
 11
2338.9589407564499
 21
-1928.81931429049
 31
0.0
  0
LINE
  5
1A2B8
  8
0
  6
BYBLOCK
 10
2338.4230423764502
 20
-1926.81931429049
 30
0.0
 11
2338.4230423764502
 21
-1928.81931429049
 31
0.0
  0
LINE
  5
1A2BB
  8
1DIM
 10
2358.2655858337912
 20
-1945.0712242092629
 30
0.0
 11
2343.958696994473
 21
-1945.0712242092629
 31
0.0
  0
LINE
  5
1A2BC
  8
1DIM
 10
2358.2655858337912
 20
-1913.071224209262
 30
0.0
 11
2343.958696994473
 21
-1913.071224209262
 31
0.0
  0
LINE
  5
1A2BD
  8
1DIM
 10
2344.9586969944739
 20
-1943.0712242092629
 30
0.0
 11
2344.9586969944739
 21
-1915.071224209262
 31
0.0
  0
LINE
  5
1A2C1
  8
1DIM
 10
2384.2655858337912
 20
-1913.071224209262
 30
0.0
 11
2384.2655858337912
 21
-1905.4112848427051
 31
0.0
  0
LINE
  5
1A2C2
  8
1DIM
 10
2358.2655858337912
 20
-1913.071224209262
 30
0.0
 11
2358.2655858337912
 21
-1905.4112848427051
 31
0.0
  0
LINE
  5
1A2C3
  8
1DIM
 10
2382.2655858337912
 20
-1906.4112848427051
 30
0.0
 11
2360.2655858337921
 21
-1906.4112848427051
 31
0.0
  0
TEXT
  5
1A2C7
  8
1DIM
 10
2471.970133435892
 20
-1975.0000981876151
 30
0.0
 40
3.5
  1
配線穴
  0
SOLID
  5
1A2C8
  8
1DIM
 10
2444.992627820126
 20
-1930.983447584432
 30
0.0
 11
2444.34387485365
 21
-1929.062450265433
 31
0.0
 12
2445.5805862497209
 22
-1930.669203524008
 32
0.0
 13
2445.5805862497209
 23
-1930.669203524008
 33
0.0
  0
LINE
  5
1A2CA
  8
1DIM
 10
2459.761424882458
 20
-1929.071224209262
 30
0.0
 11
2477.0282465766318
 21
-1929.071224209262
 31
0.0
  0
LINE
  5
1A2CB
  8
1DIM
 10
2467.7655858337912
 20
-1845.069314290492
 30
0.0
 11
2477.0282465766318
 21
-1845.069314290492
 31
0.0
  0
LINE
  5
1A2CC
  8
1DIM
 10
2476.0282465766318
 20
-1927.071224209262
 30
0.0
 11
2476.0282465766318
 21
-1847.0693142904911
 31
0.0
  0
LINE
  5
1A2D0
  8
1DIM
 10
2371.2655858337898
 20
-1909.67330468503
 30
0.0
 11
2371.2655858337898
 21
-1830.486148834422
 31
0.0
  0
LINE
  5
1A2D1
  8
1DIM
 10
2444.2655858337912
 20
-1909.67330468503
 30
0.0
 11
2444.2655858337912
 21
-1830.486148834422
 31
0.0
  0
LINE
  5
1A2D2
  8
1DIM
 10
2373.2655858337898
 20
-1831.4861488344229
 30
0.0
 11
2442.2655858337912
 21
-1831.4861488344229
 31
0.0
  0
LINE
  5
1A2D6
  8
1DIM
 10
2352.7655858337912
 20
-1763.222167955985
 30
0.0
 11
2352.7655858337912
 21
-1755.565293368807
 31
0.0
  0
LINE
  5
1A2D7
  8
1DIM
 10
2462.7655858337921
 20
-1763.2221679559859
 30
0.0
 11
2462.7655858337921
 21
-1755.565293368807
 31
0.0
  0
LINE
  5
1A2D8
  8
1DIM
 10
2354.7655858337921
 20
-1756.565293368807
 30
0.0
 11
2460.7655858337921
 21
-1756.565293368807
 31
0.0
  0
LINE
  5
1A2DC
  8
1DIM
 10
2467.7655858337912
 20
-1845.069314290492
 30
0.0
 11
2486.7066141769819
 21
-1845.069314290492
 31
0.0
  0
LINE
  5
1A2DD
  8
1DIM
 10
2466.7655858337912
 20
-1839.06931429049
 30
0.0
 11
2486.7066141769819
 21
-1839.06931429049
 31
0.0
  0
LINE
  5
1A2DE
  8
1DIM
 10
2485.7066141769819
 20
-1843.0693142904911
 30
0.0
 11
2485.7066141769819
 21
-1841.06931429049
 31
0.0
  0
LINE
  5
1A2E2
  8
1DIM
 10
2467.7655858337912
 20
-1845.069314290492
 30
0.0
 11
2486.7066141769819
 21
-1845.069314290492
 31
0.0
  0
LINE
  5
1A2E3
  8
1DIM
 10
2467.7655858337912
 20
-2012.6356908104051
 30
0.0
 11
2486.7066141769819
 21
-2012.6356908104051
 31
0.0
  0
LINE
  5
1A2E4
  8
1DIM
 10
2485.7066141769819
 20
-1847.0693142904911
 30
0.0
 11
2485.7066141769819
 21
-2010.6356908104051
 31
0.0
  0
LINE
  5
1A2E8
  8
1DIM
 10
2347.7655858337921
 20
-1840.0693142904911
 30
0.0
 11
2347.7655858337921
 21
-1811.080169053836
 31
0.0
  0
LINE
  5
1A2E9
  8
1DIM
 10
2467.7655858337912
 20
-1840.0693142904911
 30
0.0
 11
2467.7655858337912
 21
-1811.080169053836
 31
0.0
  0
LINE
  5
1A2EA
  8
1DIM
 10
2349.7655858337921
 20
-1812.080169053836
 30
0.0
 11
2465.7655858337912
 21
-1812.080169053836
 31
0.0
  0
LINE
  5
1A2EE
  8
1DIM
 10
2466.7655858337912
 20
-2014.56931429049
 30
0.0
 11
2498.7609416757641
 21
-2014.56931429049
 31
0.0
  0
LINE
  5
1A2EF
  8
1DIM
 10
2466.7655858337912
 20
-1839.06931429049
 30
0.0
 11
2498.7609416757641
 21
-1839.06931429049
 31
0.0
  0
LINE
  5
1A2F0
  8
1DIM
 10
2497.7609416757641
 20
-2012.5693142904911
 30
0.0
 11
2497.7609416757641
 21
-1841.06931429049
 31
0.0
  0
LINE
  5
1A2F4
  8
1DIM
 10
2347.7655858337921
 20
-1840.0693142904911
 30
0.0
 11
2347.7655858337921
 21
-1819.99627595377
 31
0.0
  0
LINE
  5
1A2F5
  8
1DIM
 10
2467.7655858337912
 20
-1840.0693142904911
 30
0.0
 11
2467.7655858337912
 21
-1819.99627595377
 31
0.0
  0
LINE
  5
1A2F6
  8
1DIM
 10
2349.7655858337921
 20
-1820.99627595377
 30
0.0
 11
2465.7655858337912
 21
-1820.99627595377
 31
0.0
  0
TEXT
  5
1A2FA
  8
1DIM
 10
2475.2088792282029
 20
-1782.9717695304009
 30
0.0
 40
3.5
  1
材質：ステンレス
  0
SOLID
  5
1A2FB
  8
1DIM
 10
2464.703671568921
 20
-1793.364529697843
 30
0.0
 11
2463.1540872356049
 21
-1794.6721609551371
 31
0.0
 12
2464.1958136296189
 22
-1792.932644576621
 32
0.0
 13
2464.1958136296189
 23
-1792.932644576621
 33
0.0
  0
TEXT
  5
1A2FD
  8
1DIM
 10
2477.0810134333128
 20
-1829.794616680475
 30
0.0
 40
3.5
  1
材質：ステンレス
  0
TEXT
  5
1A2FE
  8
1DIM
 10
2480.8143467666459
 20
-1835.627950013808
 30
0.0
 40
3.5
  1
仕上：各種仕上
  0
SOLID
  5
1A2FF
  8
1DIM
 10
2516.7090346178429
 20
-1842.169088776003
 30
0.0
 11
2517.6290139022649
 21
-1843.97595048276
 31
0.0
 12
2516.1727540256202
 22
-1842.565128636181
 32
0.0
 13
2516.1727540256202
 23
-1842.565128636181
 33
0.0
  0
LINE
  5
1A301
  8
1DIM
 10
2524.7655858337912
 20
-1840.06931429049
 30
0.0
 11
2524.7655858337912
 21
-1829.06931429049
 31
0.0
  0
LINE
  5
1A302
  8
1DIM
 10
2562.7655858337921
 20
-1859.6693142904919
 30
0.0
 11
2562.7655858337921
 21
-1829.06931429049
 31
0.0
  0
LINE
  5
1A303
  8
1DIM
 10
2526.7655858337898
 20
-1830.06931429049
 30
0.0
 11
2560.7655858337921
 21
-1830.06931429049
 31
0.0
  0
LINE
  5
1A307
  8
1DIM
 10
2517.7655858337912
 20
-1840.06931429049
 30
0.0
 11
2517.7655858337912
 21
-1809.06931429049
 31
0.0
  0
LINE
  5
1A308
  8
1DIM
 10
2562.7655858337921
 20
-1859.6693142904919
 30
0.0
 11
2562.7655858337921
 21
-1809.06931429049
 31
0.0
  0
LINE
  5
1A309
  8
1DIM
 10
2519.7655858337898
 20
-1810.06931429049
 30
0.0
 11
2560.7655858337921
 21
-1810.06931429049
 31
0.0
  0
LINE
  5
1A30D
  8
1DIM
 10
2519.7655858337898
 20
-1840.06931429049
 30
0.0
 11
2519.7655858337898
 21
-1829.06931429049
 31
0.0
  0
LINE
  5
1A30E
  8
1DIM
 10
2524.7655858337912
 20
-1840.06931429049
 30
0.0
 11
2524.7655858337912
 21
-1829.06931429049
 31
0.0
  0
LINE
  5
1A30F
  8
1DIM
 10
2517.7655858337912
 20
-1830.06931429049
 30
0.0
 11
2515.7655858337898
 21
-1830.06931429049
 31
0.0
  0
LINE
  5
1A310
  8
1DIM
 10
2526.7655858337898
 20
-1830.06931429049
 30
0.0
 11
2528.7655858337898
 21
-1830.06931429049
 31
0.0
  0
LINE
  5
1A311
  8
1DIM
 10
2519.7655858337898
 20
-1830.06931429049
 30
0.0
 11
2524.7655858337912
 21
-1830.06931429049
 31
0.0
  0
LINE
  5
1A315
  8
1DIM
 10
2517.7655858337912
 20
-1840.06931429049
 30
0.0
 11
2517.7655858337912
 21
-1819.06931429049
 31
0.0
  0
LINE
  5
1A316
  8
1DIM
 10
2524.7655858337912
 20
-1840.06931429049
 30
0.0
 11
2524.7655858337912
 21
-1819.06931429049
 31
0.0
  0
LINE
  5
1A317
  8
1DIM
 10
2519.7655858337898
 20
-1820.06931429049
 30
0.0
 11
2522.7655858337898
 21
-1820.06931429049
 31
0.0
  0
TEXT
  5
1A31B
  8
1DIM
 10
2520.0989191671242
 20
-1819.3693142904899
 30
0.0
 40
3.5
  1
7
  0
LINE
  5
1A31C
  8
0
  6
BYBLOCK
 10
2522.7655858337898
 20
-1819.53341591049
 30
0.0
 11
2524.7655858337912
 21
-1820.06931429049
 31
0.0
  0
LINE
  5
1A31D
  8
0
  6
BYBLOCK
 10
2524.7655858337912
 20
-1820.06931429049
 30
0.0
 11
2522.7655858337898
 21
-1820.6052126704899
 31
0.0
  0
LINE
  5
1A31E
  8
0
  6
BYBLOCK
 10
2524.7655858337912
 20
-1820.06931429049
 30
0.0
 11
2522.7655858337898
 21
-1820.06931429049
 31
0.0
  0
LINE
  5
1A31F
  8
0
  6
BYBLOCK
 10
2519.7655858337898
 20
-1820.6052126704899
 30
0.0
 11
2517.7655858337912
 21
-1820.06931429049
 31
0.0
  0
LINE
  5
1A320
  8
0
  6
BYBLOCK
 10
2517.7655858337912
 20
-1820.06931429049
 30
0.0
 11
2519.7655858337898
 21
-1819.53341591049
 31
0.0
  0
LINE
  5
1A321
  8
0
  6
BYBLOCK
 10
2517.7655858337912
 20
-1820.06931429049
 30
0.0
 11
2519.7655858337898
 21
-1820.06931429049
 31
0.0
  0
TEXT
  5
1A322
  8
1DIM
 10
2521.0989191671242
 20
-1829.3693142904899
 30
0.0
 40
3.5
  1
5
  0
LINE
  5
1A323
  8
0
  6
BYBLOCK
 10
2526.7655858337898
 20
-1830.6052126704899
 30
0.0
 11
2524.7655858337912
 21
-1830.06931429049
 31
0.0
  0
LINE
  5
1A324
  8
0
  6
BYBLOCK
 10
2524.7655858337912
 20
-1830.06931429049
 30
0.0
 11
2526.7655858337898
 21
-1829.53341591049
 31
0.0
  0
LINE
  5
1A325
  8
0
  6
BYBLOCK
 10
2524.7655858337912
 20
-1830.06931429049
 30
0.0
 11
2526.7655858337898
 21
-1830.06931429049
 31
0.0
  0
LINE
  5
1A326
  8
0
  6
BYBLOCK
 10
2517.7655858337912
 20
-1829.53341591049
 30
0.0
 11
2519.7655858337898
 21
-1830.06931429049
 31
0.0
  0
LINE
  5
1A327
  8
0
  6
BYBLOCK
 10
2519.7655858337898
 20
-1830.06931429049
 30
0.0
 11
2517.7655858337912
 21
-1830.6052126704899
 31
0.0
  0
LINE
  5
1A328
  8
0
  6
BYBLOCK
 10
2519.7655858337898
 20
-1830.06931429049
 30
0.0
 11
2517.7655858337912
 21
-1830.06931429049
 31
0.0
  0
TEXT
  5
1A329
  8
1DIM
 10
2537.3489191671251
 20
-1809.3693142904899
 30
0.0
 40
3.5
  1
45
  0
LINE
  5
1A32A
  8
0
  6
BYBLOCK
 10
2560.7655858337921
 20
-1809.53341591049
 30
0.0
 11
2562.7655858337921
 21
-1810.06931429049
 31
0.0
  0
LINE
  5
1A32B
  8
0
  6
BYBLOCK
 10
2562.7655858337921
 20
-1810.06931429049
 30
0.0
 11
2560.7655858337921
 21
-1810.6052126704899
 31
0.0
  0
LINE
  5
1A32C
  8
0
  6
BYBLOCK
 10
2562.7655858337921
 20
-1810.06931429049
 30
0.0
 11
2560.7655858337921
 21
-1810.06931429049
 31
0.0
  0
LINE
  5
1A32D
  8
0
  6
BYBLOCK
 10
2519.7655858337898
 20
-1810.6052126704899
 30
0.0
 11
2517.7655858337912
 21
-1810.06931429049
 31
0.0
  0
LINE
  5
1A32E
  8
0
  6
BYBLOCK
 10
2517.7655858337912
 20
-1810.06931429049
 30
0.0
 11
2519.7655858337898
 21
-1809.53341591049
 31
0.0
  0
LINE
  5
1A32F
  8
0
  6
BYBLOCK
 10
2517.7655858337912
 20
-1810.06931429049
 30
0.0
 11
2519.7655858337898
 21
-1810.06931429049
 31
0.0
  0
TEXT
  5
1A330
  8
1DIM
 10
2532.448919167125
 20
-1829.3693142904899
 30
0.0
 40
3.5
  1
埋込寸法38
  0
LINE
  5
1A331
  8
0
  6
BYBLOCK
 10
2560.7655858337921
 20
-1829.53341591049
 30
0.0
 11
2562.7655858337921
 21
-1830.06931429049
 31
0.0
  0
LINE
  5
1A332
  8
0
  6
BYBLOCK
 10
2562.7655858337921
 20
-1830.06931429049
 30
0.0
 11
2560.7655858337921
 21
-1830.6052126704899
 31
0.0
  0
LINE
  5
1A333
  8
0
  6
BYBLOCK
 10
2562.7655858337921
 20
-1830.06931429049
 30
0.0
 11
2560.7655858337921
 21
-1830.06931429049
 31
0.0
  0
LINE
  5
1A334
  8
0
  6
BYBLOCK
 10
2526.7655858337898
 20
-1830.6052126704899
 30
0.0
 11
2524.7655858337912
 21
-1830.06931429049
 31
0.0
  0
LINE
  5
1A335
  8
0
  6
BYBLOCK
 10
2524.7655858337912
 20
-1830.06931429049
 30
0.0
 11
2526.7655858337898
 21
-1829.53341591049
 31
0.0
  0
LINE
  5
1A336
  8
0
  6
BYBLOCK
 10
2524.7655858337912
 20
-1830.06931429049
 30
0.0
 11
2526.7655858337898
 21
-1830.06931429049
 31
0.0
  0
LINE
  5
1A337
  8
1DIM
 10
2516.4408943217318
 20
-1842.367108706092
 30
0.0
 11
2511.981013433312
 21
-1836.327950013808
 31
0.0
  0
LINE
  5
1A338
  8
1DIM
 10
2511.981013433312
 20
-1836.327950013808
 30
0.0
 11
2509.2810134333122
 21
-1836.327950013808
 31
0.0
  0
LINE
  5
1A339
  8
1DIM
 10
2464.4497425992699
 20
-1793.148587137232
 30
0.0
 11
2472.5088792282031
 21
-1783.671769530401
 31
0.0
  0
LINE
  5
1A33A
  8
1DIM
 10
2472.5088792282031
 20
-1783.671769530401
 30
0.0
 11
2475.2088792282029
 21
-1783.671769530401
 31
0.0
  0
TEXT
  5
1A33B
  8
1DIM
 10
2403.9739191671251
 20
-1820.29627595377
 30
0.0
 40
3.5
  1
120
  0
LINE
  5
1A33C
  8
0
  6
BYBLOCK
 10
2465.7655858337912
 20
-1820.4603775737701
 30
0.0
 11
2467.7655858337912
 21
-1820.99627595377
 31
0.0
  0
LINE
  5
1A33D
  8
0
  6
BYBLOCK
 10
2467.7655858337912
 20
-1820.99627595377
 30
0.0
 11
2465.7655858337912
 21
-1821.5321743337699
 31
0.0
  0
LINE
  5
1A33E
  8
0
  6
BYBLOCK
 10
2467.7655858337912
 20
-1820.99627595377
 30
0.0
 11
2465.7655858337912
 21
-1820.99627595377
 31
0.0
  0
LINE
  5
1A33F
  8
0
  6
BYBLOCK
 10
2349.7655858337921
 20
-1821.5321743337699
 30
0.0
 11
2347.7655858337921
 21
-1820.99627595377
 31
0.0
  0
LINE
  5
1A340
  8
0
  6
BYBLOCK
 10
2347.7655858337921
 20
-1820.99627595377
 30
0.0
 11
2349.7655858337921
 21
-1820.4603775737701
 31
0.0
  0
LINE
  5
1A341
  8
0
  6
BYBLOCK
 10
2347.7655858337921
 20
-1820.99627595377
 30
0.0
 11
2349.7655858337921
 21
-1820.99627595377
 31
0.0
  0
TEXT
  5
1A342
  8
1DIM
 10
2497.0609416757652
 20
-1933.2359809571569
 30
0.0
 40
3.5
  1
175.5
 50
90.0
  0
LINE
  5
1A343
  8
0
  6
BYBLOCK
 10
2497.225043295764
 20
-1841.06931429049
 30
0.0
 11
2497.7609416757641
 21
-1839.06931429049
 31
0.0
  0
LINE
  5
1A344
  8
0
  6
BYBLOCK
 10
2497.7609416757641
 20
-1839.06931429049
 30
0.0
 11
2498.2968400557638
 21
-1841.06931429049
 31
0.0
  0
LINE
  5
1A345
  8
0
  6
BYBLOCK
 10
2497.7609416757641
 20
-1839.06931429049
 30
0.0
 11
2497.7609416757641
 21
-1841.06931429049
 31
0.0
  0
LINE
  5
1A346
  8
0
  6
BYBLOCK
 10
2498.2968400557638
 20
-2012.5693142904911
 30
0.0
 11
2497.7609416757641
 21
-2014.56931429049
 31
0.0
  0
LINE
  5
1A347
  8
0
  6
BYBLOCK
 10
2497.7609416757641
 20
-2014.56931429049
 30
0.0
 11
2497.225043295764
 21
-2012.5693142904911
 31
0.0
  0
LINE
  5
1A348
  8
0
  6
BYBLOCK
 10
2497.7609416757641
 20
-2014.56931429049
 30
0.0
 11
2497.7609416757641
 21
-2012.5693142904911
 31
0.0
  0
TEXT
  5
1A349
  8
1DIM
 10
2388.1072525004579
 20
-1811.380169053836
 30
0.0
 40
3.5
  1
切欠穴寸法120 以上
  0
LINE
  5
1A34A
  8
0
  6
BYBLOCK
 10
2465.7655858337912
 20
-1811.5442706738361
 30
0.0
 11
2467.7655858337912
 21
-1812.080169053836
 31
0.0
  0
LINE
  5
1A34B
  8
0
  6
BYBLOCK
 10
2467.7655858337912
 20
-1812.080169053836
 30
0.0
 11
2465.7655858337912
 21
-1812.616067433836
 31
0.0
  0
LINE
  5
1A34C
  8
0
  6
BYBLOCK
 10
2467.7655858337912
 20
-1812.080169053836
 30
0.0
 11
2465.7655858337912
 21
-1812.080169053836
 31
0.0
  0
LINE
  5
1A34D
  8
0
  6
BYBLOCK
 10
2349.7655858337921
 20
-1812.616067433836
 30
0.0
 11
2347.7655858337921
 21
-1812.080169053836
 31
0.0
  0
LINE
  5
1A34E
  8
0
  6
BYBLOCK
 10
2347.7655858337921
 20
-1812.080169053836
 30
0.0
 11
2349.7655858337921
 21
-1811.5442706738361
 31
0.0
  0
LINE
  5
1A34F
  8
0
  6
BYBLOCK
 10
2347.7655858337921
 20
-1812.080169053836
 30
0.0
 11
2349.7655858337921
 21
-1812.080169053836
 31
0.0
  0
TEXT
  5
1A350
  8
1DIM
 10
2485.006614176983
 20
-1948.802502550448
 30
0.0
 40
3.5
  1
切欠穴寸法168 以上
 50
90.0
  0
LINE
  5
1A351
  8
0
  6
BYBLOCK
 10
2486.2425125569821
 20
-2010.6356908104051
 30
0.0
 11
2485.7066141769819
 21
-2012.6356908104051
 31
0.0
  0
LINE
  5
1A352
  8
0
  6
BYBLOCK
 10
2485.7066141769819
 20
-2012.6356908104051
 30
0.0
 11
2485.1707157969822
 21
-2010.6356908104051
 31
0.0
  0
LINE
  5
1A353
  8
0
  6
BYBLOCK
 10
2485.7066141769819
 20
-2012.6356908104051
 30
0.0
 11
2485.7066141769819
 21
-2010.6356908104051
 31
0.0
  0
LINE
  5
1A354
  8
0
  6
BYBLOCK
 10
2485.1707157969822
 20
-1847.0693142904911
 30
0.0
 11
2485.7066141769819
 21
-1845.069314290492
 31
0.0
  0
LINE
  5
1A355
  8
0
  6
BYBLOCK
 10
2485.7066141769819
 20
-1845.069314290492
 30
0.0
 11
2486.2425125569821
 21
-1847.0693142904911
 31
0.0
  0
LINE
  5
1A356
  8
0
  6
BYBLOCK
 10
2485.7066141769819
 20
-1845.069314290492
 30
0.0
 11
2485.7066141769819
 21
-1847.0693142904911
 31
0.0
  0
TEXT
  5
1A357
  8
1DIM
 10
2485.006614176983
 20
-1843.2359809571569
 30
0.0
 40
3.5
  1
6
 50
90.0
  0
LINE
  5
1A358
  8
0
  6
BYBLOCK
 10
2485.1707157969822
 20
-1841.06931429049
 30
0.0
 11
2485.7066141769819
 21
-1839.06931429049
 31
0.0
  0
LINE
  5
1A359
  8
0
  6
BYBLOCK
 10
2485.7066141769819
 20
-1839.06931429049
 30
0.0
 11
2486.2425125569821
 21
-1841.06931429049
 31
0.0
  0
LINE
  5
1A35A
  8
0
  6
BYBLOCK
 10
2485.7066141769819
 20
-1839.06931429049
 30
0.0
 11
2485.7066141769819
 21
-1841.06931429049
 31
0.0
  0
LINE
  5
1A35B
  8
0
  6
BYBLOCK
 10
2486.2425125569821
 20
-1843.0693142904911
 30
0.0
 11
2485.7066141769819
 21
-1845.069314290492
 31
0.0
  0
LINE
  5
1A35C
  8
0
  6
BYBLOCK
 10
2485.7066141769819
 20
-1845.069314290492
 30
0.0
 11
2485.1707157969822
 21
-1843.0693142904911
 31
0.0
  0
LINE
  5
1A35D
  8
0
  6
BYBLOCK
 10
2485.7066141769819
 20
-1845.069314290492
 30
0.0
 11
2485.7066141769819
 21
-1843.0693142904911
 31
0.0
  0
TEXT
  5
1A35E
  8
1DIM
 10
2404.5572525004582
 20
-1755.865293368807
 30
0.0
 40
3.5
  1
110
  0
LINE
  5
1A35F
  8
0
  6
BYBLOCK
 10
2460.7655858337921
 20
-1756.0293949888071
 30
0.0
 11
2462.7655858337921
 21
-1756.565293368807
 31
0.0
  0
LINE
  5
1A360
  8
0
  6
BYBLOCK
 10
2462.7655858337921
 20
-1756.565293368807
 30
0.0
 11
2460.7655858337921
 21
-1757.101191748807
 31
0.0
  0
LINE
  5
1A361
  8
0
  6
BYBLOCK
 10
2462.7655858337921
 20
-1756.565293368807
 30
0.0
 11
2460.7655858337921
 21
-1756.565293368807
 31
0.0
  0
LINE
  5
1A362
  8
0
  6
BYBLOCK
 10
2354.7655858337921
 20
-1757.101191748807
 30
0.0
 11
2352.7655858337912
 21
-1756.565293368807
 31
0.0
  0
LINE
  5
1A363
  8
0
  6
BYBLOCK
 10
2352.7655858337912
 20
-1756.565293368807
 30
0.0
 11
2354.7655858337921
 21
-1756.0293949888071
 31
0.0
  0
LINE
  5
1A364
  8
0
  6
BYBLOCK
 10
2352.7655858337912
 20
-1756.565293368807
 30
0.0
 11
2354.7655858337921
 21
-1756.565293368807
 31
0.0
  0
TEXT
  5
1A365
  8
1DIM
 10
2404.8489191671242
 20
-1830.786148834422
 30
0.0
 40
3.5
  1
73
  0
LINE
  5
1A366
  8
0
  6
BYBLOCK
 10
2442.2655858337912
 20
-1830.950250454423
 30
0.0
 11
2444.2655858337912
 21
-1831.4861488344229
 31
0.0
  0
LINE
  5
1A367
  8
0
  6
BYBLOCK
 10
2444.2655858337912
 20
-1831.4861488344229
 30
0.0
 11
2442.2655858337912
 21
-1832.0220472144219
 31
0.0
  0
LINE
  5
1A368
  8
0
  6
BYBLOCK
 10
2444.2655858337912
 20
-1831.4861488344229
 30
0.0
 11
2442.2655858337912
 21
-1831.4861488344229
 31
0.0
  0
LINE
  5
1A369
  8
0
  6
BYBLOCK
 10
2373.2655858337898
 20
-1832.0220472144219
 30
0.0
 11
2371.2655858337898
 21
-1831.4861488344229
 31
0.0
  0
LINE
  5
1A36A
  8
0
  6
BYBLOCK
 10
2371.2655858337898
 20
-1831.4861488344229
 30
0.0
 11
2373.2655858337898
 21
-1830.950250454423
 31
0.0
  0
LINE
  5
1A36B
  8
0
  6
BYBLOCK
 10
2371.2655858337898
 20
-1831.4861488344229
 30
0.0
 11
2373.2655858337898
 21
-1831.4861488344229
 31
0.0
  0
TEXT
  5
1A36C
  8
1DIM
 10
2475.3282465766329
 20
-1889.986935916543
 30
0.0
 40
3.5
  1
84
 50
90.0
  0
LINE
  5
1A36D
  8
0
  6
BYBLOCK
 10
2475.4923481966321
 20
-1847.0693142904911
 30
0.0
 11
2476.0282465766318
 21
-1845.069314290492
 31
0.0
  0
LINE
  5
1A36E
  8
0
  6
BYBLOCK
 10
2476.0282465766318
 20
-1845.069314290492
 30
0.0
 11
2476.5641449566328
 21
-1847.0693142904911
 31
0.0
  0
LINE
  5
1A36F
  8
0
  6
BYBLOCK
 10
2476.0282465766318
 20
-1845.069314290492
 30
0.0
 11
2476.0282465766318
 21
-1847.0693142904911
 31
0.0
  0
LINE
  5
1A370
  8
0
  6
BYBLOCK
 10
2476.5641449566328
 20
-1927.071224209262
 30
0.0
 11
2476.0282465766318
 21
-1929.071224209262
 31
0.0
  0
LINE
  5
1A371
  8
0
  6
BYBLOCK
 10
2476.0282465766318
 20
-1929.071224209262
 30
0.0
 11
2475.4923481966321
 21
-1927.071224209262
 31
0.0
  0
LINE
  5
1A372
  8
0
  6
BYBLOCK
 10
2476.0282465766318
 20
-1929.071224209262
 30
0.0
 11
2476.0282465766318
 21
-1927.071224209262
 31
0.0
  0
LINE
  5
1A373
  8
1DIM
 10
2445.2866070349228
 20
-1930.8263255542199
 30
0.0
 11
2469.2701334358931
 21
-1975.7000981876149
 31
0.0
  0
LINE
  5
1A374
  8
1DIM
 10
2469.2701334358931
 20
-1975.7000981876149
 30
0.0
 11
2471.970133435892
 21
-1975.7000981876149
 31
0.0
  0
TEXT
  5
1A375
  8
1DIM
 10
2368.3489191671251
 20
-1905.711284842705
 30
0.0
 40
3.5
  1
26
  0
LINE
  5
1A376
  8
0
  6
BYBLOCK
 10
2360.2655858337921
 20
-1906.947183222705
 30
0.0
 11
2358.2655858337912
 21
-1906.4112848427051
 31
0.0
  0
LINE
  5
1A377
  8
0
  6
BYBLOCK
 10
2358.2655858337912
 20
-1906.4112848427051
 30
0.0
 11
2360.2655858337921
 21
-1905.8753864627049
 31
0.0
  0
LINE
  5
1A378
  8
0
  6
BYBLOCK
 10
2358.2655858337912
 20
-1906.4112848427051
 30
0.0
 11
2360.2655858337921
 21
-1906.4112848427051
 31
0.0
  0
LINE
  5
1A379
  8
0
  6
BYBLOCK
 10
2382.2655858337912
 20
-1905.8753864627049
 30
0.0
 11
2384.2655858337912
 21
-1906.4112848427051
 31
0.0
  0
LINE
  5
1A37A
  8
0
  6
BYBLOCK
 10
2384.2655858337912
 20
-1906.4112848427051
 30
0.0
 11
2382.2655858337912
 21
-1906.947183222705
 31
0.0
  0
LINE
  5
1A37B
  8
0
  6
BYBLOCK
 10
2384.2655858337912
 20
-1906.4112848427051
 30
0.0
 11
2382.2655858337912
 21
-1906.4112848427051
 31
0.0
  0
TEXT
  5
1A37C
  8
1DIM
 10
2344.2586969944741
 20
-1931.987890875929
 30
0.0
 40
3.5
  1
32
 50
90.0
  0
LINE
  5
1A37D
  8
0
  6
BYBLOCK
 10
2344.4227986144729
 20
-1915.071224209262
 30
0.0
 11
2344.9586969944739
 21
-1913.071224209262
 31
0.0
  0
LINE
  5
1A37E
  8
0
  6
BYBLOCK
 10
2344.9586969944739
 20
-1913.071224209262
 30
0.0
 11
2345.4945953744741
 21
-1915.071224209262
 31
0.0
  0
LINE
  5
1A37F
  8
0
  6
BYBLOCK
 10
2344.9586969944739
 20
-1913.071224209262
 30
0.0
 11
2344.9586969944739
 21
-1915.071224209262
 31
0.0
  0
LINE
  5
1A380
  8
0
  6
BYBLOCK
 10
2345.4945953744741
 20
-1943.0712242092629
 30
0.0
 11
2344.9586969944739
 21
-1945.0712242092629
 31
0.0
  0
LINE
  5
1A381
  8
0
  6
BYBLOCK
 10
2344.9586969944739
 20
-1945.0712242092629
 30
0.0
 11
2344.4227986144729
 21
-1943.0712242092629
 31
0.0
  0
LINE
  5
1A382
  8
0
  6
BYBLOCK
 10
2344.9586969944739
 20
-1945.0712242092629
 30
0.0
 11
2344.9586969944739
 21
-1943.0712242092629
 31
0.0
  0
VIEWPORT
  5
57
 67
     1
  8
0
 10
-12.71820606546885
 20
10.09248672500371
 30
0.0
 40
618.8972017416412
 41
282.79330210784627
 68
     1
 69
     1
1001
ACAD
1000
MVIEW
1002
{
1070
    16
1010
0.0
1020
0.0
1030
0.0
1010
0.0
1020
0.0
1030
1.0
1040
0.0
1040
282.79330210784627
1040
-12.71820606546885
1040
10.09248672500371
1040
50.0
1040
0.0
1040
0.0
1070
     0
1070
   100
1070
     1
1070
     1
1070
     0
1070
     0
1070
     0
1070
     0
1040
0.0
1040
0.0
1040
0.0
1040
10.0
1040
10.0
1040
10.0
1040
10.0
1070
     0
1002
{
1002
}
1002
}
  0
ENDSEC
  0
EOF
