  0
SECTION
  2
HEADER
  9
$ACADVER
  1
AC1009
  9
$INSBASE
 10
0.0
 20
0.0
 30
0.0
  9
$EXTMIN
 10
2319.3330719311321
 20
-2057.9750359404079
 30
0.0
  9
$EXTMAX
 10
2618.2414154052381
 20
-1753.140233082451
 30
0.0
  9
$LIMMIN
 10
0.0
 20
0.0
  9
$LIMMAX
 10
420.0
 20
297.0
  9
$ORTHOMODE
 70
     0
  9
$REGENMODE
 70
     1
  9
$FILLMODE
 70
     1
  9
$QTEXTMODE
 70
     0
  9
$MIRRTEXT
 70
     0
  9
$DRAGMODE
 70
     2
  9
$LTSCALE
 40
0.5
  9
$OSMODE
 70
    55
  9
$ATTMODE
 70
     1
  9
$TEXTSIZE
 40
4.0
  9
$TRACEWID
 40
1.0
  9
$TEXTSTYLE
  7
STANDARD
  9
$CLAYER
  8
1TEXT
  9
$CELTYPE
  6
BYLAYER
  9
$CECOLOR
 62
   256
  9
$DIMSCALE
 40
1.0
  9
$DIMASZ
 40
2.0
  9
$DIMEXO
 40
0.0
  9
$DIMDLI
 40
7.0
  9
$DIMRND
 40
0.0
  9
$DIMDLE
 40
0.0
  9
$DIMEXE
 40
1.0
  9
$DIMTP
 40
0.0
  9
$DIMTM
 40
0.0
  9
$DIMTXT
 40
3.5
  9
$DIMCEN
 40
0.0
  9
$DIMTSZ
 40
0.0
  9
$DIMTOL
 70
     0
  9
$DIMLIM
 70
     0
  9
$DIMTIH
 70
     0
  9
$DIMTOH
 70
     0
  9
$DIMSE1
 70
     0
  9
$DIMSE2
 70
     0
  9
$DIMTAD
 70
     1
  9
$DIMZIN
 70
     8
  9
$DIMBLK
  1

  9
$DIMASO
 70
     1
  9
$DIMSHO
 70
     1
  9
$DIMPOST
  1
 
  9
$DIMAPOST
  1

  9
$DIMALT
 70
     0
  9
$DIMALTD
 70
     2
  9
$DIMALTF
 40
25.399999999999999
  9
$DIMLFAC
 40
1.0
  9
$DIMTOFL
 70
     1
  9
$DIMTVP
 40
0.0
  9
$DIMTIX
 70
     0
  9
$DIMSOXD
 70
     0
  9
$DIMSAH
 70
     1
  9
$DIMBLK1
  1
OPEN30
  9
$DIMBLK2
  1
OPEN30
  9
$DIMSTYLE
  2
NEWX10
  9
$DIMCLRD
 70
   256
  9
$DIMCLRE
 70
   256
  9
$DIMCLRT
 70
   201
  9
$DIMTFAC
 40
0.7
  9
$DIMGAP
 40
0.7
  9
$LUNITS
 70
     2
  9
$LUPREC
 70
     4
  9
$SKETCHINC
 40
1.0
  9
$FILLETRAD
 40
0.0
  9
$AUNITS
 70
     0
  9
$AUPREC
 70
     2
  9
$MENU
  1
acad
  9
$ELEVATION
 40
0.0
  9
$PELEVATION
 40
0.0
  9
$THICKNESS
 40
0.0
  9
$LIMCHECK
 70
     0
  9
$BLIPMODE
 70
     0
  9
$CHAMFERA
 40
10.0
  9
$CHAMFERB
 40
10.0
  9
$SKPOLY
 70
     0
  9
$TDCREATE
 40
2453033.7326634838
  9
$TDUPDATE
 40
2457639.6949867941
  9
$TDINDWG
 40
2.3990525463000001
  9
$TDUSRTIMER
 40
2.3990525463000001
  9
$USRTIMER
 70
     1
  9
$ANGBASE
 50
0.0
  9
$ANGDIR
 70
     0
  9
$PDMODE
 70
     0
  9
$PDSIZE
 40
0.0
  9
$PLINEWID
 40
0.0
  9
$COORDS
 70
     0
  9
$SPLFRAME
 70
     0
  9
$SPLINETYPE
 70
     6
  9
$SPLINESEGS
 70
     8
  9
$ATTDIA
 70
     0
  9
$ATTREQ
 70
     1
  9
$HANDLING
 70
     1
  9
$HANDSEED
  5
18F8B
  9
$SURFTAB1
 70
     6
  9
$SURFTAB2
 70
     6
  9
$SURFTYPE
 70
     6
  9
$SURFU
 70
     6
  9
$SURFV
 70
     6
  9
$UCSNAME
  2

  9
$UCSORG
 10
0.0
 20
0.0
 30
0.0
  9
$UCSXDIR
 10
1.0
 20
0.0
 30
0.0
  9
$UCSYDIR
 10
0.0
 20
1.0
 30
0.0
  9
$PUCSNAME
  2

  9
$PUCSORG
 10
0.0
 20
0.0
 30
0.0
  9
$PUCSXDIR
 10
1.0
 20
0.0
 30
0.0
  9
$PUCSYDIR
 10
0.0
 20
1.0
 30
0.0
  9
$USERI1
 70
     0
  9
$USERI2
 70
     0
  9
$USERI3
 70
     0
  9
$USERI4
 70
     0
  9
$USERI5
 70
     0
  9
$USERR1
 40
0.0
  9
$USERR2
 40
0.0
  9
$USERR3
 40
0.0
  9
$USERR4
 40
0.0
  9
$USERR5
 40
0.0
  9
$WORLDVIEW
 70
     1
  9
$SHADEDGE
 70
     3
  9
$SHADEDIF
 70
    70
  9
$TILEMODE
 70
     1
  9
$MAXACTVP
 70
    48
  9
$PLIMCHECK
 70
     0
  9
$PEXTMIN
 10
1.0000000000000000E+020
 20
1.0000000000000000E+020
 30
1.0000000000000000E+020
  9
$PEXTMAX
 10
-1.0000000000000000E+020
 20
-1.0000000000000000E+020
 30
-1.0000000000000000E+020
  9
$PLIMMIN
 10
0.0
 20
0.0
  9
$PLIMMAX
 10
420.0
 20
297.0
  9
$UNITMODE
 70
     0
  9
$VISRETAIN
 70
     1
  9
$PLINEGEN
 70
     0
  9
$PSLTSCALE
 70
     1
  0
ENDSEC
  0
SECTION
  2
TABLES
  0
TABLE
  2
VPORT
 70
     1
  0
VPORT
  2
*ACTIVE
 70
     0
 10
0.0
 20
0.0
 11
1.0
 21
1.0
 12
2468.8039836679568
 22
-1905.5067840081419
 13
0.0
 23
0.0
 14
10.0
 24
10.0
 15
10.0
 25
10.0
 16
0.0
 26
0.0
 36
1.0
 17
0.0
 27
0.0
 37
0.0
 40
323.53960515496129
 41
2.1885143570536818
 42
50.0
 43
0.0
 44
0.0
 50
0.0
 51
0.0
 71
     0
 72
   100
 73
     1
 74
     1
 75
     0
 76
     0
 77
     0
 78
     0
  0
ENDTAB
  0
TABLE
  2
LTYPE
 70
    15
  0
LTYPE
  2
CONTINUOUS
 70
     0
  3
Solid line
 72
    65
 73
     0
 40
0.0
  0
LTYPE
  2
CENTER2
 70
     0
  3
Center (.5x) ___ _ ___ _ ___ _ ___ _ ___ _ ___
 72
    65
 73
     4
 40
28.574999999999999
 49
19.050000000000001
 49
-3.1749999999999989
 49
3.1749999999999989
 49
-3.1749999999999989
  0
LTYPE
  2
PHANTOM2
 70
     0
  3
Phantom (.5x) ___ _ _ ___ _ _ ___ _ _ ___ _ _
 72
    65
 73
     6
 40
31.75
 49
15.875
 49
-3.1749999999999989
 49
3.1749999999999989
 49
-3.1749999999999989
 49
3.1749999999999989
 49
-3.1749999999999989
  0
ENDTAB
  0
TABLE
  2
LAYER
 70
    45
  0
LAYER
  2
0
 70
     0
 62
     7
  6
CONTINUOUS
  0
LAYER
  2
1CENTER
 70
     0
 62
     7
  6
CENTER2
  0
LAYER
  2
1TEXT
 70
     0
 62
     7
  6
CONTINUOUS
  0
LAYER
  2
1DIM
 70
     0
 62
     7
  6
CONTINUOUS
  0
LAYER
  2
1PHANTOM
 70
     0
 62
     7
  6
PHANTOM2
  0
LAYER
  2
01
 70
     0
 62
     1
  6
CONTINUOUS
  0
ENDTAB
  0
TABLE
  2
STYLE
 70
    23
  0
STYLE
  2
STANDARD
 70
     0
 40
0.0
 41
1.0
 50
0.0
 71
     0
 42
4.0
  3
txt.shx
  4
extfont.shx
  0
ENDTAB
  0
TABLE
  2
VIEW
 70
     5
  0
ENDTAB
  0
TABLE
  2
UCS
 70
     0
  0
ENDTAB
  0
TABLE
  2
APPID
 70
    12
  0
APPID
  2
ACAD
 70
     0
  0
APPID
  2
DRAWINGVARIABLESXDATA
 70
     0
  0
APPID
  2
CONTENTTABDATA
 70
     0
  0
APPID
  2
CONTENTCURRENTTAB
 70
     0
  0
APPID
  2
CONTENTBLOCKDESCRIPTION
 70
     0
  0
APPID
  2
CONTENTBLOCKICON
 70
     0
  0
APPID
  2
CONTENTLONGBLOCKNAME
 70
     0
  0
APPID
  2
ACAD_PSEXT
 70
     0
  0
APPID
  2
ACAD_DSTYLE_DIMTEXT_FILL
 70
     0
  0
APPID
  2
ACAD_MLEADERVER
 70
     0
  0
APPID
  2
ACAD_DSTYLE_DIMRADIAL_EXTENSION
 70
     0
  0
APPID
  2
ACAD_EXEMPT_FROM_CAD_STANDARDS
 70
     0
  0
ENDTAB
  0
TABLE
  2
DIMSTYLE
 70
     9
  0
DIMSTYLE
  2
NEWX10
 70
     0
  3
 
  4

  5

  6
OPEN30
  7
OPEN30
 40
1.0
 41
2.0
 42
0.0
 43
7.0
 44
1.0
 45
0.0
 46
0.0
 47
0.0
 48
0.0
140
3.5
141
0.0
142
0.0
143
25.399999999999999
144
1.0
145
0.0
146
0.7
147
0.7
 71
     0
 72
     0
 73
     0
 74
     0
 75
     0
 76
     0
 77
     1
 78
     8
170
     0
171
     2
172
     1
173
     1
174
     0
175
     0
176
   256
177
   256
178
   201
  0
ENDTAB
  0
ENDSEC
  0
SECTION
  2
BLOCKS
  0
BLOCK
  8
0
  2
$MODEL_SPACE
 70
     0
 10
0.0
 20
0.0
 30
0.0
  3
$MODEL_SPACE
  1

  0
ENDBLK
  5
1A
  8
0
  0
BLOCK
 67
     1
  8
0
  2
$PAPER_SPACE
 70
     0
 10
0.0
 20
0.0
 30
0.0
  3
$PAPER_SPACE
  1

  0
ENDBLK
  5
17
 67
     1
  8
0
  0
BLOCK
  8
0
  2
_OPEN30
 70
     0
 10
0.0
 20
0.0
 30
0.0
  3
_OPEN30
  1

  0
LINE
  5
44
  8
0
  6
BYBLOCK
 62
     0
 10
-1.0
 20
0.26794919
 30
0.0
 11
0.0
 21
0.0
 31
0.0
  0
LINE
  5
45
  8
0
  6
BYBLOCK
 62
     0
 10
0.0
 20
0.0
 30
0.0
 11
-1.0
 21
-0.26794919
 31
0.0
  0
LINE
  5
46
  8
0
  6
BYBLOCK
 62
     0
 10
0.0
 20
0.0
 30
0.0
 11
-1.0
 21
0.0
 31
0.0
  0
ENDBLK
  5
47
  8
0
  0
ENDSEC
  0
SECTION
  2
ENTITIES
  0
LINE
  5
16503
  8
1DIM
 10
2513.2414154052381
 20
-1775.4005135026009
 30
0.0
 11
2618.2414154052381
 21
-1775.4005135026009
 31
0.0
  0
LINE
  5
16504
  8
1DIM
 10
2513.2414154052381
 20
-1768.4005135026009
 30
0.0
 11
2618.2414154052381
 21
-1768.4005135026
 31
0.0
  0
TEXT
  5
16505
  8
1TEXT
 10
2558.841415405238
 20
-1773.9005135026021
 30
0.0
 40
4.0
  1
コード
 72
     1
 11
2565.6414154052381
 21
-1773.9005135026021
 31
0.0
  0
TEXT
  5
16506
  8
1TEXT
 10
2522.4814154052378
 20
-1773.9005135026021
 30
0.0
 40
4.0
  1
表面処理
 41
0.9
 72
     1
 11
2530.6414154052381
 21
-1773.9005135026021
 31
0.0
  0
LINE
  5
16507
  8
1DIM
 10
2513.2414154052381
 20
-1782.4005135026021
 30
0.0
 11
2583.241415405239
 21
-1782.4005135026021
 31
0.0
  0
LINE
  5
16509
  8
1DIM
 10
2513.2414154052381
 20
-1768.4005135026021
 30
0.0
 11
2513.2414154052381
 21
-1803.4005135026021
 31
0.0
  0
LINE
  5
1650A
  8
1DIM
 10
2548.2414154052381
 20
-1768.4005135026009
 30
0.0
 11
2548.2414154052371
 21
-1803.4005135026021
 31
0.0
  0
LINE
  5
1650B
  8
1DIM
 10
2583.241415405239
 20
-1768.4005135026009
 30
0.0
 11
2583.2414154052371
 21
-1803.4005135026021
 31
0.0
  0
TEXT
  5
1650D
  8
1TEXT
 10
2512.040125922179
 20
-1764.1093842765099
 30
0.0
 40
8.0
  1
GP-092-X-31
  0
LINE
  5
1653A
  8
1DIM
 10
2513.2414154052381
 20
-1789.4005135026021
 30
0.0
 11
2583.2414154052371
 21
-1789.4005135026021
 31
0.0
  0
TEXT
  5
1653B
  8
1TEXT
 10
2513.841415405238
 20
-1781.1148704862501
 30
0.0
 40
4.0
  1
ブラストブラック
 41
0.9
 72
     1
 11
2530.6414154052381
 21
-1781.1148704862501
 31
0.0
  0
TEXT
  5
1653C
  8
1TEXT
 10
2549.3080820719051
 20
-1781.1148704862501
 30
0.0
 40
4.0
  1
GP092XK31
 72
     1
 11
2565.6414154052381
 21
-1781.1148704862501
 31
0.0
  0
TEXT
  5
1653F
  8
1TEXT
 10
2549.3080820719051
 20
-1788.114870486251
 30
0.0
 40
4.0
  1
GP092XS31
 72
     1
 11
2565.6414154052381
 21
-1788.114870486251
 31
0.0
  0
TEXT
  5
16D95
  8
1TEXT
 10
2591.574748738572
 20
-1773.9005135026009
 30
0.0
 40
4.0
  1
対応子機
 72
     1
 11
2600.6414154052391
 21
-1773.9005135026009
 31
0.0
  0
TEXT
  5
16D97
  8
1TEXT
 10
2588.9080820719059
 20
-1788.114870486251
 30
0.0
 40
4.0
  1
VL-V565
 41
0.8
 72
     1
 11
2600.6414154052391
 21
-1788.114870486251
 31
0.0
  0
TEXT
  5
16DB4
  8
1TEXT
 10
2586.7747487385732
 20
-1781.114870486251
 30
0.0
 40
4.0
  1
パナソニック
 72
     1
 11
2600.64141540524
 21
-1781.114870486251
 31
0.0
  0
LINE
  5
1797C
  8
1DIM
 10
2618.2414154052381
 20
-1768.4005135026009
 30
0.0
 11
2618.2414154052381
 21
-1803.4005135026021
 31
0.0
  0
TEXT
  5
17FF8
  8
1TEXT
 10
2513.8280820719051
 20
-1795.114870486251
 30
0.0
 40
4.0
  1
ブラストダークアンバー
 41
0.65
 72
     1
 11
2530.6414154052381
 21
-1795.114870486251
 31
0.0
  0
TEXT
  5
17FF9
  8
1TEXT
 10
2549.3080820719051
 20
-1795.114870486251
 30
0.0
 40
4.0
  1
GP0924Q31
 72
     1
 11
2565.6414154052381
 21
-1795.114870486251
 31
0.0
  0
TEXT
  5
17FFA
  8
1TEXT
 10
2588.908082071905
 20
-1795.114870486251
 30
0.0
 40
4.0
  1
VL-V566
 41
0.8
 72
     1
 11
2600.6414154052381
 21
-1795.114870486251
 31
0.0
  0
TEXT
  5
17FFB
  8
1TEXT
 10
2513.841415405238
 20
-1788.1148704862501
 30
0.0
 40
4.0
  1
ブラストシルバー
 41
0.9
 72
     1
 11
2530.6414154052381
 21
-1788.1148704862501
 31
0.0
  0
LINE
  5
17FFC
  8
1DIM
 10
2513.2414154052381
 20
-1796.4005135026009
 30
0.0
 11
2583.2414154052371
 21
-1796.4005135026009
 31
0.0
  0
LINE
  5
18498
  8
01
  6
BYBLOCK
 10
2511.208948721805
 20
-2015.594254004134
 30
0.0
 11
2511.208948721805
 21
-2014.5942540041351
 31
0.0
  0
LINE
  5
18499
  8
01
  6
BYBLOCK
 10
2515.7089487218059
 20
-2014.5942540041351
 30
0.0
 11
2515.7089487218059
 21
-2013.410630524048
 31
0.0
  0
LINE
  5
1849A
  8
1PHANTOM
 10
2515.7089487218059
 20
-2013.410630524048
 30
0.0
 11
2515.708948721805
 21
-2005.8480738416779
 31
0.0
  0
ARC
  5
1849B
  8
01
  6
BYBLOCK
 10
2514.7089487218059
 20
-2014.5942540041351
 30
0.0
 40
1.0
 50
270.0
 51
0.0
  0
LINE
  5
1849C
  8
01
  6
BYBLOCK
 10
2514.708948721805
 20
-2014.5942540041351
 30
0.0
 11
2514.708948721805
 21
-2013.498119187574
 31
0.0
  0
LINE
  5
1849D
  8
1PHANTOM
 10
2514.708948721805
 20
-2013.498119187574
 30
0.0
 11
2514.708948721805
 21
-2006.848073841679
 31
0.0
  0
LINE
  5
1849E
  8
1PHANTOM
 10
2549.7089487218059
 20
-2002.5942540041351
 30
0.0
 11
2515.708948721805
 21
-2002.5942540041351
 31
0.0
  0
LINE
  5
1849F
  8
1PHANTOM
 10
2549.7089487218041
 20
-2001.594254004134
 30
0.0
 11
2515.7089487218059
 21
-2001.5942540041351
 31
0.0
  0
ARC
  5
184A0
  8
01
  6
BYBLOCK
 10
2515.708948721805
 20
-2002.5942540041351
 30
0.0
 40
1.0
 50
90.0
 51
180.0
  0
LINE
  5
184A1
  8
1PHANTOM
 10
2549.7089487218059
 20
-1987.5942540041351
 30
0.0
 11
2543.7089487218059
 21
-1987.594254004136
 31
0.0
  0
ARC
  5
184A2
  8
1PHANTOM
 10
2549.7089487218059
 20
-1988.5942540041351
 30
0.0
 40
1.0
 50
0.0
 51
90.0
  0
LINE
  5
184A3
  8
1PHANTOM
 10
2549.7089487218041
 20
-1988.594254004134
 30
0.0
 11
2543.7089487218059
 21
-1988.594254004136
 31
0.0
  0
LINE
  5
184A4
  8
1PHANTOM
 10
2549.7089487218059
 20
-1870.594254004134
 30
0.0
 11
2543.7089487218059
 21
-1870.594254004134
 31
0.0
  0
LINE
  5
184A5
  8
1PHANTOM
 10
2549.7089487218059
 20
-1869.5942540041351
 30
0.0
 11
2543.708948721805
 21
-1869.5942540041369
 31
0.0
  0
ARC
  5
184A6
  8
1PHANTOM
 10
2543.708948721805
 20
-1870.594254004136
 30
0.0
 40
1.0
 50
90.0
 51
180.0
  0
LINE
  5
184A7
  8
01
  6
BYBLOCK
 10
2511.208948721805
 20
-2015.594254004134
 30
0.0
 11
2514.7089487218059
 21
-2015.5942540041351
 31
0.0
  0
LINE
  5
184A8
  8
01
  6
BYBLOCK
 10
2511.208948721805
 20
-2014.5942540041351
 30
0.0
 11
2514.708948721805
 21
-2014.5942540041351
 31
0.0
  0
LINE
  5
184A9
  8
1PHANTOM
 10
2550.708948721805
 20
-2001.5942540041351
 30
0.0
 11
2550.708948721805
 21
-1988.5942540041351
 31
0.0
  0
ARC
  5
184AA
  8
1PHANTOM
 10
2549.7089487218059
 20
-2001.5942540041351
 30
0.0
 40
1.0
 50
270.0
 51
0.0
  0
LINE
  5
184AB
  8
1PHANTOM
 10
2549.7089487218041
 20
-2001.594254004134
 30
0.0
 11
2549.7089487218041
 21
-1988.594254004134
 31
0.0
  0
LINE
  5
184AC
  8
1PHANTOM
 10
2550.708948721805
 20
-1869.594254004134
 30
0.0
 11
2550.708948721805
 21
-1856.594254004136
 31
0.0
  0
ARC
  5
184AD
  8
1PHANTOM
 10
2549.7089487218059
 20
-1869.594254004134
 30
0.0
 40
1.0
 50
270.0
 51
0.0
  0
LINE
  5
184AE
  8
1PHANTOM
 10
2549.7089487218059
 20
-1869.5942540041351
 30
0.0
 11
2549.708948721805
 21
-1856.5942540041351
 31
0.0
  0
LINE
  5
184AF
  8
1PHANTOM
 10
2542.708948721805
 20
-1870.594254004136
 30
0.0
 11
2542.7089487218059
 21
-1987.5942540041351
 31
0.0
  0
ARC
  5
184B0
  8
1PHANTOM
 10
2543.7089487218059
 20
-1987.5942540041351
 30
0.0
 40
1.0
 50
180.0
 51
270.00000000002598
  0
LINE
  5
184B1
  8
1PHANTOM
 10
2543.7089487218059
 20
-1870.594254004134
 30
0.0
 11
2543.7089487218059
 21
-1987.5942540041351
 31
0.0
  0
LINE
  5
184B2
  8
1PHANTOM
 10
2513.208948721805
 20
-1855.5942540041351
 30
0.0
 11
2549.7089487218059
 21
-1855.594254004136
 31
0.0
  0
ARC
  5
184B3
  8
1PHANTOM
 10
2549.7089487218059
 20
-1856.594254004136
 30
0.0
 40
1.0
 50
0.0
 51
90.0
  0
LINE
  5
184B4
  8
1PHANTOM
 10
2513.208948721805
 20
-1856.594254004134
 30
0.0
 11
2549.708948721805
 21
-1856.5942540041351
 31
0.0
  0
LINE
  5
184B5
  8
1PHANTOM
 10
2545.708948721805
 20
-1972.744254004135
 30
0.0
 11
2545.708948721805
 21
-1966.4442540041359
 31
0.0
  0
LINE
  5
184B6
  8
1PHANTOM
 10
2543.708948721805
 20
-1966.4442540041359
 30
0.0
 11
2545.7089487218059
 21
-1966.4442540041359
 31
0.0
  0
LINE
  5
184B7
  8
1PHANTOM
 10
2543.7089487218041
 20
-1972.7442540041329
 30
0.0
 11
2545.7089487218041
 21
-1972.744254004135
 31
0.0
  0
LINE
  5
184B8
  8
1PHANTOM
 10
2545.7089487218041
 20
-1889.2442540041361
 30
0.0
 11
2545.708948721805
 21
-1882.9442540041359
 31
0.0
  0
LINE
  5
184B9
  8
1PHANTOM
 10
2543.7089487218059
 20
-1882.944254004135
 30
0.0
 11
2545.708948721805
 21
-1882.9442540041359
 31
0.0
  0
LINE
  5
184BA
  8
1PHANTOM
 10
2543.708948721805
 20
-1889.244254004135
 30
0.0
 11
2545.7089487218041
 21
-1889.2442540041361
 31
0.0
  0
LINE
  5
184BB
  8
1PHANTOM
 10
2513.208948721805
 20
-1855.5942540041351
 30
0.0
 11
2513.208948721805
 21
-1850.8442540041351
 31
0.0
  0
LINE
  5
184BC
  8
1PHANTOM
 10
2512.2089487218041
 20
-1855.594254004134
 30
0.0
 11
2512.2089487218041
 21
-1850.8442540041351
 31
0.0
  0
ARC
  5
184BD
  8
1PHANTOM
 10
2513.208948721805
 20
-1855.594254004134
 30
0.0
 40
1.0
 50
180.0
 51
270.0
  0
LINE
  5
184BE
  8
1PHANTOM
 10
2512.2089487218041
 20
-1850.8442540041351
 30
0.0
 11
2513.208948721805
 21
-1850.8442540041351
 31
0.0
  0
LINE
  5
184BF
  8
1PHANTOM
 10
2550.708948721805
 20
-2009.344707463099
 30
0.0
 11
2510.708948721805
 21
-2012.8442540041351
 31
0.0
  0
LINE
  5
184C0
  8
01
 10
2550.7961044645531
 20
-2010.340902161189
 30
0.0
 11
2510.7089487218059
 21
-2013.8480738416779
 31
0.0
  0
ARC
  5
184C1
  8
01
 10
2550.708948721805
 20
-2009.3447074630969
 30
0.0
 40
1.0
 50
275.00000000000063
 51
0.0
  0
LINE
  5
184C2
  8
01
 10
2553.708948721805
 20
-1997.744254004135
 30
0.0
 11
2553.708948721805
 21
-1992.4442540041359
 31
0.0
  0
LINE
  5
184C3
  8
01
  6
BYBLOCK
 10
2551.7089487218059
 20
-1992.4442540041359
 30
0.0
 11
2553.708948721805
 21
-1992.4442540041359
 31
0.0
  0
LINE
  5
184C4
  8
01
  6
BYBLOCK
 10
2551.7089487218059
 20
-1997.744254004135
 30
0.0
 11
2553.708948721805
 21
-1997.744254004135
 31
0.0
  0
LINE
  5
184C5
  8
01
  6
BYBLOCK
 10
2550.7089487218059
 20
-1846.844254004136
 30
0.0
 11
2511.708948721805
 21
-1846.8442540041351
 31
0.0
  0
LINE
  5
184C6
  8
01
  6
BYBLOCK
 10
2550.708948721805
 20
-1845.844254004136
 30
0.0
 11
2511.708948721805
 21
-1845.8442540041351
 31
0.0
  0
LINE
  5
184C7
  8
1PHANTOM
 10
2550.708948721805
 20
-2009.344707463099
 30
0.0
 11
2550.708948721805
 21
-1846.844254004136
 31
0.0
  0
LINE
  5
184C8
  8
01
 10
2553.708948721805
 20
-1865.744254004135
 30
0.0
 11
2553.708948721805
 21
-1860.4442540041359
 31
0.0
  0
LINE
  5
184C9
  8
01
 10
2551.7089487218059
 20
-2009.3447074630969
 30
0.0
 11
2551.7089487218059
 21
-1846.844254004136
 31
0.0
  0
ARC
  5
184CA
  8
01
 10
2550.708948721805
 20
-1846.844254004136
 30
0.0
 40
1.0
 50
0.0
 51
90.0
  0
LINE
  5
184CB
  8
1PHANTOM
 10
2515.8020054091348
 20
-2012.3986692812989
 30
0.0
 11
2515.889161151882
 21
-2013.3948639793909
 31
0.0
  0
LINE
  5
184CC
  8
01
  6
BYBLOCK
 10
2551.7089487218059
 20
-1860.4442540041359
 30
0.0
 11
2553.708948721805
 21
-1860.4442540041359
 31
0.0
  0
LINE
  5
184CD
  8
01
  6
BYBLOCK
 10
2551.7089487218059
 20
-1865.744254004135
 30
0.0
 11
2553.708948721805
 21
-1865.744254004135
 31
0.0
  0
LINE
  5
184DE
  8
01
 10
2510.708948721805
 20
-2010.8480738416779
 30
0.0
 11
2510.7089487218059
 21
-2013.8480738416779
 31
0.0
  0
LINE
  5
184DF
  8
01
 10
2511.708948721805
 20
-1845.8442540041351
 30
0.0
 11
2511.708948721805
 21
-1854.5942540041331
 31
0.0
  0
LINE
  5
184E0
  8
01
 10
2515.708948721805
 20
-1863.594254004134
 30
0.0
 11
2515.708948721805
 21
-2005.8480738416779
 31
0.0
  0
LINE
  5
184E1
  8
01
  6
BYBLOCK
 10
2510.7089487218059
 20
-2010.8480738416779
 30
0.0
 11
2515.708948721805
 21
-2005.8480738416779
 31
0.0
  0
LINE
  5
184E2
  8
01
  6
BYBLOCK
 10
2510.7089487218041
 20
-1858.594254004131
 30
0.0
 11
2515.708948721805
 21
-1863.594254004134
 31
0.0
  0
LINE
  5
184EE
  8
1PHANTOM
 10
2549.708948721805
 20
-1866.594254004134
 30
0.0
 11
2549.708948721805
 21
-1865.094254004134
 31
0.0
  0
LINE
  5
184EF
  8
1PHANTOM
 10
2549.708948721805
 20
-1866.594254004134
 30
0.0
 11
2549.1089487218051
 21
-1866.594254004134
 31
0.0
  0
ARC
  5
184F0
  8
1PHANTOM
 10
2549.1089487218051
 20
-1864.5942540041351
 30
0.0
 40
2.0
 50
180.0
 51
270.0
  0
LINE
  5
184F1
  8
1PHANTOM
 10
2547.1089487218051
 20
-1864.5942540041351
 30
0.0
 11
2547.1089487218051
 21
-1861.594254004134
 31
0.0
  0
LINE
  5
184F2
  8
1PHANTOM
 10
2549.708948721805
 20
-1861.094254004134
 30
0.0
 11
2549.708948721805
 21
-1859.594254004134
 31
0.0
  0
ARC
  5
184F3
  8
1PHANTOM
 10
2549.1089487218051
 20
-1861.594254004134
 30
0.0
 40
2.0
 50
90.0
 51
180.0
  0
LINE
  5
184F4
  8
1PHANTOM
 10
2549.708948721805
 20
-1859.594254004134
 30
0.0
 11
2549.1089487218051
 21
-1859.594254004134
 31
0.0
  0
LINE
  5
184F5
  8
1PHANTOM
 10
2549.7089487218041
 20
-1998.594254004134
 30
0.0
 11
2549.7089487218041
 21
-1997.094254004134
 31
0.0
  0
LINE
  5
184F6
  8
1PHANTOM
 10
2549.7089487218041
 20
-1998.594254004134
 30
0.0
 11
2549.1089487218042
 21
-1998.594254004134
 31
0.0
  0
ARC
  5
184F7
  8
1PHANTOM
 10
2549.1089487218042
 20
-1996.5942540041351
 30
0.0
 40
2.0
 50
180.0
 51
270.0
  0
LINE
  5
184F8
  8
1PHANTOM
 10
2547.1089487218042
 20
-1996.5942540041351
 30
0.0
 11
2547.1089487218042
 21
-1993.594254004134
 31
0.0
  0
LINE
  5
184F9
  8
1PHANTOM
 10
2549.7089487218041
 20
-1993.0942540041351
 30
0.0
 11
2549.7089487218041
 21
-1991.594254004134
 31
0.0
  0
ARC
  5
184FA
  8
1PHANTOM
 10
2549.1089487218042
 20
-1993.594254004134
 30
0.0
 40
2.0
 50
90.0
 51
180.0
  0
LINE
  5
184FB
  8
1PHANTOM
 10
2549.7089487218041
 20
-1991.594254004134
 30
0.0
 11
2549.1089487218042
 21
-1991.594254004134
 31
0.0
  0
LINE
  5
184FC
  8
01
  6
BYBLOCK
 10
2511.708948721805
 20
-1865.3442540041351
 30
0.0
 11
2511.7089487218041
 21
-1859.5942540041319
 31
0.0
  0
LINE
  5
184FD
  8
01
  6
BYBLOCK
 10
2511.708948721805
 20
-1865.3442540041351
 30
0.0
 11
2510.7089487218041
 21
-1865.3442540041351
 31
0.0
  0
LINE
  5
184FE
  8
1PHANTOM
 10
2520.708948721805
 20
-2009.3442540041351
 30
0.0
 11
2520.708948721805
 21
-2008.3442540041351
 31
0.0
  0
LINE
  5
184FF
  8
01
  6
BYBLOCK
 10
2511.708948721805
 20
-2008.3442540041351
 30
0.0
 11
2511.7089487218041
 21
-1994.3442540041351
 31
0.0
  0
LINE
  5
18500
  8
1PHANTOM
 10
2515.958948721805
 20
-2009.3442540041351
 30
0.0
 11
2515.958948721805
 21
-2008.3442540041351
 31
0.0
  0
LINE
  5
18501
  8
01
 10
2510.7089487218041
 20
-2009.3442540041351
 30
0.0
 11
2512.2127685593482
 21
-2009.3442540041351
 31
0.0
  0
LINE
  5
18502
  8
1PHANTOM
 10
2515.708948721805
 20
-2009.3442540041351
 30
0.0
 11
2520.708948721805
 21
-2009.3442540041351
 31
0.0
  0
LINE
  5
18503
  8
1PHANTOM
 10
2510.7089487218041
 20
-2007.3442540041351
 30
0.0
 11
2511.7089487218041
 21
-2007.3442540041351
 31
0.0
  0
LINE
  5
18504
  8
01
 10
2511.708948721805
 20
-2008.3442540041351
 30
0.0
 11
2513.2127685593482
 21
-2008.3442540041351
 31
0.0
  0
LINE
  5
18505
  8
1PHANTOM
 10
2515.708948721805
 20
-2008.3442540041351
 30
0.0
 11
2520.708948721805
 21
-2008.3442540041351
 31
0.0
  0
LINE
  5
18506
  8
01
 10
2510.7089487218041
 20
-1994.344254004136
 30
0.0
 11
2511.7089487218041
 21
-1994.3442540041351
 31
0.0
  0
LINE
  5
18507
  8
01
 10
2510.7089487218041
 20
-2001.610775250444
 30
0.0
 11
2510.7089487218041
 21
-1851.4302109830769
 31
0.0
  0
LINE
  5
18508
  8
01
  6
BYBLOCK
 10
2510.7089487218041
 20
-2015.3442540041351
 30
0.0
 11
2510.7089487218041
 21
-1839.8442540041351
 31
0.0
  0
LINE
  5
18509
  8
1PHANTOM
 10
2520.708948721805
 20
-1853.8442540041351
 30
0.0
 11
2520.7089487218041
 21
-1852.8442540041351
 31
0.0
  0
LINE
  5
1850A
  8
01
  6
BYBLOCK
 10
2508.7089487218041
 20
-2015.3442540041351
 30
0.0
 11
2508.7089487218041
 21
-1839.8442540041351
 31
0.0
  0
LINE
  5
1850B
  8
01
  6
BYBLOCK
 10
2510.7089487218041
 20
-1839.8442540041351
 30
0.0
 11
2508.7089487218041
 21
-1839.8442540041351
 31
0.0
  0
LINE
  5
1850C
  8
01
  6
BYBLOCK
 10
2510.7089487218041
 20
-2015.3442540041351
 30
0.0
 11
2508.7089487218041
 21
-2015.3442540041351
 31
0.0
  0
LINE
  5
1850D
  8
1PHANTOM
 10
2520.708948721805
 20
-1853.8442540041351
 30
0.0
 11
2513.208948721805
 21
-1853.8442540041351
 31
0.0
  0
LINE
  5
1850E
  8
1PHANTOM
 10
2512.2089487218041
 20
-1853.8442540041351
 30
0.0
 11
2511.7089487218041
 21
-1853.8442540041351
 31
0.0
  0
LINE
  5
1850F
  8
1PHANTOM
 10
2520.708948721805
 20
-1852.8442540041351
 30
0.0
 11
2513.208948721805
 21
-1852.8442540041351
 31
0.0
  0
LINE
  5
18510
  8
1PHANTOM
 10
2512.2089487218041
 20
-1852.8442540041351
 30
0.0
 11
2511.708948721805
 21
-1852.8442540041351
 31
0.0
  0
LINE
  5
18511
  8
1PHANTOM
 10
2511.7089487218041
 20
-1857.8442540041351
 30
0.0
 11
2510.7089487218041
 21
-1857.8442540041351
 31
0.0
  0
LINE
  5
18512
  8
01
  6
BYBLOCK
 10
2457.7089487218041
 20
-2015.344254004134
 30
0.0
 11
2339.7089487218041
 21
-2015.3442540041351
 31
0.0
  0
ARC
  5
18513
  8
01
  6
BYBLOCK
 10
2457.7089487218041
 20
-2014.344254004134
 30
0.0
 40
1.0
 50
270.0
 51
0.0
  0
LINE
  5
18514
  8
01
  6
BYBLOCK
 10
2457.7089487218041
 20
-1839.844254004134
 30
0.0
 11
2339.708948721805
 21
-1839.8442540041351
 31
0.0
  0
ARC
  5
18515
  8
01
  6
BYBLOCK
 10
2339.708948721805
 20
-1840.8442540041351
 30
0.0
 40
1.0
 50
90.0
 51
180.0
  0
LINE
  5
18516
  8
01
  6
BYBLOCK
 10
2458.7089487218041
 20
-1840.844254004134
 30
0.0
 11
2458.7089487218041
 21
-2014.344254004134
 31
0.0
  0
ARC
  5
18517
  8
01
  6
BYBLOCK
 10
2457.7089487218041
 20
-1840.844254004134
 30
0.0
 40
1.0
 50
0.0
 51
90.0
  0
LINE
  5
18518
  8
01
  6
BYBLOCK
 10
2338.708948721805
 20
-1840.8442540041351
 30
0.0
 11
2338.7089487218041
 21
-2014.344254004134
 31
0.0
  0
ARC
  5
18519
  8
01
  6
BYBLOCK
 10
2339.7089487218041
 20
-2014.344254004134
 30
0.0
 40
1.0
 50
180.0
 51
270.0
  0
LINE
  5
1851A
  8
01
 10
2511.708948721805
 20
-1854.5942540041331
 30
0.0
 11
2510.708948721805
 21
-1855.5942540041331
 31
0.0
  0
LINE
  5
1851B
  8
1PHANTOM
 10
2511.708948721805
 20
-1854.5942540041331
 30
0.0
 11
2511.7089487218041
 21
-1859.594254004131
 31
0.0
  0
LINE
  5
1851C
  8
01
 10
2511.708948721805
 20
-1852.8442540041351
 30
0.0
 11
2510.7089487218041
 21
-1852.8442540041351
 31
0.0
  0
LINE
  5
1851D
  8
1PHANTOM
 10
2513.2127685593482
 20
-2008.3442540041351
 30
0.0
 11
2514.708948721805
 21
-2008.3442540041351
 31
0.0
  0
LINE
  5
1851E
  8
1PHANTOM
 10
2512.2127685593482
 20
-2009.3442540041351
 30
0.0
 11
2514.708948721805
 21
-2009.3442540041351
 31
0.0
  0
LINE
  5
1851F
  8
01
 10
2514.708948721805
 20
-2006.848073841679
 30
0.0
 11
2514.708948721805
 21
-2002.5942540041351
 31
0.0
  0
LINE
  5
18520
  8
01
 10
2515.708948721805
 20
-2024.160922717871
 30
0.0
 11
2515.7089487218041
 21
-1815.546042306036
 31
0.0
  0
LINE
  5
18521
  8
01
 10
2555.708948721805
 20
-2024.160922717871
 30
0.0
 11
2555.7089487218041
 21
-1815.546042306036
 31
0.0
  0
LINE
  5
18522
  8
1DIM
 10
2398.708948721805
 20
-1927.594254004134
 30
0.0
 11
2328.366405264464
 21
-1927.594254004134
 31
0.0
  0
LINE
  5
18523
  8
1DIM
 10
2329.366405264464
 20
-1929.5942540041351
 30
0.0
 11
2329.366405264464
 21
-2057.9750359404079
 31
0.0
  0
LINE
  5
1853A
  8
01
 10
2376.958948721805
 20
-1977.3442540041351
 30
0.0
 11
2420.458948721805
 21
-1977.3442540041351
 31
0.0
  0
LINE
  5
1853B
  8
01
 10
2375.958948721805
 20
-1976.344254004134
 30
0.0
 11
2375.9589487218041
 21
-1877.3442540041351
 31
0.0
  0
ARC
  5
1853C
  8
01
 10
2376.958948721805
 20
-1976.344254004134
 30
0.0
 40
1.0
 50
180.0
 51
270.0
  0
LINE
  5
1853D
  8
01
 10
2421.458948721805
 20
-1877.3442540041351
 30
0.0
 11
2421.4589487218059
 21
-1976.344254004134
 31
0.0
  0
ARC
  5
1853E
  8
01
 10
2420.458948721805
 20
-1877.3442540041351
 30
0.0
 40
1.0
 50
0.0
 51
90.0
  0
ARC
  5
1853F
  8
01
 10
2420.458948721805
 20
-1976.344254004134
 30
0.0
 40
1.0
 50
270.0
 51
0.0
  0
LINE
  5
18540
  8
01
 10
2376.9589487218041
 20
-1876.344254004134
 30
0.0
 11
2420.458948721805
 21
-1876.344254004134
 31
0.0
  0
ARC
  5
18541
  8
01
 10
2376.9589487218041
 20
-1877.3442540041351
 30
0.0
 40
1.0
 50
90.0
 51
180.0
  0
LINE
  5
18542
  8
01
  6
BYBLOCK
 10
2432.208948721754
 20
-1877.094254004134
 30
0.0
 11
2430.208948721754
 21
-1877.094254004134
 31
0.0
  0
ARC
  5
18543
  8
01
  6
BYBLOCK
 10
2432.208948721754
 20
-1877.594254004134
 30
0.0
 40
0.5
 50
0.0
 51
90.0
  0
LINE
  5
18544
  8
01
  6
BYBLOCK
 10
2432.208948721755
 20
-1895.094254004134
 30
0.0
 11
2430.208948721755
 21
-1895.094254004134
 31
0.0
  0
ARC
  5
18545
  8
01
  6
BYBLOCK
 10
2430.208948721755
 20
-1894.594254004134
 30
0.0
 40
0.5
 50
180.0
 51
270.0
  0
LINE
  5
18546
  8
01
  6
BYBLOCK
 10
2432.708948721754
 20
-1877.594254004134
 30
0.0
 11
2432.708948721755
 21
-1894.594254004134
 31
0.0
  0
ARC
  5
18547
  8
01
  6
BYBLOCK
 10
2432.208948721755
 20
-1894.594254004134
 30
0.0
 40
0.5
 50
270.0
 51
0.0
  0
LINE
  5
18548
  8
01
  6
BYBLOCK
 10
2429.708948721754
 20
-1877.594254004134
 30
0.0
 11
2429.708948721755
 21
-1894.594254004134
 31
0.0
  0
ARC
  5
18549
  8
01
  6
BYBLOCK
 10
2430.208948721754
 20
-1877.594254004134
 30
0.0
 40
0.5
 50
90.0
 51
180.0
  0
LINE
  5
187C9
  8
1PHANTOM
 10
2343.7089487218059
 20
-1845.8442540041351
 30
0.0
 11
2343.7089487218059
 21
-2013.410630524048
 31
0.0
  0
LINE
  5
187CA
  8
1PHANTOM
 10
2453.708948721805
 20
-1845.8442540041351
 30
0.0
 11
2453.708948721805
 21
-2013.4106305240491
 31
0.0
  0
LINE
  5
18951
  8
1DIM
 10
2513.2414154052381
 20
-1803.4005135026009
 30
0.0
 11
2618.2414154052381
 21
-1803.4005135026021
 31
0.0
  0
TEXT
  5
18954
  8
1TEXT
 10
2520.321415405238
 20
-1802.114870486251
 30
0.0
 40
4.0
  1
ヘアライン
 41
0.9
 72
     1
 11
2530.6414154052381
 21
-1802.114870486251
 31
0.0
  0
TEXT
  5
18955
  8
1TEXT
 10
2549.3080820719051
 20
-1802.114870486251
 30
0.0
 40
4.0
  1
GP092XT31
 72
     1
 11
2565.6414154052381
 21
-1802.114870486251
 31
0.0
  0
CIRCLE
  5
18A59
  8
01
 10
2545.7089487218041
 20
-1875.8442540041351
 30
0.0
 40
2.0
  0
CIRCLE
  5
18A5A
  8
1DIM
 10
2545.7089487218041
 20
-1875.8442540041351
 30
0.0
 40
1.649999999999636
  0
CIRCLE
  5
18A5B
  8
01
 10
2545.7089487218041
 20
-1985.8442540041351
 30
0.0
 40
2.0
  0
CIRCLE
  5
18A5C
  8
1DIM
 10
2545.7089487218041
 20
-1985.8442540041351
 30
0.0
 40
1.649999999999636
  0
LINE
  5
18BC2
  8
01
 10
2452.708948721805
 20
-1762.9971076696299
 30
0.0
 11
2344.708948721805
 21
-1762.9971076696299
 31
0.0
  0
ARC
  5
18BC3
  8
01
 10
2452.708948721805
 20
-1763.9971076696299
 30
0.0
 40
1.0
 50
0.0
 51
90.0
  0
LINE
  5
18BC4
  8
01
 10
2453.708948721805
 20
-1803.9971076696299
 30
0.0
 11
2449.7089487218059
 21
-1803.9971076696311
 31
0.0
  0
LINE
  5
18BC5
  8
01
 10
2347.708948721805
 20
-1803.9971076696299
 30
0.0
 11
2343.708948721805
 21
-1803.9971076696299
 31
0.0
  0
LINE
  5
18BC6
  8
01
 10
2453.708948721805
 20
-1802.9971076696311
 30
0.0
 11
2343.708948721805
 21
-1802.997107669629
 31
0.0
  0
LINE
  5
18BC7
  8
01
 10
2343.708948721805
 20
-1803.9971076696299
 30
0.0
 11
2343.708948721805
 21
-1763.997107669629
 31
0.0
  0
LINE
  5
18BC8
  8
01
 10
2344.708948721805
 20
-1803.9971076696299
 30
0.0
 11
2344.708948721805
 21
-1763.997107669629
 31
0.0
  0
LINE
  5
18BC9
  8
01
 10
2347.708948721805
 20
-1799.9971076696311
 30
0.0
 11
2347.708948721805
 21
-1798.9971076696311
 31
0.0
  0
ARC
  5
18BCA
  8
01
 10
2344.708948721805
 20
-1763.997107669629
 30
0.0
 40
1.0
 50
90.0
 51
180.0
  0
LINE
  5
18BCB
  8
01
 10
2453.708948721805
 20
-1803.9971076696299
 30
0.0
 11
2453.708948721805
 21
-1763.9971076696299
 31
0.0
  0
LINE
  5
18BCC
  8
01
 10
2452.708948721805
 20
-1803.9971076696299
 30
0.0
 11
2452.708948721805
 21
-1763.9971076696299
 31
0.0
  0
LINE
  5
18BCD
  8
01
 10
2347.708948721805
 20
-1803.9971076696299
 30
0.0
 11
2348.7089487218059
 21
-1802.997107669629
 31
0.0
  0
LINE
  5
18BCE
  8
01
 10
2449.708948721805
 20
-1803.9971076696299
 30
0.0
 11
2448.708948721805
 21
-1802.9971076696299
 31
0.0
  0
LINE
  5
18BCF
  8
01
 10
2401.3589487218051
 20
-1760.997107669629
 30
0.0
 11
2396.0589487218058
 21
-1760.997107669629
 31
0.0
  0
LINE
  5
18BD0
  8
01
  6
BYBLOCK
 10
2396.0589487218058
 20
-1762.9971076696299
 30
0.0
 11
2396.0589487218058
 21
-1760.997107669629
 31
0.0
  0
LINE
  5
18BD1
  8
01
  6
BYBLOCK
 10
2401.3589487218051
 20
-1762.9971076696299
 30
0.0
 11
2401.3589487218051
 21
-1760.997107669629
 31
0.0
  0
LINE
  5
18BD2
  8
01
  6
BYBLOCK
 10
2458.708948721805
 20
-1803.9971076696311
 30
0.0
 11
2338.708948721805
 21
-1803.9971076696311
 31
0.0
  0
LINE
  5
18BD3
  8
01
  6
BYBLOCK
 10
2347.708948721805
 20
-1798.9971076696311
 30
0.0
 11
2344.708948721805
 21
-1798.9971076696311
 31
0.0
  0
LINE
  5
18BD4
  8
01
  6
BYBLOCK
 10
2347.708948721805
 20
-1799.9971076696311
 30
0.0
 11
2344.708948721805
 21
-1799.9971076696311
 31
0.0
  0
LINE
  5
18BD5
  8
01
  6
BYBLOCK
 10
2418.208948721805
 20
-1802.9971076696311
 30
0.0
 11
2379.208948721805
 21
-1802.9971076696329
 31
0.0
  0
LINE
  5
18BD6
  8
01
  6
BYBLOCK
 10
2458.708948721805
 20
-1805.9971076696311
 30
0.0
 11
2338.708948721805
 21
-1805.9971076696311
 31
0.0
  0
LINE
  5
18BD7
  8
01
  6
BYBLOCK
 10
2458.708948721805
 20
-1803.9971076696311
 30
0.0
 11
2458.708948721805
 21
-1805.9971076696311
 31
0.0
  0
LINE
  5
18BD8
  8
01
  6
BYBLOCK
 10
2338.708948721805
 20
-1803.9971076696311
 30
0.0
 11
2338.708948721805
 21
-1805.9971076696311
 31
0.0
  0
LINE
  5
18BD9
  8
01
 10
2368.708948721805
 20
-1802.9971076696299
 30
0.0
 11
2368.708948721805
 21
-1803.9971076696311
 31
0.0
  0
LINE
  5
18BDA
  8
01
 10
2428.708948721805
 20
-1802.9971076696299
 30
0.0
 11
2428.708948721805
 21
-1803.9971076696311
 31
0.0
  0
LINE
  5
18BDB
  8
01
  6
BYBLOCK
 10
2418.208948721805
 20
-1802.9971076696299
 30
0.0
 11
2418.208948721805
 21
-1803.9971076696311
 31
0.0
  0
LINE
  5
18BDC
  8
01
  6
BYBLOCK
 10
2379.208948721805
 20
-1802.9971076696299
 30
0.0
 11
2379.208948721805
 21
-1803.9971076696311
 31
0.0
  0
LINE
  5
18BDF
  8
01
 10
2449.7089487218059
 20
-1799.9971076696311
 30
0.0
 11
2449.7089487218059
 21
-1798.9971076696311
 31
0.0
  0
LINE
  5
18BE0
  8
01
  6
BYBLOCK
 10
2449.7089487218059
 20
-1798.9971076696311
 30
0.0
 11
2452.7089487218059
 21
-1798.9971076696311
 31
0.0
  0
LINE
  5
18BE1
  8
01
  6
BYBLOCK
 10
2449.7089487218059
 20
-1799.9971076696311
 30
0.0
 11
2452.7089487218059
 21
-1799.9971076696311
 31
0.0
  0
LINE
  5
18BE2
  8
1PHANTOM
 10
2458.7089487218041
 20
-2013.4106305240491
 30
0.0
 11
2338.7089487218041
 21
-2013.4106305240491
 31
0.0
  0
LINE
  5
18BE3
  8
1PHANTOM
 10
2458.7089487218041
 20
-1845.844254004136
 30
0.0
 11
2338.708948721805
 21
-1845.8442540041351
 31
0.0
  0
LINE
  5
18BEA
  8
1PHANTOM
 10
2361.208948721805
 20
-1945.8461639229081
 30
0.0
 11
2361.208948721805
 21
-1943.846163922907
 31
0.0
  0
LINE
  5
18BEB
  8
1PHANTOM
 10
2361.208948721805
 20
-1915.846163922906
 30
0.0
 11
2361.208948721805
 21
-1913.846163922907
 31
0.0
  0
LINE
  5
18BEC
  8
1PHANTOM
 10
2363.2089487218032
 20
-1945.846163922907
 30
0.0
 11
2363.2089487218032
 21
-1943.846163922907
 31
0.0
  0
LINE
  5
18BED
  8
1PHANTOM
 10
2363.208948721805
 20
-1915.846163922906
 30
0.0
 11
2363.2089487218032
 21
-1913.846163922907
 31
0.0
  0
LINE
  5
18BEE
  8
1PHANTOM
 10
2349.2089487218041
 20
-1945.846163922907
 30
0.0
 11
2349.208948721805
 21
-1913.846163922906
 31
0.0
  0
LINE
  5
18BEF
  8
1PHANTOM
 10
2351.2089487218041
 20
-1943.846163922907
 30
0.0
 11
2351.2089487218041
 21
-1915.8461639229049
 31
0.0
  0
LINE
  5
18BF0
  8
1PHANTOM
 10
2375.2089487218032
 20
-1945.846163922907
 30
0.0
 11
2375.2089487218041
 21
-1913.846163922906
 31
0.0
  0
LINE
  5
18BF1
  8
1PHANTOM
 10
2373.2089487218041
 20
-1943.846163922907
 30
0.0
 11
2373.2089487218018
 21
-1915.846163922907
 31
0.0
  0
LINE
  5
18BF2
  8
1PHANTOM
 10
2349.2089487218041
 20
-1945.846163922907
 30
0.0
 11
2361.208948721805
 21
-1945.8461639229081
 31
0.0
  0
LINE
  5
18BF3
  8
1PHANTOM
 10
2363.2089487218032
 20
-1945.846163922907
 30
0.0
 11
2375.2089487218032
 21
-1945.846163922907
 31
0.0
  0
LINE
  5
18BF4
  8
1PHANTOM
 10
2351.2089487218041
 20
-1943.846163922907
 30
0.0
 11
2361.208948721805
 21
-1943.846163922907
 31
0.0
  0
LINE
  5
18BF5
  8
1PHANTOM
 10
2363.2089487218032
 20
-1943.846163922907
 30
0.0
 11
2373.2089487218041
 21
-1943.846163922907
 31
0.0
  0
LINE
  5
18BF6
  8
1PHANTOM
 10
2349.208948721805
 20
-1913.846163922906
 30
0.0
 11
2361.208948721805
 21
-1913.846163922906
 31
0.0
  0
LINE
  5
18BF7
  8
1PHANTOM
 10
2363.2089487218032
 20
-1913.846163922906
 30
0.0
 11
2375.2089487218032
 21
-1913.846163922906
 31
0.0
  0
LINE
  5
18BF8
  8
1PHANTOM
 10
2351.2089487218041
 20
-1915.8461639229049
 30
0.0
 11
2361.2089487218041
 21
-1915.846163922906
 31
0.0
  0
LINE
  5
18BF9
  8
1PHANTOM
 10
2363.2089487218032
 20
-1915.846163922906
 30
0.0
 11
2373.2089487218032
 21
-1915.846163922907
 31
0.0
  0
LINE
  5
18BFA
  8
1CENTER
 10
2346.7131096731368
 20
-1929.846163922906
 30
0.0
 11
2377.7047877704699
 21
-1929.846163922906
 31
0.0
  0
LINE
  5
18BFB
  8
1CENTER
 10
2362.2089487218041
 20
-1910.4482443986731
 30
0.0
 11
2362.2089487218041
 21
-1949.244083447139
 31
0.0
  0
LINE
  5
18BFC
  8
1CENTER
 10
2419.7131096731382
 20
-1929.846163922906
 30
0.0
 11
2450.7047877704708
 21
-1929.846163922906
 31
0.0
  0
LINE
  5
18BFD
  8
1CENTER
 10
2435.2089487218041
 20
-1910.4482443986731
 30
0.0
 11
2435.2089487218041
 21
-1949.244083447139
 31
0.0
  0
LINE
  5
18BFE
  8
1PHANTOM
 10
2434.208948721805
 20
-1945.8461639229081
 30
0.0
 11
2434.208948721805
 21
-1943.846163922907
 31
0.0
  0
LINE
  5
18BFF
  8
1PHANTOM
 10
2434.208948721805
 20
-1915.846163922906
 30
0.0
 11
2434.208948721805
 21
-1913.846163922907
 31
0.0
  0
LINE
  5
18C00
  8
1PHANTOM
 10
2436.208948721805
 20
-1945.846163922907
 30
0.0
 11
2436.208948721805
 21
-1943.846163922907
 31
0.0
  0
LINE
  5
18C01
  8
1PHANTOM
 10
2436.2089487218059
 20
-1915.846163922906
 30
0.0
 11
2436.208948721805
 21
-1913.846163922907
 31
0.0
  0
LINE
  5
18C02
  8
1PHANTOM
 10
2422.208948721805
 20
-1945.846163922907
 30
0.0
 11
2422.2089487218059
 21
-1913.846163922906
 31
0.0
  0
LINE
  5
18C03
  8
1PHANTOM
 10
2424.208948721805
 20
-1943.846163922907
 30
0.0
 11
2424.2089487218059
 21
-1915.8461639229049
 31
0.0
  0
LINE
  5
18C04
  8
1PHANTOM
 10
2448.208948721805
 20
-1945.846163922907
 30
0.0
 11
2448.208948721805
 21
-1913.846163922906
 31
0.0
  0
LINE
  5
18C05
  8
1PHANTOM
 10
2446.208948721805
 20
-1943.846163922907
 30
0.0
 11
2446.2089487218041
 21
-1915.846163922907
 31
0.0
  0
LINE
  5
18C06
  8
1PHANTOM
 10
2422.208948721805
 20
-1945.846163922907
 30
0.0
 11
2434.208948721805
 21
-1945.8461639229081
 31
0.0
  0
LINE
  5
18C07
  8
1PHANTOM
 10
2436.208948721805
 20
-1945.846163922907
 30
0.0
 11
2448.208948721805
 21
-1945.846163922907
 31
0.0
  0
LINE
  5
18C08
  8
1PHANTOM
 10
2424.208948721805
 20
-1943.846163922907
 30
0.0
 11
2434.208948721805
 21
-1943.846163922907
 31
0.0
  0
LINE
  5
18C09
  8
1PHANTOM
 10
2436.208948721805
 20
-1943.846163922907
 30
0.0
 11
2446.208948721805
 21
-1943.846163922907
 31
0.0
  0
LINE
  5
18C0A
  8
1PHANTOM
 10
2422.2089487218059
 20
-1913.846163922906
 30
0.0
 11
2434.208948721805
 21
-1913.846163922906
 31
0.0
  0
LINE
  5
18C0B
  8
1PHANTOM
 10
2436.208948721805
 20
-1913.846163922906
 30
0.0
 11
2448.208948721805
 21
-1913.846163922906
 31
0.0
  0
LINE
  5
18C0C
  8
1PHANTOM
 10
2424.2089487218059
 20
-1915.8461639229049
 30
0.0
 11
2434.208948721805
 21
-1915.846163922906
 31
0.0
  0
LINE
  5
18C0D
  8
1PHANTOM
 10
2436.208948721805
 20
-1915.846163922906
 30
0.0
 11
2446.2089487218041
 21
-1915.846163922907
 31
0.0
  0
TEXT
  5
18DBF
  8
1TEXT
 10
2581.439264553971
 20
-1802.114870486251
 30
0.0
 40
4.0
  1
VL-V570,VL-V522
 41
0.6
 72
     1
 11
2599.8392645539711
 21
-1802.114870486251
 31
0.0
  0
LINE
  5
18E6B
  8
1DIM
 10
2349.2089487218041
 20
-1945.846163922907
 30
0.0
 11
2334.9020598824868
 21
-1945.846163922907
 31
0.0
  0
LINE
  5
18E6E
  8
1DIM
 10
2349.208948721805
 20
-1913.846163922906
 30
0.0
 11
2334.9020598824868
 21
-1913.846163922906
 31
0.0
  0
LINE
  5
18E6F
  8
1DIM
 10
2335.9020598824868
 20
-1943.846163922907
 30
0.0
 11
2335.9020598824868
 21
-1915.846163922906
 31
0.0
  0
LINE
  5
18E73
  8
1DIM
 10
2375.2089487218041
 20
-1913.846163922906
 30
0.0
 11
2375.2089487218041
 21
-1906.1862245563491
 31
0.0
  0
LINE
  5
18E74
  8
1DIM
 10
2349.208948721805
 20
-1913.846163922906
 30
0.0
 11
2349.208948721805
 21
-1906.1862245563491
 31
0.0
  0
LINE
  5
18E75
  8
1DIM
 10
2373.2089487218041
 20
-1907.1862245563491
 30
0.0
 11
2351.208948721805
 21
-1907.1862245563491
 31
0.0
  0
TEXT
  5
18E79
  8
1DIM
 10
2462.9134963239062
 20
-1975.7750379012591
 30
0.0
 40
3.5
  1
配線穴
  0
SOLID
  5
18E7A
  8
1DIM
 10
2435.9359907081389
 20
-1931.7583872980761
 30
0.0
 11
2435.2872377416629
 21
-1929.8373899790779
 31
0.0
 12
2436.5239491377338
 22
-1931.444143237652
 32
0.0
 13
2436.5239491377338
 23
-1931.444143237652
 33
0.0
  0
LINE
  5
18E7C
  8
1DIM
 10
2450.7047877704708
 20
-1929.846163922906
 30
0.0
 11
2467.971609464646
 21
-1929.846163922906
 31
0.0
  0
LINE
  5
18E7D
  8
1DIM
 10
2458.7089487218041
 20
-1845.844254004136
 30
0.0
 11
2467.971609464646
 21
-1845.844254004136
 31
0.0
  0
LINE
  5
18E7E
  8
1DIM
 10
2466.971609464646
 20
-1927.846163922906
 30
0.0
 11
2466.971609464646
 21
-1847.844254004136
 31
0.0
  0
LINE
  5
18E82
  8
1DIM
 10
2362.2089487218041
 20
-1910.4482443986731
 30
0.0
 11
2362.2089487218041
 21
-1831.261088548066
 31
0.0
  0
LINE
  5
18E83
  8
1DIM
 10
2435.2089487218041
 20
-1910.4482443986731
 30
0.0
 11
2435.2089487218041
 21
-1831.261088548066
 31
0.0
  0
LINE
  5
18E84
  8
1DIM
 10
2364.2089487218041
 20
-1832.2610885480669
 30
0.0
 11
2433.208948721805
 21
-1832.2610885480669
 31
0.0
  0
LINE
  5
18E88
  8
1DIM
 10
2343.708948721805
 20
-1763.997107669629
 30
0.0
 11
2343.708948721805
 21
-1756.340233082451
 31
0.0
  0
LINE
  5
18E89
  8
1DIM
 10
2453.708948721805
 20
-1763.9971076696299
 30
0.0
 11
2453.708948721805
 21
-1756.340233082451
 31
0.0
  0
LINE
  5
18E8A
  8
1DIM
 10
2345.708948721805
 20
-1757.340233082451
 30
0.0
 11
2451.708948721805
 21
-1757.340233082451
 31
0.0
  0
LINE
  5
18E8E
  8
1DIM
 10
2458.7089487218041
 20
-1845.844254004136
 30
0.0
 11
2477.6499770649962
 21
-1845.844254004136
 31
0.0
  0
LINE
  5
18E8F
  8
1DIM
 10
2457.7089487218041
 20
-1839.844254004134
 30
0.0
 11
2477.6499770649962
 21
-1839.844254004134
 31
0.0
  0
LINE
  5
18E90
  8
1DIM
 10
2476.6499770649962
 20
-1843.8442540041351
 30
0.0
 11
2476.6499770649962
 21
-1841.844254004134
 31
0.0
  0
LINE
  5
18E94
  8
1DIM
 10
2458.7089487218041
 20
-1845.844254004136
 30
0.0
 11
2477.6499770649962
 21
-1845.844254004136
 31
0.0
  0
LINE
  5
18E95
  8
1DIM
 10
2458.7089487218041
 20
-2013.4106305240491
 30
0.0
 11
2477.6499770649962
 21
-2013.4106305240491
 31
0.0
  0
LINE
  5
18E96
  8
1DIM
 10
2476.6499770649962
 20
-1847.844254004136
 30
0.0
 11
2476.6499770649962
 21
-2011.4106305240491
 31
0.0
  0
LINE
  5
18E9A
  8
1DIM
 10
2338.708948721805
 20
-1845.8442540041351
 30
0.0
 11
2338.708948721805
 21
-1811.85510876748
 31
0.0
  0
LINE
  5
18E9B
  8
1DIM
 10
2458.7089487218041
 20
-1845.844254004136
 30
0.0
 11
2458.7089487218041
 21
-1811.85510876748
 31
0.0
  0
LINE
  5
18E9C
  8
1DIM
 10
2340.708948721805
 20
-1812.85510876748
 30
0.0
 11
2456.7089487218041
 21
-1812.85510876748
 31
0.0
  0
LINE
  5
18EA0
  8
1DIM
 10
2457.7089487218041
 20
-2015.344254004134
 30
0.0
 11
2489.7043045637779
 21
-2015.344254004134
 31
0.0
  0
LINE
  5
18EA1
  8
1DIM
 10
2457.7089487218041
 20
-1839.844254004134
 30
0.0
 11
2489.7043045637779
 21
-1839.844254004134
 31
0.0
  0
LINE
  5
18EA2
  8
1DIM
 10
2488.7043045637779
 20
-2013.3442540041351
 30
0.0
 11
2488.7043045637779
 21
-1841.844254004134
 31
0.0
  0
LINE
  5
18EA6
  8
1DIM
 10
2338.708948721805
 20
-1840.8442540041351
 30
0.0
 11
2338.708948721805
 21
-1820.771215667414
 31
0.0
  0
LINE
  5
18EA7
  8
1DIM
 10
2458.7089487218041
 20
-1840.8442540041351
 30
0.0
 11
2458.7089487218041
 21
-1820.771215667414
 31
0.0
  0
LINE
  5
18EA8
  8
1DIM
 10
2340.708948721805
 20
-1821.771215667414
 30
0.0
 11
2456.7089487218041
 21
-1821.771215667414
 31
0.0
  0
TEXT
  5
18EAC
  8
1DIM
 10
2466.1522421162158
 20
-1783.746709244045
 30
0.0
 40
3.5
  1
材質：ステンレス
  0
SOLID
  5
18EAD
  8
1DIM
 10
2455.6470344569339
 20
-1794.139469411487
 30
0.0
 11
2454.0974501236178
 21
-1795.4471006687811
 31
0.0
 12
2455.1391765176322
 22
-1793.707584290265
 32
0.0
 13
2455.1391765176322
 23
-1793.707584290265
 33
0.0
  0
TEXT
  5
18EAF
  8
1DIM
 10
2468.0243763213261
 20
-1830.569556394119
 30
0.0
 40
3.5
  1
材質：ステンレス
  0
TEXT
  5
18EB0
  8
1DIM
 10
2471.7577096546588
 20
-1836.402889727452
 30
0.0
 40
3.5
  1
仕上：各種仕上
  0
SOLID
  5
18EB1
  8
1DIM
 10
2507.6523975058558
 20
-1842.944028489648
 30
0.0
 11
2508.5723767902782
 21
-1844.750890196405
 31
0.0
 12
2507.116116913633
 22
-1843.3400683498251
 32
0.0
 13
2507.116116913633
 23
-1843.3400683498251
 33
0.0
  0
LINE
  5
18EB3
  8
1DIM
 10
2515.7089487218041
 20
-1840.844254004134
 30
0.0
 11
2515.7089487218041
 21
-1829.844254004134
 31
0.0
  0
LINE
  5
18EB4
  8
1DIM
 10
2553.708948721805
 20
-1860.4442540041359
 30
0.0
 11
2553.708948721805
 21
-1829.844254004134
 31
0.0
  0
LINE
  5
18EB5
  8
1DIM
 10
2517.7089487218041
 20
-1830.844254004134
 30
0.0
 11
2551.7089487218059
 21
-1830.844254004134
 31
0.0
  0
LINE
  5
18EB9
  8
1DIM
 10
2508.7089487218041
 20
-1840.844254004134
 30
0.0
 11
2508.7089487218041
 21
-1809.844254004134
 31
0.0
  0
LINE
  5
18EBA
  8
1DIM
 10
2553.708948721805
 20
-1860.4442540041359
 30
0.0
 11
2553.708948721805
 21
-1809.844254004134
 31
0.0
  0
LINE
  5
18EBB
  8
1DIM
 10
2510.7089487218041
 20
-1810.844254004134
 30
0.0
 11
2551.7089487218059
 21
-1810.844254004134
 31
0.0
  0
LINE
  5
18EBF
  8
1DIM
 10
2510.7089487218041
 20
-1840.844254004134
 30
0.0
 11
2510.7089487218041
 21
-1829.844254004134
 31
0.0
  0
LINE
  5
18EC0
  8
1DIM
 10
2515.7089487218041
 20
-1840.844254004134
 30
0.0
 11
2515.7089487218041
 21
-1829.844254004134
 31
0.0
  0
LINE
  5
18EC1
  8
1DIM
 10
2508.7089487218041
 20
-1830.844254004134
 30
0.0
 11
2506.7089487218041
 21
-1830.844254004134
 31
0.0
  0
LINE
  5
18EC2
  8
1DIM
 10
2517.7089487218041
 20
-1830.844254004134
 30
0.0
 11
2519.7089487218041
 21
-1830.844254004134
 31
0.0
  0
LINE
  5
18EC3
  8
1DIM
 10
2510.7089487218041
 20
-1830.844254004134
 30
0.0
 11
2515.7089487218041
 21
-1830.844254004134
 31
0.0
  0
LINE
  5
18EC7
  8
1DIM
 10
2508.7089487218041
 20
-1840.844254004134
 30
0.0
 11
2508.7089487218041
 21
-1819.844254004134
 31
0.0
  0
LINE
  5
18EC8
  8
1DIM
 10
2515.7089487218041
 20
-1840.844254004134
 30
0.0
 11
2515.7089487218041
 21
-1819.844254004134
 31
0.0
  0
LINE
  5
18EC9
  8
1DIM
 10
2510.7089487218041
 20
-1820.844254004134
 30
0.0
 11
2513.7089487218041
 21
-1820.844254004134
 31
0.0
  0
TEXT
  5
18ECD
  8
1DIM
 10
2322.8330719311311
 20
-2014.201311638938
 30
0.0
 40
3.5
  1
地面からの推奨高さは
 50
90.0
  0
TEXT
  5
18ECE
  8
1DIM
 10
2328.6664052644642
 20
-2009.7679783056051
 30
0.0
 40
3.5
  1
子機の推奨に従う
 50
90.0
  0
LINE
  5
18ECF
  8
0
  6
BYBLOCK
 10
2328.8305068844629
 20
-1929.5942540041351
 30
0.0
 11
2329.366405264464
 21
-1927.594254004134
 31
0.0
  0
LINE
  5
18ED0
  8
0
  6
BYBLOCK
 10
2329.366405264464
 20
-1927.594254004134
 30
0.0
 11
2329.9023036444642
 21
-1929.5942540041351
 31
0.0
  0
LINE
  5
18ED1
  8
0
  6
BYBLOCK
 10
2329.366405264464
 20
-1927.594254004134
 30
0.0
 11
2329.366405264464
 21
-1929.5942540041351
 31
0.0
  0
TEXT
  5
18ED2
  8
1DIM
 10
2511.0422820551371
 20
-1820.1442540041339
 30
0.0
 40
3.5
  1
7
  0
LINE
  5
18ED3
  8
0
  6
BYBLOCK
 10
2513.7089487218041
 20
-1820.308355624134
 30
0.0
 11
2515.7089487218041
 21
-1820.844254004134
 31
0.0
  0
LINE
  5
18ED4
  8
0
  6
BYBLOCK
 10
2515.7089487218041
 20
-1820.844254004134
 30
0.0
 11
2513.7089487218041
 21
-1821.3801523841339
 31
0.0
  0
LINE
  5
18ED5
  8
0
  6
BYBLOCK
 10
2515.7089487218041
 20
-1820.844254004134
 30
0.0
 11
2513.7089487218041
 21
-1820.844254004134
 31
0.0
  0
LINE
  5
18ED6
  8
0
  6
BYBLOCK
 10
2510.7089487218041
 20
-1821.3801523841339
 30
0.0
 11
2508.7089487218041
 21
-1820.844254004134
 31
0.0
  0
LINE
  5
18ED7
  8
0
  6
BYBLOCK
 10
2508.7089487218041
 20
-1820.844254004134
 30
0.0
 11
2510.7089487218041
 21
-1820.308355624134
 31
0.0
  0
LINE
  5
18ED8
  8
0
  6
BYBLOCK
 10
2508.7089487218041
 20
-1820.844254004134
 30
0.0
 11
2510.7089487218041
 21
-1820.844254004134
 31
0.0
  0
TEXT
  5
18ED9
  8
1DIM
 10
2512.042282055138
 20
-1830.1442540041339
 30
0.0
 40
3.5
  1
5
  0
LINE
  5
18EDA
  8
0
  6
BYBLOCK
 10
2517.7089487218041
 20
-1831.3801523841339
 30
0.0
 11
2515.7089487218041
 21
-1830.844254004134
 31
0.0
  0
LINE
  5
18EDB
  8
0
  6
BYBLOCK
 10
2515.7089487218041
 20
-1830.844254004134
 30
0.0
 11
2517.7089487218041
 21
-1830.308355624134
 31
0.0
  0
LINE
  5
18EDC
  8
0
  6
BYBLOCK
 10
2515.7089487218041
 20
-1830.844254004134
 30
0.0
 11
2517.7089487218041
 21
-1830.844254004134
 31
0.0
  0
LINE
  5
18EDD
  8
0
  6
BYBLOCK
 10
2508.7089487218041
 20
-1830.308355624134
 30
0.0
 11
2510.7089487218041
 21
-1830.844254004134
 31
0.0
  0
LINE
  5
18EDE
  8
0
  6
BYBLOCK
 10
2510.7089487218041
 20
-1830.844254004134
 30
0.0
 11
2508.7089487218041
 21
-1831.3801523841339
 31
0.0
  0
LINE
  5
18EDF
  8
0
  6
BYBLOCK
 10
2510.7089487218041
 20
-1830.844254004134
 30
0.0
 11
2508.7089487218041
 21
-1830.844254004134
 31
0.0
  0
TEXT
  5
18EE0
  8
1DIM
 10
2528.292282055138
 20
-1810.1442540041339
 30
0.0
 40
3.5
  1
45
  0
LINE
  5
18EE1
  8
0
  6
BYBLOCK
 10
2551.7089487218059
 20
-1810.308355624134
 30
0.0
 11
2553.708948721805
 21
-1810.844254004134
 31
0.0
  0
LINE
  5
18EE2
  8
0
  6
BYBLOCK
 10
2553.708948721805
 20
-1810.844254004134
 30
0.0
 11
2551.7089487218059
 21
-1811.3801523841339
 31
0.0
  0
LINE
  5
18EE3
  8
0
  6
BYBLOCK
 10
2553.708948721805
 20
-1810.844254004134
 30
0.0
 11
2551.7089487218059
 21
-1810.844254004134
 31
0.0
  0
LINE
  5
18EE4
  8
0
  6
BYBLOCK
 10
2510.7089487218041
 20
-1811.3801523841339
 30
0.0
 11
2508.7089487218041
 21
-1810.844254004134
 31
0.0
  0
LINE
  5
18EE5
  8
0
  6
BYBLOCK
 10
2508.7089487218041
 20
-1810.844254004134
 30
0.0
 11
2510.7089487218041
 21
-1810.308355624134
 31
0.0
  0
LINE
  5
18EE6
  8
0
  6
BYBLOCK
 10
2508.7089487218041
 20
-1810.844254004134
 30
0.0
 11
2510.7089487218041
 21
-1810.844254004134
 31
0.0
  0
TEXT
  5
18EE7
  8
1DIM
 10
2523.3922820551379
 20
-1830.1442540041339
 30
0.0
 40
3.5
  1
埋込寸法38
  0
LINE
  5
18EE8
  8
0
  6
BYBLOCK
 10
2551.7089487218059
 20
-1830.308355624134
 30
0.0
 11
2553.708948721805
 21
-1830.844254004134
 31
0.0
  0
LINE
  5
18EE9
  8
0
  6
BYBLOCK
 10
2553.708948721805
 20
-1830.844254004134
 30
0.0
 11
2551.7089487218059
 21
-1831.3801523841339
 31
0.0
  0
LINE
  5
18EEA
  8
0
  6
BYBLOCK
 10
2553.708948721805
 20
-1830.844254004134
 30
0.0
 11
2551.7089487218059
 21
-1830.844254004134
 31
0.0
  0
LINE
  5
18EEB
  8
0
  6
BYBLOCK
 10
2517.7089487218041
 20
-1831.3801523841339
 30
0.0
 11
2515.7089487218041
 21
-1830.844254004134
 31
0.0
  0
LINE
  5
18EEC
  8
0
  6
BYBLOCK
 10
2515.7089487218041
 20
-1830.844254004134
 30
0.0
 11
2517.7089487218041
 21
-1830.308355624134
 31
0.0
  0
LINE
  5
18EED
  8
0
  6
BYBLOCK
 10
2515.7089487218041
 20
-1830.844254004134
 30
0.0
 11
2517.7089487218041
 21
-1830.844254004134
 31
0.0
  0
LINE
  5
18EEE
  8
1DIM
 10
2507.3842572097451
 20
-1843.1420484197361
 30
0.0
 11
2502.9243763213258
 21
-1837.1028897274521
 31
0.0
  0
LINE
  5
18EEF
  8
1DIM
 10
2502.9243763213258
 20
-1837.1028897274521
 30
0.0
 11
2500.2243763213251
 21
-1837.1028897274521
 31
0.0
  0
LINE
  5
18EF0
  8
1DIM
 10
2455.3931054872842
 20
-1793.923526850876
 30
0.0
 11
2463.4522421162169
 21
-1784.446709244045
 31
0.0
  0
LINE
  5
18EF1
  8
1DIM
 10
2463.4522421162169
 20
-1784.446709244045
 30
0.0
 11
2466.1522421162158
 21
-1784.446709244045
 31
0.0
  0
TEXT
  5
18EF2
  8
1DIM
 10
2394.917282055138
 20
-1821.071215667414
 30
0.0
 40
3.5
  1
120
  0
LINE
  5
18EF3
  8
0
  6
BYBLOCK
 10
2456.7089487218041
 20
-1821.2353172874141
 30
0.0
 11
2458.7089487218041
 21
-1821.771215667414
 31
0.0
  0
LINE
  5
18EF4
  8
0
  6
BYBLOCK
 10
2458.7089487218041
 20
-1821.771215667414
 30
0.0
 11
2456.7089487218041
 21
-1822.307114047414
 31
0.0
  0
LINE
  5
18EF5
  8
0
  6
BYBLOCK
 10
2458.7089487218041
 20
-1821.771215667414
 30
0.0
 11
2456.7089487218041
 21
-1821.771215667414
 31
0.0
  0
LINE
  5
18EF6
  8
0
  6
BYBLOCK
 10
2340.708948721805
 20
-1822.307114047414
 30
0.0
 11
2338.708948721805
 21
-1821.771215667414
 31
0.0
  0
LINE
  5
18EF7
  8
0
  6
BYBLOCK
 10
2338.708948721805
 20
-1821.771215667414
 30
0.0
 11
2340.708948721805
 21
-1821.2353172874141
 31
0.0
  0
LINE
  5
18EF8
  8
0
  6
BYBLOCK
 10
2338.708948721805
 20
-1821.771215667414
 30
0.0
 11
2340.708948721805
 21
-1821.771215667414
 31
0.0
  0
TEXT
  5
18EF9
  8
1DIM
 10
2488.0043045637781
 20
-1934.0109206708009
 30
0.0
 40
3.5
  1
175.5
 50
90.0
  0
LINE
  5
18EFA
  8
0
  6
BYBLOCK
 10
2488.1684061837782
 20
-1841.844254004134
 30
0.0
 11
2488.7043045637779
 21
-1839.844254004134
 31
0.0
  0
LINE
  5
18EFB
  8
0
  6
BYBLOCK
 10
2488.7043045637779
 20
-1839.844254004134
 30
0.0
 11
2489.2402029437781
 21
-1841.844254004134
 31
0.0
  0
LINE
  5
18EFC
  8
0
  6
BYBLOCK
 10
2488.7043045637779
 20
-1839.844254004134
 30
0.0
 11
2488.7043045637779
 21
-1841.844254004134
 31
0.0
  0
LINE
  5
18EFD
  8
0
  6
BYBLOCK
 10
2489.2402029437781
 20
-2013.3442540041351
 30
0.0
 11
2488.7043045637779
 21
-2015.344254004134
 31
0.0
  0
LINE
  5
18EFE
  8
0
  6
BYBLOCK
 10
2488.7043045637779
 20
-2015.344254004134
 30
0.0
 11
2488.1684061837782
 21
-2013.3442540041351
 31
0.0
  0
LINE
  5
18EFF
  8
0
  6
BYBLOCK
 10
2488.7043045637779
 20
-2015.344254004134
 30
0.0
 11
2488.7043045637779
 21
-2013.3442540041351
 31
0.0
  0
TEXT
  5
18F00
  8
1DIM
 10
2379.0506153884721
 20
-1812.15510876748
 30
0.0
 40
3.5
  1
切欠穴寸法120 以上
  0
LINE
  5
18F01
  8
0
  6
BYBLOCK
 10
2456.7089487218041
 20
-1812.319210387481
 30
0.0
 11
2458.7089487218041
 21
-1812.85510876748
 31
0.0
  0
LINE
  5
18F02
  8
0
  6
BYBLOCK
 10
2458.7089487218041
 20
-1812.85510876748
 30
0.0
 11
2456.7089487218041
 21
-1813.39100714748
 31
0.0
  0
LINE
  5
18F03
  8
0
  6
BYBLOCK
 10
2458.7089487218041
 20
-1812.85510876748
 30
0.0
 11
2456.7089487218041
 21
-1812.85510876748
 31
0.0
  0
LINE
  5
18F04
  8
0
  6
BYBLOCK
 10
2340.708948721805
 20
-1813.39100714748
 30
0.0
 11
2338.708948721805
 21
-1812.85510876748
 31
0.0
  0
LINE
  5
18F05
  8
0
  6
BYBLOCK
 10
2338.708948721805
 20
-1812.85510876748
 30
0.0
 11
2340.708948721805
 21
-1812.319210387481
 31
0.0
  0
LINE
  5
18F06
  8
0
  6
BYBLOCK
 10
2338.708948721805
 20
-1812.85510876748
 30
0.0
 11
2340.708948721805
 21
-1812.85510876748
 31
0.0
  0
TEXT
  5
18F07
  8
1DIM
 10
2475.9499770649959
 20
-1949.577442264092
 30
0.0
 40
3.5
  1
切欠穴寸法168 以上
 50
90.0
  0
LINE
  5
18F08
  8
0
  6
BYBLOCK
 10
2477.1858754449959
 20
-2011.4106305240491
 30
0.0
 11
2476.6499770649962
 21
-2013.4106305240491
 31
0.0
  0
LINE
  5
18F09
  8
0
  6
BYBLOCK
 10
2476.6499770649962
 20
-2013.4106305240491
 30
0.0
 11
2476.1140786849951
 21
-2011.4106305240491
 31
0.0
  0
LINE
  5
18F0A
  8
0
  6
BYBLOCK
 10
2476.6499770649962
 20
-2013.4106305240491
 30
0.0
 11
2476.6499770649962
 21
-2011.4106305240491
 31
0.0
  0
LINE
  5
18F0B
  8
0
  6
BYBLOCK
 10
2476.1140786849951
 20
-1847.844254004136
 30
0.0
 11
2476.6499770649962
 21
-1845.844254004136
 31
0.0
  0
LINE
  5
18F0C
  8
0
  6
BYBLOCK
 10
2476.6499770649962
 20
-1845.844254004136
 30
0.0
 11
2477.1858754449959
 21
-1847.844254004136
 31
0.0
  0
LINE
  5
18F0D
  8
0
  6
BYBLOCK
 10
2476.6499770649962
 20
-1845.844254004136
 30
0.0
 11
2476.6499770649962
 21
-1847.844254004136
 31
0.0
  0
TEXT
  5
18F0E
  8
1DIM
 10
2475.9499770649959
 20
-1844.0109206708009
 30
0.0
 40
3.5
  1
6
 50
90.0
  0
LINE
  5
18F0F
  8
0
  6
BYBLOCK
 10
2476.1140786849951
 20
-1841.844254004134
 30
0.0
 11
2476.6499770649962
 21
-1839.844254004134
 31
0.0
  0
LINE
  5
18F10
  8
0
  6
BYBLOCK
 10
2476.6499770649962
 20
-1839.844254004134
 30
0.0
 11
2477.1858754449959
 21
-1841.844254004134
 31
0.0
  0
LINE
  5
18F11
  8
0
  6
BYBLOCK
 10
2476.6499770649962
 20
-1839.844254004134
 30
0.0
 11
2476.6499770649962
 21
-1841.844254004134
 31
0.0
  0
LINE
  5
18F12
  8
0
  6
BYBLOCK
 10
2477.1858754449959
 20
-1843.8442540041351
 30
0.0
 11
2476.6499770649962
 21
-1845.844254004136
 31
0.0
  0
LINE
  5
18F13
  8
0
  6
BYBLOCK
 10
2476.6499770649962
 20
-1845.844254004136
 30
0.0
 11
2476.1140786849951
 21
-1843.8442540041351
 31
0.0
  0
LINE
  5
18F14
  8
0
  6
BYBLOCK
 10
2476.6499770649962
 20
-1845.844254004136
 30
0.0
 11
2476.6499770649962
 21
-1843.8442540041351
 31
0.0
  0
TEXT
  5
18F15
  8
1DIM
 10
2395.500615388471
 20
-1756.640233082451
 30
0.0
 40
3.5
  1
110
  0
LINE
  5
18F16
  8
0
  6
BYBLOCK
 10
2451.708948721805
 20
-1756.804334702452
 30
0.0
 11
2453.708948721805
 21
-1757.340233082451
 31
0.0
  0
LINE
  5
18F17
  8
0
  6
BYBLOCK
 10
2453.708948721805
 20
-1757.340233082451
 30
0.0
 11
2451.708948721805
 21
-1757.876131462451
 31
0.0
  0
LINE
  5
18F18
  8
0
  6
BYBLOCK
 10
2453.708948721805
 20
-1757.340233082451
 30
0.0
 11
2451.708948721805
 21
-1757.340233082451
 31
0.0
  0
LINE
  5
18F19
  8
0
  6
BYBLOCK
 10
2345.708948721805
 20
-1757.876131462451
 30
0.0
 11
2343.708948721805
 21
-1757.340233082451
 31
0.0
  0
LINE
  5
18F1A
  8
0
  6
BYBLOCK
 10
2343.708948721805
 20
-1757.340233082451
 30
0.0
 11
2345.708948721805
 21
-1756.804334702452
 31
0.0
  0
LINE
  5
18F1B
  8
0
  6
BYBLOCK
 10
2343.708948721805
 20
-1757.340233082451
 30
0.0
 11
2345.708948721805
 21
-1757.340233082451
 31
0.0
  0
TEXT
  5
18F1C
  8
1DIM
 10
2395.792282055138
 20
-1831.561088548066
 30
0.0
 40
3.5
  1
73
  0
LINE
  5
18F1D
  8
0
  6
BYBLOCK
 10
2433.208948721805
 20
-1831.7251901680661
 30
0.0
 11
2435.2089487218041
 21
-1832.2610885480669
 31
0.0
  0
LINE
  5
18F1E
  8
0
  6
BYBLOCK
 10
2435.2089487218041
 20
-1832.2610885480669
 30
0.0
 11
2433.208948721805
 21
-1832.7969869280671
 31
0.0
  0
LINE
  5
18F1F
  8
0
  6
BYBLOCK
 10
2435.2089487218041
 20
-1832.2610885480669
 30
0.0
 11
2433.208948721805
 21
-1832.2610885480669
 31
0.0
  0
LINE
  5
18F20
  8
0
  6
BYBLOCK
 10
2364.2089487218041
 20
-1832.7969869280671
 30
0.0
 11
2362.2089487218041
 21
-1832.2610885480669
 31
0.0
  0
LINE
  5
18F21
  8
0
  6
BYBLOCK
 10
2362.2089487218041
 20
-1832.2610885480669
 30
0.0
 11
2364.2089487218041
 21
-1831.7251901680661
 31
0.0
  0
LINE
  5
18F22
  8
0
  6
BYBLOCK
 10
2362.2089487218041
 20
-1832.2610885480669
 30
0.0
 11
2364.2089487218041
 21
-1832.2610885480669
 31
0.0
  0
TEXT
  5
18F23
  8
1DIM
 10
2466.2716094646471
 20
-1890.761875630187
 30
0.0
 40
3.5
  1
84
 50
90.0
  0
LINE
  5
18F24
  8
0
  6
BYBLOCK
 10
2466.4357110846449
 20
-1847.844254004136
 30
0.0
 11
2466.971609464646
 21
-1845.844254004136
 31
0.0
  0
LINE
  5
18F25
  8
0
  6
BYBLOCK
 10
2466.971609464646
 20
-1845.844254004136
 30
0.0
 11
2467.5075078446462
 21
-1847.844254004136
 31
0.0
  0
LINE
  5
18F26
  8
0
  6
BYBLOCK
 10
2466.971609464646
 20
-1845.844254004136
 30
0.0
 11
2466.971609464646
 21
-1847.844254004136
 31
0.0
  0
LINE
  5
18F27
  8
0
  6
BYBLOCK
 10
2467.5075078446462
 20
-1927.846163922906
 30
0.0
 11
2466.971609464646
 21
-1929.846163922906
 31
0.0
  0
LINE
  5
18F28
  8
0
  6
BYBLOCK
 10
2466.971609464646
 20
-1929.846163922906
 30
0.0
 11
2466.4357110846449
 21
-1927.846163922906
 31
0.0
  0
LINE
  5
18F29
  8
0
  6
BYBLOCK
 10
2466.971609464646
 20
-1929.846163922906
 30
0.0
 11
2466.971609464646
 21
-1927.846163922906
 31
0.0
  0
LINE
  5
18F2A
  8
1DIM
 10
2436.229969922937
 20
-1931.6012652678639
 30
0.0
 11
2460.2134963239059
 21
-1976.4750379012589
 31
0.0
  0
LINE
  5
18F2B
  8
1DIM
 10
2460.2134963239059
 20
-1976.4750379012589
 30
0.0
 11
2462.9134963239062
 21
-1976.4750379012589
 31
0.0
  0
TEXT
  5
18F2C
  8
1DIM
 10
2359.292282055138
 20
-1906.486224556349
 30
0.0
 40
3.5
  1
26
  0
LINE
  5
18F2D
  8
0
  6
BYBLOCK
 10
2351.208948721805
 20
-1907.722122936349
 30
0.0
 11
2349.208948721805
 21
-1907.1862245563491
 31
0.0
  0
LINE
  5
18F2E
  8
0
  6
BYBLOCK
 10
2349.208948721805
 20
-1907.1862245563491
 30
0.0
 11
2351.208948721805
 21
-1906.6503261763489
 31
0.0
  0
LINE
  5
18F2F
  8
0
  6
BYBLOCK
 10
2349.208948721805
 20
-1907.1862245563491
 30
0.0
 11
2351.208948721805
 21
-1907.1862245563491
 31
0.0
  0
LINE
  5
18F30
  8
0
  6
BYBLOCK
 10
2373.2089487218041
 20
-1906.6503261763489
 30
0.0
 11
2375.2089487218041
 21
-1907.1862245563491
 31
0.0
  0
LINE
  5
18F31
  8
0
  6
BYBLOCK
 10
2375.2089487218041
 20
-1907.1862245563491
 30
0.0
 11
2373.2089487218041
 21
-1907.722122936349
 31
0.0
  0
LINE
  5
18F32
  8
0
  6
BYBLOCK
 10
2375.2089487218041
 20
-1907.1862245563491
 30
0.0
 11
2373.2089487218041
 21
-1907.1862245563491
 31
0.0
  0
TEXT
  5
18F33
  8
1DIM
 10
2335.2020598824879
 20
-1932.762830589573
 30
0.0
 40
3.5
  1
32
 50
90.0
  0
LINE
  5
18F34
  8
0
  6
BYBLOCK
 10
2335.3661615024862
 20
-1915.846163922906
 30
0.0
 11
2335.9020598824868
 21
-1913.846163922906
 31
0.0
  0
LINE
  5
18F35
  8
0
  6
BYBLOCK
 10
2335.9020598824868
 20
-1913.846163922906
 30
0.0
 11
2336.437958262487
 21
-1915.846163922906
 31
0.0
  0
LINE
  5
18F36
  8
0
  6
BYBLOCK
 10
2335.9020598824868
 20
-1913.846163922906
 30
0.0
 11
2335.9020598824868
 21
-1915.846163922906
 31
0.0
  0
LINE
  5
18F37
  8
0
  6
BYBLOCK
 10
2336.437958262487
 20
-1943.846163922907
 30
0.0
 11
2335.9020598824868
 21
-1945.846163922907
 31
0.0
  0
LINE
  5
18F38
  8
0
  6
BYBLOCK
 10
2335.9020598824868
 20
-1945.846163922907
 30
0.0
 11
2335.3661615024862
 21
-1943.846163922907
 31
0.0
  0
LINE
  5
18F39
  8
0
  6
BYBLOCK
 10
2335.9020598824868
 20
-1945.846163922907
 30
0.0
 11
2335.9020598824868
 21
-1943.846163922907
 31
0.0
  0
VIEWPORT
  5
57
 67
     1
  8
0
 10
105.8995557030251
 20
17.70484537959058
 30
0.0
 40
643.53492496110653
 41
294.05104101189181
 68
     1
 69
     1
1001
ACAD
1000
MVIEW
1002
{
1070
    16
1010
0.0
1020
0.0
1030
0.0
1010
0.0
1020
0.0
1030
1.0
1040
0.0
1040
294.05104101189181
1040
105.8995557030251
1040
17.70484537959058
1040
50.0
1040
0.0
1040
0.0
1070
     0
1070
   100
1070
     1
1070
     1
1070
     0
1070
     0
1070
     0
1070
     0
1040
0.0
1040
0.0
1040
0.0
1040
10.0
1040
10.0
1040
10.0
1040
10.0
1070
     0
1002
{
1002
}
1002
}
  0
ENDSEC
  0
EOF
