  0
SECTION
  2
HEADER
  9
$ACADVER
  1
AC1009
  9
$INSBASE
 10
0.0
 20
0.0
 30
0.0
  9
$EXTMIN
 10
2328.3897090431178
 20
-2057.2000962267648
 30
0.0
  9
$EXTMAX
 10
2616.468203188721
 20
-1752.365293368807
 30
0.0
  9
$LIMMIN
 10
0.0
 20
0.0
  9
$LIMMAX
 10
420.0
 20
297.0
  9
$ORTHOMODE
 70
     0
  9
$REGENMODE
 70
     1
  9
$FILLMODE
 70
     1
  9
$QTEXTMODE
 70
     0
  9
$MIRRTEXT
 70
     0
  9
$DRAGMODE
 70
     2
  9
$LTSCALE
 40
0.5
  9
$OSMODE
 70
    55
  9
$ATTMODE
 70
     1
  9
$TEXTSIZE
 40
4.0
  9
$TRACEWID
 40
1.0
  9
$TEXTSTYLE
  7
STANDARD
  9
$CLAYER
  8
1TEXT
  9
$CELTYPE
  6
BYLAYER
  9
$CECOLOR
 62
   256
  9
$DIMSCALE
 40
1.0
  9
$DIMASZ
 40
2.0
  9
$DIMEXO
 40
0.0
  9
$DIMDLI
 40
7.0
  9
$DIMRND
 40
0.0
  9
$DIMDLE
 40
0.0
  9
$DIMEXE
 40
1.0
  9
$DIMTP
 40
0.0
  9
$DIMTM
 40
0.0
  9
$DIMTXT
 40
3.5
  9
$DIMCEN
 40
0.0
  9
$DIMTSZ
 40
0.0
  9
$DIMTOL
 70
     0
  9
$DIMLIM
 70
     0
  9
$DIMTIH
 70
     0
  9
$DIMTOH
 70
     0
  9
$DIMSE1
 70
     0
  9
$DIMSE2
 70
     0
  9
$DIMTAD
 70
     1
  9
$DIMZIN
 70
     8
  9
$DIMBLK
  1

  9
$DIMASO
 70
     1
  9
$DIMSHO
 70
     1
  9
$DIMPOST
  1
 
  9
$DIMAPOST
  1

  9
$DIMALT
 70
     0
  9
$DIMALTD
 70
     2
  9
$DIMALTF
 40
25.399999999999999
  9
$DIMLFAC
 40
1.0
  9
$DIMTOFL
 70
     1
  9
$DIMTVP
 40
0.0
  9
$DIMTIX
 70
     0
  9
$DIMSOXD
 70
     0
  9
$DIMSAH
 70
     1
  9
$DIMBLK1
  1
OPEN30
  9
$DIMBLK2
  1
OPEN30
  9
$DIMSTYLE
  2
NEWX10
  9
$DIMCLRD
 70
   256
  9
$DIMCLRE
 70
   256
  9
$DIMCLRT
 70
   201
  9
$DIMTFAC
 40
0.7
  9
$DIMGAP
 40
0.7
  9
$LUNITS
 70
     2
  9
$LUPREC
 70
     4
  9
$SKETCHINC
 40
1.0
  9
$FILLETRAD
 40
0.0
  9
$AUNITS
 70
     0
  9
$AUPREC
 70
     2
  9
$MENU
  1
acad
  9
$ELEVATION
 40
0.0
  9
$PELEVATION
 40
0.0
  9
$THICKNESS
 40
0.0
  9
$LIMCHECK
 70
     0
  9
$BLIPMODE
 70
     0
  9
$CHAMFERA
 40
10.0
  9
$CHAMFERB
 40
10.0
  9
$SKPOLY
 70
     0
  9
$TDCREATE
 40
2453033.7326634838
  9
$TDUPDATE
 40
2457639.6949008908
  9
$TDINDWG
 40
2.3244234375000001
  9
$TDUSRTIMER
 40
2.3244234375000001
  9
$USRTIMER
 70
     1
  9
$ANGBASE
 50
0.0
  9
$ANGDIR
 70
     0
  9
$PDMODE
 70
     0
  9
$PDSIZE
 40
0.0
  9
$PLINEWID
 40
0.0
  9
$COORDS
 70
     0
  9
$SPLFRAME
 70
     0
  9
$SPLINETYPE
 70
     6
  9
$SPLINESEGS
 70
     8
  9
$ATTDIA
 70
     0
  9
$ATTREQ
 70
     1
  9
$HANDLING
 70
     1
  9
$HANDSEED
  5
1A581
  9
$SURFTAB1
 70
     6
  9
$SURFTAB2
 70
     6
  9
$SURFTYPE
 70
     6
  9
$SURFU
 70
     6
  9
$SURFV
 70
     6
  9
$UCSNAME
  2

  9
$UCSORG
 10
0.0
 20
0.0
 30
0.0
  9
$UCSXDIR
 10
1.0
 20
0.0
 30
0.0
  9
$UCSYDIR
 10
0.0
 20
1.0
 30
0.0
  9
$PUCSNAME
  2

  9
$PUCSORG
 10
0.0
 20
0.0
 30
0.0
  9
$PUCSXDIR
 10
1.0
 20
0.0
 30
0.0
  9
$PUCSYDIR
 10
0.0
 20
1.0
 30
0.0
  9
$USERI1
 70
     0
  9
$USERI2
 70
     0
  9
$USERI3
 70
     0
  9
$USERI4
 70
     0
  9
$USERI5
 70
     0
  9
$USERR1
 40
0.0
  9
$USERR2
 40
0.0
  9
$USERR3
 40
0.0
  9
$USERR4
 40
0.0
  9
$USERR5
 40
0.0
  9
$WORLDVIEW
 70
     1
  9
$SHADEDGE
 70
     3
  9
$SHADEDIF
 70
    70
  9
$TILEMODE
 70
     1
  9
$MAXACTVP
 70
    48
  9
$PLIMCHECK
 70
     0
  9
$PEXTMIN
 10
1.0000000000000000E+020
 20
1.0000000000000000E+020
 30
1.0000000000000000E+020
  9
$PEXTMAX
 10
-1.0000000000000000E+020
 20
-1.0000000000000000E+020
 30
-1.0000000000000000E+020
  9
$PLIMMIN
 10
0.0
 20
0.0
  9
$PLIMMAX
 10
420.0
 20
297.0
  9
$UNITMODE
 70
     0
  9
$VISRETAIN
 70
     1
  9
$PLINEGEN
 70
     0
  9
$PSLTSCALE
 70
     1
  0
ENDSEC
  0
SECTION
  2
TABLES
  0
TABLE
  2
VPORT
 70
     1
  0
VPORT
  2
*ACTIVE
 70
     0
 10
0.0
 20
0.0
 11
1.0
 21
1.0
 12
2472.4219265004422
 22
-1904.782016250331
 13
0.0
 23
0.0
 14
10.0
 24
10.0
 15
10.0
 25
10.0
 16
0.0
 26
0.0
 36
1.0
 17
0.0
 27
0.0
 37
0.0
 40
323.43313961492521
 41
2.1885143570536818
 42
50.0
 43
0.0
 44
0.0
 50
0.0
 51
0.0
 71
     0
 72
   100
 73
     1
 74
     1
 75
     0
 76
     0
 77
     0
 78
     0
  0
ENDTAB
  0
TABLE
  2
LTYPE
 70
    15
  0
LTYPE
  2
CONTINUOUS
 70
     0
  3
Solid line
 72
    65
 73
     0
 40
0.0
  0
LTYPE
  2
CENTER2
 70
     0
  3
Center (.5x) ___ _ ___ _ ___ _ ___ _ ___ _ ___
 72
    65
 73
     4
 40
28.574999999999999
 49
19.050000000000001
 49
-3.1749999999999989
 49
3.1749999999999989
 49
-3.1749999999999989
  0
LTYPE
  2
PHANTOM2
 70
     0
  3
Phantom (.5x) ___ _ _ ___ _ _ ___ _ _ ___ _ _
 72
    65
 73
     6
 40
31.75
 49
15.875
 49
-3.1749999999999989
 49
3.1749999999999989
 49
-3.1749999999999989
 49
3.1749999999999989
 49
-3.1749999999999989
  0
ENDTAB
  0
TABLE
  2
LAYER
 70
    45
  0
LAYER
  2
0
 70
     0
 62
     7
  6
CONTINUOUS
  0
LAYER
  2
1CENTER
 70
     0
 62
     7
  6
CENTER2
  0
LAYER
  2
1TEXT
 70
     0
 62
     7
  6
CONTINUOUS
  0
LAYER
  2
1DIM
 70
     0
 62
     7
  6
CONTINUOUS
  0
LAYER
  2
1PHANTOM
 70
     0
 62
     7
  6
PHANTOM2
  0
LAYER
  2
01
 70
     0
 62
     1
  6
CONTINUOUS
  0
ENDTAB
  0
TABLE
  2
STYLE
 70
    23
  0
STYLE
  2
STANDARD
 70
     0
 40
0.0
 41
1.0
 50
0.0
 71
     0
 42
4.0
  3
txt.shx
  4
extfont.shx
  0
ENDTAB
  0
TABLE
  2
VIEW
 70
     5
  0
ENDTAB
  0
TABLE
  2
UCS
 70
     0
  0
ENDTAB
  0
TABLE
  2
APPID
 70
    12
  0
APPID
  2
ACAD
 70
     0
  0
APPID
  2
DRAWINGVARIABLESXDATA
 70
     0
  0
APPID
  2
CONTENTTABDATA
 70
     0
  0
APPID
  2
CONTENTCURRENTTAB
 70
     0
  0
APPID
  2
CONTENTBLOCKDESCRIPTION
 70
     0
  0
APPID
  2
CONTENTBLOCKICON
 70
     0
  0
APPID
  2
CONTENTLONGBLOCKNAME
 70
     0
  0
APPID
  2
ACAD_PSEXT
 70
     0
  0
APPID
  2
ACAD_DSTYLE_DIMTEXT_FILL
 70
     0
  0
APPID
  2
ACAD_MLEADERVER
 70
     0
  0
APPID
  2
ACAD_DSTYLE_DIMRADIAL_EXTENSION
 70
     0
  0
APPID
  2
ACAD_EXEMPT_FROM_CAD_STANDARDS
 70
     0
  0
ENDTAB
  0
TABLE
  2
DIMSTYLE
 70
     9
  0
DIMSTYLE
  2
NEWX10
 70
     0
  3
 
  4

  5

  6
OPEN30
  7
OPEN30
 40
1.0
 41
2.0
 42
0.0
 43
7.0
 44
1.0
 45
0.0
 46
0.0
 47
0.0
 48
0.0
140
3.5
141
0.0
142
0.0
143
25.399999999999999
144
1.0
145
0.0
146
0.7
147
0.7
 71
     0
 72
     0
 73
     0
 74
     0
 75
     0
 76
     0
 77
     1
 78
     8
170
     0
171
     2
172
     1
173
     1
174
     0
175
     0
176
   256
177
   256
178
   201
  0
ENDTAB
  0
ENDSEC
  0
SECTION
  2
BLOCKS
  0
BLOCK
  8
0
  2
$MODEL_SPACE
 70
     0
 10
0.0
 20
0.0
 30
0.0
  3
$MODEL_SPACE
  1

  0
ENDBLK
  5
1A
  8
0
  0
BLOCK
 67
     1
  8
0
  2
$PAPER_SPACE
 70
     0
 10
0.0
 20
0.0
 30
0.0
  3
$PAPER_SPACE
  1

  0
ENDBLK
  5
17
 67
     1
  8
0
  0
BLOCK
  8
0
  2
_OPEN30
 70
     0
 10
0.0
 20
0.0
 30
0.0
  3
_OPEN30
  1

  0
LINE
  5
44
  8
0
  6
BYBLOCK
 62
     0
 10
-1.0
 20
0.26794919
 30
0.0
 11
0.0
 21
0.0
 31
0.0
  0
LINE
  5
45
  8
0
  6
BYBLOCK
 62
     0
 10
0.0
 20
0.0
 30
0.0
 11
-1.0
 21
-0.26794919
 31
0.0
  0
LINE
  5
46
  8
0
  6
BYBLOCK
 62
     0
 10
0.0
 20
0.0
 30
0.0
 11
-1.0
 21
0.0
 31
0.0
  0
ENDBLK
  5
47
  8
0
  0
BLOCK
  8
0
  2
*U57
 70
     1
 10
0.0
 20
0.0
 30
0.0
  3
*U57
  1

  0
TEXT
  5
1A502
  8
1DIM
 62
   201
 10
-641.0011966847386
 20
-1506.6191212842521
 30
0.0
 40
3.5
  1
120
  0
ENDBLK
  5
1A504
  8
0
  0
BLOCK
  8
0
  2
*U58
 70
     1
 10
0.0
 20
0.0
 30
0.0
  3
*U58
  1

  0
TEXT
  5
1A506
  8
1DIM
 62
   201
 10
-564.0486646579069
 20
-1610.854725422897
 30
0.0
 40
3.5
  1
175.5
 50
90.0
  0
ENDBLK
  5
1A508
  8
0
  0
BLOCK
  8
0
  2
*U59
 70
     1
 10
0.0
 20
0.0
 30
0.0
  3
*U59
  1

  0
TEXT
  5
1A50A
  8
1DIM
 62
   201
 10
-663.80648504232727
 20
-1560.6963316699571
 30
0.0
 40
3.5
  1
\U+220534
 50
338.47680952068077
  0
ENDBLK
  5
1A50C
  8
0
  0
BLOCK
  8
0
  2
*U60
 70
     1
 10
0.0
 20
0.0
 30
0.0
  3
*U60
  1

  0
TEXT
  5
1A50E
  8
1DIM
 62
   201
 10
-640.1261966847386
 20
-1665.146475093014
 30
0.0
 40
3.5
  1
46
  0
ENDBLK
  5
1A510
  8
0
  0
BLOCK
  8
0
  2
*U61
 70
     1
 10
0.0
 20
0.0
 30
0.0
  3
*U61
  1

  0
TEXT
  5
1A512
  8
1DIM
 62
   201
 10
-603.26787202365597
 20
-1619.721392089564
 30
0.0
 40
3.5
  1
4.35
 50
90.0
  0
ENDBLK
  5
1A514
  8
0
  0
BLOCK
  8
0
  2
*U62
 70
     1
 10
0.0
 20
0.0
 30
0.0
  3
*U62
  1

  0
TEXT
  5
1A516
  8
1DIM
 62
   201
 10
-692.479048986865
 20
-1593.43805875623
 30
0.0
 40
3.5
  1
32.5
 50
90.0
  0
ENDBLK
  5
1A518
  8
0
  0
BLOCK
  8
0
  2
*U63
 70
     1
 10
0.0
 20
0.0
 30
0.0
  3
*U63
  1

  0
TEXT
  5
1A51A
  8
1DIM
 62
   201
 10
-624.04286335140546
 20
-1547.26350124739
 30
0.0
 40
3.5
  1
31
  0
ENDBLK
  5
1A51C
  8
0
  0
BLOCK
  8
0
  2
*U64
 70
     1
 10
0.0
 20
0.0
 30
0.0
  3
*U64
  1

  0
TEXT
  5
1A51E
  8
1DIM
 62
   201
 10
-598.50953001807204
 20
-1547.26350124739
 30
0.0
 40
3.5
  1
3
  0
ENDBLK
  5
1A520
  8
0
  0
BLOCK
  8
0
  2
*U65
 70
     1
 10
0.0
 20
0.0
 30
0.0
  3
*U65
  1

  0
TEXT
  5
1A522
  8
1DIM
 62
   201
 10
-596.79358294292695
 20
-1595.3380587562301
 30
0.0
 40
3.5
  1
28.7
 50
90.0
  0
ENDBLK
  5
1A524
  8
0
  0
BLOCK
  8
0
  2
*U66
 70
     1
 10
0.0
 20
0.0
 30
0.0
  3
*U66
  1

  0
TEXT
  5
1A526
  8
1DIM
 62
   201
 10
-596.79358294292695
 20
-1570.446392089563
 30
0.0
 40
3.5
  1
20.5
 50
90.0
  0
ENDBLK
  5
1A528
  8
0
  0
BLOCK
  8
0
  2
*U67
 70
     1
 10
0.0
 20
0.0
 30
0.0
  3
*U67
  1

  0
TEXT
  5
1A52A
  8
1DIM
 62
   201
 10
-665.14787664256471
 20
-1608.3880587562289
 30
0.0
 40
3.5
  1
9.6
 50
90.0
  0
ENDBLK
  5
1A52C
  8
0
  0
BLOCK
  8
0
  2
*U68
 70
     1
 10
0.0
 20
0.0
 30
0.0
  3
*U68
  1

  0
TEXT
  5
1A52E
  8
1DIM
 62
   201
 10
-665.14787664256471
 20
-1650.346392089562
 30
0.0
 40
3.5
  1
17.15
 50
90.0
  0
ENDBLK
  5
1A530
  8
0
  0
BLOCK
  8
0
  2
*U69
 70
     1
 10
0.0
 20
0.0
 30
0.0
  3
*U69
  1

  0
TEXT
  5
1A532
  8
1DIM
 62
   201
 10
-674.35171629121055
 20
-1627.8880587562289
 30
0.0
 40
3.5
  1
3.1
 50
90.0
  0
ENDBLK
  5
1A534
  8
0
  0
BLOCK
  8
0
  2
*U70
 70
     1
 10
0.0
 20
0.0
 30
0.0
  3
*U70
  1

  0
TEXT
  5
1A536
  8
1DIM
 62
   201
 10
-665.14787664256471
 20
-1625.463058756229
 30
0.0
 40
3.5
  1
20
 50
90.0
  0
ENDBLK
  5
1A538
  8
0
  0
BLOCK
  8
0
  2
*U71
 70
     1
 10
0.0
 20
0.0
 30
0.0
  3
*U71
  1

  0
TEXT
  5
1A53A
  8
1DIM
 62
   201
 10
-667.24286335140528
 20
-1595.1139302776501
 30
0.0
 40
3.5
  1
2
  0
ENDBLK
  5
1A53C
  8
0
  0
BLOCK
  8
0
  2
*U72
 70
     1
 10
0.0
 20
0.0
 30
0.0
  3
*U72
  1

  0
TEXT
  5
1A53E
  8
1DIM
 62
   201
 10
-665.24286335140539
 20
-1589.636613459287
 30
0.0
 40
3.5
  1
2
  0
ENDBLK
  5
1A540
  8
0
  0
BLOCK
  8
0
  2
*U73
 70
     1
 10
0.0
 20
0.0
 30
0.0
  3
*U73
  1

  0
TEXT
  5
1A542
  8
1DIM
 62
   201
 10
2221.282302697774
 20
-1806.4441558565291
 30
0.0
 40
3.5
  1
120
  0
ENDBLK
  5
1A544
  8
0
  0
BLOCK
  8
0
  2
*U74
 70
     1
 10
0.0
 20
0.0
 30
0.0
  3
*U74
  1

  0
TEXT
  5
1A546
  8
1DIM
 62
   201
 10
2298.2348347246061
 20
-1910.6797599951731
 30
0.0
 40
3.5
  1
175.5
 50
90.0
  0
ENDBLK
  5
1A548
  8
0
  0
BLOCK
  8
0
  2
*U75
 70
     1
 10
0.0
 20
0.0
 30
0.0
  3
*U75
  1

  0
TEXT
  5
1A54A
  8
1DIM
 62
   201
 10
2198.4770143401852
 20
-1860.5213662422329
 30
0.0
 40
3.5
  1
\U+220534
 50
338.47680952067941
  0
ENDBLK
  5
1A54C
  8
0
  0
BLOCK
  8
0
  2
*U76
 70
     1
 10
0.0
 20
0.0
 30
0.0
  3
*U76
  1

  0
TEXT
  5
1A54E
  8
1DIM
 62
   201
 10
2222.157302697774
 20
-1964.9715096652899
 30
0.0
 40
3.5
  1
46
  0
ENDBLK
  5
1A550
  8
0
  0
BLOCK
  8
0
  2
*U77
 70
     1
 10
0.0
 20
0.0
 30
0.0
  3
*U77
  1

  0
TEXT
  5
1A552
  8
1DIM
 62
   201
 10
2259.0156273588568
 20
-1919.546426661841
 30
0.0
 40
3.5
  1
4.35
 50
90.0
  0
ENDBLK
  5
1A554
  8
0
  0
BLOCK
  8
0
  2
*U78
 70
     1
 10
0.0
 20
0.0
 30
0.0
  3
*U78
  1

  0
TEXT
  5
1A556
  8
1DIM
 62
   201
 10
2169.804450395648
 20
-1893.2630933285061
 30
0.0
 40
3.5
  1
32.5
 50
90.0
  0
ENDBLK
  5
1A558
  8
0
  0
BLOCK
  8
0
  2
*U79
 70
     1
 10
0.0
 20
0.0
 30
0.0
  3
*U79
  1

  0
TEXT
  5
1A55A
  8
1DIM
 62
   201
 10
2238.240636031107
 20
-1847.088535819666
 30
0.0
 40
3.5
  1
31
  0
ENDBLK
  5
1A55C
  8
0
  0
BLOCK
  8
0
  2
*U80
 70
     1
 10
0.0
 20
0.0
 30
0.0
  3
*U80
  1

  0
TEXT
  5
1A55E
  8
1DIM
 62
   201
 10
2263.7739693644412
 20
-1847.088535819666
 30
0.0
 40
3.5
  1
3
  0
ENDBLK
  5
1A560
  8
0
  0
BLOCK
  8
0
  2
*U81
 70
     1
 10
0.0
 20
0.0
 30
0.0
  3
*U81
  1

  0
TEXT
  5
1A562
  8
1DIM
 62
   201
 10
2265.4899164395861
 20
-1895.163093328506
 30
0.0
 40
3.5
  1
28.7
 50
90.0
  0
ENDBLK
  5
1A564
  8
0
  0
BLOCK
  8
0
  2
*U82
 70
     1
 10
0.0
 20
0.0
 30
0.0
  3
*U82
  1

  0
TEXT
  5
1A566
  8
1DIM
 62
   201
 10
2265.4899164395861
 20
-1870.27142666184
 30
0.0
 40
3.5
  1
20.5
 50
90.0
  0
ENDBLK
  5
1A568
  8
0
  0
BLOCK
  8
0
  2
*U83
 70
     1
 10
0.0
 20
0.0
 30
0.0
  3
*U83
  1

  0
TEXT
  5
1A56A
  8
1DIM
 62
   201
 10
2197.1356227399478
 20
-1908.213093328505
 30
0.0
 40
3.5
  1
9.6
 50
90.0
  0
ENDBLK
  5
1A56C
  8
0
  0
BLOCK
  8
0
  2
*U84
 70
     1
 10
0.0
 20
0.0
 30
0.0
  3
*U84
  1

  0
TEXT
  5
1A56E
  8
1DIM
 62
   201
 10
2197.1356227399478
 20
-1950.171426661839
 30
0.0
 40
3.5
  1
17.15
 50
90.0
  0
ENDBLK
  5
1A570
  8
0
  0
BLOCK
  8
0
  2
*U85
 70
     1
 10
0.0
 20
0.0
 30
0.0
  3
*U85
  1

  0
TEXT
  5
1A572
  8
1DIM
 62
   201
 10
2187.9317830913019
 20
-1927.713093328505
 30
0.0
 40
3.5
  1
3.1
 50
90.0
  0
ENDBLK
  5
1A574
  8
0
  0
BLOCK
  8
0
  2
*U86
 70
     1
 10
0.0
 20
0.0
 30
0.0
  3
*U86
  1

  0
TEXT
  5
1A576
  8
1DIM
 62
   201
 10
2197.1356227399478
 20
-1925.2880933285051
 30
0.0
 40
3.5
  1
20
 50
90.0
  0
ENDBLK
  5
1A578
  8
0
  0
BLOCK
  8
0
  2
*U87
 70
     1
 10
0.0
 20
0.0
 30
0.0
  3
*U87
  1

  0
TEXT
  5
1A57A
  8
1DIM
 62
   201
 10
2195.0406360311072
 20
-1894.9389648499271
 30
0.0
 40
3.5
  1
2
  0
ENDBLK
  5
1A57C
  8
0
  0
BLOCK
  8
0
  2
*U88
 70
     1
 10
0.0
 20
0.0
 30
0.0
  3
*U88
  1

  0
TEXT
  5
1A57E
  8
1DIM
 62
   201
 10
2197.0406360311072
 20
-1889.4616480315631
 30
0.0
 40
3.5
  1
2
  0
ENDBLK
  5
1A580
  8
0
  0
ENDSEC
  0
SECTION
  2
ENTITIES
  0
LINE
  5
183E2
  8
01
  6
BYBLOCK
 10
2520.2655858337912
 20
-2014.81931429049
 30
0.0
 11
2520.2655858337921
 21
-2013.8193142904911
 31
0.0
  0
LINE
  5
183E3
  8
01
  6
BYBLOCK
 10
2524.7655858337921
 20
-2013.8193142904911
 30
0.0
 11
2524.7655858337921
 21
-2012.635690810404
 31
0.0
  0
ARC
  5
183E4
  8
01
  6
BYBLOCK
 10
2523.7655858337921
 20
-2013.8193142904911
 30
0.0
 40
1.0
 50
270.0
 51
0.0
  0
LINE
  5
183E5
  8
01
  6
BYBLOCK
 10
2523.7655858337912
 20
-2013.8193142904911
 30
0.0
 11
2523.7655858337912
 21
-2012.72317947393
 31
0.0
  0
LINE
  5
183E6
  8
1PHANTOM
 10
2558.7655858337921
 20
-2001.8193142904911
 30
0.0
 11
2524.7655858337921
 21
-2001.8193142904911
 31
0.0
  0
LINE
  5
183E7
  8
1PHANTOM
 10
2558.7655858337912
 20
-2000.81931429049
 30
0.0
 11
2524.7655858337921
 21
-2000.8193142904911
 31
0.0
  0
ARC
  5
183E8
  8
01
  6
BYBLOCK
 10
2524.7655858337912
 20
-2001.8193142904911
 30
0.0
 40
1.0
 50
90.0
 51
180.0
  0
LINE
  5
183E9
  8
1PHANTOM
 10
2558.7655858337921
 20
-1986.8193142904911
 30
0.0
 11
2552.7655858337921
 21
-1986.8193142904911
 31
0.0
  0
ARC
  5
183EA
  8
1PHANTOM
 10
2558.7655858337921
 20
-1987.8193142904911
 30
0.0
 40
1.0
 50
0.0
 51
90.0
  0
LINE
  5
183EB
  8
1PHANTOM
 10
2558.7655858337912
 20
-1987.81931429049
 30
0.0
 11
2552.765585833793
 21
-1987.819314290492
 31
0.0
  0
LINE
  5
183EC
  8
1PHANTOM
 10
2558.7655858337921
 20
-1869.81931429049
 30
0.0
 11
2552.7655858337921
 21
-1869.81931429049
 31
0.0
  0
LINE
  5
183ED
  8
1PHANTOM
 10
2558.7655858337921
 20
-1868.8193142904911
 30
0.0
 11
2552.7655858337921
 21
-1868.8193142904929
 31
0.0
  0
ARC
  5
183EE
  8
1PHANTOM
 10
2552.7655858337921
 20
-1869.819314290492
 30
0.0
 40
1.0
 50
90.0
 51
180.0
  0
LINE
  5
183EF
  8
01
  6
BYBLOCK
 10
2520.2655858337912
 20
-2014.81931429049
 30
0.0
 11
2523.7655858337921
 21
-2014.8193142904911
 31
0.0
  0
LINE
  5
183F0
  8
01
  6
BYBLOCK
 10
2520.2655858337921
 20
-2013.8193142904911
 30
0.0
 11
2523.7655858337912
 21
-2013.8193142904911
 31
0.0
  0
LINE
  5
183F1
  8
1PHANTOM
 10
2559.765585833793
 20
-2000.8193142904911
 30
0.0
 11
2559.765585833793
 21
-1987.8193142904911
 31
0.0
  0
ARC
  5
183F2
  8
1PHANTOM
 10
2558.7655858337921
 20
-2000.8193142904911
 30
0.0
 40
1.0
 50
270.0
 51
0.0
  0
LINE
  5
183F3
  8
1PHANTOM
 10
2558.7655858337912
 20
-2000.81931429049
 30
0.0
 11
2558.7655858337912
 21
-1987.81931429049
 31
0.0
  0
LINE
  5
183F4
  8
1PHANTOM
 10
2559.765585833793
 20
-1868.81931429049
 30
0.0
 11
2559.765585833793
 21
-1855.819314290492
 31
0.0
  0
ARC
  5
183F5
  8
1PHANTOM
 10
2558.7655858337921
 20
-1868.81931429049
 30
0.0
 40
1.0
 50
270.0
 51
0.0
  0
LINE
  5
183F6
  8
1PHANTOM
 10
2558.7655858337921
 20
-1868.8193142904911
 30
0.0
 11
2558.7655858337921
 21
-1855.8193142904911
 31
0.0
  0
LINE
  5
183F7
  8
1PHANTOM
 10
2551.7655858337921
 20
-1869.819314290492
 30
0.0
 11
2551.7655858337921
 21
-1986.8193142904911
 31
0.0
  0
ARC
  5
183F8
  8
1PHANTOM
 10
2552.7655858337921
 20
-1986.8193142904911
 30
0.0
 40
1.0
 50
180.0
 51
270.00000000002598
  0
LINE
  5
183F9
  8
1PHANTOM
 10
2552.7655858337921
 20
-1869.81931429049
 30
0.0
 11
2552.7655858337921
 21
-1986.8193142904911
 31
0.0
  0
LINE
  5
183FE
  8
1PHANTOM
 10
2522.2655858337912
 20
-1854.8193142904911
 30
0.0
 11
2558.7655858337921
 21
-1854.819314290492
 31
0.0
  0
ARC
  5
183FF
  8
1PHANTOM
 10
2558.7655858337921
 20
-1855.819314290492
 30
0.0
 40
1.0
 50
0.0
 51
90.0
  0
LINE
  5
18400
  8
1PHANTOM
 10
2522.2655858337912
 20
-1855.81931429049
 30
0.0
 11
2558.7655858337921
 21
-1855.8193142904911
 31
0.0
  0
LINE
  5
18401
  8
1PHANTOM
 10
2554.7655858337921
 20
-1971.969314290491
 30
0.0
 11
2554.7655858337921
 21
-1965.6693142904919
 31
0.0
  0
LINE
  5
18404
  8
1PHANTOM
 10
2552.7655858337921
 20
-1965.6693142904919
 30
0.0
 11
2554.7655858337921
 21
-1965.6693142904919
 31
0.0
  0
LINE
  5
18407
  8
1PHANTOM
 10
2552.7655858337912
 20
-1971.96931429049
 30
0.0
 11
2554.7655858337912
 21
-1971.969314290491
 31
0.0
  0
LINE
  5
18408
  8
1PHANTOM
 10
2554.7655858337912
 20
-1888.4693142904921
 30
0.0
 11
2554.7655858337921
 21
-1882.1693142904919
 31
0.0
  0
LINE
  5
1840B
  8
1PHANTOM
 10
2552.7655858337921
 20
-1882.169314290491
 30
0.0
 11
2554.7655858337921
 21
-1882.1693142904919
 31
0.0
  0
LINE
  5
1840E
  8
1PHANTOM
 10
2552.7655858337912
 20
-1888.469314290491
 30
0.0
 11
2554.7655858337912
 21
-1888.4693142904921
 31
0.0
  0
LINE
  5
18410
  8
1PHANTOM
 10
2522.2655858337912
 20
-1854.8193142904911
 30
0.0
 11
2522.2655858337912
 21
-1850.0693142904911
 31
0.0
  0
LINE
  5
18411
  8
1PHANTOM
 10
2521.2655858337912
 20
-1854.81931429049
 30
0.0
 11
2521.2655858337912
 21
-1850.0693142904911
 31
0.0
  0
ARC
  5
18412
  8
1PHANTOM
 10
2522.2655858337912
 20
-1854.81931429049
 30
0.0
 40
1.0
 50
180.0
 51
270.0
  0
LINE
  5
18413
  8
1PHANTOM
 10
2521.2655858337912
 20
-1850.0693142904911
 30
0.0
 11
2522.2655858337921
 21
-1850.0693142904911
 31
0.0
  0
LINE
  5
18419
  8
1PHANTOM
 10
2559.765585833793
 20
-2008.569767749455
 30
0.0
 11
2519.7655858337921
 21
-2012.0693142904911
 31
0.0
  0
LINE
  5
1841B
  8
01
 10
2559.8527415765402
 20
-2009.565962447545
 30
0.0
 11
2519.7655858337921
 21
-2013.0731341280341
 31
0.0
  0
ARC
  5
1841D
  8
01
 10
2559.765585833793
 20
-2008.5697677494529
 30
0.0
 40
1.0
 50
275.00000000000063
 51
0.0
  0
LINE
  5
1841E
  8
01
 10
2562.7655858337921
 20
-1996.969314290491
 30
0.0
 11
2562.7655858337921
 21
-1991.6693142904919
 31
0.0
  0
LINE
  5
18421
  8
01
  6
BYBLOCK
 10
2560.7655858337921
 20
-1991.6693142904919
 30
0.0
 11
2562.7655858337921
 21
-1991.6693142904919
 31
0.0
  0
LINE
  5
18424
  8
01
  6
BYBLOCK
 10
2560.7655858337921
 20
-1996.969314290491
 30
0.0
 11
2562.7655858337921
 21
-1996.969314290491
 31
0.0
  0
LINE
  5
18425
  8
01
  6
BYBLOCK
 10
2559.765585833793
 20
-1846.069314290492
 30
0.0
 11
2520.7655858337921
 21
-1846.0693142904911
 31
0.0
  0
LINE
  5
18426
  8
01
  6
BYBLOCK
 10
2559.765585833793
 20
-1845.069314290492
 30
0.0
 11
2520.7655858337921
 21
-1845.0693142904911
 31
0.0
  0
LINE
  5
18427
  8
1PHANTOM
 10
2559.765585833793
 20
-2008.569767749455
 30
0.0
 11
2559.765585833793
 21
-1846.069314290492
 31
0.0
  0
LINE
  5
18428
  8
01
 10
2562.7655858337921
 20
-1864.969314290491
 30
0.0
 11
2562.7655858337921
 21
-1859.6693142904919
 31
0.0
  0
LINE
  5
1842A
  8
01
 10
2560.7655858337921
 20
-2008.5697677494529
 30
0.0
 11
2560.7655858337921
 21
-1846.069314290492
 31
0.0
  0
ARC
  5
1842B
  8
01
 10
2559.765585833793
 20
-1846.069314290492
 30
0.0
 40
1.0
 50
0.0
 51
90.0
  0
LINE
  5
1842C
  8
1PHANTOM
 10
2524.858642521122
 20
-2011.6237295676549
 30
0.0
 11
2524.9457982638692
 21
-2012.6199242657469
 31
0.0
  0
LINE
  5
1842F
  8
01
  6
BYBLOCK
 10
2560.7655858337921
 20
-1859.6693142904919
 30
0.0
 11
2562.7655858337921
 21
-1859.6693142904919
 31
0.0
  0
LINE
  5
18432
  8
01
  6
BYBLOCK
 10
2560.7655858337921
 20
-1864.969314290491
 30
0.0
 11
2562.7655858337921
 21
-1864.969314290491
 31
0.0
  0
LINE
  5
18433
  8
01
 10
2461.7655858337921
 20
-1762.2221679559859
 30
0.0
 11
2353.7655858337921
 21
-1762.222167955985
 31
0.0
  0
ARC
  5
18434
  8
01
 10
2461.7655858337921
 20
-1763.2221679559859
 30
0.0
 40
1.0
 50
0.0
 51
90.0
  0
LINE
  5
18435
  8
01
 10
2462.7655858337921
 20
-1803.2221679559859
 30
0.0
 11
2458.765585833793
 21
-1803.2221679559859
 31
0.0
  0
LINE
  5
18436
  8
01
 10
2356.7655858337921
 20
-1803.2221679559859
 30
0.0
 11
2352.7655858337912
 21
-1803.2221679559859
 31
0.0
  0
LINE
  5
18437
  8
01
 10
2462.7655858337921
 20
-1802.2221679559871
 30
0.0
 11
2352.7655858337912
 21
-1802.222167955985
 31
0.0
  0
LINE
  5
18438
  8
01
 10
2352.7655858337912
 20
-1803.2221679559859
 30
0.0
 11
2352.7655858337912
 21
-1763.222167955985
 31
0.0
  0
LINE
  5
18439
  8
01
 10
2353.7655858337921
 20
-1803.2221679559859
 30
0.0
 11
2353.7655858337921
 21
-1763.222167955985
 31
0.0
  0
ARC
  5
1843A
  8
01
 10
2353.7655858337921
 20
-1763.222167955985
 30
0.0
 40
1.0
 50
90.0
 51
180.0
  0
LINE
  5
1843B
  8
01
 10
2462.7655858337921
 20
-1803.2221679559859
 30
0.0
 11
2462.7655858337921
 21
-1763.2221679559859
 31
0.0
  0
LINE
  5
1843C
  8
01
 10
2461.7655858337921
 20
-1803.2221679559859
 30
0.0
 11
2461.7655858337921
 21
-1763.2221679559859
 31
0.0
  0
LINE
  5
1843D
  8
01
 10
2356.7655858337921
 20
-1803.2221679559859
 30
0.0
 11
2357.765585833793
 21
-1802.222167955985
 31
0.0
  0
LINE
  5
1843E
  8
01
 10
2458.7655858337921
 20
-1803.2221679559859
 30
0.0
 11
2457.7655858337921
 21
-1802.2221679559859
 31
0.0
  0
LINE
  5
1843F
  8
01
 10
2410.4155858337922
 20
-1760.222167955985
 30
0.0
 11
2405.115585833792
 21
-1760.222167955985
 31
0.0
  0
LINE
  5
18441
  8
01
  6
BYBLOCK
 10
2405.115585833792
 20
-1762.2221679559859
 30
0.0
 11
2405.115585833792
 21
-1760.222167955985
 31
0.0
  0
LINE
  5
18442
  8
01
  6
BYBLOCK
 10
2410.4155858337922
 20
-1762.222167955985
 30
0.0
 11
2410.4155858337922
 21
-1760.222167955985
 31
0.0
  0
LINE
  5
18443
  8
01
 10
2519.7655858337921
 20
-2010.0731341280341
 30
0.0
 11
2519.7655858337921
 21
-2013.073134128035
 31
0.0
  0
LINE
  5
18444
  8
01
 10
2520.7655858337921
 20
-1845.0693142904911
 30
0.0
 11
2520.7655858337921
 21
-1853.819314290489
 31
0.0
  0
LINE
  5
18445
  8
01
 10
2524.7655858337921
 20
-1862.81931429049
 30
0.0
 11
2524.7655858337921
 21
-2005.0731341280341
 31
0.0
  0
LINE
  5
18446
  8
01
  6
BYBLOCK
 10
2519.7655858337921
 20
-2010.073134128035
 30
0.0
 11
2524.7655858337921
 21
-2005.0731341280341
 31
0.0
  0
LINE
  5
18447
  8
01
  6
BYBLOCK
 10
2519.7655858337912
 20
-1857.819314290487
 30
0.0
 11
2524.7655858337921
 21
-1862.81931429049
 31
0.0
  0
LINE
  5
18448
  8
01
  6
BYBLOCK
 10
2467.7655858337921
 20
-1803.2221679559859
 30
0.0
 11
2347.7655858337921
 21
-1803.2221679559871
 31
0.0
  0
LINE
  5
18449
  8
01
  6
BYBLOCK
 10
2427.2655858337921
 20
-1802.2221679559871
 30
0.0
 11
2388.2655858337921
 21
-1802.2221679559891
 31
0.0
  0
LINE
  5
1844A
  8
01
  6
BYBLOCK
 10
2467.7655858337921
 20
-1805.2221679559871
 30
0.0
 11
2347.7655858337921
 21
-1805.2221679559871
 31
0.0
  0
LINE
  5
1844B
  8
01
  6
BYBLOCK
 10
2467.7655858337921
 20
-1803.2221679559871
 30
0.0
 11
2467.7655858337921
 21
-1805.2221679559871
 31
0.0
  0
LINE
  5
1844C
  8
01
  6
BYBLOCK
 10
2347.7655858337921
 20
-1803.2221679559871
 30
0.0
 11
2347.7655858337921
 21
-1805.2221679559871
 31
0.0
  0
LINE
  5
1844D
  8
01
 10
2377.7655858337921
 20
-1802.2221679559859
 30
0.0
 11
2377.7655858337921
 21
-1803.2221679559871
 31
0.0
  0
LINE
  5
1844E
  8
01
 10
2437.7655858337921
 20
-1802.2221679559859
 30
0.0
 11
2437.7655858337921
 21
-1803.2221679559859
 31
0.0
  0
LINE
  5
1844F
  8
01
  6
BYBLOCK
 10
2427.2655858337921
 20
-1802.2221679559859
 30
0.0
 11
2427.2655858337921
 21
-1803.2221679559859
 31
0.0
  0
LINE
  5
18450
  8
01
  6
BYBLOCK
 10
2388.2655858337912
 20
-1802.2221679559859
 30
0.0
 11
2388.2655858337921
 21
-1803.2221679559871
 31
0.0
  0
LINE
  5
18453
  8
1PHANTOM
 10
2558.7655858337921
 20
-1865.81931429049
 30
0.0
 11
2558.7655858337921
 21
-1864.31931429049
 31
0.0
  0
LINE
  5
18455
  8
1PHANTOM
 10
2558.7655858337921
 20
-1865.81931429049
 30
0.0
 11
2558.1655858337908
 21
-1865.81931429049
 31
0.0
  0
ARC
  5
18457
  8
1PHANTOM
 10
2558.1655858337908
 20
-1863.8193142904911
 30
0.0
 40
2.0
 50
180.0
 51
270.0
  0
LINE
  5
18459
  8
1PHANTOM
 10
2556.1655858337922
 20
-1863.8193142904911
 30
0.0
 11
2556.1655858337922
 21
-1860.81931429049
 31
0.0
  0
LINE
  5
1845A
  8
1PHANTOM
 10
2558.7655858337921
 20
-1860.3193142904911
 30
0.0
 11
2558.7655858337921
 21
-1858.81931429049
 31
0.0
  0
ARC
  5
1845B
  8
1PHANTOM
 10
2558.1655858337908
 20
-1860.81931429049
 30
0.0
 40
2.0
 50
90.0
 51
180.0
  0
LINE
  5
1845C
  8
1PHANTOM
 10
2558.7655858337921
 20
-1858.81931429049
 30
0.0
 11
2558.1655858337908
 21
-1858.81931429049
 31
0.0
  0
LINE
  5
18463
  8
1PHANTOM
 10
2558.7655858337912
 20
-1997.8193142904911
 30
0.0
 11
2558.7655858337912
 21
-1996.31931429049
 31
0.0
  0
LINE
  5
18465
  8
1PHANTOM
 10
2558.7655858337912
 20
-1997.8193142904911
 30
0.0
 11
2558.1655858337908
 21
-1997.8193142904911
 31
0.0
  0
ARC
  5
18467
  8
1PHANTOM
 10
2558.1655858337908
 20
-1995.8193142904911
 30
0.0
 40
2.0
 50
180.0
 51
270.0
  0
LINE
  5
18469
  8
1PHANTOM
 10
2556.1655858337899
 20
-1995.8193142904911
 30
0.0
 11
2556.1655858337899
 21
-1992.81931429049
 31
0.0
  0
LINE
  5
1846A
  8
1PHANTOM
 10
2558.7655858337912
 20
-1992.31931429049
 30
0.0
 11
2558.7655858337912
 21
-1990.81931429049
 31
0.0
  0
ARC
  5
1846B
  8
1PHANTOM
 10
2558.1655858337908
 20
-1992.81931429049
 30
0.0
 40
2.0
 50
90.0
 51
180.0
  0
LINE
  5
1846C
  8
1PHANTOM
 10
2558.7655858337912
 20
-1990.81931429049
 30
0.0
 11
2558.1655858337908
 21
-1990.81931429049
 31
0.0
  0
LINE
  5
18471
  8
01
  6
BYBLOCK
 10
2520.7655858337912
 20
-1864.5693142904911
 30
0.0
 11
2520.7655858337912
 21
-1858.8193142904879
 31
0.0
  0
LINE
  5
18472
  8
01
  6
BYBLOCK
 10
2520.7655858337912
 20
-1864.5693142904911
 30
0.0
 11
2519.7655858337912
 21
-1864.5693142904911
 31
0.0
  0
LINE
  5
18473
  8
1PHANTOM
 10
2529.7655858337912
 20
-2008.5693142904911
 30
0.0
 11
2529.7655858337912
 21
-2007.5693142904911
 31
0.0
  0
LINE
  5
18474
  8
01
  6
BYBLOCK
 10
2520.7655858337912
 20
-2007.5693142904911
 30
0.0
 11
2520.7655858337912
 21
-1993.5693142904911
 31
0.0
  0
LINE
  5
18475
  8
1PHANTOM
 10
2525.0155858337912
 20
-2008.5693142904911
 30
0.0
 11
2525.0155858337912
 21
-2007.5693142904911
 31
0.0
  0
LINE
  5
18476
  8
01
 10
2519.7655858337912
 20
-2008.5693142904911
 30
0.0
 11
2521.2694056713349
 21
-2008.5693142904911
 31
0.0
  0
LINE
  5
18477
  8
1PHANTOM
 10
2524.7655858337921
 20
-2008.5693142904911
 30
0.0
 11
2529.7655858337912
 21
-2008.5693142904911
 31
0.0
  0
LINE
  5
18478
  8
1PHANTOM
 10
2519.7655858337912
 20
-2006.5693142904911
 30
0.0
 11
2520.7655858337912
 21
-2006.5693142904911
 31
0.0
  0
LINE
  5
18479
  8
01
 10
2520.7655858337912
 20
-2007.5693142904911
 30
0.0
 11
2522.2694056713349
 21
-2007.5693142904911
 31
0.0
  0
LINE
  5
1847A
  8
1PHANTOM
 10
2524.7655858337921
 20
-2007.5693142904911
 30
0.0
 11
2529.7655858337912
 21
-2007.5693142904911
 31
0.0
  0
LINE
  5
1847B
  8
01
 10
2519.7655858337912
 20
-1993.569314290492
 30
0.0
 11
2520.7655858337912
 21
-1993.5693142904911
 31
0.0
  0
LINE
  5
1847C
  8
01
 10
2519.7655858337912
 20
-2000.8358355368
 30
0.0
 11
2519.7655858337912
 21
-1850.6552712694329
 31
0.0
  0
LINE
  5
1847E
  8
01
  6
BYBLOCK
 10
2519.7655858337912
 20
-2014.5693142904911
 30
0.0
 11
2519.7655858337912
 21
-1839.0693142904911
 31
0.0
  0
LINE
  5
1847F
  8
1PHANTOM
 10
2529.7655858337912
 20
-1853.0693142904911
 30
0.0
 11
2529.7655858337912
 21
-1852.0693142904911
 31
0.0
  0
LINE
  5
18480
  8
01
  6
BYBLOCK
 10
2517.7655858337912
 20
-2014.5693142904911
 30
0.0
 11
2517.7655858337912
 21
-1839.0693142904911
 31
0.0
  0
LINE
  5
18481
  8
01
  6
BYBLOCK
 10
2519.7655858337912
 20
-1839.0693142904911
 30
0.0
 11
2517.7655858337912
 21
-1839.06931429049
 31
0.0
  0
LINE
  5
18482
  8
01
  6
BYBLOCK
 10
2519.7655858337912
 20
-2014.5693142904911
 30
0.0
 11
2517.7655858337912
 21
-2014.5693142904911
 31
0.0
  0
LINE
  5
18483
  8
1PHANTOM
 10
2529.7655858337912
 20
-1853.0693142904911
 30
0.0
 11
2522.2655858337912
 21
-1853.0693142904911
 31
0.0
  0
LINE
  5
18484
  8
1PHANTOM
 10
2521.2655858337912
 20
-1853.0693142904911
 30
0.0
 11
2520.7655858337912
 21
-1853.0693142904911
 31
0.0
  0
LINE
  5
18485
  8
1PHANTOM
 10
2529.7655858337912
 20
-1852.0693142904911
 30
0.0
 11
2522.2655858337921
 21
-1852.0693142904911
 31
0.0
  0
LINE
  5
18486
  8
1PHANTOM
 10
2521.2655858337912
 20
-1852.0693142904911
 30
0.0
 11
2520.7655858337921
 21
-1852.0693142904911
 31
0.0
  0
LINE
  5
18487
  8
1PHANTOM
 10
2520.7655858337912
 20
-1857.0693142904911
 30
0.0
 11
2519.7655858337912
 21
-1857.0693142904911
 31
0.0
  0
LINE
  5
18488
  8
01
  6
BYBLOCK
 10
2466.7655858337912
 20
-2014.56931429049
 30
0.0
 11
2348.7655858337912
 21
-2014.5693142904911
 31
0.0
  0
ARC
  5
18489
  8
01
  6
BYBLOCK
 10
2466.7655858337912
 20
-2013.56931429049
 30
0.0
 40
1.0
 50
270.0
 51
0.0
  0
LINE
  5
1848A
  8
01
  6
BYBLOCK
 10
2466.7655858337912
 20
-1839.06931429049
 30
0.0
 11
2348.7655858337921
 21
-1839.06931429049
 31
0.0
  0
ARC
  5
1848B
  8
01
  6
BYBLOCK
 10
2348.7655858337921
 20
-1840.0693142904911
 30
0.0
 40
1.0
 50
90.0
 51
180.0
  0
LINE
  5
1848C
  8
01
  6
BYBLOCK
 10
2467.7655858337912
 20
-1840.06931429049
 30
0.0
 11
2467.7655858337912
 21
-2013.56931429049
 31
0.0
  0
ARC
  5
1848D
  8
01
  6
BYBLOCK
 10
2466.7655858337912
 20
-1840.06931429049
 30
0.0
 40
1.0
 50
0.0
 51
90.0
  0
LINE
  5
1848E
  8
01
  6
BYBLOCK
 10
2347.7655858337921
 20
-1840.0693142904911
 30
0.0
 11
2347.7655858337912
 21
-2013.56931429049
 31
0.0
  0
ARC
  5
1848F
  8
01
  6
BYBLOCK
 10
2348.7655858337912
 20
-2013.56931429049
 30
0.0
 40
1.0
 50
180.0
 51
270.0
  0
LINE
  5
18635
  8
01
 10
2520.7655858337921
 20
-1853.819314290489
 30
0.0
 11
2519.7655858337921
 21
-1854.819314290489
 31
0.0
  0
LINE
  5
187F6
  8
1PHANTOM
 10
2520.7655858337921
 20
-1853.819314290489
 30
0.0
 11
2520.7655858337912
 21
-1858.819314290487
 31
0.0
  0
LINE
  5
187FC
  8
01
 10
2520.7655858337921
 20
-1852.0693142904911
 30
0.0
 11
2519.7655858337912
 21
-1852.0693142904911
 31
0.0
  0
LINE
  5
187FE
  8
1PHANTOM
 10
2522.2694056713349
 20
-2007.5693142904911
 30
0.0
 11
2523.7655858337912
 21
-2007.5693142904911
 31
0.0
  0
LINE
  5
187FF
  8
1PHANTOM
 10
2521.2694056713349
 20
-2008.5693142904911
 30
0.0
 11
2523.7655858337912
 21
-2008.5693142904911
 31
0.0
  0
LINE
  5
18800
  8
1PHANTOM
 10
2524.7655858337921
 20
-2012.635690810404
 30
0.0
 11
2524.7655858337912
 21
-2005.0731341280341
 31
0.0
  0
LINE
  5
18801
  8
1PHANTOM
 10
2523.7655858337912
 20
-2012.72317947393
 30
0.0
 11
2523.7655858337921
 21
-2006.073134128035
 31
0.0
  0
LINE
  5
18802
  8
01
 10
2523.7655858337921
 20
-2006.073134128035
 30
0.0
 11
2523.7655858337921
 21
-2001.8193142904911
 31
0.0
  0
LINE
  5
18803
  8
01
 10
2524.7655858337921
 20
-2023.385983004227
 30
0.0
 11
2524.7655858337912
 21
-1814.771102592392
 31
0.0
  0
LINE
  5
18804
  8
01
 10
2564.7655858337921
 20
-2023.385983004227
 30
0.0
 11
2564.7655858337912
 21
-1814.771102592392
 31
0.0
  0
LINE
  5
188C6
  8
01
  6
BYBLOCK
 10
2356.7655858337912
 20
-1798.2221679559871
 30
0.0
 11
2353.7655858337921
 21
-1798.2221679559871
 31
0.0
  0
LINE
  5
188C7
  8
01
  6
BYBLOCK
 10
2356.7655858337921
 20
-1799.2221679559871
 30
0.0
 11
2353.7655858337921
 21
-1799.2221679559871
 31
0.0
  0
LINE
  5
188C8
  8
01
 10
2356.7655858337921
 20
-1799.2221679559871
 30
0.0
 11
2356.7655858337912
 21
-1798.2221679559871
 31
0.0
  0
LINE
  5
188D0
  8
01
 10
2458.765585833793
 20
-1799.2221679559871
 30
0.0
 11
2458.7655858337939
 21
-1798.2221679559871
 31
0.0
  0
LINE
  5
188D1
  8
01
  6
BYBLOCK
 10
2458.7655858337939
 20
-1798.2221679559871
 30
0.0
 11
2461.765585833793
 21
-1798.2221679559871
 31
0.0
  0
LINE
  5
188D2
  8
01
  6
BYBLOCK
 10
2458.765585833793
 20
-1799.2221679559871
 30
0.0
 11
2461.765585833793
 21
-1799.2221679559871
 31
0.0
  0
LINE
  5
18958
  8
1DIM
 10
2511.4682031887201
 20
-1774.227522720244
 30
0.0
 11
2616.468203188721
 21
-1774.227522720244
 31
0.0
  0
LINE
  5
18959
  8
1DIM
 10
2511.4682031887201
 20
-1767.227522720244
 30
0.0
 11
2616.468203188721
 21
-1767.227522720244
 31
0.0
  0
TEXT
  5
1895A
  8
1TEXT
 10
2557.06820318872
 20
-1772.7275227202449
 30
0.0
 40
4.0
  1
コード
 72
     1
 11
2563.8682031887201
 21
-1772.7275227202449
 31
0.0
  0
TEXT
  5
1895B
  8
1TEXT
 10
2520.7082031887198
 20
-1772.7275227202449
 30
0.0
 40
4.0
  1
表面処理
 41
0.9
 72
     1
 11
2528.8682031887201
 21
-1772.7275227202449
 31
0.0
  0
LINE
  5
1895C
  8
1DIM
 10
2511.4682031887201
 20
-1781.2275227202449
 30
0.0
 11
2581.468203188721
 21
-1781.2275227202449
 31
0.0
  0
LINE
  5
1895D
  8
1DIM
 10
2511.4682031887201
 20
-1767.2275227202449
 30
0.0
 11
2511.4682031887191
 21
-1802.227522720244
 31
0.0
  0
LINE
  5
1895E
  8
1DIM
 10
2546.4682031887201
 20
-1767.227522720244
 30
0.0
 11
2546.4682031887178
 21
-1802.227522720244
 31
0.0
  0
LINE
  5
1895F
  8
1DIM
 10
2581.468203188721
 20
-1767.227522720244
 30
0.0
 11
2581.4682031887191
 21
-1802.2275227202449
 31
0.0
  0
TEXT
  5
18960
  8
1TEXT
 10
2510.266913705661
 20
-1762.936393494153
 30
0.0
 40
8.0
  1
GP-092-X-39
  0
LINE
  5
18961
  8
1DIM
 10
2511.4682031887201
 20
-1788.2275227202449
 30
0.0
 11
2581.4682031887201
 21
-1788.2275227202449
 31
0.0
  0
TEXT
  5
18962
  8
1TEXT
 10
2512.06820318872
 20
-1779.9418797038929
 30
0.0
 40
4.0
  1
ブラストブラック
 41
0.9
 72
     1
 11
2528.8682031887201
 21
-1779.9418797038929
 31
0.0
  0
TEXT
  5
18963
  8
1TEXT
 10
2546.8682031887201
 20
-1779.9418797038929
 30
0.0
 40
4.0
  1
GP092XK39
 72
     1
 11
2563.8682031887201
 21
-1779.9418797038929
 31
0.0
  0
TEXT
  5
18965
  8
1TEXT
 10
2546.8682031887211
 20
-1786.9418797038941
 30
0.0
 40
4.0
  1
GP092XS39
 72
     1
 11
2563.8682031887211
 21
-1786.9418797038941
 31
0.0
  0
TEXT
  5
18966
  8
1TEXT
 10
2589.801536522054
 20
-1772.727522720244
 30
0.0
 40
4.0
  1
対応子機
 72
     1
 11
2598.8682031887211
 21
-1772.727522720244
 31
0.0
  0
TEXT
  5
18967
  8
1TEXT
 10
2585.534869855388
 20
-1786.9418797038941
 30
0.0
 40
4.0
  1
VL-V572L
 41
0.8
 72
     1
 11
2598.8682031887211
 21
-1786.9418797038941
 31
0.0
  0
TEXT
  5
18968
  8
1TEXT
 10
2589.8015365220549
 20
-1779.9418797038941
 30
0.0
 40
4.0
  1
アイホン
 72
     1
 11
2598.868203188722
 21
-1779.9418797038941
 31
0.0
  0
LINE
  5
1896A
  8
1DIM
 10
2616.468203188721
 20
-1767.227522720244
 30
0.0
 11
2616.4682031887201
 21
-1802.2275227202449
 31
0.0
  0
LINE
  5
1896D
  8
1DIM
 10
2511.4682031887201
 20
-1795.227522720244
 30
0.0
 11
2581.4682031887201
 21
-1795.227522720244
 31
0.0
  0
TEXT
  5
1896E
  8
1TEXT
 10
2512.0548698553871
 20
-1793.9418797038941
 30
0.0
 40
4.0
  1
ブラストダークアンバー
 41
0.65
 72
     1
 11
2528.8682031887211
 21
-1793.9418797038941
 31
0.0
  0
TEXT
  5
1896F
  8
1TEXT
 10
2546.8682031887211
 20
-1793.9418797038941
 30
0.0
 40
4.0
  1
GP0924Q39
 72
     1
 11
2563.8682031887211
 21
-1793.9418797038941
 31
0.0
  0
TEXT
  5
18970
  8
1TEXT
 10
2512.06820318872
 20
-1786.9418797038929
 30
0.0
 40
4.0
  1
ブラストシルバー
 41
0.9
 72
     1
 11
2528.8682031887201
 21
-1786.9418797038929
 31
0.0
  0
LINE
  5
18C59
  8
1PHANTOM
 10
2467.7655858337912
 20
-2012.6356908104051
 30
0.0
 11
2347.7655858337912
 21
-2012.6356908104051
 31
0.0
  0
LINE
  5
18C5A
  8
1PHANTOM
 10
2467.7655858337912
 20
-1845.069314290492
 30
0.0
 11
2347.7655858337921
 21
-1845.0693142904911
 31
0.0
  0
LINE
  5
18C5B
  8
1PHANTOM
 10
2352.7655858337921
 20
-1845.0693142904911
 30
0.0
 11
2352.7655858337921
 21
-2012.635690810404
 31
0.0
  0
LINE
  5
18C5C
  8
1PHANTOM
 10
2462.7655858337921
 20
-1845.0693142904911
 30
0.0
 11
2462.7655858337921
 21
-2012.635690810404
 31
0.0
  0
LINE
  5
18E6C
  8
1DIM
 10
2581.4682031887191
 20
-1802.2275227202449
 30
0.0
 11
2616.4682031887201
 21
-1802.2275227202449
 31
0.0
  0
LINE
  5
18E6D
  8
1DIM
 10
2511.4682031887191
 20
-1802.227522720244
 30
0.0
 11
2581.4682031887201
 21
-1802.227522720244
 31
0.0
  0
TEXT
  5
18E6E
  8
1TEXT
 10
2518.54820318872
 20
-1800.9418797038941
 30
0.0
 40
4.0
  1
ヘアライン
 41
0.9
 72
     1
 11
2528.8682031887201
 21
-1800.9418797038941
 31
0.0
  0
TEXT
  5
18E6F
  8
1TEXT
 10
2546.8682031887201
 20
-1800.9418797038941
 30
0.0
 40
4.0
  1
GP092XT39
 72
     1
 11
2563.8682031887201
 21
-1800.9418797038941
 31
0.0
  0
CIRCLE
  5
18FB5
  8
01
 10
2554.7655858337912
 20
-1875.0693142904911
 30
0.0
 40
2.0
  0
CIRCLE
  5
18FB6
  8
1DIM
 10
2554.7655858337912
 20
-1875.0693142904911
 30
0.0
 40
1.649999999999636
  0
CIRCLE
  5
18FB7
  8
01
 10
2554.7655858337912
 20
-1985.0693142904911
 30
0.0
 40
2.0
  0
CIRCLE
  5
18FB8
  8
1DIM
 10
2554.7655858337912
 20
-1985.0693142904911
 30
0.0
 40
1.649999999999636
  0
LINE
  5
19B3A
  8
1PHANTOM
 10
2370.2655858337912
 20
-1945.0712242092641
 30
0.0
 11
2370.2655858337912
 21
-1943.0712242092629
 31
0.0
  0
LINE
  5
19B3B
  8
1PHANTOM
 10
2370.2655858337912
 20
-1915.071224209262
 30
0.0
 11
2370.2655858337912
 21
-1913.0712242092629
 31
0.0
  0
LINE
  5
19B3C
  8
1PHANTOM
 10
2372.2655858337898
 20
-1945.0712242092629
 30
0.0
 11
2372.2655858337898
 21
-1943.0712242092629
 31
0.0
  0
LINE
  5
19B3D
  8
1PHANTOM
 10
2372.2655858337912
 20
-1915.071224209262
 30
0.0
 11
2372.2655858337898
 21
-1913.0712242092629
 31
0.0
  0
LINE
  5
19B3E
  8
1PHANTOM
 10
2358.2655858337912
 20
-1945.0712242092629
 30
0.0
 11
2358.2655858337912
 21
-1913.071224209262
 31
0.0
  0
LINE
  5
19B3F
  8
1PHANTOM
 10
2360.2655858337898
 20
-1943.0712242092629
 30
0.0
 11
2360.2655858337912
 21
-1915.071224209262
 31
0.0
  0
LINE
  5
19B40
  8
1PHANTOM
 10
2384.2655858337898
 20
-1945.0712242092629
 30
0.0
 11
2384.2655858337912
 21
-1913.071224209262
 31
0.0
  0
LINE
  5
19B41
  8
1PHANTOM
 10
2382.2655858337898
 20
-1943.0712242092629
 30
0.0
 11
2382.2655858337889
 21
-1915.071224209262
 31
0.0
  0
LINE
  5
19B42
  8
1PHANTOM
 10
2358.2655858337912
 20
-1945.0712242092629
 30
0.0
 11
2370.2655858337912
 21
-1945.0712242092641
 31
0.0
  0
LINE
  5
19B43
  8
1PHANTOM
 10
2372.2655858337898
 20
-1945.0712242092629
 30
0.0
 11
2384.2655858337898
 21
-1945.0712242092629
 31
0.0
  0
LINE
  5
19B44
  8
1PHANTOM
 10
2360.2655858337898
 20
-1943.0712242092629
 30
0.0
 11
2370.2655858337912
 21
-1943.0712242092629
 31
0.0
  0
LINE
  5
19B45
  8
1PHANTOM
 10
2372.2655858337898
 20
-1943.0712242092629
 30
0.0
 11
2382.2655858337898
 21
-1943.0712242092629
 31
0.0
  0
LINE
  5
19B46
  8
1PHANTOM
 10
2358.2655858337912
 20
-1913.071224209262
 30
0.0
 11
2370.2655858337912
 21
-1913.071224209262
 31
0.0
  0
LINE
  5
19B47
  8
1PHANTOM
 10
2372.2655858337898
 20
-1913.071224209262
 30
0.0
 11
2384.2655858337898
 21
-1913.071224209262
 31
0.0
  0
LINE
  5
19B48
  8
1PHANTOM
 10
2360.2655858337912
 20
-1915.071224209262
 30
0.0
 11
2370.2655858337898
 21
-1915.071224209262
 31
0.0
  0
LINE
  5
19B49
  8
1PHANTOM
 10
2372.2655858337898
 20
-1915.071224209262
 30
0.0
 11
2382.2655858337889
 21
-1915.071224209262
 31
0.0
  0
LINE
  5
19B4A
  8
1CENTER
 10
2355.769746785124
 20
-1929.071224209262
 30
0.0
 11
2386.761424882457
 21
-1929.071224209262
 31
0.0
  0
LINE
  5
19B4B
  8
1CENTER
 10
2371.2655858337898
 20
-1909.67330468503
 30
0.0
 11
2371.2655858337898
 21
-1948.469143733495
 31
0.0
  0
LINE
  5
19B4C
  8
1CENTER
 10
2428.7697467851249
 20
-1929.071224209262
 30
0.0
 11
2459.761424882458
 21
-1929.071224209262
 31
0.0
  0
LINE
  5
19B4D
  8
1CENTER
 10
2444.2655858337912
 20
-1909.67330468503
 30
0.0
 11
2444.2655858337912
 21
-1948.469143733495
 31
0.0
  0
LINE
  5
19B4E
  8
1PHANTOM
 10
2443.2655858337921
 20
-1945.0712242092641
 30
0.0
 11
2443.2655858337921
 21
-1943.0712242092629
 31
0.0
  0
LINE
  5
19B4F
  8
1PHANTOM
 10
2443.2655858337921
 20
-1915.071224209262
 30
0.0
 11
2443.2655858337921
 21
-1913.0712242092629
 31
0.0
  0
LINE
  5
19B50
  8
1PHANTOM
 10
2445.2655858337912
 20
-1945.0712242092629
 30
0.0
 11
2445.2655858337912
 21
-1943.0712242092629
 31
0.0
  0
LINE
  5
19B51
  8
1PHANTOM
 10
2445.2655858337921
 20
-1915.071224209262
 30
0.0
 11
2445.2655858337912
 21
-1913.0712242092629
 31
0.0
  0
LINE
  5
19B52
  8
1PHANTOM
 10
2431.2655858337912
 20
-1945.0712242092629
 30
0.0
 11
2431.265585833793
 21
-1913.071224209262
 31
0.0
  0
LINE
  5
19B53
  8
1PHANTOM
 10
2433.2655858337912
 20
-1943.0712242092629
 30
0.0
 11
2433.265585833793
 21
-1915.071224209262
 31
0.0
  0
LINE
  5
19B54
  8
1PHANTOM
 10
2457.2655858337921
 20
-1945.0712242092629
 30
0.0
 11
2457.2655858337921
 21
-1913.071224209262
 31
0.0
  0
LINE
  5
19B55
  8
1PHANTOM
 10
2455.2655858337912
 20
-1943.0712242092629
 30
0.0
 11
2455.2655858337912
 21
-1915.071224209262
 31
0.0
  0
LINE
  5
19B56
  8
1PHANTOM
 10
2431.2655858337912
 20
-1945.0712242092629
 30
0.0
 11
2443.2655858337921
 21
-1945.0712242092641
 31
0.0
  0
LINE
  5
19B57
  8
1PHANTOM
 10
2445.2655858337912
 20
-1945.0712242092629
 30
0.0
 11
2457.2655858337921
 21
-1945.0712242092629
 31
0.0
  0
LINE
  5
19B58
  8
1PHANTOM
 10
2433.2655858337912
 20
-1943.0712242092629
 30
0.0
 11
2443.2655858337921
 21
-1943.0712242092629
 31
0.0
  0
LINE
  5
19B59
  8
1PHANTOM
 10
2445.2655858337912
 20
-1943.0712242092629
 30
0.0
 11
2455.2655858337912
 21
-1943.0712242092629
 31
0.0
  0
LINE
  5
19B5A
  8
1PHANTOM
 10
2431.265585833793
 20
-1913.071224209262
 30
0.0
 11
2443.2655858337921
 21
-1913.071224209262
 31
0.0
  0
LINE
  5
19B5B
  8
1PHANTOM
 10
2445.2655858337912
 20
-1913.071224209262
 30
0.0
 11
2457.2655858337921
 21
-1913.071224209262
 31
0.0
  0
LINE
  5
19B5C
  8
1PHANTOM
 10
2433.265585833793
 20
-1915.071224209262
 30
0.0
 11
2443.2655858337912
 21
-1915.071224209262
 31
0.0
  0
LINE
  5
19B5D
  8
1PHANTOM
 10
2445.2655858337912
 20
-1915.071224209262
 30
0.0
 11
2455.2655858337912
 21
-1915.071224209262
 31
0.0
  0
LINE
  5
19D3E
  8
1DIM
 10
2407.7655858337921
 20
-1926.81931429049
 30
0.0
 11
2337.4230423764502
 21
-1926.81931429049
 31
0.0
  0
LINE
  5
19D3F
  8
1DIM
 10
2338.4230423764502
 20
-1928.81931429049
 30
0.0
 11
2338.4230423764502
 21
-2057.2000962267648
 31
0.0
  0
LINE
  5
1A1DA
  8
01
 10
2438.7655858337912
 20
-1877.6193142904899
 30
0.0
 11
2438.7655858337912
 21
-1898.1193142904899
 31
0.0
  0
LINE
  5
1A1DB
  8
01
 10
2441.7655858337912
 20
-1877.6193142904899
 30
0.0
 11
2441.7655858337912
 21
-1898.1193142904899
 31
0.0
  0
LINE
  5
1A1DC
  8
01
 10
2384.7655858337912
 20
-1975.46931429049
 30
0.0
 11
2430.7655858337912
 21
-1975.46931429049
 31
0.0
  0
LINE
  5
1A1DD
  8
01
 10
2384.7655858337912
 20
-1922.4693142904889
 30
0.0
 11
2430.7655858337912
 21
-1922.4693142904889
 31
0.0
  0
LINE
  5
1A1DE
  8
01
 10
2430.7655858337912
 20
-1922.4693142904889
 30
0.0
 11
2430.7655858337912
 21
-1932.06931429049
 31
0.0
  0
LINE
  5
1A1DF
  8
01
 10
2430.7655858337912
 20
-1935.219314290488
 30
0.0
 11
2430.7655858337912
 21
-1955.219314290488
 31
0.0
  0
LINE
  5
1A1E0
  8
01
 10
2430.7655858337912
 20
-1958.31931429049
 30
0.0
 11
2430.7655858337912
 21
-1975.46931429049
 31
0.0
  0
LINE
  5
1A1E1
  8
01
 10
2384.7655858337912
 20
-1922.4693142904889
 30
0.0
 11
2384.7655858337912
 21
-1932.06931429049
 31
0.0
  0
LINE
  5
1A1E2
  8
01
 10
2384.7655858337912
 20
-1935.2193142904889
 30
0.0
 11
2384.7655858337912
 21
-1955.2193142904889
 31
0.0
  0
LINE
  5
1A1E3
  8
01
 10
2384.7655858337912
 20
-1958.319314290489
 30
0.0
 11
2384.7655858337912
 21
-1975.46931429049
 31
0.0
  0
CIRCLE
  5
1A1E4
  8
01
 10
2407.7655858337921
 20
-1894.319314290489
 30
0.0
 40
17.0
  0
LINE
  5
1A1E5
  8
01
 10
2438.7655858337912
 20
-1898.1193142904899
 30
0.0
 11
2441.7655858337912
 21
-1898.1193142904899
 31
0.0
  0
LINE
  5
1A1E6
  8
01
 10
2438.7655858337912
 20
-1877.6193142904899
 30
0.0
 11
2441.7655858337912
 21
-1877.6193142904899
 31
0.0
  0
LINE
  5
1A1EF
  8
01
 10
2386.7655858337912
 20
-1935.2193142904889
 30
0.0
 11
2386.7655858337912
 21
-1955.2193142904889
 31
0.0
  0
LINE
  5
1A1F0
  8
01
 10
2388.7655858337912
 20
-1935.2193142904889
 30
0.0
 11
2388.7655858337912
 21
-1955.2193142904889
 31
0.0
  0
LINE
  5
1A1F1
  8
01
 10
2390.7655858337912
 20
-1935.2193142904889
 30
0.0
 11
2390.7655858337912
 21
-1955.2193142904889
 31
0.0
  0
LINE
  5
1A1F2
  8
01
 10
2384.7655858337912
 20
-1955.2193142904889
 30
0.0
 11
2386.7655858337912
 21
-1955.219314290488
 31
0.0
  0
LINE
  5
1A1F3
  8
01
 10
2388.7655858337912
 20
-1955.219314290488
 30
0.0
 11
2390.7655858337912
 21
-1955.219314290488
 31
0.0
  0
LINE
  5
1A1F4
  8
01
 10
2392.7655858337912
 20
-1955.219314290488
 30
0.0
 11
2394.7655858337912
 21
-1955.219314290488
 31
0.0
  0
LINE
  5
1A1F5
  8
01
 10
2384.7655858337912
 20
-1935.2193142904889
 30
0.0
 11
2386.7655858337912
 21
-1935.219314290488
 31
0.0
  0
LINE
  5
1A1F6
  8
01
 10
2388.7655858337912
 20
-1935.219314290488
 30
0.0
 11
2390.7655858337912
 21
-1935.219314290488
 31
0.0
  0
LINE
  5
1A1F7
  8
01
 10
2392.7655858337912
 20
-1935.219314290488
 30
0.0
 11
2394.7655858337912
 21
-1935.219314290488
 31
0.0
  0
LINE
  5
1A1F8
  8
01
 10
2384.7655858337912
 20
-1932.069314290489
 30
0.0
 11
2430.7655858337912
 21
-1932.069314290489
 31
0.0
  0
LINE
  5
1A1F9
  8
01
 10
2392.7655858337912
 20
-1935.2193142904889
 30
0.0
 11
2392.7655858337912
 21
-1955.2193142904889
 31
0.0
  0
LINE
  5
1A1FA
  8
01
 10
2394.7655858337912
 20
-1935.2193142904889
 30
0.0
 11
2394.7655858337912
 21
-1955.2193142904889
 31
0.0
  0
LINE
  5
1A1FB
  8
01
 10
2396.7655858337912
 20
-1935.2193142904889
 30
0.0
 11
2396.7655858337912
 21
-1955.2193142904889
 31
0.0
  0
LINE
  5
1A1FC
  8
01
 10
2398.7655858337912
 20
-1935.2193142904889
 30
0.0
 11
2398.7655858337912
 21
-1955.2193142904889
 31
0.0
  0
LINE
  5
1A1FD
  8
01
 10
2396.7655858337912
 20
-1955.219314290488
 30
0.0
 11
2398.7655858337912
 21
-1955.219314290488
 31
0.0
  0
LINE
  5
1A1FE
  8
01
 10
2400.7655858337912
 20
-1955.219314290488
 30
0.0
 11
2402.7655858337912
 21
-1955.219314290488
 31
0.0
  0
LINE
  5
1A1FF
  8
01
 10
2396.7655858337912
 20
-1935.219314290488
 30
0.0
 11
2398.7655858337912
 21
-1935.219314290488
 31
0.0
  0
LINE
  5
1A200
  8
01
 10
2400.7655858337912
 20
-1935.219314290488
 30
0.0
 11
2402.7655858337912
 21
-1935.219314290488
 31
0.0
  0
LINE
  5
1A201
  8
01
 10
2400.7655858337912
 20
-1935.2193142904889
 30
0.0
 11
2400.7655858337912
 21
-1955.2193142904889
 31
0.0
  0
LINE
  5
1A202
  8
01
 10
2402.7655858337912
 20
-1935.2193142904889
 30
0.0
 11
2402.7655858337912
 21
-1955.2193142904889
 31
0.0
  0
LINE
  5
1A203
  8
01
 10
2404.7655858337912
 20
-1935.2193142904889
 30
0.0
 11
2404.7655858337912
 21
-1955.2193142904889
 31
0.0
  0
LINE
  5
1A204
  8
01
 10
2406.7655858337912
 20
-1935.2193142904889
 30
0.0
 11
2406.7655858337912
 21
-1955.2193142904889
 31
0.0
  0
LINE
  5
1A205
  8
01
 10
2404.7655858337912
 20
-1955.219314290488
 30
0.0
 11
2406.7655858337912
 21
-1955.219314290488
 31
0.0
  0
LINE
  5
1A206
  8
01
 10
2408.7655858337912
 20
-1955.219314290488
 30
0.0
 11
2410.7655858337921
 21
-1955.219314290488
 31
0.0
  0
LINE
  5
1A207
  8
01
 10
2404.7655858337912
 20
-1935.219314290488
 30
0.0
 11
2406.7655858337912
 21
-1935.219314290488
 31
0.0
  0
LINE
  5
1A208
  8
01
 10
2408.7655858337912
 20
-1935.219314290488
 30
0.0
 11
2410.7655858337921
 21
-1935.219314290488
 31
0.0
  0
LINE
  5
1A209
  8
01
 10
2408.7655858337912
 20
-1935.2193142904889
 30
0.0
 11
2408.7655858337912
 21
-1955.2193142904889
 31
0.0
  0
LINE
  5
1A20A
  8
01
 10
2410.7655858337921
 20
-1935.2193142904889
 30
0.0
 11
2410.7655858337921
 21
-1955.2193142904889
 31
0.0
  0
LINE
  5
1A20B
  8
01
 10
2412.7655858337912
 20
-1935.2193142904889
 30
0.0
 11
2412.7655858337912
 21
-1955.2193142904889
 31
0.0
  0
LINE
  5
1A20C
  8
01
 10
2414.7655858337912
 20
-1935.2193142904889
 30
0.0
 11
2414.7655858337912
 21
-1955.2193142904889
 31
0.0
  0
LINE
  5
1A20D
  8
01
 10
2412.7655858337912
 20
-1955.219314290488
 30
0.0
 11
2414.7655858337912
 21
-1955.219314290488
 31
0.0
  0
LINE
  5
1A20E
  8
01
 10
2416.7655858337912
 20
-1955.219314290488
 30
0.0
 11
2418.7655858337912
 21
-1955.219314290488
 31
0.0
  0
LINE
  5
1A20F
  8
01
 10
2412.7655858337912
 20
-1935.219314290488
 30
0.0
 11
2414.7655858337912
 21
-1935.219314290488
 31
0.0
  0
LINE
  5
1A210
  8
01
 10
2416.7655858337912
 20
-1935.219314290488
 30
0.0
 11
2418.7655858337912
 21
-1935.219314290488
 31
0.0
  0
LINE
  5
1A211
  8
01
 10
2416.7655858337912
 20
-1935.2193142904889
 30
0.0
 11
2416.7655858337912
 21
-1955.2193142904889
 31
0.0
  0
LINE
  5
1A212
  8
01
 10
2418.7655858337912
 20
-1935.2193142904889
 30
0.0
 11
2418.7655858337912
 21
-1955.2193142904889
 31
0.0
  0
LINE
  5
1A213
  8
01
 10
2420.7655858337912
 20
-1935.2193142904889
 30
0.0
 11
2420.7655858337912
 21
-1955.2193142904889
 31
0.0
  0
LINE
  5
1A214
  8
01
 10
2422.7655858337912
 20
-1935.2193142904889
 30
0.0
 11
2422.7655858337912
 21
-1955.2193142904889
 31
0.0
  0
LINE
  5
1A215
  8
01
 10
2420.7655858337912
 20
-1955.219314290488
 30
0.0
 11
2422.7655858337912
 21
-1955.219314290488
 31
0.0
  0
LINE
  5
1A216
  8
01
 10
2424.7655858337912
 20
-1955.219314290488
 30
0.0
 11
2426.7655858337921
 21
-1955.219314290488
 31
0.0
  0
LINE
  5
1A217
  8
01
 10
2420.7655858337912
 20
-1935.219314290488
 30
0.0
 11
2422.7655858337912
 21
-1935.219314290488
 31
0.0
  0
LINE
  5
1A218
  8
01
 10
2424.7655858337912
 20
-1935.219314290488
 30
0.0
 11
2426.7655858337921
 21
-1935.219314290488
 31
0.0
  0
LINE
  5
1A219
  8
01
 10
2424.7655858337912
 20
-1935.2193142904889
 30
0.0
 11
2424.7655858337912
 21
-1955.2193142904889
 31
0.0
  0
LINE
  5
1A21A
  8
01
 10
2426.7655858337921
 20
-1935.2193142904889
 30
0.0
 11
2426.7655858337921
 21
-1955.2193142904889
 31
0.0
  0
LINE
  5
1A21B
  8
01
 10
2428.7655858337912
 20
-1935.2193142904889
 30
0.0
 11
2428.7655858337912
 21
-1955.2193142904889
 31
0.0
  0
LINE
  5
1A21C
  8
01
 10
2428.7655858337912
 20
-1955.219314290488
 30
0.0
 11
2430.7655858337912
 21
-1955.219314290488
 31
0.0
  0
LINE
  5
1A21D
  8
01
 10
2428.7655858337912
 20
-1935.219314290488
 30
0.0
 11
2430.7655858337912
 21
-1935.219314290488
 31
0.0
  0
LINE
  5
1A21E
  8
01
 10
2384.7655858337912
 20
-1958.319314290489
 30
0.0
 11
2430.7655858337912
 21
-1958.319314290489
 31
0.0
  0
TEXT
  5
1A3E1
  8
1DIM
 10
2331.8897090431169
 20
-2013.426371925294
 30
0.0
 40
3.5
  1
地面からの推奨高さは
 50
90.0
  0
TEXT
  5
1A3E2
  8
1DIM
 10
2337.7230423764508
 20
-2008.9930385919611
 30
0.0
 40
3.5
  1
子機の推奨に従う
 50
90.0
  0
LINE
  5
1A3E3
  8
0
  6
BYBLOCK
 10
2337.88714399645
 20
-1928.81931429049
 30
0.0
 11
2338.4230423764502
 21
-1926.81931429049
 31
0.0
  0
LINE
  5
1A3E4
  8
0
  6
BYBLOCK
 10
2338.4230423764502
 20
-1926.81931429049
 30
0.0
 11
2338.9589407564499
 21
-1928.81931429049
 31
0.0
  0
LINE
  5
1A3E5
  8
0
  6
BYBLOCK
 10
2338.4230423764502
 20
-1926.81931429049
 30
0.0
 11
2338.4230423764502
 21
-1928.81931429049
 31
0.0
  0
LINE
  5
1A3E8
  8
1DIM
 10
2358.2655858337912
 20
-1945.0712242092629
 30
0.0
 11
2343.958696994473
 21
-1945.0712242092629
 31
0.0
  0
LINE
  5
1A3E9
  8
1DIM
 10
2358.2655858337912
 20
-1913.071224209262
 30
0.0
 11
2343.958696994473
 21
-1913.071224209262
 31
0.0
  0
LINE
  5
1A3EA
  8
1DIM
 10
2344.9586969944739
 20
-1943.0712242092629
 30
0.0
 11
2344.9586969944739
 21
-1915.071224209262
 31
0.0
  0
LINE
  5
1A3EE
  8
1DIM
 10
2384.2655858337912
 20
-1913.071224209262
 30
0.0
 11
2384.2655858337912
 21
-1905.4112848427051
 31
0.0
  0
LINE
  5
1A3EF
  8
1DIM
 10
2358.2655858337912
 20
-1913.071224209262
 30
0.0
 11
2358.2655858337912
 21
-1905.4112848427051
 31
0.0
  0
LINE
  5
1A3F0
  8
1DIM
 10
2382.2655858337912
 20
-1906.4112848427051
 30
0.0
 11
2360.2655858337921
 21
-1906.4112848427051
 31
0.0
  0
TEXT
  5
1A3F4
  8
1DIM
 10
2471.970133435892
 20
-1975.0000981876151
 30
0.0
 40
3.5
  1
配線穴
  0
SOLID
  5
1A3F5
  8
1DIM
 10
2444.992627820126
 20
-1930.983447584432
 30
0.0
 11
2444.34387485365
 21
-1929.062450265433
 31
0.0
 12
2445.5805862497209
 22
-1930.669203524008
 32
0.0
 13
2445.5805862497209
 23
-1930.669203524008
 33
0.0
  0
LINE
  5
1A3F7
  8
1DIM
 10
2459.761424882458
 20
-1929.071224209262
 30
0.0
 11
2477.0282465766318
 21
-1929.071224209262
 31
0.0
  0
LINE
  5
1A3F8
  8
1DIM
 10
2467.7655858337912
 20
-1845.069314290492
 30
0.0
 11
2477.0282465766318
 21
-1845.069314290492
 31
0.0
  0
LINE
  5
1A3F9
  8
1DIM
 10
2476.0282465766318
 20
-1927.071224209262
 30
0.0
 11
2476.0282465766318
 21
-1847.0693142904911
 31
0.0
  0
LINE
  5
1A3FD
  8
1DIM
 10
2371.2655858337898
 20
-1909.67330468503
 30
0.0
 11
2371.2655858337898
 21
-1830.486148834422
 31
0.0
  0
LINE
  5
1A3FE
  8
1DIM
 10
2444.2655858337912
 20
-1909.67330468503
 30
0.0
 11
2444.2655858337912
 21
-1830.486148834422
 31
0.0
  0
LINE
  5
1A3FF
  8
1DIM
 10
2373.2655858337898
 20
-1831.4861488344229
 30
0.0
 11
2442.2655858337912
 21
-1831.4861488344229
 31
0.0
  0
LINE
  5
1A403
  8
1DIM
 10
2352.7655858337912
 20
-1763.222167955985
 30
0.0
 11
2352.7655858337912
 21
-1755.565293368807
 31
0.0
  0
LINE
  5
1A404
  8
1DIM
 10
2462.7655858337921
 20
-1763.2221679559859
 30
0.0
 11
2462.7655858337921
 21
-1755.565293368807
 31
0.0
  0
LINE
  5
1A405
  8
1DIM
 10
2354.7655858337921
 20
-1756.565293368807
 30
0.0
 11
2460.7655858337921
 21
-1756.565293368807
 31
0.0
  0
LINE
  5
1A409
  8
1DIM
 10
2467.7655858337912
 20
-1845.069314290492
 30
0.0
 11
2486.7066141769819
 21
-1845.069314290492
 31
0.0
  0
LINE
  5
1A40A
  8
1DIM
 10
2466.7655858337912
 20
-1839.06931429049
 30
0.0
 11
2486.7066141769819
 21
-1839.06931429049
 31
0.0
  0
LINE
  5
1A40B
  8
1DIM
 10
2485.7066141769819
 20
-1843.0693142904911
 30
0.0
 11
2485.7066141769819
 21
-1841.06931429049
 31
0.0
  0
LINE
  5
1A40F
  8
1DIM
 10
2467.7655858337912
 20
-1845.069314290492
 30
0.0
 11
2486.7066141769819
 21
-1845.069314290492
 31
0.0
  0
LINE
  5
1A410
  8
1DIM
 10
2467.7655858337912
 20
-2012.6356908104051
 30
0.0
 11
2486.7066141769819
 21
-2012.6356908104051
 31
0.0
  0
LINE
  5
1A411
  8
1DIM
 10
2485.7066141769819
 20
-1847.0693142904911
 30
0.0
 11
2485.7066141769819
 21
-2010.6356908104051
 31
0.0
  0
LINE
  5
1A415
  8
1DIM
 10
2347.7655858337921
 20
-1845.0693142904911
 30
0.0
 11
2347.7655858337921
 21
-1811.080169053836
 31
0.0
  0
LINE
  5
1A416
  8
1DIM
 10
2467.7655858337912
 20
-1845.069314290492
 30
0.0
 11
2467.7655858337912
 21
-1811.080169053836
 31
0.0
  0
LINE
  5
1A417
  8
1DIM
 10
2349.7655858337921
 20
-1812.080169053836
 30
0.0
 11
2465.7655858337912
 21
-1812.080169053836
 31
0.0
  0
LINE
  5
1A41B
  8
1DIM
 10
2466.7655858337912
 20
-2014.56931429049
 30
0.0
 11
2498.7609416757641
 21
-2014.56931429049
 31
0.0
  0
LINE
  5
1A41C
  8
1DIM
 10
2466.7655858337912
 20
-1839.06931429049
 30
0.0
 11
2498.7609416757641
 21
-1839.06931429049
 31
0.0
  0
LINE
  5
1A41D
  8
1DIM
 10
2497.7609416757641
 20
-2012.5693142904911
 30
0.0
 11
2497.7609416757641
 21
-1841.06931429049
 31
0.0
  0
LINE
  5
1A421
  8
1DIM
 10
2347.7655858337921
 20
-1840.0693142904911
 30
0.0
 11
2347.7655858337921
 21
-1819.99627595377
 31
0.0
  0
LINE
  5
1A422
  8
1DIM
 10
2467.7655858337912
 20
-1840.0693142904911
 30
0.0
 11
2467.7655858337912
 21
-1819.99627595377
 31
0.0
  0
LINE
  5
1A423
  8
1DIM
 10
2349.7655858337921
 20
-1820.99627595377
 30
0.0
 11
2465.7655858337912
 21
-1820.99627595377
 31
0.0
  0
TEXT
  5
1A427
  8
1DIM
 10
2475.2088792282029
 20
-1782.9717695304009
 30
0.0
 40
3.5
  1
材質：ステンレス
  0
SOLID
  5
1A428
  8
1DIM
 10
2464.703671568921
 20
-1793.364529697843
 30
0.0
 11
2463.1540872356049
 21
-1794.6721609551371
 31
0.0
 12
2464.1958136296189
 22
-1792.932644576621
 32
0.0
 13
2464.1958136296189
 23
-1792.932644576621
 33
0.0
  0
TEXT
  5
1A42A
  8
1DIM
 10
2477.0810134333128
 20
-1829.794616680475
 30
0.0
 40
3.5
  1
材質：ステンレス
  0
TEXT
  5
1A42B
  8
1DIM
 10
2480.8143467666459
 20
-1835.627950013808
 30
0.0
 40
3.5
  1
仕上：各種仕上
  0
SOLID
  5
1A42C
  8
1DIM
 10
2516.7090346178429
 20
-1842.169088776003
 30
0.0
 11
2517.6290139022649
 21
-1843.97595048276
 31
0.0
 12
2516.1727540256202
 22
-1842.565128636181
 32
0.0
 13
2516.1727540256202
 23
-1842.565128636181
 33
0.0
  0
LINE
  5
1A42E
  8
1DIM
 10
2524.7655858337912
 20
-1840.06931429049
 30
0.0
 11
2524.7655858337912
 21
-1829.06931429049
 31
0.0
  0
LINE
  5
1A42F
  8
1DIM
 10
2562.7655858337921
 20
-1859.6693142904919
 30
0.0
 11
2562.7655858337921
 21
-1829.06931429049
 31
0.0
  0
LINE
  5
1A430
  8
1DIM
 10
2526.7655858337898
 20
-1830.06931429049
 30
0.0
 11
2560.7655858337921
 21
-1830.06931429049
 31
0.0
  0
LINE
  5
1A434
  8
1DIM
 10
2517.7655858337912
 20
-1840.06931429049
 30
0.0
 11
2517.7655858337912
 21
-1809.06931429049
 31
0.0
  0
LINE
  5
1A435
  8
1DIM
 10
2562.7655858337921
 20
-1859.6693142904919
 30
0.0
 11
2562.7655858337921
 21
-1809.06931429049
 31
0.0
  0
LINE
  5
1A436
  8
1DIM
 10
2519.7655858337898
 20
-1810.06931429049
 30
0.0
 11
2560.7655858337921
 21
-1810.06931429049
 31
0.0
  0
LINE
  5
1A43A
  8
1DIM
 10
2519.7655858337898
 20
-1840.06931429049
 30
0.0
 11
2519.7655858337898
 21
-1829.06931429049
 31
0.0
  0
LINE
  5
1A43B
  8
1DIM
 10
2524.7655858337912
 20
-1840.06931429049
 30
0.0
 11
2524.7655858337912
 21
-1829.06931429049
 31
0.0
  0
LINE
  5
1A43C
  8
1DIM
 10
2517.7655858337912
 20
-1830.06931429049
 30
0.0
 11
2515.7655858337898
 21
-1830.06931429049
 31
0.0
  0
LINE
  5
1A43D
  8
1DIM
 10
2526.7655858337898
 20
-1830.06931429049
 30
0.0
 11
2528.7655858337898
 21
-1830.06931429049
 31
0.0
  0
LINE
  5
1A43E
  8
1DIM
 10
2519.7655858337898
 20
-1830.06931429049
 30
0.0
 11
2524.7655858337912
 21
-1830.06931429049
 31
0.0
  0
LINE
  5
1A442
  8
1DIM
 10
2517.7655858337912
 20
-1840.06931429049
 30
0.0
 11
2517.7655858337912
 21
-1819.06931429049
 31
0.0
  0
LINE
  5
1A443
  8
1DIM
 10
2524.7655858337912
 20
-1840.06931429049
 30
0.0
 11
2524.7655858337912
 21
-1819.06931429049
 31
0.0
  0
LINE
  5
1A444
  8
1DIM
 10
2519.7655858337898
 20
-1820.06931429049
 30
0.0
 11
2522.7655858337898
 21
-1820.06931429049
 31
0.0
  0
TEXT
  5
1A448
  8
1DIM
 10
2520.0989191671242
 20
-1819.3693142904899
 30
0.0
 40
3.5
  1
7
  0
LINE
  5
1A449
  8
0
  6
BYBLOCK
 10
2522.7655858337898
 20
-1819.53341591049
 30
0.0
 11
2524.7655858337912
 21
-1820.06931429049
 31
0.0
  0
LINE
  5
1A44A
  8
0
  6
BYBLOCK
 10
2524.7655858337912
 20
-1820.06931429049
 30
0.0
 11
2522.7655858337898
 21
-1820.6052126704899
 31
0.0
  0
LINE
  5
1A44B
  8
0
  6
BYBLOCK
 10
2524.7655858337912
 20
-1820.06931429049
 30
0.0
 11
2522.7655858337898
 21
-1820.06931429049
 31
0.0
  0
LINE
  5
1A44C
  8
0
  6
BYBLOCK
 10
2519.7655858337898
 20
-1820.6052126704899
 30
0.0
 11
2517.7655858337912
 21
-1820.06931429049
 31
0.0
  0
LINE
  5
1A44D
  8
0
  6
BYBLOCK
 10
2517.7655858337912
 20
-1820.06931429049
 30
0.0
 11
2519.7655858337898
 21
-1819.53341591049
 31
0.0
  0
LINE
  5
1A44E
  8
0
  6
BYBLOCK
 10
2517.7655858337912
 20
-1820.06931429049
 30
0.0
 11
2519.7655858337898
 21
-1820.06931429049
 31
0.0
  0
TEXT
  5
1A44F
  8
1DIM
 10
2521.0989191671242
 20
-1829.3693142904899
 30
0.0
 40
3.5
  1
5
  0
LINE
  5
1A450
  8
0
  6
BYBLOCK
 10
2526.7655858337898
 20
-1830.6052126704899
 30
0.0
 11
2524.7655858337912
 21
-1830.06931429049
 31
0.0
  0
LINE
  5
1A451
  8
0
  6
BYBLOCK
 10
2524.7655858337912
 20
-1830.06931429049
 30
0.0
 11
2526.7655858337898
 21
-1829.53341591049
 31
0.0
  0
LINE
  5
1A452
  8
0
  6
BYBLOCK
 10
2524.7655858337912
 20
-1830.06931429049
 30
0.0
 11
2526.7655858337898
 21
-1830.06931429049
 31
0.0
  0
LINE
  5
1A453
  8
0
  6
BYBLOCK
 10
2517.7655858337912
 20
-1829.53341591049
 30
0.0
 11
2519.7655858337898
 21
-1830.06931429049
 31
0.0
  0
LINE
  5
1A454
  8
0
  6
BYBLOCK
 10
2519.7655858337898
 20
-1830.06931429049
 30
0.0
 11
2517.7655858337912
 21
-1830.6052126704899
 31
0.0
  0
LINE
  5
1A455
  8
0
  6
BYBLOCK
 10
2519.7655858337898
 20
-1830.06931429049
 30
0.0
 11
2517.7655858337912
 21
-1830.06931429049
 31
0.0
  0
TEXT
  5
1A456
  8
1DIM
 10
2537.3489191671251
 20
-1809.3693142904899
 30
0.0
 40
3.5
  1
45
  0
LINE
  5
1A457
  8
0
  6
BYBLOCK
 10
2560.7655858337921
 20
-1809.53341591049
 30
0.0
 11
2562.7655858337921
 21
-1810.06931429049
 31
0.0
  0
LINE
  5
1A458
  8
0
  6
BYBLOCK
 10
2562.7655858337921
 20
-1810.06931429049
 30
0.0
 11
2560.7655858337921
 21
-1810.6052126704899
 31
0.0
  0
LINE
  5
1A459
  8
0
  6
BYBLOCK
 10
2562.7655858337921
 20
-1810.06931429049
 30
0.0
 11
2560.7655858337921
 21
-1810.06931429049
 31
0.0
  0
LINE
  5
1A45A
  8
0
  6
BYBLOCK
 10
2519.7655858337898
 20
-1810.6052126704899
 30
0.0
 11
2517.7655858337912
 21
-1810.06931429049
 31
0.0
  0
LINE
  5
1A45B
  8
0
  6
BYBLOCK
 10
2517.7655858337912
 20
-1810.06931429049
 30
0.0
 11
2519.7655858337898
 21
-1809.53341591049
 31
0.0
  0
LINE
  5
1A45C
  8
0
  6
BYBLOCK
 10
2517.7655858337912
 20
-1810.06931429049
 30
0.0
 11
2519.7655858337898
 21
-1810.06931429049
 31
0.0
  0
TEXT
  5
1A45D
  8
1DIM
 10
2532.448919167125
 20
-1829.3693142904899
 30
0.0
 40
3.5
  1
埋込寸法38
  0
LINE
  5
1A45E
  8
0
  6
BYBLOCK
 10
2560.7655858337921
 20
-1829.53341591049
 30
0.0
 11
2562.7655858337921
 21
-1830.06931429049
 31
0.0
  0
LINE
  5
1A45F
  8
0
  6
BYBLOCK
 10
2562.7655858337921
 20
-1830.06931429049
 30
0.0
 11
2560.7655858337921
 21
-1830.6052126704899
 31
0.0
  0
LINE
  5
1A460
  8
0
  6
BYBLOCK
 10
2562.7655858337921
 20
-1830.06931429049
 30
0.0
 11
2560.7655858337921
 21
-1830.06931429049
 31
0.0
  0
LINE
  5
1A461
  8
0
  6
BYBLOCK
 10
2526.7655858337898
 20
-1830.6052126704899
 30
0.0
 11
2524.7655858337912
 21
-1830.06931429049
 31
0.0
  0
LINE
  5
1A462
  8
0
  6
BYBLOCK
 10
2524.7655858337912
 20
-1830.06931429049
 30
0.0
 11
2526.7655858337898
 21
-1829.53341591049
 31
0.0
  0
LINE
  5
1A463
  8
0
  6
BYBLOCK
 10
2524.7655858337912
 20
-1830.06931429049
 30
0.0
 11
2526.7655858337898
 21
-1830.06931429049
 31
0.0
  0
LINE
  5
1A464
  8
1DIM
 10
2516.4408943217318
 20
-1842.367108706092
 30
0.0
 11
2511.981013433312
 21
-1836.327950013808
 31
0.0
  0
LINE
  5
1A465
  8
1DIM
 10
2511.981013433312
 20
-1836.327950013808
 30
0.0
 11
2509.2810134333122
 21
-1836.327950013808
 31
0.0
  0
LINE
  5
1A466
  8
1DIM
 10
2464.4497425992699
 20
-1793.148587137232
 30
0.0
 11
2472.5088792282031
 21
-1783.671769530401
 31
0.0
  0
LINE
  5
1A467
  8
1DIM
 10
2472.5088792282031
 20
-1783.671769530401
 30
0.0
 11
2475.2088792282029
 21
-1783.671769530401
 31
0.0
  0
TEXT
  5
1A468
  8
1DIM
 10
2403.9739191671251
 20
-1820.29627595377
 30
0.0
 40
3.5
  1
120
  0
LINE
  5
1A469
  8
0
  6
BYBLOCK
 10
2465.7655858337912
 20
-1820.4603775737701
 30
0.0
 11
2467.7655858337912
 21
-1820.99627595377
 31
0.0
  0
LINE
  5
1A46A
  8
0
  6
BYBLOCK
 10
2467.7655858337912
 20
-1820.99627595377
 30
0.0
 11
2465.7655858337912
 21
-1821.5321743337699
 31
0.0
  0
LINE
  5
1A46B
  8
0
  6
BYBLOCK
 10
2467.7655858337912
 20
-1820.99627595377
 30
0.0
 11
2465.7655858337912
 21
-1820.99627595377
 31
0.0
  0
LINE
  5
1A46C
  8
0
  6
BYBLOCK
 10
2349.7655858337921
 20
-1821.5321743337699
 30
0.0
 11
2347.7655858337921
 21
-1820.99627595377
 31
0.0
  0
LINE
  5
1A46D
  8
0
  6
BYBLOCK
 10
2347.7655858337921
 20
-1820.99627595377
 30
0.0
 11
2349.7655858337921
 21
-1820.4603775737701
 31
0.0
  0
LINE
  5
1A46E
  8
0
  6
BYBLOCK
 10
2347.7655858337921
 20
-1820.99627595377
 30
0.0
 11
2349.7655858337921
 21
-1820.99627595377
 31
0.0
  0
TEXT
  5
1A46F
  8
1DIM
 10
2497.0609416757652
 20
-1933.2359809571569
 30
0.0
 40
3.5
  1
175.5
 50
90.0
  0
LINE
  5
1A470
  8
0
  6
BYBLOCK
 10
2497.225043295764
 20
-1841.06931429049
 30
0.0
 11
2497.7609416757641
 21
-1839.06931429049
 31
0.0
  0
LINE
  5
1A471
  8
0
  6
BYBLOCK
 10
2497.7609416757641
 20
-1839.06931429049
 30
0.0
 11
2498.2968400557638
 21
-1841.06931429049
 31
0.0
  0
LINE
  5
1A472
  8
0
  6
BYBLOCK
 10
2497.7609416757641
 20
-1839.06931429049
 30
0.0
 11
2497.7609416757641
 21
-1841.06931429049
 31
0.0
  0
LINE
  5
1A473
  8
0
  6
BYBLOCK
 10
2498.2968400557638
 20
-2012.5693142904911
 30
0.0
 11
2497.7609416757641
 21
-2014.56931429049
 31
0.0
  0
LINE
  5
1A474
  8
0
  6
BYBLOCK
 10
2497.7609416757641
 20
-2014.56931429049
 30
0.0
 11
2497.225043295764
 21
-2012.5693142904911
 31
0.0
  0
LINE
  5
1A475
  8
0
  6
BYBLOCK
 10
2497.7609416757641
 20
-2014.56931429049
 30
0.0
 11
2497.7609416757641
 21
-2012.5693142904911
 31
0.0
  0
TEXT
  5
1A476
  8
1DIM
 10
2388.1072525004579
 20
-1811.380169053836
 30
0.0
 40
3.5
  1
切欠穴寸法120 以上
  0
LINE
  5
1A477
  8
0
  6
BYBLOCK
 10
2465.7655858337912
 20
-1811.5442706738361
 30
0.0
 11
2467.7655858337912
 21
-1812.080169053836
 31
0.0
  0
LINE
  5
1A478
  8
0
  6
BYBLOCK
 10
2467.7655858337912
 20
-1812.080169053836
 30
0.0
 11
2465.7655858337912
 21
-1812.616067433836
 31
0.0
  0
LINE
  5
1A479
  8
0
  6
BYBLOCK
 10
2467.7655858337912
 20
-1812.080169053836
 30
0.0
 11
2465.7655858337912
 21
-1812.080169053836
 31
0.0
  0
LINE
  5
1A47A
  8
0
  6
BYBLOCK
 10
2349.7655858337921
 20
-1812.616067433836
 30
0.0
 11
2347.7655858337921
 21
-1812.080169053836
 31
0.0
  0
LINE
  5
1A47B
  8
0
  6
BYBLOCK
 10
2347.7655858337921
 20
-1812.080169053836
 30
0.0
 11
2349.7655858337921
 21
-1811.5442706738361
 31
0.0
  0
LINE
  5
1A47C
  8
0
  6
BYBLOCK
 10
2347.7655858337921
 20
-1812.080169053836
 30
0.0
 11
2349.7655858337921
 21
-1812.080169053836
 31
0.0
  0
TEXT
  5
1A47D
  8
1DIM
 10
2485.006614176983
 20
-1948.802502550448
 30
0.0
 40
3.5
  1
切欠穴寸法168 以上
 50
90.0
  0
LINE
  5
1A47E
  8
0
  6
BYBLOCK
 10
2486.2425125569821
 20
-2010.6356908104051
 30
0.0
 11
2485.7066141769819
 21
-2012.6356908104051
 31
0.0
  0
LINE
  5
1A47F
  8
0
  6
BYBLOCK
 10
2485.7066141769819
 20
-2012.6356908104051
 30
0.0
 11
2485.1707157969822
 21
-2010.6356908104051
 31
0.0
  0
LINE
  5
1A480
  8
0
  6
BYBLOCK
 10
2485.7066141769819
 20
-2012.6356908104051
 30
0.0
 11
2485.7066141769819
 21
-2010.6356908104051
 31
0.0
  0
LINE
  5
1A481
  8
0
  6
BYBLOCK
 10
2485.1707157969822
 20
-1847.0693142904911
 30
0.0
 11
2485.7066141769819
 21
-1845.069314290492
 31
0.0
  0
LINE
  5
1A482
  8
0
  6
BYBLOCK
 10
2485.7066141769819
 20
-1845.069314290492
 30
0.0
 11
2486.2425125569821
 21
-1847.0693142904911
 31
0.0
  0
LINE
  5
1A483
  8
0
  6
BYBLOCK
 10
2485.7066141769819
 20
-1845.069314290492
 30
0.0
 11
2485.7066141769819
 21
-1847.0693142904911
 31
0.0
  0
TEXT
  5
1A484
  8
1DIM
 10
2485.006614176983
 20
-1843.2359809571569
 30
0.0
 40
3.5
  1
6
 50
90.0
  0
LINE
  5
1A485
  8
0
  6
BYBLOCK
 10
2485.1707157969822
 20
-1841.06931429049
 30
0.0
 11
2485.7066141769819
 21
-1839.06931429049
 31
0.0
  0
LINE
  5
1A486
  8
0
  6
BYBLOCK
 10
2485.7066141769819
 20
-1839.06931429049
 30
0.0
 11
2486.2425125569821
 21
-1841.06931429049
 31
0.0
  0
LINE
  5
1A487
  8
0
  6
BYBLOCK
 10
2485.7066141769819
 20
-1839.06931429049
 30
0.0
 11
2485.7066141769819
 21
-1841.06931429049
 31
0.0
  0
LINE
  5
1A488
  8
0
  6
BYBLOCK
 10
2486.2425125569821
 20
-1843.0693142904911
 30
0.0
 11
2485.7066141769819
 21
-1845.069314290492
 31
0.0
  0
LINE
  5
1A489
  8
0
  6
BYBLOCK
 10
2485.7066141769819
 20
-1845.069314290492
 30
0.0
 11
2485.1707157969822
 21
-1843.0693142904911
 31
0.0
  0
LINE
  5
1A48A
  8
0
  6
BYBLOCK
 10
2485.7066141769819
 20
-1845.069314290492
 30
0.0
 11
2485.7066141769819
 21
-1843.0693142904911
 31
0.0
  0
TEXT
  5
1A48B
  8
1DIM
 10
2404.5572525004582
 20
-1755.865293368807
 30
0.0
 40
3.5
  1
110
  0
LINE
  5
1A48C
  8
0
  6
BYBLOCK
 10
2460.7655858337921
 20
-1756.0293949888071
 30
0.0
 11
2462.7655858337921
 21
-1756.565293368807
 31
0.0
  0
LINE
  5
1A48D
  8
0
  6
BYBLOCK
 10
2462.7655858337921
 20
-1756.565293368807
 30
0.0
 11
2460.7655858337921
 21
-1757.101191748807
 31
0.0
  0
LINE
  5
1A48E
  8
0
  6
BYBLOCK
 10
2462.7655858337921
 20
-1756.565293368807
 30
0.0
 11
2460.7655858337921
 21
-1756.565293368807
 31
0.0
  0
LINE
  5
1A48F
  8
0
  6
BYBLOCK
 10
2354.7655858337921
 20
-1757.101191748807
 30
0.0
 11
2352.7655858337912
 21
-1756.565293368807
 31
0.0
  0
LINE
  5
1A490
  8
0
  6
BYBLOCK
 10
2352.7655858337912
 20
-1756.565293368807
 30
0.0
 11
2354.7655858337921
 21
-1756.0293949888071
 31
0.0
  0
LINE
  5
1A491
  8
0
  6
BYBLOCK
 10
2352.7655858337912
 20
-1756.565293368807
 30
0.0
 11
2354.7655858337921
 21
-1756.565293368807
 31
0.0
  0
TEXT
  5
1A492
  8
1DIM
 10
2404.8489191671242
 20
-1830.786148834422
 30
0.0
 40
3.5
  1
73
  0
LINE
  5
1A493
  8
0
  6
BYBLOCK
 10
2442.2655858337912
 20
-1830.950250454423
 30
0.0
 11
2444.2655858337912
 21
-1831.4861488344229
 31
0.0
  0
LINE
  5
1A494
  8
0
  6
BYBLOCK
 10
2444.2655858337912
 20
-1831.4861488344229
 30
0.0
 11
2442.2655858337912
 21
-1832.0220472144219
 31
0.0
  0
LINE
  5
1A495
  8
0
  6
BYBLOCK
 10
2444.2655858337912
 20
-1831.4861488344229
 30
0.0
 11
2442.2655858337912
 21
-1831.4861488344229
 31
0.0
  0
LINE
  5
1A496
  8
0
  6
BYBLOCK
 10
2373.2655858337898
 20
-1832.0220472144219
 30
0.0
 11
2371.2655858337898
 21
-1831.4861488344229
 31
0.0
  0
LINE
  5
1A497
  8
0
  6
BYBLOCK
 10
2371.2655858337898
 20
-1831.4861488344229
 30
0.0
 11
2373.2655858337898
 21
-1830.950250454423
 31
0.0
  0
LINE
  5
1A498
  8
0
  6
BYBLOCK
 10
2371.2655858337898
 20
-1831.4861488344229
 30
0.0
 11
2373.2655858337898
 21
-1831.4861488344229
 31
0.0
  0
TEXT
  5
1A499
  8
1DIM
 10
2475.3282465766329
 20
-1889.986935916543
 30
0.0
 40
3.5
  1
84
 50
90.0
  0
LINE
  5
1A49A
  8
0
  6
BYBLOCK
 10
2475.4923481966321
 20
-1847.0693142904911
 30
0.0
 11
2476.0282465766318
 21
-1845.069314290492
 31
0.0
  0
LINE
  5
1A49B
  8
0
  6
BYBLOCK
 10
2476.0282465766318
 20
-1845.069314290492
 30
0.0
 11
2476.5641449566328
 21
-1847.0693142904911
 31
0.0
  0
LINE
  5
1A49C
  8
0
  6
BYBLOCK
 10
2476.0282465766318
 20
-1845.069314290492
 30
0.0
 11
2476.0282465766318
 21
-1847.0693142904911
 31
0.0
  0
LINE
  5
1A49D
  8
0
  6
BYBLOCK
 10
2476.5641449566328
 20
-1927.071224209262
 30
0.0
 11
2476.0282465766318
 21
-1929.071224209262
 31
0.0
  0
LINE
  5
1A49E
  8
0
  6
BYBLOCK
 10
2476.0282465766318
 20
-1929.071224209262
 30
0.0
 11
2475.4923481966321
 21
-1927.071224209262
 31
0.0
  0
LINE
  5
1A49F
  8
0
  6
BYBLOCK
 10
2476.0282465766318
 20
-1929.071224209262
 30
0.0
 11
2476.0282465766318
 21
-1927.071224209262
 31
0.0
  0
LINE
  5
1A4A0
  8
1DIM
 10
2445.2866070349228
 20
-1930.8263255542199
 30
0.0
 11
2469.2701334358931
 21
-1975.7000981876149
 31
0.0
  0
LINE
  5
1A4A1
  8
1DIM
 10
2469.2701334358931
 20
-1975.7000981876149
 30
0.0
 11
2471.970133435892
 21
-1975.7000981876149
 31
0.0
  0
TEXT
  5
1A4A2
  8
1DIM
 10
2368.3489191671251
 20
-1905.711284842705
 30
0.0
 40
3.5
  1
26
  0
LINE
  5
1A4A3
  8
0
  6
BYBLOCK
 10
2360.2655858337921
 20
-1906.947183222705
 30
0.0
 11
2358.2655858337912
 21
-1906.4112848427051
 31
0.0
  0
LINE
  5
1A4A4
  8
0
  6
BYBLOCK
 10
2358.2655858337912
 20
-1906.4112848427051
 30
0.0
 11
2360.2655858337921
 21
-1905.8753864627049
 31
0.0
  0
LINE
  5
1A4A5
  8
0
  6
BYBLOCK
 10
2358.2655858337912
 20
-1906.4112848427051
 30
0.0
 11
2360.2655858337921
 21
-1906.4112848427051
 31
0.0
  0
LINE
  5
1A4A6
  8
0
  6
BYBLOCK
 10
2382.2655858337912
 20
-1905.8753864627049
 30
0.0
 11
2384.2655858337912
 21
-1906.4112848427051
 31
0.0
  0
LINE
  5
1A4A7
  8
0
  6
BYBLOCK
 10
2384.2655858337912
 20
-1906.4112848427051
 30
0.0
 11
2382.2655858337912
 21
-1906.947183222705
 31
0.0
  0
LINE
  5
1A4A8
  8
0
  6
BYBLOCK
 10
2384.2655858337912
 20
-1906.4112848427051
 30
0.0
 11
2382.2655858337912
 21
-1906.4112848427051
 31
0.0
  0
TEXT
  5
1A4A9
  8
1DIM
 10
2344.2586969944741
 20
-1931.987890875929
 30
0.0
 40
3.5
  1
32
 50
90.0
  0
LINE
  5
1A4AA
  8
0
  6
BYBLOCK
 10
2344.4227986144729
 20
-1915.071224209262
 30
0.0
 11
2344.9586969944739
 21
-1913.071224209262
 31
0.0
  0
LINE
  5
1A4AB
  8
0
  6
BYBLOCK
 10
2344.9586969944739
 20
-1913.071224209262
 30
0.0
 11
2345.4945953744741
 21
-1915.071224209262
 31
0.0
  0
LINE
  5
1A4AC
  8
0
  6
BYBLOCK
 10
2344.9586969944739
 20
-1913.071224209262
 30
0.0
 11
2344.9586969944739
 21
-1915.071224209262
 31
0.0
  0
LINE
  5
1A4AD
  8
0
  6
BYBLOCK
 10
2345.4945953744741
 20
-1943.0712242092629
 30
0.0
 11
2344.9586969944739
 21
-1945.0712242092629
 31
0.0
  0
LINE
  5
1A4AE
  8
0
  6
BYBLOCK
 10
2344.9586969944739
 20
-1945.0712242092629
 30
0.0
 11
2344.4227986144729
 21
-1943.0712242092629
 31
0.0
  0
LINE
  5
1A4AF
  8
0
  6
BYBLOCK
 10
2344.9586969944739
 20
-1945.0712242092629
 30
0.0
 11
2344.9586969944739
 21
-1943.0712242092629
 31
0.0
  0
VIEWPORT
  5
57
 67
     1
  8
0
 10
-12.71820606546885
 20
18.56100587420644
 30
0.0
 40
618.58840949277032
 41
282.65220536435203
 68
     1
 69
     1
1001
ACAD
1000
MVIEW
1002
{
1070
    16
1010
0.0
1020
0.0
1030
0.0
1010
0.0
1020
0.0
1030
1.0
1040
0.0
1040
282.65220536435203
1040
-12.71820606546885
1040
18.56100587420644
1040
50.0
1040
0.0
1040
0.0
1070
     0
1070
   100
1070
     1
1070
     1
1070
     0
1070
     0
1070
     0
1070
     0
1040
0.0
1040
0.0
1040
0.0
1040
10.0
1040
10.0
1040
10.0
1040
10.0
1070
     0
1002
{
1002
}
1002
}
  0
ENDSEC
  0
EOF
