  0
SECTION
  2
HEADER
  9
$ACADVER
  1
AC1012
  9
$DWGCODEPAGE
  3
ansi_932
  9
$INSBASE
 10
0.0
 20
0.0
 30
0.0
  9
$EXTMIN
 10
2328.331375709784
 20
-2057.200096226764
 30
0.0
  9
$EXTMAX
 10
2616.468203188721
 20
-1752.365293368807
 30
0.0
  9
$LIMMIN
 10
0.0
 20
0.0
  9
$LIMMAX
 10
420.0
 20
297.0
  9
$ORTHOMODE
 70
     0
  9
$REGENMODE
 70
     1
  9
$FILLMODE
 70
     1
  9
$QTEXTMODE
 70
     0
  9
$MIRRTEXT
 70
     0
  9
$DRAGMODE
 70
     2
  9
$LTSCALE
 40
0.5
  9
$OSMODE
 70
  2175
  9
$ATTMODE
 70
     1
  9
$TEXTSIZE
 40
4.0
  9
$TRACEWID
 40
1.0
  9
$TEXTSTYLE
  7
STANDARD
  9
$CLAYER
  8
1TEXT
  9
$CELTYPE
  6
BYLAYER
  9
$CECOLOR
 62
   256
  9
$CELTSCALE
 40
1.0
  9
$DELOBJ
 70
     1
  9
$DISPSILH
 70
     0
  9
$DIMSCALE
 40
1.0
  9
$DIMASZ
 40
2.0
  9
$DIMEXO
 40
0.0
  9
$DIMDLI
 40
7.0
  9
$DIMRND
 40
0.0
  9
$DIMDLE
 40
0.0
  9
$DIMEXE
 40
1.0
  9
$DIMTP
 40
0.0
  9
$DIMTM
 40
0.0
  9
$DIMTXT
 40
3.5
  9
$DIMCEN
 40
0.0
  9
$DIMTSZ
 40
0.0
  9
$DIMTOL
 70
     0
  9
$DIMLIM
 70
     0
  9
$DIMTIH
 70
     0
  9
$DIMTOH
 70
     0
  9
$DIMSE1
 70
     0
  9
$DIMSE2
 70
     0
  9
$DIMTAD
 70
     1
  9
$DIMZIN
 70
     8
  9
$DIMBLK
  1

  9
$DIMASO
 70
     1
  9
$DIMSHO
 70
     1
  9
$DIMPOST
  1
 
  9
$DIMAPOST
  1

  9
$DIMALT
 70
     0
  9
$DIMALTD
 70
     2
  9
$DIMALTF
 40
25.4
  9
$DIMLFAC
 40
1.0
  9
$DIMTOFL
 70
     1
  9
$DIMTVP
 40
0.0
  9
$DIMTIX
 70
     0
  9
$DIMSOXD
 70
     0
  9
$DIMSAH
 70
     1
  9
$DIMBLK1
  1
OPEN30
  9
$DIMBLK2
  1
OPEN30
  9
$DIMSTYLE
  2
NEWX10
  9
$DIMCLRD
 70
   256
  9
$DIMCLRE
 70
   256
  9
$DIMCLRT
 70
   201
  9
$DIMTFAC
 40
0.7
  9
$DIMGAP
 40
0.7
  9
$DIMJUST
 70
     0
  9
$DIMSD1
 70
     0
  9
$DIMSD2
 70
     0
  9
$DIMTOLJ
 70
     1
  9
$DIMTZIN
 70
     8
  9
$DIMALTZ
 70
     0
  9
$DIMALTTZ
 70
     0
  9
$DIMFIT
 70
     2
  9
$DIMUPT
 70
     0
  9
$DIMUNIT
 70
     2
  9
$DIMDEC
 70
     2
  9
$DIMTDEC
 70
     4
  9
$DIMALTU
 70
     2
  9
$DIMALTTD
 70
     2
  9
$DIMTXSTY
  7
STANDARD
  9
$DIMAUNIT
 70
     0
  9
$LUNITS
 70
     2
  9
$LUPREC
 70
     4
  9
$SKETCHINC
 40
1.0
  9
$FILLETRAD
 40
0.0
  9
$AUNITS
 70
     0
  9
$AUPREC
 70
     2
  9
$MENU
  1
acad
  9
$ELEVATION
 40
0.0
  9
$PELEVATION
 40
0.0
  9
$THICKNESS
 40
0.0
  9
$LIMCHECK
 70
     0
  9
$CHAMFERA
 40
10.0
  9
$CHAMFERB
 40
10.0
  9
$CHAMFERC
 40
20.0
  9
$CHAMFERD
 40
0.0
  9
$SKPOLY
 70
     0
  9
$TDCREATE
 40
2453033.732663484
  9
$TDUPDATE
 40
2459346.627904757
  9
$TDINDWG
 40
2.332406956
  9
$TDUSRTIMER
 40
2.332406956
  9
$USRTIMER
 70
     1
  9
$ANGBASE
 50
0.0
  9
$ANGDIR
 70
     0
  9
$PDMODE
 70
     0
  9
$PDSIZE
 40
0.0
  9
$PLINEWID
 40
0.0
  9
$COORDS
 70
     2
  9
$SPLFRAME
 70
     0
  9
$SPLINETYPE
 70
     6
  9
$SPLINESEGS
 70
     8
  9
$ATTDIA
 70
     0
  9
$ATTREQ
 70
     1
  9
$HANDLING
 70
     1
  9
$HANDSEED
  5
1AAD5
  9
$SURFTAB1
 70
     6
  9
$SURFTAB2
 70
     6
  9
$SURFTYPE
 70
     6
  9
$SURFU
 70
     6
  9
$SURFV
 70
     6
  9
$UCSNAME
  2

  9
$UCSORG
 10
0.0
 20
0.0
 30
0.0
  9
$UCSXDIR
 10
1.0
 20
0.0
 30
0.0
  9
$UCSYDIR
 10
0.0
 20
1.0
 30
0.0
  9
$PUCSNAME
  2

  9
$PUCSORG
 10
0.0
 20
0.0
 30
0.0
  9
$PUCSXDIR
 10
1.0
 20
0.0
 30
0.0
  9
$PUCSYDIR
 10
0.0
 20
1.0
 30
0.0
  9
$USERI1
 70
     0
  9
$USERI2
 70
     0
  9
$USERI3
 70
     0
  9
$USERI4
 70
     0
  9
$USERI5
 70
     0
  9
$USERR1
 40
0.0
  9
$USERR2
 40
0.0
  9
$USERR3
 40
0.0
  9
$USERR4
 40
0.0
  9
$USERR5
 40
0.0
  9
$WORLDVIEW
 70
     1
  9
$SHADEDGE
 70
     3
  9
$SHADEDIF
 70
    70
  9
$TILEMODE
 70
     1
  9
$MAXACTVP
 70
    48
  9
$PINSBASE
 10
0.0
 20
0.0
 30
0.0
  9
$PLIMCHECK
 70
     0
  9
$PEXTMIN
 10
1.000000000000000E+20
 20
1.000000000000000E+20
 30
1.000000000000000E+20
  9
$PEXTMAX
 10
-1.000000000000000E+20
 20
-1.000000000000000E+20
 30
-1.000000000000000E+20
  9
$PLIMMIN
 10
0.0
 20
0.0
  9
$PLIMMAX
 10
420.0
 20
297.0
  9
$UNITMODE
 70
     0
  9
$VISRETAIN
 70
     1
  9
$PLINEGEN
 70
     0
  9
$PSLTSCALE
 70
     1
  9
$TREEDEPTH
 70
  3020
  9
$PICKSTYLE
 70
     1
  9
$CMLSTYLE
  2
STANDARD
  9
$CMLJUST
 70
     0
  9
$CMLSCALE
 40
20.0
  9
$SAVEIMAGES
 70
     1
  0
ENDSEC
  0
SECTION
  2
CLASSES
  0
CLASS
  1
DICTIONARYVAR
  2
AcDbDictionaryVar
  3
ObjectDBX Classes
 90
        0
280
     0
281
     0
  0
CLASS
  1
IDBUFFER
  2
AcDbIdBuffer
  3
ObjectDBX Classes
 90
    32768
280
     0
281
     0
  0
CLASS
  1
LWPOLYLINE
  2
AcDbPolyline
  3
ObjectDBX Classes
 90
    32768
280
     0
281
     1
  0
CLASS
  1
ACDBDICTIONARYWDFLT
  2
AcDbDictionaryWithDefault
  3
ObjectDBX Classes
 90
    32768
280
     0
281
     0
  0
CLASS
  1
ACDBPLACEHOLDER
  2
AcDbPlaceHolder
  3
ObjectDBX Classes
 90
        0
280
     0
281
     0
  0
CLASS
  1
LAYOUT
  2
AcDbLayout
  3
ObjectDBX Classes
 90
        0
280
     0
281
     0
  0
CLASS
  1
TABLESTYLE
  2
AcDbTableStyle
  3
ObjectDBX Classes
 90
     4095
280
     0
281
     0
  0
CLASS
  1
SORTENTSTABLE
  2
AcDbSortentsTable
  3
ObjectDBX Classes
 90
    32768
280
     0
281
     0
  0
CLASS
  1
DIMASSOC
  2
AcDbDimAssoc
  3
"AcDbDimAssoc|Product Desc:     AcDim ARX App For Dimension|Company:          Autodesk, Inc.|WEB Address:      www.autodesk.com"
 90
        0
280
     0
281
     0
  0
CLASS
  1
MATERIAL
  2
AcDbMaterial
  3
ObjectDBX Classes
 90
     1153
280
     0
281
     0
  0
CLASS
  1
VISUALSTYLE
  2
AcDbVisualStyle
  3
ObjectDBX Classes
 90
     4095
280
     0
281
     0
  0
CLASS
  1
SCALE
  2
AcDbScale
  3
ObjectDBX Classes
 90
     1153
280
     0
281
     0
  0
CLASS
  1
MLEADERSTYLE
  2
AcDbMLeaderStyle
  3
ACDB_MLEADERSTYLE_CLASS
 90
     4095
280
     0
281
     0
  0
CLASS
  1
CELLSTYLEMAP
  2
AcDbCellStyleMap
  3
ObjectDBX Classes
 90
     1152
280
     0
281
     0
  0
CLASS
  1
EXACXREFPANELOBJECT
  2
ExAcXREFPanelObject
  3
EXAC_ESW
 90
     1025
280
     1
281
     0
  0
CLASS
  1
NPOCOLLECTION
  2
AcDbImpNonPersistentObjectsCollection
  3
ObjectDBX Classes
 90
     1153
280
     1
281
     0
  0
CLASS
  1
SUN
  2
AcDbSun
  3
SCENEOE
 90
     1153
280
     0
281
     0
  0
CLASS
  1
XRECORD
  2
AcDbXrecord
  3
ObjectDBX Classes
 90
    32768
280
     0
281
     0
  0
CLASS
  1
HATCH
  2
AcDbHatch
  3
ObjectDBX Classes
 90
    32768
280
     0
281
     1
  0
ENDSEC
  0
SECTION
  2
TABLES
  0
TABLE
  2
VPORT
  5
8
330
0
100
AcDbSymbolTable
 70
     1
  0
VPORT
  5
15B17
330
8
100
AcDbSymbolTableRecord
100
AcDbViewportTableRecord
  2
*ACTIVE
 70
     0
 10
0.0
 20
0.0
 11
1.0
 21
1.0
 12
2472.399789449252
 22
-1904.782694797786
 13
0.0
 23
0.0
 14
10.0
 24
10.0
 15
10.0
 25
10.0
 16
0.0
 26
0.0
 36
1.0
 17
0.0
 27
0.0
 37
0.0
 40
327.2963146474906
 41
1.844566712517194
 42
50.0
 43
0.0
 44
0.0
 50
0.0
 51
0.0
 71
    16
 72
   100
 73
     1
 74
     1
 75
     0
 76
     0
 77
     0
 78
     0
  0
ENDTAB
  0
TABLE
  2
LTYPE
  5
5
330
0
100
AcDbSymbolTable
 70
     3
  0
LTYPE
  5
12
330
5
100
AcDbSymbolTableRecord
100
AcDbLinetypeTableRecord
  2
BYBLOCK
 70
     0
  3

 72
    65
 73
     0
 40
0.0
  0
LTYPE
  5
13
330
5
100
AcDbSymbolTableRecord
100
AcDbLinetypeTableRecord
  2
BYLAYER
 70
     0
  3

 72
    65
 73
     0
 40
0.0
  0
LTYPE
  5
14
330
5
100
AcDbSymbolTableRecord
100
AcDbLinetypeTableRecord
  2
CONTINUOUS
 70
     0
  3
Solid line
 72
    65
 73
     0
 40
0.0
  0
LTYPE
  5
26
330
5
100
AcDbSymbolTableRecord
100
AcDbLinetypeTableRecord
  2
CENTER2
 70
     0
  3
Center (.5x) ___ _ ___ _ ___ _ ___ _ ___ _ ___
 72
    65
 73
     4
 40
28.575
 49
19.05
 74
     0
 49
-3.175
 74
     0
 49
3.175
 74
     0
 49
-3.175
 74
     0
  0
LTYPE
  5
100
330
5
100
AcDbSymbolTableRecord
100
AcDbLinetypeTableRecord
  2
PHANTOM2
 70
     0
  3
Phantom (0.5x) ___ _ _ ___ _ _ ___ _ _ ___ _ _
 72
    65
 73
     6
 40
31.75
 49
15.875
 74
     0
 49
-3.175
 74
     0
 49
3.175
 74
     0
 49
-3.175
 74
     0
 49
3.175
 74
     0
 49
-3.175
 74
     0
  0
ENDTAB
  0
TABLE
  2
LAYER
  5
2
102
{ACAD_XDICTIONARY
360
14EC2
102
}
330
0
100
AcDbSymbolTable
 70
     6
  0
LAYER
  5
E
102
{ACAD_XDICTIONARY
360
15BB5
102
}
330
2
100
AcDbSymbolTableRecord
100
AcDbLayerTableRecord
  2
0
 70
     0
 62
     7
  6
CONTINUOUS
  0
LAYER
  5
29
102
{ACAD_XDICTIONARY
360
15BB7
102
}
330
2
100
AcDbSymbolTableRecord
100
AcDbLayerTableRecord
  2
1CENTER
 70
     0
 62
     7
  6
CENTER2
  0
LAYER
  5
31
102
{ACAD_XDICTIONARY
360
15BB9
102
}
330
2
100
AcDbSymbolTableRecord
100
AcDbLayerTableRecord
  2
1TEXT
 70
     0
 62
     7
  6
CONTINUOUS
  0
LAYER
  5
101
102
{ACAD_XDICTIONARY
360
15BC3
102
}
330
2
100
AcDbSymbolTableRecord
100
AcDbLayerTableRecord
  2
1DIM
 70
     0
 62
     7
  6
CONTINUOUS
  0
LAYER
  5
103
102
{ACAD_XDICTIONARY
360
15BC7
102
}
330
2
100
AcDbSymbolTableRecord
100
AcDbLayerTableRecord
  2
1PHANTOM
 70
     0
 62
     7
  6
PHANTOM2
  0
LAYER
  5
25F
102
{ACAD_XDICTIONARY
360
15BCB
102
}
330
2
100
AcDbSymbolTableRecord
100
AcDbLayerTableRecord
  2
01
 70
     0
 62
     1
  6
CONTINUOUS
  0
ENDTAB
  0
TABLE
  2
STYLE
  5
3
330
0
100
AcDbSymbolTable
 70
     1
  0
STYLE
  5
F
330
3
100
AcDbSymbolTableRecord
100
AcDbTextStyleTableRecord
  2
STANDARD
 70
     0
 40
0.0
 41
1.0
 50
0.0
 71
     0
 42
4.0
  3
txt.shx
  4
extfont.shx
  0
ENDTAB
  0
TABLE
  2
VIEW
  5
6
330
0
100
AcDbSymbolTable
 70
     0
  0
ENDTAB
  0
TABLE
  2
UCS
  5
7
330
0
100
AcDbSymbolTable
 70
     0
  0
ENDTAB
  0
TABLE
  2
APPID
  5
9
330
0
100
AcDbSymbolTable
 70
    13
  0
APPID
  5
10
330
9
100
AcDbSymbolTableRecord
100
AcDbRegAppTableRecord
  2
ACAD
 70
     0
  0
APPID
  5
21
330
9
100
AcDbSymbolTableRecord
100
AcDbRegAppTableRecord
  2
DRAWINGVARIABLESXDATA
 70
     0
  0
APPID
  5
64
330
9
100
AcDbSymbolTableRecord
100
AcDbRegAppTableRecord
  2
CONTENTTABDATA
 70
     0
  0
APPID
  5
65
330
9
100
AcDbSymbolTableRecord
100
AcDbRegAppTableRecord
  2
CONTENTCURRENTTAB
 70
     0
  0
APPID
  5
66
330
9
100
AcDbSymbolTableRecord
100
AcDbRegAppTableRecord
  2
CONTENTBLOCKDESCRIPTION
 70
     0
  0
APPID
  5
67
330
9
100
AcDbSymbolTableRecord
100
AcDbRegAppTableRecord
  2
CONTENTBLOCKICON
 70
     0
  0
APPID
  5
68
330
9
100
AcDbSymbolTableRecord
100
AcDbRegAppTableRecord
  2
CONTENTLONGBLOCKNAME
 70
     0
  0
APPID
  5
5A9
330
9
100
AcDbSymbolTableRecord
100
AcDbRegAppTableRecord
  2
ACAD_PSEXT
 70
     0
  0
APPID
  5
18AC
330
9
100
AcDbSymbolTableRecord
100
AcDbRegAppTableRecord
  2
ACAD_DSTYLE_DIMTEXT_FILL
 70
     0
  0
APPID
  5
15B9A
330
9
100
AcDbSymbolTableRecord
100
AcDbRegAppTableRecord
  2
ACAD_MLEADERVER
 70
     0
  0
APPID
  5
170A1
330
9
100
AcDbSymbolTableRecord
100
AcDbRegAppTableRecord
  2
ACAD_DSTYLE_DIMRADIAL_EXTE
 70
     0
  0
APPID
  5
19F72
330
9
100
AcDbSymbolTableRecord
100
AcDbRegAppTableRecord
  2
ACAD_EXEMPT_FROM_CAD_STAND
 70
     0
  0
APPID
  5
1A655
330
9
100
AcDbSymbolTableRecord
100
AcDbRegAppTableRecord
  2
ACAD_OBJECT_CHANGE_GUID
 70
     0
  0
ENDTAB
  0
TABLE
  2
DIMSTYLE
  5
A
330
0
100
AcDbSymbolTable
 70
     1
  0
DIMSTYLE
105
48
330
A
100
AcDbSymbolTableRecord
100
AcDbDimStyleTableRecord
  2
NEWX10
 70
     0
  3
 
  4

  5

  6
OPEN30
  7
OPEN30
 40
1.0
 41
2.0
 42
0.0
 43
7.0
 44
1.0
 45
0.0
 46
0.0
 47
0.0
 48
0.0
140
3.5
141
0.0
142
0.0
143
25.4
144
1.0
145
0.0
146
0.7
147
0.7
 71
     0
 72
     0
 73
     0
 74
     0
 75
     0
 76
     0
 77
     1
 78
     8
170
     0
171
     2
172
     1
173
     1
174
     0
175
     0
176
   256
177
   256
178
   201
179
     2
270
     2
271
     2
272
     4
273
     2
274
     2
340
F
275
     0
280
     0
281
     0
282
     0
283
     1
284
     8
285
     0
286
     0
287
     2
288
     0
  0
ENDTAB
  0
TABLE
  2
BLOCK_RECORD
  5
1
330
0
100
AcDbSymbolTable
 70
     1
  0
BLOCK_RECORD
  5
18
102
{ACAD_XDICTIONARY
360
6E9
102
}
330
1
100
AcDbSymbolTableRecord
100
AcDbBlockTableRecord
  2
*MODEL_SPACE
  0
BLOCK_RECORD
  5
15
102
{ACAD_XDICTIONARY
360
59B
102
}
330
1
100
AcDbSymbolTableRecord
100
AcDbBlockTableRecord
  2
*PAPER_SPACE
  0
BLOCK_RECORD
  5
42
330
1
100
AcDbSymbolTableRecord
100
AcDbBlockTableRecord
  2
_OPEN30
  0
ENDTAB
  0
ENDSEC
  0
SECTION
  2
BLOCKS
  0
BLOCK
  5
19
330
18
100
AcDbEntity
  8
0
100
AcDbBlockBegin
  2
*MODEL_SPACE
 70
     0
 10
0.0
 20
0.0
 30
0.0
  3
*MODEL_SPACE
  1

  0
ENDBLK
  5
1A
330
18
100
AcDbEntity
  8
0
100
AcDbBlockEnd
  0
BLOCK
  5
16
330
15
100
AcDbEntity
 67
     1
  8
0
100
AcDbBlockBegin
  2
*PAPER_SPACE
 70
     0
 10
0.0
 20
0.0
 30
0.0
  3
*PAPER_SPACE
  1

  0
ENDBLK
  5
17
330
15
100
AcDbEntity
 67
     1
  8
0
100
AcDbBlockEnd
  0
BLOCK
  5
43
330
42
100
AcDbEntity
  8
0
100
AcDbBlockBegin
  2
_OPEN30
 70
     0
 10
0.0
 20
0.0
 30
0.0
  3
_OPEN30
  1

  0
LINE
  5
44
330
42
100
AcDbEntity
  8
0
  6
BYBLOCK
 62
     0
100
AcDbLine
 10
-1.0
 20
0.26794919
 30
0.0
 11
0.0
 21
0.0
 31
0.0
  0
LINE
  5
45
330
42
100
AcDbEntity
  8
0
  6
BYBLOCK
 62
     0
100
AcDbLine
 10
0.0
 20
0.0
 30
0.0
 11
-1.0
 21
-0.26794919
 31
0.0
  0
LINE
  5
46
330
42
100
AcDbEntity
  8
0
  6
BYBLOCK
 62
     0
100
AcDbLine
 10
0.0
 20
0.0
 30
0.0
 11
-1.0
 21
0.0
 31
0.0
  0
ENDBLK
  5
47
330
42
100
AcDbEntity
  8
0
100
AcDbBlockEnd
  0
ENDSEC
  0
SECTION
  2
ENTITIES
  0
LINE
  5
183E2
330
18
100
AcDbEntity
  8
01
  6
BYBLOCK
100
AcDbLine
 10
2520.265585833791
 20
-2014.81931429049
 30
0.0
 11
2520.265585833792
 21
-2013.819314290491
 31
0.0
  0
LINE
  5
183E3
330
18
100
AcDbEntity
  8
01
  6
BYBLOCK
100
AcDbLine
 10
2524.765585833792
 20
-2013.819314290491
 30
0.0
 11
2524.765585833792
 21
-2012.635690810404
 31
0.0
  0
ARC
  5
183E4
330
18
100
AcDbEntity
  8
01
  6
BYBLOCK
100
AcDbCircle
 10
2523.765585833792
 20
-2013.819314290491
 30
0.0
 40
1.0
100
AcDbArc
 50
270.0
 51
0.0
  0
LINE
  5
183E5
330
18
100
AcDbEntity
  8
01
  6
BYBLOCK
100
AcDbLine
 10
2523.765585833791
 20
-2013.819314290491
 30
0.0
 11
2523.765585833791
 21
-2012.72317947393
 31
0.0
  0
LINE
  5
183E6
330
18
100
AcDbEntity
  8
1PHANTOM
100
AcDbLine
 10
2558.765585833792
 20
-2001.819314290491
 30
0.0
 11
2524.765585833792
 21
-2001.819314290491
 31
0.0
  0
LINE
  5
183E7
330
18
100
AcDbEntity
  8
1PHANTOM
100
AcDbLine
 10
2558.765585833791
 20
-2000.81931429049
 30
0.0
 11
2524.765585833792
 21
-2000.819314290491
 31
0.0
  0
ARC
  5
183E8
330
18
100
AcDbEntity
  8
01
  6
BYBLOCK
100
AcDbCircle
 10
2524.765585833791
 20
-2001.819314290491
 30
0.0
 40
1.0
100
AcDbArc
 50
90.0
 51
180.0
  0
LINE
  5
183E9
330
18
100
AcDbEntity
  8
1PHANTOM
100
AcDbLine
 10
2558.765585833792
 20
-1986.819314290491
 30
0.0
 11
2552.765585833792
 21
-1986.819314290491
 31
0.0
  0
ARC
  5
183EA
330
18
100
AcDbEntity
  8
1PHANTOM
100
AcDbCircle
 10
2558.765585833792
 20
-1987.819314290491
 30
0.0
 40
1.0
100
AcDbArc
 50
0.0
 51
90.0
  0
LINE
  5
183EB
330
18
100
AcDbEntity
  8
1PHANTOM
100
AcDbLine
 10
2558.765585833791
 20
-1987.81931429049
 30
0.0
 11
2552.765585833793
 21
-1987.819314290492
 31
0.0
  0
LINE
  5
183EC
330
18
100
AcDbEntity
  8
1PHANTOM
100
AcDbLine
 10
2558.765585833792
 20
-1869.81931429049
 30
0.0
 11
2552.765585833792
 21
-1869.81931429049
 31
0.0
  0
LINE
  5
183ED
330
18
100
AcDbEntity
  8
1PHANTOM
100
AcDbLine
 10
2558.765585833792
 20
-1868.819314290491
 30
0.0
 11
2552.765585833792
 21
-1868.819314290493
 31
0.0
  0
ARC
  5
183EE
330
18
100
AcDbEntity
  8
1PHANTOM
100
AcDbCircle
 10
2552.765585833792
 20
-1869.819314290492
 30
0.0
 40
1.0
100
AcDbArc
 50
90.0
 51
180.0
  0
LINE
  5
183EF
330
18
100
AcDbEntity
  8
01
  6
BYBLOCK
100
AcDbLine
 10
2520.265585833791
 20
-2014.81931429049
 30
0.0
 11
2523.765585833792
 21
-2014.819314290491
 31
0.0
  0
LINE
  5
183F0
330
18
100
AcDbEntity
  8
01
  6
BYBLOCK
100
AcDbLine
 10
2520.265585833792
 20
-2013.819314290491
 30
0.0
 11
2523.765585833791
 21
-2013.819314290491
 31
0.0
  0
LINE
  5
183F1
330
18
100
AcDbEntity
  8
1PHANTOM
100
AcDbLine
 10
2559.765585833792
 20
-2000.819314290491
 30
0.0
 11
2559.765585833792
 21
-1987.819314290491
 31
0.0
  0
ARC
  5
183F2
330
18
100
AcDbEntity
  8
1PHANTOM
100
AcDbCircle
 10
2558.765585833792
 20
-2000.819314290491
 30
0.0
 40
1.0
100
AcDbArc
 50
270.0
 51
0.0
  0
LINE
  5
183F3
330
18
100
AcDbEntity
  8
1PHANTOM
100
AcDbLine
 10
2558.765585833791
 20
-2000.81931429049
 30
0.0
 11
2558.765585833791
 21
-1987.81931429049
 31
0.0
  0
LINE
  5
183F4
330
18
100
AcDbEntity
  8
1PHANTOM
100
AcDbLine
 10
2559.765585833792
 20
-1868.81931429049
 30
0.0
 11
2559.765585833792
 21
-1855.819314290492
 31
0.0
  0
ARC
  5
183F5
330
18
100
AcDbEntity
  8
1PHANTOM
100
AcDbCircle
 10
2558.765585833792
 20
-1868.81931429049
 30
0.0
 40
1.0
100
AcDbArc
 50
270.0
 51
0.0
  0
LINE
  5
183F6
330
18
100
AcDbEntity
  8
1PHANTOM
100
AcDbLine
 10
2558.765585833792
 20
-1868.819314290491
 30
0.0
 11
2558.765585833792
 21
-1855.819314290491
 31
0.0
  0
LINE
  5
183F7
330
18
100
AcDbEntity
  8
1PHANTOM
100
AcDbLine
 10
2551.765585833792
 20
-1869.819314290492
 30
0.0
 11
2551.765585833792
 21
-1986.819314290491
 31
0.0
  0
ARC
  5
183F8
330
18
100
AcDbEntity
  8
1PHANTOM
100
AcDbCircle
 10
2552.765585833792
 20
-1986.819314290491
 30
0.0
 40
1.0
100
AcDbArc
 50
180.0
 51
270.000000000026
  0
LINE
  5
183F9
330
18
100
AcDbEntity
  8
1PHANTOM
100
AcDbLine
 10
2552.765585833792
 20
-1869.81931429049
 30
0.0
 11
2552.765585833792
 21
-1986.819314290491
 31
0.0
  0
LINE
  5
183FE
330
18
100
AcDbEntity
  8
1PHANTOM
100
AcDbLine
 10
2522.265585833791
 20
-1854.819314290491
 30
0.0
 11
2558.765585833792
 21
-1854.819314290492
 31
0.0
  0
ARC
  5
183FF
330
18
100
AcDbEntity
  8
1PHANTOM
100
AcDbCircle
 10
2558.765585833792
 20
-1855.819314290492
 30
0.0
 40
1.0
100
AcDbArc
 50
0.0
 51
90.0
  0
LINE
  5
18400
330
18
100
AcDbEntity
  8
1PHANTOM
100
AcDbLine
 10
2522.265585833791
 20
-1855.81931429049
 30
0.0
 11
2558.765585833792
 21
-1855.819314290491
 31
0.0
  0
LINE
  5
18401
330
18
100
AcDbEntity
  8
1PHANTOM
100
AcDbLine
 10
2554.765585833792
 20
-1971.969314290491
 30
0.0
 11
2554.765585833792
 21
-1965.669314290492
 31
0.0
  0
LINE
  5
18404
330
18
100
AcDbEntity
  8
1PHANTOM
100
AcDbLine
 10
2552.765585833792
 20
-1965.669314290492
 30
0.0
 11
2554.765585833792
 21
-1965.669314290492
 31
0.0
  0
LINE
  5
18407
330
18
100
AcDbEntity
  8
1PHANTOM
100
AcDbLine
 10
2552.765585833791
 20
-1971.96931429049
 30
0.0
 11
2554.765585833791
 21
-1971.969314290492
 31
0.0
  0
LINE
  5
18408
330
18
100
AcDbEntity
  8
1PHANTOM
100
AcDbLine
 10
2554.765585833791
 20
-1888.469314290492
 30
0.0
 11
2554.765585833792
 21
-1882.169314290492
 31
0.0
  0
LINE
  5
1840B
330
18
100
AcDbEntity
  8
1PHANTOM
100
AcDbLine
 10
2552.765585833792
 20
-1882.169314290492
 30
0.0
 11
2554.765585833792
 21
-1882.169314290492
 31
0.0
  0
LINE
  5
1840E
330
18
100
AcDbEntity
  8
1PHANTOM
100
AcDbLine
 10
2552.765585833791
 20
-1888.469314290491
 30
0.0
 11
2554.765585833791
 21
-1888.469314290492
 31
0.0
  0
LINE
  5
18410
330
18
100
AcDbEntity
  8
1PHANTOM
100
AcDbLine
 10
2522.265585833791
 20
-1854.819314290491
 30
0.0
 11
2522.265585833791
 21
-1850.069314290491
 31
0.0
  0
LINE
  5
18411
330
18
100
AcDbEntity
  8
1PHANTOM
100
AcDbLine
 10
2521.265585833791
 20
-1854.81931429049
 30
0.0
 11
2521.265585833791
 21
-1850.069314290491
 31
0.0
  0
ARC
  5
18412
330
18
100
AcDbEntity
  8
1PHANTOM
100
AcDbCircle
 10
2522.265585833791
 20
-1854.81931429049
 30
0.0
 40
1.0
100
AcDbArc
 50
180.0
 51
270.0
  0
LINE
  5
18413
330
18
100
AcDbEntity
  8
1PHANTOM
100
AcDbLine
 10
2521.265585833791
 20
-1850.069314290491
 30
0.0
 11
2522.265585833792
 21
-1850.069314290491
 31
0.0
  0
LINE
  5
18419
330
18
100
AcDbEntity
  8
1PHANTOM
100
AcDbLine
 10
2559.765585833792
 20
-2008.569767749455
 30
0.0
 11
2519.765585833792
 21
-2012.069314290491
 31
0.0
  0
LINE
  5
1841B
330
18
100
AcDbEntity
  8
01
100
AcDbLine
 10
2559.85274157654
 20
-2009.565962447545
 30
0.0
 11
2519.765585833792
 21
-2013.073134128034
 31
0.0
  0
ARC
  5
1841D
330
18
100
AcDbEntity
  8
01
100
AcDbCircle
 10
2559.765585833792
 20
-2008.569767749453
 30
0.0
 40
1.0
100
AcDbArc
 50
275.0000000000006
 51
0.0
  0
LINE
  5
1841E
330
18
100
AcDbEntity
  8
01
100
AcDbLine
 10
2562.765585833792
 20
-1996.969314290492
 30
0.0
 11
2562.765585833792
 21
-1991.669314290492
 31
0.0
  0
LINE
  5
18421
330
18
100
AcDbEntity
  8
01
  6
BYBLOCK
100
AcDbLine
 10
2560.765585833792
 20
-1991.669314290492
 30
0.0
 11
2562.765585833792
 21
-1991.669314290492
 31
0.0
  0
LINE
  5
18424
330
18
100
AcDbEntity
  8
01
  6
BYBLOCK
100
AcDbLine
 10
2560.765585833792
 20
-1996.969314290492
 30
0.0
 11
2562.765585833792
 21
-1996.969314290492
 31
0.0
  0
LINE
  5
18425
330
18
100
AcDbEntity
  8
01
  6
BYBLOCK
100
AcDbLine
 10
2559.765585833793
 20
-1846.069314290492
 30
0.0
 11
2520.765585833792
 21
-1846.069314290492
 31
0.0
  0
LINE
  5
18426
330
18
100
AcDbEntity
  8
01
  6
BYBLOCK
100
AcDbLine
 10
2559.765585833792
 20
-1845.069314290492
 30
0.0
 11
2520.765585833792
 21
-1845.069314290491
 31
0.0
  0
LINE
  5
18427
330
18
100
AcDbEntity
  8
1PHANTOM
100
AcDbLine
 10
2559.765585833792
 20
-2008.569767749455
 30
0.0
 11
2559.765585833792
 21
-1846.069314290492
 31
0.0
  0
LINE
  5
18428
330
18
100
AcDbEntity
  8
01
100
AcDbLine
 10
2562.765585833792
 20
-1864.969314290492
 30
0.0
 11
2562.765585833792
 21
-1859.669314290492
 31
0.0
  0
LINE
  5
1842A
330
18
100
AcDbEntity
  8
01
100
AcDbLine
 10
2560.765585833792
 20
-2008.569767749453
 30
0.0
 11
2560.765585833792
 21
-1846.069314290492
 31
0.0
  0
ARC
  5
1842B
330
18
100
AcDbEntity
  8
01
100
AcDbCircle
 10
2559.765585833792
 20
-1846.069314290492
 30
0.0
 40
1.0
100
AcDbArc
 50
0.0
 51
90.0
  0
LINE
  5
1842C
330
18
100
AcDbEntity
  8
1PHANTOM
100
AcDbLine
 10
2524.858642521122
 20
-2011.623729567655
 30
0.0
 11
2524.945798263869
 21
-2012.619924265747
 31
0.0
  0
LINE
  5
1842F
330
18
100
AcDbEntity
  8
01
  6
BYBLOCK
100
AcDbLine
 10
2560.765585833792
 20
-1859.669314290492
 30
0.0
 11
2562.765585833792
 21
-1859.669314290492
 31
0.0
  0
LINE
  5
18432
330
18
100
AcDbEntity
  8
01
  6
BYBLOCK
100
AcDbLine
 10
2560.765585833792
 20
-1864.969314290492
 30
0.0
 11
2562.765585833792
 21
-1864.969314290492
 31
0.0
  0
LINE
  5
18433
330
18
100
AcDbEntity
  8
01
100
AcDbLine
 10
2461.765585833792
 20
-1762.222167955986
 30
0.0
 11
2353.765585833792
 21
-1762.222167955985
 31
0.0
  0
ARC
  5
18434
330
18
100
AcDbEntity
  8
01
100
AcDbCircle
 10
2461.765585833792
 20
-1763.222167955986
 30
0.0
 40
1.0
100
AcDbArc
 50
0.0
 51
90.0
  0
LINE
  5
18435
330
18
100
AcDbEntity
  8
01
100
AcDbLine
 10
2462.765585833792
 20
-1803.222167955986
 30
0.0
 11
2458.765585833793
 21
-1803.222167955987
 31
0.0
  0
LINE
  5
18436
330
18
100
AcDbEntity
  8
01
100
AcDbLine
 10
2356.765585833792
 20
-1803.222167955986
 30
0.0
 11
2352.765585833792
 21
-1803.222167955986
 31
0.0
  0
LINE
  5
18437
330
18
100
AcDbEntity
  8
01
100
AcDbLine
 10
2462.765585833792
 20
-1802.222167955987
 30
0.0
 11
2352.765585833792
 21
-1802.222167955985
 31
0.0
  0
LINE
  5
18438
330
18
100
AcDbEntity
  8
01
100
AcDbLine
 10
2352.765585833792
 20
-1803.222167955986
 30
0.0
 11
2352.765585833792
 21
-1763.222167955985
 31
0.0
  0
LINE
  5
18439
330
18
100
AcDbEntity
  8
01
100
AcDbLine
 10
2353.765585833792
 20
-1803.222167955986
 30
0.0
 11
2353.765585833792
 21
-1763.222167955985
 31
0.0
  0
ARC
  5
1843A
330
18
100
AcDbEntity
  8
01
100
AcDbCircle
 10
2353.765585833792
 20
-1763.222167955985
 30
0.0
 40
1.0
100
AcDbArc
 50
90.0
 51
180.0
  0
LINE
  5
1843B
330
18
100
AcDbEntity
  8
01
100
AcDbLine
 10
2462.765585833792
 20
-1803.222167955986
 30
0.0
 11
2462.765585833792
 21
-1763.222167955986
 31
0.0
  0
LINE
  5
1843C
330
18
100
AcDbEntity
  8
01
100
AcDbLine
 10
2461.765585833792
 20
-1803.222167955986
 30
0.0
 11
2461.765585833792
 21
-1763.222167955986
 31
0.0
  0
LINE
  5
1843D
330
18
100
AcDbEntity
  8
01
100
AcDbLine
 10
2356.765585833792
 20
-1803.222167955986
 30
0.0
 11
2357.765585833793
 21
-1802.222167955985
 31
0.0
  0
LINE
  5
1843E
330
18
100
AcDbEntity
  8
01
100
AcDbLine
 10
2458.765585833792
 20
-1803.222167955986
 30
0.0
 11
2457.765585833792
 21
-1802.222167955986
 31
0.0
  0
LINE
  5
1843F
330
18
100
AcDbEntity
  8
01
100
AcDbLine
 10
2410.415585833792
 20
-1760.222167955985
 30
0.0
 11
2405.115585833792
 21
-1760.222167955985
 31
0.0
  0
LINE
  5
18441
330
18
100
AcDbEntity
  8
01
  6
BYBLOCK
100
AcDbLine
 10
2405.115585833792
 20
-1762.222167955986
 30
0.0
 11
2405.115585833792
 21
-1760.222167955985
 31
0.0
  0
LINE
  5
18442
330
18
100
AcDbEntity
  8
01
  6
BYBLOCK
100
AcDbLine
 10
2410.415585833792
 20
-1762.222167955985
 30
0.0
 11
2410.415585833792
 21
-1760.222167955985
 31
0.0
  0
LINE
  5
18443
330
18
100
AcDbEntity
  8
01
100
AcDbLine
 10
2519.765585833792
 20
-2010.073134128034
 30
0.0
 11
2519.765585833792
 21
-2013.073134128034
 31
0.0
  0
LINE
  5
18444
330
18
100
AcDbEntity
  8
01
100
AcDbLine
 10
2520.765585833792
 20
-1845.069314290491
 30
0.0
 11
2520.765585833792
 21
-1853.819314290489
 31
0.0
  0
LINE
  5
18445
330
18
100
AcDbEntity
  8
01
100
AcDbLine
 10
2524.765585833792
 20
-1862.81931429049
 30
0.0
 11
2524.765585833792
 21
-2005.073134128034
 31
0.0
  0
LINE
  5
18446
330
18
100
AcDbEntity
  8
01
  6
BYBLOCK
100
AcDbLine
 10
2519.765585833792
 20
-2010.073134128034
 30
0.0
 11
2524.765585833792
 21
-2005.073134128034
 31
0.0
  0
LINE
  5
18447
330
18
100
AcDbEntity
  8
01
  6
BYBLOCK
100
AcDbLine
 10
2519.765585833791
 20
-1857.819314290487
 30
0.0
 11
2524.765585833792
 21
-1862.81931429049
 31
0.0
  0
LINE
  5
18448
330
18
100
AcDbEntity
  8
01
  6
BYBLOCK
100
AcDbLine
 10
2467.765585833791
 20
-1803.222167955987
 30
0.0
 11
2347.765585833792
 21
-1803.222167955987
 31
0.0
  0
LINE
  5
18449
330
18
100
AcDbEntity
  8
01
  6
BYBLOCK
100
AcDbLine
 10
2427.265585833792
 20
-1802.222167955987
 30
0.0
 11
2388.265585833792
 21
-1802.222167955989
 31
0.0
  0
LINE
  5
1844A
330
18
100
AcDbEntity
  8
01
  6
BYBLOCK
100
AcDbLine
 10
2467.765585833791
 20
-1805.222167955987
 30
0.0
 11
2347.765585833792
 21
-1805.222167955987
 31
0.0
  0
LINE
  5
1844B
330
18
100
AcDbEntity
  8
01
  6
BYBLOCK
100
AcDbLine
 10
2467.765585833791
 20
-1803.222167955987
 30
0.0
 11
2467.765585833792
 21
-1805.222167955987
 31
0.0
  0
LINE
  5
1844C
330
18
100
AcDbEntity
  8
01
  6
BYBLOCK
100
AcDbLine
 10
2347.765585833792
 20
-1803.222167955988
 30
0.0
 11
2347.765585833792
 21
-1805.222167955988
 31
0.0
  0
LINE
  5
1844D
330
18
100
AcDbEntity
  8
01
100
AcDbLine
 10
2377.765585833792
 20
-1802.222167955986
 30
0.0
 11
2377.765585833792
 21
-1803.222167955987
 31
0.0
  0
LINE
  5
1844E
330
18
100
AcDbEntity
  8
01
100
AcDbLine
 10
2437.765585833792
 20
-1802.222167955986
 30
0.0
 11
2437.765585833792
 21
-1803.222167955987
 31
0.0
  0
LINE
  5
1844F
330
18
100
AcDbEntity
  8
01
  6
BYBLOCK
100
AcDbLine
 10
2427.265585833792
 20
-1802.222167955986
 30
0.0
 11
2427.265585833792
 21
-1803.222167955987
 31
0.0
  0
LINE
  5
18450
330
18
100
AcDbEntity
  8
01
  6
BYBLOCK
100
AcDbLine
 10
2388.265585833791
 20
-1802.222167955986
 30
0.0
 11
2388.265585833792
 21
-1803.222167955987
 31
0.0
  0
LINE
  5
18453
330
18
100
AcDbEntity
  8
1PHANTOM
100
AcDbLine
 10
2558.765585833792
 20
-1865.819314290491
 30
0.0
 11
2558.765585833792
 21
-1864.319314290491
 31
0.0
  0
LINE
  5
18455
330
18
100
AcDbEntity
  8
1PHANTOM
100
AcDbLine
 10
2558.765585833792
 20
-1865.819314290491
 30
0.0
 11
2558.165585833791
 21
-1865.819314290491
 31
0.0
  0
ARC
  5
18457
330
18
100
AcDbEntity
  8
1PHANTOM
100
AcDbCircle
 10
2558.165585833791
 20
-1863.819314290491
 30
0.0
 40
2.0
100
AcDbArc
 50
180.0
 51
270.0
  0
LINE
  5
18459
330
18
100
AcDbEntity
  8
1PHANTOM
100
AcDbLine
 10
2556.165585833791
 20
-1863.819314290491
 30
0.0
 11
2556.165585833791
 21
-1860.819314290491
 31
0.0
  0
LINE
  5
1845A
330
18
100
AcDbEntity
  8
1PHANTOM
100
AcDbLine
 10
2558.765585833792
 20
-1860.319314290491
 30
0.0
 11
2558.765585833792
 21
-1858.819314290491
 31
0.0
  0
ARC
  5
1845B
330
18
100
AcDbEntity
  8
1PHANTOM
100
AcDbCircle
 10
2558.165585833791
 20
-1860.819314290491
 30
0.0
 40
2.0
100
AcDbArc
 50
90.0
 51
180.0
  0
LINE
  5
1845C
330
18
100
AcDbEntity
  8
1PHANTOM
100
AcDbLine
 10
2558.765585833792
 20
-1858.819314290491
 30
0.0
 11
2558.165585833791
 21
-1858.819314290491
 31
0.0
  0
LINE
  5
18463
330
18
100
AcDbEntity
  8
1PHANTOM
100
AcDbLine
 10
2558.765585833791
 20
-1997.819314290491
 30
0.0
 11
2558.765585833791
 21
-1996.319314290491
 31
0.0
  0
LINE
  5
18465
330
18
100
AcDbEntity
  8
1PHANTOM
100
AcDbLine
 10
2558.765585833791
 20
-1997.819314290491
 30
0.0
 11
2558.16558583379
 21
-1997.819314290491
 31
0.0
  0
ARC
  5
18467
330
18
100
AcDbEntity
  8
1PHANTOM
100
AcDbCircle
 10
2558.16558583379
 20
-1995.819314290491
 30
0.0
 40
2.0
100
AcDbArc
 50
180.0
 51
270.0
  0
LINE
  5
18469
330
18
100
AcDbEntity
  8
1PHANTOM
100
AcDbLine
 10
2556.16558583379
 20
-1995.819314290491
 30
0.0
 11
2556.16558583379
 21
-1992.819314290491
 31
0.0
  0
LINE
  5
1846A
330
18
100
AcDbEntity
  8
1PHANTOM
100
AcDbLine
 10
2558.765585833791
 20
-1992.319314290491
 30
0.0
 11
2558.765585833791
 21
-1990.819314290491
 31
0.0
  0
ARC
  5
1846B
330
18
100
AcDbEntity
  8
1PHANTOM
100
AcDbCircle
 10
2558.16558583379
 20
-1992.819314290491
 30
0.0
 40
2.0
100
AcDbArc
 50
90.0
 51
180.0
  0
LINE
  5
1846C
330
18
100
AcDbEntity
  8
1PHANTOM
100
AcDbLine
 10
2558.765585833791
 20
-1990.819314290491
 30
0.0
 11
2558.16558583379
 21
-1990.819314290491
 31
0.0
  0
LINE
  5
18471
330
18
100
AcDbEntity
  8
01
  6
BYBLOCK
100
AcDbLine
 10
2520.765585833791
 20
-1864.569314290491
 30
0.0
 11
2520.765585833791
 21
-1858.819314290488
 31
0.0
  0
LINE
  5
18472
330
18
100
AcDbEntity
  8
01
  6
BYBLOCK
100
AcDbLine
 10
2520.765585833791
 20
-1864.569314290491
 30
0.0
 11
2519.765585833791
 21
-1864.569314290491
 31
0.0
  0
LINE
  5
18473
330
18
100
AcDbEntity
  8
1PHANTOM
100
AcDbLine
 10
2529.765585833791
 20
-2008.569314290491
 30
0.0
 11
2529.765585833791
 21
-2007.569314290491
 31
0.0
  0
LINE
  5
18474
330
18
100
AcDbEntity
  8
01
  6
BYBLOCK
100
AcDbLine
 10
2520.765585833791
 20
-2007.569314290491
 30
0.0
 11
2520.765585833791
 21
-1993.569314290491
 31
0.0
  0
LINE
  5
18475
330
18
100
AcDbEntity
  8
1PHANTOM
100
AcDbLine
 10
2525.015585833791
 20
-2008.569314290491
 30
0.0
 11
2525.015585833791
 21
-2007.569314290491
 31
0.0
  0
LINE
  5
18476
330
18
100
AcDbEntity
  8
01
100
AcDbLine
 10
2519.765585833791
 20
-2008.569314290491
 30
0.0
 11
2521.269405671335
 21
-2008.569314290491
 31
0.0
  0
LINE
  5
18477
330
18
100
AcDbEntity
  8
1PHANTOM
100
AcDbLine
 10
2524.765585833792
 20
-2008.569314290491
 30
0.0
 11
2529.765585833791
 21
-2008.569314290491
 31
0.0
  0
LINE
  5
18478
330
18
100
AcDbEntity
  8
1PHANTOM
100
AcDbLine
 10
2519.765585833791
 20
-2006.569314290491
 30
0.0
 11
2520.765585833791
 21
-2006.569314290491
 31
0.0
  0
LINE
  5
18479
330
18
100
AcDbEntity
  8
01
100
AcDbLine
 10
2520.765585833791
 20
-2007.569314290491
 30
0.0
 11
2522.269405671335
 21
-2007.569314290491
 31
0.0
  0
LINE
  5
1847A
330
18
100
AcDbEntity
  8
1PHANTOM
100
AcDbLine
 10
2524.765585833792
 20
-2007.569314290491
 30
0.0
 11
2529.765585833791
 21
-2007.569314290491
 31
0.0
  0
LINE
  5
1847B
330
18
100
AcDbEntity
  8
01
100
AcDbLine
 10
2519.765585833791
 20
-1993.569314290492
 30
0.0
 11
2520.765585833791
 21
-1993.569314290491
 31
0.0
  0
LINE
  5
1847C
330
18
100
AcDbEntity
  8
01
100
AcDbLine
 10
2519.765585833791
 20
-2000.8358355368
 30
0.0
 11
2519.765585833791
 21
-1850.655271269433
 31
0.0
  0
LINE
  5
1847E
330
18
100
AcDbEntity
  8
01
  6
BYBLOCK
100
AcDbLine
 10
2519.765585833791
 20
-2014.569314290491
 30
0.0
 11
2519.765585833791
 21
-1839.069314290491
 31
0.0
  0
LINE
  5
1847F
330
18
100
AcDbEntity
  8
1PHANTOM
100
AcDbLine
 10
2529.765585833791
 20
-1853.069314290491
 30
0.0
 11
2529.765585833791
 21
-1852.069314290491
 31
0.0
  0
LINE
  5
18480
330
18
100
AcDbEntity
  8
01
  6
BYBLOCK
100
AcDbLine
 10
2517.765585833791
 20
-2014.569314290491
 30
0.0
 11
2517.765585833791
 21
-1839.069314290491
 31
0.0
  0
LINE
  5
18481
330
18
100
AcDbEntity
  8
01
  6
BYBLOCK
100
AcDbLine
 10
2519.765585833791
 20
-1839.069314290491
 30
0.0
 11
2517.765585833791
 21
-1839.069314290491
 31
0.0
  0
LINE
  5
18482
330
18
100
AcDbEntity
  8
01
  6
BYBLOCK
100
AcDbLine
 10
2519.765585833791
 20
-2014.569314290491
 30
0.0
 11
2517.765585833791
 21
-2014.569314290491
 31
0.0
  0
LINE
  5
18483
330
18
100
AcDbEntity
  8
1PHANTOM
100
AcDbLine
 10
2529.765585833791
 20
-1853.069314290491
 30
0.0
 11
2522.265585833791
 21
-1853.069314290491
 31
0.0
  0
LINE
  5
18484
330
18
100
AcDbEntity
  8
1PHANTOM
100
AcDbLine
 10
2521.265585833791
 20
-1853.069314290491
 30
0.0
 11
2520.765585833791
 21
-1853.069314290491
 31
0.0
  0
LINE
  5
18485
330
18
100
AcDbEntity
  8
1PHANTOM
100
AcDbLine
 10
2529.765585833791
 20
-1852.069314290491
 30
0.0
 11
2522.265585833792
 21
-1852.069314290491
 31
0.0
  0
LINE
  5
18486
330
18
100
AcDbEntity
  8
1PHANTOM
100
AcDbLine
 10
2521.265585833791
 20
-1852.069314290491
 30
0.0
 11
2520.765585833792
 21
-1852.069314290491
 31
0.0
  0
LINE
  5
18487
330
18
100
AcDbEntity
  8
1PHANTOM
100
AcDbLine
 10
2520.765585833791
 20
-1857.069314290491
 30
0.0
 11
2519.765585833791
 21
-1857.069314290491
 31
0.0
  0
LINE
  5
18488
330
18
100
AcDbEntity
  8
01
  6
BYBLOCK
100
AcDbLine
 10
2466.765585833791
 20
-2014.56931429049
 30
0.0
 11
2348.765585833791
 21
-2014.569314290491
 31
0.0
  0
ARC
  5
18489
330
18
100
AcDbEntity
  8
01
  6
BYBLOCK
100
AcDbCircle
 10
2466.765585833791
 20
-2013.56931429049
 30
0.0
 40
1.0
100
AcDbArc
 50
270.0
 51
0.0
  0
LINE
  5
1848A
330
18
100
AcDbEntity
  8
01
  6
BYBLOCK
100
AcDbLine
 10
2466.765585833791
 20
-1839.06931429049
 30
0.0
 11
2348.765585833792
 21
-1839.069314290491
 31
0.0
  0
ARC
  5
1848B
330
18
100
AcDbEntity
  8
01
  6
BYBLOCK
100
AcDbCircle
 10
2348.765585833792
 20
-1840.069314290491
 30
0.0
 40
1.0
100
AcDbArc
 50
90.0
 51
180.0
  0
LINE
  5
1848C
330
18
100
AcDbEntity
  8
01
  6
BYBLOCK
100
AcDbLine
 10
2467.765585833791
 20
-1840.06931429049
 30
0.0
 11
2467.765585833791
 21
-2013.56931429049
 31
0.0
  0
ARC
  5
1848D
330
18
100
AcDbEntity
  8
01
  6
BYBLOCK
100
AcDbCircle
 10
2466.765585833791
 20
-1840.06931429049
 30
0.0
 40
1.0
100
AcDbArc
 50
0.0
 51
90.0
  0
LINE
  5
1848E
330
18
100
AcDbEntity
  8
01
  6
BYBLOCK
100
AcDbLine
 10
2347.765585833792
 20
-1840.069314290491
 30
0.0
 11
2347.76558583379
 21
-2013.569314290491
 31
0.0
  0
ARC
  5
1848F
330
18
100
AcDbEntity
  8
01
  6
BYBLOCK
100
AcDbCircle
 10
2348.765585833791
 20
-2013.569314290491
 30
0.0
 40
1.0
100
AcDbArc
 50
180.0
 51
270.0
  0
LINE
  5
18635
330
18
100
AcDbEntity
  8
01
100
AcDbLine
 10
2520.765585833792
 20
-1853.819314290489
 30
0.0
 11
2519.765585833792
 21
-1854.819314290489
 31
0.0
  0
LINE
  5
187F6
330
18
100
AcDbEntity
  8
1PHANTOM
100
AcDbLine
 10
2520.765585833792
 20
-1853.819314290489
 30
0.0
 11
2520.765585833791
 21
-1858.819314290487
 31
0.0
  0
LINE
  5
187FC
330
18
100
AcDbEntity
  8
01
100
AcDbLine
 10
2520.765585833792
 20
-1852.069314290491
 30
0.0
 11
2519.765585833791
 21
-1852.069314290491
 31
0.0
  0
LINE
  5
187FE
330
18
100
AcDbEntity
  8
1PHANTOM
100
AcDbLine
 10
2522.269405671335
 20
-2007.569314290491
 30
0.0
 11
2523.765585833791
 21
-2007.569314290491
 31
0.0
  0
LINE
  5
187FF
330
18
100
AcDbEntity
  8
1PHANTOM
100
AcDbLine
 10
2521.269405671335
 20
-2008.569314290491
 30
0.0
 11
2523.765585833791
 21
-2008.569314290491
 31
0.0
  0
LINE
  5
18800
330
18
100
AcDbEntity
  8
1PHANTOM
100
AcDbLine
 10
2524.765585833793
 20
-2012.635690810404
 30
0.0
 11
2524.765585833791
 21
-2005.073134128034
 31
0.0
  0
LINE
  5
18801
330
18
100
AcDbEntity
  8
1PHANTOM
100
AcDbLine
 10
2523.765585833791
 20
-2012.72317947393
 30
0.0
 11
2523.765585833792
 21
-2006.073134128035
 31
0.0
  0
LINE
  5
18802
330
18
100
AcDbEntity
  8
01
100
AcDbLine
 10
2523.765585833792
 20
-2006.073134128034
 30
0.0
 11
2523.765585833792
 21
-2001.819314290491
 31
0.0
  0
LINE
  5
18803
330
18
100
AcDbEntity
  8
01
100
AcDbLine
 10
2524.765585833792
 20
-2023.385983004227
 30
0.0
 11
2524.765585833791
 21
-1814.771102592392
 31
0.0
  0
LINE
  5
18804
330
18
100
AcDbEntity
  8
01
100
AcDbLine
 10
2564.765585833792
 20
-2023.385983004227
 30
0.0
 11
2564.765585833791
 21
-1814.771102592392
 31
0.0
  0
LINE
  5
188C6
330
18
100
AcDbEntity
  8
01
  6
BYBLOCK
100
AcDbLine
 10
2356.765585833791
 20
-1798.222167955987
 30
0.0
 11
2353.765585833792
 21
-1798.222167955987
 31
0.0
  0
LINE
  5
188C7
330
18
100
AcDbEntity
  8
01
  6
BYBLOCK
100
AcDbLine
 10
2356.765585833792
 20
-1799.222167955987
 30
0.0
 11
2353.765585833792
 21
-1799.222167955987
 31
0.0
  0
LINE
  5
188C8
330
18
100
AcDbEntity
  8
01
100
AcDbLine
 10
2356.765585833792
 20
-1799.222167955987
 30
0.0
 11
2356.765585833791
 21
-1798.222167955987
 31
0.0
  0
LINE
  5
188D0
330
18
100
AcDbEntity
  8
01
100
AcDbLine
 10
2458.765585833793
 20
-1799.222167955987
 30
0.0
 11
2458.765585833793
 21
-1798.222167955987
 31
0.0
  0
LINE
  5
188D1
330
18
100
AcDbEntity
  8
01
  6
BYBLOCK
100
AcDbLine
 10
2458.765585833793
 20
-1798.222167955987
 30
0.0
 11
2461.765585833793
 21
-1798.222167955987
 31
0.0
  0
LINE
  5
188D2
330
18
100
AcDbEntity
  8
01
  6
BYBLOCK
100
AcDbLine
 10
2458.765585833793
 20
-1799.222167955987
 30
0.0
 11
2461.765585833793
 21
-1799.222167955987
 31
0.0
  0
LINE
  5
18958
330
18
100
AcDbEntity
  8
1DIM
100
AcDbLine
 10
2511.46820318872
 20
-1774.227522720244
 30
0.0
 11
2616.468203188721
 21
-1774.227522720244
 31
0.0
  0
LINE
  5
18959
330
18
100
AcDbEntity
  8
1DIM
100
AcDbLine
 10
2511.46820318872
 20
-1767.227522720244
 30
0.0
 11
2616.468203188721
 21
-1767.227522720244
 31
0.0
  0
TEXT
  5
1895A
330
18
100
AcDbEntity
  8
1TEXT
100
AcDbText
 10
2557.001536522053
 20
-1772.727522720245
 30
0.0
 40
4.0
  1
コード
 72
     1
 11
2563.86820318872
 21
-1772.727522720245
 31
0.0
100
AcDbText
  0
TEXT
  5
1895B
330
18
100
AcDbEntity
  8
1TEXT
100
AcDbText
 10
2520.52820318872
 20
-1772.727522720245
 30
0.0
 40
4.0
  1
表面処理
 41
0.9
 72
     1
 11
2528.86820318872
 21
-1772.727522720245
 31
0.0
100
AcDbText
  0
LINE
  5
1895C
330
18
100
AcDbEntity
  8
1DIM
100
AcDbLine
 10
2511.46820318872
 20
-1781.227522720245
 30
0.0
 11
2581.468203188721
 21
-1781.227522720245
 31
0.0
  0
LINE
  5
1895D
330
18
100
AcDbEntity
  8
1DIM
100
AcDbLine
 10
2511.46820318872
 20
-1767.227522720245
 30
0.0
 11
2511.468203188719
 21
-1802.227522720245
 31
0.0
  0
LINE
  5
1895E
330
18
100
AcDbEntity
  8
1DIM
100
AcDbLine
 10
2546.46820318872
 20
-1767.227522720244
 30
0.0
 11
2546.468203188718
 21
-1802.227522720245
 31
0.0
  0
LINE
  5
1895F
330
18
100
AcDbEntity
  8
1DIM
100
AcDbLine
 10
2581.468203188721
 20
-1767.227522720244
 30
0.0
 11
2581.468203188719
 21
-1802.227522720245
 31
0.0
  0
TEXT
  5
18960
330
18
100
AcDbEntity
  8
1TEXT
100
AcDbText
 10
2510.26691370566
 20
-1762.936393494153
 30
0.0
 40
8.0
  1
GP-092-X-74
100
AcDbText
  0
LINE
  5
18961
330
18
100
AcDbEntity
  8
1DIM
100
AcDbLine
 10
2511.46820318872
 20
-1788.227522720245
 30
0.0
 11
2581.46820318872
 21
-1788.227522720245
 31
0.0
  0
TEXT
  5
18962
330
18
100
AcDbEntity
  8
1TEXT
100
AcDbText
 10
2512.12820318872
 20
-1779.941879703894
 30
0.0
 40
4.0
  1
ブラストブラック
 41
0.9
 72
     1
 11
2528.86820318872
 21
-1779.941879703894
 31
0.0
100
AcDbText
  0
TEXT
  5
18963
330
18
100
AcDbEntity
  8
1TEXT
100
AcDbText
 10
2546.853388373906
 20
-1779.941879703894
 30
0.0
 40
4.0
  1
GP092XK74
 72
     1
 11
2563.86820318872
 21
-1779.941879703894
 31
0.0
100
AcDbText
  0
TEXT
  5
18965
330
18
100
AcDbEntity
  8
1TEXT
100
AcDbText
 10
2546.853388373906
 20
-1786.941879703894
 30
0.0
 40
4.0
  1
GP092XS74
 72
     1
 11
2563.868203188721
 21
-1786.941879703894
 31
0.0
100
AcDbText
  0
TEXT
  5
18966
330
18
100
AcDbEntity
  8
1TEXT
100
AcDbText
 10
2589.601536522054
 20
-1772.727522720244
 30
0.0
 40
4.0
  1
対応子機
 72
     1
 11
2598.868203188721
 21
-1772.727522720244
 31
0.0
100
AcDbText
  0
TEXT
  5
18967
330
18
100
AcDbEntity
  8
1TEXT
100
AcDbText
 10
2590.334869855388
 20
-1786.941879703894
 30
0.0
 40
4.0
  1
JS-12E
 41
0.8
 72
     1
 11
2598.868203188721
 21
-1786.941879703894
 31
0.0
100
AcDbText
  0
TEXT
  5
18968
330
18
100
AcDbEntity
  8
1TEXT
100
AcDbText
 10
2589.668203188722
 20
-1779.941879703894
 30
0.0
 40
4.0
  1
アイホン
 72
     1
 11
2598.868203188722
 21
-1779.941879703894
 31
0.0
100
AcDbText
  0
LINE
  5
1896A
330
18
100
AcDbEntity
  8
1DIM
100
AcDbLine
 10
2616.468203188721
 20
-1767.227522720244
 30
0.0
 11
2616.46820318872
 21
-1802.227522720245
 31
0.0
  0
LINE
  5
1896D
330
18
100
AcDbEntity
  8
1DIM
100
AcDbLine
 10
2511.46820318872
 20
-1795.227522720245
 30
0.0
 11
2581.46820318872
 21
-1795.227522720245
 31
0.0
  0
TEXT
  5
1896E
330
18
100
AcDbEntity
  8
1TEXT
100
AcDbText
 10
2512.098203188721
 20
-1793.941879703894
 30
0.0
 40
4.0
  1
ブラストダークアンバー
 41
0.65
 72
     1
 11
2528.868203188721
 21
-1793.941879703894
 31
0.0
100
AcDbText
  0
TEXT
  5
1896F
330
18
100
AcDbEntity
  8
1TEXT
100
AcDbText
 10
2546.853388373906
 20
-1793.941879703894
 30
0.0
 40
4.0
  1
GP0924Q74
 72
     1
 11
2563.868203188721
 21
-1793.941879703894
 31
0.0
100
AcDbText
  0
TEXT
  5
18970
330
18
100
AcDbEntity
  8
1TEXT
100
AcDbText
 10
2512.12820318872
 20
-1786.941879703894
 30
0.0
 40
4.0
  1
ブラストシルバー
 41
0.9
 72
     1
 11
2528.86820318872
 21
-1786.941879703894
 31
0.0
100
AcDbText
  0
LINE
  5
18C59
330
18
100
AcDbEntity
  8
1PHANTOM
100
AcDbLine
 10
2467.765585833791
 20
-2012.635690810405
 30
0.0
 11
2347.76558583379
 21
-2012.635690810405
 31
0.0
  0
LINE
  5
18C5A
330
18
100
AcDbEntity
  8
1PHANTOM
100
AcDbLine
 10
2467.765585833791
 20
-1845.069314290492
 30
0.0
 11
2347.765585833792
 21
-1845.069314290491
 31
0.0
  0
LINE
  5
18C5B
330
18
100
AcDbEntity
  8
1PHANTOM
100
AcDbLine
 10
2352.765585833792
 20
-1845.069314290491
 30
0.0
 11
2352.765585833792
 21
-2012.635690810404
 31
0.0
  0
LINE
  5
18C5C
330
18
100
AcDbEntity
  8
1PHANTOM
100
AcDbLine
 10
2462.765585833792
 20
-1845.069314290491
 30
0.0
 11
2462.765585833792
 21
-2012.635690810404
 31
0.0
  0
LINE
  5
18E6C
330
18
100
AcDbEntity
  8
1DIM
100
AcDbLine
 10
2581.468203188719
 20
-1802.227522720245
 30
0.0
 11
2616.46820318872
 21
-1802.227522720245
 31
0.0
  0
LINE
  5
18E6D
330
18
100
AcDbEntity
  8
1DIM
100
AcDbLine
 10
2511.468203188719
 20
-1802.227522720245
 30
0.0
 11
2581.46820318872
 21
-1802.227522720245
 31
0.0
  0
TEXT
  5
18E6E
330
18
100
AcDbEntity
  8
1TEXT
100
AcDbText
 10
2518.48820318872
 20
-1800.941879703894
 30
0.0
 40
4.0
  1
ヘアライン
 41
0.9
 72
     1
 11
2528.86820318872
 21
-1800.941879703894
 31
0.0
100
AcDbText
  0
TEXT
  5
18E6F
330
18
100
AcDbEntity
  8
1TEXT
100
AcDbText
 10
2546.853388373905
 20
-1800.941879703894
 30
0.0
 40
4.0
  1
GP092XT74
 72
     1
 11
2563.86820318872
 21
-1800.941879703894
 31
0.0
100
AcDbText
  0
CIRCLE
  5
18FB5
330
18
100
AcDbEntity
  8
01
100
AcDbCircle
 10
2554.765585833791
 20
-1875.069314290491
 30
0.0
 40
2.0
  0
CIRCLE
  5
18FB6
330
18
100
AcDbEntity
  8
1DIM
100
AcDbCircle
 10
2554.765585833791
 20
-1875.069314290491
 30
0.0
 40
1.649999999999636
  0
CIRCLE
  5
18FB7
330
18
100
AcDbEntity
  8
01
100
AcDbCircle
 10
2554.765585833791
 20
-1985.069314290491
 30
0.0
 40
2.0
  0
CIRCLE
  5
18FB8
330
18
100
AcDbEntity
  8
1DIM
100
AcDbCircle
 10
2554.765585833791
 20
-1985.069314290491
 30
0.0
 40
1.649999999999636
  0
LINE
  5
19B3A
330
18
100
AcDbEntity
  8
1PHANTOM
100
AcDbLine
 10
2370.265585833791
 20
-1945.071224209264
 30
0.0
 11
2370.265585833791
 21
-1943.071224209263
 31
0.0
  0
LINE
  5
19B3B
330
18
100
AcDbEntity
  8
1PHANTOM
100
AcDbLine
 10
2370.265585833791
 20
-1915.071224209262
 30
0.0
 11
2370.265585833791
 21
-1913.071224209263
 31
0.0
  0
LINE
  5
19B3C
330
18
100
AcDbEntity
  8
1PHANTOM
100
AcDbLine
 10
2372.26558583379
 20
-1945.071224209263
 30
0.0
 11
2372.26558583379
 21
-1943.071224209263
 31
0.0
  0
LINE
  5
19B3D
330
18
100
AcDbEntity
  8
1PHANTOM
100
AcDbLine
 10
2372.265585833791
 20
-1915.071224209262
 30
0.0
 11
2372.26558583379
 21
-1913.071224209263
 31
0.0
  0
LINE
  5
19B3E
330
18
100
AcDbEntity
  8
1PHANTOM
100
AcDbLine
 10
2358.26558583379
 20
-1945.071224209263
 30
0.0
 11
2358.265585833792
 21
-1913.071224209262
 31
0.0
  0
LINE
  5
19B3F
330
18
100
AcDbEntity
  8
1PHANTOM
100
AcDbLine
 10
2360.26558583379
 20
-1943.071224209263
 30
0.0
 11
2360.265585833791
 21
-1915.071224209262
 31
0.0
  0
LINE
  5
19B40
330
18
100
AcDbEntity
  8
1PHANTOM
100
AcDbLine
 10
2384.26558583379
 20
-1945.071224209263
 30
0.0
 11
2384.265585833791
 21
-1913.071224209262
 31
0.0
  0
LINE
  5
19B41
330
18
100
AcDbEntity
  8
1PHANTOM
100
AcDbLine
 10
2382.26558583379
 20
-1943.071224209263
 30
0.0
 11
2382.265585833789
 21
-1915.071224209262
 31
0.0
  0
LINE
  5
19B42
330
18
100
AcDbEntity
  8
1PHANTOM
100
AcDbLine
 10
2358.26558583379
 20
-1945.071224209263
 30
0.0
 11
2370.265585833791
 21
-1945.071224209264
 31
0.0
  0
LINE
  5
19B43
330
18
100
AcDbEntity
  8
1PHANTOM
100
AcDbLine
 10
2372.26558583379
 20
-1945.071224209263
 30
0.0
 11
2384.26558583379
 21
-1945.071224209263
 31
0.0
  0
LINE
  5
19B44
330
18
100
AcDbEntity
  8
1PHANTOM
100
AcDbLine
 10
2360.26558583379
 20
-1943.071224209263
 30
0.0
 11
2370.265585833791
 21
-1943.071224209263
 31
0.0
  0
LINE
  5
19B45
330
18
100
AcDbEntity
  8
1PHANTOM
100
AcDbLine
 10
2372.26558583379
 20
-1943.071224209263
 30
0.0
 11
2382.26558583379
 21
-1943.071224209263
 31
0.0
  0
LINE
  5
19B46
330
18
100
AcDbEntity
  8
1PHANTOM
100
AcDbLine
 10
2358.265585833792
 20
-1913.071224209262
 30
0.0
 11
2370.265585833791
 21
-1913.071224209262
 31
0.0
  0
LINE
  5
19B47
330
18
100
AcDbEntity
  8
1PHANTOM
100
AcDbLine
 10
2372.26558583379
 20
-1913.071224209262
 30
0.0
 11
2384.26558583379
 21
-1913.071224209262
 31
0.0
  0
LINE
  5
19B48
330
18
100
AcDbEntity
  8
1PHANTOM
100
AcDbLine
 10
2360.265585833791
 20
-1915.071224209262
 30
0.0
 11
2370.26558583379
 21
-1915.071224209262
 31
0.0
  0
LINE
  5
19B49
330
18
100
AcDbEntity
  8
1PHANTOM
100
AcDbLine
 10
2372.26558583379
 20
-1915.071224209262
 30
0.0
 11
2382.265585833789
 21
-1915.071224209262
 31
0.0
  0
LINE
  5
19B4A
330
18
100
AcDbEntity
  8
1CENTER
100
AcDbLine
 10
2355.769746785124
 20
-1929.071224209262
 30
0.0
 11
2386.761424882457
 21
-1929.071224209262
 31
0.0
  0
LINE
  5
19B4B
330
18
100
AcDbEntity
  8
1CENTER
100
AcDbLine
 10
2371.26558583379
 20
-1909.67330468503
 30
0.0
 11
2371.26558583379
 21
-1948.469143733495
 31
0.0
  0
LINE
  5
19B4C
330
18
100
AcDbEntity
  8
1CENTER
100
AcDbLine
 10
2428.769746785125
 20
-1929.071224209262
 30
0.0
 11
2459.761424882458
 21
-1929.071224209262
 31
0.0
  0
LINE
  5
19B4D
330
18
100
AcDbEntity
  8
1CENTER
100
AcDbLine
 10
2444.265585833791
 20
-1909.67330468503
 30
0.0
 11
2444.265585833791
 21
-1948.469143733495
 31
0.0
  0
LINE
  5
19B4E
330
18
100
AcDbEntity
  8
1PHANTOM
100
AcDbLine
 10
2443.265585833792
 20
-1945.071224209264
 30
0.0
 11
2443.265585833792
 21
-1943.071224209263
 31
0.0
  0
LINE
  5
19B4F
330
18
100
AcDbEntity
  8
1PHANTOM
100
AcDbLine
 10
2443.265585833792
 20
-1915.071224209262
 30
0.0
 11
2443.265585833792
 21
-1913.071224209263
 31
0.0
  0
LINE
  5
19B50
330
18
100
AcDbEntity
  8
1PHANTOM
100
AcDbLine
 10
2445.265585833791
 20
-1945.071224209263
 30
0.0
 11
2445.265585833791
 21
-1943.071224209263
 31
0.0
  0
LINE
  5
19B51
330
18
100
AcDbEntity
  8
1PHANTOM
100
AcDbLine
 10
2445.265585833792
 20
-1915.071224209262
 30
0.0
 11
2445.265585833791
 21
-1913.071224209263
 31
0.0
  0
LINE
  5
19B52
330
18
100
AcDbEntity
  8
1PHANTOM
100
AcDbLine
 10
2431.265585833791
 20
-1945.071224209263
 30
0.0
 11
2431.265585833793
 21
-1913.071224209262
 31
0.0
  0
LINE
  5
19B53
330
18
100
AcDbEntity
  8
1PHANTOM
100
AcDbLine
 10
2433.265585833791
 20
-1943.071224209263
 30
0.0
 11
2433.265585833793
 21
-1915.071224209262
 31
0.0
  0
LINE
  5
19B54
330
18
100
AcDbEntity
  8
1PHANTOM
100
AcDbLine
 10
2457.265585833791
 20
-1945.071224209263
 30
0.0
 11
2457.265585833792
 21
-1913.071224209262
 31
0.0
  0
LINE
  5
19B55
330
18
100
AcDbEntity
  8
1PHANTOM
100
AcDbLine
 10
2455.265585833791
 20
-1943.071224209263
 30
0.0
 11
2455.26558583379
 21
-1915.071224209262
 31
0.0
  0
LINE
  5
19B56
330
18
100
AcDbEntity
  8
1PHANTOM
100
AcDbLine
 10
2431.265585833791
 20
-1945.071224209263
 30
0.0
 11
2443.265585833792
 21
-1945.071224209264
 31
0.0
  0
LINE
  5
19B57
330
18
100
AcDbEntity
  8
1PHANTOM
100
AcDbLine
 10
2445.265585833791
 20
-1945.071224209263
 30
0.0
 11
2457.265585833791
 21
-1945.071224209263
 31
0.0
  0
LINE
  5
19B58
330
18
100
AcDbEntity
  8
1PHANTOM
100
AcDbLine
 10
2433.265585833791
 20
-1943.071224209263
 30
0.0
 11
2443.265585833792
 21
-1943.071224209263
 31
0.0
  0
LINE
  5
19B59
330
18
100
AcDbEntity
  8
1PHANTOM
100
AcDbLine
 10
2445.265585833791
 20
-1943.071224209263
 30
0.0
 11
2455.265585833791
 21
-1943.071224209263
 31
0.0
  0
LINE
  5
19B5A
330
18
100
AcDbEntity
  8
1PHANTOM
100
AcDbLine
 10
2431.265585833793
 20
-1913.071224209262
 30
0.0
 11
2443.265585833792
 21
-1913.071224209262
 31
0.0
  0
LINE
  5
19B5B
330
18
100
AcDbEntity
  8
1PHANTOM
100
AcDbLine
 10
2445.265585833791
 20
-1913.071224209262
 30
0.0
 11
2457.265585833791
 21
-1913.071224209262
 31
0.0
  0
LINE
  5
19B5C
330
18
100
AcDbEntity
  8
1PHANTOM
100
AcDbLine
 10
2433.265585833792
 20
-1915.071224209262
 30
0.0
 11
2443.265585833791
 21
-1915.071224209262
 31
0.0
  0
LINE
  5
19B5D
330
18
100
AcDbEntity
  8
1PHANTOM
100
AcDbLine
 10
2445.265585833791
 20
-1915.071224209262
 30
0.0
 11
2455.26558583379
 21
-1915.071224209262
 31
0.0
  0
LINE
  5
19D3E
330
18
100
AcDbEntity
  8
1DIM
100
AcDbLine
 10
2407.765585833791
 20
-1926.819314290491
 30
0.0
 11
2337.42304237645
 21
-1926.819314290491
 31
0.0
  0
LINE
  5
19D3F
330
18
100
AcDbEntity
  8
1DIM
100
AcDbLine
 10
2338.42304237645
 20
-1928.819314290491
 30
0.0
 11
2338.42304237645
 21
-2057.200096226764
 31
0.0
  0
LINE
  5
1A8A9
102
{ACAD_REACTORS
330
1A976
102
}
330
18
100
AcDbEntity
  8
01
100
AcDbLine
 10
2431.015585833791
 20
-1920.819314290491
 30
0.0
 11
2384.515585833791
 21
-1920.819314290491
 31
0.0
  0
LINE
  5
1A8AA
102
{ACAD_REACTORS
330
1A976
102
}
330
18
100
AcDbEntity
  8
01
100
AcDbLine
 10
2431.015585833791
 20
-1874.819314290491
 30
0.0
 11
2384.515585833791
 21
-1874.819314290491
 31
0.0
  0
LINE
  5
1A8AB
102
{ACAD_REACTORS
330
1A976
102
}
330
18
100
AcDbEntity
  8
01
100
AcDbLine
 10
2382.515585833791
 20
-1876.819314290491
 30
0.0
 11
2382.515585833791
 21
-1918.819314290491
 31
0.0
  0
LINE
  5
1A8AC
102
{ACAD_REACTORS
330
1A976
102
}
330
18
100
AcDbEntity
  8
01
100
AcDbLine
 10
2433.015585833791
 20
-1876.819314290491
 30
0.0
 11
2433.015585833791
 21
-1918.819314290491
 31
0.0
  0
ARC
  5
1A8AD
102
{ACAD_REACTORS
330
1A976
102
}
330
18
100
AcDbEntity
  8
01
100
AcDbCircle
 10
2384.515585833791
 20
-1876.819314290491
 30
0.0
 40
2.0
100
AcDbArc
 50
90.0
 51
180.0
  0
ARC
  5
1A8AE
102
{ACAD_REACTORS
330
1A976
102
}
330
18
100
AcDbEntity
  8
01
100
AcDbCircle
 10
2431.015585833791
 20
-1876.819314290491
 30
0.0
 40
2.0
100
AcDbArc
 50
0.0
 51
90.0
  0
ARC
  5
1A8AF
102
{ACAD_REACTORS
330
1A976
102
}
330
18
100
AcDbEntity
  8
01
100
AcDbCircle
 10
2431.015585833791
 20
-1918.819314290491
 30
0.0
 40
2.0
100
AcDbArc
 50
270.0
 51
0.0
  0
ARC
  5
1A8B0
102
{ACAD_REACTORS
330
1A976
102
}
330
18
100
AcDbEntity
  8
01
100
AcDbCircle
 10
2384.515585833791
 20
-1918.819314290491
 30
0.0
 40
2.0
100
AcDbArc
 50
180.0
 51
270.0
  0
LINE
  5
1A8B1
102
{ACAD_REACTORS
330
1A976
102
}
330
18
100
AcDbEntity
  8
01
100
AcDbLine
 10
2409.065585833791
 20
-1929.119314290491
 30
0.0
 11
2406.465585833791
 21
-1929.119314290491
 31
0.0
  0
LINE
  5
1A8B2
102
{ACAD_REACTORS
330
1A976
102
}
330
18
100
AcDbEntity
  8
01
100
AcDbLine
 10
2409.065585833791
 20
-1952.119314290491
 30
0.0
 11
2406.465585833791
 21
-1952.119314290491
 31
0.0
  0
LINE
  5
1A8B3
102
{ACAD_REACTORS
330
1A976
102
}
330
18
100
AcDbEntity
  8
01
100
AcDbLine
 10
2409.065585833791
 20
-1929.119314290491
 30
0.0
 11
2409.065585833791
 21
-1952.119314290491
 31
0.0
  0
LINE
  5
1A8B4
102
{ACAD_REACTORS
330
1A976
102
}
330
18
100
AcDbEntity
  8
01
100
AcDbLine
 10
2406.465585833791
 20
-1929.119314290491
 30
0.0
 11
2406.465585833791
 21
-1952.119314290491
 31
0.0
  0
LINE
  5
1A8B5
102
{ACAD_REACTORS
330
1A976
102
}
330
18
100
AcDbEntity
  8
01
100
AcDbLine
 10
2439.765585833791
 20
-1897.319314290491
 30
0.0
 11
2436.765585833791
 21
-1897.319314290491
 31
0.0
  0
LINE
  5
1A8B6
102
{ACAD_REACTORS
330
1A976
102
}
330
18
100
AcDbEntity
  8
01
100
AcDbLine
 10
2439.765585833791
 20
-1880.319314290491
 30
0.0
 11
2436.765585833791
 21
-1880.319314290491
 31
0.0
  0
LINE
  5
1A8B7
102
{ACAD_REACTORS
330
1A976
102
}
330
18
100
AcDbEntity
  8
01
100
AcDbLine
 10
2436.765585833791
 20
-1880.319314290491
 30
0.0
 11
2436.765585833791
 21
-1897.319314290491
 31
0.0
  0
LINE
  5
1A8B8
102
{ACAD_REACTORS
330
1A976
102
}
330
18
100
AcDbEntity
  8
01
100
AcDbLine
 10
2439.765585833791
 20
-1880.319314290491
 30
0.0
 11
2439.765585833791
 21
-1897.319314290491
 31
0.0
  0
LINE
  5
1A8B9
102
{ACAD_REACTORS
330
1A976
102
}
330
18
100
AcDbEntity
  8
01
100
AcDbLine
 10
2382.515585833791
 20
-1959.61931429049
 30
0.0
 11
2382.515585833791
 21
-1975.11931429049
 31
0.0
  0
LINE
  5
1A8BA
102
{ACAD_REACTORS
330
1A976
102
}
330
18
100
AcDbEntity
  8
01
100
AcDbLine
 10
2433.015585833791
 20
-1959.619314290491
 30
0.0
 11
2433.015585833791
 21
-1975.119314290491
 31
0.0
  0
LINE
  5
1A8BB
102
{ACAD_REACTORS
330
1A976
102
}
330
18
100
AcDbEntity
  8
01
100
AcDbLine
 10
2431.015585833791
 20
-1957.619314290491
 30
0.0
 11
2384.515585833791
 21
-1957.61931429049
 31
0.0
  0
LINE
  5
1A8BC
102
{ACAD_REACTORS
330
1A976
102
}
330
18
100
AcDbEntity
  8
01
100
AcDbLine
 10
2431.015585833791
 20
-1977.119314290491
 30
0.0
 11
2384.515585833791
 21
-1977.11931429049
 31
0.0
  0
ARC
  5
1A8BD
102
{ACAD_REACTORS
330
1A976
102
}
330
18
100
AcDbEntity
  8
01
100
AcDbCircle
 10
2431.015585833791
 20
-1959.619314290491
 30
0.0
 40
2.0
100
AcDbArc
 50
0.0
 51
90.0
  0
ARC
  5
1A8BE
102
{ACAD_REACTORS
330
1A976
102
}
330
18
100
AcDbEntity
  8
01
100
AcDbCircle
 10
2384.515585833791
 20
-1959.61931429049
 30
0.0
 40
2.0
100
AcDbArc
 50
90.0
 51
180.0
  0
ARC
  5
1A8BF
102
{ACAD_REACTORS
330
1A976
102
}
330
18
100
AcDbEntity
  8
01
100
AcDbCircle
 10
2384.515585833791
 20
-1975.11931429049
 30
0.0
 40
2.0
100
AcDbArc
 50
180.0
 51
270.0
  0
ARC
  5
1A8C0
102
{ACAD_REACTORS
330
1A976
102
}
330
18
100
AcDbEntity
  8
01
100
AcDbCircle
 10
2431.015585833791
 20
-1975.119314290491
 30
0.0
 40
2.0
100
AcDbArc
 50
270.0
 51
0.0
  0
LINE
  5
1AA01
330
18
100
AcDbEntity
  8
1DIM
100
AcDbLine
 10
2517.76558583379
 20
-1840.06931429049
 30
0.0
 11
2517.76558583379
 21
-1819.06931429049
 31
0.0
  0
LINE
  5
1AA02
330
18
100
AcDbEntity
  8
1DIM
100
AcDbLine
 10
2524.76558583379
 20
-1840.06931429049
 30
0.0
 11
2524.76558583379
 21
-1819.06931429049
 31
0.0
  0
LINE
  5
1AA03
330
18
100
AcDbEntity
  8
1DIM
100
AcDbLine
 10
2519.76558583379
 20
-1820.06931429049
 30
0.0
 11
2522.76558583379
 21
-1820.06931429049
 31
0.0
  0
LINE
  5
1AA07
330
18
100
AcDbEntity
  8
1DIM
100
AcDbLine
 10
2519.76558583379
 20
-1840.06931429049
 30
0.0
 11
2519.76558583379
 21
-1829.06931429049
 31
0.0
  0
LINE
  5
1AA08
330
18
100
AcDbEntity
  8
1DIM
100
AcDbLine
 10
2524.76558583379
 20
-1840.06931429049
 30
0.0
 11
2524.76558583379
 21
-1829.06931429049
 31
0.0
  0
LINE
  5
1AA09
330
18
100
AcDbEntity
  8
1DIM
100
AcDbLine
 10
2517.76558583379
 20
-1830.06931429049
 30
0.0
 11
2515.76558583379
 21
-1830.06931429049
 31
0.0
  0
LINE
  5
1AA0A
330
18
100
AcDbEntity
  8
1DIM
100
AcDbLine
 10
2526.76558583379
 20
-1830.06931429049
 30
0.0
 11
2528.76558583379
 21
-1830.06931429049
 31
0.0
  0
LINE
  5
1AA0B
330
18
100
AcDbEntity
  8
1DIM
100
AcDbLine
 10
2519.76558583379
 20
-1830.06931429049
 30
0.0
 11
2524.76558583379
 21
-1830.06931429049
 31
0.0
  0
LINE
  5
1AA0F
330
18
100
AcDbEntity
  8
1DIM
100
AcDbLine
 10
2517.76558583379
 20
-1840.06931429049
 30
0.0
 11
2517.76558583379
 21
-1809.06931429049
 31
0.0
1001
ACAD
1000
DSTYLE
1002
{
1070
   271
1070
     0
1002
}
  0
LINE
  5
1AA10
330
18
100
AcDbEntity
  8
1DIM
100
AcDbLine
 10
2562.765585833792
 20
-1859.669314290492
 30
0.0
 11
2562.765585833792
 21
-1809.06931429049
 31
0.0
1001
ACAD
1000
DSTYLE
1002
{
1070
   271
1070
     0
1002
}
  0
LINE
  5
1AA11
330
18
100
AcDbEntity
  8
1DIM
100
AcDbLine
 10
2519.76558583379
 20
-1810.06931429049
 30
0.0
 11
2560.765585833792
 21
-1810.06931429049
 31
0.0
1001
ACAD
1000
DSTYLE
1002
{
1070
   271
1070
     0
1002
}
  0
LINE
  5
1AA15
330
18
100
AcDbEntity
  8
1DIM
100
AcDbLine
 10
2524.76558583379
 20
-1840.06931429049
 30
0.0
 11
2524.76558583379
 21
-1829.06931429049
 31
0.0
1001
ACAD
1000
DSTYLE
1002
{
1070
   271
1070
     0
1002
}
  0
LINE
  5
1AA16
330
18
100
AcDbEntity
  8
1DIM
100
AcDbLine
 10
2562.765585833792
 20
-1859.669314290492
 30
0.0
 11
2562.765585833792
 21
-1829.06931429049
 31
0.0
1001
ACAD
1000
DSTYLE
1002
{
1070
   271
1070
     0
1002
}
  0
LINE
  5
1AA17
330
18
100
AcDbEntity
  8
1DIM
100
AcDbLine
 10
2526.76558583379
 20
-1830.06931429049
 30
0.0
 11
2560.765585833792
 21
-1830.06931429049
 31
0.0
1001
ACAD
1000
DSTYLE
1002
{
1070
   271
1070
     0
1002
}
  0
SOLID
  5
1AA1B
330
18
100
AcDbEntity
  8
1DIM
100
AcDbTrace
 10
2516.709034617842
 20
-1842.169088776004
 30
0.0
 11
2517.629013902265
 21
-1843.975950482761
 31
0.0
 12
2516.17275402562
 22
-1842.565128636181
 32
0.0
 13
2516.17275402562
 23
-1842.565128636181
 33
0.0
  0
LINE
  5
1AA1C
330
18
100
AcDbEntity
  8
1DIM
100
AcDbLine
 10
2516.440894321731
 20
-1842.367108706092
 30
0.0
 11
2511.981013433312
 21
-1836.327950013808
 31
0.0
  0
LINE
  5
1AA1D
330
18
100
AcDbEntity
  8
1DIM
100
AcDbLine
 10
2511.981013433312
 20
-1836.327950013808
 30
0.0
 11
2476.964346766645
 21
-1836.327950013808
 31
0.0
  0
TEXT
  5
1AA1E
330
18
100
AcDbEntity
  8
1DIM
  6
CONTINUOUS
100
AcDbText
 10
2476.731013433312
 20
-1829.794616680475
 30
0.0
 40
3.5
  1
材質：ステンレス
100
AcDbText
  0
TEXT
  5
1AA1F
330
18
100
AcDbEntity
  8
1DIM
  6
CONTINUOUS
100
AcDbText
 10
2480.581013433312
 20
-1835.627950013808
 30
0.0
 40
3.5
  1
仕上：各種仕上
100
AcDbText
  0
SOLID
  5
1AA20
330
18
100
AcDbEntity
  8
1DIM
100
AcDbTrace
 10
2464.703671568921
 20
-1793.364529697843
 30
0.0
 11
2463.154087235605
 21
-1794.672160955138
 31
0.0
 12
2464.195813629619
 22
-1792.932644576621
 32
0.0
 13
2464.195813629619
 23
-1792.932644576621
 33
0.0
  0
LINE
  5
1AA21
330
18
100
AcDbEntity
  8
1DIM
100
AcDbLine
 10
2464.44974259927
 20
-1793.148587137232
 30
0.0
 11
2472.508879228203
 21
-1783.671769530401
 31
0.0
  0
LINE
  5
1AA22
330
18
100
AcDbEntity
  8
1DIM
100
AcDbLine
 10
2472.508879228203
 20
-1783.671769530401
 30
0.0
 11
2507.52554589487
 21
-1783.671769530401
 31
0.0
  0
TEXT
  5
1AA23
330
18
100
AcDbEntity
  8
1DIM
  6
CONTINUOUS
100
AcDbText
 10
2474.97554589487
 20
-1782.971769530401
 30
0.0
 40
3.5
  1
材質：ステンレス
100
AcDbText
  0
LINE
  5
1AA24
330
18
100
AcDbEntity
  8
1DIM
100
AcDbLine
 10
2347.765585833792
 20
-1840.069314290491
 30
0.0
 11
2347.765585833792
 21
-1819.99627595377
 31
0.0
  0
LINE
  5
1AA25
330
18
100
AcDbEntity
  8
1DIM
100
AcDbLine
 10
2467.765585833791
 20
-1840.069314290491
 30
0.0
 11
2467.765585833791
 21
-1819.99627595377
 31
0.0
  0
LINE
  5
1AA26
330
18
100
AcDbEntity
  8
1DIM
100
AcDbLine
 10
2349.765585833792
 20
-1820.99627595377
 30
0.0
 11
2465.765585833791
 21
-1820.99627595377
 31
0.0
  0
LINE
  5
1AA2A
330
18
100
AcDbEntity
  8
1DIM
100
AcDbLine
 10
2466.765585833791
 20
-2014.56931429049
 30
0.0
 11
2498.760941675764
 21
-2014.56931429049
 31
0.0
  0
LINE
  5
1AA2B
330
18
100
AcDbEntity
  8
1DIM
100
AcDbLine
 10
2466.765585833791
 20
-1839.06931429049
 30
0.0
 11
2498.760941675764
 21
-1839.06931429049
 31
0.0
  0
LINE
  5
1AA2C
330
18
100
AcDbEntity
  8
1DIM
100
AcDbLine
 10
2497.760941675764
 20
-2012.56931429049
 30
0.0
 11
2497.760941675764
 21
-1841.06931429049
 31
0.0
  0
LINE
  5
1AA30
330
18
100
AcDbEntity
  8
1DIM
100
AcDbLine
 10
2347.765585833792
 20
-1845.069314290491
 30
0.0
 11
2347.765585833792
 21
-1811.080169053836
 31
0.0
  0
LINE
  5
1AA31
330
18
100
AcDbEntity
  8
1DIM
100
AcDbLine
 10
2467.765585833791
 20
-1845.069314290492
 30
0.0
 11
2467.765585833791
 21
-1811.080169053836
 31
0.0
  0
LINE
  5
1AA32
330
18
100
AcDbEntity
  8
1DIM
100
AcDbLine
 10
2349.765585833792
 20
-1812.080169053836
 30
0.0
 11
2465.765585833791
 21
-1812.080169053836
 31
0.0
  0
LINE
  5
1AA36
330
18
100
AcDbEntity
  8
1DIM
100
AcDbLine
 10
2467.765585833791
 20
-1845.069314290492
 30
0.0
 11
2486.706614176982
 21
-1845.069314290492
 31
0.0
1001
ACAD
1000
DSTYLE
1002
{
1070
   271
1070
     0
1002
}
  0
LINE
  5
1AA37
330
18
100
AcDbEntity
  8
1DIM
100
AcDbLine
 10
2467.765585833791
 20
-2012.635690810405
 30
0.0
 11
2486.706614176982
 21
-2012.635690810405
 31
0.0
1001
ACAD
1000
DSTYLE
1002
{
1070
   271
1070
     0
1002
}
  0
LINE
  5
1AA38
330
18
100
AcDbEntity
  8
1DIM
100
AcDbLine
 10
2485.706614176982
 20
-1847.069314290492
 30
0.0
 11
2485.706614176982
 21
-2010.635690810405
 31
0.0
1001
ACAD
1000
DSTYLE
1002
{
1070
   271
1070
     0
1002
}
  0
LINE
  5
1AA3C
330
18
100
AcDbEntity
  8
1DIM
100
AcDbLine
 10
2467.765585833791
 20
-1845.069314290492
 30
0.0
 11
2486.706614176982
 21
-1845.069314290492
 31
0.0
  0
LINE
  5
1AA3D
330
18
100
AcDbEntity
  8
1DIM
100
AcDbLine
 10
2466.765585833791
 20
-1839.06931429049
 30
0.0
 11
2486.706614176982
 21
-1839.06931429049
 31
0.0
  0
LINE
  5
1AA3E
330
18
100
AcDbEntity
  8
1DIM
100
AcDbLine
 10
2485.706614176982
 20
-1843.069314290492
 30
0.0
 11
2485.706614176982
 21
-1841.06931429049
 31
0.0
  0
LINE
  5
1AA42
330
18
100
AcDbEntity
  8
1DIM
100
AcDbLine
 10
2352.765585833792
 20
-1763.222167955985
 30
0.0
 11
2352.765585833792
 21
-1755.565293368807
 31
0.0
  0
LINE
  5
1AA43
330
18
100
AcDbEntity
  8
1DIM
100
AcDbLine
 10
2462.765585833792
 20
-1763.222167955986
 30
0.0
 11
2462.765585833792
 21
-1755.565293368807
 31
0.0
  0
LINE
  5
1AA44
330
18
100
AcDbEntity
  8
1DIM
100
AcDbLine
 10
2354.765585833792
 20
-1756.565293368807
 30
0.0
 11
2460.765585833792
 21
-1756.565293368807
 31
0.0
  0
LINE
  5
1AA48
330
18
100
AcDbEntity
  8
1DIM
100
AcDbLine
 10
2371.26558583379
 20
-1909.67330468503
 30
0.0
 11
2371.26558583379
 21
-1830.486148834423
 31
0.0
  0
LINE
  5
1AA49
330
18
100
AcDbEntity
  8
1DIM
100
AcDbLine
 10
2444.265585833791
 20
-1909.67330468503
 30
0.0
 11
2444.265585833791
 21
-1830.486148834423
 31
0.0
  0
LINE
  5
1AA4A
330
18
100
AcDbEntity
  8
1DIM
100
AcDbLine
 10
2373.26558583379
 20
-1831.486148834423
 30
0.0
 11
2442.265585833791
 21
-1831.486148834423
 31
0.0
  0
LINE
  5
1AA4E
330
18
100
AcDbEntity
  8
1DIM
100
AcDbLine
 10
2459.761424882458
 20
-1929.071224209262
 30
0.0
 11
2477.028246576632
 21
-1929.071224209262
 31
0.0
  0
LINE
  5
1AA4F
330
18
100
AcDbEntity
  8
1DIM
100
AcDbLine
 10
2467.765585833791
 20
-1845.069314290492
 30
0.0
 11
2477.028246576632
 21
-1845.069314290492
 31
0.0
  0
LINE
  5
1AA50
330
18
100
AcDbEntity
  8
1DIM
100
AcDbLine
 10
2476.028246576632
 20
-1927.071224209262
 30
0.0
 11
2476.028246576632
 21
-1847.069314290492
 31
0.0
  0
SOLID
  5
1AA54
330
18
100
AcDbEntity
  8
1DIM
100
AcDbTrace
 10
2444.992627820126
 20
-1930.983447584432
 30
0.0
 11
2444.34387485365
 21
-1929.062450265434
 31
0.0
 12
2445.580586249721
 22
-1930.669203524008
 32
0.0
 13
2445.580586249721
 23
-1930.669203524008
 33
0.0
  0
LINE
  5
1AA55
330
18
100
AcDbEntity
  8
1DIM
100
AcDbLine
 10
2445.286607034923
 20
-1930.82632555422
 30
0.0
 11
2469.270133435893
 21
-1975.700098187615
 31
0.0
  0
LINE
  5
1AA56
330
18
100
AcDbEntity
  8
1DIM
100
AcDbLine
 10
2469.270133435893
 20
-1975.700098187615
 30
0.0
 11
2483.753466769226
 21
-1975.700098187615
 31
0.0
  0
TEXT
  5
1AA57
330
18
100
AcDbEntity
  8
1DIM
  6
CONTINUOUS
100
AcDbText
 10
2471.970133435892
 20
-1975.000098187615
 30
0.0
 40
3.5
  1
配線穴
100
AcDbText
  0
LINE
  5
1AA58
330
18
100
AcDbEntity
  8
1DIM
100
AcDbLine
 10
2384.265585833791
 20
-1913.071224209262
 30
0.0
 11
2384.265585833791
 21
-1905.411284842705
 31
0.0
  0
LINE
  5
1AA59
330
18
100
AcDbEntity
  8
1DIM
100
AcDbLine
 10
2358.265585833792
 20
-1913.071224209262
 30
0.0
 11
2358.265585833792
 21
-1905.411284842705
 31
0.0
  0
LINE
  5
1AA5A
330
18
100
AcDbEntity
  8
1DIM
100
AcDbLine
 10
2382.265585833791
 20
-1906.411284842705
 30
0.0
 11
2360.265585833792
 21
-1906.411284842705
 31
0.0
  0
LINE
  5
1AA5E
330
18
100
AcDbEntity
  8
1DIM
100
AcDbLine
 10
2358.26558583379
 20
-1945.071224209263
 30
0.0
 11
2343.958696994473
 21
-1945.071224209263
 31
0.0
  0
LINE
  5
1AA5F
330
18
100
AcDbEntity
  8
1DIM
100
AcDbLine
 10
2358.265585833792
 20
-1913.071224209262
 30
0.0
 11
2343.958696994473
 21
-1913.071224209262
 31
0.0
  0
LINE
  5
1AA60
330
18
100
AcDbEntity
  8
1DIM
100
AcDbLine
 10
2344.958696994473
 20
-1943.071224209263
 30
0.0
 11
2344.958696994473
 21
-1915.071224209262
 31
0.0
  0
LINE
  5
1AA64
330
18
100
AcDbEntity
  8
0
  6
BYBLOCK
100
AcDbLine
 10
2337.88714399645
 20
-1928.819314290491
 30
0.0
 11
2338.42304237645
 21
-1926.819314290491
 31
0.0
  0
LINE
  5
1AA65
330
18
100
AcDbEntity
  8
0
  6
BYBLOCK
100
AcDbLine
 10
2338.42304237645
 20
-1926.819314290491
 30
0.0
 11
2338.95894075645
 21
-1928.819314290491
 31
0.0
  0
LINE
  5
1AA66
330
18
100
AcDbEntity
  8
0
  6
BYBLOCK
100
AcDbLine
 10
2338.42304237645
 20
-1926.819314290491
 30
0.0
 11
2338.42304237645
 21
-1928.819314290491
 31
0.0
  0
TEXT
  5
1AA67
330
18
100
AcDbEntity
  8
1DIM
  6
CONTINUOUS
100
AcDbText
 10
2331.831375709784
 20
-2013.601371925294
 30
0.0
 40
3.5
  1
地面からの推奨高さは
 50
90.0
100
AcDbText
  0
TEXT
  5
1AA68
330
18
100
AcDbEntity
  8
1DIM
  6
CONTINUOUS
100
AcDbText
 10
2337.72304237645
 20
-2009.109705258627
 30
0.0
 40
3.5
  1
子機の推奨に従う
 50
90.0
100
AcDbText
  0
LINE
  5
1AA69
330
18
100
AcDbEntity
  8
0
  6
BYBLOCK
100
AcDbLine
 10
2519.76558583379
 20
-1820.60521267049
 30
0.0
 11
2517.76558583379
 21
-1820.06931429049
 31
0.0
  0
LINE
  5
1AA6A
330
18
100
AcDbEntity
  8
0
  6
BYBLOCK
100
AcDbLine
 10
2517.76558583379
 20
-1820.06931429049
 30
0.0
 11
2519.76558583379
 21
-1819.53341591049
 31
0.0
  0
LINE
  5
1AA6B
330
18
100
AcDbEntity
  8
0
  6
BYBLOCK
100
AcDbLine
 10
2517.76558583379
 20
-1820.06931429049
 30
0.0
 11
2519.76558583379
 21
-1820.06931429049
 31
0.0
  0
LINE
  5
1AA6C
330
18
100
AcDbEntity
  8
0
  6
BYBLOCK
100
AcDbLine
 10
2522.76558583379
 20
-1819.53341591049
 30
0.0
 11
2524.76558583379
 21
-1820.06931429049
 31
0.0
  0
LINE
  5
1AA6D
330
18
100
AcDbEntity
  8
0
  6
BYBLOCK
100
AcDbLine
 10
2524.76558583379
 20
-1820.06931429049
 30
0.0
 11
2522.76558583379
 21
-1820.60521267049
 31
0.0
  0
LINE
  5
1AA6E
330
18
100
AcDbEntity
  8
0
  6
BYBLOCK
100
AcDbLine
 10
2524.76558583379
 20
-1820.06931429049
 30
0.0
 11
2522.76558583379
 21
-1820.06931429049
 31
0.0
  0
TEXT
  5
1AA6F
330
18
100
AcDbEntity
  8
1DIM
  6
CONTINUOUS
100
AcDbText
 10
2520.098919167124
 20
-1819.36931429049
 30
0.0
 40
3.5
  1
7
100
AcDbText
  0
LINE
  5
1AA70
330
18
100
AcDbEntity
  8
0
  6
BYBLOCK
100
AcDbLine
 10
2517.76558583379
 20
-1829.53341591049
 30
0.0
 11
2519.76558583379
 21
-1830.06931429049
 31
0.0
  0
LINE
  5
1AA71
330
18
100
AcDbEntity
  8
0
  6
BYBLOCK
100
AcDbLine
 10
2519.76558583379
 20
-1830.06931429049
 30
0.0
 11
2517.76558583379
 21
-1830.60521267049
 31
0.0
  0
LINE
  5
1AA72
330
18
100
AcDbEntity
  8
0
  6
BYBLOCK
100
AcDbLine
 10
2519.76558583379
 20
-1830.06931429049
 30
0.0
 11
2517.76558583379
 21
-1830.06931429049
 31
0.0
  0
LINE
  5
1AA73
330
18
100
AcDbEntity
  8
0
  6
BYBLOCK
100
AcDbLine
 10
2526.76558583379
 20
-1830.60521267049
 30
0.0
 11
2524.76558583379
 21
-1830.06931429049
 31
0.0
  0
LINE
  5
1AA74
330
18
100
AcDbEntity
  8
0
  6
BYBLOCK
100
AcDbLine
 10
2524.76558583379
 20
-1830.06931429049
 30
0.0
 11
2526.76558583379
 21
-1829.53341591049
 31
0.0
  0
LINE
  5
1AA75
330
18
100
AcDbEntity
  8
0
  6
BYBLOCK
100
AcDbLine
 10
2524.76558583379
 20
-1830.06931429049
 30
0.0
 11
2526.76558583379
 21
-1830.06931429049
 31
0.0
  0
TEXT
  5
1AA76
330
18
100
AcDbEntity
  8
1DIM
  6
CONTINUOUS
100
AcDbText
 10
2521.098919167124
 20
-1829.36931429049
 30
0.0
 40
3.5
  1
5
100
AcDbText
  0
LINE
  5
1AA77
330
18
100
AcDbEntity
  8
0
  6
BYBLOCK
100
AcDbLine
 10
2519.76558583379
 20
-1810.60521267049
 30
0.0
 11
2517.76558583379
 21
-1810.06931429049
 31
0.0
  0
LINE
  5
1AA78
330
18
100
AcDbEntity
  8
0
  6
BYBLOCK
100
AcDbLine
 10
2517.76558583379
 20
-1810.06931429049
 30
0.0
 11
2519.76558583379
 21
-1809.53341591049
 31
0.0
  0
LINE
  5
1AA79
330
18
100
AcDbEntity
  8
0
  6
BYBLOCK
100
AcDbLine
 10
2517.76558583379
 20
-1810.06931429049
 30
0.0
 11
2519.76558583379
 21
-1810.06931429049
 31
0.0
  0
LINE
  5
1AA7A
330
18
100
AcDbEntity
  8
0
  6
BYBLOCK
100
AcDbLine
 10
2560.765585833792
 20
-1809.53341591049
 30
0.0
 11
2562.765585833792
 21
-1810.06931429049
 31
0.0
  0
LINE
  5
1AA7B
330
18
100
AcDbEntity
  8
0
  6
BYBLOCK
100
AcDbLine
 10
2562.765585833792
 20
-1810.06931429049
 30
0.0
 11
2560.765585833792
 21
-1810.60521267049
 31
0.0
  0
LINE
  5
1AA7C
330
18
100
AcDbEntity
  8
0
  6
BYBLOCK
100
AcDbLine
 10
2562.765585833792
 20
-1810.06931429049
 30
0.0
 11
2560.765585833792
 21
-1810.06931429049
 31
0.0
  0
TEXT
  5
1AA7D
330
18
100
AcDbEntity
  8
1DIM
  6
CONTINUOUS
100
AcDbText
 10
2537.348919167125
 20
-1809.36931429049
 30
0.0
 40
3.5
  1
45
100
AcDbText
1001
ACAD
1000
DSTYLE
1002
{
1070
   271
1070
     0
1002
}
  0
LINE
  5
1AA7E
330
18
100
AcDbEntity
  8
0
  6
BYBLOCK
100
AcDbLine
 10
2526.76558583379
 20
-1830.60521267049
 30
0.0
 11
2524.76558583379
 21
-1830.06931429049
 31
0.0
  0
LINE
  5
1AA7F
330
18
100
AcDbEntity
  8
0
  6
BYBLOCK
100
AcDbLine
 10
2524.76558583379
 20
-1830.06931429049
 30
0.0
 11
2526.76558583379
 21
-1829.53341591049
 31
0.0
  0
LINE
  5
1AA80
330
18
100
AcDbEntity
  8
0
  6
BYBLOCK
100
AcDbLine
 10
2524.76558583379
 20
-1830.06931429049
 30
0.0
 11
2526.76558583379
 21
-1830.06931429049
 31
0.0
  0
LINE
  5
1AA81
330
18
100
AcDbEntity
  8
0
  6
BYBLOCK
100
AcDbLine
 10
2560.765585833792
 20
-1829.53341591049
 30
0.0
 11
2562.765585833792
 21
-1830.06931429049
 31
0.0
  0
LINE
  5
1AA82
330
18
100
AcDbEntity
  8
0
  6
BYBLOCK
100
AcDbLine
 10
2562.765585833792
 20
-1830.06931429049
 30
0.0
 11
2560.765585833792
 21
-1830.60521267049
 31
0.0
  0
LINE
  5
1AA83
330
18
100
AcDbEntity
  8
0
  6
BYBLOCK
100
AcDbLine
 10
2562.765585833792
 20
-1830.06931429049
 30
0.0
 11
2560.765585833792
 21
-1830.06931429049
 31
0.0
  0
TEXT
  5
1AA84
330
18
100
AcDbEntity
  8
1DIM
  6
CONTINUOUS
100
AcDbText
 10
2532.448919167125
 20
-1829.36931429049
 30
0.0
 40
3.5
  1
埋込寸法38
100
AcDbText
1001
ACAD
1000
DSTYLE
1002
{
1070
   271
1070
     0
1002
}
  0
LINE
  5
1AA85
330
18
100
AcDbEntity
  8
0
  6
BYBLOCK
100
AcDbLine
 10
2349.765585833792
 20
-1821.53217433377
 30
0.0
 11
2347.765585833792
 21
-1820.99627595377
 31
0.0
  0
LINE
  5
1AA86
330
18
100
AcDbEntity
  8
0
  6
BYBLOCK
100
AcDbLine
 10
2347.765585833792
 20
-1820.99627595377
 30
0.0
 11
2349.765585833792
 21
-1820.46037757377
 31
0.0
  0
LINE
  5
1AA87
330
18
100
AcDbEntity
  8
0
  6
BYBLOCK
100
AcDbLine
 10
2347.765585833792
 20
-1820.99627595377
 30
0.0
 11
2349.765585833792
 21
-1820.99627595377
 31
0.0
  0
LINE
  5
1AA88
330
18
100
AcDbEntity
  8
0
  6
BYBLOCK
100
AcDbLine
 10
2465.765585833791
 20
-1820.46037757377
 30
0.0
 11
2467.765585833791
 21
-1820.99627595377
 31
0.0
  0
LINE
  5
1AA89
330
18
100
AcDbEntity
  8
0
  6
BYBLOCK
100
AcDbLine
 10
2467.765585833791
 20
-1820.99627595377
 30
0.0
 11
2465.765585833791
 21
-1821.53217433377
 31
0.0
  0
LINE
  5
1AA8A
330
18
100
AcDbEntity
  8
0
  6
BYBLOCK
100
AcDbLine
 10
2467.765585833791
 20
-1820.99627595377
 30
0.0
 11
2465.765585833791
 21
-1820.99627595377
 31
0.0
  0
TEXT
  5
1AA8B
330
18
100
AcDbEntity
  8
1DIM
  6
CONTINUOUS
100
AcDbText
 10
2403.901002500458
 20
-1820.29627595377
 30
0.0
 40
3.5
  1
120
100
AcDbText
  0
LINE
  5
1AA8C
330
18
100
AcDbEntity
  8
0
  6
BYBLOCK
100
AcDbLine
 10
2498.296840055764
 20
-2012.56931429049
 30
0.0
 11
2497.760941675764
 21
-2014.56931429049
 31
0.0
  0
LINE
  5
1AA8D
330
18
100
AcDbEntity
  8
0
  6
BYBLOCK
100
AcDbLine
 10
2497.760941675764
 20
-2014.56931429049
 30
0.0
 11
2497.225043295764
 21
-2012.56931429049
 31
0.0
  0
LINE
  5
1AA8E
330
18
100
AcDbEntity
  8
0
  6
BYBLOCK
100
AcDbLine
 10
2497.760941675764
 20
-2014.56931429049
 30
0.0
 11
2497.760941675764
 21
-2012.56931429049
 31
0.0
  0
LINE
  5
1AA8F
330
18
100
AcDbEntity
  8
0
  6
BYBLOCK
100
AcDbLine
 10
2497.225043295764
 20
-1841.06931429049
 30
0.0
 11
2497.760941675764
 21
-1839.06931429049
 31
0.0
  0
LINE
  5
1AA90
330
18
100
AcDbEntity
  8
0
  6
BYBLOCK
100
AcDbLine
 10
2497.760941675764
 20
-1839.06931429049
 30
0.0
 11
2498.296840055764
 21
-1841.06931429049
 31
0.0
  0
LINE
  5
1AA91
330
18
100
AcDbEntity
  8
0
  6
BYBLOCK
100
AcDbLine
 10
2497.760941675764
 20
-1839.06931429049
 30
0.0
 11
2497.760941675764
 21
-1841.06931429049
 31
0.0
  0
TEXT
  5
1AA92
330
18
100
AcDbEntity
  8
1DIM
  6
CONTINUOUS
100
AcDbText
 10
2497.060941675765
 20
-1933.248133734934
 30
0.0
 40
3.5
  1
175.5
 50
90.0
100
AcDbText
  0
LINE
  5
1AA93
330
18
100
AcDbEntity
  8
0
  6
BYBLOCK
100
AcDbLine
 10
2349.765585833792
 20
-1812.616067433836
 30
0.0
 11
2347.765585833792
 21
-1812.080169053836
 31
0.0
  0
LINE
  5
1AA94
330
18
100
AcDbEntity
  8
0
  6
BYBLOCK
100
AcDbLine
 10
2347.765585833792
 20
-1812.080169053836
 30
0.0
 11
2349.765585833792
 21
-1811.544270673837
 31
0.0
  0
LINE
  5
1AA95
330
18
100
AcDbEntity
  8
0
  6
BYBLOCK
100
AcDbLine
 10
2347.765585833792
 20
-1812.080169053836
 30
0.0
 11
2349.765585833792
 21
-1812.080169053836
 31
0.0
  0
LINE
  5
1AA96
330
18
100
AcDbEntity
  8
0
  6
BYBLOCK
100
AcDbLine
 10
2465.765585833791
 20
-1811.544270673837
 30
0.0
 11
2467.765585833791
 21
-1812.080169053836
 31
0.0
  0
LINE
  5
1AA97
330
18
100
AcDbEntity
  8
0
  6
BYBLOCK
100
AcDbLine
 10
2467.765585833791
 20
-1812.080169053836
 30
0.0
 11
2465.765585833791
 21
-1812.616067433836
 31
0.0
  0
LINE
  5
1AA98
330
18
100
AcDbEntity
  8
0
  6
BYBLOCK
100
AcDbLine
 10
2467.765585833791
 20
-1812.080169053836
 30
0.0
 11
2465.765585833791
 21
-1812.080169053836
 31
0.0
  0
TEXT
  5
1AA99
330
18
100
AcDbEntity
  8
1DIM
  6
CONTINUOUS
100
AcDbText
 10
2387.990585833791
 20
-1811.380169053836
 30
0.0
 40
3.5
  1
切欠穴寸法120 以上
100
AcDbText
  0
LINE
  5
1AA9A
330
18
100
AcDbEntity
  8
0
  6
BYBLOCK
100
AcDbLine
 10
2485.170715796982
 20
-1847.069314290492
 30
0.0
 11
2485.706614176982
 21
-1845.069314290492
 31
0.0
  0
LINE
  5
1AA9B
330
18
100
AcDbEntity
  8
0
  6
BYBLOCK
100
AcDbLine
 10
2485.706614176982
 20
-1845.069314290492
 30
0.0
 11
2486.242512556982
 21
-1847.069314290492
 31
0.0
  0
LINE
  5
1AA9C
330
18
100
AcDbEntity
  8
0
  6
BYBLOCK
100
AcDbLine
 10
2485.706614176982
 20
-1845.069314290492
 30
0.0
 11
2485.706614176982
 21
-1847.069314290492
 31
0.0
  0
LINE
  5
1AA9D
330
18
100
AcDbEntity
  8
0
  6
BYBLOCK
100
AcDbLine
 10
2486.242512556982
 20
-2010.635690810405
 30
0.0
 11
2485.706614176982
 21
-2012.635690810405
 31
0.0
  0
LINE
  5
1AA9E
330
18
100
AcDbEntity
  8
0
  6
BYBLOCK
100
AcDbLine
 10
2485.706614176982
 20
-2012.635690810405
 30
0.0
 11
2485.170715796982
 21
-2010.635690810405
 31
0.0
  0
LINE
  5
1AA9F
330
18
100
AcDbEntity
  8
0
  6
BYBLOCK
100
AcDbLine
 10
2485.706614176982
 20
-2012.635690810405
 30
0.0
 11
2485.706614176982
 21
-2010.635690810405
 31
0.0
  0
TEXT
  5
1AAA0
330
18
100
AcDbEntity
  8
1DIM
  6
CONTINUOUS
100
AcDbText
 10
2485.006614176983
 20
-1948.931321994893
 30
0.0
 40
3.5
  1
切欠穴寸法168 以上
 50
90.0
100
AcDbText
1001
ACAD
1000
DSTYLE
1002
{
1070
   271
1070
     0
1002
}
  0
LINE
  5
1AAA1
330
18
100
AcDbEntity
  8
0
  6
BYBLOCK
100
AcDbLine
 10
2486.242512556982
 20
-1843.069314290492
 30
0.0
 11
2485.706614176982
 21
-1845.069314290492
 31
0.0
  0
LINE
  5
1AAA2
330
18
100
AcDbEntity
  8
0
  6
BYBLOCK
100
AcDbLine
 10
2485.706614176982
 20
-1845.069314290492
 30
0.0
 11
2485.170715796982
 21
-1843.069314290492
 31
0.0
  0
LINE
  5
1AAA3
330
18
100
AcDbEntity
  8
0
  6
BYBLOCK
100
AcDbLine
 10
2485.706614176982
 20
-1845.069314290492
 30
0.0
 11
2485.706614176982
 21
-1843.069314290492
 31
0.0
  0
LINE
  5
1AAA4
330
18
100
AcDbEntity
  8
0
  6
BYBLOCK
100
AcDbLine
 10
2485.170715796982
 20
-1841.06931429049
 30
0.0
 11
2485.706614176982
 21
-1839.06931429049
 31
0.0
  0
LINE
  5
1AAA5
330
18
100
AcDbEntity
  8
0
  6
BYBLOCK
100
AcDbLine
 10
2485.706614176982
 20
-1839.06931429049
 30
0.0
 11
2486.242512556982
 21
-1841.06931429049
 31
0.0
  0
LINE
  5
1AAA6
330
18
100
AcDbEntity
  8
0
  6
BYBLOCK
100
AcDbLine
 10
2485.706614176982
 20
-1839.06931429049
 30
0.0
 11
2485.706614176982
 21
-1841.06931429049
 31
0.0
  0
TEXT
  5
1AAA7
330
18
100
AcDbEntity
  8
1DIM
  6
CONTINUOUS
100
AcDbText
 10
2485.006614176983
 20
-1843.235980957157
 30
0.0
 40
3.5
  1
6
 50
90.0
100
AcDbText
  0
LINE
  5
1AAA8
330
18
100
AcDbEntity
  8
0
  6
BYBLOCK
100
AcDbLine
 10
2354.765585833792
 20
-1757.101191748807
 30
0.0
 11
2352.765585833792
 21
-1756.565293368807
 31
0.0
  0
LINE
  5
1AAA9
330
18
100
AcDbEntity
  8
0
  6
BYBLOCK
100
AcDbLine
 10
2352.765585833792
 20
-1756.565293368807
 30
0.0
 11
2354.765585833792
 21
-1756.029394988808
 31
0.0
  0
LINE
  5
1AAAA
330
18
100
AcDbEntity
  8
0
  6
BYBLOCK
100
AcDbLine
 10
2352.765585833792
 20
-1756.565293368807
 30
0.0
 11
2354.765585833792
 21
-1756.565293368807
 31
0.0
  0
LINE
  5
1AAAB
330
18
100
AcDbEntity
  8
0
  6
BYBLOCK
100
AcDbLine
 10
2460.765585833792
 20
-1756.029394988808
 30
0.0
 11
2462.765585833792
 21
-1756.565293368807
 31
0.0
  0
LINE
  5
1AAAC
330
18
100
AcDbEntity
  8
0
  6
BYBLOCK
100
AcDbLine
 10
2462.765585833792
 20
-1756.565293368807
 30
0.0
 11
2460.765585833792
 21
-1757.101191748807
 31
0.0
  0
LINE
  5
1AAAD
330
18
100
AcDbEntity
  8
0
  6
BYBLOCK
100
AcDbLine
 10
2462.765585833792
 20
-1756.565293368807
 30
0.0
 11
2460.765585833792
 21
-1756.565293368807
 31
0.0
  0
TEXT
  5
1AAAE
330
18
100
AcDbEntity
  8
1DIM
  6
CONTINUOUS
100
AcDbText
 10
2404.484335833792
 20
-1755.865293368807
 30
0.0
 40
3.5
  1
110
100
AcDbText
  0
LINE
  5
1AAAF
330
18
100
AcDbEntity
  8
0
  6
BYBLOCK
100
AcDbLine
 10
2373.26558583379
 20
-1832.022047214423
 30
0.0
 11
2371.26558583379
 21
-1831.486148834423
 31
0.0
  0
LINE
  5
1AAB0
330
18
100
AcDbEntity
  8
0
  6
BYBLOCK
100
AcDbLine
 10
2371.26558583379
 20
-1831.486148834423
 30
0.0
 11
2373.26558583379
 21
-1830.950250454423
 31
0.0
  0
LINE
  5
1AAB1
330
18
100
AcDbEntity
  8
0
  6
BYBLOCK
100
AcDbLine
 10
2371.26558583379
 20
-1831.486148834423
 30
0.0
 11
2373.26558583379
 21
-1831.486148834423
 31
0.0
  0
LINE
  5
1AAB2
330
18
100
AcDbEntity
  8
0
  6
BYBLOCK
100
AcDbLine
 10
2442.265585833791
 20
-1830.950250454423
 30
0.0
 11
2444.265585833791
 21
-1831.486148834423
 31
0.0
  0
LINE
  5
1AAB3
330
18
100
AcDbEntity
  8
0
  6
BYBLOCK
100
AcDbLine
 10
2444.265585833791
 20
-1831.486148834423
 30
0.0
 11
2442.265585833791
 21
-1832.022047214423
 31
0.0
  0
LINE
  5
1AAB4
330
18
100
AcDbEntity
  8
0
  6
BYBLOCK
100
AcDbLine
 10
2444.265585833791
 20
-1831.486148834423
 30
0.0
 11
2442.265585833791
 21
-1831.486148834423
 31
0.0
  0
TEXT
  5
1AAB5
330
18
100
AcDbEntity
  8
1DIM
  6
CONTINUOUS
100
AcDbText
 10
2404.848919167124
 20
-1830.786148834423
 30
0.0
 40
3.5
  1
73
100
AcDbText
  0
LINE
  5
1AAB6
330
18
100
AcDbEntity
  8
0
  6
BYBLOCK
100
AcDbLine
 10
2476.564144956632
 20
-1927.071224209262
 30
0.0
 11
2476.028246576632
 21
-1929.071224209262
 31
0.0
  0
LINE
  5
1AAB7
330
18
100
AcDbEntity
  8
0
  6
BYBLOCK
100
AcDbLine
 10
2476.028246576632
 20
-1929.071224209262
 30
0.0
 11
2475.492348196632
 21
-1927.071224209262
 31
0.0
  0
LINE
  5
1AAB8
330
18
100
AcDbEntity
  8
0
  6
BYBLOCK
100
AcDbLine
 10
2476.028246576632
 20
-1929.071224209262
 30
0.0
 11
2476.028246576632
 21
-1927.071224209262
 31
0.0
  0
LINE
  5
1AAB9
330
18
100
AcDbEntity
  8
0
  6
BYBLOCK
100
AcDbLine
 10
2475.492348196632
 20
-1847.069314290492
 30
0.0
 11
2476.028246576632
 21
-1845.069314290492
 31
0.0
  0
LINE
  5
1AABA
330
18
100
AcDbEntity
  8
0
  6
BYBLOCK
100
AcDbLine
 10
2476.028246576632
 20
-1845.069314290492
 30
0.0
 11
2476.564144956632
 21
-1847.069314290492
 31
0.0
  0
LINE
  5
1AABB
330
18
100
AcDbEntity
  8
0
  6
BYBLOCK
100
AcDbLine
 10
2476.028246576632
 20
-1845.069314290492
 30
0.0
 11
2476.028246576632
 21
-1847.069314290492
 31
0.0
  0
TEXT
  5
1AABC
330
18
100
AcDbEntity
  8
1DIM
  6
CONTINUOUS
100
AcDbText
 10
2475.328246576633
 20
-1889.986935916543
 30
0.0
 40
3.5
  1
84
 50
90.0
100
AcDbText
  0
LINE
  5
1AABD
330
18
100
AcDbEntity
  8
0
  6
BYBLOCK
100
AcDbLine
 10
2382.265585833791
 20
-1905.875386462705
 30
0.0
 11
2384.265585833791
 21
-1906.411284842705
 31
0.0
  0
LINE
  5
1AABE
330
18
100
AcDbEntity
  8
0
  6
BYBLOCK
100
AcDbLine
 10
2384.265585833791
 20
-1906.411284842705
 30
0.0
 11
2382.265585833791
 21
-1906.947183222705
 31
0.0
  0
LINE
  5
1AABF
330
18
100
AcDbEntity
  8
0
  6
BYBLOCK
100
AcDbLine
 10
2384.265585833791
 20
-1906.411284842705
 30
0.0
 11
2382.265585833791
 21
-1906.411284842705
 31
0.0
  0
LINE
  5
1AAC0
330
18
100
AcDbEntity
  8
0
  6
BYBLOCK
100
AcDbLine
 10
2360.265585833792
 20
-1906.947183222705
 30
0.0
 11
2358.265585833792
 21
-1906.411284842705
 31
0.0
  0
LINE
  5
1AAC1
330
18
100
AcDbEntity
  8
0
  6
BYBLOCK
100
AcDbLine
 10
2358.265585833792
 20
-1906.411284842705
 30
0.0
 11
2360.265585833792
 21
-1905.875386462705
 31
0.0
  0
LINE
  5
1AAC2
330
18
100
AcDbEntity
  8
0
  6
BYBLOCK
100
AcDbLine
 10
2358.265585833792
 20
-1906.411284842705
 30
0.0
 11
2360.265585833792
 21
-1906.411284842705
 31
0.0
  0
TEXT
  5
1AAC3
330
18
100
AcDbEntity
  8
1DIM
  6
CONTINUOUS
100
AcDbText
 10
2368.348919167125
 20
-1905.711284842705
 30
0.0
 40
3.5
  1
26
100
AcDbText
  0
LINE
  5
1AAC4
330
18
100
AcDbEntity
  8
0
  6
BYBLOCK
100
AcDbLine
 10
2345.494595374474
 20
-1943.071224209263
 30
0.0
 11
2344.958696994473
 21
-1945.071224209263
 31
0.0
  0
LINE
  5
1AAC5
330
18
100
AcDbEntity
  8
0
  6
BYBLOCK
100
AcDbLine
 10
2344.958696994473
 20
-1945.071224209263
 30
0.0
 11
2344.422798614473
 21
-1943.071224209263
 31
0.0
  0
LINE
  5
1AAC6
330
18
100
AcDbEntity
  8
0
  6
BYBLOCK
100
AcDbLine
 10
2344.958696994473
 20
-1945.071224209263
 30
0.0
 11
2344.958696994473
 21
-1943.071224209263
 31
0.0
  0
LINE
  5
1AAC7
330
18
100
AcDbEntity
  8
0
  6
BYBLOCK
100
AcDbLine
 10
2344.422798614473
 20
-1915.071224209262
 30
0.0
 11
2344.958696994473
 21
-1913.071224209262
 31
0.0
  0
LINE
  5
1AAC8
330
18
100
AcDbEntity
  8
0
  6
BYBLOCK
100
AcDbLine
 10
2344.958696994473
 20
-1913.071224209262
 30
0.0
 11
2345.494595374474
 21
-1915.071224209262
 31
0.0
  0
LINE
  5
1AAC9
330
18
100
AcDbEntity
  8
0
  6
BYBLOCK
100
AcDbLine
 10
2344.958696994473
 20
-1913.071224209262
 30
0.0
 11
2344.958696994473
 21
-1915.071224209262
 31
0.0
  0
TEXT
  5
1AACA
330
18
100
AcDbEntity
  8
1DIM
  6
CONTINUOUS
100
AcDbText
 10
2344.258696994474
 20
-1931.987890875929
 30
0.0
 40
3.5
  1
32
 50
90.0
100
AcDbText
  0
VIEWPORT
  5
57
330
15
100
AcDbEntity
 67
     1
  8
0
100
AcDbViewport
 68
     1
 10
0.0
 20
0.0
 30
0.0
 40
547.8363136176066
 41
297.0
 68
     1
 69
     1
1001
ACAD
1000
MVIEW
1002
{
1070
    16
1010
0.0
1020
0.0
1030
0.0
1010
0.0
1020
0.0
1030
1.0
1040
0.0
1040
297.0
1040
-4.272048862584541
1040
18.33904653606845
1040
50.0
1040
0.0
1040
0.0
1070
    16
1070
   100
1070
     0
1070
     1
1070
     0
1070
     0
1070
     0
1070
     0
1040
0.0
1040
0.0
1040
0.0
1040
10.0
1040
10.0
1040
10.0
1040
10.0
1070
     0
1002
{
1002
}
1002
}
  0
ENDSEC
  0
SECTION
  2
OBJECTS
  0
DICTIONARY
  5
C
330
0
100
AcDbDictionary
  3
ACAD_COLOR
350
2D0
  3
ACAD_GROUP
350
D
  3
ACAD_LAYOUT
350
2D1
  3
ACAD_MATERIAL
350
2CF
  3
ACAD_MLEADERSTYLE
350
15B98
  3
ACAD_MLINESTYLE
350
1B
  3
ACAD_PLOTSETTINGS
350
2D2
  3
ACAD_SCALELIST
350
15B76
  3
ACAD_VISUALSTYLE
350
15B65
  3
ACDBHEADERROUNDTRIPXREC
350
1AACB
  3
ACDBVARIABLEDICTIONARY
350
37
  3
CONTENTDICTIONARY
350
D8
  3
DRAWINGVARIABLESDICT
350
20
  3
DWGPROPS
350
1AACE
1001
ACAD
1000
TREAT_AS_HARD
1070
     0
  0
DICTIONARY
  5
14EC2
330
2
100
AcDbDictionary
  3
ACAD_LAYERSTATES
360
14EC3
1001
ACAD
1000
TREAT_AS_HARD
1070
     1
  0
DICTIONARY
  5
15BB5
330
E
100
AcDbDictionary
  3
ADSK_XREC_LAYER_RECONCILED
360
15BB6
1001
ACAD
1000
TREAT_AS_HARD
1070
     1
  0
DICTIONARY
  5
15BB7
330
29
100
AcDbDictionary
  3
ADSK_XREC_LAYER_RECONCILED
360
15BB8
1001
ACAD
1000
TREAT_AS_HARD
1070
     1
  0
DICTIONARY
  5
15BB9
330
31
100
AcDbDictionary
  3
ADSK_XREC_LAYER_RECONCILED
360
15BBA
1001
ACAD
1000
TREAT_AS_HARD
1070
     1
  0
DICTIONARY
  5
15BC3
330
101
100
AcDbDictionary
  3
ADSK_XREC_LAYER_RECONCILED
360
15BC4
1001
ACAD
1000
TREAT_AS_HARD
1070
     1
  0
DICTIONARY
  5
15BC7
330
103
100
AcDbDictionary
  3
ADSK_XREC_LAYER_RECONCILED
360
15BC8
1001
ACAD
1000
TREAT_AS_HARD
1070
     1
  0
DICTIONARY
  5
15BCB
330
25F
100
AcDbDictionary
  3
ADSK_XREC_LAYER_RECONCILED
360
15BCC
1001
ACAD
1000
TREAT_AS_HARD
1070
     1
  0
DICTIONARY
  5
6E9
330
18
100
AcDbDictionary
  3
ACAD_SORTENTS
360
6EA
1001
ACAD
1000
TREAT_AS_HARD
1070
     1
  0
DICTIONARY
  5
59B
330
15
100
AcDbDictionary
  3
ACAD_SORTENTS
360
59C
1001
ACAD
1000
TREAT_AS_HARD
1070
     1
  0
DICTIONARY
  5
2D0
102
{ACAD_REACTORS
330
C
102
}
330
C
100
AcDbDictionary
1001
ACAD
1000
TREAT_AS_HARD
1070
     0
  0
DICTIONARY
  5
D
102
{ACAD_REACTORS
330
C
102
}
330
C
100
AcDbDictionary
  3
*A1
350
1A976
1001
ACAD
1000
TREAT_AS_HARD
1070
     0
  0
DICTIONARY
  5
2D1
102
{ACAD_REACTORS
330
C
102
}
330
C
100
AcDbDictionary
1001
ACAD
1000
TREAT_AS_HARD
1070
     0
  0
DICTIONARY
  5
2CF
102
{ACAD_REACTORS
330
C
102
}
330
C
100
AcDbDictionary
  3
BYBLOCK
350
15B55
  3
BYLAYER
350
15B4D
  3
GLOBAL
350
15B5D
1001
ACAD
1000
TREAT_AS_HARD
1070
     0
  0
DICTIONARY
  5
15B98
102
{ACAD_REACTORS
330
C
102
}
330
C
100
AcDbDictionary
  3
STANDARD
350
15B99
1001
ACAD
1000
TREAT_AS_HARD
1070
     0
  0
DICTIONARY
  5
1B
102
{ACAD_REACTORS
330
C
102
}
330
C
100
AcDbDictionary
  3
STANDARD
350
1C
1001
ACAD
1000
TREAT_AS_HARD
1070
     0
  0
DICTIONARY
  5
2D2
102
{ACAD_REACTORS
330
C
102
}
330
C
100
AcDbDictionary
1001
ACAD
1000
TREAT_AS_HARD
1070
     0
  0
DICTIONARY
  5
15B76
102
{ACAD_REACTORS
330
C
102
}
330
C
100
AcDbDictionary
  3
A0
350
15B77
  3
A1
350
15B78
  3
A2
350
15B79
  3
A3
350
15B7A
  3
A4
350
15B7B
  3
A5
350
15B7C
  3
A6
350
15B7D
  3
A7
350
15B7E
  3
A8
350
15B7F
  3
A9
350
15B80
  3
B0
350
15B81
  3
B1
350
15B82
  3
B2
350
15B83
  3
B3
350
15B84
  3
B4
350
15B85
  3
B5
350
15B86
  3
B6
350
15B87
  3
B7
350
15B88
  3
B8
350
15B89
  3
B9
350
15B8A
  3
C0
350
15B8B
  3
C1
350
15B8C
  3
C2
350
15B8D
  3
C3
350
15B8E
  3
C4
350
15B8F
  3
C5
350
15B90
  3
C6
350
15B91
  3
C7
350
15B92
  3
C8
350
15B93
  3
C9
350
15B94
  3
D0
350
15B95
  3
D1
350
15B96
  3
D2
350
15B97
1001
ACAD
1000
TREAT_AS_HARD
1070
     0
  0
DICTIONARY
  5
15B65
102
{ACAD_REACTORS
330
C
102
}
330
C
100
AcDbDictionary
  3
2DWIREFRAME
350
15B6B
  3
3D_HIDDEN
350
15B6D
  3
3DWIREFRAME
350
15B6C
  3
BASIC
350
15B6A
  3
BRIGHTEN
350
15B71
  3
COLORCHANGE
350
15B75
  3
CONCEPTUAL
350
15B6E
  3
DIM
350
15B70
  3
EDGECOLOROFF
350
19052
  3
FACEPATTERN
350
15B74
  3
FLAT
350
15B66
  3
FLATWITHEDGES
350
15B67
  3
GOURAUD
350
15B68
  3
GOURAUDWITHEDGES
350
15B69
  3
HIDDEN
350
1A3CA
  3
JITTEROFF
350
19050
  3
LINEPATTERN
350
15B73
  3
MODELING
350
1A3D0
  3
OVERHANGOFF
350
19051
  3
REALISTIC
350
15B6F
  3
SHADED
350
1A3CF
  3
SHADED_WITH_EDGES
350
1A3CE
  3
SHADES_OF_GRAY
350
1A3CB
  3
SKETCHY
350
1A3CC
  3
THICKEN
350
15B72
  3
WIREFRAME
350
1A3C9
  3
X-RAY
350
1A3CD
1001
ACAD
1000
TREAT_AS_HARD
1070
     0
  0
DICTIONARY
  5
1AACB
102
{ACAD_REACTORS
330
C
102
}
330
C
100
AcDbDictionary
  3
COLORDICT
350
1AACC
  3
MATERIALDICT
350
1AACD
1001
ACAD
1000
TREAT_AS_HARD
1070
     0
  0
DICTIONARY
  5
37
102
{ACAD_REACTORS
330
C
102
}
330
C
100
AcDbDictionary
  3
CANNOSCALE
350
1A662
  3
CMLEADERSTYLE
350
15C4B
  3
CTABLESTYLE
350
4F1
  3
DIMADEC
350
38
  3
DIMASSOC
350
408
  3
HIDETEXT
350
1891
  3
INDEXCTL
350
15C4E
  3
INTERSECTIONCOLOR
350
1895
  3
INTERSECTIONDISPLAY
350
1894
  3
MSLTSCALE
350
1A6B8
  3
OBSCOLOR
350
1892
  3
OBSLTYPE
350
1893
  3
PROJECTNAME
350
409
  3
SORTENTS
350
15C4D
  3
XCLIPFRAME
350
1A3C8
1001
ACAD
1000
TREAT_AS_HARD
1070
     0
  0
DICTIONARY
  5
D8
102
{ACAD_REACTORS
330
C
102
}
330
C
100
AcDbDictionary
1001
CONTENTTABDATA
1070
    11
1000
Child
1000
D:\ACLT\TABset\CHILDREN.dwg
1070
     0
1070
     0
1070
     1
1000
PK
1000
D:\ACLT\TABset\PK.dwg
1070
     0
1070
     0
1070
     1
1000
Lev1
1000
D:\ACLT\TABset\Lever01.dwg
1070
     0
1070
     0
1070
     1
1000
Lev2
1000
D:\ACLT\TABset\Lever02.dwg
1070
     0
1070
     0
1070
     1
1000
L3
1000
D:\Aclt\TABset\Lever03.dwg
1070
     0
1070
     0
1070
     1
1000
Form
1000
D:\ACLT\FORMAT
1070
     1
1070
     0
1070
     1
1000
Jnt
1000
D:\ACLT\TABset\JOINTPARTS.dwg
1070
     0
1070
     0
1070
     1
1000
ISO
1000
D:\ACLT\TABset\Isome01.dwg
1070
     0
1070
     0
1070
     1
1000
R
1000
D:\ACLT\TABset\REGION.dwg
1070
     0
1070
     0
1070
     1
1000
std
1000
D:\ACLT\TABset\std_sym_all.dwg
1070
     0
1070
     0
1070
     1
1000
丸
1000
D:\Aclt\TABset\MARU.dwg
1070
     0
1070
     0
1070
     1
1001
CONTENTCURRENTTAB
1070
     0
1001
ACAD
1000
TREAT_AS_HARD
1070
     0
  0
DICTIONARY
  5
20
102
{ACAD_REACTORS
330
C
102
}
330
C
100
AcDbDictionary
1001
DRAWINGVARIABLESXDATA
1000
POLARANG
1000
0.261799387799149410000000
1000
POLARMODE
1000
1
1000
POLARSTYLE
1000
1
1001
ACAD
1000
TREAT_AS_HARD
1070
     0
  0
XRECORD
  5
1AACE
102
{ACAD_REACTORS
330
C
102
}
330
C
100
AcDbXrecord
  1
DWGPROPS COOKIE
  2

  3

  4

  6

  7

  8
619
  9

300
=
301
=
302
=
303
=
304
=
305
=
306
=
307
=
308
=
309
=
 40
0.0
 41
2453033.357663484
 42
2459346.252904757
  1

 90
        0
  0
DICTIONARY
  5
14EC3
102
{ACAD_REACTORS
330
14EC2
102
}
330
14EC2
100
AcDbDictionary
1001
ACAD
1000
TREAT_AS_HARD
1070
     0
  0
ACAD_PROXY_OBJECT
  5
15BB6
102
{ACAD_REACTORS
330
15BB5
102
}
330
15BB5
100
AcDbZombieObject
 90
      499
 91
      517
 93
       34
310
40C8804040
  0
ACAD_PROXY_OBJECT
  5
15BB8
102
{ACAD_REACTORS
330
15BB7
102
}
330
15BB7
100
AcDbZombieObject
 90
      499
 91
      517
 93
       34
310
40C8804040
  0
ACAD_PROXY_OBJECT
  5
15BBA
102
{ACAD_REACTORS
330
15BB9
102
}
330
15BB9
100
AcDbZombieObject
 90
      499
 91
      517
 93
       34
310
40C8804040
  0
ACAD_PROXY_OBJECT
  5
15BC4
102
{ACAD_REACTORS
330
15BC3
102
}
330
15BC3
100
AcDbZombieObject
 90
      499
 91
      517
 93
       34
310
40C8804040
  0
ACAD_PROXY_OBJECT
  5
15BC8
102
{ACAD_REACTORS
330
15BC7
102
}
330
15BC7
100
AcDbZombieObject
 90
      499
 91
      517
 93
       34
310
40C8804040
  0
ACAD_PROXY_OBJECT
  5
15BCC
102
{ACAD_REACTORS
330
15BCB
102
}
330
15BCB
100
AcDbZombieObject
 90
      499
 91
      517
 93
       34
310
40C8804040
  0
SORTENTSTABLE
  5
6EA
102
{ACAD_REACTORS
330
6E9
102
}
330
6E9
100
AcDbSortentsTable
330
18
331
183E4
  5
183E5
331
183E5
  5
183E6
331
183E6
  5
183E8
331
183E7
  5
183E9
331
183E8
  5
183EA
331
183E9
  5
183EB
331
183EA
  5
183EC
331
183EB
  5
183ED
331
183EC
  5
183EE
331
183ED
  5
183EF
331
183EE
  5
183F0
331
183EF
  5
183F1
331
183F0
  5
183F2
331
183F1
  5
183F3
331
183F2
  5
183F4
331
183F3
  5
183F5
331
183F4
  5
183F6
331
183F5
  5
183F7
331
183F6
  5
183F8
331
183F7
  5
183F9
331
183F8
  5
183FE
331
183F9
  5
183FF
331
183FE
  5
18400
331
183FF
  5
18401
331
18400
  5
18404
331
18401
  5
18407
331
18404
  5
18408
331
18407
  5
1840B
331
18408
  5
1840E
331
1840B
  5
18410
331
1840E
  5
18411
331
18410
  5
18412
331
18411
  5
18413
331
18412
  5
18419
331
18413
  5
1841B
331
18419
  5
1841D
331
1841B
  5
1841E
331
1841D
  5
18421
331
1841E
  5
18424
331
18421
  5
18425
331
18424
  5
18426
331
18425
  5
18427
331
18426
  5
18428
331
18427
  5
1842A
331
18428
  5
1842B
331
1842A
  5
1842C
331
1842B
  5
18432
331
1842C
  5
18433
331
1842F
  5
18434
331
18432
  5
18435
331
18433
  5
18436
331
18434
  5
18437
331
18435
  5
18438
331
18436
  5
18439
331
18437
  5
1843A
331
18438
  5
1843B
331
18439
  5
1843C
331
1843A
  5
1843E
331
1843B
  5
1843F
331
1843C
  5
18440
331
1843D
  5
18441
331
1843E
  5
18443
331
1843F
  5
18444
331
18441
  5
18445
331
18442
  5
18446
331
18443
  5
18447
331
18444
  5
18448
331
18445
  5
18449
331
18446
  5
1844A
331
18447
  5
1844B
331
18448
  5
1844C
331
18449
  5
18453
331
1844A
  5
18455
331
1844B
  5
18457
331
1844C
  5
18459
331
1844D
  5
1845A
331
1844E
  5
1845B
331
1844F
  5
1845C
331
18450
  5
18463
331
18453
  5
18465
331
18455
  5
18467
331
18457
  5
18469
331
18459
  5
1846A
331
1845A
  5
1846B
331
1845B
  5
1846C
331
1845C
  5
18471
331
18463
  5
18473
331
18465
  5
18474
331
18467
  5
18475
331
18469
  5
18476
331
1846A
  5
18477
331
1846B
  5
18478
331
1846C
  5
18479
331
18471
  5
1847A
331
18472
  5
1847B
331
18473
  5
1847C
331
18474
  5
1847E
331
18475
  5
1847F
331
18476
  5
18480
331
18477
  5
18481
331
18478
  5
18482
331
18479
  5
18483
331
1847A
  5
18484
331
1847B
  5
18485
331
1847C
  5
18486
331
1847E
  5
18487
331
1847F
  5
18488
331
18480
  5
18489
331
18481
  5
1848A
331
18482
  5
1848B
331
18483
  5
1848C
331
18484
  5
1848D
331
18485
  5
1848E
331
18486
  5
1848F
331
18487
  5
18491
331
18488
  5
18492
331
18489
  5
18493
331
1848A
  5
18494
331
1848B
  5
18495
331
1848C
  5
18496
331
1848D
  5
18497
331
1848E
  5
18498
331
1848F
  5
18499
331
18635
  5
18804
331
187F6
  5
18805
331
187FC
  5
18806
331
187FE
  5
18807
331
187FF
  5
18808
331
18800
  5
183E4
331
18801
  5
183E7
331
18802
  5
18809
331
18803
  5
1880A
331
18804
  5
1880B
331
0
  5
18816
331
0
  5
18817
331
0
  5
18818
331
0
  5
18819
331
0
  5
188C8
331
0
  5
188CE
331
0
  5
188CF
331
0
  5
188D0
331
188C6
  5
1844E
331
188C7
  5
18450
331
188C8
  5
1843D
331
188D0
  5
19B55
331
188D1
  5
19B56
331
188D2
  5
19B57
331
18958
  5
19B5B
331
18959
  5
19B5C
331
1895A
  5
19B5D
331
1895B
  5
1A8AA
331
1895C
  5
1A8AB
331
1895D
  5
1A8AC
331
1895E
  5
1A8B0
331
1895F
  5
1A8B1
331
18960
  5
1A8B2
331
18961
  5
1A8B6
331
18962
  5
1A8B7
331
18963
  5
1A8B8
331
18965
  5
1A8BC
331
18966
  5
1A8BD
331
18967
  5
1A8BE
331
18968
  5
1AA02
331
1896A
  5
1AA03
331
1896D
  5
1AA04
331
1896E
  5
1AA05
331
1896F
  5
1AA06
331
18970
  5
1AA07
331
18C59
  5
1AA08
331
18C5A
  5
1AA09
331
18C5B
  5
1AA0A
331
18C5C
  5
1AA0B
331
18E6C
  5
1AA54
331
18E6D
  5
1AA55
331
18E6E
  5
1AA56
331
18E6F
  5
1AA57
331
18FB5
  5
1AA58
331
18FB6
  5
1AA59
331
18FB7
  5
1AA5A
331
18FB8
  5
1AA5B
331
19B3A
  5
1AA5C
331
19B3B
  5
1AA5D
331
19B3C
  5
1AA5E
331
19B3D
  5
1AA5F
331
19B3E
  5
1AA60
331
19B3F
  5
1AA61
331
19B40
  5
1AA62
331
19B41
  5
1AA63
331
19B42
  5
1AA64
331
19B43
  5
1AA65
331
19B44
  5
1AA66
331
19B45
  5
1AA67
331
19B46
  5
1AA68
331
19B47
  5
1AA69
331
19B48
  5
1AA6A
331
19B49
  5
1AA6B
331
19B4A
  5
1AA6C
331
19B4B
  5
1AA6D
331
19B4C
  5
1AA6E
331
19B4D
  5
1AA6F
331
19B4E
  5
1AA70
331
19B4F
  5
1AA71
331
19B50
  5
1AA72
331
19B51
  5
1AA73
331
19B52
  5
1AA74
331
19B53
  5
1AA75
331
19B54
  5
1AA76
331
19B55
  5
1AA77
331
19B56
  5
1AA78
331
19B57
  5
1AA79
331
19B58
  5
1AA7A
331
19B59
  5
1AA7B
331
19B5A
  5
1AA7C
331
19B5B
  5
1AA7D
331
19B5C
  5
1AA7E
331
19B5D
  5
1AA7F
331
19D3E
  5
1AAAC
331
19D3F
  5
1AAAD
331
1A8A9
  5
1AAB3
331
1A8AA
  5
1AAB4
331
1A8AB
  5
1AAB5
331
1A8AC
  5
1AAB6
331
1A8AD
  5
1AAB7
331
1A8AE
  5
1AAB8
331
1A8AF
  5
1AAB9
331
1A8B0
  5
1AABA
331
1A8B1
  5
1AABB
331
1A8B2
  5
1AABC
331
1A8B3
  5
1AABD
331
1A8B4
  5
1AABE
331
1A8B5
  5
1AABF
331
1A8B6
  5
1AAC0
331
1A8B7
  5
1AAC1
331
1A8B8
  5
1AAC2
331
1A8B9
  5
1AAC3
331
1A8BA
  5
1AAC4
331
1A8BB
  5
1AAC5
331
1A8BC
  5
1AAC6
331
1A8BD
  5
1AAC7
331
1A8BE
  5
1AAC8
331
1A8BF
  5
1AAC9
331
1A8C0
  5
1AACA
331
1AA01
  5
188D1
331
1AA02
  5
188D2
331
1AA03
  5
188F7
331
0
  5
18959
331
0
  5
1895A
331
0
  5
1895B
331
1AA07
  5
18967
331
1AA08
  5
1896E
331
1AA09
  5
1896F
331
1AA0A
  5
18970
331
1AA0B
  5
18C5B
331
0
  5
18961
331
0
  5
18962
331
0
  5
18963
331
1AA0F
  5
18FB7
331
1AA10
  5
18FB8
331
1AA11
  5
19B3A
331
0
  5
18968
331
0
  5
18969
331
0
  5
1896B
331
1AA15
  5
19B42
331
1AA16
  5
19B43
331
1AA17
  5
19B44
331
0
  5
18B29
331
0
  5
18C59
331
0
  5
18C5A
331
1AA1B
  5
19B4C
331
1AA1C
  5
19B4D
331
1AA1D
  5
19B4E
331
1AA1E
  5
19B4F
331
1AA1F
  5
19B50
331
1AA20
  5
19B51
331
1AA21
  5
19B52
331
1AA22
  5
19B53
331
1AA23
  5
19B54
331
1AA24
  5
1AA0C
331
1AA25
  5
1AA0D
331
1AA26
  5
1AA0E
331
0
  5
19B58
331
0
  5
19B59
331
0
  5
19B5A
331
1AA2A
  5
1AA16
331
1AA2B
  5
1AA17
331
1AA2C
  5
1AA18
331
0
  5
19D3E
331
0
  5
19D3F
331
0
  5
1A8A9
331
1AA30
  5
1AA20
331
1AA31
  5
1AA21
331
1AA32
  5
1AA22
331
0
  5
1A8AD
331
0
  5
1A8AE
331
0
  5
1A8AF
331
1AA36
  5
1AA2A
331
1AA37
  5
1AA2B
331
1AA38
  5
1AA2C
331
0
  5
1A8B3
331
0
  5
1A8B4
331
0
  5
1A8B5
331
1AA3C
  5
1AA3A
331
1AA3D
  5
1AA3B
331
1AA3E
  5
1AA3C
331
0
  5
1A8B9
331
0
  5
1A8BA
331
0
  5
1A8BB
331
1AA42
  5
1AA4A
331
1AA43
  5
1AA4B
331
1AA44
  5
1AA4C
331
0
  5
1A8BF
331
0
  5
1A8C0
331
0
  5
1AA01
331
1AA48
  5
1AA80
331
1AA49
  5
1AA81
331
1AA4A
  5
1AA82
331
0
  5
1AA31
331
0
  5
1AA32
331
0
  5
1AA33
331
1AA4E
  5
1AA8A
331
1AA4F
  5
1AA8B
331
1AA50
  5
1AA8C
331
0
  5
1AA37
331
0
  5
1AA38
331
0
  5
1AA39
331
1AA54
  5
1AA94
331
1AA55
  5
1AA95
331
1AA56
  5
1AA96
331
1AA57
  5
1AA97
331
1AA58
  5
1AA98
331
1AA59
  5
1AA99
331
1AA5A
  5
1AA9A
331
0
  5
1AA41
331
0
  5
1AA42
331
0
  5
1AA43
331
1AA5E
  5
1AAA2
331
1AA5F
  5
1AAA3
331
1AA60
  5
1AAA4
331
0
  5
1AA47
331
0
  5
1AA48
331
0
  5
1AA49
331
1AA64
  5
1AAAE
331
1AA65
  5
1AAAF
331
1AA66
  5
1AAB0
331
1AA67
  5
1AAB1
331
1AA68
  5
1AAB2
331
1AA69
  5
1895C
331
1AA6A
  5
1895D
331
1AA6B
  5
1895E
331
1AA6C
  5
1895F
331
1AA6D
  5
18960
331
1AA6E
  5
18964
331
1AA6F
  5
18966
331
1AA70
  5
18C5C
331
1AA71
  5
18E6C
331
1AA72
  5
18E6D
331
1AA73
  5
18E6E
331
1AA74
  5
18E6F
331
1AA75
  5
18FB5
331
1AA76
  5
18FB6
331
1AA77
  5
19B3B
331
1AA78
  5
19B3C
331
1AA79
  5
19B3D
331
1AA7A
  5
19B3E
331
1AA7B
  5
19B3F
331
1AA7C
  5
19B40
331
1AA7D
  5
19B41
331
1AA7E
  5
19B45
331
1AA7F
  5
19B46
331
1AA80
  5
19B47
331
1AA81
  5
19B48
331
1AA82
  5
19B49
331
1AA83
  5
19B4A
331
1AA84
  5
19B4B
331
1AA85
  5
1AA0F
331
1AA86
  5
1AA10
331
1AA87
  5
1AA11
331
1AA88
  5
1AA12
331
1AA89
  5
1AA13
331
1AA8A
  5
1AA14
331
1AA8B
  5
1AA15
331
1AA8C
  5
1AA19
331
1AA8D
  5
1AA1A
331
1AA8E
  5
1AA1B
331
1AA8F
  5
1AA1C
331
1AA90
  5
1AA1D
331
1AA91
  5
1AA1E
331
1AA92
  5
1AA1F
331
1AA93
  5
1AA23
331
1AA94
  5
1AA24
331
1AA95
  5
1AA25
331
1AA96
  5
1AA26
331
1AA97
  5
1AA27
331
1AA98
  5
1AA28
331
1AA99
  5
1AA29
331
1AA9A
  5
1AA2D
331
1AA9B
  5
1AA2E
331
1AA9C
  5
1AA2F
331
1AA9D
  5
1AA30
331
1AA9E
  5
1AA34
331
1AA9F
  5
1AA35
331
1AAA0
  5
1AA36
331
1AAA1
  5
1AA3D
331
1AAA2
  5
1AA3E
331
1AAA3
  5
1AA3F
331
1AAA4
  5
1AA40
331
1AAA5
  5
1AA44
331
1AAA6
  5
1AA45
331
1AAA7
  5
1AA46
331
1AAA8
  5
1AA4D
331
1AAA9
  5
1AA4E
331
1AAAA
  5
1AA4F
331
1AAAB
  5
1AA50
331
1AAAC
  5
1AA51
331
1AAAD
  5
1AA52
331
1AAAE
  5
1AA53
331
1AAAF
  5
1AA83
331
1AAB0
  5
1AA84
331
1AAB1
  5
1AA85
331
1AAB2
  5
1AA86
331
1AAB3
  5
1AA87
331
1AAB4
  5
1AA88
331
1AAB5
  5
1AA89
331
1AAB6
  5
1AA8D
331
1AAB7
  5
1AA8E
331
1AAB8
  5
1AA8F
331
1AAB9
  5
1AA90
331
1AABA
  5
1AA91
331
1AABB
  5
1AA92
331
1AABC
  5
1AA93
331
1AABD
  5
1AA9B
331
1AABE
  5
1AA9C
331
1AABF
  5
1AA9D
331
1AAC0
  5
1AA9E
331
1AAC1
  5
1AA9F
331
1AAC2
  5
1AAA0
331
1AAC3
  5
1AAA1
331
1AAC4
  5
1AAA5
331
1AAC5
  5
1AAA6
331
1AAC6
  5
1AAA7
331
1AAC7
  5
1AAA8
331
1AAC8
  5
1AAA9
331
1AAC9
  5
1AAAA
331
1AACA
  5
1AAAB
  0
SORTENTSTABLE
  5
59C
102
{ACAD_REACTORS
330
59B
102
}
330
59B
100
AcDbSortentsTable
330
15
331
57
  5
57
331
0
  5
70
331
0
  5
15E0C
331
0
  5
15E0D
331
0
  5
15E0E
331
0
  5
15E0F
331
0
  5
15E10
331
0
  5
15E11
331
0
  5
15E12
331
0
  5
15E13
331
0
  5
15E14
331
0
  5
15E15
331
0
  5
15E16
331
0
  5
15E17
331
0
  5
15E18
331
0
  5
15E19
331
0
  5
15E1A
331
0
  5
15FEC
331
0
  5
15FED
331
0
  5
15FEE
331
0
  5
15FEF
331
0
  5
15E1C
331
0
  5
15E1D
331
0
  5
15E1E
331
0
  5
15E1F
331
0
  5
15E20
331
0
  5
15E21
331
0
  5
15E22
331
0
  5
15E23
331
0
  5
15E24
331
0
  5
15E25
331
0
  5
15E26
331
0
  5
15E27
331
0
  5
15E28
331
0
  5
15E29
331
0
  5
15E2A
331
0
  5
15E2B
331
0
  5
15E2C
331
0
  5
15E2D
331
0
  5
15E2E
331
0
  5
15E2F
331
0
  5
15E30
331
0
  5
15E31
331
0
  5
15E32
331
0
  5
15E33
331
0
  5
15E34
331
0
  5
15E35
331
0
  5
15E36
331
0
  5
15E37
331
0
  5
15E38
331
0
  5
15E39
331
0
  5
15E3A
331
0
  5
15E3B
331
0
  5
15E3C
331
0
  5
15E3D
331
0
  5
15E3E
331
0
  5
15E3F
331
0
  5
15E40
331
0
  5
15E41
331
0
  5
15E42
331
0
  5
15E43
331
0
  5
15E44
331
0
  5
15E45
331
0
  5
15E46
331
0
  5
15E47
331
0
  5
15E48
331
0
  5
15E49
331
0
  5
15E4A
331
0
  5
15E4B
331
0
  5
15E4C
331
0
  5
15E4D
331
0
  5
15E4E
331
0
  5
15E4F
331
0
  5
15E50
331
0
  5
15E51
331
0
  5
15E52
331
0
  5
15E53
331
0
  5
15E54
331
0
  5
15E55
331
0
  5
15E56
331
0
  5
15E57
331
0
  5
15E58
331
0
  5
15E59
331
0
  5
15E5A
331
0
  5
15E5B
331
0
  5
15E5C
331
0
  5
15FCD
331
0
  5
15FCE
331
0
  5
15FCF
331
0
  5
15FD0
331
0
  5
15FD1
331
0
  5
15FD2
331
0
  5
15FD3
331
0
  5
15FD4
331
0
  5
15FD5
331
0
  5
15FD6
331
0
  5
15FD7
331
0
  5
15FD8
331
0
  5
15FD9
331
0
  5
15FDA
331
0
  5
15FDB
331
0
  5
15FDC
331
0
  5
15FDD
331
0
  5
15FDE
331
0
  5
15FDF
331
0
  5
15FE0
331
0
  5
15FE1
331
0
  5
15FE2
331
0
  5
15FE3
331
0
  5
15FE4
331
0
  5
15FE5
331
0
  5
15FE6
331
0
  5
15FE7
331
0
  5
15FE8
331
0
  5
15FE9
331
0
  5
15FEA
331
0
  5
15FEB
331
0
  5
15F8E
331
0
  5
15F8F
331
0
  5
15F90
331
0
  5
15F91
331
0
  5
15F92
331
0
  5
15F93
331
0
  5
15F94
331
0
  5
15F95
331
0
  5
15F96
331
0
  5
15F97
331
0
  5
15F98
331
0
  5
15F99
331
0
  5
15F9A
331
0
  5
15F9B
331
0
  5
15F9C
331
0
  5
15F9D
331
0
  5
15F9E
331
0
  5
15F9F
331
0
  5
15FA0
331
0
  5
15FA1
331
0
  5
15FA2
331
0
  5
15FA3
331
0
  5
15FA4
331
0
  5
15FA5
331
0
  5
15FA6
331
0
  5
15FA7
331
0
  5
15FA8
331
0
  5
15FA9
331
0
  5
15FAA
331
0
  5
15FAB
331
0
  5
15FAC
331
0
  5
15FAD
331
0
  5
15FAE
331
0
  5
15FAF
331
0
  5
15FB0
331
0
  5
15FB1
331
0
  5
15FB2
331
0
  5
15FB3
331
0
  5
15FB4
331
0
  5
15FB5
331
0
  5
15FB6
331
0
  5
15FB7
331
0
  5
15FB8
331
0
  5
15FB9
331
0
  5
15FBA
331
0
  5
15FBB
331
0
  5
15FBC
331
0
  5
15FBD
331
0
  5
15FBE
331
0
  5
15FBF
331
0
  5
15FC0
331
0
  5
15FC1
331
0
  5
15FC2
331
0
  5
15FC3
331
0
  5
15FC4
331
0
  5
15FC5
331
0
  5
15FC6
331
0
  5
15FC7
331
0
  5
15FC8
331
0
  5
15FC9
331
0
  5
15FCA
331
0
  5
15FCB
331
0
  5
15FCC
331
0
  5
15F51
331
0
  5
15F52
331
0
  5
15F53
331
0
  5
15F54
331
0
  5
15F55
331
0
  5
15F56
331
0
  5
15F57
331
0
  5
15F58
331
0
  5
15F59
331
0
  5
15F5A
331
0
  5
15F5B
331
0
  5
15F5C
331
0
  5
15F5D
331
0
  5
15F5E
331
0
  5
15F5F
331
0
  5
15F60
331
0
  5
15F61
331
0
  5
15F62
331
0
  5
15F63
331
0
  5
15F64
331
0
  5
15F65
331
0
  5
15F66
331
0
  5
15F67
331
0
  5
15F68
331
0
  5
15F69
331
0
  5
15F6A
331
0
  5
15F6B
331
0
  5
15F6C
331
0
  5
15F6D
331
0
  5
15F6E
331
0
  5
15F6F
331
0
  5
15F70
331
0
  5
15F71
331
0
  5
15F72
331
0
  5
15F73
331
0
  5
15F74
331
0
  5
15F75
331
0
  5
15F76
331
0
  5
15F77
331
0
  5
15F78
331
0
  5
15F79
331
0
  5
15F7A
331
0
  5
15F7B
331
0
  5
15F7C
331
0
  5
15F7D
331
0
  5
15F7E
331
0
  5
15F7F
331
0
  5
15F80
331
0
  5
15F81
331
0
  5
15F82
331
0
  5
15F83
331
0
  5
15F84
331
0
  5
15F85
331
0
  5
15F86
331
0
  5
15F87
331
0
  5
15F88
331
0
  5
15F89
331
0
  5
15F8A
331
0
  5
15F8B
331
0
  5
15F8C
331
0
  5
15F8D
331
0
  5
15F01
331
0
  5
15F02
331
0
  5
15F03
331
0
  5
15F04
331
0
  5
15F05
331
0
  5
15F06
331
0
  5
15F07
331
0
  5
15F08
331
0
  5
15F09
331
0
  5
15F0A
331
0
  5
15F0B
331
0
  5
15F0C
331
0
  5
15F0D
331
0
  5
15F0E
331
0
  5
15F0F
331
0
  5
15F10
331
0
  5
15F11
331
0
  5
15F12
331
0
  5
15F13
331
0
  5
15F14
331
0
  5
15F15
331
0
  5
15F16
331
0
  5
15F17
331
0
  5
15F18
331
0
  5
15F19
331
0
  5
15F1A
331
0
  5
15F1B
331
0
  5
15F1C
331
0
  5
15F1D
331
0
  5
15F1E
331
0
  5
15F1F
331
0
  5
15F20
331
0
  5
15F21
331
0
  5
15F22
331
0
  5
15F23
331
0
  5
15F24
331
0
  5
15F25
331
0
  5
15F26
331
0
  5
15F27
331
0
  5
15F28
331
0
  5
15F29
331
0
  5
15F2A
331
0
  5
15F2B
331
0
  5
15F2C
331
0
  5
15F2D
331
0
  5
15F2E
331
0
  5
15F2F
331
0
  5
15F30
331
0
  5
15F31
331
0
  5
15F32
331
0
  5
15F33
331
0
  5
15F34
331
0
  5
15F35
331
0
  5
15F36
331
0
  5
15F37
331
0
  5
15F38
331
0
  5
15F39
331
0
  5
15F3A
331
0
  5
15F3B
331
0
  5
15F3C
331
0
  5
15F3D
331
0
  5
15F3E
331
0
  5
15F3F
331
0
  5
15F40
331
0
  5
15F41
331
0
  5
15F42
331
0
  5
15F43
331
0
  5
15F44
331
0
  5
15F45
331
0
  5
15F46
331
0
  5
15F47
331
0
  5
15F48
331
0
  5
15F49
331
0
  5
15F4A
331
0
  5
15F4B
331
0
  5
15F4C
331
0
  5
15F4D
331
0
  5
15F4E
331
0
  5
15F4F
331
0
  5
15F50
331
0
  5
15EB0
331
0
  5
15EB1
331
0
  5
15EB2
331
0
  5
15EB3
331
0
  5
15EB4
331
0
  5
15EB5
331
0
  5
15EB6
331
0
  5
15EB7
331
0
  5
15EB8
331
0
  5
15EB9
331
0
  5
15EBA
331
0
  5
15EBB
331
0
  5
15EBC
331
0
  5
15EBD
331
0
  5
15EBE
331
0
  5
15EBF
331
0
  5
15EC0
331
0
  5
15EC1
331
0
  5
15EC2
331
0
  5
15EC3
331
0
  5
15EC4
331
0
  5
15EC5
331
0
  5
15EC6
331
0
  5
15EC7
331
0
  5
15EC8
331
0
  5
15EC9
331
0
  5
15ECA
331
0
  5
15ECB
331
0
  5
15ECC
331
0
  5
15ECD
331
0
  5
15ECE
331
0
  5
15ECF
331
0
  5
15ED0
331
0
  5
15ED1
331
0
  5
15ED2
331
0
  5
15ED3
331
0
  5
15ED4
331
0
  5
15ED5
331
0
  5
15ED6
331
0
  5
15ED7
331
0
  5
15ED8
331
0
  5
15ED9
331
0
  5
15EDA
331
0
  5
15EDB
331
0
  5
15EDC
331
0
  5
15EDD
331
0
  5
15EDE
331
0
  5
15EDF
331
0
  5
15EE0
331
0
  5
15EE1
331
0
  5
15EE2
331
0
  5
15EE3
331
0
  5
15EE4
331
0
  5
15EE5
331
0
  5
15EE6
331
0
  5
15EE7
331
0
  5
15EE8
331
0
  5
15EE9
331
0
  5
15EEA
331
0
  5
15EEB
331
0
  5
15EEC
331
0
  5
15EED
331
0
  5
15EEE
331
0
  5
15EEF
331
0
  5
15EF0
331
0
  5
15EF1
331
0
  5
15EF2
331
0
  5
15EF3
331
0
  5
15EF4
331
0
  5
15EF5
331
0
  5
15EF6
331
0
  5
15EF7
331
0
  5
15EF8
331
0
  5
15EF9
331
0
  5
15EFA
331
0
  5
15EFB
331
0
  5
15EFC
331
0
  5
15EFD
331
0
  5
15EFE
331
0
  5
15EFF
331
0
  5
15F00
331
0
  5
15E63
331
0
  5
15E64
331
0
  5
15E65
331
0
  5
15E66
331
0
  5
15E67
331
0
  5
15E68
331
0
  5
15E69
331
0
  5
15E6A
331
0
  5
15E6B
331
0
  5
15E6C
331
0
  5
15E6D
331
0
  5
15E6E
331
0
  5
15E6F
331
0
  5
15E70
331
0
  5
15E71
331
0
  5
15E72
331
0
  5
15E73
331
0
  5
15E74
331
0
  5
15E75
331
0
  5
15E76
331
0
  5
15E77
331
0
  5
15E78
331
0
  5
15E79
331
0
  5
15E7A
331
0
  5
15E7B
331
0
  5
15E7C
331
0
  5
15E7D
331
0
  5
15E7E
331
0
  5
15E7F
331
0
  5
15E80
331
0
  5
15E81
331
0
  5
15E82
331
0
  5
15E83
331
0
  5
15E84
331
0
  5
15E85
331
0
  5
15E86
331
0
  5
15E87
331
0
  5
15E88
331
0
  5
15E89
331
0
  5
15E8A
331
0
  5
15E8B
331
0
  5
15E8C
331
0
  5
15E8D
331
0
  5
15E8E
331
0
  5
15E8F
331
0
  5
15E90
331
0
  5
15E91
331
0
  5
15E92
331
0
  5
15E93
331
0
  5
15E94
331
0
  5
15E95
331
0
  5
15E96
331
0
  5
15E97
331
0
  5
15E98
331
0
  5
15E99
331
0
  5
15E9A
331
0
  5
15E9B
331
0
  5
15E9C
331
0
  5
15E9D
331
0
  5
15E9E
331
0
  5
15E9F
331
0
  5
15EA0
331
0
  5
15EA1
331
0
  5
15EA2
331
0
  5
15EA3
331
0
  5
15EA4
331
0
  5
15EA5
331
0
  5
15EA6
331
0
  5
15EA7
331
0
  5
15EA8
331
0
  5
15EA9
331
0
  5
15EAA
331
0
  5
15EAB
331
0
  5
15EAC
331
0
  5
15EAD
331
0
  5
15EAE
331
0
  5
15EAF
  0
GROUP
  5
1A976
102
{ACAD_REACTORS
330
D
102
}
330
D
100
AcDbGroup
300

 70
     1
 71
     1
340
1A8C0
340
1A8BF
340
1A8BE
340
1A8BD
340
1A8BC
340
1A8BB
340
1A8BA
340
1A8B9
340
1A8B4
340
1A8B3
340
1A8B2
340
1A8B1
340
1A8B0
340
1A8AF
340
1A8AE
340
1A8AD
340
1A8AC
340
1A8AB
340
1A8AA
340
1A8A9
340
1A8B8
340
1A8B7
340
1A8B6
340
1A8B5
  0
MATERIAL
  5
15B55
102
{ACAD_REACTORS
330
2CF
102
}
102
{ACAD_XDICTIONARY
360
1AACF
102
}
330
2CF
100
AcDbMaterial
  1
BYBLOCK
 72
     0
 73
     2
 43
0.0208333333333333
 43
0.0
 43
0.0
 43
0.0
 43
0.0
 43
0.0208333333333333
 43
0.0
 43
0.0
 43
0.0
 43
0.0
 43
1.0
 43
0.0
 43
0.0
 43
0.0
 43
0.0
 43
1.0
 77
     0
 78
     2
 47
0.0208333333333333
 47
0.0
 47
0.0
 47
0.0
 47
0.0
 47
0.0208333333333333
 47
0.0
 47
0.0
 47
0.0
 47
0.0
 47
1.0
 47
0.0
 47
0.0
 47
0.0
 47
0.0
 47
1.0
171
     0
172
     2
 49
0.0208333333333333
 49
0.0
 49
0.0
 49
0.0
 49
0.0
 49
0.0208333333333333
 49
0.0
 49
0.0
 49
0.0
 49
0.0
 49
1.0
 49
0.0
 49
0.0
 49
0.0
 49
0.0
 49
1.0
175
     0
176
     2
142
0.0208333333333333
142
0.0
142
0.0
142
0.0
142
0.0
142
0.0208333333333333
142
0.0
142
0.0
142
0.0
142
0.0
142
1.0
142
0.0
142
0.0
142
0.0
142
0.0
142
1.0
179
     0
270
     2
144
0.0208333333333333
144
0.0
144
0.0
144
0.0
144
0.0
144
0.0208333333333333
144
0.0
144
0.0
144
0.0
144
0.0
144
1.0
144
0.0
144
0.0
144
0.0
144
0.0
144
1.0
274
     2
147
0.0208333333333333
147
0.0
147
0.0
147
0.0
147
0.0
147
0.0208333333333333
147
0.0
147
0.0
147
0.0
147
0.0
147
1.0
147
0.0
147
0.0
147
0.0
147
0.0
147
1.0
  0
MATERIAL
  5
15B4D
102
{ACAD_REACTORS
330
2CF
102
}
102
{ACAD_XDICTIONARY
360
1AAD1
102
}
330
2CF
100
AcDbMaterial
  1
BYLAYER
 72
     0
 73
     2
 43
0.0208333333333333
 43
0.0
 43
0.0
 43
0.0
 43
0.0
 43
0.0208333333333333
 43
0.0
 43
0.0
 43
0.0
 43
0.0
 43
1.0
 43
0.0
 43
0.0
 43
0.0
 43
0.0
 43
1.0
 77
     0
 78
     2
 47
0.0208333333333333
 47
0.0
 47
0.0
 47
0.0
 47
0.0
 47
0.0208333333333333
 47
0.0
 47
0.0
 47
0.0
 47
0.0
 47
1.0
 47
0.0
 47
0.0
 47
0.0
 47
0.0
 47
1.0
171
     0
172
     2
 49
0.0208333333333333
 49
0.0
 49
0.0
 49
0.0
 49
0.0
 49
0.0208333333333333
 49
0.0
 49
0.0
 49
0.0
 49
0.0
 49
1.0
 49
0.0
 49
0.0
 49
0.0
 49
0.0
 49
1.0
175
     0
176
     2
142
0.0208333333333333
142
0.0
142
0.0
142
0.0
142
0.0
142
0.0208333333333333
142
0.0
142
0.0
142
0.0
142
0.0
142
1.0
142
0.0
142
0.0
142
0.0
142
0.0
142
1.0
179
     0
270
     2
144
0.0208333333333333
144
0.0
144
0.0
144
0.0
144
0.0
144
0.0208333333333333
144
0.0
144
0.0
144
0.0
144
0.0
144
1.0
144
0.0
144
0.0
144
0.0
144
0.0
144
1.0
274
     2
147
0.0208333333333333
147
0.0
147
0.0
147
0.0
147
0.0
147
0.0208333333333333
147
0.0
147
0.0
147
0.0
147
0.0
147
1.0
147
0.0
147
0.0
147
0.0
147
0.0
147
1.0
  0
MATERIAL
  5
15B5D
102
{ACAD_REACTORS
330
2CF
102
}
102
{ACAD_XDICTIONARY
360
1AAD3
102
}
330
2CF
100
AcDbMaterial
  1
GLOBAL
 72
     0
 73
     2
 43
0.0208333333333333
 43
0.0
 43
0.0
 43
0.0
 43
0.0
 43
0.0208333333333333
 43
0.0
 43
0.0
 43
0.0
 43
0.0
 43
1.0
 43
0.0
 43
0.0
 43
0.0
 43
0.0
 43
1.0
 77
     0
 78
     2
 47
0.0208333333333333
 47
0.0
 47
0.0
 47
0.0
 47
0.0
 47
0.0208333333333333
 47
0.0
 47
0.0
 47
0.0
 47
0.0
 47
1.0
 47
0.0
 47
0.0
 47
0.0
 47
0.0
 47
1.0
171
     0
172
     2
 49
0.0208333333333333
 49
0.0
 49
0.0
 49
0.0
 49
0.0
 49
0.0208333333333333
 49
0.0
 49
0.0
 49
0.0
 49
0.0
 49
1.0
 49
0.0
 49
0.0
 49
0.0
 49
0.0
 49
1.0
175
     0
176
     2
142
0.0208333333333333
142
0.0
142
0.0
142
0.0
142
0.0
142
0.0208333333333333
142
0.0
142
0.0
142
0.0
142
0.0
142
1.0
142
0.0
142
0.0
142
0.0
142
0.0
142
1.0
179
     0
270
     2
144
0.0208333333333333
144
0.0
144
0.0
144
0.0
144
0.0
144
0.0208333333333333
144
0.0
144
0.0
144
0.0
144
0.0
144
1.0
144
0.0
144
0.0
144
0.0
144
0.0
144
1.0
274
     2
147
0.0208333333333333
147
0.0
147
0.0
147
0.0
147
0.0
147
0.0208333333333333
147
0.0
147
0.0
147
0.0
147
0.0
147
1.0
147
0.0
147
0.0
147
0.0
147
0.0
147
1.0
  0
ACAD_PROXY_OBJECT
  5
15B99
102
{ACAD_REACTORS
330
15B98
102
}
330
15B98
100
AcDbZombieObject
 90
      499
 91
      512
 93
      610
310
40901902A4063FBFFFFFE000000000000002040AD7A3703D0AD73F4214DD185B99185C990000000000000104090141901A00000000000004100000000000000041025764000000000000300FC0
340
12
340
0
340
F
340
0
 94
        0
1001
ACAD_MLEADERVER
1070
     2
  0
MLINESTYLE
  5
1C
102
{ACAD_REACTORS
330
1B
102
}
330
1B
100
AcDbMlineStyle
  2
STANDARD
 70
     0
  3

 62
   256
 51
90.0
 52
90.0
 71
     2
 49
0.5
 62
   256
  6
BYLAYER
 49
-0.5
 62
   256
  6
BYLAYER
  0
ACAD_PROXY_OBJECT
  5
15B77
102
{ACAD_REACTORS
330
15B76
102
}
330
15B76
100
AcDbZombieObject
 90
      499
 91
      511
 93
       41
310
903313A31580
  0
ACAD_PROXY_OBJECT
  5
15B78
102
{ACAD_REACTORS
330
15B76
102
}
330
15B76
100
AcDbZombieObject
 90
      499
 91
      511
 93
      105
310
903313A324000000000000004000
  0
ACAD_PROXY_OBJECT
  5
15B79
102
{ACAD_REACTORS
330
15B76
102
}
330
15B76
100
AcDbZombieObject
 90
      499
 91
      511
 93
      105
310
903313A344000000000000104000
  0
ACAD_PROXY_OBJECT
  5
15B7A
102
{ACAD_REACTORS
330
15B76
102
}
330
15B76
100
AcDbZombieObject
 90
      499
 91
      511
 93
      105
310
903313A354000000000000144000
  0
ACAD_PROXY_OBJECT
  5
15B7B
102
{ACAD_REACTORS
330
15B76
102
}
330
15B76
100
AcDbZombieObject
 90
      499
 91
      511
 93
      105
310
903313A384000000000000204000
  0
ACAD_PROXY_OBJECT
  5
15B7C
102
{ACAD_REACTORS
330
15B76
102
}
330
15B76
100
AcDbZombieObject
 90
      499
 91
      511
 93
      113
310
904313A31304000000000000244000
  0
ACAD_PROXY_OBJECT
  5
15B7D
102
{ACAD_REACTORS
330
15B76
102
}
330
15B76
100
AcDbZombieObject
 90
      499
 91
      511
 93
      113
310
904313A31364000000000000304000
  0
ACAD_PROXY_OBJECT
  5
15B7E
102
{ACAD_REACTORS
330
15B76
102
}
330
15B76
100
AcDbZombieObject
 90
      499
 91
      511
 93
      113
310
904313A32304000000000000344000
  0
ACAD_PROXY_OBJECT
  5
15B7F
102
{ACAD_REACTORS
330
15B76
102
}
330
15B76
100
AcDbZombieObject
 90
      499
 91
      511
 93
      113
310
904313A333040000000000003E4000
  0
ACAD_PROXY_OBJECT
  5
15B80
102
{ACAD_REACTORS
330
15B76
102
}
330
15B76
100
AcDbZombieObject
 90
      499
 91
      511
 93
      113
310
904313A34304000000000000444000
  0
ACAD_PROXY_OBJECT
  5
15B81
102
{ACAD_REACTORS
330
15B76
102
}
330
15B76
100
AcDbZombieObject
 90
      499
 91
      511
 93
      113
310
904313A35304000000000000494000
  0
ACAD_PROXY_OBJECT
  5
15B82
102
{ACAD_REACTORS
330
15B76
102
}
330
15B76
100
AcDbZombieObject
 90
      499
 91
      511
 93
      121
310
905313A3130304000000000000594000
  0
ACAD_PROXY_OBJECT
  5
15B83
102
{ACAD_REACTORS
330
15B76
102
}
330
15B76
100
AcDbZombieObject
 90
      499
 91
      511
 93
      105
310
903323A310000000000000010100
  0
ACAD_PROXY_OBJECT
  5
15B84
102
{ACAD_REACTORS
330
15B76
102
}
330
15B76
100
AcDbZombieObject
 90
      499
 91
      511
 93
      105
310
903343A310000000000000410100
  0
ACAD_PROXY_OBJECT
  5
15B85
102
{ACAD_REACTORS
330
15B76
102
}
330
15B76
100
AcDbZombieObject
 90
      499
 91
      511
 93
      105
310
903383A310000000000000810100
  0
ACAD_PROXY_OBJECT
  5
15B86
102
{ACAD_REACTORS
330
15B76
102
}
330
15B76
100
AcDbZombieObject
 90
      499
 91
      511
 93
      113
310
90431303A310000000000000910100
  0
ACAD_PROXY_OBJECT
  5
15B87
102
{ACAD_REACTORS
330
15B76
102
}
330
15B76
100
AcDbZombieObject
 90
      499
 91
      511
 93
      121
310
9053130303A310000000000001650100
  0
ACAD_PROXY_OBJECT
  5
15B88
102
{ACAD_REACTORS
330
15B76
102
}
330
15B76
100
AcDbZombieObject
 90
      499
 91
      511
 93
      257
310
90E312F31323822203D2031272D3022000000000000200FC000000000000284000
  0
ACAD_PROXY_OBJECT
  5
15B89
102
{ACAD_REACTORS
330
15B76
102
}
330
15B76
100
AcDbZombieObject
 90
      499
 91
      511
 93
      249
310
90D312F363422203D2031272D3022000000000000240FC000000000000284000
  0
ACAD_PROXY_OBJECT
  5
15B8A
102
{ACAD_REACTORS
330
15B76
102
}
330
15B76
100
AcDbZombieObject
 90
      499
 91
      511
 93
      249
310
90D312F333222203D2031272D3022000000000000280FC000000000000284000
  0
ACAD_PROXY_OBJECT
  5
15B8B
102
{ACAD_REACTORS
330
15B76
102
}
330
15B76
100
AcDbZombieObject
 90
      499
 91
      511
 93
      249
310
90D312F313622203D2031272D30220000000000002C0FC000000000000284000
  0
ACAD_PROXY_OBJECT
  5
15B8C
102
{ACAD_REACTORS
330
15B76
102
}
330
15B76
100
AcDbZombieObject
 90
      499
 91
      511
 93
      249
310
90D332F333222203D2031272D30220000000000002E0FC000000000000284000
  0
ACAD_PROXY_OBJECT
  5
15B8D
102
{ACAD_REACTORS
330
15B76
102
}
330
15B76
100
AcDbZombieObject
 90
      499
 91
      511
 93
      241
310
90C312F3822203D2031272D3022000000000000300FC000000000000284000
  0
ACAD_PROXY_OBJECT
  5
15B8E
102
{ACAD_REACTORS
330
15B76
102
}
330
15B76
100
AcDbZombieObject
 90
      499
 91
      511
 93
      249
310
90D332F313622203D2031272D3022000000000000320FC000000000000284000
  0
ACAD_PROXY_OBJECT
  5
15B8F
102
{ACAD_REACTORS
330
15B76
102
}
330
15B76
100
AcDbZombieObject
 90
      499
 91
      511
 93
      241
310
90C312F3422203D2031272D3022000000000000340FC000000000000284000
  0
ACAD_PROXY_OBJECT
  5
15B90
102
{ACAD_REACTORS
330
15B76
102
}
330
15B76
100
AcDbZombieObject
 90
      499
 91
      511
 93
      241
310
90C332F3822203D2031272D3022000000000000360FC000000000000284000
  0
ACAD_PROXY_OBJECT
  5
15B91
102
{ACAD_REACTORS
330
15B76
102
}
330
15B76
100
AcDbZombieObject
 90
      499
 91
      511
 93
      241
310
90C312F3222203D2031272D3022000000000000380FC000000000000284000
  0
ACAD_PROXY_OBJECT
  5
15B92
102
{ACAD_REACTORS
330
15B76
102
}
330
15B76
100
AcDbZombieObject
 90
      499
 91
      511
 93
      241
310
90C332F3422203D2031272D30220000000000003A0FC000000000000284000
  0
ACAD_PROXY_OBJECT
  5
15B93
102
{ACAD_REACTORS
330
15B76
102
}
330
15B76
100
AcDbZombieObject
 90
      499
 91
      511
 93
      161
310
90A3122203D2031272D30224000000000000284000
  0
ACAD_PROXY_OBJECT
  5
15B94
102
{ACAD_REACTORS
330
15B76
102
}
330
15B76
100
AcDbZombieObject
 90
      499
 91
      511
 93
      257
310
90E312D312F3222203D2031272D30220000000000003E0FC000000000000284000
  0
ACAD_PROXY_OBJECT
  5
15B95
102
{ACAD_REACTORS
330
15B76
102
}
330
15B76
100
AcDbZombieObject
 90
      499
 91
      511
 93
      225
310
90A3322203D2031272D302200000000000002100000000000000284000
  0
ACAD_PROXY_OBJECT
  5
15B96
102
{ACAD_REACTORS
330
15B76
102
}
330
15B76
100
AcDbZombieObject
 90
      499
 91
      511
 93
      225
310
90A3622203D2031272D302200000000000006100000000000000284000
  0
ACAD_PROXY_OBJECT
  5
15B97
102
{ACAD_REACTORS
330
15B76
102
}
330
15B76
100
AcDbZombieObject
 90
      499
 91
      511
 93
      249
310
90D31272D3022203D2031272D30220000000000000A100000000000000284000
  0
ACAD_PROXY_OBJECT
  5
15B6B
102
{ACAD_REACTORS
330
15B65
102
}
330
15B65
100
AcDbZombieObject
 90
      499
 91
      510
 93
      436
310
42CC9915DA5C99599C985B595049028333333333333E3BF0000000000000FB0107901411070040501600405405064090741402480A0340
1001
ACAD
1000
AcDbSavedByObjectVersion
1070
     0
  0
ACAD_PROXY_OBJECT
  5
15B6D
102
{ACAD_REACTORS
330
15B65
102
}
330
15B65
100
AcDbZombieObject
 90
      499
 91
      510
 93
      500
310
424CD108121A5919195B90640502408333333333333E3BF0000000000000FB01079024090700405020000000000001110200405405064090740C02480A0340
1001
ACAD
1000
AcDbSavedByObjectVersion
1070
     0
  0
ACAD_PROXY_OBJECT
  5
15B6C
102
{ACAD_REACTORS
330
15B65
102
}
330
15B65
100
AcDbZombieObject
 90
      499
 91
      510
 93
      436
310
42CCD915DA5C99599C985B595059028333333333333E3BF0000000000000FB0107901411070040501600405405064090741402480A0340
1001
ACAD
1000
AcDbSavedByObjectVersion
1070
     0
  0
ACAD_PROXY_OBJECT
  5
15B6A
102
{ACAD_REACTORS
330
15B65
102
}
330
15B65
100
AcDbZombieObject
 90
      499
 91
      510
 93
      388
310
4150985CDA58D07406404333333333333E3BF0000000000000FB0107A41107004050150841D405064090741402480A0350
1001
ACAD
1000
AcDbSavedByObjectVersion
1070
     0
  0
ACAD_PROXY_OBJECT
  5
15B71
102
{ACAD_REACTORS
330
15B65
102
}
330
15B65
100
AcDbZombieObject
 90
      499
 91
      510
 93
      428
310
42109C9A59DA1D195B90C409028333333333333E3BF0000000000000FB010790141107004050150841D405064090741402480A029950
1001
ACAD
1000
AcDbSavedByObjectVersion
1070
     0
  0
ACAD_PROXY_OBJECT
  5
15B75
102
{ACAD_REACTORS
330
15B65
102
}
330
15B65
100
AcDbZombieObject
 90
      499
 91
      510
 93
      452
310
42D0DBDB1BDC90DA185B99D95104090240C333333333333E3BF0000000000000FB0108901411070040501508421405064090741402480A0350
1001
ACAD
1000
AcDbSavedByObjectVersion
1070
     0
  0
ACAD_PROXY_OBJECT
  5
15B6E
102
{ACAD_REACTORS
330
15B65
102
}
330
15B65
100
AcDbZombieObject
 90
      499
 91
      510
 93
      500
310
4290DBDB98D95C1D1D585B10940D028333333333333E3BF0000000000000FB0107902409070040501000000000000111010841D405064090740C02480A0340
1001
ACAD
1000
AcDbSavedByObjectVersion
1070
     0
  0
ACAD_PROXY_OBJECT
  5
15B70
102
{ACAD_REACTORS
330
15B65
102
}
330
15B65
100
AcDbZombieObject
 90
      499
 91
      510
 93
      412
310
40D11A5B50B409028333333333333E3BF0000000000000FB010790141107004050150841D405064090741402480A02677FFFFFD0
1001
ACAD
1000
AcDbSavedByObjectVersion
1070
     0
  0
ACAD_PROXY_OBJECT
  5
19052
102
{ACAD_REACTORS
330
15B65
102
}
330
15B65
100
AcDbZombieObject
 90
      499
 91
      510
 93
      452
310
43115919D950DBDB1BDC93D999916409028333333333333E3BF0000000000000FB010790141107004050150841D405064090741402480A0350
1001
ACAD
1000
AcDbSavedByObjectVersion
1070
     0
  0
ACAD_PROXY_OBJECT
  5
15B74
102
{ACAD_REACTORS
330
15B65
102
}
330
15B65
100
AcDbZombieObject
 90
      499
 91
      510
 93
      444
310
42D19858D95C185D1D195C9B90F409028333333333333E3BF0000000000000FB010790141107004050150841D405064090741402480A0350
1001
ACAD
1000
AcDbSavedByObjectVersion
1070
     0
  0
ACAD_PROXY_OBJECT
  5
15B66
102
{ACAD_REACTORS
330
15B65
102
}
330
15B65
100
AcDbZombieObject
 90
      499
 91
      510
 93
      388
310
41119B185D240901404333333333333E3BF0000000000000F9010740A41107004050150841D405064090741402480A1B50
1001
ACAD
1000
AcDbSavedByObjectVersion
1070
     0
  0
ACAD_PROXY_OBJECT
  5
15B67
102
{ACAD_REACTORS
330
15B65
102
}
330
15B65
100
AcDbZombieObject
 90
      499
 91
      510
 93
      476
310
43519B185D15DA5D1A115919D95CD0140901404333333333333E3BF0000000000000F9010740901411070040501600405405064090741402480A1B50
1001
ACAD
1000
AcDbSavedByObjectVersion
1070
     0
  0
ACAD_PROXY_OBJECT
  5
15B68
102
{ACAD_REACTORS
330
15B65
102
}
330
15B65
100
AcDbZombieObject
 90
      499
 91
      510
 93
      412
310
41D1DBDD5C985D5910240902404333333333333E3BF0000000000000F9010740A411070040501641D405064090741402480A1B50
1001
ACAD
1000
AcDbSavedByObjectVersion
1070
     0
  0
ACAD_PROXY_OBJECT
  5
15B69
102
{ACAD_REACTORS
330
15B65
102
}
330
15B65
100
AcDbZombieObject
 90
      499
 91
      510
 93
      500
310
4411DBDD5C985D5915DA5D1A115919D95CD0340902404333333333333E3BF0000000000000F9010740901411070040501600405405064090741402480A1B50
1001
ACAD
1000
AcDbSavedByObjectVersion
1070
     0
  0
ACAD_PROXY_OBJECT
  5
1A3CA
102
{ACAD_REACTORS
330
15B65
102
}
330
15B65
100
AcDbZombieObject
 90
      499
 91
      510
 93
      476
310
41921A5919195B90640502408333333333333E33F0000000000000F901079024090700405020000000000001110200405405064090740C02480A0340
1001
ACAD
1000
AcDbSavedByObjectVersion
1070
     0
  0
ACAD_PROXY_OBJECT
  5
19050
102
{ACAD_REACTORS
330
15B65
102
}
330
15B65
100
AcDbZombieObject
 90
      499
 91
      510
 93
      428
310
42529A5D1D195C93D999914409028333333333333E3BF0000000000000FB010790141107004050150A41D405064090741402480A0350
1001
ACAD
1000
AcDbSavedByObjectVersion
1070
     0
  0
ACAD_PROXY_OBJECT
  5
15B73
102
{ACAD_REACTORS
330
15B65
102
}
330
15B65
100
AcDbZombieObject
 90
      499
 91
      510
 93
      444
310
42D31A5B995C185D1D195C9B90E409028333333333333E3BF0000000000000FB010790141107004050750841D405064090741402483A0350
1001
ACAD
1000
AcDbSavedByObjectVersion
1070
     0
  0
ACAD_PROXY_OBJECT
  5
1A3D0
102
{ACAD_REACTORS
330
15B65
102
}
330
15B65
100
AcDbZombieObject
 90
      499
 91
      510
 93
      484
310
42135BD9195B1A5B99D0A409038333333333333E33F0000000000000F901074090290700405010000000000201990108421405064090741402480A1B40
1001
ACAD
1000
AcDbSavedByObjectVersion
1070
     0
  0
ACAD_PROXY_OBJECT
  5
19051
102
{ACAD_REACTORS
330
15B65
102
}
330
15B65
100
AcDbZombieObject
 90
      499
 91
      510
 93
      444
310
42D3DD995C9A185B99D3D999915409028333333333333E3BF0000000000000FB010790141107004050150941D405064090741402480A0350
1001
ACAD
1000
AcDbSavedByObjectVersion
1070
     0
  0
ACAD_PROXY_OBJECT
  5
15B6F
102
{ACAD_REACTORS
330
15B65
102
}
330
15B65
100
AcDbZombieObject
 90
      499
 91
      510
 93
      420
310
425499585B1A5CDD1A58D08409028333333333333E3BF0000000000000FB01079019070040501508421405064090741402480A1B40
1001
ACAD
1000
AcDbSavedByObjectVersion
1070
     0
  0
ACAD_PROXY_OBJECT
  5
1A3CF
102
{ACAD_REACTORS
330
15B65
102
}
330
15B65
100
AcDbZombieObject
 90
      499
 91
      510
 93
      420
310
4194DA1859195911B40902404333333333333E33F0000000000000F9010740A41107004050150800405405064090840C02480A0B40
1001
ACAD
1000
AcDbSavedByObjectVersion
1070
     0
  0
ACAD_PROXY_OBJECT
  5
1A3CE
102
{ACAD_REACTORS
330
15B65
102
}
330
15B65
100
AcDbZombieObject
 90
      499
 91
      510
 93
      516
310
4454DA18591959081DDA5D1A08195919D95CD1A40902404333333333333E33F0000000000000F901074090142907004050250800405405064090740C02480A0B40
1001
ACAD
1000
AcDbSavedByObjectVersion
1070
     0
  0
ACAD_PROXY_OBJECT
  5
1A3CB
102
{ACAD_REACTORS
330
15B65
102
}
330
15B65
100
AcDbZombieObject
 90
      499
 91
      510
 93
      532
310
4394DA1859195CC81BD98811DC985E5174090240C333333333333E33F0000000000000F901079024090741D01000000000000111010841D405064090740C02480A0340
1001
ACAD
1000
AcDbSavedByObjectVersion
1070
     0
  0
ACAD_PROXY_OBJECT
  5
1A3CC
102
{ACAD_REACTORS
330
15B65
102
}
330
15B65
100
AcDbZombieObject
 90
      499
 91
      510
 93
      476
310
41D4DAD95D18DA1E51840502408333333333333E33F0000000000000F901079024090741D01000000000000111010B41D405064090741802480A0340
1001
ACAD
1000
AcDbSavedByObjectVersion
1070
     0
  0
ACAD_PROXY_OBJECT
  5
15B72
102
{ACAD_REACTORS
330
15B65
102
}
330
15B65
100
AcDbZombieObject
 90
      499
 91
      510
 93
      412
310
41D51A1A58DAD95B90D409028333333333333E3BF0000000000000FB010790141107004050150C41D405064090741402480A0350
1001
ACAD
1000
AcDbSavedByObjectVersion
1070
     0
  0
ACAD_PROXY_OBJECT
  5
1A3C9
102
{ACAD_REACTORS
330
15B65
102
}
330
15B65
100
AcDbZombieObject
 90
      499
 91
      510
 93
      420
310
4255DA5C99599C985B595059028333333333333E33F0000000000000F90107901411070040501600405405064090740C02480A0340
1001
ACAD
1000
AcDbSavedByObjectVersion
1070
     0
  0
ACAD_PROXY_OBJECT
  5
1A3CD
102
{ACAD_REACTORS
330
15B65
102
}
330
15B65
100
AcDbZombieObject
 90
      499
 91
      510
 93
      404
310
41560B54985E51940902404000000000000E03F0000000000000F9010740501907004050150841D405064090740C02480A1B40
1001
ACAD
1000
AcDbSavedByObjectVersion
1070
     0
  0
XRECORD
  5
1AACC
102
{ACAD_REACTORS
330
1AACB
102
}
330
1AACB
100
AcDbXrecord
340
2D0
  0
XRECORD
  5
1AACD
102
{ACAD_REACTORS
330
1AACB
102
}
330
1AACB
100
AcDbXrecord
340
2CF
  0
DICTIONARYVAR
  5
1A662
102
{ACAD_REACTORS
330
37
102
}
330
37
100
DictionaryVariables
280
     0
  1
1:1
  0
DICTIONARYVAR
  5
15C4B
102
{ACAD_REACTORS
330
37
102
}
330
37
100
DictionaryVariables
280
     0
  1
Standard
  0
DICTIONARYVAR
  5
4F1
102
{ACAD_REACTORS
330
37
102
}
330
37
100
DictionaryVariables
280
     0
  1
Standard
  0
DICTIONARYVAR
  5
38
102
{ACAD_REACTORS
330
37
102
}
330
37
100
DictionaryVariables
280
     0
  1
-1
  0
DICTIONARYVAR
  5
408
102
{ACAD_REACTORS
330
37
102
}
330
37
100
DictionaryVariables
280
     0
  1
2
  0
DICTIONARYVAR
  5
1891
102
{ACAD_REACTORS
330
37
102
}
330
37
100
DictionaryVariables
280
     0
  1
1
  0
DICTIONARYVAR
  5
15C4E
102
{ACAD_REACTORS
330
37
102
}
330
37
100
DictionaryVariables
280
     0
  1
0
  0
DICTIONARYVAR
  5
1895
102
{ACAD_REACTORS
330
37
102
}
330
37
100
DictionaryVariables
280
     0
  1
8
  0
DICTIONARYVAR
  5
1894
102
{ACAD_REACTORS
330
37
102
}
330
37
100
DictionaryVariables
280
     0
  1
1
  0
DICTIONARYVAR
  5
1A6B8
102
{ACAD_REACTORS
330
37
102
}
330
37
100
DictionaryVariables
280
     0
  1
0
  0
DICTIONARYVAR
  5
1892
102
{ACAD_REACTORS
330
37
102
}
330
37
100
DictionaryVariables
280
     0
  1
8
  0
DICTIONARYVAR
  5
1893
102
{ACAD_REACTORS
330
37
102
}
330
37
100
DictionaryVariables
280
     0
  1
2
  0
DICTIONARYVAR
  5
409
102
{ACAD_REACTORS
330
37
102
}
330
37
100
DictionaryVariables
280
     0
  1

  0
DICTIONARYVAR
  5
15C4D
102
{ACAD_REACTORS
330
37
102
}
330
37
100
DictionaryVariables
280
     0
  1
127
  0
DICTIONARYVAR
  5
1A3C8
102
{ACAD_REACTORS
330
37
102
}
330
37
100
DictionaryVariables
280
     0
  1
2
  0
DICTIONARY
  5
1AACF
330
15B55
100
AcDbDictionary
  3
ACAD_XREC_ROUNDTRIP
360
1AAD0
1001
ACAD
1000
TREAT_AS_HARD
1070
     1
  0
DICTIONARY
  5
1AAD1
330
15B4D
100
AcDbDictionary
  3
ACAD_XREC_ROUNDTRIP
360
1AAD2
1001
ACAD
1000
TREAT_AS_HARD
1070
     1
  0
DICTIONARY
  5
1AAD3
330
15B5D
100
AcDbDictionary
  3
ACAD_XREC_ROUNDTRIP
360
1AAD4
1001
ACAD
1000
TREAT_AS_HARD
1070
     1
  0
XRECORD
  5
1AAD0
102
{ACAD_REACTORS
330
1AACF
102
}
330
1AACF
100
AcDbXrecord
102
MATERIAL
148
0.0
149
0.0
149
0.0
 93
        0
 94
      127
282
     0
 72
     0
 77
     0
171
     0
175
     0
179
     0
273
     0
  0
XRECORD
  5
1AAD2
102
{ACAD_REACTORS
330
1AAD1
102
}
330
1AAD1
100
AcDbXrecord
102
MATERIAL
148
0.0
149
0.0
149
0.0
 93
        0
 94
      127
282
     0
 72
     0
 77
     0
171
     0
175
     0
179
     0
273
     0
  0
XRECORD
  5
1AAD4
102
{ACAD_REACTORS
330
1AAD3
102
}
330
1AAD3
100
AcDbXrecord
102
MATERIAL
148
0.0
149
0.0
149
0.0
 93
        0
 94
      127
282
     0
 72
     0
 77
     0
171
     0
175
     0
179
     0
273
     0
  0
ENDSEC
  0
EOF
