  0
SECTION
  2
HEADER
  9
$ACADVER
  1
AC1012
  9
$DWGCODEPAGE
  3
ansi_932
  9
$INSBASE
 10
0.0
 20
0.0
 30
0.0
  9
$EXTMIN
 10
1.000000000000000E+20
 20
1.000000000000000E+20
 30
1.000000000000000E+20
  9
$EXTMAX
 10
-1.000000000000000E+20
 20
-1.000000000000000E+20
 30
-1.000000000000000E+20
  9
$LIMMIN
 10
0.0
 20
0.0
  9
$LIMMAX
 10
420.0
 20
297.0
  9
$ORTHOMODE
 70
     0
  9
$REGENMODE
 70
     1
  9
$FILLMODE
 70
     1
  9
$QTEXTMODE
 70
     0
  9
$MIRRTEXT
 70
     0
  9
$DRAGMODE
 70
     2
  9
$LTSCALE
 40
0.5
  9
$OSMODE
 70
 14591
  9
$ATTMODE
 70
     1
  9
$TEXTSIZE
 40
4.0
  9
$TRACEWID
 40
1.0
  9
$TEXTSTYLE
  7
STANDARD
  9
$CLAYER
  8
1TEXT
  9
$CELTYPE
  6
BYLAYER
  9
$CECOLOR
 62
   256
  9
$CELTSCALE
 40
1.0
  9
$DELOBJ
 70
     1
  9
$DISPSILH
 70
     0
  9
$DIMSCALE
 40
2.0
  9
$DIMASZ
 40
2.0
  9
$DIMEXO
 40
0.0
  9
$DIMDLI
 40
7.0
  9
$DIMRND
 40
0.0
  9
$DIMDLE
 40
0.0
  9
$DIMEXE
 40
1.0
  9
$DIMTP
 40
0.0
  9
$DIMTM
 40
0.0
  9
$DIMTXT
 40
3.5
  9
$DIMCEN
 40
0.0
  9
$DIMTSZ
 40
0.0
  9
$DIMTOL
 70
     0
  9
$DIMLIM
 70
     0
  9
$DIMTIH
 70
     0
  9
$DIMTOH
 70
     0
  9
$DIMSE1
 70
     0
  9
$DIMSE2
 70
     0
  9
$DIMTAD
 70
     1
  9
$DIMZIN
 70
     8
  9
$DIMBLK
  1

  9
$DIMASO
 70
     1
  9
$DIMSHO
 70
     1
  9
$DIMPOST
  1
 
  9
$DIMAPOST
  1

  9
$DIMALT
 70
     0
  9
$DIMALTD
 70
     2
  9
$DIMALTF
 40
25.4
  9
$DIMLFAC
 40
1.0
  9
$DIMTOFL
 70
     1
  9
$DIMTVP
 40
0.0
  9
$DIMTIX
 70
     0
  9
$DIMSOXD
 70
     0
  9
$DIMSAH
 70
     1
  9
$DIMBLK1
  1
OPEN30
  9
$DIMBLK2
  1
OPEN30
  9
$DIMSTYLE
  2
NEWX10
  9
$DIMCLRD
 70
   256
  9
$DIMCLRE
 70
   256
  9
$DIMCLRT
 70
   201
  9
$DIMTFAC
 40
0.7
  9
$DIMGAP
 40
0.7
  9
$DIMJUST
 70
     0
  9
$DIMSD1
 70
     0
  9
$DIMSD2
 70
     0
  9
$DIMTOLJ
 70
     1
  9
$DIMTZIN
 70
     8
  9
$DIMALTZ
 70
     0
  9
$DIMALTTZ
 70
     0
  9
$DIMFIT
 70
     2
  9
$DIMUPT
 70
     0
  9
$DIMUNIT
 70
     2
  9
$DIMDEC
 70
     2
  9
$DIMTDEC
 70
     4
  9
$DIMALTU
 70
     2
  9
$DIMALTTD
 70
     2
  9
$DIMTXSTY
  7
STANDARD
  9
$DIMAUNIT
 70
     0
  9
$LUNITS
 70
     2
  9
$LUPREC
 70
     4
  9
$SKETCHINC
 40
1.0
  9
$FILLETRAD
 40
5.0
  9
$AUNITS
 70
     0
  9
$AUPREC
 70
     2
  9
$MENU
  1
acad
  9
$ELEVATION
 40
0.0
  9
$PELEVATION
 40
0.0
  9
$THICKNESS
 40
0.0
  9
$LIMCHECK
 70
     0
  9
$CHAMFERA
 40
1.0
  9
$CHAMFERB
 40
1.0
  9
$CHAMFERC
 40
20.0
  9
$CHAMFERD
 40
0.0
  9
$SKPOLY
 70
     0
  9
$TDCREATE
 40
2453033.732663484
  9
$TDUPDATE
 40
2458296.379566169
  9
$TDINDWG
 40
2.8473599884
  9
$TDUSRTIMER
 40
2.8473599884
  9
$USRTIMER
 70
     1
  9
$ANGBASE
 50
0.0
  9
$ANGDIR
 70
     0
  9
$PDMODE
 70
     0
  9
$PDSIZE
 40
0.0
  9
$PLINEWID
 40
0.0
  9
$COORDS
 70
     2
  9
$SPLFRAME
 70
     0
  9
$SPLINETYPE
 70
     6
  9
$SPLINESEGS
 70
     8
  9
$ATTDIA
 70
     0
  9
$ATTREQ
 70
     1
  9
$HANDLING
 70
     1
  9
$HANDSEED
  5
2CB97
  9
$SURFTAB1
 70
     6
  9
$SURFTAB2
 70
     6
  9
$SURFTYPE
 70
     6
  9
$SURFU
 70
     6
  9
$SURFV
 70
     6
  9
$UCSNAME
  2

  9
$UCSORG
 10
0.0
 20
0.0
 30
0.0
  9
$UCSXDIR
 10
1.0
 20
0.0
 30
0.0
  9
$UCSYDIR
 10
0.0
 20
1.0
 30
0.0
  9
$PUCSNAME
  2

  9
$PUCSORG
 10
0.0
 20
0.0
 30
0.0
  9
$PUCSXDIR
 10
1.0
 20
0.0
 30
0.0
  9
$PUCSYDIR
 10
0.0
 20
1.0
 30
0.0
  9
$USERI1
 70
     0
  9
$USERI2
 70
     0
  9
$USERI3
 70
     0
  9
$USERI4
 70
     0
  9
$USERI5
 70
     0
  9
$USERR1
 40
0.0
  9
$USERR2
 40
0.0
  9
$USERR3
 40
0.0
  9
$USERR4
 40
0.0
  9
$USERR5
 40
0.0
  9
$WORLDVIEW
 70
     1
  9
$SHADEDGE
 70
     3
  9
$SHADEDIF
 70
    70
  9
$TILEMODE
 70
     1
  9
$MAXACTVP
 70
    48
  9
$PINSBASE
 10
0.0
 20
0.0
 30
0.0
  9
$PLIMCHECK
 70
     0
  9
$PEXTMIN
 10
1.000000000000000E+20
 20
1.000000000000000E+20
 30
1.000000000000000E+20
  9
$PEXTMAX
 10
-1.000000000000000E+20
 20
-1.000000000000000E+20
 30
-1.000000000000000E+20
  9
$PLIMMIN
 10
0.0
 20
0.0
  9
$PLIMMAX
 10
420.0
 20
297.0
  9
$UNITMODE
 70
     0
  9
$VISRETAIN
 70
     1
  9
$PLINEGEN
 70
     0
  9
$PSLTSCALE
 70
     1
  9
$TREEDEPTH
 70
  3020
  9
$PICKSTYLE
 70
     1
  9
$CMLSTYLE
  2
STANDARD
  9
$CMLJUST
 70
     0
  9
$CMLSCALE
 40
20.0
  9
$SAVEIMAGES
 70
     1
  0
ENDSEC
  0
SECTION
  2
CLASSES
  0
CLASS
  1
DICTIONARYVAR
  2
AcDbDictionaryVar
  3
ObjectDBX Classes
 90
        0
280
     0
281
     0
  0
CLASS
  1
IDBUFFER
  2
AcDbIdBuffer
  3
ObjectDBX Classes
 90
    32768
280
     0
281
     0
  0
CLASS
  1
LWPOLYLINE
  2
AcDbPolyline
  3
ObjectDBX Classes
 90
    32768
280
     0
281
     1
  0
CLASS
  1
ACDBDICTIONARYWDFLT
  2
AcDbDictionaryWithDefault
  3
ObjectDBX Classes
 90
    32768
280
     0
281
     0
  0
CLASS
  1
ACDBPLACEHOLDER
  2
AcDbPlaceHolder
  3
ObjectDBX Classes
 90
        0
280
     0
281
     0
  0
CLASS
  1
LAYOUT
  2
AcDbLayout
  3
ObjectDBX Classes
 90
        0
280
     0
281
     0
  0
CLASS
  1
TABLESTYLE
  2
AcDbTableStyle
  3
ObjectDBX Classes
 90
     4095
280
     0
281
     0
  0
CLASS
  1
SORTENTSTABLE
  2
AcDbSortentsTable
  3
ObjectDBX Classes
 90
    32768
280
     0
281
     0
  0
CLASS
  1
DIMASSOC
  2
AcDbDimAssoc
  3
"AcDbDimAssoc|Product Desc:     AcDim ARX App For Dimension|Company:          Autodesk, Inc.|WEB Address:      www.autodesk.com"
 90
        0
280
     0
281
     0
  0
CLASS
  1
MATERIAL
  2
AcDbMaterial
  3
ObjectDBX Classes
 90
     1153
280
     0
281
     0
  0
CLASS
  1
VISUALSTYLE
  2
AcDbVisualStyle
  3
ObjectDBX Classes
 90
     4095
280
     0
281
     0
  0
CLASS
  1
SCALE
  2
AcDbScale
  3
ObjectDBX Classes
 90
     1153
280
     0
281
     0
  0
CLASS
  1
MLEADERSTYLE
  2
AcDbMLeaderStyle
  3
ACDB_MLEADERSTYLE_CLASS
 90
     4095
280
     0
281
     0
  0
CLASS
  1
CELLSTYLEMAP
  2
AcDbCellStyleMap
  3
ObjectDBX Classes
 90
     1152
280
     0
281
     0
  0
CLASS
  1
EXACXREFPANELOBJECT
  2
ExAcXREFPanelObject
  3
EXAC_ESW
 90
   -31743
280
     1
281
     0
  0
CLASS
  1
NPOCOLLECTION
  2
AcDbImpNonPersistentObjectsCollection
  3
ObjectDBX Classes
 90
   -31615
280
     1
281
     0
  0
CLASS
  1
SUN
  2
AcDbSun
  3
SCENEOE
 90
     1153
280
     0
281
     0
  0
CLASS
  1
XRECORD
  2
AcDbXrecord
  3
ObjectDBX Classes
 90
    32768
280
     0
281
     0
  0
CLASS
  1
HATCH
  2
AcDbHatch
  3
ObjectDBX Classes
 90
    32768
280
     0
281
     1
  0
ENDSEC
  0
SECTION
  2
TABLES
  0
TABLE
  2
VPORT
  5
8
330
0
100
AcDbSymbolTable
 70
     1
  0
VPORT
  5
15B17
330
8
100
AcDbSymbolTableRecord
100
AcDbViewportTableRecord
  2
*ACTIVE
 70
     0
 10
0.0
 20
0.0
 11
1.0
 21
1.0
 12
3648.505322617675
 22
-2064.931238836964
 13
0.0
 23
0.0
 14
10.0
 24
10.0
 15
10.0
 25
10.0
 16
0.0
 26
0.0
 36
1.0
 17
0.0
 27
0.0
 37
0.0
 40
618.5366488216041
 41
1.905686546463246
 42
50.0
 43
0.0
 44
0.0
 50
0.0
 51
0.0
 71
    16
 72
   100
 73
     1
 74
     1
 75
     0
 76
     0
 77
     0
 78
     0
  0
ENDTAB
  0
TABLE
  2
LTYPE
  5
5
330
0
100
AcDbSymbolTable
 70
     4
  0
LTYPE
  5
12
330
5
100
AcDbSymbolTableRecord
100
AcDbLinetypeTableRecord
  2
BYBLOCK
 70
     0
  3

 72
    65
 73
     0
 40
0.0
  0
LTYPE
  5
13
330
5
100
AcDbSymbolTableRecord
100
AcDbLinetypeTableRecord
  2
BYLAYER
 70
     0
  3

 72
    65
 73
     0
 40
0.0
  0
LTYPE
  5
14
330
5
100
AcDbSymbolTableRecord
100
AcDbLinetypeTableRecord
  2
CONTINUOUS
 70
     0
  3
Solid line
 72
    65
 73
     0
 40
0.0
  0
LTYPE
  5
26
330
5
100
AcDbSymbolTableRecord
100
AcDbLinetypeTableRecord
  2
CENTER2
 70
     0
  3
Center (.5x) ___ _ ___ _ ___ _ ___ _ ___ _ ___
 72
    65
 73
     4
 40
28.575
 49
19.05
 74
     0
 49
-3.175
 74
     0
 49
3.175
 74
     0
 49
-3.175
 74
     0
  0
LTYPE
  5
FF
330
5
100
AcDbSymbolTableRecord
100
AcDbLinetypeTableRecord
  2
HIDDEN
 70
     0
  3
Hidden __ __ __ __ __ __ __ __ __ __ __ __ __ _
 72
    65
 73
     2
 40
9.524999999999999
 49
6.35
 74
     0
 49
-3.175
 74
     0
  0
LTYPE
  5
100
330
5
100
AcDbSymbolTableRecord
100
AcDbLinetypeTableRecord
  2
PHANTOM2
 70
     0
  3
Phantom (0.5x) ___ _ _ ___ _ _ ___ _ _ ___ _ _
 72
    65
 73
     6
 40
31.75
 49
15.875
 74
     0
 49
-3.175
 74
     0
 49
3.175
 74
     0
 49
-3.175
 74
     0
 49
3.175
 74
     0
 49
-3.175
 74
     0
  0
ENDTAB
  0
TABLE
  2
LAYER
  5
2
102
{ACAD_XDICTIONARY
360
14EC2
102
}
330
0
100
AcDbSymbolTable
 70
     7
  0
LAYER
  5
E
102
{ACAD_XDICTIONARY
360
15BB5
102
}
330
2
100
AcDbSymbolTableRecord
100
AcDbLayerTableRecord
  2
0
 70
     0
 62
     7
  6
CONTINUOUS
  0
LAYER
  5
29
102
{ACAD_XDICTIONARY
360
15BB7
102
}
330
2
100
AcDbSymbolTableRecord
100
AcDbLayerTableRecord
  2
1CENTER
 70
     0
 62
     7
  6
CENTER2
  0
LAYER
  5
31
102
{ACAD_XDICTIONARY
360
15BB9
102
}
330
2
100
AcDbSymbolTableRecord
100
AcDbLayerTableRecord
  2
1TEXT
 70
     0
 62
     7
  6
CONTINUOUS
  0
LAYER
  5
101
102
{ACAD_XDICTIONARY
360
15BC3
102
}
330
2
100
AcDbSymbolTableRecord
100
AcDbLayerTableRecord
  2
1DIM
 70
     0
 62
     7
  6
CONTINUOUS
  0
LAYER
  5
102
102
{ACAD_XDICTIONARY
360
15BC5
102
}
330
2
100
AcDbSymbolTableRecord
100
AcDbLayerTableRecord
  2
1HIDDEN
 70
     0
 62
     7
  6
HIDDEN
  0
LAYER
  5
103
102
{ACAD_XDICTIONARY
360
15BC7
102
}
330
2
100
AcDbSymbolTableRecord
100
AcDbLayerTableRecord
  2
1PHANTOM
 70
     0
 62
     7
  6
PHANTOM2
  0
LAYER
  5
25F
102
{ACAD_XDICTIONARY
360
15BCB
102
}
330
2
100
AcDbSymbolTableRecord
100
AcDbLayerTableRecord
  2
01
 70
     0
 62
     1
  6
CONTINUOUS
  0
ENDTAB
  0
TABLE
  2
STYLE
  5
3
330
0
100
AcDbSymbolTable
 70
     1
  0
STYLE
  5
F
330
3
100
AcDbSymbolTableRecord
100
AcDbTextStyleTableRecord
  2
STANDARD
 70
     0
 40
0.0
 41
1.0
 50
0.0
 71
     0
 42
4.0
  3
txt.shx
  4
extfont.shx
  0
ENDTAB
  0
TABLE
  2
VIEW
  5
6
330
0
100
AcDbSymbolTable
 70
     0
  0
ENDTAB
  0
TABLE
  2
UCS
  5
7
330
0
100
AcDbSymbolTable
 70
     0
  0
ENDTAB
  0
TABLE
  2
APPID
  5
9
330
0
100
AcDbSymbolTable
 70
    14
  0
APPID
  5
10
330
9
100
AcDbSymbolTableRecord
100
AcDbRegAppTableRecord
  2
ACAD
 70
     0
  0
APPID
  5
21
330
9
100
AcDbSymbolTableRecord
100
AcDbRegAppTableRecord
  2
DRAWINGVARIABLESXDATA
 70
     0
  0
APPID
  5
64
330
9
100
AcDbSymbolTableRecord
100
AcDbRegAppTableRecord
  2
CONTENTTABDATA
 70
     0
  0
APPID
  5
65
330
9
100
AcDbSymbolTableRecord
100
AcDbRegAppTableRecord
  2
CONTENTCURRENTTAB
 70
     0
  0
APPID
  5
66
330
9
100
AcDbSymbolTableRecord
100
AcDbRegAppTableRecord
  2
CONTENTBLOCKDESCRIPTION
 70
     0
  0
APPID
  5
67
330
9
100
AcDbSymbolTableRecord
100
AcDbRegAppTableRecord
  2
CONTENTBLOCKICON
 70
     0
  0
APPID
  5
68
330
9
100
AcDbSymbolTableRecord
100
AcDbRegAppTableRecord
  2
CONTENTLONGBLOCKNAME
 70
     0
  0
APPID
  5
5A9
330
9
100
AcDbSymbolTableRecord
100
AcDbRegAppTableRecord
  2
ACAD_PSEXT
 70
     0
  0
APPID
  5
18AC
330
9
100
AcDbSymbolTableRecord
100
AcDbRegAppTableRecord
  2
ACAD_DSTYLE_DIMTEXT_FILL
 70
     0
  0
APPID
  5
15B9A
330
9
100
AcDbSymbolTableRecord
100
AcDbRegAppTableRecord
  2
ACAD_MLEADERVER
 70
     0
  0
APPID
  5
175EB
330
9
100
AcDbSymbolTableRecord
100
AcDbRegAppTableRecord
  2
ACAD_DSTYLE_DIMRADIAL_EXTE
 70
     0
  0
APPID
  5
17CB7
330
9
100
AcDbSymbolTableRecord
100
AcDbRegAppTableRecord
  2
ACADANNOTATIVE
 70
     0
  0
APPID
  5
244FC
330
9
100
AcDbSymbolTableRecord
100
AcDbRegAppTableRecord
  2
ACLAYERTOOLS
 70
     0
  0
APPID
  5
24F8E
330
9
100
AcDbSymbolTableRecord
100
AcDbRegAppTableRecord
  2
ACAD_EXEMPT_FROM_CAD_STAND
 70
     0
  0
ENDTAB
  0
TABLE
  2
DIMSTYLE
  5
A
330
0
100
AcDbSymbolTable
 70
     1
  0
DIMSTYLE
105
48
330
A
100
AcDbSymbolTableRecord
100
AcDbDimStyleTableRecord
  2
NEWX10
 70
     0
  3
 
  4

  5

  6
OPEN30
  7
OPEN30
 40
1.0
 41
2.0
 42
0.0
 43
7.0
 44
1.0
 45
0.0
 46
0.0
 47
0.0
 48
0.0
140
3.5
141
0.0
142
0.0
143
25.4
144
1.0
145
0.0
146
0.7
147
0.7
 71
     0
 72
     0
 73
     0
 74
     0
 75
     0
 76
     0
 77
     1
 78
     8
170
     0
171
     2
172
     1
173
     1
174
     0
175
     0
176
   256
177
   256
178
   201
179
     2
270
     2
271
     2
272
     4
273
     2
274
     2
340
F
275
     0
280
     0
281
     0
282
     0
283
     1
284
     8
285
     0
286
     0
287
     2
288
     0
  0
ENDTAB
  0
TABLE
  2
BLOCK_RECORD
  5
1
330
0
100
AcDbSymbolTable
 70
     1
  0
BLOCK_RECORD
  5
18
102
{ACAD_XDICTIONARY
360
6E9
102
}
330
1
100
AcDbSymbolTableRecord
100
AcDbBlockTableRecord
  2
*MODEL_SPACE
  0
BLOCK_RECORD
  5
15
102
{ACAD_XDICTIONARY
360
59B
102
}
330
1
100
AcDbSymbolTableRecord
100
AcDbBlockTableRecord
  2
*PAPER_SPACE
  0
BLOCK_RECORD
  5
42
330
1
100
AcDbSymbolTableRecord
100
AcDbBlockTableRecord
  2
_OPEN30
  0
ENDTAB
  0
ENDSEC
  0
SECTION
  2
BLOCKS
  0
BLOCK
  5
19
330
18
100
AcDbEntity
  8
0
100
AcDbBlockBegin
  2
*MODEL_SPACE
 70
     0
 10
0.0
 20
0.0
 30
0.0
  3
*MODEL_SPACE
  1

  0
ENDBLK
  5
1A
330
18
100
AcDbEntity
  8
0
100
AcDbBlockEnd
  0
BLOCK
  5
16
330
15
100
AcDbEntity
 67
     1
  8
0
100
AcDbBlockBegin
  2
*PAPER_SPACE
 70
     0
 10
0.0
 20
0.0
 30
0.0
  3
*PAPER_SPACE
  1

  0
ENDBLK
  5
17
330
15
100
AcDbEntity
 67
     1
  8
0
100
AcDbBlockEnd
  0
BLOCK
  5
43
330
42
100
AcDbEntity
  8
0
100
AcDbBlockBegin
  2
_OPEN30
 70
     0
 10
0.0
 20
0.0
 30
0.0
  3
_OPEN30
  1

  0
LINE
  5
44
330
42
100
AcDbEntity
  8
0
  6
BYBLOCK
 62
     0
100
AcDbLine
 10
-1.0
 20
0.26794919
 30
0.0
 11
0.0
 21
0.0
 31
0.0
  0
LINE
  5
45
330
42
100
AcDbEntity
  8
0
  6
BYBLOCK
 62
     0
100
AcDbLine
 10
0.0
 20
0.0
 30
0.0
 11
-1.0
 21
-0.26794919
 31
0.0
  0
LINE
  5
46
330
42
100
AcDbEntity
  8
0
  6
BYBLOCK
 62
     0
100
AcDbLine
 10
0.0
 20
0.0
 30
0.0
 11
-1.0
 21
0.0
 31
0.0
  0
ENDBLK
  5
47
330
42
100
AcDbEntity
  8
0
100
AcDbBlockEnd
  0
ENDSEC
  0
SECTION
  2
ENTITIES
  0
ARC
  5
22FCA
330
18
100
AcDbEntity
  8
01
100
AcDbCircle
 10
3310.646833361996
 20
-2335.833564434558
 30
0.0
 40
5.0
100
AcDbArc
 50
180.0
 51
270.0
  0
LINE
  5
2539D
330
18
100
AcDbEntity
  8
1DIM
100
AcDbLine
 10
3949.76381187522
 20
-1837.027451073226
 30
0.0
 11
3949.763811875218
 21
-1893.027451073228
 31
0.0
  0
TEXT
  5
253A6
330
18
100
AcDbEntity
  8
1TEXT
100
AcDbText
 10
3966.030478541887
 20
-1848.027451073226
 30
0.0
 40
8.0
  1
対応子機
 72
     1
 11
3984.56381187522
 21
-1848.027451073226
 31
0.0
100
AcDbText
  0
LINE
  5
253A7
330
18
100
AcDbEntity
  8
1DIM
100
AcDbLine
 10
4019.763811875221
 20
-1837.027451073225
 30
0.0
 11
4019.763811875219
 21
-1893.027451073228
 31
0.0
  0
TEXT
  5
253A8
330
18
100
AcDbEntity
  8
1TEXT
100
AcDbText
 10
3957.980108171518
 20
-1876.456165040526
 30
0.0
 40
8.0
  1
EJD9620「」
 41
0.8
 72
     1
 11
3984.563811875221
 21
-1876.456165040526
 31
0.0
100
AcDbText
  0
TEXT
  5
253A9
330
18
100
AcDbEntity
  8
1TEXT
100
AcDbText
 10
3950.723811875222
 20
-1862.456165040525
 30
0.0
 40
8.0
  1
パナソニック電工
 41
0.9
 72
     1
 11
3984.563811875222
 21
-1862.456165040525
 31
0.0
100
AcDbText
  0
LINE
  5
2749E
330
18
100
AcDbEntity
  8
1CENTER
100
AcDbLine
 10
3321.146833361996
 20
-2326.833564434561
 30
0.0
 11
3311.146833361996
 21
-2326.833564434561
 31
0.0
  0
LINE
  5
2749F
330
18
100
AcDbEntity
  8
1CENTER
100
AcDbLine
 10
3316.146833361996
 20
-2331.833564434561
 30
0.0
 11
3316.146833361996
 21
-2321.833564434561
 31
0.0
  0
CIRCLE
  5
2768F
330
18
100
AcDbEntity
  8
1PHANTOM
100
AcDbCircle
 10
3316.145569329317
 20
-2326.833564434561
 30
0.0
 40
3.0
  0
LINE
  5
29B17
330
18
100
AcDbEntity
  8
1CENTER
100
AcDbLine
 10
3383.146833361996
 20
-2159.333564434558
 30
0.0
 11
3373.146833361996
 21
-2159.333564434558
 31
0.0
  0
LINE
  5
29B18
330
18
100
AcDbEntity
  8
1CENTER
100
AcDbLine
 10
3378.146833363864
 20
-2154.333564439115
 30
0.0
 11
3378.146833363864
 21
-2164.333564439115
 31
0.0
  0
LINE
  5
2BE99
330
18
100
AcDbEntity
  8
01
100
AcDbLine
 10
3413.146833361996
 20
-2219.333564434558
 30
0.0
 11
3413.146833361996
 21
-2089.333564434558
 31
0.0
  0
ARC
  5
2BE9A
330
18
100
AcDbEntity
  8
01
100
AcDbCircle
 10
3408.146833361996
 20
-2219.333564434558
 30
0.0
 40
5.0
100
AcDbArc
 50
270.0
 51
0.0
  0
LINE
  5
2BE9B
330
18
100
AcDbEntity
  8
01
100
AcDbLine
 10
3343.146833361996
 20
-2219.333564434558
 30
0.0
 11
3343.146833361996
 21
-2089.333564434558
 31
0.0
  0
ARC
  5
2BE9C
330
18
100
AcDbEntity
  8
01
100
AcDbCircle
 10
3348.146833361996
 20
-2089.333564434558
 30
0.0
 40
5.0
100
AcDbArc
 50
90.0
 51
180.0
  0
LINE
  5
2BE9D
330
18
100
AcDbEntity
  8
01
100
AcDbLine
 10
3348.146833361996
 20
-2084.333564434558
 30
0.0
 11
3408.146833361996
 21
-2084.333564434558
 31
0.0
  0
ARC
  5
2BE9E
330
18
100
AcDbEntity
  8
01
100
AcDbCircle
 10
3408.146833361996
 20
-2089.333564434558
 30
0.0
 40
5.0
100
AcDbArc
 50
0.0
 51
90.0
  0
LINE
  5
2BE9F
330
18
100
AcDbEntity
  8
01
100
AcDbLine
 10
3348.146833361996
 20
-2224.333564434558
 30
0.0
 11
3408.146833361996
 21
-2224.333564434558
 31
0.0
  0
ARC
  5
2BEA0
330
18
100
AcDbEntity
  8
01
100
AcDbCircle
 10
3348.146833361996
 20
-2219.333564434558
 30
0.0
 40
5.0
100
AcDbArc
 50
180.0
 51
270.0
  0
LINE
  5
2C021
330
18
100
AcDbEntity
  8
01
100
AcDbLine
 10
3395.896833361996
 20
-2191.333564434557
 30
0.0
 11
3360.396833361996
 21
-2191.333564434557
 31
0.0
  0
LINE
  5
2C022
330
18
100
AcDbEntity
  8
01
100
AcDbLine
 10
3362.896833361996
 20
-2213.333564434557
 30
0.0
 11
3393.396833361996
 21
-2213.333564434557
 31
0.0
  0
LINE
  5
2C023
330
18
100
AcDbEntity
  8
01
100
AcDbLine
 10
3351.646833361996
 20
-2191.083564434557
 30
0.0
 11
3351.646833361996
 21
-2183.083564434557
 31
0.0
  0
LINE
  5
2C024
330
18
100
AcDbEntity
  8
01
100
AcDbLine
 10
3349.646833361996
 20
-2183.083564434557
 30
0.0
 11
3349.646833361996
 21
-2191.083564434557
 31
0.0
  0
ARC
  5
2C025
330
18
100
AcDbEntity
  8
01
100
AcDbCircle
 10
3362.896833361996
 20
-2209.833564434557
 30
0.0
 40
3.5
100
AcDbArc
 50
180.0
 51
270.0
  0
ARC
  5
2C026
330
18
100
AcDbEntity
  8
01
100
AcDbCircle
 10
3360.396833361996
 20
-2192.333564434557
 30
0.0
 40
1.0
100
AcDbArc
 50
90.0
 51
180.0
  0
LINE
  5
2C027
330
18
100
AcDbEntity
  8
01
100
AcDbLine
 10
3359.396833361996
 20
-2192.333564434557
 30
0.0
 11
3359.396833361996
 21
-2209.833564434557
 31
0.0
  0
ARC
  5
2C028
330
18
100
AcDbEntity
  8
01
100
AcDbCircle
 10
3393.396833361996
 20
-2209.833564434557
 30
0.0
 40
3.5
100
AcDbArc
 50
270.0
 51
0.0
  0
ARC
  5
2C029
330
18
100
AcDbEntity
  8
01
100
AcDbCircle
 10
3395.896833361996
 20
-2192.333564434557
 30
0.0
 40
1.0
100
AcDbArc
 50
0.0
 51
90.0
  0
LINE
  5
2C02A
330
18
100
AcDbEntity
  8
01
100
AcDbLine
 10
3396.896833361996
 20
-2209.833564434557
 30
0.0
 11
3396.896833361996
 21
-2192.333564434557
 31
0.0
  0
LINE
  5
2C02B
330
18
100
AcDbEntity
  8
01
100
AcDbLine
 10
3410.646833361996
 20
-2094.833564434557
 30
0.0
 11
3345.646833361996
 21
-2094.833564434557
 31
0.0
  0
LINE
  5
2C02C
330
18
100
AcDbEntity
  8
01
100
AcDbLine
 10
3345.646833361996
 20
-2124.833564434557
 30
0.0
 11
3410.646833361996
 21
-2124.833564434557
 31
0.0
  0
LINE
  5
2C02D
330
18
100
AcDbEntity
  8
01
100
AcDbLine
 10
3344.646833361996
 20
-2095.833564434557
 30
0.0
 11
3344.646833361996
 21
-2123.833564434557
 31
0.0
  0
ARC
  5
2C02E
330
18
100
AcDbEntity
  8
01
100
AcDbCircle
 10
3345.646833361996
 20
-2123.833564434557
 30
0.0
 40
1.0
100
AcDbArc
 50
180.0
 51
270.0
  0
ARC
  5
2C02F
330
18
100
AcDbEntity
  8
01
100
AcDbCircle
 10
3345.646833361996
 20
-2095.833564434557
 30
0.0
 40
1.0
100
AcDbArc
 50
90.0
 51
180.0
  0
LINE
  5
2C030
330
18
100
AcDbEntity
  8
01
100
AcDbLine
 10
3411.646833361996
 20
-2123.833564434557
 30
0.0
 11
3411.646833361996
 21
-2095.833564434557
 31
0.0
  0
ARC
  5
2C031
330
18
100
AcDbEntity
  8
01
100
AcDbCircle
 10
3410.646833361996
 20
-2123.833564434557
 30
0.0
 40
1.0
100
AcDbArc
 50
270.0
 51
0.0
  0
ARC
  5
2C032
330
18
100
AcDbEntity
  8
01
100
AcDbCircle
 10
3410.646833361996
 20
-2095.833564434557
 30
0.0
 40
1.0
100
AcDbArc
 50
0.0
 51
90.0
  0
LINE
  5
2C033
330
18
100
AcDbEntity
  8
01
100
AcDbLine
 10
3358.146833361996
 20
-2132.833564434557
 30
0.0
 11
3398.146833361996
 21
-2132.833564434557
 31
0.0
  0
LINE
  5
2C034
330
18
100
AcDbEntity
  8
01
100
AcDbLine
 10
3358.146833361996
 20
-2136.833564434557
 30
0.0
 11
3398.146833361996
 21
-2136.833564434557
 31
0.0
  0
LINE
  5
2C035
330
18
100
AcDbEntity
  8
01
100
AcDbLine
 10
3358.146833361996
 20
-2132.833564434557
 30
0.0
 11
3358.146833361996
 21
-2136.833564434557
 31
0.0
  0
LINE
  5
2C036
330
18
100
AcDbEntity
  8
01
100
AcDbLine
 10
3358.146833361996
 20
-2140.833564434557
 30
0.0
 11
3358.146833361996
 21
-2144.833564434557
 31
0.0
  0
LINE
  5
2C037
330
18
100
AcDbEntity
  8
01
100
AcDbLine
 10
3358.146833361996
 20
-2148.833564434557
 30
0.0
 11
3358.146833361997
 21
-2152.833564434557
 31
0.0
  0
LINE
  5
2C038
330
18
100
AcDbEntity
  8
01
100
AcDbLine
 10
3358.146833361997
 20
-2156.833564434557
 30
0.0
 11
3358.146833361997
 21
-2160.833564434557
 31
0.0
  0
LINE
  5
2C039
330
18
100
AcDbEntity
  8
01
100
AcDbLine
 10
3358.146833361997
 20
-2164.833564434557
 30
0.0
 11
3358.146833361997
 21
-2168.833564434557
 31
0.0
  0
LINE
  5
2C03A
330
18
100
AcDbEntity
  8
01
100
AcDbLine
 10
3358.146833361997
 20
-2172.833564434557
 30
0.0
 11
3358.146833361997
 21
-2176.833564434557
 31
0.0
  0
LINE
  5
2C03B
330
18
100
AcDbEntity
  8
01
100
AcDbLine
 10
3398.146833361996
 20
-2132.833564434557
 30
0.0
 11
3398.146833361996
 21
-2136.833564434557
 31
0.0
  0
LINE
  5
2C03C
330
18
100
AcDbEntity
  8
01
100
AcDbLine
 10
3398.146833361996
 20
-2140.833564434557
 30
0.0
 11
3398.146833361996
 21
-2144.833564434557
 31
0.0
  0
LINE
  5
2C03D
330
18
100
AcDbEntity
  8
01
100
AcDbLine
 10
3398.146833361996
 20
-2148.833564434557
 30
0.0
 11
3398.146833361996
 21
-2152.833564434557
 31
0.0
  0
LINE
  5
2C03E
330
18
100
AcDbEntity
  8
01
100
AcDbLine
 10
3398.146833361996
 20
-2156.833564434557
 30
0.0
 11
3398.146833361996
 21
-2160.833564434557
 31
0.0
  0
LINE
  5
2C03F
330
18
100
AcDbEntity
  8
01
100
AcDbLine
 10
3398.146833361996
 20
-2164.833564434557
 30
0.0
 11
3398.146833361996
 21
-2168.833564434557
 31
0.0
  0
LINE
  5
2C040
330
18
100
AcDbEntity
  8
01
100
AcDbLine
 10
3398.146833361996
 20
-2172.833564434557
 30
0.0
 11
3398.146833361996
 21
-2176.833564434557
 31
0.0
  0
LINE
  5
2C041
330
18
100
AcDbEntity
  8
01
100
AcDbLine
 10
3358.146833361996
 20
-2140.833564434557
 30
0.0
 11
3398.146833361996
 21
-2140.833564434557
 31
0.0
  0
LINE
  5
2C042
330
18
100
AcDbEntity
  8
01
100
AcDbLine
 10
3358.146833361996
 20
-2144.833564434557
 30
0.0
 11
3398.146833361996
 21
-2144.833564434557
 31
0.0
  0
LINE
  5
2C043
330
18
100
AcDbEntity
  8
01
100
AcDbLine
 10
3358.146833361996
 20
-2148.833564434557
 30
0.0
 11
3398.146833361996
 21
-2148.833564434557
 31
0.0
  0
LINE
  5
2C044
330
18
100
AcDbEntity
  8
01
100
AcDbLine
 10
3358.146833361996
 20
-2152.833564434557
 30
0.0
 11
3398.146833361996
 21
-2152.833564434557
 31
0.0
  0
LINE
  5
2C045
330
18
100
AcDbEntity
  8
01
100
AcDbLine
 10
3358.146833361997
 20
-2156.833564434557
 30
0.0
 11
3398.146833361996
 21
-2156.833564434557
 31
0.0
  0
LINE
  5
2C046
330
18
100
AcDbEntity
  8
01
100
AcDbLine
 10
3358.146833361997
 20
-2160.833564434557
 30
0.0
 11
3398.146833361996
 21
-2160.833564434557
 31
0.0
  0
LINE
  5
2C047
330
18
100
AcDbEntity
  8
01
100
AcDbLine
 10
3358.146833361997
 20
-2164.833564434557
 30
0.0
 11
3398.146833361996
 21
-2164.833564434557
 31
0.0
  0
LINE
  5
2C048
330
18
100
AcDbEntity
  8
01
100
AcDbLine
 10
3358.146833361997
 20
-2168.833564434557
 30
0.0
 11
3398.146833361996
 21
-2168.833564434557
 31
0.0
  0
LINE
  5
2C049
330
18
100
AcDbEntity
  8
01
100
AcDbLine
 10
3358.146833361997
 20
-2172.833564434557
 30
0.0
 11
3398.146833361996
 21
-2172.833564434557
 31
0.0
  0
LINE
  5
2C04A
330
18
100
AcDbEntity
  8
01
100
AcDbLine
 10
3358.146833361997
 20
-2176.833564434557
 30
0.0
 11
3398.146833361996
 21
-2176.833564434557
 31
0.0
  0
LINE
  5
2C04B
330
18
100
AcDbEntity
  8
01
100
AcDbLine
 10
3349.646833361996
 20
-2191.083564434557
 30
0.0
 11
3351.646833361996
 21
-2191.083564434557
 31
0.0
  0
LINE
  5
2C04C
330
18
100
AcDbEntity
  8
01
100
AcDbLine
 10
3349.646833361996
 20
-2183.083564434557
 30
0.0
 11
3351.646833361996
 21
-2183.083564434557
 31
0.0
  0
LINE
  5
2C558
330
18
100
AcDbEntity
  8
01
100
AcDbLine
 10
3575.646833360129
 20
-1911.83356443
 30
0.0
 11
3575.646833360128
 21
-2339.83356443
 31
0.0
  0
LINE
  5
2C559
330
18
100
AcDbEntity
  8
01
100
AcDbLine
 10
3574.646833360129
 20
-1910.83356443
 30
0.0
 11
3575.646833360129
 21
-1911.83356443
 31
0.0
  0
LINE
  5
2C55A
330
18
100
AcDbEntity
  8
01
100
AcDbLine
 10
3570.646833360129
 20
-1911.83356443
 30
0.0
 11
3570.646833360128
 21
-2339.83356443
 31
0.0
  0
LINE
  5
2C55B
330
18
100
AcDbEntity
  8
01
100
AcDbLine
 10
3571.646833360128
 20
-2340.83356443
 30
0.0
 11
3570.646833360128
 21
-2339.83356443
 31
0.0
  0
LINE
  5
2C55C
330
18
100
AcDbEntity
  8
01
100
AcDbLine
 10
3571.646833360128
 20
-2340.83356443
 30
0.0
 11
3574.646833360128
 21
-2340.83356443
 31
0.0
  0
LINE
  5
2C55D
330
18
100
AcDbEntity
  8
01
100
AcDbLine
 10
3575.646833360128
 20
-2339.83356443
 30
0.0
 11
3574.646833360128
 21
-2340.83356443
 31
0.0
  0
LINE
  5
2C55E
330
18
100
AcDbEntity
  8
01
100
AcDbLine
 10
3571.646833360129
 20
-1910.83356443
 30
0.0
 11
3574.646833360129
 21
-1910.83356443
 31
0.0
  0
LINE
  5
2C55F
330
18
100
AcDbEntity
  8
01
100
AcDbLine
 10
3570.646833360129
 20
-1911.83356443
 30
0.0
 11
3571.646833360129
 21
-1910.83356443
 31
0.0
  0
LINE
  5
2C560
330
18
100
AcDbEntity
  8
01
100
AcDbLine
 10
3575.646833360129
 20
-2338.833564430001
 30
0.0
 11
3576.646833360129
 21
-2338.833564430001
 31
0.0
  0
LINE
  5
2C561
330
18
100
AcDbEntity
  8
01
100
AcDbLine
 10
3575.646833360128
 20
-1912.83356443
 30
0.0
 11
3575.646833360129
 21
-2338.833564430001
 31
0.0
  0
LINE
  5
2C562
330
18
100
AcDbEntity
  8
01
100
AcDbLine
 10
3576.646833360128
 20
-1912.83356443
 30
0.0
 11
3576.646833360129
 21
-2338.833564430001
 31
0.0
  0
LINE
  5
2C563
330
18
100
AcDbEntity
  8
01
100
AcDbLine
 10
3577.646833360128
 20
-1963.833564430003
 30
0.0
 11
3577.646833360128
 21
-2010.833564430001
 31
0.0
  0
LINE
  5
2C564
330
18
100
AcDbEntity
  8
01
100
AcDbLine
 10
3577.646833360128
 20
-2011.833564430002
 30
0.0
 11
3577.646833360128
 21
-2013.833564430003
 31
0.0
  0
LINE
  5
2C565
330
18
100
AcDbEntity
  8
01
100
AcDbLine
 10
3575.646833360128
 20
-1912.83356443
 30
0.0
 11
3576.646833360129
 21
-1912.83356443
 31
0.0
  0
LINE
  5
2C566
330
18
100
AcDbEntity
  8
01
100
AcDbLine
 10
3305.646833360129
 20
-1915.83356443
 30
0.0
 11
3305.646833360128
 21
-2335.83356443
 31
0.0
  0
ARC
  5
2C567
330
18
100
AcDbEntity
  8
01
100
AcDbCircle
 10
3310.646833360129
 20
-1915.83356443
 30
0.0
 40
5.0
100
AcDbArc
 50
90.0
 51
180.0
  0
ARC
  5
2C568
330
18
100
AcDbEntity
  8
01
100
AcDbCircle
 10
3310.646833360128
 20
-2335.83356443
 30
0.0
 40
5.0
100
AcDbArc
 50
180.0
 51
270.0
  0
LINE
  5
2C569
330
18
100
AcDbEntity
  8
01
100
AcDbLine
 10
3450.646833360129
 20
-1915.83356443
 30
0.0
 11
3450.646833360128
 21
-2335.83356443
 31
0.0
  0
LINE
  5
2C56A
330
18
100
AcDbEntity
  8
01
100
AcDbLine
 10
3310.646833360129
 20
-1910.83356443
 30
0.0
 11
3445.646833360129
 21
-1910.83356443
 31
0.0
  0
ARC
  5
2C56B
330
18
100
AcDbEntity
  8
01
100
AcDbCircle
 10
3445.646833360129
 20
-1915.83356443
 30
0.0
 40
5.0
100
AcDbArc
 50
0.0
 51
90.0
  0
ARC
  5
2C56C
330
18
100
AcDbEntity
  8
01
100
AcDbCircle
 10
3445.646833360128
 20
-2335.83356443
 30
0.0
 40
5.0
100
AcDbArc
 50
270.0
 51
0.0
  0
LINE
  5
2C56D
330
18
100
AcDbEntity
  8
01
100
AcDbLine
 10
3310.646833360129
 20
-2340.83356443
 30
0.0
 11
3445.646833360129
 21
-2340.83356443
 31
0.0
  0
LINE
  5
2C56E
330
18
100
AcDbEntity
  8
01
100
AcDbLine
 10
3428.146833360129
 20
-2003.833564429999
 30
0.0
 11
3428.146833360129
 21
-1973.833564430001
 31
0.0
  0
ARC
  5
2C56F
330
18
100
AcDbEntity
  8
01
100
AcDbCircle
 10
3423.146833360129
 20
-2003.833564429999
 30
0.0
 40
5.0
100
AcDbArc
 50
270.0
 51
0.0
  0
LINE
  5
2C570
330
18
100
AcDbEntity
  8
01
100
AcDbLine
 10
3328.146833360129
 20
-2003.833564429999
 30
0.0
 11
3328.146833360129
 21
-1973.833564430001
 31
0.0
  0
ARC
  5
2C571
330
18
100
AcDbEntity
  8
01
100
AcDbCircle
 10
3333.146833360129
 20
-2003.833564429999
 30
0.0
 40
5.0
100
AcDbArc
 50
180.0
 51
270.0
  0
LINE
  5
2C572
330
18
100
AcDbEntity
  8
01
100
AcDbLine
 10
3333.146833360129
 20
-2008.833564429999
 30
0.0
 11
3423.146833360129
 21
-2008.833564429999
 31
0.0
  0
ARC
  5
2C573
330
18
100
AcDbEntity
  8
01
100
AcDbCircle
 10
3423.146833360129
 20
-1973.833564430001
 30
0.0
 40
5.0
100
AcDbArc
 50
0.0
 51
90.0
  0
LINE
  5
2C574
330
18
100
AcDbEntity
  8
01
100
AcDbLine
 10
3333.146833360129
 20
-1968.83356443
 30
0.0
 11
3423.146833360129
 21
-1968.833564429999
 31
0.0
  0
ARC
  5
2C575
330
18
100
AcDbEntity
  8
01
100
AcDbCircle
 10
3333.146833360129
 20
-1973.833564430001
 30
0.0
 40
5.0
100
AcDbArc
 50
90.0
 51
180.0
  0
LINE
  5
2C576
330
18
100
AcDbEntity
  8
01
100
AcDbLine
 10
3307.646833360129
 20
-1817.33356443
 30
0.0
 11
3448.646833360129
 21
-1817.33356443
 31
0.0
  0
ARC
  5
2C577
330
18
100
AcDbEntity
  8
01
100
AcDbCircle
 10
3448.646833360129
 20
-1818.33356443
 30
0.0
 40
1.0
100
AcDbArc
 50
0.0
 51
90.0
  0
LINE
  5
2C578
330
18
100
AcDbEntity
  8
01
100
AcDbLine
 10
3307.646833360129
 20
-1818.33356443
 30
0.0
 11
3448.646833360129
 21
-1818.33356443
 31
0.0
  0
ARC
  5
2C579
330
18
100
AcDbEntity
  8
01
100
AcDbCircle
 10
3307.646833360128
 20
-1870.33356443
 30
0.0
 40
1.0
100
AcDbArc
 50
180.0
 51
270.0
  0
LINE
  5
2C57A
330
18
100
AcDbEntity
  8
01
100
AcDbLine
 10
3306.646833360128
 20
-1870.33356443
 30
0.0
 11
3306.646833360129
 21
-1818.33356443
 31
0.0
  0
ARC
  5
2C57B
330
18
100
AcDbEntity
  8
01
100
AcDbCircle
 10
3307.646833360129
 20
-1818.33356443
 30
0.0
 40
1.0
100
AcDbArc
 50
90.0
 51
180.0
  0
LINE
  5
2C57C
330
18
100
AcDbEntity
  8
01
100
AcDbLine
 10
3307.646833360129
 20
-1870.33356443
 30
0.0
 11
3307.646833360129
 21
-1818.33356443
 31
0.0
  0
LINE
  5
2C57D
330
18
100
AcDbEntity
  8
01
100
AcDbLine
 10
3449.646833360129
 20
-1870.33356443
 30
0.0
 11
3449.646833360129
 21
-1818.33356443
 31
0.0
  0
ARC
  5
2C57E
330
18
100
AcDbEntity
  8
01
100
AcDbCircle
 10
3448.646833360129
 20
-1870.33356443
 30
0.0
 40
1.0
100
AcDbArc
 50
270.0
 51
0.0
  0
LINE
  5
2C57F
330
18
100
AcDbEntity
  8
01
100
AcDbLine
 10
3448.646833360129
 20
-1870.33356443
 30
0.0
 11
3448.646833360129
 21
-1818.33356443
 31
0.0
  0
LINE
  5
2C580
330
18
100
AcDbEntity
  8
01
100
AcDbLine
 10
3343.146833360128
 20
-1818.33356443
 30
0.0
 11
3343.146833360128
 21
-1827.405604285683
 31
0.0
  0
LINE
  5
2C581
330
18
100
AcDbEntity
  8
01
100
AcDbLine
 10
3413.146833360129
 20
-1818.33356443
 30
0.0
 11
3413.146833360129
 21
-1827.405604285683
 31
0.0
  0
LINE
  5
2C582
330
18
100
AcDbEntity
  8
01
100
AcDbLine
 10
3403.146833360128
 20
-1823.121481156999
 30
0.0
 11
3353.146833360129
 21
-1823.121481156999
 31
0.0
  0
LINE
  5
2C583
330
18
100
AcDbEntity
  8
01
100
AcDbLine
 10
3403.146833360128
 20
-1824.106288910012
 30
0.0
 11
3353.146833360129
 21
-1824.106288910012
 31
0.0
  0
LINE
  5
2C584
330
18
100
AcDbEntity
  8
01
100
AcDbLine
 10
3413.146833360129
 20
-1827.405604285683
 30
0.0
 11
3343.146833360128
 21
-1827.405604285683
 31
0.0
  0
ELLIPSE
  5
2C585
330
18
100
AcDbEntity
  8
01
100
AcDbEllipse
 10
3403.146833360128
 20
-1825.842770686681
 30
0.0
 11
-10.00000000000057
 21
0.0
 31
0.0
210
0.0
220
0.0
230
1.0
 40
0.1736481776669238
 41
3.141592653589793
 42
4.71238898038469
  0
ELLIPSE
  5
2C586
330
18
100
AcDbEntity
  8
01
100
AcDbEllipse
 10
3403.146833360128
 20
-1824.857962933669
 30
0.0
 11
-10.00000000000057
 21
0.0
 31
0.0
210
0.0
220
0.0
230
1.0
 40
0.1736481776669238
 41
3.141592653589793
 42
4.71238898038469
  0
ELLIPSE
  5
2C587
330
18
100
AcDbEntity
  8
01
100
AcDbEllipse
 10
3353.146833360129
 20
-1825.842770686681
 30
0.0
 11
10.00000000000057
 21
0.0
 31
0.0
210
0.0
220
0.0
230
-1.0
 40
0.1736481776669238
 41
3.141592653589793
 42
4.71238898038469
  0
ELLIPSE
  5
2C588
330
18
100
AcDbEntity
  8
01
100
AcDbEllipse
 10
3353.146833360129
 20
-1824.857962933669
 30
0.0
 11
10.00000000000057
 21
0.0
 31
0.0
210
0.0
220
0.0
230
-1.0
 40
0.1736481776669238
 41
3.141592653589793
 42
4.71238898038469
  0
LINE
  5
2C589
330
18
100
AcDbEntity
  8
01
100
AcDbLine
 10
3448.646833360129
 20
-1870.33356443
 30
0.0
 11
3446.646833360129
 21
-1870.33356443
 31
0.0
  0
LINE
  5
2C58A
330
18
100
AcDbEntity
  8
01
100
AcDbLine
 10
3576.646833360129
 20
-2013.833564430003
 30
0.0
 11
3630.646833360129
 21
-2013.833564430003
 31
0.0
  0
LINE
  5
2C58B
330
18
100
AcDbEntity
  8
01
100
AcDbLine
 10
3576.646833360129
 20
-1963.833564430003
 30
0.0
 11
3577.646833360128
 21
-1963.833564430003
 31
0.0
  0
LINE
  5
2C58C
330
18
100
AcDbEntity
  8
01
100
AcDbLine
 10
3630.646833360129
 20
-2013.833564430003
 30
0.0
 11
3630.646833360129
 21
-2290.833564430002
 31
0.0
  0
LINE
  5
2C58D
330
18
100
AcDbEntity
  8
01
100
AcDbLine
 10
3629.646833360129
 20
-2002.763637618058
 30
0.0
 11
3629.646833360129
 21
-2013.833564430003
 31
0.0
  0
LINE
  5
2C58E
330
18
100
AcDbEntity
  8
01
100
AcDbLine
 10
3628.646833360129
 20
-2002.833564430003
 30
0.0
 11
3628.646833360129
 21
-2013.833564430003
 31
0.0
  0
LINE
  5
2C58F
330
18
100
AcDbEntity
  8
01
100
AcDbLine
 10
3307.646833360129
 20
-1870.33356443
 30
0.0
 11
3309.646833360128
 21
-1870.33356443
 31
0.0
  0
LINE
  5
2C590
330
18
100
AcDbEntity
  8
01
100
AcDbLine
 10
3314.64683336013
 20
-1870.33356443
 30
0.0
 11
3358.146833360127
 21
-1870.333564429998
 31
0.0
  0
LINE
  5
2C591
330
18
100
AcDbEntity
  8
01
100
AcDbLine
 10
3398.14683336013
 20
-1870.333564429998
 30
0.0
 11
3441.646833360128
 21
-1870.333564429996
 31
0.0
  0
LINE
  5
2C592
330
18
100
AcDbEntity
  8
01
100
AcDbLine
 10
3576.646833360129
 20
-2290.833564430003
 30
0.0
 11
3630.646833360129
 21
-2290.833564430002
 31
0.0
  0
LINE
  5
2C593
330
18
100
AcDbEntity
  8
01
100
AcDbLine
 10
3623.874108880117
 20
-1926.68666913576
 30
0.0
 11
3624.858916633129
 21
-1926.860317313426
 31
0.0
  0
LINE
  5
2C594
330
18
100
AcDbEntity
  8
01
100
AcDbLine
 10
3620.602296673878
 20
-1945.242038218204
 30
0.0
 11
3623.874108880117
 21
-1926.68666913576
 31
0.0
  0
ARC
  5
2C595
330
18
100
AcDbEntity
  8
01
100
AcDbCircle
 10
3621.587104426891
 20
-1945.415686395871
 30
0.0
 40
1.0
100
AcDbArc
 50
169.9999999999961
 51
187.9999999999889
  0
LINE
  5
2C596
330
18
100
AcDbEntity
  8
01
100
AcDbLine
 10
3621.587104426891
 20
-1945.41568639587
 30
0.0
 11
3624.858916633129
 21
-1926.860317313426
 31
0.0
  0
LINE
  5
2C597
330
18
100
AcDbEntity
  8
01
100
AcDbLine
 10
3628.646833360129
 20
-2002.833564430003
 30
0.0
 11
3620.596836358149
 21
-1945.554859496831
 31
0.0
  0
LINE
  5
2C598
330
18
100
AcDbEntity
  8
01
100
AcDbLine
 10
3629.646833360129
 20
-2002.76363761806
 30
0.0
 11
3621.587104426891
 21
-1945.41568639587
 31
0.0
  0
LINE
  5
2C599
330
18
100
AcDbEntity
  8
01
100
AcDbLine
 10
3620.596836358149
 20
-1945.554859496831
 30
0.0
 11
3620.574793504446
 21
-1945.398016442992
 31
0.0
  0
LINE
  5
2C59A
330
18
100
AcDbEntity
  8
01
100
AcDbLine
 10
3620.574793504446
 20
-1945.398016442992
 30
0.0
 11
3620.602296673878
 21
-1945.242038218204
 31
0.0
  0
LINE
  5
2C59B
330
18
100
AcDbEntity
  8
01
100
AcDbLine
 10
3578.146833360128
 20
-2290.833564430003
 30
0.0
 11
3578.146833360128
 21
-2338.833564430003
 31
0.0
  0
LINE
  5
2C59C
330
18
100
AcDbEntity
  8
01
100
AcDbLine
 10
3576.646833360129
 20
-2338.833564430003
 30
0.0
 11
3578.146833360128
 21
-2338.833564430003
 31
0.0
  0
LINE
  5
2C59D
330
18
100
AcDbEntity
  8
1PHANTOM
100
AcDbLine
 10
3317.646833360129
 20
-2061.333564430001
 30
0.0
 11
3317.646833360129
 21
-2070.333564430001
 31
0.0
  0
LINE
  5
2C59E
330
18
100
AcDbEntity
  8
1PHANTOM
100
AcDbLine
 10
3323.646833360129
 20
-2061.333564430001
 30
0.0
 11
3323.646833360129
 21
-2070.333564430001
 31
0.0
  0
ARC
  5
2C59F
330
18
100
AcDbEntity
  8
1PHANTOM
100
AcDbCircle
 10
3320.646833360129
 20
-2061.333564430001
 30
0.0
 40
3.0
100
AcDbArc
 50
0.0
 51
180.0
  0
ARC
  5
2C5A0
330
18
100
AcDbEntity
  8
1PHANTOM
100
AcDbCircle
 10
3320.646833360129
 20
-2070.333564430001
 30
0.0
 40
3.0
100
AcDbArc
 50
180.0
 51
0.0
  0
LINE
  5
2C5A1
330
18
100
AcDbEntity
  8
1PHANTOM
100
AcDbLine
 10
3316.146833360129
 20
-2268.833564430001
 30
0.0
 11
3325.146833360129
 21
-2268.833564430001
 31
0.0
  0
LINE
  5
2C5A2
330
18
100
AcDbEntity
  8
1PHANTOM
100
AcDbLine
 10
3316.146833360129
 20
-2262.833564430001
 30
0.0
 11
3325.146833360129
 21
-2262.833564430001
 31
0.0
  0
ARC
  5
2C5A3
330
18
100
AcDbEntity
  8
1PHANTOM
100
AcDbCircle
 10
3316.146833360129
 20
-2265.833564430001
 30
0.0
 40
3.0
100
AcDbArc
 50
90.0
 51
270.0
  0
ARC
  5
2C5A4
330
18
100
AcDbEntity
  8
1PHANTOM
100
AcDbCircle
 10
3325.146833360129
 20
-2265.833564430001
 30
0.0
 40
3.0
100
AcDbArc
 50
270.0
 51
90.0
  0
LINE
  5
2C5A5
330
18
100
AcDbEntity
  8
1CENTER
100
AcDbLine
 10
3320.646833360129
 20
-2055.923074411006
 30
0.0
 11
3320.646833360129
 21
-2075.744054448996
 31
0.0
  0
LINE
  5
2C5A6
330
18
100
AcDbEntity
  8
1CENTER
100
AcDbLine
 10
3315.465219946452
 20
-2065.833564430001
 30
0.0
 11
3325.828446773805
 21
-2065.833564430001
 31
0.0
  0
LINE
  5
2C5A7
330
18
100
AcDbEntity
  8
1CENTER
100
AcDbLine
 10
3310.736343341133
 20
-2265.833564430001
 30
0.0
 11
3330.557323379124
 21
-2265.833564430001
 31
0.0
  0
LINE
  5
2C5A8
330
18
100
AcDbEntity
  8
1CENTER
100
AcDbLine
 10
3320.646833360129
 20
-2271.015177843678
 30
0.0
 11
3320.646833360129
 21
-2260.651951016324
 31
0.0
  0
LINE
  5
2C5A9
330
18
100
AcDbEntity
  8
1PHANTOM
100
AcDbLine
 10
3438.646833360128
 20
-2061.333564430001
 30
0.0
 11
3438.646833360128
 21
-2070.333564430001
 31
0.0
  0
LINE
  5
2C5AA
330
18
100
AcDbEntity
  8
1PHANTOM
100
AcDbLine
 10
3432.646833360128
 20
-2061.333564430001
 30
0.0
 11
3432.646833360128
 21
-2070.333564430001
 31
0.0
  0
ARC
  5
2C5AB
330
18
100
AcDbEntity
  8
1PHANTOM
100
AcDbCircle
 10
3435.646833360128
 20
-2061.333564430001
 30
0.0
 40
3.0
100
AcDbArc
 50
0.0
 51
180.0
  0
ARC
  5
2C5AC
330
18
100
AcDbEntity
  8
1PHANTOM
100
AcDbCircle
 10
3435.646833360128
 20
-2070.333564430001
 30
0.0
 40
3.0
100
AcDbArc
 50
180.0
 51
0.0
  0
LINE
  5
2C5AD
330
18
100
AcDbEntity
  8
1CENTER
100
AcDbLine
 10
3435.646833360128
 20
-2055.923074411006
 30
0.0
 11
3435.646833360128
 21
-2075.744054448996
 31
0.0
  0
LINE
  5
2C5AE
330
18
100
AcDbEntity
  8
1CENTER
100
AcDbLine
 10
3440.828446773805
 20
-2065.833564430001
 30
0.0
 11
3430.465219946452
 21
-2065.833564430001
 31
0.0
  0
LINE
  5
2C5AF
330
18
100
AcDbEntity
  8
1PHANTOM
100
AcDbLine
 10
3440.146833360129
 20
-2268.833564430001
 30
0.0
 11
3431.146833360129
 21
-2268.833564430001
 31
0.0
  0
LINE
  5
2C5B0
330
18
100
AcDbEntity
  8
1PHANTOM
100
AcDbLine
 10
3440.146833360129
 20
-2262.833564430001
 30
0.0
 11
3431.146833360129
 21
-2262.833564430001
 31
0.0
  0
ARC
  5
2C5B1
330
18
100
AcDbEntity
  8
1PHANTOM
100
AcDbCircle
 10
3440.146833360129
 20
-2265.833564430001
 30
0.0
 40
3.0
100
AcDbArc
 50
270.0
 51
90.0
  0
ARC
  5
2C5B2
330
18
100
AcDbEntity
  8
1PHANTOM
100
AcDbCircle
 10
3431.146833360129
 20
-2265.833564430001
 30
0.0
 40
3.0
100
AcDbArc
 50
90.0
 51
270.0
  0
LINE
  5
2C5B3
330
18
100
AcDbEntity
  8
1CENTER
100
AcDbLine
 10
3445.557323379124
 20
-2265.833564430001
 30
0.0
 11
3425.736343341134
 21
-2265.833564430001
 31
0.0
  0
LINE
  5
2C5B4
330
18
100
AcDbEntity
  8
1CENTER
100
AcDbLine
 10
3435.646833360129
 20
-2271.015177843678
 30
0.0
 11
3435.646833360129
 21
-2260.651951016324
 31
0.0
  0
LINE
  5
2C5B5
330
18
100
AcDbEntity
  8
01
100
AcDbLine
 10
3603.146833360128
 20
-2321.333564430003
 30
0.0
 11
3603.146833360128
 21
-2336.333564430003
 31
0.0
  0
ARC
  5
2C5B6
330
18
100
AcDbEntity
  8
01
100
AcDbCircle
 10
3602.146833360128
 20
-2336.333564430003
 30
0.0
 40
1.0
100
AcDbArc
 50
270.0
 51
0.0
  0
LINE
  5
2C5B7
330
18
100
AcDbEntity
  8
01
100
AcDbLine
 10
3602.121158529517
 20
-2337.333564430003
 30
0.0
 11
3602.146833360128
 21
-2337.333564430003
 31
0.0
  0
ARC
  5
2C5B8
330
18
100
AcDbEntity
  8
01
100
AcDbCircle
 10
3602.146833360128
 20
-2321.333564430003
 30
0.0
 40
1.0
100
AcDbArc
 50
0.0
 51
90.0
  0
ARC
  5
2C5B9
330
18
100
AcDbEntity
  8
01
100
AcDbCircle
 10
3592.396833360128
 20
-2313.076619985558
 30
0.0
 40
11.75694444444452
100
AcDbArc
 50
319.6653452843622
 51
321.8845909797316
  0
ARC
  5
2C5BA
330
18
100
AcDbEntity
  8
01
100
AcDbCircle
 10
3592.396833360128
 20
-2313.076619985558
 30
0.0
 40
11.75694444444452
100
AcDbArc
 50
218.1154090202683
 51
319.6653452843622
  0
ARC
  5
2C5BB
330
18
100
AcDbEntity
  8
01
100
AcDbCircle
 10
3602.121158529517
 20
-2321.333564430003
 30
0.0
 40
1.0
100
AcDbArc
 50
90.0
 51
139.6653452843622
  0
ARC
  5
2C5BC
330
18
100
AcDbEntity
  8
01
100
AcDbCircle
 10
3592.396833360128
 20
-2344.590508874448
 30
0.0
 40
11.75694444444452
100
AcDbArc
 50
40.33465471563778
 51
141.8845909797317
  0
ARC
  5
2C5BD
330
18
100
AcDbEntity
  8
01
100
AcDbCircle
 10
3602.121158529517
 20
-2336.333564430003
 30
0.0
 40
1.0
100
AcDbArc
 50
220.3346547156378
 51
270.0
  0
LINE
  5
2C5BE
330
18
100
AcDbEntity
  8
01
100
AcDbLine
 10
3602.121158529517
 20
-2320.333564430003
 30
0.0
 11
3601.646833360128
 21
-2320.333564430003
 31
0.0
  0
LINE
  5
2C5BF
330
18
100
AcDbEntity
  8
01
100
AcDbLine
 10
3602.146833360128
 20
-2320.333564430003
 30
0.0
 11
3602.121158529517
 21
-2320.333564430003
 31
0.0
  0
ARC
  5
2C5C0
330
18
100
AcDbEntity
  8
01
100
AcDbCircle
 10
3592.396833360128
 20
-2344.590508874448
 30
0.0
 40
11.75694444444452
100
AcDbArc
 50
38.11540902026831
 51
40.33465471563778
  0
LINE
  5
2C5C1
330
18
100
AcDbEntity
  8
01
100
AcDbLine
 10
3602.121158529517
 20
-2337.333564430003
 30
0.0
 11
3601.646833360128
 21
-2337.333564430003
 31
0.0
  0
LINE
  5
2C5C2
330
18
100
AcDbEntity
  8
01
100
AcDbLine
 10
3583.146833360129
 20
-2337.333564430002
 30
0.0
 11
3583.146833360129
 21
-2320.333564430004
 31
0.0
  0
LINE
  5
2C5C3
330
18
100
AcDbEntity
  8
01
100
AcDbLine
 10
3583.146833360129
 20
-2337.333564430002
 30
0.0
 11
3578.146833360128
 21
-2337.333564430002
 31
0.0
  0
LINE
  5
2C5C4
330
18
100
AcDbEntity
  8
01
100
AcDbLine
 10
3583.146833360129
 20
-2320.333564430004
 30
0.0
 11
3578.146833360128
 21
-2320.333564430004
 31
0.0
  0
LINE
  5
2C5C5
330
18
100
AcDbEntity
  8
01
100
AcDbLine
 10
3308.796833360129
 20
-1818.637892751205
 30
0.0
 11
3342.396833360128
 21
-1818.637892751205
 31
0.0
  0
LINE
  5
2C5C6
330
18
100
AcDbEntity
  8
01
100
AcDbLine
 10
3307.796833360129
 20
-1869.337892751206
 30
0.0
 11
3307.796833360129
 21
-1819.637892751205
 31
0.0
  0
ARC
  5
2C5C7
330
18
100
AcDbEntity
  8
01
100
AcDbCircle
 10
3308.796833360129
 20
-1819.637892751205
 30
0.0
 40
1.0
100
AcDbArc
 50
90.0
 51
180.0
  0
LINE
  5
2C5C8
330
18
100
AcDbEntity
  8
01
100
AcDbLine
 10
3342.896833360128
 20
-1819.137892751205
 30
0.0
 11
3342.896833360128
 21
-1820.137892751205
 31
0.0
  0
ARC
  5
2C5C9
330
18
100
AcDbEntity
  8
01
100
AcDbCircle
 10
3342.396833360128
 20
-1819.137892751205
 30
0.0
 40
0.5
100
AcDbArc
 50
0.0
 51
90.0
  0
ARC
  5
2C5CA
330
18
100
AcDbEntity
  8
01
100
AcDbCircle
 10
3308.796833360129
 20
-1869.337892751206
 30
0.0
 40
1.0
100
AcDbArc
 50
180.0
 51
270.0
  0
LINE
  5
2C5CB
330
18
100
AcDbEntity
  8
01
100
AcDbLine
 10
3332.646833360129
 20
-1869.837892751205
 30
0.0
 11
3332.646833360128
 21
-1868.337892751205
 31
0.0
  0
ARC
  5
2C5CC
330
18
100
AcDbEntity
  8
01
100
AcDbCircle
 10
3332.146833360129
 20
-1869.837892751205
 30
0.0
 40
0.5
100
AcDbArc
 50
270.0
 51
0.0
  0
LINE
  5
2C5F5
330
18
100
AcDbEntity
  8
01
100
AcDbLine
 10
3413.896833360129
 20
-1818.637892751205
 30
0.0
 11
3447.496833360129
 21
-1818.637892751205
 31
0.0
  0
ARC
  5
2C5F6
330
18
100
AcDbEntity
  8
01
100
AcDbCircle
 10
3447.496833360129
 20
-1819.637892751205
 30
0.0
 40
1.0
100
AcDbArc
 50
0.0
 51
90.0
  0
LINE
  5
2C5F7
330
18
100
AcDbEntity
  8
01
100
AcDbLine
 10
3342.896833360128
 20
-1820.137892751205
 30
0.0
 11
3343.146833360128
 21
-1820.137892751205
 31
0.0
  0
LINE
  5
2C5F8
330
18
100
AcDbEntity
  8
01
100
AcDbLine
 10
3413.146833360129
 20
-1820.137892751205
 30
0.0
 11
3413.396833360128
 21
-1820.137892751205
 31
0.0
  0
LINE
  5
2C5F9
330
18
100
AcDbEntity
  8
01
100
AcDbLine
 10
3448.496833360129
 20
-1869.337892751206
 30
0.0
 11
3448.496833360129
 21
-1819.637892751205
 31
0.0
  0
ARC
  5
2C5FA
330
18
100
AcDbEntity
  8
01
100
AcDbCircle
 10
3447.496833360129
 20
-1869.337892751206
 30
0.0
 40
1.0
100
AcDbArc
 50
270.0
 51
0.0
  0
LINE
  5
2C5FB
330
18
100
AcDbEntity
  8
01
100
AcDbLine
 10
3413.396833360129
 20
-1819.137892751205
 30
0.0
 11
3413.396833360128
 21
-1820.137892751205
 31
0.0
  0
ARC
  5
2C5FC
330
18
100
AcDbEntity
  8
01
100
AcDbCircle
 10
3413.896833360129
 20
-1819.137892751205
 30
0.0
 40
0.5
100
AcDbArc
 50
90.0
 51
179.9999999999739
  0
LINE
  5
2C5FD
330
18
100
AcDbEntity
  8
01
100
AcDbLine
 10
3329.64683336013
 20
-1868.337892751205
 30
0.0
 11
3426.646833360127
 21
-1868.337892751202
 31
0.0
  0
LINE
  5
2C5FE
330
18
100
AcDbEntity
  8
01
100
AcDbLine
 10
3322.146833360129
 20
-1828.33356443
 30
0.0
 11
3322.146833360129
 21
-1860.33356443
 31
0.0
  0
ARC
  5
2C5FF
330
18
100
AcDbEntity
  8
01
100
AcDbCircle
 10
3324.146833360129
 20
-1860.33356443
 30
0.0
 40
2.0
100
AcDbArc
 50
180.0
 51
270.0
  0
LINE
  5
2C600
330
18
100
AcDbEntity
  8
01
100
AcDbLine
 10
3434.146833360129
 20
-1828.33356443
 30
0.0
 11
3434.146833360129
 21
-1860.33356443
 31
0.0
  0
ARC
  5
2C601
330
18
100
AcDbEntity
  8
01
100
AcDbCircle
 10
3432.146833360129
 20
-1828.33356443
 30
0.0
 40
2.0
100
AcDbArc
 50
0.0
 51
90.0
  0
LINE
  5
2C602
330
18
100
AcDbEntity
  8
01
100
AcDbLine
 10
3423.646833360129
 20
-1869.837892751205
 30
0.0
 11
3423.646833360128
 21
-1868.337892751202
 31
0.0
  0
ARC
  5
2C603
330
18
100
AcDbEntity
  8
01
100
AcDbCircle
 10
3424.146833360129
 20
-1869.837892751205
 30
0.0
 40
0.5
100
AcDbArc
 50
180.0
 51
270.0
  0
LINE
  5
2C604
330
18
100
AcDbEntity
  8
01
100
AcDbLine
 10
3324.146833360129
 20
-1826.33356443
 30
0.0
 11
3432.146833360129
 21
-1826.33356443
 31
0.0
  0
ARC
  5
2C605
330
18
100
AcDbEntity
  8
01
100
AcDbCircle
 10
3324.146833360129
 20
-1828.33356443
 30
0.0
 40
2.0
100
AcDbArc
 50
90.0
 51
180.0
  0
LINE
  5
2C606
330
18
100
AcDbEntity
  8
01
100
AcDbLine
 10
3324.146833360129
 20
-1862.33356443
 30
0.0
 11
3432.146833360129
 21
-1862.33356443
 31
0.0
  0
ARC
  5
2C607
330
18
100
AcDbEntity
  8
01
100
AcDbCircle
 10
3432.146833360129
 20
-1860.33356443
 30
0.0
 40
2.0
100
AcDbArc
 50
270.0
 51
0.0
  0
LINE
  5
2C630
330
18
100
AcDbEntity
  8
01
100
AcDbLine
 10
3426.646833360128
 20
-1869.837892751205
 30
0.0
 11
3426.646833360127
 21
-1868.337892751202
 31
0.0
  0
ARC
  5
2C631
330
18
100
AcDbEntity
  8
01
100
AcDbCircle
 10
3427.146833360128
 20
-1869.837892751205
 30
0.0
 40
0.5
100
AcDbArc
 50
180.0
 51
270.0
  0
LINE
  5
2C632
330
18
100
AcDbEntity
  8
01
100
AcDbLine
 10
3329.646833360131
 20
-1869.837892751205
 30
0.0
 11
3329.64683336013
 21
-1868.337892751205
 31
0.0
  0
ARC
  5
2C633
330
18
100
AcDbEntity
  8
01
100
AcDbCircle
 10
3329.146833360131
 20
-1869.837892751205
 30
0.0
 40
0.5
100
AcDbArc
 50
270.0
 51
0.0
  0
LINE
  5
2C634
330
18
100
AcDbEntity
  8
01
100
AcDbLine
 10
3306.646833360129
 20
-1872.33356443
 30
0.0
 11
3449.646833360129
 21
-1872.33356443
 31
0.0
  0
LINE
  5
2C635
330
18
100
AcDbEntity
  8
01
100
AcDbLine
 10
3306.646833360129
 20
-1877.33356443
 30
0.0
 11
3449.646833360129
 21
-1877.33356443
 31
0.0
  0
LINE
  5
2C636
330
18
100
AcDbEntity
  8
01
100
AcDbLine
 10
3450.646833360129
 20
-1876.33356443
 30
0.0
 11
3449.646833360129
 21
-1877.33356443
 31
0.0
  0
LINE
  5
2C637
330
18
100
AcDbEntity
  8
01
100
AcDbLine
 10
3305.646833360129
 20
-1876.33356443
 30
0.0
 11
3306.646833360129
 21
-1877.33356443
 31
0.0
  0
LINE
  5
2C638
330
18
100
AcDbEntity
  8
01
100
AcDbLine
 10
3446.646833360129
 20
-1872.33356443
 30
0.0
 11
3446.646833360129
 21
-1870.33356443
 31
0.0
  0
LINE
  5
2C639
330
18
100
AcDbEntity
  8
01
100
AcDbLine
 10
3307.646833360128
 20
-1871.33356443
 30
0.0
 11
3448.646833360129
 21
-1871.33356443
 31
0.0
  0
LINE
  5
2C63A
330
18
100
AcDbEntity
  8
01
100
AcDbLine
 10
3441.646833360127
 20
-1868.33356443
 30
0.0
 11
3444.646833360129
 21
-1868.33356443
 31
0.0
  0
ARC
  5
2C63B
330
18
100
AcDbEntity
  8
01
100
AcDbCircle
 10
3444.646833360129
 20
-1870.33356443
 30
0.0
 40
2.0
100
AcDbArc
 50
0.0
 51
90.0
  0
LINE
  5
2C63C
330
18
100
AcDbEntity
  8
01
100
AcDbLine
 10
3444.146833360129
 20
-1868.33356443
 30
0.0
 11
3444.146833360129
 21
-1866.33356443
 31
0.0
  0
LINE
  5
2C63D
330
18
100
AcDbEntity
  8
01
100
AcDbLine
 10
3443.146833360129
 20
-1868.33356443
 30
0.0
 11
3443.146833360129
 21
-1866.33356443
 31
0.0
  0
LINE
  5
2C63E
330
18
100
AcDbEntity
  8
01
100
AcDbLine
 10
3444.146833360129
 20
-1866.33356443
 30
0.0
 11
3443.146833360129
 21
-1866.33356443
 31
0.0
  0
LINE
  5
2C63F
330
18
100
AcDbEntity
  8
01
100
AcDbLine
 10
3312.146833360128
 20
-1868.33356443
 30
0.0
 11
3312.146833360128
 21
-1866.33356443
 31
0.0
  0
LINE
  5
2C640
330
18
100
AcDbEntity
  8
01
100
AcDbLine
 10
3312.146833360128
 20
-1866.33356443
 30
0.0
 11
3313.146833360128
 21
-1866.33356443
 31
0.0
  0
LINE
  5
2C641
330
18
100
AcDbEntity
  8
01
100
AcDbLine
 10
3313.146833360128
 20
-1868.33356443
 30
0.0
 11
3313.146833360128
 21
-1866.33356443
 31
0.0
  0
LINE
  5
2C642
330
18
100
AcDbEntity
  8
01
100
AcDbLine
 10
3415.146833360129
 20
-1868.83356443
 30
0.0
 11
3399.146833360129
 21
-1868.83356443
 31
0.0
  0
LINE
  5
2C643
330
18
100
AcDbEntity
  8
01
100
AcDbLine
 10
3415.146833360129
 20
-1869.83356443
 30
0.0
 11
3399.146833360129
 21
-1869.83356443
 31
0.0
  0
LINE
  5
2C644
330
18
100
AcDbEntity
  8
01
100
AcDbLine
 10
3398.146833360129
 20
-1868.83356443
 30
0.0
 11
3358.146833360127
 21
-1868.83356443
 31
0.0
  0
LINE
  5
2C645
330
18
100
AcDbEntity
  8
01
100
AcDbLine
 10
3357.146833360127
 20
-1868.83356443
 30
0.0
 11
3341.146833360127
 21
-1868.83356443
 31
0.0
  0
LINE
  5
2C646
330
18
100
AcDbEntity
  8
01
100
AcDbLine
 10
3357.146833360127
 20
-1869.83356443
 30
0.0
 11
3341.146833360127
 21
-1869.83356443
 31
0.0
  0
LINE
  5
2C647
330
18
100
AcDbEntity
  8
01
100
AcDbLine
 10
3441.646833360128
 20
-1871.33356443
 30
0.0
 11
3441.646833360127
 21
-1868.33356443
 31
0.0
  0
LINE
  5
2C648
330
18
100
AcDbEntity
  8
01
100
AcDbLine
 10
3441.146833360128
 20
-1871.33356443
 30
0.0
 11
3441.146833360128
 21
-1870.333564429997
 31
0.0
  0
LINE
  5
2C649
330
18
100
AcDbEntity
  8
01
100
AcDbLine
 10
3309.646833360128
 20
-1872.33356443
 30
0.0
 11
3309.646833360129
 21
-1870.33356443
 31
0.0
  0
LINE
  5
2C64A
330
18
100
AcDbEntity
  8
01
100
AcDbLine
 10
3314.64683336013
 20
-1868.33356443
 30
0.0
 11
3311.646833360129
 21
-1868.33356443
 31
0.0
  0
ARC
  5
2C64B
330
18
100
AcDbEntity
  8
01
100
AcDbCircle
 10
3311.646833360129
 20
-1870.33356443
 30
0.0
 40
2.0
100
AcDbArc
 50
90.0
 51
180.0
  0
LINE
  5
2C64C
330
18
100
AcDbEntity
  8
01
100
AcDbLine
 10
3314.64683336013
 20
-1871.33356443
 30
0.0
 11
3314.64683336013
 21
-1868.33356443
 31
0.0
  0
LINE
  5
2C64D
330
18
100
AcDbEntity
  8
01
100
AcDbLine
 10
3315.14683336013
 20
-1871.33356443
 30
0.0
 11
3315.14683336013
 21
-1870.33356443
 31
0.0
  0
LINE
  5
2C64E
330
18
100
AcDbEntity
  8
01
100
AcDbLine
 10
3358.146833360127
 20
-1871.33356443
 30
0.0
 11
3358.146833360127
 21
-1868.83356443
 31
0.0
  0
LINE
  5
2C64F
330
18
100
AcDbEntity
  8
01
100
AcDbLine
 10
3398.14683336013
 20
-1871.33356443
 30
0.0
 11
3398.14683336013
 21
-1868.83356443
 31
0.0
  0
LINE
  5
2C650
330
18
100
AcDbEntity
  8
01
100
AcDbLine
 10
3415.146833360129
 20
-1870.333564429997
 30
0.0
 11
3415.14683336013
 21
-1868.83356443
 31
0.0
  0
LINE
  5
2C651
330
18
100
AcDbEntity
  8
01
100
AcDbLine
 10
3399.146833360129
 20
-1870.333564429998
 30
0.0
 11
3399.146833360129
 21
-1868.83356443
 31
0.0
  0
LINE
  5
2C652
330
18
100
AcDbEntity
  8
01
100
AcDbLine
 10
3341.146833360127
 20
-1870.333564429999
 30
0.0
 11
3341.146833360127
 21
-1868.83356443
 31
0.0
  0
LINE
  5
2C653
330
18
100
AcDbEntity
  8
01
100
AcDbLine
 10
3357.146833360128
 20
-1870.333564429998
 30
0.0
 11
3357.146833360127
 21
-1868.83356443
 31
0.0
  0
LINE
  5
2C659
330
18
100
AcDbEntity
  8
01
100
AcDbLine
 10
3579.646833360129
 20
-2010.833564430001
 30
0.0
 11
3579.646833360129
 21
-2011.833564430002
 31
0.0
  0
LINE
  5
2C65A
330
18
100
AcDbEntity
  8
01
100
AcDbLine
 10
3579.146833360129
 20
-2009.833564429999
 30
0.0
 11
3579.146833360128
 21
-2010.833564430001
 31
0.0
  0
LINE
  5
2C65B
330
18
100
AcDbEntity
  8
01
100
AcDbLine
 10
3579.146833360128
 20
-2011.833564430002
 30
0.0
 11
3579.146833360129
 21
-2013.833564429999
 31
0.0
  0
LINE
  5
2C65C
330
18
100
AcDbEntity
  8
01
100
AcDbLine
 10
3578.146833360129
 20
-2009.833564429999
 30
0.0
 11
3578.146833360128
 21
-2010.833564430001
 31
0.0
  0
LINE
  5
2C65D
330
18
100
AcDbEntity
  8
01
100
AcDbLine
 10
3578.146833360128
 20
-2011.833564430002
 30
0.0
 11
3578.146833360129
 21
-2013.833564429999
 31
0.0
  0
LINE
  5
2C65E
330
18
100
AcDbEntity
  8
01
100
AcDbLine
 10
3578.146833360129
 20
-2009.833564429999
 30
0.0
 11
3579.146833360129
 21
-2009.833564429999
 31
0.0
  0
LINE
  5
2C65F
330
18
100
AcDbEntity
  8
01
100
AcDbLine
 10
3576.646833360129
 20
-2011.833564430001
 30
0.0
 11
3579.646833360129
 21
-2011.833564430002
 31
0.0
  0
LINE
  5
2C660
330
18
100
AcDbEntity
  8
01
100
AcDbLine
 10
3576.646833360129
 20
-2010.833564430001
 30
0.0
 11
3579.646833360129
 21
-2010.833564430001
 31
0.0
  0
LINE
  5
2C661
330
18
100
AcDbEntity
  8
01
100
AcDbLine
 10
3579.146833360129
 20
-1967.833564430001
 30
0.0
 11
3579.146833360129
 21
-1959.83356443
 31
0.0
  0
LINE
  5
2C662
330
18
100
AcDbEntity
  8
01
100
AcDbLine
 10
3578.146833360129
 20
-1967.833564430001
 30
0.0
 11
3578.146833360129
 21
-1959.83356443
 31
0.0
  0
LINE
  5
2C663
330
18
100
AcDbEntity
  8
01
100
AcDbLine
 10
3576.646833360129
 20
-1958.83356443
 30
0.0
 11
3578.146833360129
 21
-1958.83356443
 31
0.0
  0
ARC
  5
2C664
330
18
100
AcDbEntity
  8
01
100
AcDbCircle
 10
3578.146833360129
 20
-1959.83356443
 30
0.0
 40
1.0
100
AcDbArc
 50
0.0
 51
90.0
  0
LINE
  5
2C665
330
18
100
AcDbEntity
  8
01
100
AcDbLine
 10
3576.646833360129
 20
-1959.83356443
 30
0.0
 11
3578.146833360129
 21
-1959.83356443
 31
0.0
  0
LINE
  5
2C666
330
18
100
AcDbEntity
  8
01
100
AcDbLine
 10
3578.146833360129
 20
-1967.833564430001
 30
0.0
 11
3579.146833360129
 21
-1967.833564430001
 31
0.0
  0
LINE
  5
2C667
330
18
100
AcDbEntity
  8
01
100
AcDbLine
 10
3630.646833360129
 20
-2352.975266474475
 30
0.0
 11
3630.646833360129
 21
-1900.637922649184
 31
0.0
  0
LINE
  5
2C668
330
18
100
AcDbEntity
  8
01
100
AcDbLine
 10
3650.646833360129
 20
-2352.975266474475
 30
0.0
 11
3650.646833360129
 21
-1900.637922649184
 31
0.0
  0
LINE
  5
2C66D
330
18
100
AcDbEntity
  8
1PHANTOM
100
AcDbLine
 10
3645.764698946175
 20
-2263.333564430001
 30
0.0
 11
3646.764698946175
 21
-2268.333564430001
 31
0.0
  0
LINE
  5
2C66E
330
18
100
AcDbEntity
  8
1PHANTOM
100
AcDbLine
 10
3671.093186590677
 20
-2265.833564430001
 30
0.0
 11
3624.663880609983
 21
-2265.833564430001
 31
0.0
  0
LINE
  5
2C66F
330
18
100
AcDbEntity
  8
1PHANTOM
100
AcDbLine
 10
3663.115744446884
 20
-2264.083564430001
 30
0.0
 11
3629.646833360129
 21
-2264.083564430001
 31
0.0
  0
LINE
  5
2C670
330
18
100
AcDbEntity
  8
1PHANTOM
100
AcDbLine
 10
3669.646833360129
 20
-2265.833564430001
 30
0.0
 11
3663.115744446884
 21
-2264.083564430001
 31
0.0
  0
LINE
  5
2C671
330
18
100
AcDbEntity
  8
1PHANTOM
100
AcDbLine
 10
3669.646833360129
 20
-2265.833564430001
 30
0.0
 11
3663.115744446883
 21
-2267.583564430001
 31
0.0
  0
LINE
  5
2C672
330
18
100
AcDbEntity
  8
1PHANTOM
100
AcDbLine
 10
3663.115744446883
 20
-2267.583564430001
 30
0.0
 11
3629.646833360129
 21
-2267.583564430001
 31
0.0
  0
LINE
  5
2C673
330
18
100
AcDbEntity
  8
1PHANTOM
100
AcDbLine
 10
3663.801445557967
 20
-2263.517297488966
 30
0.0
 11
3663.651445557967
 21
-2264.267297488966
 31
0.0
  0
LINE
  5
2C674
330
18
100
AcDbEntity
  8
1PHANTOM
100
AcDbLine
 10
3663.801445557967
 20
-2263.517297488966
 30
0.0
 11
3664.680826454186
 21
-2267.914201970056
 31
0.0
  0
LINE
  5
2C675
330
18
100
AcDbEntity
  8
1PHANTOM
100
AcDbLine
 10
3668.627370283563
 20
-2266.146921116945
 30
0.0
 11
3668.477370283563
 21
-2266.896921116945
 31
0.0
  0
LINE
  5
2C676
330
18
100
AcDbEntity
  8
1PHANTOM
100
AcDbLine
 10
3668.027942866071
 20
-2264.649784029484
 30
0.0
 11
3667.877942866071
 21
-2265.399784029484
 31
0.0
  0
LINE
  5
2C677
330
18
100
AcDbEntity
  8
1PHANTOM
100
AcDbLine
 10
3668.027942866071
 20
-2264.649784029484
 30
0.0
 11
3668.477370283563
 21
-2266.896921116945
 31
0.0
  0
LINE
  5
2C678
330
18
100
AcDbEntity
  8
1PHANTOM
100
AcDbLine
 10
3664.830826454186
 20
-2267.164201970056
 30
0.0
 11
3664.680826454186
 21
-2267.914201970056
 31
0.0
  0
LINE
  5
2C679
330
18
100
AcDbEntity
  8
1PHANTOM
100
AcDbLine
 10
3666.729098368874
 20
-2266.655561543501
 30
0.0
 11
3666.579098368874
 21
-2267.405561543501
 31
0.0
  0
LINE
  5
2C67A
330
18
100
AcDbEntity
  8
1PHANTOM
100
AcDbLine
 10
3665.914694212019
 20
-2264.083540759225
 30
0.0
 11
3665.764694212019
 21
-2264.833540759225
 31
0.0
  0
LINE
  5
2C67B
330
18
100
AcDbEntity
  8
1PHANTOM
100
AcDbLine
 10
3665.914694212019
 20
-2264.083540759225
 30
0.0
 11
3666.579098368874
 21
-2267.405561543501
 31
0.0
  0
LINE
  5
2C67C
330
18
100
AcDbEntity
  8
1PHANTOM
100
AcDbLine
 10
3654.914698946175
 20
-2267.583564430001
 30
0.0
 11
3654.764698946175
 21
-2268.333564430001
 31
0.0
  0
LINE
  5
2C67D
330
18
100
AcDbEntity
  8
1PHANTOM
100
AcDbLine
 10
3657.764698946175
 20
-2263.333564430001
 30
0.0
 11
3657.614698946174
 21
-2264.083564430001
 31
0.0
  0
LINE
  5
2C67E
330
18
100
AcDbEntity
  8
1PHANTOM
100
AcDbLine
 10
3655.764698946175
 20
-2263.333564430001
 30
0.0
 11
3655.614698946174
 21
-2264.083564430001
 31
0.0
  0
LINE
  5
2C67F
330
18
100
AcDbEntity
  8
1PHANTOM
100
AcDbLine
 10
3655.764698946175
 20
-2263.333564430001
 30
0.0
 11
3656.764698946175
 21
-2268.333564430001
 31
0.0
  0
LINE
  5
2C680
330
18
100
AcDbEntity
  8
1PHANTOM
100
AcDbLine
 10
3659.764698946175
 20
-2263.333564430001
 30
0.0
 11
3659.614698946174
 21
-2264.083564430001
 31
0.0
  0
LINE
  5
2C681
330
18
100
AcDbEntity
  8
1PHANTOM
100
AcDbLine
 10
3661.764698946175
 20
-2263.333564430001
 30
0.0
 11
3661.614698946174
 21
-2264.083564430001
 31
0.0
  0
LINE
  5
2C682
330
18
100
AcDbEntity
  8
1PHANTOM
100
AcDbLine
 10
3661.764698946175
 20
-2263.333564430001
 30
0.0
 11
3662.764698946175
 21
-2268.333564430001
 31
0.0
  0
LINE
  5
2C683
330
18
100
AcDbEntity
  8
1PHANTOM
100
AcDbLine
 10
3659.764698946175
 20
-2263.333564430001
 30
0.0
 11
3660.764698946175
 21
-2268.333564430001
 31
0.0
  0
LINE
  5
2C684
330
18
100
AcDbEntity
  8
1PHANTOM
100
AcDbLine
 10
3657.764698946175
 20
-2263.333564430001
 30
0.0
 11
3658.764698946175
 21
-2268.333564430001
 31
0.0
  0
LINE
  5
2C685
330
18
100
AcDbEntity
  8
1PHANTOM
100
AcDbLine
 10
3662.914698946175
 20
-2267.583564430001
 30
0.0
 11
3662.764698946175
 21
-2268.333564430001
 31
0.0
  0
LINE
  5
2C686
330
18
100
AcDbEntity
  8
1PHANTOM
100
AcDbLine
 10
3660.914698946175
 20
-2267.583564430001
 30
0.0
 11
3660.764698946175
 21
-2268.333564430001
 31
0.0
  0
LINE
  5
2C687
330
18
100
AcDbEntity
  8
1PHANTOM
100
AcDbLine
 10
3656.914698946175
 20
-2267.583564430001
 30
0.0
 11
3656.764698946175
 21
-2268.333564430001
 31
0.0
  0
LINE
  5
2C688
330
18
100
AcDbEntity
  8
1PHANTOM
100
AcDbLine
 10
3658.914698946175
 20
-2267.583564430001
 30
0.0
 11
3658.764698946175
 21
-2268.333564430001
 31
0.0
  0
LINE
  5
2C689
330
18
100
AcDbEntity
  8
1PHANTOM
100
AcDbLine
 10
3651.764698946175
 20
-2263.333564430001
 30
0.0
 11
3651.614698946174
 21
-2264.083564430001
 31
0.0
  0
LINE
  5
2C68A
330
18
100
AcDbEntity
  8
1PHANTOM
100
AcDbLine
 10
3653.764698946175
 20
-2263.333564430001
 30
0.0
 11
3653.614698946174
 21
-2264.083564430001
 31
0.0
  0
LINE
  5
2C68B
330
18
100
AcDbEntity
  8
1PHANTOM
100
AcDbLine
 10
3647.764698946175
 20
-2263.333564430001
 30
0.0
 11
3647.614698946174
 21
-2264.083564430001
 31
0.0
  0
LINE
  5
2C68C
330
18
100
AcDbEntity
  8
1PHANTOM
100
AcDbLine
 10
3649.764698946175
 20
-2263.333564430001
 30
0.0
 11
3649.614698946174
 21
-2264.083564430001
 31
0.0
  0
LINE
  5
2C68D
330
18
100
AcDbEntity
  8
1PHANTOM
100
AcDbLine
 10
3653.764698946175
 20
-2263.333564430001
 30
0.0
 11
3654.764698946175
 21
-2268.333564430001
 31
0.0
  0
LINE
  5
2C68E
330
18
100
AcDbEntity
  8
1PHANTOM
100
AcDbLine
 10
3651.764698946175
 20
-2263.333564430001
 30
0.0
 11
3652.764698946175
 21
-2268.333564430001
 31
0.0
  0
LINE
  5
2C68F
330
18
100
AcDbEntity
  8
1PHANTOM
100
AcDbLine
 10
3649.764698946175
 20
-2263.333564430001
 30
0.0
 11
3650.764698946175
 21
-2268.333564430001
 31
0.0
  0
LINE
  5
2C690
330
18
100
AcDbEntity
  8
1PHANTOM
100
AcDbLine
 10
3647.764698946175
 20
-2263.333564430001
 30
0.0
 11
3648.764698946175
 21
-2268.333564430001
 31
0.0
  0
LINE
  5
2C691
330
18
100
AcDbEntity
  8
1PHANTOM
100
AcDbLine
 10
3650.914698946175
 20
-2267.583564430001
 30
0.0
 11
3650.764698946175
 21
-2268.333564430001
 31
0.0
  0
LINE
  5
2C692
330
18
100
AcDbEntity
  8
1PHANTOM
100
AcDbLine
 10
3652.914698946175
 20
-2267.583564430001
 30
0.0
 11
3652.764698946175
 21
-2268.333564430001
 31
0.0
  0
LINE
  5
2C693
330
18
100
AcDbEntity
  8
1PHANTOM
100
AcDbLine
 10
3646.914698946175
 20
-2267.583564430001
 30
0.0
 11
3646.764698946175
 21
-2268.333564430001
 31
0.0
  0
LINE
  5
2C694
330
18
100
AcDbEntity
  8
1PHANTOM
100
AcDbLine
 10
3648.914698946175
 20
-2267.583564430001
 30
0.0
 11
3648.764698946175
 21
-2268.333564430001
 31
0.0
  0
LINE
  5
2C695
330
18
100
AcDbEntity
  8
1PHANTOM
100
AcDbLine
 10
3629.764698946175
 20
-2263.333564430001
 30
0.0
 11
3630.764698946175
 21
-2268.333564430001
 31
0.0
  0
LINE
  5
2C696
330
18
100
AcDbEntity
  8
1PHANTOM
100
AcDbLine
 10
3637.764698946175
 20
-2263.333564430001
 30
0.0
 11
3638.764698946175
 21
-2268.333564430001
 31
0.0
  0
LINE
  5
2C697
330
18
100
AcDbEntity
  8
1PHANTOM
100
AcDbLine
 10
3645.764698946175
 20
-2263.333564430001
 30
0.0
 11
3645.614698946174
 21
-2264.083564430001
 31
0.0
  0
LINE
  5
2C698
330
18
100
AcDbEntity
  8
1PHANTOM
100
AcDbLine
 10
3643.764698946175
 20
-2263.333564430001
 30
0.0
 11
3643.614698946174
 21
-2264.083564430001
 31
0.0
  0
LINE
  5
2C699
330
18
100
AcDbEntity
  8
1PHANTOM
100
AcDbLine
 10
3641.764698946175
 20
-2263.333564430001
 30
0.0
 11
3641.614698946174
 21
-2264.083564430001
 31
0.0
  0
LINE
  5
2C69A
330
18
100
AcDbEntity
  8
1PHANTOM
100
AcDbLine
 10
3639.764698946175
 20
-2263.333564430001
 30
0.0
 11
3639.614698946174
 21
-2264.083564430001
 31
0.0
  0
LINE
  5
2C69B
330
18
100
AcDbEntity
  8
1PHANTOM
100
AcDbLine
 10
3643.764698946175
 20
-2263.333564430001
 30
0.0
 11
3644.764698946175
 21
-2268.333564430001
 31
0.0
  0
LINE
  5
2C69C
330
18
100
AcDbEntity
  8
1PHANTOM
100
AcDbLine
 10
3641.764698946175
 20
-2263.333564430001
 30
0.0
 11
3642.764698946175
 21
-2268.333564430001
 31
0.0
  0
LINE
  5
2C69D
330
18
100
AcDbEntity
  8
1PHANTOM
100
AcDbLine
 10
3639.764698946175
 20
-2263.333564430001
 30
0.0
 11
3640.764698946175
 21
-2268.333564430001
 31
0.0
  0
LINE
  5
2C69E
330
18
100
AcDbEntity
  8
1PHANTOM
100
AcDbLine
 10
3644.914698946175
 20
-2267.583564430001
 30
0.0
 11
3644.764698946175
 21
-2268.333564430001
 31
0.0
  0
LINE
  5
2C69F
330
18
100
AcDbEntity
  8
1PHANTOM
100
AcDbLine
 10
3642.914698946175
 20
-2267.583564430001
 30
0.0
 11
3642.764698946175
 21
-2268.333564430001
 31
0.0
  0
LINE
  5
2C6A0
330
18
100
AcDbEntity
  8
1PHANTOM
100
AcDbLine
 10
3640.914698946175
 20
-2267.583564430001
 30
0.0
 11
3640.764698946175
 21
-2268.333564430001
 31
0.0
  0
LINE
  5
2C6A1
330
18
100
AcDbEntity
  8
1PHANTOM
100
AcDbLine
 10
3638.914698946175
 20
-2267.583564430001
 30
0.0
 11
3638.764698946175
 21
-2268.333564430001
 31
0.0
  0
LINE
  5
2C6A2
330
18
100
AcDbEntity
  8
1PHANTOM
100
AcDbLine
 10
3633.764698946175
 20
-2263.333564430001
 30
0.0
 11
3633.614698946174
 21
-2264.083564430001
 31
0.0
  0
LINE
  5
2C6A3
330
18
100
AcDbEntity
  8
1PHANTOM
100
AcDbLine
 10
3635.764698946175
 20
-2263.333564430001
 30
0.0
 11
3635.614698946174
 21
-2264.083564430001
 31
0.0
  0
LINE
  5
2C6A4
330
18
100
AcDbEntity
  8
1PHANTOM
100
AcDbLine
 10
3637.764698946175
 20
-2263.333564430001
 30
0.0
 11
3637.614698946174
 21
-2264.083564430001
 31
0.0
  0
LINE
  5
2C6A5
330
18
100
AcDbEntity
  8
1PHANTOM
100
AcDbLine
 10
3631.764698946175
 20
-2263.333564430001
 30
0.0
 11
3631.614698946174
 21
-2264.083564430001
 31
0.0
  0
LINE
  5
2C6A6
330
18
100
AcDbEntity
  8
1PHANTOM
100
AcDbLine
 10
3635.764698946175
 20
-2263.333564430001
 30
0.0
 11
3636.764698946175
 21
-2268.333564430001
 31
0.0
  0
LINE
  5
2C6A7
330
18
100
AcDbEntity
  8
1PHANTOM
100
AcDbLine
 10
3633.764698946175
 20
-2263.333564430001
 30
0.0
 11
3634.764698946175
 21
-2268.333564430001
 31
0.0
  0
LINE
  5
2C6A8
330
18
100
AcDbEntity
  8
1PHANTOM
100
AcDbLine
 10
3631.764698946175
 20
-2263.333564430001
 30
0.0
 11
3632.764698946175
 21
-2268.333564430001
 31
0.0
  0
LINE
  5
2C6A9
330
18
100
AcDbEntity
  8
1PHANTOM
100
AcDbLine
 10
3634.914698946175
 20
-2267.583564430001
 30
0.0
 11
3634.764698946175
 21
-2268.333564430001
 31
0.0
  0
LINE
  5
2C6AA
330
18
100
AcDbEntity
  8
1PHANTOM
100
AcDbLine
 10
3636.914698946175
 20
-2267.583564430001
 30
0.0
 11
3636.764698946175
 21
-2268.333564430001
 31
0.0
  0
LINE
  5
2C6AB
330
18
100
AcDbEntity
  8
1PHANTOM
100
AcDbLine
 10
3632.914698946175
 20
-2267.583564430001
 30
0.0
 11
3632.764698946175
 21
-2268.333564430001
 31
0.0
  0
LINE
  5
2C6AC
330
18
100
AcDbEntity
  8
1PHANTOM
100
AcDbLine
 10
3630.914698946175
 20
-2267.583564430001
 30
0.0
 11
3630.764698946175
 21
-2268.333564430001
 31
0.0
  0
LINE
  5
2C6AD
330
18
100
AcDbEntity
  8
1PHANTOM
100
AcDbLine
 10
3629.764698946175
 20
-2263.333564430001
 30
0.0
 11
3629.614698946174
 21
-2264.083564430001
 31
0.0
  0
LINE
  5
2C6AE
330
18
100
AcDbEntity
  8
1PHANTOM
100
AcDbLine
 10
3629.646833360129
 20
-2270.583564430001
 30
0.0
 11
3629.646833360129
 21
-2261.083564430001
 31
0.0
  0
ARC
  5
2C6AF
330
18
100
AcDbEntity
  8
1PHANTOM
100
AcDbCircle
 10
3635.417666693462
 20
-2265.833564430001
 30
0.0
 40
8.270833333333439
100
AcDbArc
 50
144.9488632525198
 51
215.0511367474801
  0
LINE
  5
2C6B0
330
18
100
AcDbEntity
  8
1PHANTOM
100
AcDbLine
 10
3629.646833360129
 20
-2270.583564430001
 30
0.0
 11
3628.646833360129
 21
-2270.583564430001
 31
0.0
  0
LINE
  5
2C6B1
330
18
100
AcDbEntity
  8
1PHANTOM
100
AcDbLine
 10
3629.646833360129
 20
-2261.083564430001
 30
0.0
 11
3628.646833360129
 21
-2261.083564430001
 31
0.0
  0
LINE
  5
2C6B2
330
18
100
AcDbEntity
  8
1PHANTOM
100
AcDbLine
 10
3628.646833360129
 20
-2270.366627609667
 30
0.0
 11
3628.646833360129
 21
-2261.328196645195
 31
0.0
  0
LINE
  5
2C6B3
330
18
100
AcDbEntity
  8
1PHANTOM
100
AcDbLine
 10
3433.146833360128
 20
-1802.215698843954
 30
0.0
 11
3438.146833360128
 21
-1801.215698843954
 31
0.0
  0
LINE
  5
2C6B4
330
18
100
AcDbEntity
  8
1PHANTOM
100
AcDbLine
 10
3435.646833360129
 20
-1776.887211199452
 30
0.0
 11
3435.646833360128
 21
-1823.316517180146
 31
0.0
  0
LINE
  5
2C6B5
330
18
100
AcDbEntity
  8
1PHANTOM
100
AcDbLine
 10
3433.896833360129
 20
-1784.864653343245
 30
0.0
 11
3433.896833360128
 21
-1818.33356443
 31
0.0
  0
LINE
  5
2C6B6
330
18
100
AcDbEntity
  8
1PHANTOM
100
AcDbLine
 10
3435.646833360129
 20
-1778.33356443
 30
0.0
 11
3433.896833360129
 21
-1784.864653343245
 31
0.0
  0
LINE
  5
2C6B7
330
18
100
AcDbEntity
  8
1PHANTOM
100
AcDbLine
 10
3435.646833360129
 20
-1778.33356443
 30
0.0
 11
3437.396833360129
 21
-1784.864653343245
 31
0.0
  0
LINE
  5
2C6B8
330
18
100
AcDbEntity
  8
1PHANTOM
100
AcDbLine
 10
3437.396833360129
 20
-1784.864653343245
 30
0.0
 11
3437.396833360128
 21
-1818.33356443
 31
0.0
  0
LINE
  5
2C6B9
330
18
100
AcDbEntity
  8
1PHANTOM
100
AcDbLine
 10
3433.330566419093
 20
-1784.178952232161
 30
0.0
 11
3434.080566419093
 21
-1784.328952232161
 31
0.0
  0
LINE
  5
2C6BA
330
18
100
AcDbEntity
  8
1PHANTOM
100
AcDbLine
 10
3433.330566419093
 20
-1784.178952232161
 30
0.0
 11
3437.727470900184
 21
-1783.299571335943
 31
0.0
  0
LINE
  5
2C6BB
330
18
100
AcDbEntity
  8
1PHANTOM
100
AcDbLine
 10
3435.960190047073
 20
-1779.353027506565
 30
0.0
 11
3436.710190047073
 21
-1779.503027506565
 31
0.0
  0
LINE
  5
2C6BC
330
18
100
AcDbEntity
  8
1PHANTOM
100
AcDbLine
 10
3434.463052959612
 20
-1779.952454924058
 30
0.0
 11
3435.213052959612
 21
-1780.102454924058
 31
0.0
  0
LINE
  5
2C6BD
330
18
100
AcDbEntity
  8
1PHANTOM
100
AcDbLine
 10
3434.463052959612
 20
-1779.952454924058
 30
0.0
 11
3436.710190047073
 21
-1779.503027506565
 31
0.0
  0
LINE
  5
2C6BE
330
18
100
AcDbEntity
  8
1PHANTOM
100
AcDbLine
 10
3436.977470900184
 20
-1783.149571335943
 30
0.0
 11
3437.727470900184
 21
-1783.299571335943
 31
0.0
  0
LINE
  5
2C6BF
330
18
100
AcDbEntity
  8
1PHANTOM
100
AcDbLine
 10
3436.468830473628
 20
-1781.251299421254
 30
0.0
 11
3437.218830473628
 21
-1781.401299421254
 31
0.0
  0
LINE
  5
2C6C0
330
18
100
AcDbEntity
  8
1PHANTOM
100
AcDbLine
 10
3433.896809689352
 20
-1782.065703578109
 30
0.0
 11
3434.646809689352
 21
-1782.215703578109
 31
0.0
  0
LINE
  5
2C6C1
330
18
100
AcDbEntity
  8
1PHANTOM
100
AcDbLine
 10
3433.896809689352
 20
-1782.065703578109
 30
0.0
 11
3437.218830473628
 21
-1781.401299421254
 31
0.0
  0
LINE
  5
2C6C2
330
18
100
AcDbEntity
  8
1PHANTOM
100
AcDbLine
 10
3437.396833360129
 20
-1793.065698843954
 30
0.0
 11
3438.146833360129
 21
-1793.215698843954
 31
0.0
  0
LINE
  5
2C6C3
330
18
100
AcDbEntity
  8
1PHANTOM
100
AcDbLine
 10
3433.146833360129
 20
-1790.215698843954
 30
0.0
 11
3433.896833360129
 21
-1790.365698843954
 31
0.0
  0
LINE
  5
2C6C4
330
18
100
AcDbEntity
  8
1PHANTOM
100
AcDbLine
 10
3433.146833360129
 20
-1792.215698843954
 30
0.0
 11
3433.896833360129
 21
-1792.365698843954
 31
0.0
  0
LINE
  5
2C6C5
330
18
100
AcDbEntity
  8
1PHANTOM
100
AcDbLine
 10
3433.146833360129
 20
-1792.215698843954
 30
0.0
 11
3438.146833360129
 21
-1791.215698843954
 31
0.0
  0
LINE
  5
2C6C6
330
18
100
AcDbEntity
  8
1PHANTOM
100
AcDbLine
 10
3433.146833360129
 20
-1788.215698843954
 30
0.0
 11
3433.896833360129
 21
-1788.365698843954
 31
0.0
  0
LINE
  5
2C6C7
330
18
100
AcDbEntity
  8
1PHANTOM
100
AcDbLine
 10
3433.146833360129
 20
-1786.215698843954
 30
0.0
 11
3433.896833360129
 21
-1786.365698843954
 31
0.0
  0
LINE
  5
2C6C8
330
18
100
AcDbEntity
  8
1PHANTOM
100
AcDbLine
 10
3433.146833360129
 20
-1786.215698843954
 30
0.0
 11
3438.146833360129
 21
-1785.215698843954
 31
0.0
  0
LINE
  5
2C6C9
330
18
100
AcDbEntity
  8
1PHANTOM
100
AcDbLine
 10
3433.146833360129
 20
-1788.215698843954
 30
0.0
 11
3438.146833360129
 21
-1787.215698843954
 31
0.0
  0
LINE
  5
2C6CA
330
18
100
AcDbEntity
  8
1PHANTOM
100
AcDbLine
 10
3433.146833360129
 20
-1790.215698843954
 30
0.0
 11
3438.146833360129
 21
-1789.215698843954
 31
0.0
  0
LINE
  5
2C6CB
330
18
100
AcDbEntity
  8
1PHANTOM
100
AcDbLine
 10
3437.396833360129
 20
-1785.065698843954
 30
0.0
 11
3438.146833360129
 21
-1785.215698843954
 31
0.0
  0
LINE
  5
2C6CC
330
18
100
AcDbEntity
  8
1PHANTOM
100
AcDbLine
 10
3437.396833360129
 20
-1787.065698843954
 30
0.0
 11
3438.146833360129
 21
-1787.215698843954
 31
0.0
  0
LINE
  5
2C6CD
330
18
100
AcDbEntity
  8
1PHANTOM
100
AcDbLine
 10
3437.396833360129
 20
-1791.065698843954
 30
0.0
 11
3438.146833360129
 21
-1791.215698843954
 31
0.0
  0
LINE
  5
2C6CE
330
18
100
AcDbEntity
  8
1PHANTOM
100
AcDbLine
 10
3437.396833360129
 20
-1789.065698843954
 30
0.0
 11
3438.146833360129
 21
-1789.215698843954
 31
0.0
  0
LINE
  5
2C6CF
330
18
100
AcDbEntity
  8
1PHANTOM
100
AcDbLine
 10
3433.146833360129
 20
-1796.215698843954
 30
0.0
 11
3433.896833360129
 21
-1796.365698843954
 31
0.0
  0
LINE
  5
2C6D0
330
18
100
AcDbEntity
  8
1PHANTOM
100
AcDbLine
 10
3433.146833360129
 20
-1794.215698843954
 30
0.0
 11
3433.896833360129
 21
-1794.365698843954
 31
0.0
  0
LINE
  5
2C6D1
330
18
100
AcDbEntity
  8
1PHANTOM
100
AcDbLine
 10
3433.146833360128
 20
-1800.215698843954
 30
0.0
 11
3433.896833360128
 21
-1800.365698843954
 31
0.0
  0
LINE
  5
2C6D2
330
18
100
AcDbEntity
  8
1PHANTOM
100
AcDbLine
 10
3433.146833360128
 20
-1798.215698843954
 30
0.0
 11
3433.896833360128
 21
-1798.365698843954
 31
0.0
  0
LINE
  5
2C6D3
330
18
100
AcDbEntity
  8
1PHANTOM
100
AcDbLine
 10
3433.146833360129
 20
-1794.215698843954
 30
0.0
 11
3438.146833360129
 21
-1793.215698843954
 31
0.0
  0
LINE
  5
2C6D4
330
18
100
AcDbEntity
  8
1PHANTOM
100
AcDbLine
 10
3433.146833360129
 20
-1796.215698843954
 30
0.0
 11
3438.146833360129
 21
-1795.215698843954
 31
0.0
  0
LINE
  5
2C6D5
330
18
100
AcDbEntity
  8
1PHANTOM
100
AcDbLine
 10
3433.146833360128
 20
-1798.215698843954
 30
0.0
 11
3438.146833360129
 21
-1797.215698843954
 31
0.0
  0
LINE
  5
2C6D6
330
18
100
AcDbEntity
  8
1PHANTOM
100
AcDbLine
 10
3433.146833360128
 20
-1800.215698843954
 30
0.0
 11
3438.146833360128
 21
-1799.215698843954
 31
0.0
  0
LINE
  5
2C6D7
330
18
100
AcDbEntity
  8
1PHANTOM
100
AcDbLine
 10
3437.396833360129
 20
-1797.065698843954
 30
0.0
 11
3438.146833360129
 21
-1797.215698843954
 31
0.0
  0
LINE
  5
2C6D8
330
18
100
AcDbEntity
  8
1PHANTOM
100
AcDbLine
 10
3437.396833360129
 20
-1795.065698843954
 30
0.0
 11
3438.146833360129
 21
-1795.215698843954
 31
0.0
  0
LINE
  5
2C6D9
330
18
100
AcDbEntity
  8
1PHANTOM
100
AcDbLine
 10
3437.396833360128
 20
-1801.065698843954
 30
0.0
 11
3438.146833360128
 21
-1801.215698843954
 31
0.0
  0
LINE
  5
2C6DA
330
18
100
AcDbEntity
  8
1PHANTOM
100
AcDbLine
 10
3437.396833360128
 20
-1799.065698843954
 30
0.0
 11
3438.146833360128
 21
-1799.215698843954
 31
0.0
  0
LINE
  5
2C6DB
330
18
100
AcDbEntity
  8
1PHANTOM
100
AcDbLine
 10
3433.146833360128
 20
-1818.215698843954
 30
0.0
 11
3438.146833360128
 21
-1817.215698843954
 31
0.0
  0
LINE
  5
2C6DC
330
18
100
AcDbEntity
  8
1PHANTOM
100
AcDbLine
 10
3433.146833360128
 20
-1810.215698843954
 30
0.0
 11
3438.146833360128
 21
-1809.215698843954
 31
0.0
  0
LINE
  5
2C6DD
330
18
100
AcDbEntity
  8
1PHANTOM
100
AcDbLine
 10
3433.146833360128
 20
-1802.215698843954
 30
0.0
 11
3433.896833360128
 21
-1802.365698843954
 31
0.0
  0
LINE
  5
2C6DE
330
18
100
AcDbEntity
  8
1PHANTOM
100
AcDbLine
 10
3433.146833360128
 20
-1804.215698843954
 30
0.0
 11
3433.896833360128
 21
-1804.365698843954
 31
0.0
  0
LINE
  5
2C6DF
330
18
100
AcDbEntity
  8
1PHANTOM
100
AcDbLine
 10
3433.146833360128
 20
-1806.215698843954
 30
0.0
 11
3433.896833360128
 21
-1806.365698843954
 31
0.0
  0
LINE
  5
2C6E0
330
18
100
AcDbEntity
  8
1PHANTOM
100
AcDbLine
 10
3433.146833360128
 20
-1808.215698843954
 30
0.0
 11
3433.896833360128
 21
-1808.365698843954
 31
0.0
  0
LINE
  5
2C6E1
330
18
100
AcDbEntity
  8
1PHANTOM
100
AcDbLine
 10
3433.146833360128
 20
-1804.215698843954
 30
0.0
 11
3438.146833360128
 21
-1803.215698843954
 31
0.0
  0
LINE
  5
2C6E2
330
18
100
AcDbEntity
  8
1PHANTOM
100
AcDbLine
 10
3433.146833360128
 20
-1806.215698843954
 30
0.0
 11
3438.146833360128
 21
-1805.215698843954
 31
0.0
  0
LINE
  5
2C6E3
330
18
100
AcDbEntity
  8
1PHANTOM
100
AcDbLine
 10
3433.146833360128
 20
-1808.215698843954
 30
0.0
 11
3438.146833360128
 21
-1807.215698843954
 31
0.0
  0
LINE
  5
2C6E4
330
18
100
AcDbEntity
  8
1PHANTOM
100
AcDbLine
 10
3437.396833360128
 20
-1803.065698843954
 30
0.0
 11
3438.146833360128
 21
-1803.215698843954
 31
0.0
  0
LINE
  5
2C6E5
330
18
100
AcDbEntity
  8
1PHANTOM
100
AcDbLine
 10
3437.396833360128
 20
-1805.065698843954
 30
0.0
 11
3438.146833360128
 21
-1805.215698843954
 31
0.0
  0
LINE
  5
2C6E6
330
18
100
AcDbEntity
  8
1PHANTOM
100
AcDbLine
 10
3437.396833360128
 20
-1807.065698843954
 30
0.0
 11
3438.146833360128
 21
-1807.215698843954
 31
0.0
  0
LINE
  5
2C6E7
330
18
100
AcDbEntity
  8
1PHANTOM
100
AcDbLine
 10
3437.396833360128
 20
-1809.065698843954
 30
0.0
 11
3438.146833360128
 21
-1809.215698843954
 31
0.0
  0
LINE
  5
2C6E8
330
18
100
AcDbEntity
  8
1PHANTOM
100
AcDbLine
 10
3433.146833360128
 20
-1814.215698843954
 30
0.0
 11
3433.896833360128
 21
-1814.365698843954
 31
0.0
  0
LINE
  5
2C6E9
330
18
100
AcDbEntity
  8
1PHANTOM
100
AcDbLine
 10
3433.146833360128
 20
-1812.215698843954
 30
0.0
 11
3433.896833360128
 21
-1812.365698843954
 31
0.0
  0
LINE
  5
2C6EA
330
18
100
AcDbEntity
  8
1PHANTOM
100
AcDbLine
 10
3433.146833360128
 20
-1810.215698843954
 30
0.0
 11
3433.896833360128
 21
-1810.365698843954
 31
0.0
  0
LINE
  5
2C6EB
330
18
100
AcDbEntity
  8
1PHANTOM
100
AcDbLine
 10
3433.146833360128
 20
-1816.215698843954
 30
0.0
 11
3433.896833360128
 21
-1816.365698843954
 31
0.0
  0
LINE
  5
2C6EC
330
18
100
AcDbEntity
  8
1PHANTOM
100
AcDbLine
 10
3433.146833360128
 20
-1812.215698843954
 30
0.0
 11
3438.146833360128
 21
-1811.215698843954
 31
0.0
  0
LINE
  5
2C6ED
330
18
100
AcDbEntity
  8
1PHANTOM
100
AcDbLine
 10
3433.146833360128
 20
-1814.215698843954
 30
0.0
 11
3438.146833360128
 21
-1813.215698843954
 31
0.0
  0
LINE
  5
2C6EE
330
18
100
AcDbEntity
  8
1PHANTOM
100
AcDbLine
 10
3433.146833360128
 20
-1816.215698843954
 30
0.0
 11
3438.146833360128
 21
-1815.215698843954
 31
0.0
  0
LINE
  5
2C6EF
330
18
100
AcDbEntity
  8
1PHANTOM
100
AcDbLine
 10
3437.396833360128
 20
-1813.065698843954
 30
0.0
 11
3438.146833360128
 21
-1813.215698843954
 31
0.0
  0
LINE
  5
2C6F0
330
18
100
AcDbEntity
  8
1PHANTOM
100
AcDbLine
 10
3437.396833360128
 20
-1811.065698843954
 30
0.0
 11
3438.146833360128
 21
-1811.215698843954
 31
0.0
  0
LINE
  5
2C6F1
330
18
100
AcDbEntity
  8
1PHANTOM
100
AcDbLine
 10
3437.396833360128
 20
-1815.065698843954
 30
0.0
 11
3438.146833360128
 21
-1815.215698843954
 31
0.0
  0
LINE
  5
2C6F2
330
18
100
AcDbEntity
  8
1PHANTOM
100
AcDbLine
 10
3437.396833360128
 20
-1817.065698843954
 30
0.0
 11
3438.146833360128
 21
-1817.215698843954
 31
0.0
  0
LINE
  5
2C6F3
330
18
100
AcDbEntity
  8
1PHANTOM
100
AcDbLine
 10
3433.146833360128
 20
-1818.215698843954
 30
0.0
 11
3433.896833360128
 21
-1818.365698843954
 31
0.0
  0
LINE
  5
2C6F4
330
18
100
AcDbEntity
  8
1PHANTOM
100
AcDbLine
 10
3440.396833360128
 20
-1818.33356443
 30
0.0
 11
3430.896833360128
 21
-1818.33356443
 31
0.0
  0
ARC
  5
2C6F5
330
18
100
AcDbEntity
  8
1PHANTOM
100
AcDbCircle
 10
3435.646833360128
 20
-1812.562731096666
 30
0.0
 40
8.270833333333439
100
AcDbArc
 50
234.9488632525092
 51
305.0511367474908
  0
LINE
  5
2C6F6
330
18
100
AcDbEntity
  8
1PHANTOM
100
AcDbLine
 10
3440.396833360128
 20
-1818.33356443
 30
0.0
 11
3440.396833360128
 21
-1819.33356443
 31
0.0
  0
LINE
  5
2C6F7
330
18
100
AcDbEntity
  8
1PHANTOM
100
AcDbLine
 10
3430.896833360128
 20
-1818.33356443
 30
0.0
 11
3430.896833360128
 21
-1819.33356443
 31
0.0
  0
LINE
  5
2C6F8
330
18
100
AcDbEntity
  8
1PHANTOM
100
AcDbLine
 10
3440.179896539794
 20
-1819.33356443
 30
0.0
 11
3431.141465575322
 21
-1819.33356443
 31
0.0
  0
LINE
  5
2C6F9
330
18
100
AcDbEntity
  8
1PHANTOM
100
AcDbLine
 10
3645.764698946174
 20
-2063.333564430001
 30
0.0
 11
3646.764698946174
 21
-2068.333564430001
 31
0.0
  0
LINE
  5
2C6FA
330
18
100
AcDbEntity
  8
1PHANTOM
100
AcDbLine
 10
3671.093186590676
 20
-2065.833564430001
 30
0.0
 11
3624.663880609982
 21
-2065.833564430001
 31
0.0
  0
LINE
  5
2C6FB
330
18
100
AcDbEntity
  8
1PHANTOM
100
AcDbLine
 10
3663.115744446883
 20
-2064.083564430001
 30
0.0
 11
3629.646833360128
 21
-2064.083564430001
 31
0.0
  0
LINE
  5
2C6FC
330
18
100
AcDbEntity
  8
1PHANTOM
100
AcDbLine
 10
3669.646833360128
 20
-2065.833564430001
 30
0.0
 11
3663.115744446883
 21
-2064.083564430001
 31
0.0
  0
LINE
  5
2C6FD
330
18
100
AcDbEntity
  8
1PHANTOM
100
AcDbLine
 10
3669.646833360128
 20
-2065.833564430001
 30
0.0
 11
3663.115744446883
 21
-2067.583564430001
 31
0.0
  0
LINE
  5
2C6FE
330
18
100
AcDbEntity
  8
1PHANTOM
100
AcDbLine
 10
3663.115744446883
 20
-2067.583564430001
 30
0.0
 11
3629.646833360128
 21
-2067.583564430001
 31
0.0
  0
LINE
  5
2C6FF
330
18
100
AcDbEntity
  8
1PHANTOM
100
AcDbLine
 10
3663.801445557967
 20
-2063.517297488966
 30
0.0
 11
3663.651445557967
 21
-2064.267297488966
 31
0.0
  0
LINE
  5
2C700
330
18
100
AcDbEntity
  8
1PHANTOM
100
AcDbLine
 10
3663.801445557967
 20
-2063.517297488966
 30
0.0
 11
3664.680826454185
 21
-2067.914201970056
 31
0.0
  0
LINE
  5
2C701
330
18
100
AcDbEntity
  8
1PHANTOM
100
AcDbLine
 10
3668.627370283563
 20
-2066.146921116945
 30
0.0
 11
3668.477370283563
 21
-2066.896921116945
 31
0.0
  0
LINE
  5
2C702
330
18
100
AcDbEntity
  8
1PHANTOM
100
AcDbLine
 10
3668.027942866071
 20
-2064.649784029484
 30
0.0
 11
3667.87794286607
 21
-2065.399784029484
 31
0.0
  0
LINE
  5
2C703
330
18
100
AcDbEntity
  8
1PHANTOM
100
AcDbLine
 10
3668.027942866071
 20
-2064.649784029484
 30
0.0
 11
3668.477370283563
 21
-2066.896921116945
 31
0.0
  0
LINE
  5
2C704
330
18
100
AcDbEntity
  8
1PHANTOM
100
AcDbLine
 10
3664.830826454185
 20
-2067.164201970056
 30
0.0
 11
3664.680826454185
 21
-2067.914201970056
 31
0.0
  0
LINE
  5
2C705
330
18
100
AcDbEntity
  8
1PHANTOM
100
AcDbLine
 10
3666.729098368874
 20
-2066.655561543501
 30
0.0
 11
3666.579098368874
 21
-2067.405561543501
 31
0.0
  0
LINE
  5
2C706
330
18
100
AcDbEntity
  8
1PHANTOM
100
AcDbLine
 10
3665.914694212019
 20
-2064.083540759225
 30
0.0
 11
3665.764694212019
 21
-2064.833540759225
 31
0.0
  0
LINE
  5
2C707
330
18
100
AcDbEntity
  8
1PHANTOM
100
AcDbLine
 10
3665.914694212019
 20
-2064.083540759225
 30
0.0
 11
3666.579098368874
 21
-2067.405561543501
 31
0.0
  0
LINE
  5
2C708
330
18
100
AcDbEntity
  8
1PHANTOM
100
AcDbLine
 10
3654.914698946174
 20
-2067.583564430001
 30
0.0
 11
3654.764698946174
 21
-2068.333564430001
 31
0.0
  0
LINE
  5
2C709
330
18
100
AcDbEntity
  8
1PHANTOM
100
AcDbLine
 10
3657.764698946174
 20
-2063.333564430001
 30
0.0
 11
3657.614698946174
 21
-2064.083564430001
 31
0.0
  0
LINE
  5
2C70A
330
18
100
AcDbEntity
  8
1PHANTOM
100
AcDbLine
 10
3655.764698946174
 20
-2063.333564430001
 30
0.0
 11
3655.614698946174
 21
-2064.083564430001
 31
0.0
  0
LINE
  5
2C70B
330
18
100
AcDbEntity
  8
1PHANTOM
100
AcDbLine
 10
3655.764698946174
 20
-2063.333564430001
 30
0.0
 11
3656.764698946174
 21
-2068.333564430001
 31
0.0
  0
LINE
  5
2C70C
330
18
100
AcDbEntity
  8
1PHANTOM
100
AcDbLine
 10
3659.764698946174
 20
-2063.333564430001
 30
0.0
 11
3659.614698946174
 21
-2064.083564430001
 31
0.0
  0
LINE
  5
2C70D
330
18
100
AcDbEntity
  8
1PHANTOM
100
AcDbLine
 10
3661.764698946174
 20
-2063.333564430001
 30
0.0
 11
3661.614698946174
 21
-2064.083564430001
 31
0.0
  0
LINE
  5
2C70E
330
18
100
AcDbEntity
  8
1PHANTOM
100
AcDbLine
 10
3661.764698946174
 20
-2063.333564430001
 30
0.0
 11
3662.764698946174
 21
-2068.333564430001
 31
0.0
  0
LINE
  5
2C70F
330
18
100
AcDbEntity
  8
1PHANTOM
100
AcDbLine
 10
3659.764698946174
 20
-2063.333564430001
 30
0.0
 11
3660.764698946174
 21
-2068.333564430001
 31
0.0
  0
LINE
  5
2C710
330
18
100
AcDbEntity
  8
1PHANTOM
100
AcDbLine
 10
3657.764698946174
 20
-2063.333564430001
 30
0.0
 11
3658.764698946174
 21
-2068.333564430001
 31
0.0
  0
LINE
  5
2C711
330
18
100
AcDbEntity
  8
1PHANTOM
100
AcDbLine
 10
3662.914698946174
 20
-2067.583564430001
 30
0.0
 11
3662.764698946174
 21
-2068.333564430001
 31
0.0
  0
LINE
  5
2C712
330
18
100
AcDbEntity
  8
1PHANTOM
100
AcDbLine
 10
3660.914698946174
 20
-2067.583564430001
 30
0.0
 11
3660.764698946174
 21
-2068.333564430001
 31
0.0
  0
LINE
  5
2C713
330
18
100
AcDbEntity
  8
1PHANTOM
100
AcDbLine
 10
3656.914698946174
 20
-2067.583564430001
 30
0.0
 11
3656.764698946174
 21
-2068.333564430001
 31
0.0
  0
LINE
  5
2C714
330
18
100
AcDbEntity
  8
1PHANTOM
100
AcDbLine
 10
3658.914698946174
 20
-2067.583564430001
 30
0.0
 11
3658.764698946174
 21
-2068.333564430001
 31
0.0
  0
LINE
  5
2C715
330
18
100
AcDbEntity
  8
1PHANTOM
100
AcDbLine
 10
3651.764698946174
 20
-2063.333564430001
 30
0.0
 11
3651.614698946174
 21
-2064.083564430001
 31
0.0
  0
LINE
  5
2C716
330
18
100
AcDbEntity
  8
1PHANTOM
100
AcDbLine
 10
3653.764698946174
 20
-2063.333564430001
 30
0.0
 11
3653.614698946174
 21
-2064.083564430001
 31
0.0
  0
LINE
  5
2C717
330
18
100
AcDbEntity
  8
1PHANTOM
100
AcDbLine
 10
3647.764698946174
 20
-2063.333564430001
 30
0.0
 11
3647.614698946174
 21
-2064.083564430001
 31
0.0
  0
LINE
  5
2C718
330
18
100
AcDbEntity
  8
1PHANTOM
100
AcDbLine
 10
3649.764698946174
 20
-2063.333564430001
 30
0.0
 11
3649.614698946174
 21
-2064.083564430001
 31
0.0
  0
LINE
  5
2C719
330
18
100
AcDbEntity
  8
1PHANTOM
100
AcDbLine
 10
3653.764698946174
 20
-2063.333564430001
 30
0.0
 11
3654.764698946174
 21
-2068.333564430001
 31
0.0
  0
LINE
  5
2C71A
330
18
100
AcDbEntity
  8
1PHANTOM
100
AcDbLine
 10
3651.764698946174
 20
-2063.333564430001
 30
0.0
 11
3652.764698946174
 21
-2068.333564430001
 31
0.0
  0
LINE
  5
2C71B
330
18
100
AcDbEntity
  8
1PHANTOM
100
AcDbLine
 10
3649.764698946174
 20
-2063.333564430001
 30
0.0
 11
3650.764698946174
 21
-2068.333564430001
 31
0.0
  0
LINE
  5
2C71C
330
18
100
AcDbEntity
  8
1PHANTOM
100
AcDbLine
 10
3647.764698946174
 20
-2063.333564430001
 30
0.0
 11
3648.764698946174
 21
-2068.333564430001
 31
0.0
  0
LINE
  5
2C71D
330
18
100
AcDbEntity
  8
1PHANTOM
100
AcDbLine
 10
3650.914698946174
 20
-2067.583564430001
 30
0.0
 11
3650.764698946174
 21
-2068.333564430001
 31
0.0
  0
LINE
  5
2C71E
330
18
100
AcDbEntity
  8
1PHANTOM
100
AcDbLine
 10
3652.914698946174
 20
-2067.583564430001
 30
0.0
 11
3652.764698946174
 21
-2068.333564430001
 31
0.0
  0
LINE
  5
2C71F
330
18
100
AcDbEntity
  8
1PHANTOM
100
AcDbLine
 10
3646.914698946174
 20
-2067.583564430001
 30
0.0
 11
3646.764698946174
 21
-2068.333564430001
 31
0.0
  0
LINE
  5
2C720
330
18
100
AcDbEntity
  8
1PHANTOM
100
AcDbLine
 10
3648.914698946174
 20
-2067.583564430001
 30
0.0
 11
3648.764698946174
 21
-2068.333564430001
 31
0.0
  0
LINE
  5
2C721
330
18
100
AcDbEntity
  8
1PHANTOM
100
AcDbLine
 10
3629.764698946174
 20
-2063.333564430001
 30
0.0
 11
3630.764698946174
 21
-2068.333564430001
 31
0.0
  0
LINE
  5
2C722
330
18
100
AcDbEntity
  8
1PHANTOM
100
AcDbLine
 10
3637.764698946174
 20
-2063.333564430001
 30
0.0
 11
3638.764698946174
 21
-2068.333564430001
 31
0.0
  0
LINE
  5
2C723
330
18
100
AcDbEntity
  8
1PHANTOM
100
AcDbLine
 10
3645.764698946174
 20
-2063.333564430001
 30
0.0
 11
3645.614698946174
 21
-2064.083564430001
 31
0.0
  0
LINE
  5
2C724
330
18
100
AcDbEntity
  8
1PHANTOM
100
AcDbLine
 10
3643.764698946174
 20
-2063.333564430001
 30
0.0
 11
3643.614698946174
 21
-2064.083564430001
 31
0.0
  0
LINE
  5
2C725
330
18
100
AcDbEntity
  8
1PHANTOM
100
AcDbLine
 10
3641.764698946174
 20
-2063.333564430001
 30
0.0
 11
3641.614698946174
 21
-2064.083564430001
 31
0.0
  0
LINE
  5
2C726
330
18
100
AcDbEntity
  8
1PHANTOM
100
AcDbLine
 10
3639.764698946174
 20
-2063.333564430001
 30
0.0
 11
3639.614698946174
 21
-2064.083564430001
 31
0.0
  0
LINE
  5
2C727
330
18
100
AcDbEntity
  8
1PHANTOM
100
AcDbLine
 10
3643.764698946174
 20
-2063.333564430001
 30
0.0
 11
3644.764698946174
 21
-2068.333564430001
 31
0.0
  0
LINE
  5
2C728
330
18
100
AcDbEntity
  8
1PHANTOM
100
AcDbLine
 10
3641.764698946174
 20
-2063.333564430001
 30
0.0
 11
3642.764698946174
 21
-2068.333564430001
 31
0.0
  0
LINE
  5
2C729
330
18
100
AcDbEntity
  8
1PHANTOM
100
AcDbLine
 10
3639.764698946174
 20
-2063.333564430001
 30
0.0
 11
3640.764698946174
 21
-2068.333564430001
 31
0.0
  0
LINE
  5
2C72A
330
18
100
AcDbEntity
  8
1PHANTOM
100
AcDbLine
 10
3644.914698946174
 20
-2067.583564430001
 30
0.0
 11
3644.764698946174
 21
-2068.333564430001
 31
0.0
  0
LINE
  5
2C72B
330
18
100
AcDbEntity
  8
1PHANTOM
100
AcDbLine
 10
3642.914698946174
 20
-2067.583564430001
 30
0.0
 11
3642.764698946174
 21
-2068.333564430001
 31
0.0
  0
LINE
  5
2C72C
330
18
100
AcDbEntity
  8
1PHANTOM
100
AcDbLine
 10
3640.914698946174
 20
-2067.583564430001
 30
0.0
 11
3640.764698946174
 21
-2068.333564430001
 31
0.0
  0
LINE
  5
2C72D
330
18
100
AcDbEntity
  8
1PHANTOM
100
AcDbLine
 10
3638.914698946174
 20
-2067.583564430001
 30
0.0
 11
3638.764698946174
 21
-2068.333564430001
 31
0.0
  0
LINE
  5
2C72E
330
18
100
AcDbEntity
  8
1PHANTOM
100
AcDbLine
 10
3633.764698946174
 20
-2063.333564430001
 30
0.0
 11
3633.614698946174
 21
-2064.083564430001
 31
0.0
  0
LINE
  5
2C72F
330
18
100
AcDbEntity
  8
1PHANTOM
100
AcDbLine
 10
3635.764698946174
 20
-2063.333564430001
 30
0.0
 11
3635.614698946174
 21
-2064.083564430001
 31
0.0
  0
LINE
  5
2C730
330
18
100
AcDbEntity
  8
1PHANTOM
100
AcDbLine
 10
3637.764698946174
 20
-2063.333564430001
 30
0.0
 11
3637.614698946174
 21
-2064.083564430001
 31
0.0
  0
LINE
  5
2C731
330
18
100
AcDbEntity
  8
1PHANTOM
100
AcDbLine
 10
3631.764698946174
 20
-2063.333564430001
 30
0.0
 11
3631.614698946174
 21
-2064.083564430001
 31
0.0
  0
LINE
  5
2C732
330
18
100
AcDbEntity
  8
1PHANTOM
100
AcDbLine
 10
3635.764698946174
 20
-2063.333564430001
 30
0.0
 11
3636.764698946174
 21
-2068.333564430001
 31
0.0
  0
LINE
  5
2C733
330
18
100
AcDbEntity
  8
1PHANTOM
100
AcDbLine
 10
3633.764698946174
 20
-2063.333564430001
 30
0.0
 11
3634.764698946174
 21
-2068.333564430001
 31
0.0
  0
LINE
  5
2C734
330
18
100
AcDbEntity
  8
1PHANTOM
100
AcDbLine
 10
3631.764698946174
 20
-2063.333564430001
 30
0.0
 11
3632.764698946174
 21
-2068.333564430001
 31
0.0
  0
LINE
  5
2C735
330
18
100
AcDbEntity
  8
1PHANTOM
100
AcDbLine
 10
3634.914698946174
 20
-2067.583564430001
 30
0.0
 11
3634.764698946174
 21
-2068.333564430001
 31
0.0
  0
LINE
  5
2C736
330
18
100
AcDbEntity
  8
1PHANTOM
100
AcDbLine
 10
3636.914698946174
 20
-2067.583564430001
 30
0.0
 11
3636.764698946174
 21
-2068.333564430001
 31
0.0
  0
LINE
  5
2C737
330
18
100
AcDbEntity
  8
1PHANTOM
100
AcDbLine
 10
3632.914698946174
 20
-2067.583564430001
 30
0.0
 11
3632.764698946174
 21
-2068.333564430001
 31
0.0
  0
LINE
  5
2C738
330
18
100
AcDbEntity
  8
1PHANTOM
100
AcDbLine
 10
3630.914698946174
 20
-2067.583564430001
 30
0.0
 11
3630.764698946174
 21
-2068.333564430001
 31
0.0
  0
LINE
  5
2C739
330
18
100
AcDbEntity
  8
1PHANTOM
100
AcDbLine
 10
3629.764698946174
 20
-2063.333564430001
 30
0.0
 11
3629.614698946174
 21
-2064.083564430001
 31
0.0
  0
LINE
  5
2C73A
330
18
100
AcDbEntity
  8
1PHANTOM
100
AcDbLine
 10
3629.646833360128
 20
-2070.583564430001
 30
0.0
 11
3629.646833360128
 21
-2061.083564430001
 31
0.0
  0
ARC
  5
2C73B
330
18
100
AcDbEntity
  8
1PHANTOM
100
AcDbCircle
 10
3635.417666693462
 20
-2065.833564430001
 30
0.0
 40
8.270833333333439
100
AcDbArc
 50
144.9488632525198
 51
215.0511367474801
  0
LINE
  5
2C73C
330
18
100
AcDbEntity
  8
1PHANTOM
100
AcDbLine
 10
3629.646833360128
 20
-2070.583564430001
 30
0.0
 11
3628.646833360128
 21
-2070.583564430001
 31
0.0
  0
LINE
  5
2C73D
330
18
100
AcDbEntity
  8
1PHANTOM
100
AcDbLine
 10
3629.646833360128
 20
-2061.083564430001
 30
0.0
 11
3628.646833360128
 21
-2061.083564430001
 31
0.0
  0
LINE
  5
2C73E
330
18
100
AcDbEntity
  8
1PHANTOM
100
AcDbLine
 10
3628.646833360128
 20
-2070.366627609667
 30
0.0
 11
3628.646833360128
 21
-2061.328196645195
 31
0.0
  0
LINE
  5
2C73F
330
18
100
AcDbEntity
  8
01
100
AcDbLine
 10
3305.646833360129
 20
-1876.33356443
 30
0.0
 11
3305.646833360129
 21
-1873.33356443
 31
0.0
  0
LINE
  5
2C740
330
18
100
AcDbEntity
  8
01
100
AcDbLine
 10
3306.646833360129
 20
-1872.33356443
 30
0.0
 11
3305.646833360129
 21
-1873.33356443
 31
0.0
  0
LINE
  5
2C741
330
18
100
AcDbEntity
  8
01
100
AcDbLine
 10
3450.646833360129
 20
-1876.33356443
 30
0.0
 11
3450.646833360129
 21
-1873.33356443
 31
0.0
  0
LINE
  5
2C742
330
18
100
AcDbEntity
  8
01
100
AcDbLine
 10
3449.646833360129
 20
-1872.33356443
 30
0.0
 11
3450.646833360129
 21
-1873.33356443
 31
0.0
  0
LINE
  5
2C746
330
18
100
AcDbEntity
  8
1PHANTOM
100
AcDbLine
 10
3318.146833360129
 20
-1802.215698843954
 30
0.0
 11
3323.146833360129
 21
-1801.215698843954
 31
0.0
  0
LINE
  5
2C747
330
18
100
AcDbEntity
  8
1PHANTOM
100
AcDbLine
 10
3320.64683336013
 20
-1776.887211199452
 30
0.0
 11
3320.646833360129
 21
-1823.316517180146
 31
0.0
  0
LINE
  5
2C748
330
18
100
AcDbEntity
  8
1PHANTOM
100
AcDbLine
 10
3318.89683336013
 20
-1784.864653343245
 30
0.0
 11
3318.896833360129
 21
-1818.33356443
 31
0.0
  0
LINE
  5
2C749
330
18
100
AcDbEntity
  8
1PHANTOM
100
AcDbLine
 10
3320.64683336013
 20
-1778.33356443
 30
0.0
 11
3318.89683336013
 21
-1784.864653343245
 31
0.0
  0
LINE
  5
2C74A
330
18
100
AcDbEntity
  8
1PHANTOM
100
AcDbLine
 10
3320.64683336013
 20
-1778.33356443
 30
0.0
 11
3322.39683336013
 21
-1784.864653343245
 31
0.0
  0
LINE
  5
2C74B
330
18
100
AcDbEntity
  8
1PHANTOM
100
AcDbLine
 10
3322.39683336013
 20
-1784.864653343245
 30
0.0
 11
3322.396833360129
 21
-1818.33356443
 31
0.0
  0
LINE
  5
2C74C
330
18
100
AcDbEntity
  8
1PHANTOM
100
AcDbLine
 10
3318.330566419094
 20
-1784.178952232161
 30
0.0
 11
3319.080566419094
 21
-1784.328952232161
 31
0.0
  0
LINE
  5
2C74D
330
18
100
AcDbEntity
  8
1PHANTOM
100
AcDbLine
 10
3318.330566419094
 20
-1784.178952232161
 30
0.0
 11
3322.727470900184
 21
-1783.299571335943
 31
0.0
  0
LINE
  5
2C74E
330
18
100
AcDbEntity
  8
1PHANTOM
100
AcDbLine
 10
3320.960190047073
 20
-1779.353027506565
 30
0.0
 11
3321.710190047073
 21
-1779.503027506565
 31
0.0
  0
LINE
  5
2C74F
330
18
100
AcDbEntity
  8
1PHANTOM
100
AcDbLine
 10
3319.463052959612
 20
-1779.952454924058
 30
0.0
 11
3320.213052959612
 21
-1780.102454924058
 31
0.0
  0
LINE
  5
2C750
330
18
100
AcDbEntity
  8
1PHANTOM
100
AcDbLine
 10
3319.463052959612
 20
-1779.952454924058
 30
0.0
 11
3321.710190047073
 21
-1779.503027506565
 31
0.0
  0
LINE
  5
2C751
330
18
100
AcDbEntity
  8
1PHANTOM
100
AcDbLine
 10
3321.977470900184
 20
-1783.149571335943
 30
0.0
 11
3322.727470900184
 21
-1783.299571335943
 31
0.0
  0
LINE
  5
2C752
330
18
100
AcDbEntity
  8
1PHANTOM
100
AcDbLine
 10
3321.468830473629
 20
-1781.251299421254
 30
0.0
 11
3322.218830473629
 21
-1781.401299421254
 31
0.0
  0
LINE
  5
2C753
330
18
100
AcDbEntity
  8
1PHANTOM
100
AcDbLine
 10
3318.896809689353
 20
-1782.065703578109
 30
0.0
 11
3319.646809689353
 21
-1782.215703578109
 31
0.0
  0
LINE
  5
2C754
330
18
100
AcDbEntity
  8
1PHANTOM
100
AcDbLine
 10
3318.896809689353
 20
-1782.065703578109
 30
0.0
 11
3322.218830473629
 21
-1781.401299421254
 31
0.0
  0
LINE
  5
2C755
330
18
100
AcDbEntity
  8
1PHANTOM
100
AcDbLine
 10
3322.39683336013
 20
-1793.065698843954
 30
0.0
 11
3323.14683336013
 21
-1793.215698843954
 31
0.0
  0
LINE
  5
2C756
330
18
100
AcDbEntity
  8
1PHANTOM
100
AcDbLine
 10
3318.14683336013
 20
-1790.215698843954
 30
0.0
 11
3318.89683336013
 21
-1790.365698843954
 31
0.0
  0
LINE
  5
2C757
330
18
100
AcDbEntity
  8
1PHANTOM
100
AcDbLine
 10
3318.14683336013
 20
-1792.215698843954
 30
0.0
 11
3318.89683336013
 21
-1792.365698843954
 31
0.0
  0
LINE
  5
2C758
330
18
100
AcDbEntity
  8
1PHANTOM
100
AcDbLine
 10
3318.14683336013
 20
-1792.215698843954
 30
0.0
 11
3323.14683336013
 21
-1791.215698843954
 31
0.0
  0
LINE
  5
2C759
330
18
100
AcDbEntity
  8
1PHANTOM
100
AcDbLine
 10
3318.14683336013
 20
-1788.215698843954
 30
0.0
 11
3318.89683336013
 21
-1788.365698843954
 31
0.0
  0
LINE
  5
2C75A
330
18
100
AcDbEntity
  8
1PHANTOM
100
AcDbLine
 10
3318.14683336013
 20
-1786.215698843954
 30
0.0
 11
3318.89683336013
 21
-1786.365698843954
 31
0.0
  0
LINE
  5
2C75B
330
18
100
AcDbEntity
  8
1PHANTOM
100
AcDbLine
 10
3318.14683336013
 20
-1786.215698843954
 30
0.0
 11
3323.14683336013
 21
-1785.215698843954
 31
0.0
  0
LINE
  5
2C75C
330
18
100
AcDbEntity
  8
1PHANTOM
100
AcDbLine
 10
3318.14683336013
 20
-1788.215698843954
 30
0.0
 11
3323.14683336013
 21
-1787.215698843954
 31
0.0
  0
LINE
  5
2C75D
330
18
100
AcDbEntity
  8
1PHANTOM
100
AcDbLine
 10
3318.14683336013
 20
-1790.215698843954
 30
0.0
 11
3323.14683336013
 21
-1789.215698843954
 31
0.0
  0
LINE
  5
2C75E
330
18
100
AcDbEntity
  8
1PHANTOM
100
AcDbLine
 10
3322.39683336013
 20
-1785.065698843954
 30
0.0
 11
3323.14683336013
 21
-1785.215698843954
 31
0.0
  0
LINE
  5
2C75F
330
18
100
AcDbEntity
  8
1PHANTOM
100
AcDbLine
 10
3322.39683336013
 20
-1787.065698843954
 30
0.0
 11
3323.14683336013
 21
-1787.215698843954
 31
0.0
  0
LINE
  5
2C760
330
18
100
AcDbEntity
  8
1PHANTOM
100
AcDbLine
 10
3322.39683336013
 20
-1791.065698843954
 30
0.0
 11
3323.14683336013
 21
-1791.215698843954
 31
0.0
  0
LINE
  5
2C761
330
18
100
AcDbEntity
  8
1PHANTOM
100
AcDbLine
 10
3322.39683336013
 20
-1789.065698843954
 30
0.0
 11
3323.14683336013
 21
-1789.215698843954
 31
0.0
  0
LINE
  5
2C762
330
18
100
AcDbEntity
  8
1PHANTOM
100
AcDbLine
 10
3318.14683336013
 20
-1796.215698843954
 30
0.0
 11
3318.89683336013
 21
-1796.365698843954
 31
0.0
  0
LINE
  5
2C763
330
18
100
AcDbEntity
  8
1PHANTOM
100
AcDbLine
 10
3318.14683336013
 20
-1794.215698843954
 30
0.0
 11
3318.89683336013
 21
-1794.365698843954
 31
0.0
  0
LINE
  5
2C764
330
18
100
AcDbEntity
  8
1PHANTOM
100
AcDbLine
 10
3318.146833360129
 20
-1800.215698843954
 30
0.0
 11
3318.896833360129
 21
-1800.365698843954
 31
0.0
  0
LINE
  5
2C765
330
18
100
AcDbEntity
  8
1PHANTOM
100
AcDbLine
 10
3318.146833360129
 20
-1798.215698843954
 30
0.0
 11
3318.896833360129
 21
-1798.365698843954
 31
0.0
  0
LINE
  5
2C766
330
18
100
AcDbEntity
  8
1PHANTOM
100
AcDbLine
 10
3318.14683336013
 20
-1794.215698843954
 30
0.0
 11
3323.14683336013
 21
-1793.215698843954
 31
0.0
  0
LINE
  5
2C767
330
18
100
AcDbEntity
  8
1PHANTOM
100
AcDbLine
 10
3318.14683336013
 20
-1796.215698843954
 30
0.0
 11
3323.14683336013
 21
-1795.215698843954
 31
0.0
  0
LINE
  5
2C768
330
18
100
AcDbEntity
  8
1PHANTOM
100
AcDbLine
 10
3318.146833360129
 20
-1798.215698843954
 30
0.0
 11
3323.14683336013
 21
-1797.215698843954
 31
0.0
  0
LINE
  5
2C769
330
18
100
AcDbEntity
  8
1PHANTOM
100
AcDbLine
 10
3318.146833360129
 20
-1800.215698843954
 30
0.0
 11
3323.146833360129
 21
-1799.215698843954
 31
0.0
  0
LINE
  5
2C76A
330
18
100
AcDbEntity
  8
1PHANTOM
100
AcDbLine
 10
3322.39683336013
 20
-1797.065698843954
 30
0.0
 11
3323.14683336013
 21
-1797.215698843954
 31
0.0
  0
LINE
  5
2C76B
330
18
100
AcDbEntity
  8
1PHANTOM
100
AcDbLine
 10
3322.39683336013
 20
-1795.065698843954
 30
0.0
 11
3323.14683336013
 21
-1795.215698843954
 31
0.0
  0
LINE
  5
2C76C
330
18
100
AcDbEntity
  8
1PHANTOM
100
AcDbLine
 10
3322.396833360129
 20
-1801.065698843954
 30
0.0
 11
3323.146833360129
 21
-1801.215698843954
 31
0.0
  0
LINE
  5
2C76D
330
18
100
AcDbEntity
  8
1PHANTOM
100
AcDbLine
 10
3322.396833360129
 20
-1799.065698843954
 30
0.0
 11
3323.146833360129
 21
-1799.215698843954
 31
0.0
  0
LINE
  5
2C76E
330
18
100
AcDbEntity
  8
1PHANTOM
100
AcDbLine
 10
3318.146833360129
 20
-1818.215698843954
 30
0.0
 11
3323.146833360129
 21
-1817.215698843954
 31
0.0
  0
LINE
  5
2C76F
330
18
100
AcDbEntity
  8
1PHANTOM
100
AcDbLine
 10
3318.146833360129
 20
-1810.215698843954
 30
0.0
 11
3323.146833360129
 21
-1809.215698843954
 31
0.0
  0
LINE
  5
2C770
330
18
100
AcDbEntity
  8
1PHANTOM
100
AcDbLine
 10
3318.146833360129
 20
-1802.215698843954
 30
0.0
 11
3318.896833360129
 21
-1802.365698843954
 31
0.0
  0
LINE
  5
2C771
330
18
100
AcDbEntity
  8
1PHANTOM
100
AcDbLine
 10
3318.146833360129
 20
-1804.215698843954
 30
0.0
 11
3318.896833360129
 21
-1804.365698843954
 31
0.0
  0
LINE
  5
2C772
330
18
100
AcDbEntity
  8
1PHANTOM
100
AcDbLine
 10
3318.146833360129
 20
-1806.215698843954
 30
0.0
 11
3318.896833360129
 21
-1806.365698843954
 31
0.0
  0
LINE
  5
2C773
330
18
100
AcDbEntity
  8
1PHANTOM
100
AcDbLine
 10
3318.146833360129
 20
-1808.215698843954
 30
0.0
 11
3318.896833360129
 21
-1808.365698843954
 31
0.0
  0
LINE
  5
2C774
330
18
100
AcDbEntity
  8
1PHANTOM
100
AcDbLine
 10
3318.146833360129
 20
-1804.215698843954
 30
0.0
 11
3323.146833360129
 21
-1803.215698843954
 31
0.0
  0
LINE
  5
2C775
330
18
100
AcDbEntity
  8
1PHANTOM
100
AcDbLine
 10
3318.146833360129
 20
-1806.215698843954
 30
0.0
 11
3323.146833360129
 21
-1805.215698843954
 31
0.0
  0
LINE
  5
2C776
330
18
100
AcDbEntity
  8
1PHANTOM
100
AcDbLine
 10
3318.146833360129
 20
-1808.215698843954
 30
0.0
 11
3323.146833360129
 21
-1807.215698843954
 31
0.0
  0
LINE
  5
2C777
330
18
100
AcDbEntity
  8
1PHANTOM
100
AcDbLine
 10
3322.396833360129
 20
-1803.065698843954
 30
0.0
 11
3323.146833360129
 21
-1803.215698843954
 31
0.0
  0
LINE
  5
2C778
330
18
100
AcDbEntity
  8
1PHANTOM
100
AcDbLine
 10
3322.396833360129
 20
-1805.065698843954
 30
0.0
 11
3323.146833360129
 21
-1805.215698843954
 31
0.0
  0
LINE
  5
2C779
330
18
100
AcDbEntity
  8
1PHANTOM
100
AcDbLine
 10
3322.396833360129
 20
-1807.065698843954
 30
0.0
 11
3323.146833360129
 21
-1807.215698843954
 31
0.0
  0
LINE
  5
2C77A
330
18
100
AcDbEntity
  8
1PHANTOM
100
AcDbLine
 10
3322.396833360129
 20
-1809.065698843954
 30
0.0
 11
3323.146833360129
 21
-1809.215698843954
 31
0.0
  0
LINE
  5
2C77B
330
18
100
AcDbEntity
  8
1PHANTOM
100
AcDbLine
 10
3318.146833360129
 20
-1814.215698843954
 30
0.0
 11
3318.896833360129
 21
-1814.365698843954
 31
0.0
  0
LINE
  5
2C77C
330
18
100
AcDbEntity
  8
1PHANTOM
100
AcDbLine
 10
3318.146833360129
 20
-1812.215698843954
 30
0.0
 11
3318.896833360129
 21
-1812.365698843954
 31
0.0
  0
LINE
  5
2C77D
330
18
100
AcDbEntity
  8
1PHANTOM
100
AcDbLine
 10
3318.146833360129
 20
-1810.215698843954
 30
0.0
 11
3318.896833360129
 21
-1810.365698843954
 31
0.0
  0
LINE
  5
2C77E
330
18
100
AcDbEntity
  8
1PHANTOM
100
AcDbLine
 10
3318.146833360129
 20
-1816.215698843954
 30
0.0
 11
3318.896833360129
 21
-1816.365698843954
 31
0.0
  0
LINE
  5
2C77F
330
18
100
AcDbEntity
  8
1PHANTOM
100
AcDbLine
 10
3318.146833360129
 20
-1812.215698843954
 30
0.0
 11
3323.146833360129
 21
-1811.215698843954
 31
0.0
  0
LINE
  5
2C780
330
18
100
AcDbEntity
  8
1PHANTOM
100
AcDbLine
 10
3318.146833360129
 20
-1814.215698843954
 30
0.0
 11
3323.146833360129
 21
-1813.215698843954
 31
0.0
  0
LINE
  5
2C781
330
18
100
AcDbEntity
  8
1PHANTOM
100
AcDbLine
 10
3318.146833360129
 20
-1816.215698843954
 30
0.0
 11
3323.146833360129
 21
-1815.215698843954
 31
0.0
  0
LINE
  5
2C782
330
18
100
AcDbEntity
  8
1PHANTOM
100
AcDbLine
 10
3322.396833360129
 20
-1813.065698843954
 30
0.0
 11
3323.146833360129
 21
-1813.215698843954
 31
0.0
  0
LINE
  5
2C783
330
18
100
AcDbEntity
  8
1PHANTOM
100
AcDbLine
 10
3322.396833360129
 20
-1811.065698843954
 30
0.0
 11
3323.146833360129
 21
-1811.215698843954
 31
0.0
  0
LINE
  5
2C784
330
18
100
AcDbEntity
  8
1PHANTOM
100
AcDbLine
 10
3322.396833360129
 20
-1815.065698843954
 30
0.0
 11
3323.146833360129
 21
-1815.215698843954
 31
0.0
  0
LINE
  5
2C785
330
18
100
AcDbEntity
  8
1PHANTOM
100
AcDbLine
 10
3322.396833360129
 20
-1817.065698843954
 30
0.0
 11
3323.146833360129
 21
-1817.215698843954
 31
0.0
  0
LINE
  5
2C786
330
18
100
AcDbEntity
  8
1PHANTOM
100
AcDbLine
 10
3318.146833360129
 20
-1818.215698843954
 30
0.0
 11
3318.896833360129
 21
-1818.365698843954
 31
0.0
  0
LINE
  5
2C787
330
18
100
AcDbEntity
  8
1PHANTOM
100
AcDbLine
 10
3325.396833360129
 20
-1818.33356443
 30
0.0
 11
3315.896833360129
 21
-1818.33356443
 31
0.0
  0
ARC
  5
2C788
330
18
100
AcDbEntity
  8
1PHANTOM
100
AcDbCircle
 10
3320.646833360129
 20
-1812.562731096666
 30
0.0
 40
8.270833333333439
100
AcDbArc
 50
234.9488632525092
 51
305.0511367474908
  0
LINE
  5
2C789
330
18
100
AcDbEntity
  8
1PHANTOM
100
AcDbLine
 10
3325.396833360129
 20
-1818.33356443
 30
0.0
 11
3325.396833360129
 21
-1819.33356443
 31
0.0
  0
LINE
  5
2C78A
330
18
100
AcDbEntity
  8
1PHANTOM
100
AcDbLine
 10
3315.896833360129
 20
-1818.33356443
 30
0.0
 11
3315.896833360129
 21
-1819.33356443
 31
0.0
  0
LINE
  5
2C78B
330
18
100
AcDbEntity
  8
1PHANTOM
100
AcDbLine
 10
3325.179896539795
 20
-1819.33356443
 30
0.0
 11
3316.141465575323
 21
-1819.33356443
 31
0.0
  0
LINE
  5
2C78D
330
18
100
AcDbEntity
  8
1DIM
100
AcDbLine
 10
3378.146833360129
 20
-2159.33356443
 30
0.0
 11
3512.646833360128
 21
-2159.33356443
 31
0.0
  0
LINE
  5
2C78E
330
18
100
AcDbEntity
  8
1DIM
100
AcDbLine
 10
3530.646833360128
 20
-2163.33356443
 30
0.0
 11
3530.646833360128
 21
-2330.976884498079
 31
0.0
  0
LINE
  5
2C938
330
18
100
AcDbEntity
  8
1DIM
100
AcDbLine
 10
3669.763811875217
 20
-1851.027451073226
 30
0.0
 11
4019.76381187522
 21
-1851.027451073224
 31
0.0
  0
LINE
  5
2C939
330
18
100
AcDbEntity
  8
1DIM
100
AcDbLine
 10
3669.763811875217
 20
-1837.027451073226
 30
0.0
 11
4019.763811875221
 21
-1837.027451073224
 31
0.0
  0
TEXT
  5
2C93A
330
18
100
AcDbEntity
  8
1TEXT
100
AcDbText
 10
3900.830478541886
 20
-1848.027451073226
 30
0.0
 40
8.0
  1
コード
 72
     1
 11
3914.563811875219
 21
-1848.027451073226
 31
0.0
100
AcDbText
  0
TEXT
  5
2C93B
330
18
100
AcDbEntity
  8
1TEXT
100
AcDbText
 10
3672.29714520855
 20
-1848.027451073227
 30
0.0
 40
8.0
  1
仕上げ：パネル（ガラス部）
 41
0.55
 72
     1
 11
3704.563811875217
 21
-1848.027451073227
 31
0.0
100
AcDbText
  0
LINE
  5
2C93C
330
18
100
AcDbEntity
  8
1DIM
100
AcDbLine
 10
3669.763811875217
 20
-1865.027451073226
 30
0.0
 11
3949.763811875218
 21
-1865.027451073226
 31
0.0
  0
TEXT
  5
2C93D
330
18
100
AcDbEntity
  8
1TEXT
100
AcDbText
 10
3679.443811875218
 20
-1876.456165040525
 30
0.0
 40
8.0
  1
ヘアラインシルバー
 41
0.6
 72
     1
 11
3704.563811875218
 21
-1876.456165040525
 31
0.0
100
AcDbText
  0
LINE
  5
2C93E
330
18
100
AcDbEntity
  8
1DIM
100
AcDbLine
 10
3669.763811875217
 20
-1837.027451073227
 30
0.0
 11
3669.763811875217
 21
-1893.027451073227
 31
0.0
  0
LINE
  5
2C93F
330
18
100
AcDbEntity
  8
1DIM
100
AcDbLine
 10
3879.763811875219
 20
-1837.027451073225
 30
0.0
 11
3879.763811875219
 21
-1893.027451073227
 31
0.0
  0
TEXT
  5
2C940
330
18
100
AcDbEntity
  8
1TEXT
100
AcDbText
 10
3668.372334731923
 20
-1832.642871556499
 30
0.0
 40
16.0
  1
GP-100-X-36
100
AcDbText
  0
LINE
  5
2C941
330
18
100
AcDbEntity
  8
1DIM
100
AcDbLine
 10
3669.763811875217
 20
-1879.027451073227
 30
0.0
 11
3949.763811875218
 21
-1879.027451073227
 31
0.0
  0
TEXT
  5
2C942
330
18
100
AcDbEntity
  8
1TEXT
100
AcDbText
 10
3678.857145208551
 20
-1862.456165040525
 30
0.0
 40
8.0
  1
アクアホワイト
 41
0.8
 72
     1
 11
3704.563811875217
 21
-1862.456165040525
 31
0.0
100
AcDbText
  0
TEXT
  5
2C943
330
18
100
AcDbEntity
  8
1TEXT
100
AcDbText
 10
3884.21242298633
 20
-1862.456165040524
 30
0.0
 40
8.0
  1
GP-100-004-36
 41
0.65
 72
     1
 11
3914.563811875219
 21
-1862.456165040524
 31
0.0
100
AcDbText
  0
LINE
  5
2C944
330
18
100
AcDbEntity
  8
1DIM
100
AcDbLine
 10
3669.763811875217
 20
-1893.027451073228
 30
0.0
 11
4019.763811875219
 21
-1893.027451073228
 31
0.0
  0
TEXT
  5
2C945
330
18
100
AcDbEntity
  8
1TEXT
100
AcDbText
 10
3670.563811875219
 20
-1890.456165040527
 30
0.0
 40
8.0
  1
ヘアラインダークブラウン
 41
0.6
 72
     1
 11
3704.563811875219
 21
-1890.456165040527
 31
0.0
100
AcDbText
  0
LINE
  5
2C946
330
18
100
AcDbEntity
  8
1DIM
100
AcDbLine
 10
3809.763811875218
 20
-1837.027451073225
 30
0.0
 11
3809.763811875218
 21
-1893.027451073227
 31
0.0
  0
TEXT
  5
2C947
330
18
100
AcDbEntity
  8
1TEXT
100
AcDbText
 10
3829.84381187522
 20
-1876.456165040524
 30
0.0
 40
8.0
  1
シルバー
 41
0.8
 72
     1
 11
3844.56381187522
 21
-1876.456165040524
 31
0.0
100
AcDbText
  0
TEXT
  5
2C948
330
18
100
AcDbEntity
  8
1TEXT
100
AcDbText
 10
3821.737145208552
 20
-1862.456165040524
 30
0.0
 40
8.0
  1
ミストグレー
 41
0.8
 72
     1
 11
3844.563811875219
 21
-1862.456165040524
 31
0.0
100
AcDbText
  0
TEXT
  5
2C949
330
18
100
AcDbEntity
  8
1TEXT
100
AcDbText
 10
3818.323811875221
 20
-1890.456165040526
 30
0.0
 40
8.0
  1
ダークブラウン
 41
0.8
 72
     1
 11
3844.563811875221
 21
-1890.456165040526
 31
0.0
100
AcDbText
  0
TEXT
  5
2C94A
330
18
100
AcDbEntity
  8
1TEXT
100
AcDbText
 10
3824.870478541886
 20
-1848.027451073226
 30
0.0
 40
8.0
  1
仕上げ：本体
 41
0.7
 72
     1
 11
3844.563811875219
 21
-1848.027451073226
 31
0.0
100
AcDbText
  0
TEXT
  5
2C94B
330
18
100
AcDbEntity
  8
1TEXT
100
AcDbText
 10
3884.194367430774
 20
-1876.456165040525
 30
0.0
 40
8.0
  1
GP-100-006-36
 41
0.65
 72
     1
 11
3914.563811875219
 21
-1876.456165040525
 31
0.0
100
AcDbText
  0
TEXT
  5
2C94C
330
18
100
AcDbEntity
  8
1TEXT
100
AcDbText
 10
3884.21242298633
 20
-1890.456165040526
 30
0.0
 40
8.0
  1
GP-100-008-36
 41
0.65
 72
     1
 11
3914.563811875219
 21
-1890.456165040526
 31
0.0
100
AcDbText
  0
LINE
  5
2C94D
330
18
100
AcDbEntity
  8
1DIM
100
AcDbLine
 10
3739.763811875217
 20
-1837.027451073225
 30
0.0
 11
3739.763811875217
 21
-1893.027451073228
 31
0.0
  0
TEXT
  5
2C94E
330
18
100
AcDbEntity
  8
1TEXT
100
AcDbText
 10
3759.843811875219
 20
-1876.456165040525
 30
0.0
 40
8.0
  1
シルバー
 41
0.8
 72
     1
 11
3774.563811875219
 21
-1876.456165040525
 31
0.0
100
AcDbText
  0
TEXT
  5
2C94F
330
18
100
AcDbEntity
  8
1TEXT
100
AcDbText
 10
3751.737145208551
 20
-1862.456165040524
 30
0.0
 40
8.0
  1
ミストグレー
 41
0.8
 72
     1
 11
3774.563811875218
 21
-1862.456165040524
 31
0.0
100
AcDbText
  0
TEXT
  5
2C950
330
18
100
AcDbEntity
  8
1TEXT
100
AcDbText
 10
3748.32381187522
 20
-1890.456165040526
 30
0.0
 40
8.0
  1
ダークブラウン
 41
0.8
 72
     1
 11
3774.56381187522
 21
-1890.456165040526
 31
0.0
100
AcDbText
  0
TEXT
  5
2C951
330
18
100
AcDbEntity
  8
1TEXT
100
AcDbText
 10
3742.508739786232
 20
-1848.027451073226
 30
0.0
 40
8.0
  1
仕上げ：パネル（ステンレス部）
 41
0.5
 72
     1
 11
3776.642073119565
 21
-1848.027451073226
 31
0.0
100
AcDbText
  0
LINE
  5
2C9B7
330
18
100
AcDbEntity
  8
1CENTER
100
AcDbLine
 10
3430.746210408449
 20
-1939.83356443
 30
0.0
 11
3325.547456311808
 21
-1939.83356443
 31
0.0
  0
LINE
  5
2C9B8
330
18
100
AcDbEntity
  8
1HIDDEN
100
AcDbLine
 10
3423.896833360128
 20
-1952.58356443
 30
0.0
 11
3332.396833360128
 21
-1952.58356443
 31
0.0
  0
LINE
  5
2C9B9
330
18
100
AcDbEntity
  8
1HIDDEN
100
AcDbLine
 10
3423.896833360128
 20
-1927.08356443
 30
0.0
 11
3332.396833360128
 21
-1927.08356443
 31
0.0
  0
LINE
  5
2C9BB
330
18
100
AcDbEntity
  8
1HIDDEN
100
AcDbLine
 10
3423.896833360128
 20
-1952.58356443
 30
0.0
 11
3423.896833360128
 21
-1927.08356443
 31
0.0
  0
LINE
  5
2C9BC
330
18
100
AcDbEntity
  8
1HIDDEN
100
AcDbLine
 10
3332.396833360128
 20
-1952.58356443
 30
0.0
 11
3332.396833360128
 21
-1927.08356443
 31
0.0
  0
CIRCLE
  5
2CA50
330
18
100
AcDbEntity
  8
1PHANTOM
100
AcDbCircle
 10
3378.146833360129
 20
-2234.33356443
 30
0.0
 40
5.0
  0
LINE
  5
2CA51
330
18
100
AcDbEntity
  8
1CENTER
100
AcDbLine
 10
3370.146833360129
 20
-2234.33356443
 30
0.0
 11
3386.146833360129
 21
-2234.33356443
 31
0.0
  0
LINE
  5
2CA52
330
18
100
AcDbEntity
  8
1CENTER
100
AcDbLine
 10
3378.146833360129
 20
-2242.33356443
 30
0.0
 11
3378.146833360129
 21
-2226.33356443
 31
0.0
  0
LINE
  5
2CAD7
330
18
100
AcDbEntity
  8
1DIM
100
AcDbLine
 10
3305.646833360129
 20
-1915.83356443
 30
0.0
 11
3305.646833360129
 21
-1888.83356443
 31
0.0
1001
ACAD
1000
DSTYLE
1002
{
1070
    40
1040
2.0
1002
}
  0
LINE
  5
2CAD8
330
18
100
AcDbEntity
  8
1DIM
100
AcDbLine
 10
3450.646833360129
 20
-1915.83356443
 30
0.0
 11
3450.646833360129
 21
-1888.83356443
 31
0.0
1001
ACAD
1000
DSTYLE
1002
{
1070
    40
1040
2.0
1002
}
  0
LINE
  5
2CAD9
330
18
100
AcDbEntity
  8
1DIM
100
AcDbLine
 10
3309.646833360129
 20
-1890.83356443
 30
0.0
 11
3446.646833360129
 21
-1890.83356443
 31
0.0
1001
ACAD
1000
DSTYLE
1002
{
1070
    40
1040
2.0
1002
}
  0
SOLID
  5
2CADD
330
18
100
AcDbEntity
  8
1DIM
100
AcDbTrace
 10
3628.472184852523
 20
-2152.061445084565
 30
0.0
 11
3625.359929227296
 21
-2154.661119942636
 31
0.0
 12
3627.46081702692
 22
-2151.192587847089
 32
0.0
 13
3627.46081702692
 23
-2151.192587847089
 33
0.0
1001
ACAD
1000
DSTYLE
1002
{
1070
    40
1040
2.0
1002
}
  0
LINE
  5
2CADE
330
18
100
AcDbEntity
  8
1DIM
100
AcDbLine
 10
3627.966500939721
 20
-2151.627016465827
 30
0.0
 11
3649.747092283484
 21
-2126.273956886447
 31
0.0
1001
ACAD
1000
DSTYLE
1002
{
1070
    40
1040
2.0
1002
}
  0
LINE
  5
2CADF
330
18
100
AcDbEntity
  8
1DIM
100
AcDbLine
 10
3649.747092283484
 20
-2126.273956886447
 30
0.0
 11
3729.113758950151
 21
-2126.273956886447
 31
0.0
1001
ACAD
1000
DSTYLE
1002
{
1070
    40
1040
2.0
1002
}
  0
TEXT
  5
2CAE0
330
18
100
AcDbEntity
  8
1DIM
  6
CONTINUOUS
100
AcDbText
 10
3654.680425616818
 20
-2113.207290219781
 30
0.0
 40
7.0
  1
材質：ステンレス
100
AcDbText
  0
TEXT
  5
2CAE1
330
18
100
AcDbEntity
  8
1DIM
  6
CONTINUOUS
100
AcDbText
 10
3654.913758950151
 20
-2124.873956886447
 30
0.0
 40
7.0
  1
仕上げ：各種仕上げ
100
AcDbText
  0
SOLID
  5
2CAE2
330
18
100
AcDbEntity
  8
1DIM
100
AcDbTrace
 10
3422.378509394502
 20
-1963.083909214718
 30
0.0
 11
3418.975983087431
 21
-1965.290095783015
 31
0.0
 12
3421.479069085482
 22
-1962.099640497197
 32
0.0
 13
3421.479069085482
 23
-1962.099640497197
 33
0.0
1001
ACAD
1000
DSTYLE
1002
{
1070
    40
1040
2.0
1002
}
  0
LINE
  5
2CAE3
330
18
100
AcDbEntity
  8
1DIM
100
AcDbLine
 10
3421.928789239992
 20
-1962.591774855958
 30
0.0
 11
3450.040408703209
 21
-1936.902932726827
 31
0.0
1001
ACAD
1000
DSTYLE
1002
{
1070
    40
1040
2.0
1002
}
  0
LINE
  5
2CAE4
330
18
100
AcDbEntity
  8
1DIM
100
AcDbLine
 10
3450.040408703209
 20
-1936.902932726827
 30
0.0
 11
3529.407075369876
 21
-1936.902932726827
 31
0.0
1001
ACAD
1000
DSTYLE
1002
{
1070
    40
1040
2.0
1002
}
  0
TEXT
  5
2CAE5
330
18
100
AcDbEntity
  8
1DIM
  6
CONTINUOUS
100
AcDbText
 10
3454.973742036543
 20
-1923.83626606016
 30
0.0
 40
7.0
  1
材質：ガラス
100
AcDbText
  0
TEXT
  5
2CAE6
330
18
100
AcDbEntity
  8
1DIM
  6
CONTINUOUS
100
AcDbText
 10
3455.207075369876
 20
-1935.502932726826
 30
0.0
 40
7.0
  1
仕上げ：各種仕上げ
100
AcDbText
  0
SOLID
  5
2CAE7
330
18
100
AcDbEntity
  8
1DIM
100
AcDbTrace
 10
3413.238218540146
 20
-2142.286201857512
 30
0.0
 11
3410.43838437562
 21
-2145.219693479385
 31
0.0
 12
3412.135473464699
 22
-2141.536714648578
 32
0.0
 13
3412.135473464699
 23
-2141.536714648578
 33
0.0
1001
ACAD
1000
DSTYLE
1002
{
1070
    40
1040
2.0
1002
}
  0
LINE
  5
2CAE8
330
18
100
AcDbEntity
  8
1DIM
100
AcDbLine
 10
3412.686846002422
 20
-2141.911458253045
 30
0.0
 11
3447.823497861486
 21
-2090.213751683293
 31
0.0
1001
ACAD
1000
DSTYLE
1002
{
1070
    40
1040
2.0
1002
}
  0
LINE
  5
2CAE9
330
18
100
AcDbEntity
  8
1DIM
100
AcDbLine
 10
3447.823497861486
 20
-2090.213751683293
 30
0.0
 11
3527.190164528152
 21
-2090.213751683293
 31
0.0
1001
ACAD
1000
DSTYLE
1002
{
1070
    40
1040
2.0
1002
}
  0
TEXT
  5
2CAEA
330
18
100
AcDbEntity
  8
1DIM
  6
CONTINUOUS
100
AcDbText
 10
3452.756831194819
 20
-2077.147085016626
 30
0.0
 40
7.0
  1
材質：ステンレス
100
AcDbText
  0
TEXT
  5
2CAEB
330
18
100
AcDbEntity
  8
1DIM
  6
CONTINUOUS
100
AcDbText
 10
3452.990164528152
 20
-2088.813751683293
 30
0.0
 40
7.0
  1
仕上げ：各種仕上げ
100
AcDbText
  0
LINE
  5
2CAEC
330
18
100
AcDbEntity
  8
1DIM
100
AcDbLine
 10
3630.646833360129
 20
-1900.637922649184
 30
0.0
 11
3630.646833360129
 21
-1888.83356443
 31
0.0
1001
ACAD
1000
DSTYLE
1002
{
1070
    40
1040
2.0
1002
}
  0
LINE
  5
2CAED
330
18
100
AcDbEntity
  8
1DIM
100
AcDbLine
 10
3570.646833360129
 20
-1911.83356443
 30
0.0
 11
3570.646833360129
 21
-1888.83356443
 31
0.0
1001
ACAD
1000
DSTYLE
1002
{
1070
    40
1040
2.0
1002
}
  0
LINE
  5
2CAEE
330
18
100
AcDbEntity
  8
1DIM
100
AcDbLine
 10
3626.646833360129
 20
-1890.83356443
 30
0.0
 11
3574.646833360129
 21
-1890.83356443
 31
0.0
1001
ACAD
1000
DSTYLE
1002
{
1070
    40
1040
2.0
1002
}
  0
LINE
  5
2CAF2
330
18
100
AcDbEntity
  8
1DIM
100
AcDbLine
 10
3578.146833360128
 20
-2323.833564430003
 30
0.0
 11
3578.146833360128
 21
-2307.114699033728
 31
0.0
1001
ACAD
1000
DSTYLE
1002
{
1070
    40
1040
2.0
1002
}
  0
LINE
  5
2CAF3
330
18
100
AcDbEntity
  8
1DIM
100
AcDbLine
 10
3603.146833360128
 20
-2321.333564430003
 30
0.0
 11
3603.146833360128
 21
-2307.114699033728
 31
0.0
1001
ACAD
1000
DSTYLE
1002
{
1070
    40
1040
2.0
1002
}
  0
LINE
  5
2CAF4
330
18
100
AcDbEntity
  8
1DIM
100
AcDbLine
 10
3582.146833360128
 20
-2309.114699033728
 30
0.0
 11
3599.146833360128
 21
-2309.114699033728
 31
0.0
1001
ACAD
1000
DSTYLE
1002
{
1070
    40
1040
2.0
1002
}
  0
LINE
  5
2CAF8
330
18
100
AcDbEntity
  8
1DIM
100
AcDbLine
 10
3603.146833360128
 20
-2321.333564430003
 30
0.0
 11
3603.146833360128
 21
-2307.114699033728
 31
0.0
1001
ACAD
1000
DSTYLE
1002
{
1070
    40
1040
2.0
1002
}
  0
LINE
  5
2CAF9
330
18
100
AcDbEntity
  8
1DIM
100
AcDbLine
 10
3630.646833360129
 20
-2309.114699033728
 30
0.0
 11
3630.646833360129
 21
-2307.114699033728
 31
0.0
1001
ACAD
1000
DSTYLE
1002
{
1070
    40
1040
2.0
1002
}
  0
LINE
  5
2CAFA
330
18
100
AcDbEntity
  8
1DIM
100
AcDbLine
 10
3607.146833360128
 20
-2309.114699033728
 30
0.0
 11
3626.646833360129
 21
-2309.114699033728
 31
0.0
1001
ACAD
1000
DSTYLE
1002
{
1070
    40
1040
2.0
1002
}
  0
LINE
  5
2CAFE
330
18
100
AcDbEntity
  8
1DIM
100
AcDbLine
 10
3445.646833360129
 20
-2340.83356443
 30
0.0
 11
3552.646833360128
 21
-2340.83356443
 31
0.0
1001
ACAD
1000
DSTYLE
1002
{
1070
    40
1040
2.0
1002
}
  0
LINE
  5
2CAFF
330
18
100
AcDbEntity
  8
1DIM
100
AcDbLine
 10
3445.646833360129
 20
-1910.83356443
 30
0.0
 11
3552.646833360128
 21
-1910.83356443
 31
0.0
1001
ACAD
1000
DSTYLE
1002
{
1070
    40
1040
2.0
1002
}
  0
LINE
  5
2CB00
330
18
100
AcDbEntity
  8
1DIM
100
AcDbLine
 10
3550.646833360128
 20
-2336.83356443
 30
0.0
 11
3550.646833360128
 21
-1914.83356443
 31
0.0
1001
ACAD
1000
DSTYLE
1002
{
1070
    40
1040
2.0
1002
}
  0
LINE
  5
2CB04
330
18
100
AcDbEntity
  8
0
  6
BYBLOCK
100
AcDbLine
 10
3529.575036600128
 20
-2163.33356443
 30
0.0
 11
3530.646833360128
 21
-2159.33356443
 31
0.0
  0
LINE
  5
2CB05
330
18
100
AcDbEntity
  8
0
  6
BYBLOCK
100
AcDbLine
 10
3530.646833360128
 20
-2159.33356443
 30
0.0
 11
3531.718630120128
 21
-2163.33356443
 31
0.0
  0
LINE
  5
2CB06
330
18
100
AcDbEntity
  8
0
  6
BYBLOCK
100
AcDbLine
 10
3530.646833360128
 20
-2159.33356443
 30
0.0
 11
3530.646833360128
 21
-2163.33356443
 31
0.0
  0
TEXT
  5
2CB07
330
18
100
AcDbEntity
  8
1DIM
  6
CONTINUOUS
100
AcDbText
 10
3515.690652602024
 20
-2324.769094697317
 30
0.0
 40
7.0
  1
JIS2個用スイッチボックス（カバーなし）
 50
90.0
100
AcDbText
  0
TEXT
  5
2CB08
330
18
100
AcDbEntity
  8
1DIM
  6
CONTINUOUS
100
AcDbText
 10
3527.362180379802
 20
-2303.676733586206
 30
0.0
 40
7.0
  1
中心床面より1350（推奨位置）
 50
90.0
100
AcDbText
  0
LINE
  5
2CB09
330
18
100
AcDbEntity
  8
1DIM
100
AcDbLine
 10
3378.146833360129
 20
-2159.33356443
 30
0.0
 11
3532.646833360128
 21
-2159.33356443
 31
0.0
1001
ACAD
1000
DSTYLE
1002
{
1070
    40
1040
2.0
1002
}
  0
LINE
  5
2CB0A
330
18
100
AcDbEntity
  8
1DIM
100
AcDbLine
 10
3440.828446773805
 20
-2065.833564430001
 30
0.0
 11
3532.646833360128
 21
-2065.833564430001
 31
0.0
1001
ACAD
1000
DSTYLE
1002
{
1070
    40
1040
2.0
1002
}
  0
LINE
  5
2CB0B
330
18
100
AcDbEntity
  8
1DIM
100
AcDbLine
 10
3530.646833360128
 20
-2155.33356443
 30
0.0
 11
3530.646833360128
 21
-2069.833564430001
 31
0.0
1001
ACAD
1000
DSTYLE
1002
{
1070
    40
1040
2.0
1002
}
  0
LINE
  5
2CB0F
330
18
100
AcDbEntity
  8
1DIM
100
AcDbLine
 10
3440.828446773805
 20
-2065.833564430001
 30
0.0
 11
3532.646833360128
 21
-2065.833564430001
 31
0.0
1001
ACAD
1000
DSTYLE
1002
{
1070
    40
1040
2.0
1002
}
  0
LINE
  5
2CB10
330
18
100
AcDbEntity
  8
1DIM
100
AcDbLine
 10
3445.646833360129
 20
-1910.83356443
 30
0.0
 11
3532.646833360128
 21
-1910.83356443
 31
0.0
1001
ACAD
1000
DSTYLE
1002
{
1070
    40
1040
2.0
1002
}
  0
LINE
  5
2CB11
330
18
100
AcDbEntity
  8
1DIM
100
AcDbLine
 10
3530.646833360128
 20
-2061.833564430001
 30
0.0
 11
3530.646833360128
 21
-1914.83356443
 31
0.0
1001
ACAD
1000
DSTYLE
1002
{
1070
    40
1040
2.0
1002
}
  0
SOLID
  5
2CB15
330
18
100
AcDbEntity
  8
1DIM
100
AcDbTrace
 10
3602.37503755227
 20
-2326.742251658808
 30
0.0
 11
3598.51404301031
 21
-2327.982076481676
 31
0.0
 12
3601.764229796639
 22
-2325.557054770759
 32
0.0
 13
3601.764229796639
 23
-2325.557054770759
 33
0.0
1001
ACAD
1000
DSTYLE
1002
{
1070
    40
1040
2.0
1002
}
  0
LINE
  5
2CB16
330
18
100
AcDbEntity
  8
1DIM
100
AcDbLine
 10
3602.069633674455
 20
-2326.149653214783
 30
0.0
 11
3653.595821204096
 21
-2299.594913425488
 31
0.0
1001
ACAD
1000
DSTYLE
1002
{
1070
    40
1040
2.0
1002
}
  0
LINE
  5
2CB17
330
18
100
AcDbEntity
  8
1DIM
100
AcDbLine
 10
3653.595821204096
 20
-2299.594913425488
 30
0.0
 11
3748.129154537429
 21
-2299.594913425488
 31
0.0
1001
ACAD
1000
DSTYLE
1002
{
1070
    40
1040
2.0
1002
}
  0
TEXT
  5
2CB18
330
18
100
AcDbEntity
  8
1DIM
  6
CONTINUOUS
100
AcDbText
 10
3658.529154537429
 20
-2298.194913425488
 30
0.0
 40
7.0
  1
材質：ポリカーボネイト
100
AcDbText
  0
SOLID
  5
2CB19
330
18
100
AcDbEntity
  8
1DIM
100
AcDbTrace
 10
3448.796390237506
 20
-1846.21033472924
 30
0.0
 11
3445.204679771159
 21
-1848.092902223482
 31
0.0
 12
3447.991681295246
 22
-1845.147216064167
 32
0.0
 13
3447.991681295246
 23
-1845.147216064167
 33
0.0
1001
ACAD
1000
DSTYLE
1002
{
1070
    40
1040
2.0
1002
}
  0
LINE
  5
2CB1A
330
18
100
AcDbEntity
  8
1DIM
100
AcDbLine
 10
3448.394035766376
 20
-1845.678775396704
 30
0.0
 11
3469.022413561458
 21
-1830.064488279583
 31
0.0
1001
ACAD
1000
DSTYLE
1002
{
1070
    40
1040
2.0
1002
}
  0
LINE
  5
2CB1B
330
18
100
AcDbEntity
  8
1DIM
100
AcDbLine
 10
3469.022413561458
 20
-1830.064488279583
 30
0.0
 11
3563.555746894791
 21
-1830.064488279583
 31
0.0
1001
ACAD
1000
DSTYLE
1002
{
1070
    40
1040
2.0
1002
}
  0
TEXT
  5
2CB1C
330
18
100
AcDbEntity
  8
1DIM
  6
CONTINUOUS
100
AcDbText
 10
3473.955746894791
 20
-1828.664488279583
 30
0.0
 40
7.0
  1
材質：ポリカーボネイト
100
AcDbText
  0
LINE
  5
2CB1D
330
18
100
AcDbEntity
  8
1DIM
100
AcDbLine
 10
3325.547456311808
 20
-1939.83356443
 30
0.0
 11
3283.646833360129
 21
-1939.83356443
 31
0.0
1001
ACAD
1000
DSTYLE
1002
{
1070
    40
1040
2.0
1002
}
  0
LINE
  5
2CB1E
330
18
100
AcDbEntity
  8
1DIM
100
AcDbLine
 10
3310.646833360129
 20
-1910.83356443
 30
0.0
 11
3283.646833360129
 21
-1910.83356443
 31
0.0
1001
ACAD
1000
DSTYLE
1002
{
1070
    40
1040
2.0
1002
}
  0
LINE
  5
2CB1F
330
18
100
AcDbEntity
  8
1DIM
100
AcDbLine
 10
3285.646833360129
 20
-1935.83356443
 30
0.0
 11
3285.646833360129
 21
-1914.83356443
 31
0.0
1001
ACAD
1000
DSTYLE
1002
{
1070
    40
1040
2.0
1002
}
  0
SOLID
  5
2CB23
330
18
100
AcDbEntity
  8
1DIM
100
AcDbTrace
 10
3422.378509394502
 20
-1928.766133377555
 30
0.0
 11
3418.975983087431
 21
-1930.972319945852
 31
0.0
 12
3421.479069085482
 22
-1927.781864660035
 32
0.0
 13
3421.479069085482
 23
-1927.781864660035
 33
0.0
1001
ACAD
1000
DSTYLE
1002
{
1070
    40
1040
2.0
1002
}
  0
LINE
  5
2CB24
330
18
100
AcDbEntity
  8
1DIM
100
AcDbLine
 10
3421.928789239992
 20
-1928.273999018795
 30
0.0
 11
3450.040408703209
 21
-1902.585156889664
 31
0.0
1001
ACAD
1000
DSTYLE
1002
{
1070
    40
1040
2.0
1002
}
  0
LINE
  5
2CB25
330
18
100
AcDbEntity
  8
1DIM
100
AcDbLine
 10
3450.040408703209
 20
-1902.585156889664
 30
0.0
 11
3540.34040870321
 21
-1902.585156889664
 31
0.0
1001
ACAD
1000
DSTYLE
1002
{
1070
    40
1040
2.0
1002
}
  0
TEXT
  5
2CB26
330
18
100
AcDbEntity
  8
1DIM
  6
CONTINUOUS
100
AcDbText
 10
3455.207075369876
 20
-1889.518490222997
 30
0.0
 40
7.0
  1
ルームナンバーGP-1
100
AcDbText
  0
TEXT
  5
2CB27
330
18
100
AcDbEntity
  8
1DIM
  6
CONTINUOUS
100
AcDbText
 10
3455.207075369876
 20
-1901.185156889664
 30
0.0
 40
7.0
  1
張付け推奨位置
100
AcDbText
  0
LINE
  5
2CB28
330
18
100
AcDbEntity
  8
1DIM
100
AcDbLine
 10
3310.736343341133
 20
-2265.833564430001
 30
0.0
 11
3283.646833360129
 21
-2265.833564430001
 31
0.0
1001
ACAD
1000
DSTYLE
1002
{
1070
    40
1040
2.0
1002
}
  0
LINE
  5
2CB29
330
18
100
AcDbEntity
  8
1DIM
100
AcDbLine
 10
3315.465219946452
 20
-2065.833564430001
 30
0.0
 11
3283.646833360129
 21
-2065.833564430001
 31
0.0
1001
ACAD
1000
DSTYLE
1002
{
1070
    40
1040
2.0
1002
}
  0
LINE
  5
2CB2A
330
18
100
AcDbEntity
  8
1DIM
100
AcDbLine
 10
3285.646833360129
 20
-2261.833564430001
 30
0.0
 11
3285.646833360129
 21
-2069.833564430001
 31
0.0
1001
ACAD
1000
DSTYLE
1002
{
1070
    40
1040
2.0
1002
}
  0
LINE
  5
2CB2E
330
18
100
AcDbEntity
  8
1DIM
100
AcDbLine
 10
3320.646833360129
 20
-2055.923074411006
 30
0.0
 11
3320.646833360129
 21
-1898.835924256096
 31
0.0
1001
ACAD
1000
DSTYLE
1002
{
1070
    40
1040
2.0
1002
}
  0
LINE
  5
2CB2F
330
18
100
AcDbEntity
  8
1DIM
100
AcDbLine
 10
3435.646833360128
 20
-2055.923074411006
 30
0.0
 11
3435.646833360128
 21
-1898.835924256096
 31
0.0
1001
ACAD
1000
DSTYLE
1002
{
1070
    40
1040
2.0
1002
}
  0
LINE
  5
2CB30
330
18
100
AcDbEntity
  8
1DIM
100
AcDbLine
 10
3324.646833360129
 20
-1900.835924256096
 30
0.0
 11
3431.646833360128
 21
-1900.835924256096
 31
0.0
1001
ACAD
1000
DSTYLE
1002
{
1070
    40
1040
2.0
1002
}
  0
LINE
  5
2CB34
330
18
100
AcDbEntity
  8
1DIM
100
AcDbLine
 10
3386.146833360129
 20
-2234.33356443
 30
0.0
 11
3502.646833360128
 21
-2234.33356443
 31
0.0
1001
ACAD
1000
DSTYLE
1002
{
1070
    40
1040
2.0
1002
}
  0
LINE
  5
2CB35
330
18
100
AcDbEntity
  8
1DIM
100
AcDbLine
 10
3378.146833360129
 20
-2159.33356443
 30
0.0
 11
3502.646833360128
 21
-2159.33356443
 31
0.0
1001
ACAD
1000
DSTYLE
1002
{
1070
    40
1040
2.0
1002
}
  0
LINE
  5
2CB36
330
18
100
AcDbEntity
  8
1DIM
100
AcDbLine
 10
3500.646833360128
 20
-2230.33356443
 30
0.0
 11
3500.646833360128
 21
-2163.33356443
 31
0.0
1001
ACAD
1000
DSTYLE
1002
{
1070
    40
1040
2.0
1002
}
  0
LINE
  5
2CB3A
330
18
100
AcDbEntity
  8
0
  6
BYBLOCK
100
AcDbLine
 10
3309.646833360129
 20
-1891.90536119
 30
0.0
 11
3305.646833360129
 21
-1890.83356443
 31
0.0
  0
LINE
  5
2CB3B
330
18
100
AcDbEntity
  8
0
  6
BYBLOCK
100
AcDbLine
 10
3305.646833360129
 20
-1890.83356443
 30
0.0
 11
3309.646833360129
 21
-1889.76176767
 31
0.0
  0
LINE
  5
2CB3C
330
18
100
AcDbEntity
  8
0
  6
BYBLOCK
100
AcDbLine
 10
3305.646833360129
 20
-1890.83356443
 30
0.0
 11
3309.646833360129
 21
-1890.83356443
 31
0.0
  0
LINE
  5
2CB3D
330
18
100
AcDbEntity
  8
0
  6
BYBLOCK
100
AcDbLine
 10
3446.646833360129
 20
-1889.76176767
 30
0.0
 11
3450.646833360129
 21
-1890.83356443
 31
0.0
  0
LINE
  5
2CB3E
330
18
100
AcDbEntity
  8
0
  6
BYBLOCK
100
AcDbLine
 10
3450.646833360129
 20
-1890.83356443
 30
0.0
 11
3446.646833360129
 21
-1891.90536119
 31
0.0
  0
LINE
  5
2CB3F
330
18
100
AcDbEntity
  8
0
  6
BYBLOCK
100
AcDbLine
 10
3450.646833360129
 20
-1890.83356443
 30
0.0
 11
3446.646833360129
 21
-1890.83356443
 31
0.0
  0
TEXT
  5
2CB40
330
18
100
AcDbEntity
  8
1DIM
  6
CONTINUOUS
100
AcDbText
 10
3369.980166693462
 20
-1889.43356443
 30
0.0
 40
7.0
  1
145
100
AcDbText
1001
ACAD
1000
DSTYLE
1002
{
1070
    40
1040
2.0
1002
}
  0
LINE
  5
2CB41
330
18
100
AcDbEntity
  8
0
  6
BYBLOCK
100
AcDbLine
 10
3626.646833360129
 20
-1889.76176767
 30
0.0
 11
3630.646833360129
 21
-1890.83356443
 31
0.0
  0
LINE
  5
2CB42
330
18
100
AcDbEntity
  8
0
  6
BYBLOCK
100
AcDbLine
 10
3630.646833360129
 20
-1890.83356443
 30
0.0
 11
3626.646833360129
 21
-1891.90536119
 31
0.0
  0
LINE
  5
2CB43
330
18
100
AcDbEntity
  8
0
  6
BYBLOCK
100
AcDbLine
 10
3630.646833360129
 20
-1890.83356443
 30
0.0
 11
3626.646833360129
 21
-1890.83356443
 31
0.0
  0
LINE
  5
2CB44
330
18
100
AcDbEntity
  8
0
  6
BYBLOCK
100
AcDbLine
 10
3574.646833360129
 20
-1891.90536119
 30
0.0
 11
3570.646833360129
 21
-1890.83356443
 31
0.0
  0
LINE
  5
2CB45
330
18
100
AcDbEntity
  8
0
  6
BYBLOCK
100
AcDbLine
 10
3570.646833360129
 20
-1890.83356443
 30
0.0
 11
3574.646833360129
 21
-1889.76176767
 31
0.0
  0
LINE
  5
2CB46
330
18
100
AcDbEntity
  8
0
  6
BYBLOCK
100
AcDbLine
 10
3570.646833360129
 20
-1890.83356443
 30
0.0
 11
3574.646833360129
 21
-1890.83356443
 31
0.0
  0
TEXT
  5
2CB47
330
18
100
AcDbEntity
  8
1DIM
  6
CONTINUOUS
100
AcDbText
 10
3595.22669447124
 20
-1889.43356443
 30
0.0
 40
7.0
  1
60
100
AcDbText
1001
ACAD
1000
DSTYLE
1002
{
1070
    40
1040
2.0
1002
}
  0
LINE
  5
2CB48
330
18
100
AcDbEntity
  8
0
  6
BYBLOCK
100
AcDbLine
 10
3582.146833360128
 20
-2310.186495793728
 30
0.0
 11
3578.146833360128
 21
-2309.114699033728
 31
0.0
  0
LINE
  5
2CB49
330
18
100
AcDbEntity
  8
0
  6
BYBLOCK
100
AcDbLine
 10
3578.146833360128
 20
-2309.114699033728
 30
0.0
 11
3582.146833360128
 21
-2308.042902273728
 31
0.0
  0
LINE
  5
2CB4A
330
18
100
AcDbEntity
  8
0
  6
BYBLOCK
100
AcDbLine
 10
3578.146833360128
 20
-2309.114699033728
 30
0.0
 11
3582.146833360128
 21
-2309.114699033728
 31
0.0
  0
LINE
  5
2CB4B
330
18
100
AcDbEntity
  8
0
  6
BYBLOCK
100
AcDbLine
 10
3599.146833360128
 20
-2308.042902273728
 30
0.0
 11
3603.146833360128
 21
-2309.114699033728
 31
0.0
  0
LINE
  5
2CB4C
330
18
100
AcDbEntity
  8
0
  6
BYBLOCK
100
AcDbLine
 10
3603.146833360128
 20
-2309.114699033728
 30
0.0
 11
3599.146833360128
 21
-2310.186495793728
 31
0.0
  0
LINE
  5
2CB4D
330
18
100
AcDbEntity
  8
0
  6
BYBLOCK
100
AcDbLine
 10
3603.146833360128
 20
-2309.114699033728
 30
0.0
 11
3599.146833360128
 21
-2309.114699033728
 31
0.0
  0
TEXT
  5
2CB4E
330
18
100
AcDbEntity
  8
1DIM
  6
CONTINUOUS
100
AcDbText
 10
3584.813500026795
 20
-2307.714699033728
 30
0.0
 40
7.0
  1
25
100
AcDbText
1001
ACAD
1000
DSTYLE
1002
{
1070
    40
1040
2.0
1002
}
  0
LINE
  5
2CB4F
330
18
100
AcDbEntity
  8
0
  6
BYBLOCK
100
AcDbLine
 10
3607.146833360128
 20
-2310.186495793728
 30
0.0
 11
3603.146833360128
 21
-2309.114699033728
 31
0.0
  0
LINE
  5
2CB50
330
18
100
AcDbEntity
  8
0
  6
BYBLOCK
100
AcDbLine
 10
3603.146833360128
 20
-2309.114699033728
 30
0.0
 11
3607.146833360128
 21
-2308.042902273728
 31
0.0
  0
LINE
  5
2CB51
330
18
100
AcDbEntity
  8
0
  6
BYBLOCK
100
AcDbLine
 10
3603.146833360128
 20
-2309.114699033728
 30
0.0
 11
3607.146833360128
 21
-2309.114699033728
 31
0.0
  0
LINE
  5
2CB52
330
18
100
AcDbEntity
  8
0
  6
BYBLOCK
100
AcDbLine
 10
3626.646833360129
 20
-2308.042902273728
 30
0.0
 11
3630.646833360129
 21
-2309.114699033728
 31
0.0
  0
LINE
  5
2CB53
330
18
100
AcDbEntity
  8
0
  6
BYBLOCK
100
AcDbLine
 10
3630.646833360129
 20
-2309.114699033728
 30
0.0
 11
3626.646833360129
 21
-2310.186495793728
 31
0.0
  0
LINE
  5
2CB54
330
18
100
AcDbEntity
  8
0
  6
BYBLOCK
100
AcDbLine
 10
3630.646833360129
 20
-2309.114699033728
 30
0.0
 11
3626.646833360129
 21
-2309.114699033728
 31
0.0
  0
TEXT
  5
2CB55
330
18
100
AcDbEntity
  8
1DIM
  6
CONTINUOUS
100
AcDbText
 10
3606.396833360129
 20
-2307.714699033728
 30
0.0
 40
7.0
  1
27.5
100
AcDbText
1001
ACAD
1000
DSTYLE
1002
{
1070
    40
1040
2.0
1002
}
  0
LINE
  5
2CB56
330
18
100
AcDbEntity
  8
0
  6
BYBLOCK
100
AcDbLine
 10
3551.718630120128
 20
-2336.83356443
 30
0.0
 11
3550.646833360128
 21
-2340.83356443
 31
0.0
  0
LINE
  5
2CB57
330
18
100
AcDbEntity
  8
0
  6
BYBLOCK
100
AcDbLine
 10
3550.646833360128
 20
-2340.83356443
 30
0.0
 11
3549.575036600128
 21
-2336.83356443
 31
0.0
  0
LINE
  5
2CB58
330
18
100
AcDbEntity
  8
0
  6
BYBLOCK
100
AcDbLine
 10
3550.646833360128
 20
-2340.83356443
 30
0.0
 11
3550.646833360128
 21
-2336.83356443
 31
0.0
  0
LINE
  5
2CB59
330
18
100
AcDbEntity
  8
0
  6
BYBLOCK
100
AcDbLine
 10
3549.575036600128
 20
-1914.83356443
 30
0.0
 11
3550.646833360128
 21
-1910.83356443
 31
0.0
  0
LINE
  5
2CB5A
330
18
100
AcDbEntity
  8
0
  6
BYBLOCK
100
AcDbLine
 10
3550.646833360128
 20
-1910.83356443
 30
0.0
 11
3551.718630120128
 21
-1914.83356443
 31
0.0
  0
LINE
  5
2CB5B
330
18
100
AcDbEntity
  8
0
  6
BYBLOCK
100
AcDbLine
 10
3550.646833360128
 20
-1910.83356443
 30
0.0
 11
3550.646833360128
 21
-1914.83356443
 31
0.0
  0
TEXT
  5
2CB5C
330
18
100
AcDbEntity
  8
1DIM
  6
CONTINUOUS
100
AcDbText
 10
3549.246833360129
 20
-2134.729397763333
 30
0.0
 40
7.0
  1
430
 50
90.0
100
AcDbText
1001
ACAD
1000
DSTYLE
1002
{
1070
    40
1040
2.0
1002
}
  0
LINE
  5
2CB5D
330
18
100
AcDbEntity
  8
0
  6
BYBLOCK
100
AcDbLine
 10
3531.718630120128
 20
-2155.33356443
 30
0.0
 11
3530.646833360128
 21
-2159.33356443
 31
0.0
  0
LINE
  5
2CB5E
330
18
100
AcDbEntity
  8
0
  6
BYBLOCK
100
AcDbLine
 10
3530.646833360128
 20
-2159.33356443
 30
0.0
 11
3529.575036600128
 21
-2155.33356443
 31
0.0
  0
LINE
  5
2CB5F
330
18
100
AcDbEntity
  8
0
  6
BYBLOCK
100
AcDbLine
 10
3530.646833360128
 20
-2159.33356443
 30
0.0
 11
3530.646833360128
 21
-2155.33356443
 31
0.0
  0
LINE
  5
2CB60
330
18
100
AcDbEntity
  8
0
  6
BYBLOCK
100
AcDbLine
 10
3529.575036600128
 20
-2069.833564430001
 30
0.0
 11
3530.646833360128
 21
-2065.833564430001
 31
0.0
  0
LINE
  5
2CB61
330
18
100
AcDbEntity
  8
0
  6
BYBLOCK
100
AcDbLine
 10
3530.646833360128
 20
-2065.833564430001
 30
0.0
 11
3531.718630120128
 21
-2069.833564430001
 31
0.0
  0
LINE
  5
2CB62
330
18
100
AcDbEntity
  8
0
  6
BYBLOCK
100
AcDbLine
 10
3530.646833360128
 20
-2065.833564430001
 30
0.0
 11
3530.646833360128
 21
-2069.833564430001
 31
0.0
  0
TEXT
  5
2CB63
330
18
100
AcDbEntity
  8
1DIM
  6
CONTINUOUS
100
AcDbText
 10
3529.246833360129
 20
-2123.086805170741
 30
0.0
 40
7.0
  1
93.5
 50
90.0
100
AcDbText
1001
ACAD
1000
DSTYLE
1002
{
1070
    40
1040
2.0
1002
}
  0
LINE
  5
2CB64
330
18
100
AcDbEntity
  8
0
  6
BYBLOCK
100
AcDbLine
 10
3531.718630120128
 20
-2061.833564430001
 30
0.0
 11
3530.646833360128
 21
-2065.833564430001
 31
0.0
  0
LINE
  5
2CB65
330
18
100
AcDbEntity
  8
0
  6
BYBLOCK
100
AcDbLine
 10
3530.646833360128
 20
-2065.833564430001
 30
0.0
 11
3529.575036600128
 21
-2061.833564430001
 31
0.0
  0
LINE
  5
2CB66
330
18
100
AcDbEntity
  8
0
  6
BYBLOCK
100
AcDbLine
 10
3530.646833360128
 20
-2065.833564430001
 30
0.0
 11
3530.646833360128
 21
-2061.833564430001
 31
0.0
  0
LINE
  5
2CB67
330
18
100
AcDbEntity
  8
0
  6
BYBLOCK
100
AcDbLine
 10
3529.575036600128
 20
-1914.83356443
 30
0.0
 11
3530.646833360128
 21
-1910.83356443
 31
0.0
  0
LINE
  5
2CB68
330
18
100
AcDbEntity
  8
0
  6
BYBLOCK
100
AcDbLine
 10
3530.646833360128
 20
-1910.83356443
 30
0.0
 11
3531.718630120128
 21
-1914.83356443
 31
0.0
  0
LINE
  5
2CB69
330
18
100
AcDbEntity
  8
0
  6
BYBLOCK
100
AcDbLine
 10
3530.646833360128
 20
-1910.83356443
 30
0.0
 11
3530.646833360128
 21
-1914.83356443
 31
0.0
  0
TEXT
  5
2CB6A
330
18
100
AcDbEntity
  8
1DIM
  6
CONTINUOUS
100
AcDbText
 10
3529.246833360128
 20
-1996.524536652222
 30
0.0
 40
7.0
  1
155
 50
90.0
100
AcDbText
1001
ACAD
1000
DSTYLE
1002
{
1070
    40
1040
2.0
1002
}
  0
LINE
  5
2CB6B
330
18
100
AcDbEntity
  8
0
  6
BYBLOCK
100
AcDbLine
 10
3286.718630120129
 20
-1935.83356443
 30
0.0
 11
3285.646833360129
 21
-1939.83356443
 31
0.0
  0
LINE
  5
2CB6C
330
18
100
AcDbEntity
  8
0
  6
BYBLOCK
100
AcDbLine
 10
3285.646833360129
 20
-1939.83356443
 30
0.0
 11
3284.575036600129
 21
-1935.83356443
 31
0.0
  0
LINE
  5
2CB6D
330
18
100
AcDbEntity
  8
0
  6
BYBLOCK
100
AcDbLine
 10
3285.646833360129
 20
-1939.83356443
 30
0.0
 11
3285.646833360129
 21
-1935.83356443
 31
0.0
  0
LINE
  5
2CB6E
330
18
100
AcDbEntity
  8
0
  6
BYBLOCK
100
AcDbLine
 10
3284.575036600129
 20
-1914.83356443
 30
0.0
 11
3285.646833360129
 21
-1910.83356443
 31
0.0
  0
LINE
  5
2CB6F
330
18
100
AcDbEntity
  8
0
  6
BYBLOCK
100
AcDbLine
 10
3285.646833360129
 20
-1910.83356443
 30
0.0
 11
3286.718630120129
 21
-1914.83356443
 31
0.0
  0
LINE
  5
2CB70
330
18
100
AcDbEntity
  8
0
  6
BYBLOCK
100
AcDbLine
 10
3285.646833360129
 20
-1910.83356443
 30
0.0
 11
3285.646833360129
 21
-1914.83356443
 31
0.0
  0
TEXT
  5
2CB71
330
18
100
AcDbEntity
  8
1DIM
  6
CONTINUOUS
100
AcDbText
 10
3284.246833360129
 20
-1931.168518133703
 30
0.0
 40
7.0
  1
29
 50
90.0
100
AcDbText
1001
ACAD
1000
DSTYLE
1002
{
1070
    40
1040
2.0
1002
}
  0
LINE
  5
2CB72
330
18
100
AcDbEntity
  8
0
  6
BYBLOCK
100
AcDbLine
 10
3286.718630120129
 20
-2261.833564430001
 30
0.0
 11
3285.646833360129
 21
-2265.833564430001
 31
0.0
  0
LINE
  5
2CB73
330
18
100
AcDbEntity
  8
0
  6
BYBLOCK
100
AcDbLine
 10
3285.646833360129
 20
-2265.833564430001
 30
0.0
 11
3284.575036600129
 21
-2261.833564430001
 31
0.0
  0
LINE
  5
2CB74
330
18
100
AcDbEntity
  8
0
  6
BYBLOCK
100
AcDbLine
 10
3285.646833360129
 20
-2265.833564430001
 30
0.0
 11
3285.646833360129
 21
-2261.833564430001
 31
0.0
  0
LINE
  5
2CB75
330
18
100
AcDbEntity
  8
0
  6
BYBLOCK
100
AcDbLine
 10
3284.575036600129
 20
-2069.833564430001
 30
0.0
 11
3285.646833360129
 21
-2065.833564430001
 31
0.0
  0
LINE
  5
2CB76
330
18
100
AcDbEntity
  8
0
  6
BYBLOCK
100
AcDbLine
 10
3285.646833360129
 20
-2065.833564430001
 30
0.0
 11
3286.718630120129
 21
-2069.833564430001
 31
0.0
  0
LINE
  5
2CB77
330
18
100
AcDbEntity
  8
0
  6
BYBLOCK
100
AcDbLine
 10
3285.646833360129
 20
-2065.833564430001
 30
0.0
 11
3285.646833360129
 21
-2069.833564430001
 31
0.0
  0
TEXT
  5
2CB78
330
18
100
AcDbEntity
  8
1DIM
  6
CONTINUOUS
100
AcDbText
 10
3284.246833360129
 20
-2177.64606443
 30
0.0
 40
7.0
  1
P200
 50
90.0
100
AcDbText
1001
ACAD
1000
DSTYLE
1002
{
1070
    40
1040
2.0
1002
}
  0
LINE
  5
2CB79
330
18
100
AcDbEntity
  8
0
  6
BYBLOCK
100
AcDbLine
 10
3324.646833360129
 20
-1901.907721016097
 30
0.0
 11
3320.646833360129
 21
-1900.835924256096
 31
0.0
  0
LINE
  5
2CB7A
330
18
100
AcDbEntity
  8
0
  6
BYBLOCK
100
AcDbLine
 10
3320.646833360129
 20
-1900.835924256096
 30
0.0
 11
3324.646833360129
 21
-1899.764127496096
 31
0.0
  0
LINE
  5
2CB7B
330
18
100
AcDbEntity
  8
0
  6
BYBLOCK
100
AcDbLine
 10
3320.646833360129
 20
-1900.835924256096
 30
0.0
 11
3324.646833360129
 21
-1900.835924256096
 31
0.0
  0
LINE
  5
2CB7C
330
18
100
AcDbEntity
  8
0
  6
BYBLOCK
100
AcDbLine
 10
3431.646833360128
 20
-1899.764127496096
 30
0.0
 11
3435.646833360128
 21
-1900.835924256096
 31
0.0
  0
LINE
  5
2CB7D
330
18
100
AcDbEntity
  8
0
  6
BYBLOCK
100
AcDbLine
 10
3435.646833360128
 20
-1900.835924256096
 30
0.0
 11
3431.646833360128
 21
-1901.907721016097
 31
0.0
  0
LINE
  5
2CB7E
330
18
100
AcDbEntity
  8
0
  6
BYBLOCK
100
AcDbLine
 10
3435.646833360128
 20
-1900.835924256096
 30
0.0
 11
3431.646833360128
 21
-1900.835924256096
 31
0.0
  0
TEXT
  5
2CB7F
330
18
100
AcDbEntity
  8
1DIM
  6
CONTINUOUS
100
AcDbText
 10
3367.646833360129
 20
-1899.435924256097
 30
0.0
 40
7.0
  1
P115
100
AcDbText
1001
ACAD
1000
DSTYLE
1002
{
1070
    40
1040
2.0
1002
}
  0
LINE
  5
2CB80
330
18
100
AcDbEntity
  8
0
  6
BYBLOCK
100
AcDbLine
 10
3501.718630120128
 20
-2230.33356443
 30
0.0
 11
3500.646833360128
 21
-2234.33356443
 31
0.0
  0
LINE
  5
2CB81
330
18
100
AcDbEntity
  8
0
  6
BYBLOCK
100
AcDbLine
 10
3500.646833360128
 20
-2234.33356443
 30
0.0
 11
3499.575036600128
 21
-2230.33356443
 31
0.0
  0
LINE
  5
2CB82
330
18
100
AcDbEntity
  8
0
  6
BYBLOCK
100
AcDbLine
 10
3500.646833360128
 20
-2234.33356443
 30
0.0
 11
3500.646833360128
 21
-2230.33356443
 31
0.0
  0
LINE
  5
2CB83
330
18
100
AcDbEntity
  8
0
  6
BYBLOCK
100
AcDbLine
 10
3499.575036600128
 20
-2163.33356443
 30
0.0
 11
3500.646833360128
 21
-2159.33356443
 31
0.0
  0
LINE
  5
2CB84
330
18
100
AcDbEntity
  8
0
  6
BYBLOCK
100
AcDbLine
 10
3500.646833360128
 20
-2159.33356443
 30
0.0
 11
3501.718630120128
 21
-2163.33356443
 31
0.0
  0
LINE
  5
2CB85
330
18
100
AcDbEntity
  8
0
  6
BYBLOCK
100
AcDbLine
 10
3500.646833360128
 20
-2159.33356443
 30
0.0
 11
3500.646833360128
 21
-2163.33356443
 31
0.0
  0
TEXT
  5
2CB86
330
18
100
AcDbEntity
  8
1DIM
  6
CONTINUOUS
100
AcDbText
 10
3475.908638915685
 20
-2233.933564429999
 30
0.0
 40
7.0
  1
スイッチボックスを
 50
90.0
100
AcDbText
1001
ACAD
1000
DSTYLE
1002
{
1070
    40
1040
2.0
1002
}
  0
TEXT
  5
2CB87
330
18
100
AcDbEntity
  8
1DIM
  6
CONTINUOUS
100
AcDbText
 10
3487.575305582351
 20
-2229.500231096665
 30
0.0
 40
7.0
  1
使用しない場合の
 50
90.0
100
AcDbText
1001
ACAD
1000
DSTYLE
1002
{
1070
    40
1040
2.0
1002
}
  0
TEXT
  5
2CB88
330
18
100
AcDbEntity
  8
1DIM
  6
CONTINUOUS
100
AcDbText
 10
3499.246833360129
 20
-2242.474536652221
 30
0.0
 40
7.0
  1
配線用穴75（推奨位置）
 50
90.0
100
AcDbText
1001
ACAD
1000
DSTYLE
1002
{
1070
    40
1040
2.0
1002
}
  0
VIEWPORT
  5
57
330
15
100
AcDbEntity
 67
     1
  8
0
100
AcDbViewport
 68
     1
 10
0.0
 20
0.0
 30
0.0
 40
565.988904299584
 41
297.0
 68
     1
 69
     1
1001
ACAD
1000
MVIEW
1002
{
1070
    16
1010
0.0
1020
0.0
1030
0.0
1010
0.0
1020
0.0
1030
1.0
1040
0.0
1040
297.0
1040
-4.272048862584512
1040
18.33904653606845
1040
50.0
1040
0.0
1040
0.0
1070
    16
1070
   100
1070
     0
1070
     1
1070
     0
1070
     0
1070
     0
1070
     0
1040
0.0
1040
0.0
1040
0.0
1040
10.0
1040
10.0
1040
10.0
1040
10.0
1070
     0
1002
{
1002
}
1002
}
  0
ENDSEC
  0
SECTION
  2
OBJECTS
  0
DICTIONARY
  5
C
330
0
100
AcDbDictionary
  3
ACAD_COLOR
350
2D0
  3
ACAD_GROUP
350
D
  3
ACAD_LAYOUT
350
2D1
  3
ACAD_MATERIAL
350
2CF
  3
ACAD_MLEADERSTYLE
350
15B98
  3
ACAD_MLINESTYLE
350
1B
  3
ACAD_PLOTSETTINGS
350
2D2
  3
ACAD_SCALELIST
350
15B76
  3
ACAD_VISUALSTYLE
350
15B65
  3
ACDBHEADERROUNDTRIPXREC
350
2CB8C
  3
ACDBVARIABLEDICTIONARY
350
37
  3
CONTENTDICTIONARY
350
D8
  3
DRAWINGVARIABLESDICT
350
20
  3
DWGPROPS
350
2CB8F
1001
ACAD
1000
TREAT_AS_HARD
1070
     0
  0
DICTIONARY
  5
14EC2
330
2
100
AcDbDictionary
  3
ACAD_LAYERSTATES
360
14EC3
1001
ACAD
1000
TREAT_AS_HARD
1070
     1
  0
DICTIONARY
  5
15BB5
330
E
100
AcDbDictionary
  3
ADSK_XREC_LAYER_RECONCILED
360
15BB6
1001
ACAD
1000
TREAT_AS_HARD
1070
     1
  0
DICTIONARY
  5
15BB7
330
29
100
AcDbDictionary
  3
ADSK_XREC_LAYER_RECONCILED
360
15BB8
1001
ACAD
1000
TREAT_AS_HARD
1070
     1
  0
DICTIONARY
  5
15BB9
330
31
100
AcDbDictionary
  3
ADSK_XREC_LAYER_RECONCILED
360
15BBA
1001
ACAD
1000
TREAT_AS_HARD
1070
     1
  0
DICTIONARY
  5
15BC3
330
101
100
AcDbDictionary
  3
ADSK_XREC_LAYER_RECONCILED
360
15BC4
1001
ACAD
1000
TREAT_AS_HARD
1070
     1
  0
DICTIONARY
  5
15BC5
330
102
100
AcDbDictionary
  3
ADSK_XREC_LAYER_RECONCILED
360
15BC6
1001
ACAD
1000
TREAT_AS_HARD
1070
     1
  0
DICTIONARY
  5
15BC7
330
103
100
AcDbDictionary
  3
ADSK_XREC_LAYER_RECONCILED
360
15BC8
1001
ACAD
1000
TREAT_AS_HARD
1070
     1
  0
DICTIONARY
  5
15BCB
330
25F
100
AcDbDictionary
  3
ADSK_XREC_LAYER_RECONCILED
360
15BCC
1001
ACAD
1000
TREAT_AS_HARD
1070
     1
  0
DICTIONARY
  5
6E9
330
18
100
AcDbDictionary
  3
ACAD_SORTENTS
360
6EA
1001
ACAD
1000
TREAT_AS_HARD
1070
     1
  0
DICTIONARY
  5
59B
330
15
100
AcDbDictionary
  3
ACAD_SORTENTS
360
59C
1001
ACAD
1000
TREAT_AS_HARD
1070
     1
  0
DICTIONARY
  5
2D0
102
{ACAD_REACTORS
330
C
102
}
330
C
100
AcDbDictionary
1001
ACAD
1000
TREAT_AS_HARD
1070
     0
  0
DICTIONARY
  5
D
102
{ACAD_REACTORS
330
C
102
}
330
C
100
AcDbDictionary
1001
ACAD
1000
TREAT_AS_HARD
1070
     0
  0
DICTIONARY
  5
2D1
102
{ACAD_REACTORS
330
C
102
}
330
C
100
AcDbDictionary
1001
ACAD
1000
TREAT_AS_HARD
1070
     0
  0
DICTIONARY
  5
2CF
102
{ACAD_REACTORS
330
C
102
}
330
C
100
AcDbDictionary
  3
BYBLOCK
350
15B55
  3
BYLAYER
350
15B4D
  3
GLOBAL
350
15B5D
1001
ACAD
1000
TREAT_AS_HARD
1070
     0
  0
DICTIONARY
  5
15B98
102
{ACAD_REACTORS
330
C
102
}
330
C
100
AcDbDictionary
  3
STANDARD
350
15B99
1001
ACAD
1000
TREAT_AS_HARD
1070
     0
  0
DICTIONARY
  5
1B
102
{ACAD_REACTORS
330
C
102
}
330
C
100
AcDbDictionary
  3
STANDARD
350
1C
1001
ACAD
1000
TREAT_AS_HARD
1070
     0
  0
DICTIONARY
  5
2D2
102
{ACAD_REACTORS
330
C
102
}
330
C
100
AcDbDictionary
1001
ACAD
1000
TREAT_AS_HARD
1070
     0
  0
DICTIONARY
  5
15B76
102
{ACAD_REACTORS
330
C
102
}
330
C
100
AcDbDictionary
  3
A0
350
15B77
  3
A1
350
15B78
  3
A2
350
15B79
  3
A3
350
15B7A
  3
A4
350
15B7B
  3
A5
350
15B7C
  3
A6
350
15B7D
  3
A7
350
15B7E
  3
A8
350
15B7F
  3
A9
350
15B80
  3
B0
350
15B81
  3
B1
350
15B82
  3
B2
350
15B83
  3
B3
350
15B84
  3
B4
350
15B85
  3
B5
350
15B86
  3
B6
350
15B87
  3
B7
350
15B88
  3
B8
350
15B89
  3
B9
350
15B8A
  3
C0
350
15B8B
  3
C1
350
15B8C
  3
C2
350
15B8D
  3
C3
350
15B8E
  3
C4
350
15B8F
  3
C5
350
15B90
  3
C6
350
15B91
  3
C7
350
15B92
  3
C8
350
15B93
  3
C9
350
15B94
  3
D0
350
15B95
  3
D1
350
15B96
  3
D2
350
15B97
1001
ACAD
1000
TREAT_AS_HARD
1070
     0
  0
DICTIONARY
  5
15B65
102
{ACAD_REACTORS
330
C
102
}
330
C
100
AcDbDictionary
  3
2DWIREFRAME
350
15B6B
  3
3D_HIDDEN
350
15B6D
  3
3DWIREFRAME
350
15B6C
  3
BASIC
350
15B6A
  3
BRIGHTEN
350
15B71
  3
COLORCHANGE
350
15B75
  3
CONCEPTUAL
350
15B6E
  3
DIM
350
15B70
  3
EDGECOLOROFF
350
1F525
  3
FACEPATTERN
350
15B74
  3
FLAT
350
15B66
  3
FLATWITHEDGES
350
15B67
  3
GOURAUD
350
15B68
  3
GOURAUDWITHEDGES
350
15B69
  3
HIDDEN
350
2CACD
  3
JITTEROFF
350
1F523
  3
LINEPATTERN
350
15B73
  3
MODELING
350
2CAD3
  3
OVERHANGOFF
350
1F524
  3
REALISTIC
350
15B6F
  3
SHADED
350
2CAD2
  3
SHADED_WITH_EDGES
350
2CAD1
  3
SHADES_OF_GRAY
350
2CACE
  3
SKETCHY
350
2CACF
  3
THICKEN
350
15B72
  3
WIREFRAME
350
2CACC
  3
X-RAY
350
2CAD0
1001
ACAD
1000
TREAT_AS_HARD
1070
     0
  0
DICTIONARY
  5
2CB8C
102
{ACAD_REACTORS
330
C
102
}
330
C
100
AcDbDictionary
  3
COLORDICT
350
2CB8D
  3
MATERIALDICT
350
2CB8E
1001
ACAD
1000
TREAT_AS_HARD
1070
     0
  0
DICTIONARY
  5
37
102
{ACAD_REACTORS
330
C
102
}
330
C
100
AcDbDictionary
  3
CANNOSCALE
350
2CB90
  3
CMLEADERSTYLE
350
15C4B
  3
CTABLESTYLE
350
4F1
  3
DIMADEC
350
38
  3
DIMASSOC
350
408
  3
HIDETEXT
350
1891
  3
INDEXCTL
350
15C4E
  3
INTERSECTIONCOLOR
350
1895
  3
INTERSECTIONDISPLAY
350
1894
  3
MSLTSCALE
350
2CB89
  3
OBSCOLOR
350
1892
  3
OBSLTYPE
350
1893
  3
PROJECTNAME
350
409
  3
SORTENTS
350
15C4D
  3
XCLIPFRAME
350
2CACB
1001
ACAD
1000
TREAT_AS_HARD
1070
     0
  0
DICTIONARY
  5
D8
102
{ACAD_REACTORS
330
C
102
}
330
C
100
AcDbDictionary
1001
CONTENTTABDATA
1070
    11
1000
Child
1000
D:\ACLT\TABset\CHILDREN.dwg
1070
     0
1070
     0
1070
     1
1000
PK
1000
D:\ACLT\TABset\PK.dwg
1070
     0
1070
     0
1070
     1
1000
Lev1
1000
D:\ACLT\TABset\Lever01.dwg
1070
     0
1070
     0
1070
     1
1000
Lev2
1000
D:\ACLT\TABset\Lever02.dwg
1070
     0
1070
     0
1070
     1
1000
L3
1000
D:\Aclt\TABset\Lever03.dwg
1070
     0
1070
     0
1070
     1
1000
Form
1000
D:\ACLT\FORMAT
1070
     1
1070
     0
1070
     1
1000
Jnt
1000
D:\ACLT\TABset\JOINTPARTS.dwg
1070
     0
1070
     0
1070
     1
1000
ISO
1000
D:\ACLT\TABset\Isome01.dwg
1070
     0
1070
     0
1070
     1
1000
R
1000
D:\ACLT\TABset\REGION.dwg
1070
     0
1070
     0
1070
     1
1000
std
1000
D:\ACLT\TABset\std_sym_all.dwg
1070
     0
1070
     0
1070
     1
1000
丸
1000
D:\Aclt\TABset\MARU.dwg
1070
     0
1070
     0
1070
     1
1001
CONTENTCURRENTTAB
1070
     0
1001
ACAD
1000
TREAT_AS_HARD
1070
     0
  0
DICTIONARY
  5
20
102
{ACAD_REACTORS
330
C
102
}
330
C
100
AcDbDictionary
1001
DRAWINGVARIABLESXDATA
1000
POLARANG
1000
0.261799387799149410000000
1000
POLARMODE
1000
1
1000
POLARSTYLE
1000
1
1001
ACAD
1000
TREAT_AS_HARD
1070
     0
  0
XRECORD
  5
2CB8F
102
{ACAD_REACTORS
330
C
102
}
330
C
100
AcDbXrecord
  1
DWGPROPS COOKIE
  2

  3

  4

  6

  7

  8
619
  9

300
=
301
=
302
=
303
=
304
=
305
=
306
=
307
=
308
=
309
=
 40
0.0
 41
2453033.357663484
 42
2458296.004566169
  1

 90
        0
  0
DICTIONARY
  5
14EC3
102
{ACAD_REACTORS
330
14EC2
102
}
330
14EC2
100
AcDbDictionary
  3
_LAYISO_STATE
350
253AA
1001
ACLAYERTOOLS
1000
2D3
1000
0
1001
ACAD
1000
TREAT_AS_HARD
1070
     0
  0
ACAD_PROXY_OBJECT
  5
15BB6
102
{ACAD_REACTORS
330
15BB5
102
}
330
15BB5
100
AcDbZombieObject
 90
      499
 91
      517
 93
       34
310
40C8804040
  0
ACAD_PROXY_OBJECT
  5
15BB8
102
{ACAD_REACTORS
330
15BB7
102
}
330
15BB7
100
AcDbZombieObject
 90
      499
 91
      517
 93
       34
310
40C8804040
  0
ACAD_PROXY_OBJECT
  5
15BBA
102
{ACAD_REACTORS
330
15BB9
102
}
330
15BB9
100
AcDbZombieObject
 90
      499
 91
      517
 93
       34
310
40C8804040
  0
ACAD_PROXY_OBJECT
  5
15BC4
102
{ACAD_REACTORS
330
15BC3
102
}
330
15BC3
100
AcDbZombieObject
 90
      499
 91
      517
 93
       34
310
40C8804040
  0
ACAD_PROXY_OBJECT
  5
15BC6
102
{ACAD_REACTORS
330
15BC5
102
}
330
15BC5
100
AcDbZombieObject
 90
      499
 91
      517
 93
       34
310
40C8804040
  0
ACAD_PROXY_OBJECT
  5
15BC8
102
{ACAD_REACTORS
330
15BC7
102
}
330
15BC7
100
AcDbZombieObject
 90
      499
 91
      517
 93
       34
310
40C8804040
  0
ACAD_PROXY_OBJECT
  5
15BCC
102
{ACAD_REACTORS
330
15BCB
102
}
330
15BCB
100
AcDbZombieObject
 90
      499
 91
      517
 93
       34
310
40C8804040
  0
SORTENTSTABLE
  5
6EA
102
{ACAD_REACTORS
330
6E9
102
}
330
6E9
100
AcDbSortentsTable
330
18
331
22FCA
  5
23014
331
2539D
  5
253AF
331
253A6
  5
25412
331
253A7
  5
25416
331
253A8
  5
2541B
331
253A9
  5
2541C
331
2749E
  5
27504
331
2749F
  5
27505
331
2768F
  5
2788D
331
2C659
  5
2C66F
331
2C65A
  5
2C670
331
2C65B
  5
2C671
331
2C65C
  5
2C672
331
2C65D
  5
2C673
331
2C65E
  5
2C674
331
2C65F
  5
2C675
331
2C660
  5
2C676
331
2C661
  5
2C677
331
2C662
  5
2C678
331
2C663
  5
2C679
331
2C664
  5
2C67A
331
2C665
  5
2C67B
331
2C666
  5
2C67C
331
2C667
  5
2C67D
331
2C668
  5
2C67E
331
2C66D
  5
2C689
331
2C66E
  5
2C68A
331
2C66F
  5
2C68B
331
2C670
  5
2C68C
331
2C671
  5
2C68D
331
2C672
  5
2C68E
331
2C673
  5
2C68F
331
2C674
  5
2C690
331
2C675
  5
2C691
331
2C676
  5
2C692
331
2C677
  5
2C693
331
2C678
  5
2C694
331
2C679
  5
2C695
331
2C67A
  5
2C696
331
2C67B
  5
2C697
331
2C67C
  5
2C698
331
2C67D
  5
2C699
331
2C67E
  5
2C69A
331
2C67F
  5
2C69B
331
2C680
  5
2C69C
331
2C681
  5
2C69D
331
2C682
  5
2C69E
331
2C683
  5
2C69F
331
2C684
  5
2C6A0
331
2C685
  5
2C6A1
331
2C686
  5
2C6A2
331
2C687
  5
2C6A3
331
2C688
  5
2C6A4
331
2C689
  5
2C6A5
331
2C68A
  5
2C6A6
331
2C68B
  5
2C6A7
331
2C68C
  5
2C6A8
331
2C68D
  5
2C6A9
331
2C68E
  5
2C6AA
331
2C68F
  5
2C6AB
331
2C690
  5
2C6AC
331
2C691
  5
2C6AD
331
2C692
  5
2C6AE
331
2C693
  5
2C6AF
331
2C694
  5
2C6B0
331
2C695
  5
2C6B1
331
2C696
  5
2C6B2
331
2C697
  5
2C6B3
331
2C698
  5
2C6B4
331
2C699
  5
2C6B5
331
2C69A
  5
2C6B6
331
2C69B
  5
2C6B7
331
2C69C
  5
2C6B8
331
2C69D
  5
2C6B9
331
2C69E
  5
2C6BA
331
2C69F
  5
2C6BB
331
2C6A0
  5
2C6BC
331
2C6A1
  5
2C6BD
331
2C6A2
  5
2C6BE
331
2C6A3
  5
2C6BF
331
2C6A4
  5
2C6C0
331
2C6A5
  5
2C6C1
331
2C6A6
  5
2C6C2
331
2C6A7
  5
2C6C3
331
2C6A8
  5
2C6C4
331
2C6A9
  5
2C6C5
331
2C6AA
  5
2C6C6
331
2C6AB
  5
2C6C7
331
2C6AC
  5
2C6C8
331
2C6AD
  5
2C6C9
331
2C6AE
  5
2C6CA
331
2C6AF
  5
2C6CB
331
2C6B0
  5
2C6CC
331
2C6B1
  5
2C6CD
331
2C6B2
  5
2C6CE
331
2C6B3
  5
2C6CF
331
2C6B4
  5
2C6D0
331
2C6B5
  5
2C6D1
331
2C6B6
  5
2C6D2
331
2C6B7
  5
2C6D3
331
2C6B8
  5
2C6D4
331
2C6B9
  5
2C6D5
331
2C6BA
  5
2C6D6
331
2C6BB
  5
2C6D7
331
2C6BC
  5
2C6D8
331
2C6BD
  5
2C6D9
331
2C6BE
  5
2C6DA
331
2C6BF
  5
2C6DB
331
2C6C0
  5
2C6DC
331
2C6C1
  5
2C6DD
331
2C6C2
  5
2C6DE
331
2C6C3
  5
2C6DF
331
2C6C4
  5
2C6E0
331
2C6C5
  5
2C6E1
331
2C6C6
  5
2C6E2
331
2C6C7
  5
2C6E3
331
2C6C8
  5
2C6E4
331
2C6C9
  5
2C6E5
331
2C6CA
  5
2C6E6
331
2C6CB
  5
2C6E7
331
2C6CC
  5
2C6E8
331
2C6CD
  5
2C6E9
331
2C6CE
  5
2C6EA
331
2C6CF
  5
2C6EB
331
2C6D0
  5
2C6EC
331
2C6D1
  5
2C6ED
331
2C6D2
  5
2C6EE
331
2C6D3
  5
2C6EF
331
2C6D4
  5
2C6F0
331
2C6D5
  5
2C6F1
331
2C6D6
  5
2C6F2
331
2C6D7
  5
2C6F3
331
2C6D8
  5
2C6F4
331
2C6D9
  5
2C6F5
331
2C6DA
  5
2C6F6
331
2C6DB
  5
2C6F7
331
2C6DC
  5
2C6F8
331
2C6DD
  5
2C6F9
331
2C6DE
  5
2C6FA
331
2C6DF
  5
2C6FB
331
2C6E0
  5
2C6FC
331
2C6E1
  5
2C6FD
331
2C6E2
  5
2C6FE
331
2C6E3
  5
2C6FF
331
2C6E4
  5
2C700
331
2C6E5
  5
2C701
331
2C6E6
  5
2C702
331
2C6E7
  5
2C703
331
2C6E8
  5
2C704
331
2C6E9
  5
2C705
331
2C6EA
  5
2C706
331
2C6EB
  5
2C707
331
2C6EC
  5
2C708
331
2C6ED
  5
2C709
331
2C6EE
  5
2C70A
331
2C6EF
  5
2C70B
331
2C6F0
  5
2C70C
331
2C6F1
  5
2C70D
331
2C6F2
  5
2C70E
331
2C6F3
  5
2C70F
331
2C6F4
  5
2C710
331
2C6F5
  5
2C711
331
2C6F6
  5
2C712
331
2C6F7
  5
2C713
331
2C6F8
  5
2C714
331
2C6F9
  5
2C715
331
2C6FA
  5
2C716
331
2C6FB
  5
2C717
331
2C6FC
  5
2C718
331
2C6FD
  5
2C719
331
2C6FE
  5
2C71A
331
2C6FF
  5
2C71B
331
2C700
  5
2C71C
331
2C701
  5
2C71D
331
2C702
  5
2C71E
331
2C703
  5
2C71F
331
2C704
  5
2C720
331
2C705
  5
2C721
331
2C706
  5
2C722
331
2C707
  5
2C723
331
2C708
  5
2C724
331
2C709
  5
2C725
331
2C70A
  5
2C726
331
2C70B
  5
2C727
331
2C70C
  5
2C728
331
2C70D
  5
2C729
331
2C70E
  5
2C72A
331
2C70F
  5
2C72B
331
2C710
  5
2C72C
331
2C711
  5
2C72D
331
2C712
  5
2C72E
331
2C713
  5
2C72F
331
2C714
  5
2C730
331
2C715
  5
2C731
331
2C716
  5
2C732
331
2C717
  5
2C733
331
2C718
  5
2C734
331
2C719
  5
2C735
331
2C71A
  5
2C736
331
2C71B
  5
2C737
331
2C71C
  5
2C738
331
2C71D
  5
2C739
331
2C71E
  5
2C73A
331
2C71F
  5
2C73B
331
2C720
  5
2C73C
331
2C721
  5
2C73D
331
2C722
  5
2C73E
331
2C723
  5
2C73F
331
2C724
  5
2C740
331
2C725
  5
2C741
331
2C726
  5
2C742
331
2C727
  5
2C746
331
2C728
  5
2C747
331
2C729
  5
2C748
331
2C72A
  5
2C749
331
2C72B
  5
2C74A
331
2C72C
  5
2C74B
331
2C72D
  5
2C74C
331
2C72E
  5
2C74D
331
2C72F
  5
2C74E
331
2C730
  5
2C74F
331
2C731
  5
2C750
331
2C732
  5
2C751
331
2C733
  5
2C752
331
2C734
  5
2C753
331
2C735
  5
2C754
331
2C736
  5
2C755
331
2C737
  5
2C756
331
2C738
  5
2C757
331
2C739
  5
2C758
331
2C73A
  5
2C759
331
2C73B
  5
2C75A
331
2C73C
  5
2C75B
331
2C73D
  5
2C75C
331
2C73E
  5
2C75D
331
2C73F
  5
2C761
331
2C740
  5
2C762
331
2C741
  5
2C763
331
2C742
  5
2C767
331
2C746
  5
2C789
331
2C747
  5
2C78A
331
2C748
  5
2C78B
331
2C749
  5
2C78D
331
2C74A
  5
2C78E
331
2C74B
  5
2C938
331
2C74C
  5
2C939
331
2C74D
  5
2C93A
331
2C74E
  5
2C93B
331
2C74F
  5
2C93C
331
2C750
  5
2C93D
331
2C751
  5
2C93E
331
2C752
  5
2C93F
331
2C753
  5
2C940
331
2C754
  5
2C941
331
2C755
  5
2C942
331
2C756
  5
2C943
331
2C757
  5
2C944
331
2C758
  5
2C945
331
2C759
  5
2C946
331
2C75A
  5
2C947
331
2C75B
  5
2C948
331
2C75C
  5
2C949
331
2C75D
  5
2C94A
331
2C75E
  5
2C94B
331
2C75F
  5
2C94C
331
2C760
  5
2C94D
331
2C761
  5
2C94E
331
2C762
  5
2C94F
331
2C763
  5
2C950
331
2C764
  5
2C951
331
2C765
  5
2C9B7
331
2C766
  5
2C9B8
331
2C767
  5
2C9B9
331
2C768
  5
2C9BB
331
2C769
  5
2C9BC
331
2C76A
  5
2CA50
331
2C76B
  5
2CA51
331
2C76C
  5
2CA52
331
2C76D
  5
2CAD7
331
2C76E
  5
2CAD8
331
2C76F
  5
2CAD9
331
2C770
  5
2CADA
331
2C771
  5
2CADB
331
2C772
  5
2CADC
331
2C773
  5
2CAE0
331
2C774
  5
2CAE1
331
2C775
  5
2CAE2
331
2C776
  5
2CAE3
331
2C777
  5
2CAE4
331
2C778
  5
2CAE5
331
2C779
  5
2CAE6
331
2C77A
  5
2CAE7
331
2C77B
  5
2CAE8
331
2C77C
  5
2CAE9
331
2C77D
  5
2CAED
331
2C77E
  5
2CAEE
331
2C77F
  5
2CAEF
331
2C780
  5
2CAF3
331
2C781
  5
2CAF4
331
2C782
  5
2CAF5
331
2C783
  5
2CAF6
331
2C784
  5
2CAF7
331
2C785
  5
2CAF8
331
2C786
  5
2CAF9
331
2C787
  5
2CAFA
331
2C788
  5
2CAFB
331
2C789
  5
2CAFC
331
2C78A
  5
2CAFD
331
2C78B
  5
2CAFE
331
2C78D
  5
2CB09
331
2C78E
  5
2CB0A
331
2C938
  5
2CB35
331
2C939
  5
2CB36
331
2C93A
  5
2CB3A
331
2C93B
  5
2CB3B
331
2C93C
  5
2CB3C
331
2C93D
  5
2CB3D
331
2C93E
  5
2CB3E
331
2C93F
  5
2CB3F
331
2C940
  5
2CB40
331
2C941
  5
2CB41
331
2C942
  5
2CB42
331
2C943
  5
2CB43
331
2C944
  5
2CB44
331
2C945
  5
2CB45
331
2C946
  5
2CB46
331
2C947
  5
2CB47
331
2C948
  5
2CB48
331
2C949
  5
2CB49
331
2C94A
  5
2CB4A
331
2C94B
  5
2CB4B
331
2C94C
  5
2CB4C
331
2C94D
  5
2CB4D
331
2C94E
  5
2CB4E
331
2C94F
  5
2CB4F
331
2C950
  5
2CB50
331
2C951
  5
2CB51
331
2C9B7
  5
2CB52
331
2C9B8
  5
2CB53
331
2C9B9
  5
2CB54
331
2C9BB
  5
2CB5F
331
2C9BC
  5
2CB60
331
2CA50
  5
2CB7A
331
2CA51
  5
2CB7B
331
2CA52
  5
2CB7C
331
2CAD7
  5
2C659
331
2CAD8
  5
2C65A
331
2CAD9
  5
2C65B
331
0
  5
2C65C
331
0
  5
2C65D
331
0
  5
2C65E
331
2CADD
  5
2C666
331
2CADE
  5
2C667
331
2CADF
  5
2C668
331
2CAE0
  5
2C66D
331
2CAE1
  5
2C66E
331
2CAE2
  5
2C67F
331
2CAE3
  5
2C680
331
2CAE4
  5
2C681
331
2CAE5
  5
2C682
331
2CAE6
  5
2C683
331
2CAE7
  5
2C684
331
2CAE8
  5
2C685
331
2CAE9
  5
2C686
331
2CAEA
  5
2C687
331
2CAEB
  5
2C688
331
2CAEC
  5
2C768
331
2CAED
  5
2C769
331
2CAEE
  5
2C76D
331
0
  5
2C75E
331
0
  5
2C75F
331
0
  5
2C760
331
2CAF2
  5
2C775
331
2CAF3
  5
2C776
331
2CAF4
  5
2C777
331
0
  5
2C764
331
0
  5
2C765
331
0
  5
2C766
331
2CAF8
  5
2C77F
331
2CAF9
  5
2C780
331
2CAFA
  5
2C781
331
0
  5
2C76A
331
0
  5
2C76B
331
0
  5
2C76C
331
2CAFE
  5
2CAFF
331
2CAFF
  5
2CB00
331
2CB00
  5
2CB01
331
0
  5
2CADD
331
0
  5
2CADE
331
0
  5
2CADF
331
2CB04
  5
2CB0B
331
2CB05
  5
2CB0C
331
2CB06
  5
2CB0D
331
2CB07
  5
2CB0E
331
2CB08
  5
2CB0F
331
2CB09
  5
2CB10
331
2CB0A
  5
2CB11
331
2CB0B
  5
2CB12
331
0
  5
2CAEA
331
0
  5
2CAEB
331
0
  5
2CAEC
331
2CB0F
  5
2CB1A
331
2CB10
  5
2CB1E
331
2CB11
  5
2CB1F
331
0
  5
2CAF0
331
0
  5
2CAF1
331
0
  5
2CAF2
331
2CB15
  5
2CB27
331
2CB16
  5
2CB2B
331
2CB17
  5
2CB2C
331
2CB18
  5
2CB2D
331
2CB19
  5
2CB31
331
2CB1A
  5
2CB32
331
2CB1B
  5
2CB33
331
2CB1C
  5
2CB34
331
2CB1D
  5
2CB55
331
2CB1E
  5
2CB56
331
2CB1F
  5
2CB57
331
0
  5
2CB1B
331
0
  5
2CB1C
331
0
  5
2CB1D
331
2CB23
  5
2CB61
331
2CB24
  5
2CB62
331
2CB25
  5
2CB63
331
2CB26
  5
2CB64
331
2CB27
  5
2CB65
331
2CB28
  5
2CB66
331
2CB29
  5
2CB67
331
2CB2A
  5
2CB68
331
0
  5
2CB28
331
0
  5
2CB29
331
0
  5
2CB2A
331
2CB2E
  5
2CB70
331
2CB2F
  5
2CB71
331
2CB30
  5
2CB72
331
0
  5
2CB2E
331
0
  5
2CB2F
331
0
  5
2CB30
331
2CB34
  5
2CB7D
331
2CB35
  5
2CB7E
331
2CB36
  5
2CB7F
331
2CB3A
  5
2C65F
331
2CB3B
  5
2C660
331
2CB3C
  5
2C661
331
2CB3D
  5
2C662
331
2CB3E
  5
2C663
331
2CB3F
  5
2C664
331
2CB40
  5
2C665
331
2CB41
  5
2C76E
331
2CB42
  5
2C76F
331
2CB43
  5
2C770
331
2CB44
  5
2C771
331
2CB45
  5
2C772
331
2CB46
  5
2C773
331
2CB47
  5
2C774
331
2CB48
  5
2C778
331
2CB49
  5
2C779
331
2CB4A
  5
2C77A
331
2CB4B
  5
2C77B
331
2CB4C
  5
2C77C
331
2CB4D
  5
2C77D
331
2CB4E
  5
2C77E
331
2CB4F
  5
2C782
331
2CB50
  5
2C783
331
2CB51
  5
2C784
331
2CB52
  5
2C785
331
2CB53
  5
2C786
331
2CB54
  5
2C787
331
2CB55
  5
2C788
331
2CB56
  5
2CB02
331
2CB57
  5
2CB03
331
2CB58
  5
2CB04
331
2CB59
  5
2CB05
331
2CB5A
  5
2CB06
331
2CB5B
  5
2CB07
331
2CB5C
  5
2CB08
331
2CB5D
  5
2CB13
331
2CB5E
  5
2CB14
331
2CB5F
  5
2CB15
331
2CB60
  5
2CB16
331
2CB61
  5
2CB17
331
2CB62
  5
2CB18
331
2CB63
  5
2CB19
331
2CB64
  5
2CB20
331
2CB65
  5
2CB21
331
2CB66
  5
2CB22
331
2CB67
  5
2CB23
331
2CB68
  5
2CB24
331
2CB69
  5
2CB25
331
2CB6A
  5
2CB26
331
2CB6B
  5
2CB58
331
2CB6C
  5
2CB59
331
2CB6D
  5
2CB5A
331
2CB6E
  5
2CB5B
331
2CB6F
  5
2CB5C
331
2CB70
  5
2CB5D
331
2CB71
  5
2CB5E
331
2CB72
  5
2CB69
331
2CB73
  5
2CB6A
331
2CB74
  5
2CB6B
331
2CB75
  5
2CB6C
331
2CB76
  5
2CB6D
331
2CB77
  5
2CB6E
331
2CB78
  5
2CB6F
331
2CB79
  5
2CB73
331
2CB7A
  5
2CB74
331
2CB7B
  5
2CB75
331
2CB7C
  5
2CB76
331
2CB7D
  5
2CB77
331
2CB7E
  5
2CB78
331
2CB7F
  5
2CB79
  0
SORTENTSTABLE
  5
59C
102
{ACAD_REACTORS
330
59B
102
}
330
59B
100
AcDbSortentsTable
330
15
331
57
  5
57
331
0
  5
70
331
0
  5
15E0C
331
0
  5
15E0D
331
0
  5
15E0E
331
0
  5
15E0F
331
0
  5
15E10
331
0
  5
15E11
331
0
  5
15E12
331
0
  5
15E13
331
0
  5
15E14
331
0
  5
15E15
331
0
  5
15E16
331
0
  5
15E17
331
0
  5
15E18
331
0
  5
15E19
331
0
  5
15E1A
331
0
  5
15FEC
331
0
  5
15FED
331
0
  5
15FEE
331
0
  5
15FEF
331
0
  5
15E1C
331
0
  5
15E1D
331
0
  5
15E1E
331
0
  5
15E1F
331
0
  5
15E20
331
0
  5
15E21
331
0
  5
15E22
331
0
  5
15E23
331
0
  5
15E24
331
0
  5
15E25
331
0
  5
15E26
331
0
  5
15E27
331
0
  5
15E28
331
0
  5
15E29
331
0
  5
15E2A
331
0
  5
15E2B
331
0
  5
15E2C
331
0
  5
15E2D
331
0
  5
15E2E
331
0
  5
15E2F
331
0
  5
15E30
331
0
  5
15E31
331
0
  5
15E32
331
0
  5
15E33
331
0
  5
15E34
331
0
  5
15E35
331
0
  5
15E36
331
0
  5
15E37
331
0
  5
15E38
331
0
  5
15E39
331
0
  5
15E3A
331
0
  5
15E3B
331
0
  5
15E3C
331
0
  5
15E3D
331
0
  5
15E3E
331
0
  5
15E3F
331
0
  5
15E40
331
0
  5
15E41
331
0
  5
15E42
331
0
  5
15E43
331
0
  5
15E44
331
0
  5
15E45
331
0
  5
15E46
331
0
  5
15E47
331
0
  5
15E48
331
0
  5
15E49
331
0
  5
15E4A
331
0
  5
15E4B
331
0
  5
15E4C
331
0
  5
15E4D
331
0
  5
15E4E
331
0
  5
15E4F
331
0
  5
15E50
331
0
  5
15E51
331
0
  5
15E52
331
0
  5
15E53
331
0
  5
15E54
331
0
  5
15E55
331
0
  5
15E56
331
0
  5
15E57
331
0
  5
15E58
331
0
  5
15E59
331
0
  5
15E5A
331
0
  5
15E5B
331
0
  5
15E5C
331
0
  5
15FCD
331
0
  5
15FCE
331
0
  5
15FCF
331
0
  5
15FD0
331
0
  5
15FD1
331
0
  5
15FD2
331
0
  5
15FD3
331
0
  5
15FD4
331
0
  5
15FD5
331
0
  5
15FD6
331
0
  5
15FD7
331
0
  5
15FD8
331
0
  5
15FD9
331
0
  5
15FDA
331
0
  5
15FDB
331
0
  5
15FDC
331
0
  5
15FDD
331
0
  5
15FDE
331
0
  5
15FDF
331
0
  5
15FE0
331
0
  5
15FE1
331
0
  5
15FE2
331
0
  5
15FE3
331
0
  5
15FE4
331
0
  5
15FE5
331
0
  5
15FE6
331
0
  5
15FE7
331
0
  5
15FE8
331
0
  5
15FE9
331
0
  5
15FEA
331
0
  5
15FEB
331
0
  5
15F8E
331
0
  5
15F8F
331
0
  5
15F90
331
0
  5
15F91
331
0
  5
15F92
331
0
  5
15F93
331
0
  5
15F94
331
0
  5
15F95
331
0
  5
15F96
331
0
  5
15F97
331
0
  5
15F98
331
0
  5
15F99
331
0
  5
15F9A
331
0
  5
15F9B
331
0
  5
15F9C
331
0
  5
15F9D
331
0
  5
15F9E
331
0
  5
15F9F
331
0
  5
15FA0
331
0
  5
15FA1
331
0
  5
15FA2
331
0
  5
15FA3
331
0
  5
15FA4
331
0
  5
15FA5
331
0
  5
15FA6
331
0
  5
15FA7
331
0
  5
15FA8
331
0
  5
15FA9
331
0
  5
15FAA
331
0
  5
15FAB
331
0
  5
15FAC
331
0
  5
15FAD
331
0
  5
15FAE
331
0
  5
15FAF
331
0
  5
15FB0
331
0
  5
15FB1
331
0
  5
15FB2
331
0
  5
15FB3
331
0
  5
15FB4
331
0
  5
15FB5
331
0
  5
15FB6
331
0
  5
15FB7
331
0
  5
15FB8
331
0
  5
15FB9
331
0
  5
15FBA
331
0
  5
15FBB
331
0
  5
15FBC
331
0
  5
15FBD
331
0
  5
15FBE
331
0
  5
15FBF
331
0
  5
15FC0
331
0
  5
15FC1
331
0
  5
15FC2
331
0
  5
15FC3
331
0
  5
15FC4
331
0
  5
15FC5
331
0
  5
15FC6
331
0
  5
15FC7
331
0
  5
15FC8
331
0
  5
15FC9
331
0
  5
15FCA
331
0
  5
15FCB
331
0
  5
15FCC
331
0
  5
15F51
331
0
  5
15F52
331
0
  5
15F53
331
0
  5
15F54
331
0
  5
15F55
331
0
  5
15F56
331
0
  5
15F57
331
0
  5
15F58
331
0
  5
15F59
331
0
  5
15F5A
331
0
  5
15F5B
331
0
  5
15F5C
331
0
  5
15F5D
331
0
  5
15F5E
331
0
  5
15F5F
331
0
  5
15F60
331
0
  5
15F61
331
0
  5
15F62
331
0
  5
15F63
331
0
  5
15F64
331
0
  5
15F65
331
0
  5
15F66
331
0
  5
15F67
331
0
  5
15F68
331
0
  5
15F69
331
0
  5
15F6A
331
0
  5
15F6B
331
0
  5
15F6C
331
0
  5
15F6D
331
0
  5
15F6E
331
0
  5
15F6F
331
0
  5
15F70
331
0
  5
15F71
331
0
  5
15F72
331
0
  5
15F73
331
0
  5
15F74
331
0
  5
15F75
331
0
  5
15F76
331
0
  5
15F77
331
0
  5
15F78
331
0
  5
15F79
331
0
  5
15F7A
331
0
  5
15F7B
331
0
  5
15F7C
331
0
  5
15F7D
331
0
  5
15F7E
331
0
  5
15F7F
331
0
  5
15F80
331
0
  5
15F81
331
0
  5
15F82
331
0
  5
15F83
331
0
  5
15F84
331
0
  5
15F85
331
0
  5
15F86
331
0
  5
15F87
331
0
  5
15F88
331
0
  5
15F89
331
0
  5
15F8A
331
0
  5
15F8B
331
0
  5
15F8C
331
0
  5
15F8D
331
0
  5
15F01
331
0
  5
15F02
331
0
  5
15F03
331
0
  5
15F04
331
0
  5
15F05
331
0
  5
15F06
331
0
  5
15F07
331
0
  5
15F08
331
0
  5
15F09
331
0
  5
15F0A
331
0
  5
15F0B
331
0
  5
15F0C
331
0
  5
15F0D
331
0
  5
15F0E
331
0
  5
15F0F
331
0
  5
15F10
331
0
  5
15F11
331
0
  5
15F12
331
0
  5
15F13
331
0
  5
15F14
331
0
  5
15F15
331
0
  5
15F16
331
0
  5
15F17
331
0
  5
15F18
331
0
  5
15F19
331
0
  5
15F1A
331
0
  5
15F1B
331
0
  5
15F1C
331
0
  5
15F1D
331
0
  5
15F1E
331
0
  5
15F1F
331
0
  5
15F20
331
0
  5
15F21
331
0
  5
15F22
331
0
  5
15F23
331
0
  5
15F24
331
0
  5
15F25
331
0
  5
15F26
331
0
  5
15F27
331
0
  5
15F28
331
0
  5
15F29
331
0
  5
15F2A
331
0
  5
15F2B
331
0
  5
15F2C
331
0
  5
15F2D
331
0
  5
15F2E
331
0
  5
15F2F
331
0
  5
15F30
331
0
  5
15F31
331
0
  5
15F32
331
0
  5
15F33
331
0
  5
15F34
331
0
  5
15F35
331
0
  5
15F36
331
0
  5
15F37
331
0
  5
15F38
331
0
  5
15F39
331
0
  5
15F3A
331
0
  5
15F3B
331
0
  5
15F3C
331
0
  5
15F3D
331
0
  5
15F3E
331
0
  5
15F3F
331
0
  5
15F40
331
0
  5
15F41
331
0
  5
15F42
331
0
  5
15F43
331
0
  5
15F44
331
0
  5
15F45
331
0
  5
15F46
331
0
  5
15F47
331
0
  5
15F48
331
0
  5
15F49
331
0
  5
15F4A
331
0
  5
15F4B
331
0
  5
15F4C
331
0
  5
15F4D
331
0
  5
15F4E
331
0
  5
15F4F
331
0
  5
15F50
331
0
  5
15EB0
331
0
  5
15EB1
331
0
  5
15EB2
331
0
  5
15EB3
331
0
  5
15EB4
331
0
  5
15EB5
331
0
  5
15EB6
331
0
  5
15EB7
331
0
  5
15EB8
331
0
  5
15EB9
331
0
  5
15EBA
331
0
  5
15EBB
331
0
  5
15EBC
331
0
  5
15EBD
331
0
  5
15EBE
331
0
  5
15EBF
331
0
  5
15EC0
331
0
  5
15EC1
331
0
  5
15EC2
331
0
  5
15EC3
331
0
  5
15EC4
331
0
  5
15EC5
331
0
  5
15EC6
331
0
  5
15EC7
331
0
  5
15EC8
331
0
  5
15EC9
331
0
  5
15ECA
331
0
  5
15ECB
331
0
  5
15ECC
331
0
  5
15ECD
331
0
  5
15ECE
331
0
  5
15ECF
331
0
  5
15ED0
331
0
  5
15ED1
331
0
  5
15ED2
331
0
  5
15ED3
331
0
  5
15ED4
331
0
  5
15ED5
331
0
  5
15ED6
331
0
  5
15ED7
331
0
  5
15ED8
331
0
  5
15ED9
331
0
  5
15EDA
331
0
  5
15EDB
331
0
  5
15EDC
331
0
  5
15EDD
331
0
  5
15EDE
331
0
  5
15EDF
331
0
  5
15EE0
331
0
  5
15EE1
331
0
  5
15EE2
331
0
  5
15EE3
331
0
  5
15EE4
331
0
  5
15EE5
331
0
  5
15EE6
331
0
  5
15EE7
331
0
  5
15EE8
331
0
  5
15EE9
331
0
  5
15EEA
331
0
  5
15EEB
331
0
  5
15EEC
331
0
  5
15EED
331
0
  5
15EEE
331
0
  5
15EEF
331
0
  5
15EF0
331
0
  5
15EF1
331
0
  5
15EF2
331
0
  5
15EF3
331
0
  5
15EF4
331
0
  5
15EF5
331
0
  5
15EF6
331
0
  5
15EF7
331
0
  5
15EF8
331
0
  5
15EF9
331
0
  5
15EFA
331
0
  5
15EFB
331
0
  5
15EFC
331
0
  5
15EFD
331
0
  5
15EFE
331
0
  5
15EFF
331
0
  5
15F00
331
0
  5
15E63
331
0
  5
15E64
331
0
  5
15E65
331
0
  5
15E66
331
0
  5
15E67
331
0
  5
15E68
331
0
  5
15E69
331
0
  5
15E6A
331
0
  5
15E6B
331
0
  5
15E6C
331
0
  5
15E6D
331
0
  5
15E6E
331
0
  5
15E6F
331
0
  5
15E70
331
0
  5
15E71
331
0
  5
15E72
331
0
  5
15E73
331
0
  5
15E74
331
0
  5
15E75
331
0
  5
15E76
331
0
  5
15E77
331
0
  5
15E78
331
0
  5
15E79
331
0
  5
15E7A
331
0
  5
15E7B
331
0
  5
15E7C
331
0
  5
15E7D
331
0
  5
15E7E
331
0
  5
15E7F
331
0
  5
15E80
331
0
  5
15E81
331
0
  5
15E82
331
0
  5
15E83
331
0
  5
15E84
331
0
  5
15E85
331
0
  5
15E86
331
0
  5
15E87
331
0
  5
15E88
331
0
  5
15E89
331
0
  5
15E8A
331
0
  5
15E8B
331
0
  5
15E8C
331
0
  5
15E8D
331
0
  5
15E8E
331
0
  5
15E8F
331
0
  5
15E90
331
0
  5
15E91
331
0
  5
15E92
331
0
  5
15E93
331
0
  5
15E94
331
0
  5
15E95
331
0
  5
15E96
331
0
  5
15E97
331
0
  5
15E98
331
0
  5
15E99
331
0
  5
15E9A
331
0
  5
15E9B
331
0
  5
15E9C
331
0
  5
15E9D
331
0
  5
15E9E
331
0
  5
15E9F
331
0
  5
15EA0
331
0
  5
15EA1
331
0
  5
15EA2
331
0
  5
15EA3
331
0
  5
15EA4
331
0
  5
15EA5
331
0
  5
15EA6
331
0
  5
15EA7
331
0
  5
15EA8
331
0
  5
15EA9
331
0
  5
15EAA
331
0
  5
15EAB
331
0
  5
15EAC
331
0
  5
15EAD
331
0
  5
15EAE
331
0
  5
15EAF
  0
MATERIAL
  5
15B55
102
{ACAD_REACTORS
330
2CF
102
}
102
{ACAD_XDICTIONARY
360
2CB91
102
}
330
2CF
100
AcDbMaterial
  1
BYBLOCK
 72
     0
 73
     2
 43
0.0208333333333333
 43
0.0
 43
0.0
 43
0.0
 43
0.0
 43
0.0208333333333333
 43
0.0
 43
0.0
 43
0.0
 43
0.0
 43
1.0
 43
0.0
 43
0.0
 43
0.0
 43
0.0
 43
1.0
 77
     0
 78
     2
 47
0.0208333333333333
 47
0.0
 47
0.0
 47
0.0
 47
0.0
 47
0.0208333333333333
 47
0.0
 47
0.0
 47
0.0
 47
0.0
 47
1.0
 47
0.0
 47
0.0
 47
0.0
 47
0.0
 47
1.0
171
     0
172
     2
 49
0.0208333333333333
 49
0.0
 49
0.0
 49
0.0
 49
0.0
 49
0.0208333333333333
 49
0.0
 49
0.0
 49
0.0
 49
0.0
 49
1.0
 49
0.0
 49
0.0
 49
0.0
 49
0.0
 49
1.0
175
     0
176
     2
142
0.0208333333333333
142
0.0
142
0.0
142
0.0
142
0.0
142
0.0208333333333333
142
0.0
142
0.0
142
0.0
142
0.0
142
1.0
142
0.0
142
0.0
142
0.0
142
0.0
142
1.0
179
     0
270
     2
144
0.0208333333333333
144
0.0
144
0.0
144
0.0
144
0.0
144
0.0208333333333333
144
0.0
144
0.0
144
0.0
144
0.0
144
1.0
144
0.0
144
0.0
144
0.0
144
0.0
144
1.0
274
     2
147
0.0208333333333333
147
0.0
147
0.0
147
0.0
147
0.0
147
0.0208333333333333
147
0.0
147
0.0
147
0.0
147
0.0
147
1.0
147
0.0
147
0.0
147
0.0
147
0.0
147
1.0
  0
MATERIAL
  5
15B4D
102
{ACAD_REACTORS
330
2CF
102
}
102
{ACAD_XDICTIONARY
360
2CB93
102
}
330
2CF
100
AcDbMaterial
  1
BYLAYER
 72
     0
 73
     2
 43
0.0208333333333333
 43
0.0
 43
0.0
 43
0.0
 43
0.0
 43
0.0208333333333333
 43
0.0
 43
0.0
 43
0.0
 43
0.0
 43
1.0
 43
0.0
 43
0.0
 43
0.0
 43
0.0
 43
1.0
 77
     0
 78
     2
 47
0.0208333333333333
 47
0.0
 47
0.0
 47
0.0
 47
0.0
 47
0.0208333333333333
 47
0.0
 47
0.0
 47
0.0
 47
0.0
 47
1.0
 47
0.0
 47
0.0
 47
0.0
 47
0.0
 47
1.0
171
     0
172
     2
 49
0.0208333333333333
 49
0.0
 49
0.0
 49
0.0
 49
0.0
 49
0.0208333333333333
 49
0.0
 49
0.0
 49
0.0
 49
0.0
 49
1.0
 49
0.0
 49
0.0
 49
0.0
 49
0.0
 49
1.0
175
     0
176
     2
142
0.0208333333333333
142
0.0
142
0.0
142
0.0
142
0.0
142
0.0208333333333333
142
0.0
142
0.0
142
0.0
142
0.0
142
1.0
142
0.0
142
0.0
142
0.0
142
0.0
142
1.0
179
     0
270
     2
144
0.0208333333333333
144
0.0
144
0.0
144
0.0
144
0.0
144
0.0208333333333333
144
0.0
144
0.0
144
0.0
144
0.0
144
1.0
144
0.0
144
0.0
144
0.0
144
0.0
144
1.0
274
     2
147
0.0208333333333333
147
0.0
147
0.0
147
0.0
147
0.0
147
0.0208333333333333
147
0.0
147
0.0
147
0.0
147
0.0
147
1.0
147
0.0
147
0.0
147
0.0
147
0.0
147
1.0
  0
MATERIAL
  5
15B5D
102
{ACAD_REACTORS
330
2CF
102
}
102
{ACAD_XDICTIONARY
360
2CB95
102
}
330
2CF
100
AcDbMaterial
  1
GLOBAL
 72
     0
 73
     2
 43
0.0208333333333333
 43
0.0
 43
0.0
 43
0.0
 43
0.0
 43
0.0208333333333333
 43
0.0
 43
0.0
 43
0.0
 43
0.0
 43
1.0
 43
0.0
 43
0.0
 43
0.0
 43
0.0
 43
1.0
 77
     0
 78
     2
 47
0.0208333333333333
 47
0.0
 47
0.0
 47
0.0
 47
0.0
 47
0.0208333333333333
 47
0.0
 47
0.0
 47
0.0
 47
0.0
 47
1.0
 47
0.0
 47
0.0
 47
0.0
 47
0.0
 47
1.0
171
     0
172
     2
 49
0.0208333333333333
 49
0.0
 49
0.0
 49
0.0
 49
0.0
 49
0.0208333333333333
 49
0.0
 49
0.0
 49
0.0
 49
0.0
 49
1.0
 49
0.0
 49
0.0
 49
0.0
 49
0.0
 49
1.0
175
     0
176
     2
142
0.0208333333333333
142
0.0
142
0.0
142
0.0
142
0.0
142
0.0208333333333333
142
0.0
142
0.0
142
0.0
142
0.0
142
1.0
142
0.0
142
0.0
142
0.0
142
0.0
142
1.0
179
     0
270
     2
144
0.0208333333333333
144
0.0
144
0.0
144
0.0
144
0.0
144
0.0208333333333333
144
0.0
144
0.0
144
0.0
144
0.0
144
1.0
144
0.0
144
0.0
144
0.0
144
0.0
144
1.0
274
     2
147
0.0208333333333333
147
0.0
147
0.0
147
0.0
147
0.0
147
0.0208333333333333
147
0.0
147
0.0
147
0.0
147
0.0
147
1.0
147
0.0
147
0.0
147
0.0
147
0.0
147
1.0
  0
ACAD_PROXY_OBJECT
  5
15B99
102
{ACAD_REACTORS
330
15B98
102
}
330
15B98
100
AcDbZombieObject
 90
      499
 91
      512
 93
      610
310
40901902A4063FBFFFFFE000000000000002040AD7A3703D0AD73F4214DD185B99185C990000000000000104090141901A00000000000004100000000000000041025764000000000000300FC0
340
12
340
0
340
F
340
0
 94
        0
1001
ACAD_MLEADERVER
1070
     2
  0
MLINESTYLE
  5
1C
102
{ACAD_REACTORS
330
1B
102
}
330
1B
100
AcDbMlineStyle
  2
STANDARD
 70
     0
  3

 62
   256
 51
90.0
 52
90.0
 71
     2
 49
0.5
 62
   256
  6
BYLAYER
 49
-0.5
 62
   256
  6
BYLAYER
  0
ACAD_PROXY_OBJECT
  5
15B77
102
{ACAD_REACTORS
330
15B76
102
}
330
15B76
100
AcDbZombieObject
 90
      499
 91
      511
 93
       41
310
903313A31580
  0
ACAD_PROXY_OBJECT
  5
15B78
102
{ACAD_REACTORS
330
15B76
102
}
330
15B76
100
AcDbZombieObject
 90
      499
 91
      511
 93
      105
310
903313A324000000000000004000
  0
ACAD_PROXY_OBJECT
  5
15B79
102
{ACAD_REACTORS
330
15B76
102
}
330
15B76
100
AcDbZombieObject
 90
      499
 91
      511
 93
      105
310
903313A344000000000000104000
  0
ACAD_PROXY_OBJECT
  5
15B7A
102
{ACAD_REACTORS
330
15B76
102
}
330
15B76
100
AcDbZombieObject
 90
      499
 91
      511
 93
      105
310
903313A354000000000000144000
  0
ACAD_PROXY_OBJECT
  5
15B7B
102
{ACAD_REACTORS
330
15B76
102
}
330
15B76
100
AcDbZombieObject
 90
      499
 91
      511
 93
      105
310
903313A384000000000000204000
  0
ACAD_PROXY_OBJECT
  5
15B7C
102
{ACAD_REACTORS
330
15B76
102
}
330
15B76
100
AcDbZombieObject
 90
      499
 91
      511
 93
      113
310
904313A31304000000000000244000
  0
ACAD_PROXY_OBJECT
  5
15B7D
102
{ACAD_REACTORS
330
15B76
102
}
330
15B76
100
AcDbZombieObject
 90
      499
 91
      511
 93
      113
310
904313A31364000000000000304000
  0
ACAD_PROXY_OBJECT
  5
15B7E
102
{ACAD_REACTORS
330
15B76
102
}
330
15B76
100
AcDbZombieObject
 90
      499
 91
      511
 93
      113
310
904313A32304000000000000344000
  0
ACAD_PROXY_OBJECT
  5
15B7F
102
{ACAD_REACTORS
330
15B76
102
}
330
15B76
100
AcDbZombieObject
 90
      499
 91
      511
 93
      113
310
904313A333040000000000003E4000
  0
ACAD_PROXY_OBJECT
  5
15B80
102
{ACAD_REACTORS
330
15B76
102
}
330
15B76
100
AcDbZombieObject
 90
      499
 91
      511
 93
      113
310
904313A34304000000000000444000
  0
ACAD_PROXY_OBJECT
  5
15B81
102
{ACAD_REACTORS
330
15B76
102
}
330
15B76
100
AcDbZombieObject
 90
      499
 91
      511
 93
      113
310
904313A35304000000000000494000
  0
ACAD_PROXY_OBJECT
  5
15B82
102
{ACAD_REACTORS
330
15B76
102
}
330
15B76
100
AcDbZombieObject
 90
      499
 91
      511
 93
      121
310
905313A3130304000000000000594000
  0
ACAD_PROXY_OBJECT
  5
15B83
102
{ACAD_REACTORS
330
15B76
102
}
330
15B76
100
AcDbZombieObject
 90
      499
 91
      511
 93
      105
310
903323A310000000000000010100
  0
ACAD_PROXY_OBJECT
  5
15B84
102
{ACAD_REACTORS
330
15B76
102
}
330
15B76
100
AcDbZombieObject
 90
      499
 91
      511
 93
      105
310
903343A310000000000000410100
  0
ACAD_PROXY_OBJECT
  5
15B85
102
{ACAD_REACTORS
330
15B76
102
}
330
15B76
100
AcDbZombieObject
 90
      499
 91
      511
 93
      105
310
903383A310000000000000810100
  0
ACAD_PROXY_OBJECT
  5
15B86
102
{ACAD_REACTORS
330
15B76
102
}
330
15B76
100
AcDbZombieObject
 90
      499
 91
      511
 93
      113
310
90431303A310000000000000910100
  0
ACAD_PROXY_OBJECT
  5
15B87
102
{ACAD_REACTORS
330
15B76
102
}
330
15B76
100
AcDbZombieObject
 90
      499
 91
      511
 93
      121
310
9053130303A310000000000001650100
  0
ACAD_PROXY_OBJECT
  5
15B88
102
{ACAD_REACTORS
330
15B76
102
}
330
15B76
100
AcDbZombieObject
 90
      499
 91
      511
 93
      257
310
90E312F31323822203D2031272D3022000000000000200FC000000000000284000
  0
ACAD_PROXY_OBJECT
  5
15B89
102
{ACAD_REACTORS
330
15B76
102
}
330
15B76
100
AcDbZombieObject
 90
      499
 91
      511
 93
      249
310
90D312F363422203D2031272D3022000000000000240FC000000000000284000
  0
ACAD_PROXY_OBJECT
  5
15B8A
102
{ACAD_REACTORS
330
15B76
102
}
330
15B76
100
AcDbZombieObject
 90
      499
 91
      511
 93
      249
310
90D312F333222203D2031272D3022000000000000280FC000000000000284000
  0
ACAD_PROXY_OBJECT
  5
15B8B
102
{ACAD_REACTORS
330
15B76
102
}
330
15B76
100
AcDbZombieObject
 90
      499
 91
      511
 93
      249
310
90D312F313622203D2031272D30220000000000002C0FC000000000000284000
  0
ACAD_PROXY_OBJECT
  5
15B8C
102
{ACAD_REACTORS
330
15B76
102
}
330
15B76
100
AcDbZombieObject
 90
      499
 91
      511
 93
      249
310
90D332F333222203D2031272D30220000000000002E0FC000000000000284000
  0
ACAD_PROXY_OBJECT
  5
15B8D
102
{ACAD_REACTORS
330
15B76
102
}
330
15B76
100
AcDbZombieObject
 90
      499
 91
      511
 93
      241
310
90C312F3822203D2031272D3022000000000000300FC000000000000284000
  0
ACAD_PROXY_OBJECT
  5
15B8E
102
{ACAD_REACTORS
330
15B76
102
}
330
15B76
100
AcDbZombieObject
 90
      499
 91
      511
 93
      249
310
90D332F313622203D2031272D3022000000000000320FC000000000000284000
  0
ACAD_PROXY_OBJECT
  5
15B8F
102
{ACAD_REACTORS
330
15B76
102
}
330
15B76
100
AcDbZombieObject
 90
      499
 91
      511
 93
      241
310
90C312F3422203D2031272D3022000000000000340FC000000000000284000
  0
ACAD_PROXY_OBJECT
  5
15B90
102
{ACAD_REACTORS
330
15B76
102
}
330
15B76
100
AcDbZombieObject
 90
      499
 91
      511
 93
      241
310
90C332F3822203D2031272D3022000000000000360FC000000000000284000
  0
ACAD_PROXY_OBJECT
  5
15B91
102
{ACAD_REACTORS
330
15B76
102
}
330
15B76
100
AcDbZombieObject
 90
      499
 91
      511
 93
      241
310
90C312F3222203D2031272D3022000000000000380FC000000000000284000
  0
ACAD_PROXY_OBJECT
  5
15B92
102
{ACAD_REACTORS
330
15B76
102
}
330
15B76
100
AcDbZombieObject
 90
      499
 91
      511
 93
      241
310
90C332F3422203D2031272D30220000000000003A0FC000000000000284000
  0
ACAD_PROXY_OBJECT
  5
15B93
102
{ACAD_REACTORS
330
15B76
102
}
330
15B76
100
AcDbZombieObject
 90
      499
 91
      511
 93
      161
310
90A3122203D2031272D30224000000000000284000
  0
ACAD_PROXY_OBJECT
  5
15B94
102
{ACAD_REACTORS
330
15B76
102
}
330
15B76
100
AcDbZombieObject
 90
      499
 91
      511
 93
      257
310
90E312D312F3222203D2031272D30220000000000003E0FC000000000000284000
  0
ACAD_PROXY_OBJECT
  5
15B95
102
{ACAD_REACTORS
330
15B76
102
}
330
15B76
100
AcDbZombieObject
 90
      499
 91
      511
 93
      225
310
90A3322203D2031272D302200000000000002100000000000000284000
  0
ACAD_PROXY_OBJECT
  5
15B96
102
{ACAD_REACTORS
330
15B76
102
}
330
15B76
100
AcDbZombieObject
 90
      499
 91
      511
 93
      225
310
90A3622203D2031272D302200000000000006100000000000000284000
  0
ACAD_PROXY_OBJECT
  5
15B97
102
{ACAD_REACTORS
330
15B76
102
}
330
15B76
100
AcDbZombieObject
 90
      499
 91
      511
 93
      249
310
90D31272D3022203D2031272D30220000000000000A100000000000000284000
  0
ACAD_PROXY_OBJECT
  5
15B6B
102
{ACAD_REACTORS
330
15B65
102
}
330
15B65
100
AcDbZombieObject
 90
      499
 91
      510
 93
      436
310
42CC9915DA5C99599C985B595049028333333333333E3BF0000000000000FB0107901411070040501600405405064090741402480A0340
1001
ACAD
1000
AcDbSavedByObjectVersion
1070
     0
  0
ACAD_PROXY_OBJECT
  5
15B6D
102
{ACAD_REACTORS
330
15B65
102
}
330
15B65
100
AcDbZombieObject
 90
      499
 91
      510
 93
      500
310
424CD108121A5919195B90640502408333333333333E3BF0000000000000FB01079024090700405020000000000001110200405405064090740C02480A0340
1001
ACAD
1000
AcDbSavedByObjectVersion
1070
     0
  0
ACAD_PROXY_OBJECT
  5
15B6C
102
{ACAD_REACTORS
330
15B65
102
}
330
15B65
100
AcDbZombieObject
 90
      499
 91
      510
 93
      436
310
42CCD915DA5C99599C985B595059028333333333333E3BF0000000000000FB0107901411070040501600405405064090741402480A0340
1001
ACAD
1000
AcDbSavedByObjectVersion
1070
     0
  0
ACAD_PROXY_OBJECT
  5
15B6A
102
{ACAD_REACTORS
330
15B65
102
}
330
15B65
100
AcDbZombieObject
 90
      499
 91
      510
 93
      388
310
4150985CDA58D07406404333333333333E3BF0000000000000FB0107A41107004050150841D405064090741402480A0350
1001
ACAD
1000
AcDbSavedByObjectVersion
1070
     0
  0
ACAD_PROXY_OBJECT
  5
15B71
102
{ACAD_REACTORS
330
15B65
102
}
330
15B65
100
AcDbZombieObject
 90
      499
 91
      510
 93
      428
310
42109C9A59DA1D195B90C409028333333333333E3BF0000000000000FB010790141107004050150841D405064090741402480A029950
1001
ACAD
1000
AcDbSavedByObjectVersion
1070
     0
  0
ACAD_PROXY_OBJECT
  5
15B75
102
{ACAD_REACTORS
330
15B65
102
}
330
15B65
100
AcDbZombieObject
 90
      499
 91
      510
 93
      452
310
42D0DBDB1BDC90DA185B99D95104090240C333333333333E3BF0000000000000FB0108901411070040501508421405064090741402480A0350
1001
ACAD
1000
AcDbSavedByObjectVersion
1070
     0
  0
ACAD_PROXY_OBJECT
  5
15B6E
102
{ACAD_REACTORS
330
15B65
102
}
330
15B65
100
AcDbZombieObject
 90
      499
 91
      510
 93
      500
310
4290DBDB98D95C1D1D585B10940D028333333333333E3BF0000000000000FB0107902409070040501000000000000111010841D405064090740C02480A0340
1001
ACAD
1000
AcDbSavedByObjectVersion
1070
     0
  0
ACAD_PROXY_OBJECT
  5
15B70
102
{ACAD_REACTORS
330
15B65
102
}
330
15B65
100
AcDbZombieObject
 90
      499
 91
      510
 93
      412
310
40D11A5B50B409028333333333333E3BF0000000000000FB010790141107004050150841D405064090741402480A02677FFFFFD0
1001
ACAD
1000
AcDbSavedByObjectVersion
1070
     0
  0
ACAD_PROXY_OBJECT
  5
1F525
102
{ACAD_REACTORS
330
15B65
102
}
330
15B65
100
AcDbZombieObject
 90
      499
 91
      510
 93
      452
310
43115919D950DBDB1BDC93D999916409028333333333333E3BF0000000000000FB010790141107004050150841D405064090741402480A0350
1001
ACAD
1000
AcDbSavedByObjectVersion
1070
     0
  0
ACAD_PROXY_OBJECT
  5
15B74
102
{ACAD_REACTORS
330
15B65
102
}
330
15B65
100
AcDbZombieObject
 90
      499
 91
      510
 93
      444
310
42D19858D95C185D1D195C9B90F409028333333333333E3BF0000000000000FB010790141107004050150841D405064090741402480A0350
1001
ACAD
1000
AcDbSavedByObjectVersion
1070
     0
  0
ACAD_PROXY_OBJECT
  5
15B66
102
{ACAD_REACTORS
330
15B65
102
}
330
15B65
100
AcDbZombieObject
 90
      499
 91
      510
 93
      388
310
41119B185D240901404333333333333E3BF0000000000000F9010740A41107004050150841D405064090741402480A1B50
1001
ACAD
1000
AcDbSavedByObjectVersion
1070
     0
  0
ACAD_PROXY_OBJECT
  5
15B67
102
{ACAD_REACTORS
330
15B65
102
}
330
15B65
100
AcDbZombieObject
 90
      499
 91
      510
 93
      476
310
43519B185D15DA5D1A115919D95CD0140901404333333333333E3BF0000000000000F9010740901411070040501600405405064090741402480A1B50
1001
ACAD
1000
AcDbSavedByObjectVersion
1070
     0
  0
ACAD_PROXY_OBJECT
  5
15B68
102
{ACAD_REACTORS
330
15B65
102
}
330
15B65
100
AcDbZombieObject
 90
      499
 91
      510
 93
      412
310
41D1DBDD5C985D5910240902404333333333333E3BF0000000000000F9010740A411070040501641D405064090741402480A1B50
1001
ACAD
1000
AcDbSavedByObjectVersion
1070
     0
  0
ACAD_PROXY_OBJECT
  5
15B69
102
{ACAD_REACTORS
330
15B65
102
}
330
15B65
100
AcDbZombieObject
 90
      499
 91
      510
 93
      500
310
4411DBDD5C985D5915DA5D1A115919D95CD0340902404333333333333E3BF0000000000000F9010740901411070040501600405405064090741402480A1B50
1001
ACAD
1000
AcDbSavedByObjectVersion
1070
     0
  0
ACAD_PROXY_OBJECT
  5
2CACD
102
{ACAD_REACTORS
330
15B65
102
}
330
15B65
100
AcDbZombieObject
 90
      499
 91
      510
 93
      476
310
41921A5919195B90640502408333333333333E33F0000000000000F901079024090700405020000000000001110200405405064090740C02480A0340
1001
ACAD
1000
AcDbSavedByObjectVersion
1070
     0
  0
ACAD_PROXY_OBJECT
  5
1F523
102
{ACAD_REACTORS
330
15B65
102
}
330
15B65
100
AcDbZombieObject
 90
      499
 91
      510
 93
      428
310
42529A5D1D195C93D999914409028333333333333E3BF0000000000000FB010790141107004050150A41D405064090741402480A0350
1001
ACAD
1000
AcDbSavedByObjectVersion
1070
     0
  0
ACAD_PROXY_OBJECT
  5
15B73
102
{ACAD_REACTORS
330
15B65
102
}
330
15B65
100
AcDbZombieObject
 90
      499
 91
      510
 93
      444
310
42D31A5B995C185D1D195C9B90E409028333333333333E3BF0000000000000FB010790141107004050750841D405064090741402483A0350
1001
ACAD
1000
AcDbSavedByObjectVersion
1070
     0
  0
ACAD_PROXY_OBJECT
  5
2CAD3
102
{ACAD_REACTORS
330
15B65
102
}
330
15B65
100
AcDbZombieObject
 90
      499
 91
      510
 93
      484
310
42135BD9195B1A5B99D0A409038333333333333E33F0000000000000F901074090290700405010000000000201990108421405064090741402480A1B40
1001
ACAD
1000
AcDbSavedByObjectVersion
1070
     0
  0
ACAD_PROXY_OBJECT
  5
1F524
102
{ACAD_REACTORS
330
15B65
102
}
330
15B65
100
AcDbZombieObject
 90
      499
 91
      510
 93
      444
310
42D3DD995C9A185B99D3D999915409028333333333333E3BF0000000000000FB010790141107004050150941D405064090741402480A0350
1001
ACAD
1000
AcDbSavedByObjectVersion
1070
     0
  0
ACAD_PROXY_OBJECT
  5
15B6F
102
{ACAD_REACTORS
330
15B65
102
}
330
15B65
100
AcDbZombieObject
 90
      499
 91
      510
 93
      420
310
425499585B1A5CDD1A58D08409028333333333333E3BF0000000000000FB01079019070040501508421405064090741402480A1B40
1001
ACAD
1000
AcDbSavedByObjectVersion
1070
     0
  0
ACAD_PROXY_OBJECT
  5
2CAD2
102
{ACAD_REACTORS
330
15B65
102
}
330
15B65
100
AcDbZombieObject
 90
      499
 91
      510
 93
      420
310
4194DA1859195911B40902404333333333333E33F0000000000000F9010740A41107004050150800405405064090840C02480A0B40
1001
ACAD
1000
AcDbSavedByObjectVersion
1070
     0
  0
ACAD_PROXY_OBJECT
  5
2CAD1
102
{ACAD_REACTORS
330
15B65
102
}
330
15B65
100
AcDbZombieObject
 90
      499
 91
      510
 93
      516
310
4454DA18591959081DDA5D1A08195919D95CD1A40902404333333333333E33F0000000000000F901074090142907004050250800405405064090740C02480A0B40
1001
ACAD
1000
AcDbSavedByObjectVersion
1070
     0
  0
ACAD_PROXY_OBJECT
  5
2CACE
102
{ACAD_REACTORS
330
15B65
102
}
330
15B65
100
AcDbZombieObject
 90
      499
 91
      510
 93
      532
310
4394DA1859195CC81BD98811DC985E5174090240C333333333333E33F0000000000000F901079024090741D01000000000000111010841D405064090740C02480A0340
1001
ACAD
1000
AcDbSavedByObjectVersion
1070
     0
  0
ACAD_PROXY_OBJECT
  5
2CACF
102
{ACAD_REACTORS
330
15B65
102
}
330
15B65
100
AcDbZombieObject
 90
      499
 91
      510
 93
      476
310
41D4DAD95D18DA1E51840502408333333333333E33F0000000000000F901079024090741D01000000000000111010B41D405064090741802480A0340
1001
ACAD
1000
AcDbSavedByObjectVersion
1070
     0
  0
ACAD_PROXY_OBJECT
  5
15B72
102
{ACAD_REACTORS
330
15B65
102
}
330
15B65
100
AcDbZombieObject
 90
      499
 91
      510
 93
      412
310
41D51A1A58DAD95B90D409028333333333333E3BF0000000000000FB010790141107004050150C41D405064090741402480A0350
1001
ACAD
1000
AcDbSavedByObjectVersion
1070
     0
  0
ACAD_PROXY_OBJECT
  5
2CACC
102
{ACAD_REACTORS
330
15B65
102
}
330
15B65
100
AcDbZombieObject
 90
      499
 91
      510
 93
      420
310
4255DA5C99599C985B595059028333333333333E33F0000000000000F90107901411070040501600405405064090740C02480A0340
1001
ACAD
1000
AcDbSavedByObjectVersion
1070
     0
  0
ACAD_PROXY_OBJECT
  5
2CAD0
102
{ACAD_REACTORS
330
15B65
102
}
330
15B65
100
AcDbZombieObject
 90
      499
 91
      510
 93
      404
310
41560B54985E51940902404000000000000E03F0000000000000F9010740501907004050150841D405064090740C02480A1B40
1001
ACAD
1000
AcDbSavedByObjectVersion
1070
     0
  0
XRECORD
  5
2CB8D
102
{ACAD_REACTORS
330
2CB8C
102
}
330
2CB8C
100
AcDbXrecord
340
2D0
  0
XRECORD
  5
2CB8E
102
{ACAD_REACTORS
330
2CB8C
102
}
330
2CB8C
100
AcDbXrecord
340
2CF
  0
DICTIONARYVAR
  5
2CB90
102
{ACAD_REACTORS
330
37
102
}
330
37
100
DictionaryVariables
280
     0
  1
1:1
  0
DICTIONARYVAR
  5
15C4B
102
{ACAD_REACTORS
330
37
102
}
330
37
100
DictionaryVariables
280
     0
  1
Standard
  0
DICTIONARYVAR
  5
4F1
102
{ACAD_REACTORS
330
37
102
}
330
37
100
DictionaryVariables
280
     0
  1
Standard
  0
DICTIONARYVAR
  5
38
102
{ACAD_REACTORS
330
37
102
}
330
37
100
DictionaryVariables
280
     0
  1
-1
  0
DICTIONARYVAR
  5
408
102
{ACAD_REACTORS
330
37
102
}
330
37
100
DictionaryVariables
280
     0
  1
2
  0
DICTIONARYVAR
  5
1891
102
{ACAD_REACTORS
330
37
102
}
330
37
100
DictionaryVariables
280
     0
  1
1
  0
DICTIONARYVAR
  5
15C4E
102
{ACAD_REACTORS
330
37
102
}
330
37
100
DictionaryVariables
280
     0
  1
0
  0
DICTIONARYVAR
  5
1895
102
{ACAD_REACTORS
330
37
102
}
330
37
100
DictionaryVariables
280
     0
  1
8
  0
DICTIONARYVAR
  5
1894
102
{ACAD_REACTORS
330
37
102
}
330
37
100
DictionaryVariables
280
     0
  1
1
  0
DICTIONARYVAR
  5
2CB89
102
{ACAD_REACTORS
330
37
102
}
330
37
100
DictionaryVariables
280
     0
  1
0
  0
DICTIONARYVAR
  5
1892
102
{ACAD_REACTORS
330
37
102
}
330
37
100
DictionaryVariables
280
     0
  1
8
  0
DICTIONARYVAR
  5
1893
102
{ACAD_REACTORS
330
37
102
}
330
37
100
DictionaryVariables
280
     0
  1
2
  0
DICTIONARYVAR
  5
409
102
{ACAD_REACTORS
330
37
102
}
330
37
100
DictionaryVariables
280
     0
  1

  0
DICTIONARYVAR
  5
15C4D
102
{ACAD_REACTORS
330
37
102
}
330
37
100
DictionaryVariables
280
     0
  1
127
  0
DICTIONARYVAR
  5
2CACB
102
{ACAD_REACTORS
330
37
102
}
330
37
100
DictionaryVariables
280
     0
  1
2
  0
ACAD_PROXY_OBJECT
  5
253AA
102
{ACAD_REACTORS
330
14EC3
102
}
102
{ACAD_XDICTIONARY
360
253AB
102
}
330
14EC3
100
AcDbZombieObject
 90
      499
 91
      517
 93
    16594
310
0582000016C005C080000B404000098880400B804100098C511253528074410080000000001680020000000F8001C01C807F7FD2C045000000000000000040010009A41197CDD2806D75C040000000001680020000000F8001C01C807F7FD2C045000000000000000040010009A41197CDD2804C1A00400000000016800200
310
00000F8020C01C807F7FD2C045000000000000000040018009A41197CC4CCC52807EA5C000000000001680020000000F8001C01C807F7FD2C045000000000000000040010009A41197CDD28078418000000000001680020000000F8001C01C807F7FD2C045000000000000000040010009A41197CDD2807801800000000000
310
1680020000000F8001C01C807F7FD2C045000000000000000040010009A41197CDD28077C18000000000001680020000000F8037401C807F7FD2C078818000000000000040018009A41197CC8C8C528077818000000000001680020000000F8001C01C807F7FD2C045000000000000000040010009A41197CDD28077418000
310
000000001680020000000F803F001C807F7FD2C045000000000000000040018009A41197CC8D4C92806EC10000000000001680020000000F8037401C807F7FD2C05A800000000000000040018009A41197CC8C8C52804E80C000000000001680000000000F8000401C807F7FD2C05D008000000000000040010009A41197CC
310
52805DC08000000000001680024000000F8002001C807F7FD2C045000000000000000040010009A41197CE12805D808000000000001680020000000F803F001C807F7FD2C045000000000000000040018009A41197CC8D4C92805D408000000000001680020000000F8002401C807F7FD2C045000000000000000040010009
310
A41197CE52805CC08000000000001680020000000F8001C01C807F7FD2C045000000000000000040010009A41197CDD2805C808000000000001680020000000F8001C01C807F7FD2C057008000000000000040010009A41197CDD2805C408000000000001680020000000F8001C01C807F7FD2C056C0800000000000004001
310
0009A41197CDD2805C008000000000001680020000000F8001C01C807F7FD2C056808000000000000040010009A41197CDD2805BC08000000000001680020000000F8001C01C807F7FD2C056408000000000000040010009A41197CDD2805B808000000000001680020000000F8001C01C807F7FD2C0560080000000000000
310
40010009A41197CDD2805B408000000000001680020000000F8002001C807F7FD2C045000000000000000040010009A41197CE12805B008000000000001680020000000F8002001C807F7FD2C045000000000000000040010009A41197CE12805AC08000000000001680020000000F8002001C807F7FD2C045000000000000
310
000040010009A41197CE12805A808000000000001680020000000F8002001C807F7FD2C045000000000000000040010009A41197CE12805A408000000000001680020000000F8001C01C807F7FD2C045000000000000000040010009A41197CDD2805A008000000000001680020000000F8035401C807F7FD2C04500000000
310
0000000040018009A41197CC8C4CD28059C08000000000001680020000000F8003C01C807F7FD2C045000000000000000040014009A41197CC4D528059808000000000001680020000000F8017C01C807F7FD2C045000000000000000040014009A41197CE4D528059408000000000001680020000000F8023C01C807F7FD2
310
C045000000000000000040018009A41197CC4D0CD28059008000000000001680020000000F8001801C807F7FD2C045000000000000000040010009A41197CD928058C08000000000001680020000000F8001401C807F7FD2C045000000000000000040010009A41197CD528058808000000000001680020000000F8001001C
310
807F7FD2C045000000000000000040010009A41197CD128058408000000000001680020000000F8000C01C807F7FD2C045000000000000000040010009A41197CCD28058008000000000001680020000000F8000801C807F7FD2C045000000000000000040010009A41197CC928057C08000000000001680020000000F8000
310
401C807F7FD2C045000000000000000040010009A41197CC528055408000000000001680020000000F8001C01C807F7FD2C057408000000000000040010009A41197CDD28040C04000000000001680020000000F803F801C807F7FD2C040004000000000000040018009A41197CC8D4D128040804000000000001680020000
310
000F8002001C807F7FD2C07FC00000000000000040010009A41197CE128040404000000000001680020000000F8002001C807F7FD2C045000000000000000040010009A41197CE128069000000000000001680020000000F8001C01C807F7FD2C045000000000000000040010009A41197CDD2805800000000000000168000
310
0000000F8001C01C807F7FD2C045000000000000000040010009A41197CDD2804D000000000000001680020000000F803F401C807F7FD2C045000000000000000040018009A41197CC8D4CD2804CC00000000000001680024000000F8000401C807F7FD2C045000000000000000040010009A41197CC52804C800000000000
310
001680020000000F8037401C807F7FD2C045000000000000000040018009A41197CC8C8C52804C400000000000001680020000000F8032401C807F7FD2C045000000000000000040018009A41197CC8C0C52804A400000000000001680020000000F8037401C807F7FD2C045000000000000000040018009A41197CC8C8C52
310
8043800000000000001680020000000F8001C01C807F7FD2C045000000000000000040010009A41197CDC0
  0
DICTIONARY
  5
2CB91
330
15B55
100
AcDbDictionary
  3
ACAD_XREC_ROUNDTRIP
360
2CB92
1001
ACAD
1000
TREAT_AS_HARD
1070
     1
  0
DICTIONARY
  5
2CB93
330
15B4D
100
AcDbDictionary
  3
ACAD_XREC_ROUNDTRIP
360
2CB94
1001
ACAD
1000
TREAT_AS_HARD
1070
     1
  0
DICTIONARY
  5
2CB95
330
15B5D
100
AcDbDictionary
  3
ACAD_XREC_ROUNDTRIP
360
2CB96
1001
ACAD
1000
TREAT_AS_HARD
1070
     1
  0
DICTIONARY
  5
253AB
330
253AA
100
AcDbDictionary
  3
ACADLAYERSTATEANNOSCALE
360
253AC
1001
ACAD
1000
TREAT_AS_HARD
1070
     1
  0
XRECORD
  5
2CB92
102
{ACAD_REACTORS
330
2CB91
102
}
330
2CB91
100
AcDbXrecord
102
MATERIAL
148
0.0
149
0.0
149
0.0
 93
        0
 94
      127
282
     0
 72
     0
 77
     0
171
     0
175
     0
179
     0
273
     0
  0
XRECORD
  5
2CB94
102
{ACAD_REACTORS
330
2CB93
102
}
330
2CB93
100
AcDbXrecord
102
MATERIAL
148
0.0
149
0.0
149
0.0
 93
        0
 94
      127
282
     0
 72
     0
 77
     0
171
     0
175
     0
179
     0
273
     0
  0
XRECORD
  5
2CB96
102
{ACAD_REACTORS
330
2CB95
102
}
330
2CB95
100
AcDbXrecord
102
MATERIAL
148
0.0
149
0.0
149
0.0
 93
        0
 94
      127
282
     0
 72
     0
 77
     0
171
     0
175
     0
179
     0
273
     0
  0
XRECORD
  5
253AC
102
{ACAD_REACTORS
330
253AB
102
}
330
253AB
100
AcDbXrecord
330
15B77
  0
ENDSEC
  0
EOF
