  0
SECTION
  2
HEADER
  9
$ACADVER
  1
AC1012
  9
$DWGCODEPAGE
  3
ansi_932
  9
$INSBASE
 10
0.0
 20
0.0
 30
0.0
  9
$EXTMIN
 10
1.000000000000000E+20
 20
1.000000000000000E+20
 30
1.000000000000000E+20
  9
$EXTMAX
 10
-1.000000000000000E+20
 20
-1.000000000000000E+20
 30
-1.000000000000000E+20
  9
$LIMMIN
 10
0.0
 20
0.0
  9
$LIMMAX
 10
420.0
 20
297.0
  9
$ORTHOMODE
 70
     0
  9
$REGENMODE
 70
     1
  9
$FILLMODE
 70
     1
  9
$QTEXTMODE
 70
     0
  9
$MIRRTEXT
 70
     0
  9
$DRAGMODE
 70
     2
  9
$LTSCALE
 40
0.5
  9
$OSMODE
 70
 14591
  9
$ATTMODE
 70
     1
  9
$TEXTSIZE
 40
4.0
  9
$TRACEWID
 40
1.0
  9
$TEXTSTYLE
  7
STANDARD
  9
$CLAYER
  8
1TEXT
  9
$CELTYPE
  6
BYLAYER
  9
$CECOLOR
 62
   256
  9
$CELTSCALE
 40
1.0
  9
$DELOBJ
 70
     1
  9
$DISPSILH
 70
     0
  9
$DIMSCALE
 40
2.0
  9
$DIMASZ
 40
2.0
  9
$DIMEXO
 40
0.0
  9
$DIMDLI
 40
7.0
  9
$DIMRND
 40
0.0
  9
$DIMDLE
 40
0.0
  9
$DIMEXE
 40
1.0
  9
$DIMTP
 40
0.0
  9
$DIMTM
 40
0.0
  9
$DIMTXT
 40
3.5
  9
$DIMCEN
 40
0.0
  9
$DIMTSZ
 40
0.0
  9
$DIMTOL
 70
     0
  9
$DIMLIM
 70
     0
  9
$DIMTIH
 70
     0
  9
$DIMTOH
 70
     0
  9
$DIMSE1
 70
     0
  9
$DIMSE2
 70
     0
  9
$DIMTAD
 70
     1
  9
$DIMZIN
 70
     8
  9
$DIMBLK
  1

  9
$DIMASO
 70
     1
  9
$DIMSHO
 70
     1
  9
$DIMPOST
  1
 
  9
$DIMAPOST
  1

  9
$DIMALT
 70
     0
  9
$DIMALTD
 70
     2
  9
$DIMALTF
 40
25.4
  9
$DIMLFAC
 40
1.0
  9
$DIMTOFL
 70
     1
  9
$DIMTVP
 40
0.0
  9
$DIMTIX
 70
     0
  9
$DIMSOXD
 70
     0
  9
$DIMSAH
 70
     1
  9
$DIMBLK1
  1
OPEN30
  9
$DIMBLK2
  1
OPEN30
  9
$DIMSTYLE
  2
NEWX10
  9
$DIMCLRD
 70
   256
  9
$DIMCLRE
 70
   256
  9
$DIMCLRT
 70
   201
  9
$DIMTFAC
 40
0.7
  9
$DIMGAP
 40
0.7
  9
$DIMJUST
 70
     0
  9
$DIMSD1
 70
     0
  9
$DIMSD2
 70
     0
  9
$DIMTOLJ
 70
     1
  9
$DIMTZIN
 70
     8
  9
$DIMALTZ
 70
     0
  9
$DIMALTTZ
 70
     0
  9
$DIMFIT
 70
     2
  9
$DIMUPT
 70
     0
  9
$DIMUNIT
 70
     2
  9
$DIMDEC
 70
     2
  9
$DIMTDEC
 70
     4
  9
$DIMALTU
 70
     2
  9
$DIMALTTD
 70
     2
  9
$DIMTXSTY
  7
STANDARD
  9
$DIMAUNIT
 70
     0
  9
$LUNITS
 70
     2
  9
$LUPREC
 70
     4
  9
$SKETCHINC
 40
1.0
  9
$FILLETRAD
 40
5.0
  9
$AUNITS
 70
     0
  9
$AUPREC
 70
     2
  9
$MENU
  1
acad
  9
$ELEVATION
 40
0.0
  9
$PELEVATION
 40
0.0
  9
$THICKNESS
 40
0.0
  9
$LIMCHECK
 70
     0
  9
$CHAMFERA
 40
1.0
  9
$CHAMFERB
 40
1.0
  9
$CHAMFERC
 40
20.0
  9
$CHAMFERD
 40
0.0
  9
$SKPOLY
 70
     0
  9
$TDCREATE
 40
2453033.732663484
  9
$TDUPDATE
 40
2458296.379061771
  9
$TDINDWG
 40
2.8018610995
  9
$TDUSRTIMER
 40
2.8018610995
  9
$USRTIMER
 70
     1
  9
$ANGBASE
 50
0.0
  9
$ANGDIR
 70
     0
  9
$PDMODE
 70
     0
  9
$PDSIZE
 40
0.0
  9
$PLINEWID
 40
0.0
  9
$COORDS
 70
     2
  9
$SPLFRAME
 70
     0
  9
$SPLINETYPE
 70
     6
  9
$SPLINESEGS
 70
     8
  9
$ATTDIA
 70
     0
  9
$ATTREQ
 70
     1
  9
$HANDLING
 70
     1
  9
$HANDSEED
  5
2CDDA
  9
$SURFTAB1
 70
     6
  9
$SURFTAB2
 70
     6
  9
$SURFTYPE
 70
     6
  9
$SURFU
 70
     6
  9
$SURFV
 70
     6
  9
$UCSNAME
  2

  9
$UCSORG
 10
0.0
 20
0.0
 30
0.0
  9
$UCSXDIR
 10
1.0
 20
0.0
 30
0.0
  9
$UCSYDIR
 10
0.0
 20
1.0
 30
0.0
  9
$PUCSNAME
  2

  9
$PUCSORG
 10
0.0
 20
0.0
 30
0.0
  9
$PUCSXDIR
 10
1.0
 20
0.0
 30
0.0
  9
$PUCSYDIR
 10
0.0
 20
1.0
 30
0.0
  9
$USERI1
 70
     0
  9
$USERI2
 70
     0
  9
$USERI3
 70
     0
  9
$USERI4
 70
     0
  9
$USERI5
 70
     0
  9
$USERR1
 40
0.0
  9
$USERR2
 40
0.0
  9
$USERR3
 40
0.0
  9
$USERR4
 40
0.0
  9
$USERR5
 40
0.0
  9
$WORLDVIEW
 70
     1
  9
$SHADEDGE
 70
     3
  9
$SHADEDIF
 70
    70
  9
$TILEMODE
 70
     1
  9
$MAXACTVP
 70
    48
  9
$PINSBASE
 10
0.0
 20
0.0
 30
0.0
  9
$PLIMCHECK
 70
     0
  9
$PEXTMIN
 10
1.000000000000000E+20
 20
1.000000000000000E+20
 30
1.000000000000000E+20
  9
$PEXTMAX
 10
-1.000000000000000E+20
 20
-1.000000000000000E+20
 30
-1.000000000000000E+20
  9
$PLIMMIN
 10
0.0
 20
0.0
  9
$PLIMMAX
 10
420.0
 20
297.0
  9
$UNITMODE
 70
     0
  9
$VISRETAIN
 70
     1
  9
$PLINEGEN
 70
     0
  9
$PSLTSCALE
 70
     1
  9
$TREEDEPTH
 70
  3020
  9
$PICKSTYLE
 70
     1
  9
$CMLSTYLE
  2
STANDARD
  9
$CMLJUST
 70
     0
  9
$CMLSCALE
 40
20.0
  9
$SAVEIMAGES
 70
     1
  0
ENDSEC
  0
SECTION
  2
CLASSES
  0
CLASS
  1
DICTIONARYVAR
  2
AcDbDictionaryVar
  3
ObjectDBX Classes
 90
        0
280
     0
281
     0
  0
CLASS
  1
IDBUFFER
  2
AcDbIdBuffer
  3
ObjectDBX Classes
 90
    32768
280
     0
281
     0
  0
CLASS
  1
LWPOLYLINE
  2
AcDbPolyline
  3
ObjectDBX Classes
 90
    32768
280
     0
281
     1
  0
CLASS
  1
ACDBDICTIONARYWDFLT
  2
AcDbDictionaryWithDefault
  3
ObjectDBX Classes
 90
    32768
280
     0
281
     0
  0
CLASS
  1
ACDBPLACEHOLDER
  2
AcDbPlaceHolder
  3
ObjectDBX Classes
 90
        0
280
     0
281
     0
  0
CLASS
  1
LAYOUT
  2
AcDbLayout
  3
ObjectDBX Classes
 90
        0
280
     0
281
     0
  0
CLASS
  1
TABLESTYLE
  2
AcDbTableStyle
  3
ObjectDBX Classes
 90
     4095
280
     0
281
     0
  0
CLASS
  1
SORTENTSTABLE
  2
AcDbSortentsTable
  3
ObjectDBX Classes
 90
    32768
280
     0
281
     0
  0
CLASS
  1
DIMASSOC
  2
AcDbDimAssoc
  3
"AcDbDimAssoc|Product Desc:     AcDim ARX App For Dimension|Company:          Autodesk, Inc.|WEB Address:      www.autodesk.com"
 90
        0
280
     0
281
     0
  0
CLASS
  1
MATERIAL
  2
AcDbMaterial
  3
ObjectDBX Classes
 90
     1153
280
     0
281
     0
  0
CLASS
  1
VISUALSTYLE
  2
AcDbVisualStyle
  3
ObjectDBX Classes
 90
     4095
280
     0
281
     0
  0
CLASS
  1
SCALE
  2
AcDbScale
  3
ObjectDBX Classes
 90
     1153
280
     0
281
     0
  0
CLASS
  1
MLEADERSTYLE
  2
AcDbMLeaderStyle
  3
ACDB_MLEADERSTYLE_CLASS
 90
     4095
280
     0
281
     0
  0
CLASS
  1
CELLSTYLEMAP
  2
AcDbCellStyleMap
  3
ObjectDBX Classes
 90
     1152
280
     0
281
     0
  0
CLASS
  1
EXACXREFPANELOBJECT
  2
ExAcXREFPanelObject
  3
EXAC_ESW
 90
     1025
280
     1
281
     0
  0
CLASS
  1
NPOCOLLECTION
  2
AcDbImpNonPersistentObjectsCollection
  3
ObjectDBX Classes
 90
     1153
280
     1
281
     0
  0
CLASS
  1
SUN
  2
AcDbSun
  3
SCENEOE
 90
     1153
280
     0
281
     0
  0
CLASS
  1
XRECORD
  2
AcDbXrecord
  3
ObjectDBX Classes
 90
    32768
280
     0
281
     0
  0
CLASS
  1
HATCH
  2
AcDbHatch
  3
ObjectDBX Classes
 90
    32768
280
     0
281
     1
  0
ENDSEC
  0
SECTION
  2
TABLES
  0
TABLE
  2
VPORT
  5
8
330
0
100
AcDbSymbolTable
 70
     1
  0
VPORT
  5
15B17
330
8
100
AcDbSymbolTableRecord
100
AcDbViewportTableRecord
  2
*ACTIVE
 70
     0
 10
0.0
 20
0.0
 11
1.0
 21
1.0
 12
3648.505322617675
 22
-2064.931238832407
 13
0.0
 23
0.0
 14
10.0
 24
10.0
 15
10.0
 25
10.0
 16
0.0
 26
0.0
 36
1.0
 17
0.0
 27
0.0
 37
0.0
 40
618.5366488216041
 41
1.905686546463246
 42
50.0
 43
0.0
 44
0.0
 50
0.0
 51
0.0
 71
    16
 72
   100
 73
     1
 74
     1
 75
     0
 76
     0
 77
     0
 78
     0
  0
ENDTAB
  0
TABLE
  2
LTYPE
  5
5
330
0
100
AcDbSymbolTable
 70
     4
  0
LTYPE
  5
12
330
5
100
AcDbSymbolTableRecord
100
AcDbLinetypeTableRecord
  2
BYBLOCK
 70
     0
  3

 72
    65
 73
     0
 40
0.0
  0
LTYPE
  5
13
330
5
100
AcDbSymbolTableRecord
100
AcDbLinetypeTableRecord
  2
BYLAYER
 70
     0
  3

 72
    65
 73
     0
 40
0.0
  0
LTYPE
  5
14
330
5
100
AcDbSymbolTableRecord
100
AcDbLinetypeTableRecord
  2
CONTINUOUS
 70
     0
  3
Solid line
 72
    65
 73
     0
 40
0.0
  0
LTYPE
  5
26
330
5
100
AcDbSymbolTableRecord
100
AcDbLinetypeTableRecord
  2
CENTER2
 70
     0
  3
Center (.5x) ___ _ ___ _ ___ _ ___ _ ___ _ ___
 72
    65
 73
     4
 40
28.575
 49
19.05
 74
     0
 49
-3.175
 74
     0
 49
3.175
 74
     0
 49
-3.175
 74
     0
  0
LTYPE
  5
FF
330
5
100
AcDbSymbolTableRecord
100
AcDbLinetypeTableRecord
  2
HIDDEN
 70
     0
  3
Hidden __ __ __ __ __ __ __ __ __ __ __ __ __ _
 72
    65
 73
     2
 40
9.524999999999999
 49
6.35
 74
     0
 49
-3.175
 74
     0
  0
LTYPE
  5
100
330
5
100
AcDbSymbolTableRecord
100
AcDbLinetypeTableRecord
  2
PHANTOM2
 70
     0
  3
Phantom (0.5x) ___ _ _ ___ _ _ ___ _ _ ___ _ _
 72
    65
 73
     6
 40
31.75
 49
15.875
 74
     0
 49
-3.175
 74
     0
 49
3.175
 74
     0
 49
-3.175
 74
     0
 49
3.175
 74
     0
 49
-3.175
 74
     0
  0
ENDTAB
  0
TABLE
  2
LAYER
  5
2
102
{ACAD_XDICTIONARY
360
14EC2
102
}
330
0
100
AcDbSymbolTable
 70
     7
  0
LAYER
  5
E
102
{ACAD_XDICTIONARY
360
15BB5
102
}
330
2
100
AcDbSymbolTableRecord
100
AcDbLayerTableRecord
  2
0
 70
     0
 62
     7
  6
CONTINUOUS
  0
LAYER
  5
29
102
{ACAD_XDICTIONARY
360
15BB7
102
}
330
2
100
AcDbSymbolTableRecord
100
AcDbLayerTableRecord
  2
1CENTER
 70
     0
 62
     7
  6
CENTER2
  0
LAYER
  5
31
102
{ACAD_XDICTIONARY
360
15BB9
102
}
330
2
100
AcDbSymbolTableRecord
100
AcDbLayerTableRecord
  2
1TEXT
 70
     0
 62
     7
  6
CONTINUOUS
  0
LAYER
  5
101
102
{ACAD_XDICTIONARY
360
15BC3
102
}
330
2
100
AcDbSymbolTableRecord
100
AcDbLayerTableRecord
  2
1DIM
 70
     0
 62
     7
  6
CONTINUOUS
  0
LAYER
  5
102
102
{ACAD_XDICTIONARY
360
15BC5
102
}
330
2
100
AcDbSymbolTableRecord
100
AcDbLayerTableRecord
  2
1HIDDEN
 70
     0
 62
     7
  6
HIDDEN
  0
LAYER
  5
103
102
{ACAD_XDICTIONARY
360
15BC7
102
}
330
2
100
AcDbSymbolTableRecord
100
AcDbLayerTableRecord
  2
1PHANTOM
 70
     0
 62
     7
  6
PHANTOM2
  0
LAYER
  5
25F
102
{ACAD_XDICTIONARY
360
15BCB
102
}
330
2
100
AcDbSymbolTableRecord
100
AcDbLayerTableRecord
  2
01
 70
     0
 62
     1
  6
CONTINUOUS
  0
ENDTAB
  0
TABLE
  2
STYLE
  5
3
330
0
100
AcDbSymbolTable
 70
     1
  0
STYLE
  5
F
330
3
100
AcDbSymbolTableRecord
100
AcDbTextStyleTableRecord
  2
STANDARD
 70
     0
 40
0.0
 41
1.0
 50
0.0
 71
     0
 42
4.0
  3
txt.shx
  4
extfont.shx
  0
ENDTAB
  0
TABLE
  2
VIEW
  5
6
330
0
100
AcDbSymbolTable
 70
     0
  0
ENDTAB
  0
TABLE
  2
UCS
  5
7
330
0
100
AcDbSymbolTable
 70
     0
  0
ENDTAB
  0
TABLE
  2
APPID
  5
9
330
0
100
AcDbSymbolTable
 70
    15
  0
APPID
  5
10
330
9
100
AcDbSymbolTableRecord
100
AcDbRegAppTableRecord
  2
ACAD
 70
     0
  0
APPID
  5
21
330
9
100
AcDbSymbolTableRecord
100
AcDbRegAppTableRecord
  2
DRAWINGVARIABLESXDATA
 70
     0
  0
APPID
  5
64
330
9
100
AcDbSymbolTableRecord
100
AcDbRegAppTableRecord
  2
CONTENTTABDATA
 70
     0
  0
APPID
  5
65
330
9
100
AcDbSymbolTableRecord
100
AcDbRegAppTableRecord
  2
CONTENTCURRENTTAB
 70
     0
  0
APPID
  5
66
330
9
100
AcDbSymbolTableRecord
100
AcDbRegAppTableRecord
  2
CONTENTBLOCKDESCRIPTION
 70
     0
  0
APPID
  5
67
330
9
100
AcDbSymbolTableRecord
100
AcDbRegAppTableRecord
  2
CONTENTBLOCKICON
 70
     0
  0
APPID
  5
68
330
9
100
AcDbSymbolTableRecord
100
AcDbRegAppTableRecord
  2
CONTENTLONGBLOCKNAME
 70
     0
  0
APPID
  5
5A9
330
9
100
AcDbSymbolTableRecord
100
AcDbRegAppTableRecord
  2
ACAD_PSEXT
 70
     0
  0
APPID
  5
18AC
330
9
100
AcDbSymbolTableRecord
100
AcDbRegAppTableRecord
  2
ACAD_DSTYLE_DIMTEXT_FILL
 70
     0
  0
APPID
  5
15B9A
330
9
100
AcDbSymbolTableRecord
100
AcDbRegAppTableRecord
  2
ACAD_MLEADERVER
 70
     0
  0
APPID
  5
175EB
330
9
100
AcDbSymbolTableRecord
100
AcDbRegAppTableRecord
  2
ACAD_DSTYLE_DIMRADIAL_EXTE
 70
     0
  0
APPID
  5
17CB7
330
9
100
AcDbSymbolTableRecord
100
AcDbRegAppTableRecord
  2
ACADANNOTATIVE
 70
     0
  0
APPID
  5
244FC
330
9
100
AcDbSymbolTableRecord
100
AcDbRegAppTableRecord
  2
ACLAYERTOOLS
 70
     0
  0
APPID
  5
24F8E
330
9
100
AcDbSymbolTableRecord
100
AcDbRegAppTableRecord
  2
ACAD_EXEMPT_FROM_CAD_STAND
 70
     0
  0
APPID
  5
2CB96
330
9
100
AcDbSymbolTableRecord
100
AcDbRegAppTableRecord
  2
ACAD_OBJECT_CHANGE_GUID
 70
     0
  0
ENDTAB
  0
TABLE
  2
DIMSTYLE
  5
A
330
0
100
AcDbSymbolTable
 70
     1
  0
DIMSTYLE
105
48
330
A
100
AcDbSymbolTableRecord
100
AcDbDimStyleTableRecord
  2
NEWX10
 70
     0
  3
 
  4

  5

  6
OPEN30
  7
OPEN30
 40
1.0
 41
2.0
 42
0.0
 43
7.0
 44
1.0
 45
0.0
 46
0.0
 47
0.0
 48
0.0
140
3.5
141
0.0
142
0.0
143
25.4
144
1.0
145
0.0
146
0.7
147
0.7
 71
     0
 72
     0
 73
     0
 74
     0
 75
     0
 76
     0
 77
     1
 78
     8
170
     0
171
     2
172
     1
173
     1
174
     0
175
     0
176
   256
177
   256
178
   201
179
     2
270
     2
271
     2
272
     4
273
     2
274
     2
340
F
275
     0
280
     0
281
     0
282
     0
283
     1
284
     8
285
     0
286
     0
287
     2
288
     0
  0
ENDTAB
  0
TABLE
  2
BLOCK_RECORD
  5
1
330
0
100
AcDbSymbolTable
 70
     1
  0
BLOCK_RECORD
  5
18
102
{ACAD_XDICTIONARY
360
6E9
102
}
330
1
100
AcDbSymbolTableRecord
100
AcDbBlockTableRecord
  2
*MODEL_SPACE
  0
BLOCK_RECORD
  5
15
102
{ACAD_XDICTIONARY
360
59B
102
}
330
1
100
AcDbSymbolTableRecord
100
AcDbBlockTableRecord
  2
*PAPER_SPACE
  0
BLOCK_RECORD
  5
42
330
1
100
AcDbSymbolTableRecord
100
AcDbBlockTableRecord
  2
_OPEN30
  0
ENDTAB
  0
ENDSEC
  0
SECTION
  2
BLOCKS
  0
BLOCK
  5
19
330
18
100
AcDbEntity
  8
0
100
AcDbBlockBegin
  2
*MODEL_SPACE
 70
     0
 10
0.0
 20
0.0
 30
0.0
  3
*MODEL_SPACE
  1

  0
ENDBLK
  5
1A
330
18
100
AcDbEntity
  8
0
100
AcDbBlockEnd
  0
BLOCK
  5
16
330
15
100
AcDbEntity
 67
     1
  8
0
100
AcDbBlockBegin
  2
*PAPER_SPACE
 70
     0
 10
0.0
 20
0.0
 30
0.0
  3
*PAPER_SPACE
  1

  0
ENDBLK
  5
17
330
15
100
AcDbEntity
 67
     1
  8
0
100
AcDbBlockEnd
  0
BLOCK
  5
43
330
42
100
AcDbEntity
  8
0
100
AcDbBlockBegin
  2
_OPEN30
 70
     0
 10
0.0
 20
0.0
 30
0.0
  3
_OPEN30
  1

  0
LINE
  5
44
330
42
100
AcDbEntity
  8
0
  6
BYBLOCK
 62
     0
100
AcDbLine
 10
-1.0
 20
0.26794919
 30
0.0
 11
0.0
 21
0.0
 31
0.0
  0
LINE
  5
45
330
42
100
AcDbEntity
  8
0
  6
BYBLOCK
 62
     0
100
AcDbLine
 10
0.0
 20
0.0
 30
0.0
 11
-1.0
 21
-0.26794919
 31
0.0
  0
LINE
  5
46
330
42
100
AcDbEntity
  8
0
  6
BYBLOCK
 62
     0
100
AcDbLine
 10
0.0
 20
0.0
 30
0.0
 11
-1.0
 21
0.0
 31
0.0
  0
ENDBLK
  5
47
330
42
100
AcDbEntity
  8
0
100
AcDbBlockEnd
  0
ENDSEC
  0
SECTION
  2
ENTITIES
  0
LINE
  5
2539B
330
18
100
AcDbEntity
  8
1DIM
100
AcDbLine
 10
3669.763811875217
 20
-1837.027451073227
 30
0.0
 11
3669.763811875217
 21
-1893.027451073228
 31
0.0
  0
LINE
  5
2539D
330
18
100
AcDbEntity
  8
1DIM
100
AcDbLine
 10
3949.76381187522
 20
-1837.027451073226
 30
0.0
 11
3949.763811875218
 21
-1893.027451073228
 31
0.0
  0
TEXT
  5
253A6
330
18
100
AcDbEntity
  8
1TEXT
100
AcDbText
 10
3966.030478541887
 20
-1848.027451073226
 30
0.0
 40
8.0
  1
対応子機
 72
     1
 11
3984.56381187522
 21
-1848.027451073226
 31
0.0
100
AcDbText
  0
LINE
  5
253A7
330
18
100
AcDbEntity
  8
1DIM
100
AcDbLine
 10
4019.763811875221
 20
-1837.027451073225
 30
0.0
 11
4019.763811875219
 21
-1893.027451073228
 31
0.0
  0
TEXT
  5
253A8
330
18
100
AcDbEntity
  8
1TEXT
100
AcDbText
 10
3965.363811875221
 20
-1876.456165040526
 30
0.0
 40
8.0
  1
VJ-KDP
 41
0.8
 72
     1
 11
3984.563811875221
 21
-1876.456165040526
 31
0.0
100
AcDbText
  0
TEXT
  5
253A9
330
18
100
AcDbEntity
  8
1TEXT
100
AcDbText
 10
3966.163811875222
 20
-1862.456165040525
 30
0.0
 40
8.0
  1
アイホン
 72
     1
 11
3984.563811875222
 21
-1862.456165040525
 31
0.0
100
AcDbText
  0
LINE
  5
29B17
330
18
100
AcDbEntity
  8
1CENTER
100
AcDbLine
 10
3383.146833361996
 20
-2159.333564434558
 30
0.0
 11
3373.146833361996
 21
-2159.333564434558
 31
0.0
  0
LINE
  5
29B18
330
18
100
AcDbEntity
  8
1CENTER
100
AcDbLine
 10
3378.146833363864
 20
-2154.333564439115
 30
0.0
 11
3378.146833363864
 21
-2164.333564439115
 31
0.0
  0
LINE
  5
2C06E
330
18
100
AcDbEntity
  8
01
100
AcDbLine
 10
3575.646833360129
 20
-1911.833564425443
 30
0.0
 11
3575.646833360129
 21
-2339.833564425443
 31
0.0
  0
LINE
  5
2C06F
330
18
100
AcDbEntity
  8
01
100
AcDbLine
 10
3574.646833360129
 20
-1910.833564425443
 30
0.0
 11
3575.646833360129
 21
-1911.833564425443
 31
0.0
  0
LINE
  5
2C070
330
18
100
AcDbEntity
  8
01
100
AcDbLine
 10
3570.646833360129
 20
-1911.833564425443
 30
0.0
 11
3570.646833360129
 21
-2339.833564425443
 31
0.0
  0
LINE
  5
2C071
330
18
100
AcDbEntity
  8
01
100
AcDbLine
 10
3571.646833360129
 20
-2340.833564425443
 30
0.0
 11
3570.646833360129
 21
-2339.833564425443
 31
0.0
  0
LINE
  5
2C072
330
18
100
AcDbEntity
  8
01
100
AcDbLine
 10
3571.646833360129
 20
-2340.833564425443
 30
0.0
 11
3574.646833360129
 21
-2340.833564425443
 31
0.0
  0
LINE
  5
2C073
330
18
100
AcDbEntity
  8
01
100
AcDbLine
 10
3575.646833360129
 20
-2339.833564425443
 30
0.0
 11
3574.646833360129
 21
-2340.833564425443
 31
0.0
  0
LINE
  5
2C074
330
18
100
AcDbEntity
  8
01
100
AcDbLine
 10
3571.646833360129
 20
-1910.833564425443
 30
0.0
 11
3574.646833360129
 21
-1910.833564425443
 31
0.0
  0
LINE
  5
2C075
330
18
100
AcDbEntity
  8
01
100
AcDbLine
 10
3570.646833360129
 20
-1911.833564425443
 30
0.0
 11
3571.646833360129
 21
-1910.833564425443
 31
0.0
  0
LINE
  5
2C076
330
18
100
AcDbEntity
  8
01
100
AcDbLine
 10
3575.646833360129
 20
-2338.833564425444
 30
0.0
 11
3576.646833360129
 21
-2338.833564425444
 31
0.0
  0
LINE
  5
2C077
330
18
100
AcDbEntity
  8
01
100
AcDbLine
 10
3575.646833360129
 20
-1912.833564425443
 30
0.0
 11
3575.646833360129
 21
-2338.833564425444
 31
0.0
  0
LINE
  5
2C078
330
18
100
AcDbEntity
  8
01
100
AcDbLine
 10
3576.646833360128
 20
-1912.833564425443
 30
0.0
 11
3576.646833360129
 21
-2338.833564425444
 31
0.0
  0
LINE
  5
2C079
330
18
100
AcDbEntity
  8
01
100
AcDbLine
 10
3577.646833360128
 20
-1963.833564425446
 30
0.0
 11
3577.646833360128
 21
-2010.833564425444
 31
0.0
  0
LINE
  5
2C07A
330
18
100
AcDbEntity
  8
01
100
AcDbLine
 10
3577.646833360128
 20
-2011.833564425445
 30
0.0
 11
3577.646833360128
 21
-2013.833564425446
 31
0.0
  0
LINE
  5
2C07B
330
18
100
AcDbEntity
  8
01
100
AcDbLine
 10
3575.646833360129
 20
-1912.833564425443
 30
0.0
 11
3576.646833360129
 21
-1912.833564425443
 31
0.0
  0
LINE
  5
2C07C
330
18
100
AcDbEntity
  8
01
100
AcDbLine
 10
3305.646833360129
 20
-1915.833564425443
 30
0.0
 11
3305.646833360129
 21
-2335.833564425443
 31
0.0
  0
ARC
  5
2C07D
330
18
100
AcDbEntity
  8
01
100
AcDbCircle
 10
3310.646833360129
 20
-1915.833564425443
 30
0.0
 40
5.0
100
AcDbArc
 50
90.0
 51
180.0
  0
ARC
  5
2C07E
330
18
100
AcDbEntity
  8
01
100
AcDbCircle
 10
3310.646833360129
 20
-2335.833564425443
 30
0.0
 40
5.0
100
AcDbArc
 50
180.0
 51
270.0
  0
LINE
  5
2C07F
330
18
100
AcDbEntity
  8
01
100
AcDbLine
 10
3450.646833360129
 20
-1915.833564425443
 30
0.0
 11
3450.646833360129
 21
-2335.833564425443
 31
0.0
  0
LINE
  5
2C080
330
18
100
AcDbEntity
  8
01
100
AcDbLine
 10
3310.646833360129
 20
-1910.833564425443
 30
0.0
 11
3445.646833360129
 21
-1910.833564425443
 31
0.0
  0
ARC
  5
2C081
330
18
100
AcDbEntity
  8
01
100
AcDbCircle
 10
3445.646833360129
 20
-1915.833564425443
 30
0.0
 40
5.0
100
AcDbArc
 50
0.0
 51
90.0
  0
ARC
  5
2C082
330
18
100
AcDbEntity
  8
01
100
AcDbCircle
 10
3445.646833360129
 20
-2335.833564425443
 30
0.0
 40
5.0
100
AcDbArc
 50
270.0
 51
0.0
  0
LINE
  5
2C083
330
18
100
AcDbEntity
  8
01
100
AcDbLine
 10
3310.646833360129
 20
-2340.833564425443
 30
0.0
 11
3445.646833360129
 21
-2340.833564425443
 31
0.0
  0
LINE
  5
2C084
330
18
100
AcDbEntity
  8
01
100
AcDbLine
 10
3428.146833360129
 20
-2003.833564425442
 30
0.0
 11
3428.146833360129
 21
-1973.833564425444
 31
0.0
  0
ARC
  5
2C085
330
18
100
AcDbEntity
  8
01
100
AcDbCircle
 10
3423.146833360129
 20
-2003.833564425442
 30
0.0
 40
5.0
100
AcDbArc
 50
270.0
 51
0.0
  0
LINE
  5
2C086
330
18
100
AcDbEntity
  8
01
100
AcDbLine
 10
3328.146833360129
 20
-2003.833564425442
 30
0.0
 11
3328.146833360129
 21
-1973.833564425444
 31
0.0
  0
ARC
  5
2C087
330
18
100
AcDbEntity
  8
01
100
AcDbCircle
 10
3333.146833360129
 20
-2003.833564425442
 30
0.0
 40
5.0
100
AcDbArc
 50
180.0
 51
270.0
  0
LINE
  5
2C088
330
18
100
AcDbEntity
  8
01
100
AcDbLine
 10
3333.146833360129
 20
-2008.833564425442
 30
0.0
 11
3423.146833360129
 21
-2008.833564425442
 31
0.0
  0
ARC
  5
2C089
330
18
100
AcDbEntity
  8
01
100
AcDbCircle
 10
3423.146833360129
 20
-1973.833564425444
 30
0.0
 40
5.0
100
AcDbArc
 50
0.0
 51
90.0
  0
LINE
  5
2C08A
330
18
100
AcDbEntity
  8
01
100
AcDbLine
 10
3333.146833360129
 20
-1968.833564425443
 30
0.0
 11
3423.146833360129
 21
-1968.833564425442
 31
0.0
  0
ARC
  5
2C08B
330
18
100
AcDbEntity
  8
01
100
AcDbCircle
 10
3333.146833360129
 20
-1973.833564425444
 30
0.0
 40
5.0
100
AcDbArc
 50
90.0
 51
180.0
  0
LINE
  5
2C08C
330
18
100
AcDbEntity
  8
01
100
AcDbLine
 10
3307.646833360129
 20
-1817.333564425443
 30
0.0
 11
3448.646833360129
 21
-1817.333564425443
 31
0.0
  0
ARC
  5
2C08D
330
18
100
AcDbEntity
  8
01
100
AcDbCircle
 10
3448.646833360129
 20
-1818.333564425443
 30
0.0
 40
1.0
100
AcDbArc
 50
0.0
 51
90.0
  0
LINE
  5
2C08E
330
18
100
AcDbEntity
  8
01
100
AcDbLine
 10
3307.646833360129
 20
-1818.333564425443
 30
0.0
 11
3448.646833360129
 21
-1818.333564425443
 31
0.0
  0
ARC
  5
2C08F
330
18
100
AcDbEntity
  8
01
100
AcDbCircle
 10
3307.646833360129
 20
-1870.333564425443
 30
0.0
 40
1.0
100
AcDbArc
 50
180.0
 51
270.0
  0
LINE
  5
2C090
330
18
100
AcDbEntity
  8
01
100
AcDbLine
 10
3306.646833360129
 20
-1870.333564425443
 30
0.0
 11
3306.646833360129
 21
-1818.333564425443
 31
0.0
  0
ARC
  5
2C091
330
18
100
AcDbEntity
  8
01
100
AcDbCircle
 10
3307.646833360129
 20
-1818.333564425443
 30
0.0
 40
1.0
100
AcDbArc
 50
90.0
 51
180.0
  0
LINE
  5
2C092
330
18
100
AcDbEntity
  8
01
100
AcDbLine
 10
3307.646833360129
 20
-1870.333564425443
 30
0.0
 11
3307.646833360129
 21
-1818.333564425443
 31
0.0
  0
LINE
  5
2C093
330
18
100
AcDbEntity
  8
01
100
AcDbLine
 10
3449.646833360129
 20
-1870.333564425443
 30
0.0
 11
3449.646833360129
 21
-1818.333564425443
 31
0.0
  0
ARC
  5
2C094
330
18
100
AcDbEntity
  8
01
100
AcDbCircle
 10
3448.646833360129
 20
-1870.333564425443
 30
0.0
 40
1.0
100
AcDbArc
 50
270.0
 51
0.0
  0
LINE
  5
2C095
330
18
100
AcDbEntity
  8
01
100
AcDbLine
 10
3448.646833360129
 20
-1870.333564425443
 30
0.0
 11
3448.646833360129
 21
-1818.333564425443
 31
0.0
  0
LINE
  5
2C096
330
18
100
AcDbEntity
  8
01
100
AcDbLine
 10
3343.146833360128
 20
-1818.333564425443
 30
0.0
 11
3343.146833360129
 21
-1827.405604281126
 31
0.0
  0
LINE
  5
2C097
330
18
100
AcDbEntity
  8
01
100
AcDbLine
 10
3413.146833360129
 20
-1818.333564425443
 30
0.0
 11
3413.146833360129
 21
-1827.405604281126
 31
0.0
  0
LINE
  5
2C098
330
18
100
AcDbEntity
  8
01
100
AcDbLine
 10
3403.146833360128
 20
-1823.121481152442
 30
0.0
 11
3353.146833360129
 21
-1823.121481152442
 31
0.0
  0
LINE
  5
2C099
330
18
100
AcDbEntity
  8
01
100
AcDbLine
 10
3403.146833360128
 20
-1824.106288905455
 30
0.0
 11
3353.146833360129
 21
-1824.106288905455
 31
0.0
  0
LINE
  5
2C09A
330
18
100
AcDbEntity
  8
01
100
AcDbLine
 10
3413.146833360129
 20
-1827.405604281126
 30
0.0
 11
3343.146833360129
 21
-1827.405604281126
 31
0.0
  0
ELLIPSE
  5
2C09B
330
18
100
AcDbEntity
  8
01
100
AcDbEllipse
 10
3403.146833360129
 20
-1825.842770682124
 30
0.0
 11
-10.00000000000057
 21
0.0
 31
0.0
210
0.0
220
0.0
230
1.0
 40
0.1736481776669238
 41
3.141592653589793
 42
4.71238898038469
  0
ELLIPSE
  5
2C09C
330
18
100
AcDbEntity
  8
01
100
AcDbEllipse
 10
3403.146833360129
 20
-1824.857962929112
 30
0.0
 11
-10.00000000000057
 21
0.0
 31
0.0
210
0.0
220
0.0
230
1.0
 40
0.1736481776669238
 41
3.141592653589793
 42
4.71238898038469
  0
ELLIPSE
  5
2C09D
330
18
100
AcDbEntity
  8
01
100
AcDbEllipse
 10
3353.14683336013
 20
-1825.842770682124
 30
0.0
 11
10.00000000000057
 21
0.0
 31
0.0
210
0.0
220
0.0
230
-1.0
 40
0.1736481776669238
 41
3.141592653589793
 42
4.71238898038469
  0
ELLIPSE
  5
2C09E
330
18
100
AcDbEntity
  8
01
100
AcDbEllipse
 10
3353.14683336013
 20
-1824.857962929112
 30
0.0
 11
10.00000000000057
 21
0.0
 31
0.0
210
0.0
220
0.0
230
-1.0
 40
0.1736481776669238
 41
3.141592653589793
 42
4.71238898038469
  0
LINE
  5
2C09F
330
18
100
AcDbEntity
  8
01
100
AcDbLine
 10
3448.646833360129
 20
-1870.333564425443
 30
0.0
 11
3446.64683336013
 21
-1870.333564425443
 31
0.0
  0
LINE
  5
2C0A0
330
18
100
AcDbEntity
  8
01
100
AcDbLine
 10
3576.646833360129
 20
-2013.833564425446
 30
0.0
 11
3630.646833360129
 21
-2013.833564425446
 31
0.0
  0
LINE
  5
2C0A1
330
18
100
AcDbEntity
  8
01
100
AcDbLine
 10
3576.646833360129
 20
-1963.833564425446
 30
0.0
 11
3577.646833360128
 21
-1963.833564425446
 31
0.0
  0
LINE
  5
2C0A2
330
18
100
AcDbEntity
  8
01
100
AcDbLine
 10
3630.646833360129
 20
-2013.833564425446
 30
0.0
 11
3630.646833360129
 21
-2290.833564425445
 31
0.0
  0
LINE
  5
2C0A3
330
18
100
AcDbEntity
  8
01
100
AcDbLine
 10
3629.646833360129
 20
-2002.763637613501
 30
0.0
 11
3629.64683336013
 21
-2013.833564425446
 31
0.0
  0
LINE
  5
2C0A4
330
18
100
AcDbEntity
  8
01
100
AcDbLine
 10
3628.646833360129
 20
-2002.833564425446
 30
0.0
 11
3628.646833360129
 21
-2013.833564425446
 31
0.0
  0
LINE
  5
2C0A5
330
18
100
AcDbEntity
  8
01
100
AcDbLine
 10
3307.646833360129
 20
-1870.333564425443
 30
0.0
 11
3309.646833360129
 21
-1870.333564425443
 31
0.0
  0
LINE
  5
2C0A6
330
18
100
AcDbEntity
  8
01
100
AcDbLine
 10
3314.64683336013
 20
-1870.333564425443
 30
0.0
 11
3358.146833360127
 21
-1870.333564425441
 31
0.0
  0
LINE
  5
2C0A7
330
18
100
AcDbEntity
  8
01
100
AcDbLine
 10
3398.14683336013
 20
-1870.33356442544
 30
0.0
 11
3441.646833360128
 21
-1870.333564425439
 31
0.0
  0
LINE
  5
2C0A8
330
18
100
AcDbEntity
  8
01
100
AcDbLine
 10
3576.646833360129
 20
-2290.833564425446
 30
0.0
 11
3630.646833360129
 21
-2290.833564425445
 31
0.0
  0
LINE
  5
2C0A9
330
18
100
AcDbEntity
  8
01
100
AcDbLine
 10
3623.874108880118
 20
-1926.686669131203
 30
0.0
 11
3624.85891663313
 21
-1926.860317308869
 31
0.0
  0
LINE
  5
2C0AA
330
18
100
AcDbEntity
  8
01
100
AcDbLine
 10
3620.602296673879
 20
-1945.242038213647
 30
0.0
 11
3623.874108880118
 21
-1926.686669131203
 31
0.0
  0
ARC
  5
2C0AB
330
18
100
AcDbEntity
  8
01
100
AcDbCircle
 10
3621.587104426891
 20
-1945.415686391314
 30
0.0
 40
1.0
100
AcDbArc
 50
169.9999999999961
 51
187.9999999999889
  0
LINE
  5
2C0AC
330
18
100
AcDbEntity
  8
01
100
AcDbLine
 10
3621.587104426891
 20
-1945.415686391313
 30
0.0
 11
3624.85891663313
 21
-1926.860317308869
 31
0.0
  0
LINE
  5
2C0AD
330
18
100
AcDbEntity
  8
01
100
AcDbLine
 10
3628.646833360129
 20
-2002.833564425446
 30
0.0
 11
3620.596836358149
 21
-1945.554859492274
 31
0.0
  0
LINE
  5
2C0AE
330
18
100
AcDbEntity
  8
01
100
AcDbLine
 10
3629.646833360129
 20
-2002.763637613503
 30
0.0
 11
3621.587104426891
 21
-1945.415686391313
 31
0.0
  0
LINE
  5
2C0AF
330
18
100
AcDbEntity
  8
01
100
AcDbLine
 10
3620.596836358149
 20
-1945.554859492274
 30
0.0
 11
3620.574793504446
 21
-1945.398016438435
 31
0.0
  0
LINE
  5
2C0B0
330
18
100
AcDbEntity
  8
01
100
AcDbLine
 10
3620.574793504446
 20
-1945.398016438435
 30
0.0
 11
3620.602296673879
 21
-1945.242038213647
 31
0.0
  0
LINE
  5
2C0B1
330
18
100
AcDbEntity
  8
01
100
AcDbLine
 10
3578.146833360129
 20
-2290.833564425446
 30
0.0
 11
3578.146833360129
 21
-2338.833564425446
 31
0.0
  0
LINE
  5
2C0B2
330
18
100
AcDbEntity
  8
01
100
AcDbLine
 10
3576.646833360129
 20
-2338.833564425446
 30
0.0
 11
3578.146833360129
 21
-2338.833564425446
 31
0.0
  0
LINE
  5
2C0B3
330
18
100
AcDbEntity
  8
1PHANTOM
100
AcDbLine
 10
3317.646833360129
 20
-2061.333564425444
 30
0.0
 11
3317.646833360129
 21
-2070.333564425444
 31
0.0
  0
LINE
  5
2C0B4
330
18
100
AcDbEntity
  8
1PHANTOM
100
AcDbLine
 10
3323.646833360129
 20
-2061.333564425444
 30
0.0
 11
3323.646833360129
 21
-2070.333564425444
 31
0.0
  0
ARC
  5
2C0B5
330
18
100
AcDbEntity
  8
1PHANTOM
100
AcDbCircle
 10
3320.646833360129
 20
-2061.333564425444
 30
0.0
 40
3.0
100
AcDbArc
 50
0.0
 51
180.0
  0
ARC
  5
2C0B6
330
18
100
AcDbEntity
  8
1PHANTOM
100
AcDbCircle
 10
3320.646833360129
 20
-2070.333564425444
 30
0.0
 40
3.0
100
AcDbArc
 50
180.0
 51
0.0
  0
LINE
  5
2C0B7
330
18
100
AcDbEntity
  8
1PHANTOM
100
AcDbLine
 10
3316.146833360129
 20
-2268.833564425444
 30
0.0
 11
3325.146833360129
 21
-2268.833564425444
 31
0.0
  0
LINE
  5
2C0B8
330
18
100
AcDbEntity
  8
1PHANTOM
100
AcDbLine
 10
3316.146833360129
 20
-2262.833564425444
 30
0.0
 11
3325.146833360129
 21
-2262.833564425444
 31
0.0
  0
ARC
  5
2C0B9
330
18
100
AcDbEntity
  8
1PHANTOM
100
AcDbCircle
 10
3316.146833360129
 20
-2265.833564425444
 30
0.0
 40
3.0
100
AcDbArc
 50
90.0
 51
270.0
  0
ARC
  5
2C0BA
330
18
100
AcDbEntity
  8
1PHANTOM
100
AcDbCircle
 10
3325.146833360129
 20
-2265.833564425444
 30
0.0
 40
3.0
100
AcDbArc
 50
270.0
 51
90.0
  0
LINE
  5
2C0BB
330
18
100
AcDbEntity
  8
1CENTER
100
AcDbLine
 10
3320.646833360129
 20
-2055.923074406449
 30
0.0
 11
3320.646833360129
 21
-2075.744054444439
 31
0.0
  0
LINE
  5
2C0BC
330
18
100
AcDbEntity
  8
1CENTER
100
AcDbLine
 10
3315.465219946452
 20
-2065.833564425444
 30
0.0
 11
3325.828446773806
 21
-2065.833564425444
 31
0.0
  0
LINE
  5
2C0BD
330
18
100
AcDbEntity
  8
1CENTER
100
AcDbLine
 10
3310.736343341134
 20
-2265.833564425444
 30
0.0
 11
3330.557323379124
 21
-2265.833564425444
 31
0.0
  0
LINE
  5
2C0BE
330
18
100
AcDbEntity
  8
1CENTER
100
AcDbLine
 10
3320.646833360129
 20
-2271.01517783912
 30
0.0
 11
3320.646833360129
 21
-2260.651951011767
 31
0.0
  0
LINE
  5
2C0BF
330
18
100
AcDbEntity
  8
1PHANTOM
100
AcDbLine
 10
3438.646833360129
 20
-2061.333564425444
 30
0.0
 11
3438.646833360129
 21
-2070.333564425444
 31
0.0
  0
LINE
  5
2C0C0
330
18
100
AcDbEntity
  8
1PHANTOM
100
AcDbLine
 10
3432.646833360129
 20
-2061.333564425444
 30
0.0
 11
3432.646833360129
 21
-2070.333564425444
 31
0.0
  0
ARC
  5
2C0C1
330
18
100
AcDbEntity
  8
1PHANTOM
100
AcDbCircle
 10
3435.646833360129
 20
-2061.333564425444
 30
0.0
 40
3.0
100
AcDbArc
 50
0.0
 51
180.0
  0
ARC
  5
2C0C2
330
18
100
AcDbEntity
  8
1PHANTOM
100
AcDbCircle
 10
3435.646833360129
 20
-2070.333564425444
 30
0.0
 40
3.0
100
AcDbArc
 50
180.0
 51
0.0
  0
LINE
  5
2C0C3
330
18
100
AcDbEntity
  8
1CENTER
100
AcDbLine
 10
3435.646833360129
 20
-2055.923074406449
 30
0.0
 11
3435.646833360129
 21
-2075.744054444439
 31
0.0
  0
LINE
  5
2C0C4
330
18
100
AcDbEntity
  8
1CENTER
100
AcDbLine
 10
3440.828446773805
 20
-2065.833564425444
 30
0.0
 11
3430.465219946452
 21
-2065.833564425444
 31
0.0
  0
LINE
  5
2C0C5
330
18
100
AcDbEntity
  8
1PHANTOM
100
AcDbLine
 10
3440.146833360129
 20
-2268.833564425444
 30
0.0
 11
3431.146833360129
 21
-2268.833564425444
 31
0.0
  0
LINE
  5
2C0C6
330
18
100
AcDbEntity
  8
1PHANTOM
100
AcDbLine
 10
3440.146833360129
 20
-2262.833564425444
 30
0.0
 11
3431.146833360129
 21
-2262.833564425444
 31
0.0
  0
ARC
  5
2C0C7
330
18
100
AcDbEntity
  8
1PHANTOM
100
AcDbCircle
 10
3440.146833360129
 20
-2265.833564425444
 30
0.0
 40
3.0
100
AcDbArc
 50
270.0
 51
90.0
  0
ARC
  5
2C0C8
330
18
100
AcDbEntity
  8
1PHANTOM
100
AcDbCircle
 10
3431.146833360129
 20
-2265.833564425444
 30
0.0
 40
3.0
100
AcDbArc
 50
90.0
 51
270.0
  0
LINE
  5
2C0C9
330
18
100
AcDbEntity
  8
1CENTER
100
AcDbLine
 10
3445.557323379124
 20
-2265.833564425444
 30
0.0
 11
3425.736343341134
 21
-2265.833564425444
 31
0.0
  0
LINE
  5
2C0CA
330
18
100
AcDbEntity
  8
1CENTER
100
AcDbLine
 10
3435.646833360129
 20
-2271.01517783912
 30
0.0
 11
3435.646833360129
 21
-2260.651951011767
 31
0.0
  0
LINE
  5
2C0CB
330
18
100
AcDbEntity
  8
01
100
AcDbLine
 10
3603.146833360129
 20
-2321.333564425446
 30
0.0
 11
3603.146833360129
 21
-2336.333564425446
 31
0.0
  0
ARC
  5
2C0CC
330
18
100
AcDbEntity
  8
01
100
AcDbCircle
 10
3602.146833360129
 20
-2336.333564425446
 30
0.0
 40
1.0
100
AcDbArc
 50
270.0
 51
0.0
  0
LINE
  5
2C0CD
330
18
100
AcDbEntity
  8
01
100
AcDbLine
 10
3602.121158529518
 20
-2337.333564425446
 30
0.0
 11
3602.146833360129
 21
-2337.333564425446
 31
0.0
  0
ARC
  5
2C0CE
330
18
100
AcDbEntity
  8
01
100
AcDbCircle
 10
3602.146833360129
 20
-2321.333564425446
 30
0.0
 40
1.0
100
AcDbArc
 50
0.0
 51
90.0
  0
ARC
  5
2C0CF
330
18
100
AcDbEntity
  8
01
100
AcDbCircle
 10
3592.396833360129
 20
-2313.076619981001
 30
0.0
 40
11.75694444444452
100
AcDbArc
 50
319.6653452843622
 51
321.8845909797316
  0
ARC
  5
2C0D0
330
18
100
AcDbEntity
  8
01
100
AcDbCircle
 10
3592.396833360129
 20
-2313.076619981001
 30
0.0
 40
11.75694444444452
100
AcDbArc
 50
218.1154090202683
 51
319.6653452843622
  0
ARC
  5
2C0D1
330
18
100
AcDbEntity
  8
01
100
AcDbCircle
 10
3602.121158529518
 20
-2321.333564425446
 30
0.0
 40
1.0
100
AcDbArc
 50
90.0
 51
139.6653452843622
  0
ARC
  5
2C0D2
330
18
100
AcDbEntity
  8
01
100
AcDbCircle
 10
3592.396833360129
 20
-2344.590508869891
 30
0.0
 40
11.75694444444452
100
AcDbArc
 50
40.33465471563778
 51
141.8845909797317
  0
ARC
  5
2C0D3
330
18
100
AcDbEntity
  8
01
100
AcDbCircle
 10
3602.121158529518
 20
-2336.333564425446
 30
0.0
 40
1.0
100
AcDbArc
 50
220.3346547156378
 51
270.0
  0
LINE
  5
2C0D4
330
18
100
AcDbEntity
  8
01
100
AcDbLine
 10
3602.121158529518
 20
-2320.333564425446
 30
0.0
 11
3601.646833360129
 21
-2320.333564425446
 31
0.0
  0
LINE
  5
2C0D5
330
18
100
AcDbEntity
  8
01
100
AcDbLine
 10
3602.146833360129
 20
-2320.333564425446
 30
0.0
 11
3602.121158529518
 21
-2320.333564425446
 31
0.0
  0
ARC
  5
2C0D6
330
18
100
AcDbEntity
  8
01
100
AcDbCircle
 10
3592.396833360129
 20
-2344.590508869891
 30
0.0
 40
11.75694444444452
100
AcDbArc
 50
38.11540902026831
 51
40.33465471563778
  0
LINE
  5
2C0D7
330
18
100
AcDbEntity
  8
01
100
AcDbLine
 10
3602.121158529518
 20
-2337.333564425446
 30
0.0
 11
3601.646833360129
 21
-2337.333564425446
 31
0.0
  0
LINE
  5
2C0D8
330
18
100
AcDbEntity
  8
01
100
AcDbLine
 10
3583.14683336013
 20
-2337.333564425445
 30
0.0
 11
3583.14683336013
 21
-2320.333564425447
 31
0.0
  0
LINE
  5
2C0D9
330
18
100
AcDbEntity
  8
01
100
AcDbLine
 10
3583.14683336013
 20
-2337.333564425445
 30
0.0
 11
3578.146833360129
 21
-2337.333564425445
 31
0.0
  0
LINE
  5
2C0DA
330
18
100
AcDbEntity
  8
01
100
AcDbLine
 10
3583.14683336013
 20
-2320.333564425447
 30
0.0
 11
3578.146833360129
 21
-2320.333564425447
 31
0.0
  0
LINE
  5
2C0DB
330
18
100
AcDbEntity
  8
01
100
AcDbLine
 10
3308.79683336013
 20
-1818.637892746648
 30
0.0
 11
3342.396833360128
 21
-1818.637892746648
 31
0.0
  0
LINE
  5
2C0DC
330
18
100
AcDbEntity
  8
01
100
AcDbLine
 10
3307.796833360129
 20
-1869.337892746649
 30
0.0
 11
3307.79683336013
 21
-1819.637892746648
 31
0.0
  0
ARC
  5
2C0DD
330
18
100
AcDbEntity
  8
01
100
AcDbCircle
 10
3308.79683336013
 20
-1819.637892746648
 30
0.0
 40
1.0
100
AcDbArc
 50
90.0
 51
180.0
  0
LINE
  5
2C0DE
330
18
100
AcDbEntity
  8
01
100
AcDbLine
 10
3342.896833360128
 20
-1819.137892746648
 30
0.0
 11
3342.896833360129
 21
-1820.137892746648
 31
0.0
  0
ARC
  5
2C0DF
330
18
100
AcDbEntity
  8
01
100
AcDbCircle
 10
3342.396833360128
 20
-1819.137892746648
 30
0.0
 40
0.5
100
AcDbArc
 50
0.0
 51
90.0
  0
ARC
  5
2C0E0
330
18
100
AcDbEntity
  8
01
100
AcDbCircle
 10
3308.796833360129
 20
-1869.337892746649
 30
0.0
 40
1.0
100
AcDbArc
 50
180.0
 51
270.0
  0
LINE
  5
2C0E1
330
18
100
AcDbEntity
  8
01
100
AcDbLine
 10
3332.646833360129
 20
-1869.837892746648
 30
0.0
 11
3332.646833360129
 21
-1868.337892746648
 31
0.0
  0
ARC
  5
2C0E2
330
18
100
AcDbEntity
  8
01
100
AcDbCircle
 10
3332.146833360129
 20
-1869.837892746648
 30
0.0
 40
0.5
100
AcDbArc
 50
270.0
 51
0.0
  0
LINE
  5
2C10B
330
18
100
AcDbEntity
  8
01
100
AcDbLine
 10
3413.896833360129
 20
-1818.637892746648
 30
0.0
 11
3447.496833360129
 21
-1818.637892746648
 31
0.0
  0
ARC
  5
2C10C
330
18
100
AcDbEntity
  8
01
100
AcDbCircle
 10
3447.496833360129
 20
-1819.637892746648
 30
0.0
 40
1.0
100
AcDbArc
 50
0.0
 51
90.0
  0
LINE
  5
2C10D
330
18
100
AcDbEntity
  8
01
100
AcDbLine
 10
3342.896833360129
 20
-1820.137892746648
 30
0.0
 11
3343.146833360128
 21
-1820.137892746648
 31
0.0
  0
LINE
  5
2C10E
330
18
100
AcDbEntity
  8
01
100
AcDbLine
 10
3413.146833360129
 20
-1820.137892746648
 30
0.0
 11
3413.396833360129
 21
-1820.137892746648
 31
0.0
  0
LINE
  5
2C10F
330
18
100
AcDbEntity
  8
01
100
AcDbLine
 10
3448.496833360129
 20
-1869.337892746649
 30
0.0
 11
3448.496833360129
 21
-1819.637892746648
 31
0.0
  0
ARC
  5
2C110
330
18
100
AcDbEntity
  8
01
100
AcDbCircle
 10
3447.496833360129
 20
-1869.337892746649
 30
0.0
 40
1.0
100
AcDbArc
 50
270.0
 51
0.0
  0
LINE
  5
2C111
330
18
100
AcDbEntity
  8
01
100
AcDbLine
 10
3413.396833360129
 20
-1819.137892746648
 30
0.0
 11
3413.396833360129
 21
-1820.137892746648
 31
0.0
  0
ARC
  5
2C112
330
18
100
AcDbEntity
  8
01
100
AcDbCircle
 10
3413.896833360129
 20
-1819.137892746648
 30
0.0
 40
0.5
100
AcDbArc
 50
90.0
 51
179.9999999999739
  0
LINE
  5
2C113
330
18
100
AcDbEntity
  8
01
100
AcDbLine
 10
3329.646833360131
 20
-1868.337892746648
 30
0.0
 11
3426.646833360128
 21
-1868.337892746645
 31
0.0
  0
LINE
  5
2C114
330
18
100
AcDbEntity
  8
01
100
AcDbLine
 10
3322.146833360129
 20
-1828.333564425443
 30
0.0
 11
3322.146833360129
 21
-1860.333564425443
 31
0.0
  0
ARC
  5
2C115
330
18
100
AcDbEntity
  8
01
100
AcDbCircle
 10
3324.146833360129
 20
-1860.333564425443
 30
0.0
 40
2.0
100
AcDbArc
 50
180.0
 51
270.0
  0
LINE
  5
2C116
330
18
100
AcDbEntity
  8
01
100
AcDbLine
 10
3434.146833360129
 20
-1828.333564425443
 30
0.0
 11
3434.146833360129
 21
-1860.333564425443
 31
0.0
  0
ARC
  5
2C117
330
18
100
AcDbEntity
  8
01
100
AcDbCircle
 10
3432.146833360129
 20
-1828.333564425443
 30
0.0
 40
2.0
100
AcDbArc
 50
0.0
 51
90.0
  0
LINE
  5
2C118
330
18
100
AcDbEntity
  8
01
100
AcDbLine
 10
3423.646833360129
 20
-1869.837892746648
 30
0.0
 11
3423.646833360128
 21
-1868.337892746645
 31
0.0
  0
ARC
  5
2C119
330
18
100
AcDbEntity
  8
01
100
AcDbCircle
 10
3424.146833360129
 20
-1869.837892746648
 30
0.0
 40
0.5
100
AcDbArc
 50
180.0
 51
270.0
  0
LINE
  5
2C11A
330
18
100
AcDbEntity
  8
01
100
AcDbLine
 10
3324.146833360129
 20
-1826.333564425443
 30
0.0
 11
3432.146833360129
 21
-1826.333564425443
 31
0.0
  0
ARC
  5
2C11B
330
18
100
AcDbEntity
  8
01
100
AcDbCircle
 10
3324.146833360129
 20
-1828.333564425443
 30
0.0
 40
2.0
100
AcDbArc
 50
90.0
 51
180.0
  0
LINE
  5
2C11C
330
18
100
AcDbEntity
  8
01
100
AcDbLine
 10
3324.146833360129
 20
-1862.333564425443
 30
0.0
 11
3432.146833360129
 21
-1862.333564425443
 31
0.0
  0
ARC
  5
2C11D
330
18
100
AcDbEntity
  8
01
100
AcDbCircle
 10
3432.146833360129
 20
-1860.333564425443
 30
0.0
 40
2.0
100
AcDbArc
 50
270.0
 51
0.0
  0
LINE
  5
2C146
330
18
100
AcDbEntity
  8
01
100
AcDbLine
 10
3426.646833360129
 20
-1869.837892746648
 30
0.0
 11
3426.646833360128
 21
-1868.337892746645
 31
0.0
  0
ARC
  5
2C147
330
18
100
AcDbEntity
  8
01
100
AcDbCircle
 10
3427.146833360129
 20
-1869.837892746648
 30
0.0
 40
0.5
100
AcDbArc
 50
180.0
 51
270.0
  0
LINE
  5
2C148
330
18
100
AcDbEntity
  8
01
100
AcDbLine
 10
3329.646833360131
 20
-1869.837892746648
 30
0.0
 11
3329.646833360131
 21
-1868.337892746648
 31
0.0
  0
ARC
  5
2C149
330
18
100
AcDbEntity
  8
01
100
AcDbCircle
 10
3329.146833360131
 20
-1869.837892746648
 30
0.0
 40
0.5
100
AcDbArc
 50
270.0
 51
0.0
  0
LINE
  5
2C14A
330
18
100
AcDbEntity
  8
01
100
AcDbLine
 10
3306.646833360129
 20
-1872.333564425443
 30
0.0
 11
3449.646833360129
 21
-1872.333564425443
 31
0.0
  0
LINE
  5
2C14B
330
18
100
AcDbEntity
  8
01
100
AcDbLine
 10
3306.646833360129
 20
-1877.333564425443
 30
0.0
 11
3449.646833360129
 21
-1877.333564425443
 31
0.0
  0
LINE
  5
2C14C
330
18
100
AcDbEntity
  8
01
100
AcDbLine
 10
3450.646833360129
 20
-1876.333564425443
 30
0.0
 11
3449.646833360129
 21
-1877.333564425443
 31
0.0
  0
LINE
  5
2C14D
330
18
100
AcDbEntity
  8
01
100
AcDbLine
 10
3305.646833360129
 20
-1876.333564425443
 30
0.0
 11
3306.646833360129
 21
-1877.333564425443
 31
0.0
  0
LINE
  5
2C14E
330
18
100
AcDbEntity
  8
01
100
AcDbLine
 10
3446.64683336013
 20
-1872.333564425443
 30
0.0
 11
3446.646833360129
 21
-1870.333564425443
 31
0.0
  0
LINE
  5
2C14F
330
18
100
AcDbEntity
  8
01
100
AcDbLine
 10
3307.646833360129
 20
-1871.333564425443
 30
0.0
 11
3448.646833360129
 21
-1871.333564425443
 31
0.0
  0
LINE
  5
2C150
330
18
100
AcDbEntity
  8
01
100
AcDbLine
 10
3441.646833360128
 20
-1868.333564425443
 30
0.0
 11
3444.646833360129
 21
-1868.333564425443
 31
0.0
  0
ARC
  5
2C151
330
18
100
AcDbEntity
  8
01
100
AcDbCircle
 10
3444.646833360129
 20
-1870.333564425443
 30
0.0
 40
2.0
100
AcDbArc
 50
0.0
 51
90.0
  0
LINE
  5
2C152
330
18
100
AcDbEntity
  8
01
100
AcDbLine
 10
3444.14683336013
 20
-1868.333564425443
 30
0.0
 11
3444.14683336013
 21
-1866.333564425443
 31
0.0
  0
LINE
  5
2C153
330
18
100
AcDbEntity
  8
01
100
AcDbLine
 10
3443.146833360129
 20
-1868.333564425443
 30
0.0
 11
3443.14683336013
 21
-1866.333564425443
 31
0.0
  0
LINE
  5
2C154
330
18
100
AcDbEntity
  8
01
100
AcDbLine
 10
3444.14683336013
 20
-1866.333564425443
 30
0.0
 11
3443.14683336013
 21
-1866.333564425443
 31
0.0
  0
LINE
  5
2C155
330
18
100
AcDbEntity
  8
01
100
AcDbLine
 10
3312.146833360129
 20
-1868.333564425443
 30
0.0
 11
3312.146833360129
 21
-1866.333564425443
 31
0.0
  0
LINE
  5
2C156
330
18
100
AcDbEntity
  8
01
100
AcDbLine
 10
3312.146833360129
 20
-1866.333564425443
 30
0.0
 11
3313.146833360129
 21
-1866.333564425443
 31
0.0
  0
LINE
  5
2C157
330
18
100
AcDbEntity
  8
01
100
AcDbLine
 10
3313.146833360129
 20
-1868.333564425443
 30
0.0
 11
3313.146833360129
 21
-1866.333564425443
 31
0.0
  0
LINE
  5
2C158
330
18
100
AcDbEntity
  8
01
100
AcDbLine
 10
3415.14683336013
 20
-1868.833564425443
 30
0.0
 11
3399.146833360129
 21
-1868.833564425443
 31
0.0
  0
LINE
  5
2C159
330
18
100
AcDbEntity
  8
01
100
AcDbLine
 10
3415.14683336013
 20
-1869.833564425443
 30
0.0
 11
3399.146833360129
 21
-1869.833564425443
 31
0.0
  0
LINE
  5
2C15A
330
18
100
AcDbEntity
  8
01
100
AcDbLine
 10
3398.14683336013
 20
-1868.833564425443
 30
0.0
 11
3358.146833360127
 21
-1868.833564425443
 31
0.0
  0
LINE
  5
2C15B
330
18
100
AcDbEntity
  8
01
100
AcDbLine
 10
3357.146833360128
 20
-1868.833564425443
 30
0.0
 11
3341.146833360127
 21
-1868.833564425443
 31
0.0
  0
LINE
  5
2C15C
330
18
100
AcDbEntity
  8
01
100
AcDbLine
 10
3357.146833360128
 20
-1869.833564425443
 30
0.0
 11
3341.146833360127
 21
-1869.833564425443
 31
0.0
  0
LINE
  5
2C15D
330
18
100
AcDbEntity
  8
01
100
AcDbLine
 10
3441.646833360128
 20
-1871.333564425443
 30
0.0
 11
3441.646833360128
 21
-1868.333564425443
 31
0.0
  0
LINE
  5
2C15E
330
18
100
AcDbEntity
  8
01
100
AcDbLine
 10
3441.146833360128
 20
-1871.333564425443
 30
0.0
 11
3441.146833360129
 21
-1870.33356442544
 31
0.0
  0
LINE
  5
2C15F
330
18
100
AcDbEntity
  8
01
100
AcDbLine
 10
3309.646833360129
 20
-1872.333564425443
 30
0.0
 11
3309.646833360129
 21
-1870.333564425443
 31
0.0
  0
LINE
  5
2C160
330
18
100
AcDbEntity
  8
01
100
AcDbLine
 10
3314.646833360131
 20
-1868.333564425443
 30
0.0
 11
3311.646833360129
 21
-1868.333564425443
 31
0.0
  0
ARC
  5
2C161
330
18
100
AcDbEntity
  8
01
100
AcDbCircle
 10
3311.646833360129
 20
-1870.333564425443
 30
0.0
 40
2.0
100
AcDbArc
 50
90.0
 51
180.0
  0
LINE
  5
2C162
330
18
100
AcDbEntity
  8
01
100
AcDbLine
 10
3314.64683336013
 20
-1871.333564425443
 30
0.0
 11
3314.646833360131
 21
-1868.333564425443
 31
0.0
  0
LINE
  5
2C163
330
18
100
AcDbEntity
  8
01
100
AcDbLine
 10
3315.14683336013
 20
-1871.333564425443
 30
0.0
 11
3315.14683336013
 21
-1870.333564425443
 31
0.0
  0
LINE
  5
2C164
330
18
100
AcDbEntity
  8
01
100
AcDbLine
 10
3358.146833360127
 20
-1871.333564425443
 30
0.0
 11
3358.146833360127
 21
-1868.833564425443
 31
0.0
  0
LINE
  5
2C165
330
18
100
AcDbEntity
  8
01
100
AcDbLine
 10
3398.14683336013
 20
-1871.333564425443
 30
0.0
 11
3398.14683336013
 21
-1868.833564425443
 31
0.0
  0
LINE
  5
2C166
330
18
100
AcDbEntity
  8
01
100
AcDbLine
 10
3415.146833360129
 20
-1870.33356442544
 30
0.0
 11
3415.14683336013
 21
-1868.833564425443
 31
0.0
  0
LINE
  5
2C167
330
18
100
AcDbEntity
  8
01
100
AcDbLine
 10
3399.146833360129
 20
-1870.33356442544
 30
0.0
 11
3399.14683336013
 21
-1868.833564425443
 31
0.0
  0
LINE
  5
2C168
330
18
100
AcDbEntity
  8
01
100
AcDbLine
 10
3341.146833360127
 20
-1870.333564425442
 30
0.0
 11
3341.146833360127
 21
-1868.833564425443
 31
0.0
  0
LINE
  5
2C169
330
18
100
AcDbEntity
  8
01
100
AcDbLine
 10
3357.146833360128
 20
-1870.333564425441
 30
0.0
 11
3357.146833360128
 21
-1868.833564425443
 31
0.0
  0
LINE
  5
2C16F
330
18
100
AcDbEntity
  8
01
100
AcDbLine
 10
3579.64683336013
 20
-2010.833564425444
 30
0.0
 11
3579.64683336013
 21
-2011.833564425445
 31
0.0
  0
LINE
  5
2C170
330
18
100
AcDbEntity
  8
01
100
AcDbLine
 10
3579.146833360129
 20
-2009.833564425442
 30
0.0
 11
3579.146833360129
 21
-2010.833564425444
 31
0.0
  0
LINE
  5
2C171
330
18
100
AcDbEntity
  8
01
100
AcDbLine
 10
3579.146833360129
 20
-2011.833564425445
 30
0.0
 11
3579.146833360129
 21
-2013.833564425442
 31
0.0
  0
LINE
  5
2C172
330
18
100
AcDbEntity
  8
01
100
AcDbLine
 10
3578.146833360129
 20
-2009.833564425442
 30
0.0
 11
3578.146833360129
 21
-2010.833564425444
 31
0.0
  0
LINE
  5
2C173
330
18
100
AcDbEntity
  8
01
100
AcDbLine
 10
3578.146833360129
 20
-2011.833564425445
 30
0.0
 11
3578.146833360129
 21
-2013.833564425442
 31
0.0
  0
LINE
  5
2C174
330
18
100
AcDbEntity
  8
01
100
AcDbLine
 10
3578.146833360129
 20
-2009.833564425442
 30
0.0
 11
3579.146833360129
 21
-2009.833564425442
 31
0.0
  0
LINE
  5
2C175
330
18
100
AcDbEntity
  8
01
100
AcDbLine
 10
3576.64683336013
 20
-2011.833564425444
 30
0.0
 11
3579.64683336013
 21
-2011.833564425445
 31
0.0
  0
LINE
  5
2C176
330
18
100
AcDbEntity
  8
01
100
AcDbLine
 10
3576.64683336013
 20
-2010.833564425444
 30
0.0
 11
3579.64683336013
 21
-2010.833564425444
 31
0.0
  0
LINE
  5
2C177
330
18
100
AcDbEntity
  8
01
100
AcDbLine
 10
3579.146833360129
 20
-1967.833564425444
 30
0.0
 11
3579.146833360129
 21
-1959.833564425443
 31
0.0
  0
LINE
  5
2C178
330
18
100
AcDbEntity
  8
01
100
AcDbLine
 10
3578.146833360129
 20
-1967.833564425444
 30
0.0
 11
3578.146833360129
 21
-1959.833564425443
 31
0.0
  0
LINE
  5
2C179
330
18
100
AcDbEntity
  8
01
100
AcDbLine
 10
3576.646833360129
 20
-1958.833564425443
 30
0.0
 11
3578.146833360129
 21
-1958.833564425443
 31
0.0
  0
ARC
  5
2C17A
330
18
100
AcDbEntity
  8
01
100
AcDbCircle
 10
3578.146833360129
 20
-1959.833564425443
 30
0.0
 40
1.0
100
AcDbArc
 50
0.0
 51
90.0
  0
LINE
  5
2C17B
330
18
100
AcDbEntity
  8
01
100
AcDbLine
 10
3576.64683336013
 20
-1959.833564425443
 30
0.0
 11
3578.146833360129
 21
-1959.833564425443
 31
0.0
  0
LINE
  5
2C17C
330
18
100
AcDbEntity
  8
01
100
AcDbLine
 10
3578.146833360129
 20
-1967.833564425444
 30
0.0
 11
3579.146833360129
 21
-1967.833564425444
 31
0.0
  0
LINE
  5
2C17D
330
18
100
AcDbEntity
  8
01
100
AcDbLine
 10
3630.646833360129
 20
-2352.975266469918
 30
0.0
 11
3630.646833360129
 21
-1900.637922644627
 31
0.0
  0
LINE
  5
2C17E
330
18
100
AcDbEntity
  8
01
100
AcDbLine
 10
3650.646833360129
 20
-2352.975266469918
 30
0.0
 11
3650.646833360129
 21
-1900.637922644627
 31
0.0
  0
LINE
  5
2C183
330
18
100
AcDbEntity
  8
1PHANTOM
100
AcDbLine
 10
3645.764698946175
 20
-2263.333564425444
 30
0.0
 11
3646.764698946175
 21
-2268.333564425444
 31
0.0
  0
LINE
  5
2C184
330
18
100
AcDbEntity
  8
1PHANTOM
100
AcDbLine
 10
3671.093186590677
 20
-2265.833564425444
 30
0.0
 11
3624.663880609983
 21
-2265.833564425444
 31
0.0
  0
LINE
  5
2C185
330
18
100
AcDbEntity
  8
1PHANTOM
100
AcDbLine
 10
3663.115744446884
 20
-2264.083564425444
 30
0.0
 11
3629.646833360129
 21
-2264.083564425444
 31
0.0
  0
LINE
  5
2C186
330
18
100
AcDbEntity
  8
1PHANTOM
100
AcDbLine
 10
3669.646833360129
 20
-2265.833564425444
 30
0.0
 11
3663.115744446884
 21
-2264.083564425444
 31
0.0
  0
LINE
  5
2C187
330
18
100
AcDbEntity
  8
1PHANTOM
100
AcDbLine
 10
3669.646833360129
 20
-2265.833564425444
 30
0.0
 11
3663.115744446884
 21
-2267.583564425444
 31
0.0
  0
LINE
  5
2C188
330
18
100
AcDbEntity
  8
1PHANTOM
100
AcDbLine
 10
3663.115744446884
 20
-2267.583564425444
 30
0.0
 11
3629.646833360129
 21
-2267.583564425444
 31
0.0
  0
LINE
  5
2C189
330
18
100
AcDbEntity
  8
1PHANTOM
100
AcDbLine
 10
3663.801445557968
 20
-2263.517297484409
 30
0.0
 11
3663.651445557968
 21
-2264.267297484409
 31
0.0
  0
LINE
  5
2C18A
330
18
100
AcDbEntity
  8
1PHANTOM
100
AcDbLine
 10
3663.801445557968
 20
-2263.517297484409
 30
0.0
 11
3664.680826454186
 21
-2267.914201965499
 31
0.0
  0
LINE
  5
2C18B
330
18
100
AcDbEntity
  8
1PHANTOM
100
AcDbLine
 10
3668.627370283564
 20
-2266.146921112388
 30
0.0
 11
3668.477370283564
 21
-2266.896921112388
 31
0.0
  0
LINE
  5
2C18C
330
18
100
AcDbEntity
  8
1PHANTOM
100
AcDbLine
 10
3668.027942866071
 20
-2264.649784024927
 30
0.0
 11
3667.877942866071
 21
-2265.399784024927
 31
0.0
  0
LINE
  5
2C18D
330
18
100
AcDbEntity
  8
1PHANTOM
100
AcDbLine
 10
3668.027942866071
 20
-2264.649784024927
 30
0.0
 11
3668.477370283564
 21
-2266.896921112388
 31
0.0
  0
LINE
  5
2C18E
330
18
100
AcDbEntity
  8
1PHANTOM
100
AcDbLine
 10
3664.830826454186
 20
-2267.164201965499
 30
0.0
 11
3664.680826454186
 21
-2267.914201965499
 31
0.0
  0
LINE
  5
2C18F
330
18
100
AcDbEntity
  8
1PHANTOM
100
AcDbLine
 10
3666.729098368875
 20
-2266.655561538944
 30
0.0
 11
3666.579098368875
 21
-2267.405561538944
 31
0.0
  0
LINE
  5
2C190
330
18
100
AcDbEntity
  8
1PHANTOM
100
AcDbLine
 10
3665.91469421202
 20
-2264.083540754668
 30
0.0
 11
3665.76469421202
 21
-2264.833540754668
 31
0.0
  0
LINE
  5
2C191
330
18
100
AcDbEntity
  8
1PHANTOM
100
AcDbLine
 10
3665.91469421202
 20
-2264.083540754668
 30
0.0
 11
3666.579098368875
 21
-2267.405561538944
 31
0.0
  0
LINE
  5
2C192
330
18
100
AcDbEntity
  8
1PHANTOM
100
AcDbLine
 10
3654.914698946175
 20
-2267.583564425444
 30
0.0
 11
3654.764698946175
 21
-2268.333564425444
 31
0.0
  0
LINE
  5
2C193
330
18
100
AcDbEntity
  8
1PHANTOM
100
AcDbLine
 10
3657.764698946175
 20
-2263.333564425444
 30
0.0
 11
3657.614698946175
 21
-2264.083564425444
 31
0.0
  0
LINE
  5
2C194
330
18
100
AcDbEntity
  8
1PHANTOM
100
AcDbLine
 10
3655.764698946175
 20
-2263.333564425444
 30
0.0
 11
3655.614698946175
 21
-2264.083564425444
 31
0.0
  0
LINE
  5
2C195
330
18
100
AcDbEntity
  8
1PHANTOM
100
AcDbLine
 10
3655.764698946175
 20
-2263.333564425444
 30
0.0
 11
3656.764698946175
 21
-2268.333564425444
 31
0.0
  0
LINE
  5
2C196
330
18
100
AcDbEntity
  8
1PHANTOM
100
AcDbLine
 10
3659.764698946175
 20
-2263.333564425444
 30
0.0
 11
3659.614698946175
 21
-2264.083564425444
 31
0.0
  0
LINE
  5
2C197
330
18
100
AcDbEntity
  8
1PHANTOM
100
AcDbLine
 10
3661.764698946175
 20
-2263.333564425444
 30
0.0
 11
3661.614698946175
 21
-2264.083564425444
 31
0.0
  0
LINE
  5
2C198
330
18
100
AcDbEntity
  8
1PHANTOM
100
AcDbLine
 10
3661.764698946175
 20
-2263.333564425444
 30
0.0
 11
3662.764698946175
 21
-2268.333564425444
 31
0.0
  0
LINE
  5
2C199
330
18
100
AcDbEntity
  8
1PHANTOM
100
AcDbLine
 10
3659.764698946175
 20
-2263.333564425444
 30
0.0
 11
3660.764698946175
 21
-2268.333564425444
 31
0.0
  0
LINE
  5
2C19A
330
18
100
AcDbEntity
  8
1PHANTOM
100
AcDbLine
 10
3657.764698946175
 20
-2263.333564425444
 30
0.0
 11
3658.764698946175
 21
-2268.333564425444
 31
0.0
  0
LINE
  5
2C19B
330
18
100
AcDbEntity
  8
1PHANTOM
100
AcDbLine
 10
3662.914698946175
 20
-2267.583564425444
 30
0.0
 11
3662.764698946175
 21
-2268.333564425444
 31
0.0
  0
LINE
  5
2C19C
330
18
100
AcDbEntity
  8
1PHANTOM
100
AcDbLine
 10
3660.914698946175
 20
-2267.583564425444
 30
0.0
 11
3660.764698946175
 21
-2268.333564425444
 31
0.0
  0
LINE
  5
2C19D
330
18
100
AcDbEntity
  8
1PHANTOM
100
AcDbLine
 10
3656.914698946175
 20
-2267.583564425444
 30
0.0
 11
3656.764698946175
 21
-2268.333564425444
 31
0.0
  0
LINE
  5
2C19E
330
18
100
AcDbEntity
  8
1PHANTOM
100
AcDbLine
 10
3658.914698946175
 20
-2267.583564425444
 30
0.0
 11
3658.764698946175
 21
-2268.333564425444
 31
0.0
  0
LINE
  5
2C19F
330
18
100
AcDbEntity
  8
1PHANTOM
100
AcDbLine
 10
3651.764698946175
 20
-2263.333564425444
 30
0.0
 11
3651.614698946175
 21
-2264.083564425444
 31
0.0
  0
LINE
  5
2C1A0
330
18
100
AcDbEntity
  8
1PHANTOM
100
AcDbLine
 10
3653.764698946175
 20
-2263.333564425444
 30
0.0
 11
3653.614698946175
 21
-2264.083564425444
 31
0.0
  0
LINE
  5
2C1A1
330
18
100
AcDbEntity
  8
1PHANTOM
100
AcDbLine
 10
3647.764698946175
 20
-2263.333564425444
 30
0.0
 11
3647.614698946175
 21
-2264.083564425444
 31
0.0
  0
LINE
  5
2C1A2
330
18
100
AcDbEntity
  8
1PHANTOM
100
AcDbLine
 10
3649.764698946175
 20
-2263.333564425444
 30
0.0
 11
3649.614698946175
 21
-2264.083564425444
 31
0.0
  0
LINE
  5
2C1A3
330
18
100
AcDbEntity
  8
1PHANTOM
100
AcDbLine
 10
3653.764698946175
 20
-2263.333564425444
 30
0.0
 11
3654.764698946175
 21
-2268.333564425444
 31
0.0
  0
LINE
  5
2C1A4
330
18
100
AcDbEntity
  8
1PHANTOM
100
AcDbLine
 10
3651.764698946175
 20
-2263.333564425444
 30
0.0
 11
3652.764698946175
 21
-2268.333564425444
 31
0.0
  0
LINE
  5
2C1A5
330
18
100
AcDbEntity
  8
1PHANTOM
100
AcDbLine
 10
3649.764698946175
 20
-2263.333564425444
 30
0.0
 11
3650.764698946175
 21
-2268.333564425444
 31
0.0
  0
LINE
  5
2C1A6
330
18
100
AcDbEntity
  8
1PHANTOM
100
AcDbLine
 10
3647.764698946175
 20
-2263.333564425444
 30
0.0
 11
3648.764698946175
 21
-2268.333564425444
 31
0.0
  0
LINE
  5
2C1A7
330
18
100
AcDbEntity
  8
1PHANTOM
100
AcDbLine
 10
3650.914698946175
 20
-2267.583564425444
 30
0.0
 11
3650.764698946175
 21
-2268.333564425444
 31
0.0
  0
LINE
  5
2C1A8
330
18
100
AcDbEntity
  8
1PHANTOM
100
AcDbLine
 10
3652.914698946175
 20
-2267.583564425444
 30
0.0
 11
3652.764698946175
 21
-2268.333564425444
 31
0.0
  0
LINE
  5
2C1A9
330
18
100
AcDbEntity
  8
1PHANTOM
100
AcDbLine
 10
3646.914698946175
 20
-2267.583564425444
 30
0.0
 11
3646.764698946175
 21
-2268.333564425444
 31
0.0
  0
LINE
  5
2C1AA
330
18
100
AcDbEntity
  8
1PHANTOM
100
AcDbLine
 10
3648.914698946175
 20
-2267.583564425444
 30
0.0
 11
3648.764698946175
 21
-2268.333564425444
 31
0.0
  0
LINE
  5
2C1AB
330
18
100
AcDbEntity
  8
1PHANTOM
100
AcDbLine
 10
3629.764698946175
 20
-2263.333564425444
 30
0.0
 11
3630.764698946175
 21
-2268.333564425444
 31
0.0
  0
LINE
  5
2C1AC
330
18
100
AcDbEntity
  8
1PHANTOM
100
AcDbLine
 10
3637.764698946175
 20
-2263.333564425444
 30
0.0
 11
3638.764698946175
 21
-2268.333564425444
 31
0.0
  0
LINE
  5
2C1AD
330
18
100
AcDbEntity
  8
1PHANTOM
100
AcDbLine
 10
3645.764698946175
 20
-2263.333564425444
 30
0.0
 11
3645.614698946175
 21
-2264.083564425444
 31
0.0
  0
LINE
  5
2C1AE
330
18
100
AcDbEntity
  8
1PHANTOM
100
AcDbLine
 10
3643.764698946175
 20
-2263.333564425444
 30
0.0
 11
3643.614698946175
 21
-2264.083564425444
 31
0.0
  0
LINE
  5
2C1AF
330
18
100
AcDbEntity
  8
1PHANTOM
100
AcDbLine
 10
3641.764698946175
 20
-2263.333564425444
 30
0.0
 11
3641.614698946175
 21
-2264.083564425444
 31
0.0
  0
LINE
  5
2C1B0
330
18
100
AcDbEntity
  8
1PHANTOM
100
AcDbLine
 10
3639.764698946175
 20
-2263.333564425444
 30
0.0
 11
3639.614698946175
 21
-2264.083564425444
 31
0.0
  0
LINE
  5
2C1B1
330
18
100
AcDbEntity
  8
1PHANTOM
100
AcDbLine
 10
3643.764698946175
 20
-2263.333564425444
 30
0.0
 11
3644.764698946175
 21
-2268.333564425444
 31
0.0
  0
LINE
  5
2C1B2
330
18
100
AcDbEntity
  8
1PHANTOM
100
AcDbLine
 10
3641.764698946175
 20
-2263.333564425444
 30
0.0
 11
3642.764698946175
 21
-2268.333564425444
 31
0.0
  0
LINE
  5
2C1B3
330
18
100
AcDbEntity
  8
1PHANTOM
100
AcDbLine
 10
3639.764698946175
 20
-2263.333564425444
 30
0.0
 11
3640.764698946175
 21
-2268.333564425444
 31
0.0
  0
LINE
  5
2C1B4
330
18
100
AcDbEntity
  8
1PHANTOM
100
AcDbLine
 10
3644.914698946175
 20
-2267.583564425444
 30
0.0
 11
3644.764698946175
 21
-2268.333564425444
 31
0.0
  0
LINE
  5
2C1B5
330
18
100
AcDbEntity
  8
1PHANTOM
100
AcDbLine
 10
3642.914698946175
 20
-2267.583564425444
 30
0.0
 11
3642.764698946175
 21
-2268.333564425444
 31
0.0
  0
LINE
  5
2C1B6
330
18
100
AcDbEntity
  8
1PHANTOM
100
AcDbLine
 10
3640.914698946175
 20
-2267.583564425444
 30
0.0
 11
3640.764698946175
 21
-2268.333564425444
 31
0.0
  0
LINE
  5
2C1B7
330
18
100
AcDbEntity
  8
1PHANTOM
100
AcDbLine
 10
3638.914698946175
 20
-2267.583564425444
 30
0.0
 11
3638.764698946175
 21
-2268.333564425444
 31
0.0
  0
LINE
  5
2C1B8
330
18
100
AcDbEntity
  8
1PHANTOM
100
AcDbLine
 10
3633.764698946175
 20
-2263.333564425444
 30
0.0
 11
3633.614698946175
 21
-2264.083564425444
 31
0.0
  0
LINE
  5
2C1B9
330
18
100
AcDbEntity
  8
1PHANTOM
100
AcDbLine
 10
3635.764698946175
 20
-2263.333564425444
 30
0.0
 11
3635.614698946175
 21
-2264.083564425444
 31
0.0
  0
LINE
  5
2C1BA
330
18
100
AcDbEntity
  8
1PHANTOM
100
AcDbLine
 10
3637.764698946175
 20
-2263.333564425444
 30
0.0
 11
3637.614698946175
 21
-2264.083564425444
 31
0.0
  0
LINE
  5
2C1BB
330
18
100
AcDbEntity
  8
1PHANTOM
100
AcDbLine
 10
3631.764698946175
 20
-2263.333564425444
 30
0.0
 11
3631.614698946175
 21
-2264.083564425444
 31
0.0
  0
LINE
  5
2C1BC
330
18
100
AcDbEntity
  8
1PHANTOM
100
AcDbLine
 10
3635.764698946175
 20
-2263.333564425444
 30
0.0
 11
3636.764698946175
 21
-2268.333564425444
 31
0.0
  0
LINE
  5
2C1BD
330
18
100
AcDbEntity
  8
1PHANTOM
100
AcDbLine
 10
3633.764698946175
 20
-2263.333564425444
 30
0.0
 11
3634.764698946175
 21
-2268.333564425444
 31
0.0
  0
LINE
  5
2C1BE
330
18
100
AcDbEntity
  8
1PHANTOM
100
AcDbLine
 10
3631.764698946175
 20
-2263.333564425444
 30
0.0
 11
3632.764698946175
 21
-2268.333564425444
 31
0.0
  0
LINE
  5
2C1BF
330
18
100
AcDbEntity
  8
1PHANTOM
100
AcDbLine
 10
3634.914698946175
 20
-2267.583564425444
 30
0.0
 11
3634.764698946175
 21
-2268.333564425444
 31
0.0
  0
LINE
  5
2C1C0
330
18
100
AcDbEntity
  8
1PHANTOM
100
AcDbLine
 10
3636.914698946175
 20
-2267.583564425444
 30
0.0
 11
3636.764698946175
 21
-2268.333564425444
 31
0.0
  0
LINE
  5
2C1C1
330
18
100
AcDbEntity
  8
1PHANTOM
100
AcDbLine
 10
3632.914698946175
 20
-2267.583564425444
 30
0.0
 11
3632.764698946175
 21
-2268.333564425444
 31
0.0
  0
LINE
  5
2C1C2
330
18
100
AcDbEntity
  8
1PHANTOM
100
AcDbLine
 10
3630.914698946175
 20
-2267.583564425444
 30
0.0
 11
3630.764698946175
 21
-2268.333564425444
 31
0.0
  0
LINE
  5
2C1C3
330
18
100
AcDbEntity
  8
1PHANTOM
100
AcDbLine
 10
3629.764698946175
 20
-2263.333564425444
 30
0.0
 11
3629.614698946175
 21
-2264.083564425444
 31
0.0
  0
LINE
  5
2C1C4
330
18
100
AcDbEntity
  8
1PHANTOM
100
AcDbLine
 10
3629.646833360129
 20
-2270.583564425444
 30
0.0
 11
3629.646833360129
 21
-2261.083564425444
 31
0.0
  0
ARC
  5
2C1C5
330
18
100
AcDbEntity
  8
1PHANTOM
100
AcDbCircle
 10
3635.417666693463
 20
-2265.833564425444
 30
0.0
 40
8.270833333333439
100
AcDbArc
 50
144.9488632525305
 51
215.0511367474695
  0
LINE
  5
2C1C6
330
18
100
AcDbEntity
  8
1PHANTOM
100
AcDbLine
 10
3629.646833360129
 20
-2270.583564425444
 30
0.0
 11
3628.646833360129
 21
-2270.583564425444
 31
0.0
  0
LINE
  5
2C1C7
330
18
100
AcDbEntity
  8
1PHANTOM
100
AcDbLine
 10
3629.646833360129
 20
-2261.083564425444
 30
0.0
 11
3628.646833360129
 21
-2261.083564425444
 31
0.0
  0
LINE
  5
2C1C8
330
18
100
AcDbEntity
  8
1PHANTOM
100
AcDbLine
 10
3628.646833360129
 20
-2270.36662760511
 30
0.0
 11
3628.646833360129
 21
-2261.328196640638
 31
0.0
  0
LINE
  5
2C1C9
330
18
100
AcDbEntity
  8
1PHANTOM
100
AcDbLine
 10
3433.146833360129
 20
-1802.215698839397
 30
0.0
 11
3438.146833360129
 21
-1801.215698839397
 31
0.0
  0
LINE
  5
2C1CA
330
18
100
AcDbEntity
  8
1PHANTOM
100
AcDbLine
 10
3435.646833360129
 20
-1776.887211194895
 30
0.0
 11
3435.646833360129
 21
-1823.316517175589
 31
0.0
  0
LINE
  5
2C1CB
330
18
100
AcDbEntity
  8
1PHANTOM
100
AcDbLine
 10
3433.896833360129
 20
-1784.864653338688
 30
0.0
 11
3433.896833360129
 21
-1818.333564425443
 31
0.0
  0
LINE
  5
2C1CC
330
18
100
AcDbEntity
  8
1PHANTOM
100
AcDbLine
 10
3435.646833360129
 20
-1778.333564425443
 30
0.0
 11
3433.896833360129
 21
-1784.864653338688
 31
0.0
  0
LINE
  5
2C1CD
330
18
100
AcDbEntity
  8
1PHANTOM
100
AcDbLine
 10
3435.646833360129
 20
-1778.333564425443
 30
0.0
 11
3437.396833360129
 21
-1784.864653338688
 31
0.0
  0
LINE
  5
2C1CE
330
18
100
AcDbEntity
  8
1PHANTOM
100
AcDbLine
 10
3437.396833360129
 20
-1784.864653338688
 30
0.0
 11
3437.396833360129
 21
-1818.333564425443
 31
0.0
  0
LINE
  5
2C1CF
330
18
100
AcDbEntity
  8
1PHANTOM
100
AcDbLine
 10
3433.330566419093
 20
-1784.178952227604
 30
0.0
 11
3434.080566419093
 21
-1784.328952227604
 31
0.0
  0
LINE
  5
2C1D0
330
18
100
AcDbEntity
  8
1PHANTOM
100
AcDbLine
 10
3433.330566419093
 20
-1784.178952227604
 30
0.0
 11
3437.727470900184
 21
-1783.299571331386
 31
0.0
  0
LINE
  5
2C1D1
330
18
100
AcDbEntity
  8
1PHANTOM
100
AcDbLine
 10
3435.960190047073
 20
-1779.353027502008
 30
0.0
 11
3436.710190047073
 21
-1779.503027502008
 31
0.0
  0
LINE
  5
2C1D2
330
18
100
AcDbEntity
  8
1PHANTOM
100
AcDbLine
 10
3434.463052959612
 20
-1779.9524549195
 30
0.0
 11
3435.213052959612
 21
-1780.102454919501
 31
0.0
  0
LINE
  5
2C1D3
330
18
100
AcDbEntity
  8
1PHANTOM
100
AcDbLine
 10
3434.463052959612
 20
-1779.9524549195
 30
0.0
 11
3436.710190047073
 21
-1779.503027502008
 31
0.0
  0
LINE
  5
2C1D4
330
18
100
AcDbEntity
  8
1PHANTOM
100
AcDbLine
 10
3436.977470900184
 20
-1783.149571331386
 30
0.0
 11
3437.727470900184
 21
-1783.299571331386
 31
0.0
  0
LINE
  5
2C1D5
330
18
100
AcDbEntity
  8
1PHANTOM
100
AcDbLine
 10
3436.468830473629
 20
-1781.251299416697
 30
0.0
 11
3437.218830473629
 21
-1781.401299416697
 31
0.0
  0
LINE
  5
2C1D6
330
18
100
AcDbEntity
  8
1PHANTOM
100
AcDbLine
 10
3433.896809689353
 20
-1782.065703573552
 30
0.0
 11
3434.646809689353
 21
-1782.215703573552
 31
0.0
  0
LINE
  5
2C1D7
330
18
100
AcDbEntity
  8
1PHANTOM
100
AcDbLine
 10
3433.896809689353
 20
-1782.065703573552
 30
0.0
 11
3437.218830473629
 21
-1781.401299416697
 31
0.0
  0
LINE
  5
2C1D8
330
18
100
AcDbEntity
  8
1PHANTOM
100
AcDbLine
 10
3437.396833360129
 20
-1793.065698839397
 30
0.0
 11
3438.146833360129
 21
-1793.215698839397
 31
0.0
  0
LINE
  5
2C1D9
330
18
100
AcDbEntity
  8
1PHANTOM
100
AcDbLine
 10
3433.146833360129
 20
-1790.215698839397
 30
0.0
 11
3433.896833360129
 21
-1790.365698839397
 31
0.0
  0
LINE
  5
2C1DA
330
18
100
AcDbEntity
  8
1PHANTOM
100
AcDbLine
 10
3433.146833360129
 20
-1792.215698839397
 30
0.0
 11
3433.896833360129
 21
-1792.365698839397
 31
0.0
  0
LINE
  5
2C1DB
330
18
100
AcDbEntity
  8
1PHANTOM
100
AcDbLine
 10
3433.146833360129
 20
-1792.215698839397
 30
0.0
 11
3438.146833360129
 21
-1791.215698839397
 31
0.0
  0
LINE
  5
2C1DC
330
18
100
AcDbEntity
  8
1PHANTOM
100
AcDbLine
 10
3433.146833360129
 20
-1788.215698839397
 30
0.0
 11
3433.896833360129
 21
-1788.365698839397
 31
0.0
  0
LINE
  5
2C1DD
330
18
100
AcDbEntity
  8
1PHANTOM
100
AcDbLine
 10
3433.146833360129
 20
-1786.215698839397
 30
0.0
 11
3433.896833360129
 21
-1786.365698839397
 31
0.0
  0
LINE
  5
2C1DE
330
18
100
AcDbEntity
  8
1PHANTOM
100
AcDbLine
 10
3433.146833360129
 20
-1786.215698839397
 30
0.0
 11
3438.146833360129
 21
-1785.215698839397
 31
0.0
  0
LINE
  5
2C1DF
330
18
100
AcDbEntity
  8
1PHANTOM
100
AcDbLine
 10
3433.146833360129
 20
-1788.215698839397
 30
0.0
 11
3438.146833360129
 21
-1787.215698839397
 31
0.0
  0
LINE
  5
2C1E0
330
18
100
AcDbEntity
  8
1PHANTOM
100
AcDbLine
 10
3433.146833360129
 20
-1790.215698839397
 30
0.0
 11
3438.146833360129
 21
-1789.215698839397
 31
0.0
  0
LINE
  5
2C1E1
330
18
100
AcDbEntity
  8
1PHANTOM
100
AcDbLine
 10
3437.396833360129
 20
-1785.065698839397
 30
0.0
 11
3438.146833360129
 21
-1785.215698839397
 31
0.0
  0
LINE
  5
2C1E2
330
18
100
AcDbEntity
  8
1PHANTOM
100
AcDbLine
 10
3437.396833360129
 20
-1787.065698839397
 30
0.0
 11
3438.146833360129
 21
-1787.215698839397
 31
0.0
  0
LINE
  5
2C1E3
330
18
100
AcDbEntity
  8
1PHANTOM
100
AcDbLine
 10
3437.396833360129
 20
-1791.065698839397
 30
0.0
 11
3438.146833360129
 21
-1791.215698839397
 31
0.0
  0
LINE
  5
2C1E4
330
18
100
AcDbEntity
  8
1PHANTOM
100
AcDbLine
 10
3437.396833360129
 20
-1789.065698839397
 30
0.0
 11
3438.146833360129
 21
-1789.215698839397
 31
0.0
  0
LINE
  5
2C1E5
330
18
100
AcDbEntity
  8
1PHANTOM
100
AcDbLine
 10
3433.146833360129
 20
-1796.215698839397
 30
0.0
 11
3433.896833360129
 21
-1796.365698839397
 31
0.0
  0
LINE
  5
2C1E6
330
18
100
AcDbEntity
  8
1PHANTOM
100
AcDbLine
 10
3433.146833360129
 20
-1794.215698839397
 30
0.0
 11
3433.896833360129
 21
-1794.365698839397
 31
0.0
  0
LINE
  5
2C1E7
330
18
100
AcDbEntity
  8
1PHANTOM
100
AcDbLine
 10
3433.146833360129
 20
-1800.215698839397
 30
0.0
 11
3433.896833360129
 21
-1800.365698839397
 31
0.0
  0
LINE
  5
2C1E8
330
18
100
AcDbEntity
  8
1PHANTOM
100
AcDbLine
 10
3433.146833360129
 20
-1798.215698839397
 30
0.0
 11
3433.896833360129
 21
-1798.365698839397
 31
0.0
  0
LINE
  5
2C1E9
330
18
100
AcDbEntity
  8
1PHANTOM
100
AcDbLine
 10
3433.146833360129
 20
-1794.215698839397
 30
0.0
 11
3438.146833360129
 21
-1793.215698839397
 31
0.0
  0
LINE
  5
2C1EA
330
18
100
AcDbEntity
  8
1PHANTOM
100
AcDbLine
 10
3433.146833360129
 20
-1796.215698839397
 30
0.0
 11
3438.146833360129
 21
-1795.215698839397
 31
0.0
  0
LINE
  5
2C1EB
330
18
100
AcDbEntity
  8
1PHANTOM
100
AcDbLine
 10
3433.146833360129
 20
-1798.215698839397
 30
0.0
 11
3438.146833360129
 21
-1797.215698839397
 31
0.0
  0
LINE
  5
2C1EC
330
18
100
AcDbEntity
  8
1PHANTOM
100
AcDbLine
 10
3433.146833360129
 20
-1800.215698839397
 30
0.0
 11
3438.146833360129
 21
-1799.215698839397
 31
0.0
  0
LINE
  5
2C1ED
330
18
100
AcDbEntity
  8
1PHANTOM
100
AcDbLine
 10
3437.396833360129
 20
-1797.065698839397
 30
0.0
 11
3438.146833360129
 21
-1797.215698839397
 31
0.0
  0
LINE
  5
2C1EE
330
18
100
AcDbEntity
  8
1PHANTOM
100
AcDbLine
 10
3437.396833360129
 20
-1795.065698839397
 30
0.0
 11
3438.146833360129
 21
-1795.215698839397
 31
0.0
  0
LINE
  5
2C1EF
330
18
100
AcDbEntity
  8
1PHANTOM
100
AcDbLine
 10
3437.396833360129
 20
-1801.065698839397
 30
0.0
 11
3438.146833360129
 21
-1801.215698839397
 31
0.0
  0
LINE
  5
2C1F0
330
18
100
AcDbEntity
  8
1PHANTOM
100
AcDbLine
 10
3437.396833360129
 20
-1799.065698839397
 30
0.0
 11
3438.146833360129
 21
-1799.215698839397
 31
0.0
  0
LINE
  5
2C1F1
330
18
100
AcDbEntity
  8
1PHANTOM
100
AcDbLine
 10
3433.146833360129
 20
-1818.215698839397
 30
0.0
 11
3438.146833360129
 21
-1817.215698839397
 31
0.0
  0
LINE
  5
2C1F2
330
18
100
AcDbEntity
  8
1PHANTOM
100
AcDbLine
 10
3433.146833360129
 20
-1810.215698839397
 30
0.0
 11
3438.146833360129
 21
-1809.215698839397
 31
0.0
  0
LINE
  5
2C1F3
330
18
100
AcDbEntity
  8
1PHANTOM
100
AcDbLine
 10
3433.146833360129
 20
-1802.215698839397
 30
0.0
 11
3433.896833360129
 21
-1802.365698839397
 31
0.0
  0
LINE
  5
2C1F4
330
18
100
AcDbEntity
  8
1PHANTOM
100
AcDbLine
 10
3433.146833360129
 20
-1804.215698839397
 30
0.0
 11
3433.896833360129
 21
-1804.365698839397
 31
0.0
  0
LINE
  5
2C1F5
330
18
100
AcDbEntity
  8
1PHANTOM
100
AcDbLine
 10
3433.146833360129
 20
-1806.215698839397
 30
0.0
 11
3433.896833360129
 21
-1806.365698839397
 31
0.0
  0
LINE
  5
2C1F6
330
18
100
AcDbEntity
  8
1PHANTOM
100
AcDbLine
 10
3433.146833360129
 20
-1808.215698839397
 30
0.0
 11
3433.896833360129
 21
-1808.365698839397
 31
0.0
  0
LINE
  5
2C1F7
330
18
100
AcDbEntity
  8
1PHANTOM
100
AcDbLine
 10
3433.146833360129
 20
-1804.215698839397
 30
0.0
 11
3438.146833360129
 21
-1803.215698839397
 31
0.0
  0
LINE
  5
2C1F8
330
18
100
AcDbEntity
  8
1PHANTOM
100
AcDbLine
 10
3433.146833360129
 20
-1806.215698839397
 30
0.0
 11
3438.146833360129
 21
-1805.215698839397
 31
0.0
  0
LINE
  5
2C1F9
330
18
100
AcDbEntity
  8
1PHANTOM
100
AcDbLine
 10
3433.146833360129
 20
-1808.215698839397
 30
0.0
 11
3438.146833360129
 21
-1807.215698839397
 31
0.0
  0
LINE
  5
2C1FA
330
18
100
AcDbEntity
  8
1PHANTOM
100
AcDbLine
 10
3437.396833360129
 20
-1803.065698839397
 30
0.0
 11
3438.146833360129
 21
-1803.215698839397
 31
0.0
  0
LINE
  5
2C1FB
330
18
100
AcDbEntity
  8
1PHANTOM
100
AcDbLine
 10
3437.396833360129
 20
-1805.065698839397
 30
0.0
 11
3438.146833360129
 21
-1805.215698839397
 31
0.0
  0
LINE
  5
2C1FC
330
18
100
AcDbEntity
  8
1PHANTOM
100
AcDbLine
 10
3437.396833360129
 20
-1807.065698839397
 30
0.0
 11
3438.146833360129
 21
-1807.215698839397
 31
0.0
  0
LINE
  5
2C1FD
330
18
100
AcDbEntity
  8
1PHANTOM
100
AcDbLine
 10
3437.396833360129
 20
-1809.065698839397
 30
0.0
 11
3438.146833360129
 21
-1809.215698839397
 31
0.0
  0
LINE
  5
2C1FE
330
18
100
AcDbEntity
  8
1PHANTOM
100
AcDbLine
 10
3433.146833360129
 20
-1814.215698839397
 30
0.0
 11
3433.896833360129
 21
-1814.365698839397
 31
0.0
  0
LINE
  5
2C1FF
330
18
100
AcDbEntity
  8
1PHANTOM
100
AcDbLine
 10
3433.146833360129
 20
-1812.215698839397
 30
0.0
 11
3433.896833360129
 21
-1812.365698839397
 31
0.0
  0
LINE
  5
2C200
330
18
100
AcDbEntity
  8
1PHANTOM
100
AcDbLine
 10
3433.146833360129
 20
-1810.215698839397
 30
0.0
 11
3433.896833360129
 21
-1810.365698839397
 31
0.0
  0
LINE
  5
2C201
330
18
100
AcDbEntity
  8
1PHANTOM
100
AcDbLine
 10
3433.146833360129
 20
-1816.215698839397
 30
0.0
 11
3433.896833360129
 21
-1816.365698839397
 31
0.0
  0
LINE
  5
2C202
330
18
100
AcDbEntity
  8
1PHANTOM
100
AcDbLine
 10
3433.146833360129
 20
-1812.215698839397
 30
0.0
 11
3438.146833360129
 21
-1811.215698839397
 31
0.0
  0
LINE
  5
2C203
330
18
100
AcDbEntity
  8
1PHANTOM
100
AcDbLine
 10
3433.146833360129
 20
-1814.215698839397
 30
0.0
 11
3438.146833360129
 21
-1813.215698839397
 31
0.0
  0
LINE
  5
2C204
330
18
100
AcDbEntity
  8
1PHANTOM
100
AcDbLine
 10
3433.146833360129
 20
-1816.215698839397
 30
0.0
 11
3438.146833360129
 21
-1815.215698839397
 31
0.0
  0
LINE
  5
2C205
330
18
100
AcDbEntity
  8
1PHANTOM
100
AcDbLine
 10
3437.396833360129
 20
-1813.065698839397
 30
0.0
 11
3438.146833360129
 21
-1813.215698839397
 31
0.0
  0
LINE
  5
2C206
330
18
100
AcDbEntity
  8
1PHANTOM
100
AcDbLine
 10
3437.396833360129
 20
-1811.065698839397
 30
0.0
 11
3438.146833360129
 21
-1811.215698839397
 31
0.0
  0
LINE
  5
2C207
330
18
100
AcDbEntity
  8
1PHANTOM
100
AcDbLine
 10
3437.396833360129
 20
-1815.065698839397
 30
0.0
 11
3438.146833360129
 21
-1815.215698839397
 31
0.0
  0
LINE
  5
2C208
330
18
100
AcDbEntity
  8
1PHANTOM
100
AcDbLine
 10
3437.396833360129
 20
-1817.065698839397
 30
0.0
 11
3438.146833360129
 21
-1817.215698839397
 31
0.0
  0
LINE
  5
2C209
330
18
100
AcDbEntity
  8
1PHANTOM
100
AcDbLine
 10
3433.146833360129
 20
-1818.215698839397
 30
0.0
 11
3433.896833360129
 21
-1818.365698839397
 31
0.0
  0
LINE
  5
2C20A
330
18
100
AcDbEntity
  8
1PHANTOM
100
AcDbLine
 10
3440.396833360129
 20
-1818.333564425443
 30
0.0
 11
3430.896833360129
 21
-1818.333564425443
 31
0.0
  0
ARC
  5
2C20B
330
18
100
AcDbEntity
  8
1PHANTOM
100
AcDbCircle
 10
3435.646833360129
 20
-1812.562731092109
 30
0.0
 40
8.270833333333439
100
AcDbArc
 50
234.9488632525092
 51
305.0511367474908
  0
LINE
  5
2C20C
330
18
100
AcDbEntity
  8
1PHANTOM
100
AcDbLine
 10
3440.396833360129
 20
-1818.333564425443
 30
0.0
 11
3440.396833360129
 21
-1819.333564425443
 31
0.0
  0
LINE
  5
2C20D
330
18
100
AcDbEntity
  8
1PHANTOM
100
AcDbLine
 10
3430.896833360129
 20
-1818.333564425443
 30
0.0
 11
3430.896833360129
 21
-1819.333564425443
 31
0.0
  0
LINE
  5
2C20E
330
18
100
AcDbEntity
  8
1PHANTOM
100
AcDbLine
 10
3440.179896539795
 20
-1819.333564425443
 30
0.0
 11
3431.141465575322
 21
-1819.333564425443
 31
0.0
  0
LINE
  5
2C20F
330
18
100
AcDbEntity
  8
1PHANTOM
100
AcDbLine
 10
3645.764698946175
 20
-2063.333564425444
 30
0.0
 11
3646.764698946175
 21
-2068.333564425444
 31
0.0
  0
LINE
  5
2C210
330
18
100
AcDbEntity
  8
1PHANTOM
100
AcDbLine
 10
3671.093186590677
 20
-2065.833564425444
 30
0.0
 11
3624.663880609983
 21
-2065.833564425444
 31
0.0
  0
LINE
  5
2C211
330
18
100
AcDbEntity
  8
1PHANTOM
100
AcDbLine
 10
3663.115744446884
 20
-2064.083564425444
 30
0.0
 11
3629.646833360129
 21
-2064.083564425444
 31
0.0
  0
LINE
  5
2C212
330
18
100
AcDbEntity
  8
1PHANTOM
100
AcDbLine
 10
3669.646833360129
 20
-2065.833564425444
 30
0.0
 11
3663.115744446884
 21
-2064.083564425444
 31
0.0
  0
LINE
  5
2C213
330
18
100
AcDbEntity
  8
1PHANTOM
100
AcDbLine
 10
3669.646833360129
 20
-2065.833564425444
 30
0.0
 11
3663.115744446883
 21
-2067.583564425444
 31
0.0
  0
LINE
  5
2C214
330
18
100
AcDbEntity
  8
1PHANTOM
100
AcDbLine
 10
3663.115744446883
 20
-2067.583564425444
 30
0.0
 11
3629.646833360129
 21
-2067.583564425444
 31
0.0
  0
LINE
  5
2C215
330
18
100
AcDbEntity
  8
1PHANTOM
100
AcDbLine
 10
3663.801445557967
 20
-2063.517297484409
 30
0.0
 11
3663.651445557967
 21
-2064.267297484409
 31
0.0
  0
LINE
  5
2C216
330
18
100
AcDbEntity
  8
1PHANTOM
100
AcDbLine
 10
3663.801445557967
 20
-2063.517297484409
 30
0.0
 11
3664.680826454186
 21
-2067.914201965499
 31
0.0
  0
LINE
  5
2C217
330
18
100
AcDbEntity
  8
1PHANTOM
100
AcDbLine
 10
3668.627370283563
 20
-2066.146921112388
 30
0.0
 11
3668.477370283563
 21
-2066.896921112388
 31
0.0
  0
LINE
  5
2C218
330
18
100
AcDbEntity
  8
1PHANTOM
100
AcDbLine
 10
3668.027942866071
 20
-2064.649784024927
 30
0.0
 11
3667.877942866071
 21
-2065.399784024927
 31
0.0
  0
LINE
  5
2C219
330
18
100
AcDbEntity
  8
1PHANTOM
100
AcDbLine
 10
3668.027942866071
 20
-2064.649784024927
 30
0.0
 11
3668.477370283563
 21
-2066.896921112388
 31
0.0
  0
LINE
  5
2C21A
330
18
100
AcDbEntity
  8
1PHANTOM
100
AcDbLine
 10
3664.830826454186
 20
-2067.164201965499
 30
0.0
 11
3664.680826454186
 21
-2067.914201965499
 31
0.0
  0
LINE
  5
2C21B
330
18
100
AcDbEntity
  8
1PHANTOM
100
AcDbLine
 10
3666.729098368874
 20
-2066.655561538944
 30
0.0
 11
3666.579098368874
 21
-2067.405561538944
 31
0.0
  0
LINE
  5
2C21C
330
18
100
AcDbEntity
  8
1PHANTOM
100
AcDbLine
 10
3665.914694212019
 20
-2064.083540754668
 30
0.0
 11
3665.764694212019
 21
-2064.833540754668
 31
0.0
  0
LINE
  5
2C21D
330
18
100
AcDbEntity
  8
1PHANTOM
100
AcDbLine
 10
3665.914694212019
 20
-2064.083540754668
 30
0.0
 11
3666.579098368874
 21
-2067.405561538944
 31
0.0
  0
LINE
  5
2C21E
330
18
100
AcDbEntity
  8
1PHANTOM
100
AcDbLine
 10
3654.914698946175
 20
-2067.583564425444
 30
0.0
 11
3654.764698946175
 21
-2068.333564425444
 31
0.0
  0
LINE
  5
2C21F
330
18
100
AcDbEntity
  8
1PHANTOM
100
AcDbLine
 10
3657.764698946175
 20
-2063.333564425444
 30
0.0
 11
3657.614698946174
 21
-2064.083564425444
 31
0.0
  0
LINE
  5
2C220
330
18
100
AcDbEntity
  8
1PHANTOM
100
AcDbLine
 10
3655.764698946175
 20
-2063.333564425444
 30
0.0
 11
3655.614698946174
 21
-2064.083564425444
 31
0.0
  0
LINE
  5
2C221
330
18
100
AcDbEntity
  8
1PHANTOM
100
AcDbLine
 10
3655.764698946175
 20
-2063.333564425444
 30
0.0
 11
3656.764698946175
 21
-2068.333564425444
 31
0.0
  0
LINE
  5
2C222
330
18
100
AcDbEntity
  8
1PHANTOM
100
AcDbLine
 10
3659.764698946175
 20
-2063.333564425444
 30
0.0
 11
3659.614698946174
 21
-2064.083564425444
 31
0.0
  0
LINE
  5
2C223
330
18
100
AcDbEntity
  8
1PHANTOM
100
AcDbLine
 10
3661.764698946175
 20
-2063.333564425444
 30
0.0
 11
3661.614698946174
 21
-2064.083564425444
 31
0.0
  0
LINE
  5
2C224
330
18
100
AcDbEntity
  8
1PHANTOM
100
AcDbLine
 10
3661.764698946175
 20
-2063.333564425444
 30
0.0
 11
3662.764698946175
 21
-2068.333564425444
 31
0.0
  0
LINE
  5
2C225
330
18
100
AcDbEntity
  8
1PHANTOM
100
AcDbLine
 10
3659.764698946175
 20
-2063.333564425444
 30
0.0
 11
3660.764698946175
 21
-2068.333564425444
 31
0.0
  0
LINE
  5
2C226
330
18
100
AcDbEntity
  8
1PHANTOM
100
AcDbLine
 10
3657.764698946175
 20
-2063.333564425444
 30
0.0
 11
3658.764698946175
 21
-2068.333564425444
 31
0.0
  0
LINE
  5
2C227
330
18
100
AcDbEntity
  8
1PHANTOM
100
AcDbLine
 10
3662.914698946175
 20
-2067.583564425444
 30
0.0
 11
3662.764698946175
 21
-2068.333564425444
 31
0.0
  0
LINE
  5
2C228
330
18
100
AcDbEntity
  8
1PHANTOM
100
AcDbLine
 10
3660.914698946175
 20
-2067.583564425444
 30
0.0
 11
3660.764698946175
 21
-2068.333564425444
 31
0.0
  0
LINE
  5
2C229
330
18
100
AcDbEntity
  8
1PHANTOM
100
AcDbLine
 10
3656.914698946175
 20
-2067.583564425444
 30
0.0
 11
3656.764698946175
 21
-2068.333564425444
 31
0.0
  0
LINE
  5
2C22A
330
18
100
AcDbEntity
  8
1PHANTOM
100
AcDbLine
 10
3658.914698946175
 20
-2067.583564425444
 30
0.0
 11
3658.764698946175
 21
-2068.333564425444
 31
0.0
  0
LINE
  5
2C22B
330
18
100
AcDbEntity
  8
1PHANTOM
100
AcDbLine
 10
3651.764698946175
 20
-2063.333564425444
 30
0.0
 11
3651.614698946174
 21
-2064.083564425444
 31
0.0
  0
LINE
  5
2C22C
330
18
100
AcDbEntity
  8
1PHANTOM
100
AcDbLine
 10
3653.764698946175
 20
-2063.333564425444
 30
0.0
 11
3653.614698946174
 21
-2064.083564425444
 31
0.0
  0
LINE
  5
2C22D
330
18
100
AcDbEntity
  8
1PHANTOM
100
AcDbLine
 10
3647.764698946175
 20
-2063.333564425444
 30
0.0
 11
3647.614698946174
 21
-2064.083564425444
 31
0.0
  0
LINE
  5
2C22E
330
18
100
AcDbEntity
  8
1PHANTOM
100
AcDbLine
 10
3649.764698946175
 20
-2063.333564425444
 30
0.0
 11
3649.614698946174
 21
-2064.083564425444
 31
0.0
  0
LINE
  5
2C22F
330
18
100
AcDbEntity
  8
1PHANTOM
100
AcDbLine
 10
3653.764698946175
 20
-2063.333564425444
 30
0.0
 11
3654.764698946175
 21
-2068.333564425444
 31
0.0
  0
LINE
  5
2C230
330
18
100
AcDbEntity
  8
1PHANTOM
100
AcDbLine
 10
3651.764698946175
 20
-2063.333564425444
 30
0.0
 11
3652.764698946175
 21
-2068.333564425444
 31
0.0
  0
LINE
  5
2C231
330
18
100
AcDbEntity
  8
1PHANTOM
100
AcDbLine
 10
3649.764698946175
 20
-2063.333564425444
 30
0.0
 11
3650.764698946175
 21
-2068.333564425444
 31
0.0
  0
LINE
  5
2C232
330
18
100
AcDbEntity
  8
1PHANTOM
100
AcDbLine
 10
3647.764698946175
 20
-2063.333564425444
 30
0.0
 11
3648.764698946175
 21
-2068.333564425444
 31
0.0
  0
LINE
  5
2C233
330
18
100
AcDbEntity
  8
1PHANTOM
100
AcDbLine
 10
3650.914698946175
 20
-2067.583564425444
 30
0.0
 11
3650.764698946175
 21
-2068.333564425444
 31
0.0
  0
LINE
  5
2C234
330
18
100
AcDbEntity
  8
1PHANTOM
100
AcDbLine
 10
3652.914698946175
 20
-2067.583564425444
 30
0.0
 11
3652.764698946175
 21
-2068.333564425444
 31
0.0
  0
LINE
  5
2C235
330
18
100
AcDbEntity
  8
1PHANTOM
100
AcDbLine
 10
3646.914698946175
 20
-2067.583564425444
 30
0.0
 11
3646.764698946175
 21
-2068.333564425444
 31
0.0
  0
LINE
  5
2C236
330
18
100
AcDbEntity
  8
1PHANTOM
100
AcDbLine
 10
3648.914698946175
 20
-2067.583564425444
 30
0.0
 11
3648.764698946175
 21
-2068.333564425444
 31
0.0
  0
LINE
  5
2C237
330
18
100
AcDbEntity
  8
1PHANTOM
100
AcDbLine
 10
3629.764698946175
 20
-2063.333564425444
 30
0.0
 11
3630.764698946175
 21
-2068.333564425444
 31
0.0
  0
LINE
  5
2C238
330
18
100
AcDbEntity
  8
1PHANTOM
100
AcDbLine
 10
3637.764698946175
 20
-2063.333564425444
 30
0.0
 11
3638.764698946175
 21
-2068.333564425444
 31
0.0
  0
LINE
  5
2C239
330
18
100
AcDbEntity
  8
1PHANTOM
100
AcDbLine
 10
3645.764698946175
 20
-2063.333564425444
 30
0.0
 11
3645.614698946174
 21
-2064.083564425444
 31
0.0
  0
LINE
  5
2C23A
330
18
100
AcDbEntity
  8
1PHANTOM
100
AcDbLine
 10
3643.764698946175
 20
-2063.333564425444
 30
0.0
 11
3643.614698946174
 21
-2064.083564425444
 31
0.0
  0
LINE
  5
2C23B
330
18
100
AcDbEntity
  8
1PHANTOM
100
AcDbLine
 10
3641.764698946175
 20
-2063.333564425444
 30
0.0
 11
3641.614698946174
 21
-2064.083564425444
 31
0.0
  0
LINE
  5
2C23C
330
18
100
AcDbEntity
  8
1PHANTOM
100
AcDbLine
 10
3639.764698946175
 20
-2063.333564425444
 30
0.0
 11
3639.614698946174
 21
-2064.083564425444
 31
0.0
  0
LINE
  5
2C23D
330
18
100
AcDbEntity
  8
1PHANTOM
100
AcDbLine
 10
3643.764698946175
 20
-2063.333564425444
 30
0.0
 11
3644.764698946175
 21
-2068.333564425444
 31
0.0
  0
LINE
  5
2C23E
330
18
100
AcDbEntity
  8
1PHANTOM
100
AcDbLine
 10
3641.764698946175
 20
-2063.333564425444
 30
0.0
 11
3642.764698946175
 21
-2068.333564425444
 31
0.0
  0
LINE
  5
2C23F
330
18
100
AcDbEntity
  8
1PHANTOM
100
AcDbLine
 10
3639.764698946175
 20
-2063.333564425444
 30
0.0
 11
3640.764698946175
 21
-2068.333564425444
 31
0.0
  0
LINE
  5
2C240
330
18
100
AcDbEntity
  8
1PHANTOM
100
AcDbLine
 10
3644.914698946175
 20
-2067.583564425444
 30
0.0
 11
3644.764698946175
 21
-2068.333564425444
 31
0.0
  0
LINE
  5
2C241
330
18
100
AcDbEntity
  8
1PHANTOM
100
AcDbLine
 10
3642.914698946175
 20
-2067.583564425444
 30
0.0
 11
3642.764698946175
 21
-2068.333564425444
 31
0.0
  0
LINE
  5
2C242
330
18
100
AcDbEntity
  8
1PHANTOM
100
AcDbLine
 10
3640.914698946175
 20
-2067.583564425444
 30
0.0
 11
3640.764698946175
 21
-2068.333564425444
 31
0.0
  0
LINE
  5
2C243
330
18
100
AcDbEntity
  8
1PHANTOM
100
AcDbLine
 10
3638.914698946175
 20
-2067.583564425444
 30
0.0
 11
3638.764698946175
 21
-2068.333564425444
 31
0.0
  0
LINE
  5
2C244
330
18
100
AcDbEntity
  8
1PHANTOM
100
AcDbLine
 10
3633.764698946175
 20
-2063.333564425444
 30
0.0
 11
3633.614698946174
 21
-2064.083564425444
 31
0.0
  0
LINE
  5
2C245
330
18
100
AcDbEntity
  8
1PHANTOM
100
AcDbLine
 10
3635.764698946175
 20
-2063.333564425444
 30
0.0
 11
3635.614698946174
 21
-2064.083564425444
 31
0.0
  0
LINE
  5
2C246
330
18
100
AcDbEntity
  8
1PHANTOM
100
AcDbLine
 10
3637.764698946175
 20
-2063.333564425444
 30
0.0
 11
3637.614698946174
 21
-2064.083564425444
 31
0.0
  0
LINE
  5
2C247
330
18
100
AcDbEntity
  8
1PHANTOM
100
AcDbLine
 10
3631.764698946175
 20
-2063.333564425444
 30
0.0
 11
3631.614698946174
 21
-2064.083564425444
 31
0.0
  0
LINE
  5
2C248
330
18
100
AcDbEntity
  8
1PHANTOM
100
AcDbLine
 10
3635.764698946175
 20
-2063.333564425444
 30
0.0
 11
3636.764698946175
 21
-2068.333564425444
 31
0.0
  0
LINE
  5
2C249
330
18
100
AcDbEntity
  8
1PHANTOM
100
AcDbLine
 10
3633.764698946175
 20
-2063.333564425444
 30
0.0
 11
3634.764698946175
 21
-2068.333564425444
 31
0.0
  0
LINE
  5
2C24A
330
18
100
AcDbEntity
  8
1PHANTOM
100
AcDbLine
 10
3631.764698946175
 20
-2063.333564425444
 30
0.0
 11
3632.764698946175
 21
-2068.333564425444
 31
0.0
  0
LINE
  5
2C24B
330
18
100
AcDbEntity
  8
1PHANTOM
100
AcDbLine
 10
3634.914698946175
 20
-2067.583564425444
 30
0.0
 11
3634.764698946175
 21
-2068.333564425444
 31
0.0
  0
LINE
  5
2C24C
330
18
100
AcDbEntity
  8
1PHANTOM
100
AcDbLine
 10
3636.914698946175
 20
-2067.583564425444
 30
0.0
 11
3636.764698946175
 21
-2068.333564425444
 31
0.0
  0
LINE
  5
2C24D
330
18
100
AcDbEntity
  8
1PHANTOM
100
AcDbLine
 10
3632.914698946175
 20
-2067.583564425444
 30
0.0
 11
3632.764698946175
 21
-2068.333564425444
 31
0.0
  0
LINE
  5
2C24E
330
18
100
AcDbEntity
  8
1PHANTOM
100
AcDbLine
 10
3630.914698946175
 20
-2067.583564425444
 30
0.0
 11
3630.764698946175
 21
-2068.333564425444
 31
0.0
  0
LINE
  5
2C24F
330
18
100
AcDbEntity
  8
1PHANTOM
100
AcDbLine
 10
3629.764698946175
 20
-2063.333564425444
 30
0.0
 11
3629.614698946174
 21
-2064.083564425444
 31
0.0
  0
LINE
  5
2C250
330
18
100
AcDbEntity
  8
1PHANTOM
100
AcDbLine
 10
3629.646833360129
 20
-2070.583564425444
 30
0.0
 11
3629.646833360129
 21
-2061.083564425444
 31
0.0
  0
ARC
  5
2C251
330
18
100
AcDbEntity
  8
1PHANTOM
100
AcDbCircle
 10
3635.417666693462
 20
-2065.833564425444
 30
0.0
 40
8.270833333333439
100
AcDbArc
 50
144.9488632525305
 51
215.0511367474695
  0
LINE
  5
2C252
330
18
100
AcDbEntity
  8
1PHANTOM
100
AcDbLine
 10
3629.646833360129
 20
-2070.583564425444
 30
0.0
 11
3628.646833360129
 21
-2070.583564425444
 31
0.0
  0
LINE
  5
2C253
330
18
100
AcDbEntity
  8
1PHANTOM
100
AcDbLine
 10
3629.646833360129
 20
-2061.083564425444
 30
0.0
 11
3628.646833360129
 21
-2061.083564425444
 31
0.0
  0
LINE
  5
2C254
330
18
100
AcDbEntity
  8
1PHANTOM
100
AcDbLine
 10
3628.646833360129
 20
-2070.36662760511
 30
0.0
 11
3628.646833360129
 21
-2061.328196640638
 31
0.0
  0
LINE
  5
2C255
330
18
100
AcDbEntity
  8
01
100
AcDbLine
 10
3305.646833360129
 20
-1876.333564425443
 30
0.0
 11
3305.646833360129
 21
-1873.333564425443
 31
0.0
  0
LINE
  5
2C256
330
18
100
AcDbEntity
  8
01
100
AcDbLine
 10
3306.646833360129
 20
-1872.333564425443
 30
0.0
 11
3305.646833360129
 21
-1873.333564425443
 31
0.0
  0
LINE
  5
2C257
330
18
100
AcDbEntity
  8
01
100
AcDbLine
 10
3450.646833360129
 20
-1876.333564425443
 30
0.0
 11
3450.646833360129
 21
-1873.333564425443
 31
0.0
  0
LINE
  5
2C258
330
18
100
AcDbEntity
  8
01
100
AcDbLine
 10
3449.646833360129
 20
-1872.333564425443
 30
0.0
 11
3450.646833360129
 21
-1873.333564425443
 31
0.0
  0
LINE
  5
2C25C
330
18
100
AcDbEntity
  8
1PHANTOM
100
AcDbLine
 10
3318.14683336013
 20
-1802.215698839397
 30
0.0
 11
3323.14683336013
 21
-1801.215698839397
 31
0.0
  0
LINE
  5
2C25D
330
18
100
AcDbEntity
  8
1PHANTOM
100
AcDbLine
 10
3320.64683336013
 20
-1776.887211194895
 30
0.0
 11
3320.64683336013
 21
-1823.316517175589
 31
0.0
  0
LINE
  5
2C25E
330
18
100
AcDbEntity
  8
1PHANTOM
100
AcDbLine
 10
3318.89683336013
 20
-1784.864653338688
 30
0.0
 11
3318.89683336013
 21
-1818.333564425443
 31
0.0
  0
LINE
  5
2C25F
330
18
100
AcDbEntity
  8
1PHANTOM
100
AcDbLine
 10
3320.64683336013
 20
-1778.333564425443
 30
0.0
 11
3318.89683336013
 21
-1784.864653338688
 31
0.0
  0
LINE
  5
2C260
330
18
100
AcDbEntity
  8
1PHANTOM
100
AcDbLine
 10
3320.64683336013
 20
-1778.333564425443
 30
0.0
 11
3322.39683336013
 21
-1784.864653338688
 31
0.0
  0
LINE
  5
2C261
330
18
100
AcDbEntity
  8
1PHANTOM
100
AcDbLine
 10
3322.39683336013
 20
-1784.864653338688
 30
0.0
 11
3322.39683336013
 21
-1818.333564425443
 31
0.0
  0
LINE
  5
2C262
330
18
100
AcDbEntity
  8
1PHANTOM
100
AcDbLine
 10
3318.330566419094
 20
-1784.178952227604
 30
0.0
 11
3319.080566419094
 21
-1784.328952227604
 31
0.0
  0
LINE
  5
2C263
330
18
100
AcDbEntity
  8
1PHANTOM
100
AcDbLine
 10
3318.330566419094
 20
-1784.178952227604
 30
0.0
 11
3322.727470900185
 21
-1783.299571331386
 31
0.0
  0
LINE
  5
2C264
330
18
100
AcDbEntity
  8
1PHANTOM
100
AcDbLine
 10
3320.960190047074
 20
-1779.353027502008
 30
0.0
 11
3321.710190047074
 21
-1779.503027502008
 31
0.0
  0
LINE
  5
2C265
330
18
100
AcDbEntity
  8
1PHANTOM
100
AcDbLine
 10
3319.463052959613
 20
-1779.9524549195
 30
0.0
 11
3320.213052959613
 21
-1780.102454919501
 31
0.0
  0
LINE
  5
2C266
330
18
100
AcDbEntity
  8
1PHANTOM
100
AcDbLine
 10
3319.463052959613
 20
-1779.9524549195
 30
0.0
 11
3321.710190047074
 21
-1779.503027502008
 31
0.0
  0
LINE
  5
2C267
330
18
100
AcDbEntity
  8
1PHANTOM
100
AcDbLine
 10
3321.977470900185
 20
-1783.149571331386
 30
0.0
 11
3322.727470900185
 21
-1783.299571331386
 31
0.0
  0
LINE
  5
2C268
330
18
100
AcDbEntity
  8
1PHANTOM
100
AcDbLine
 10
3321.46883047363
 20
-1781.251299416697
 30
0.0
 11
3322.21883047363
 21
-1781.401299416697
 31
0.0
  0
LINE
  5
2C269
330
18
100
AcDbEntity
  8
1PHANTOM
100
AcDbLine
 10
3318.896809689354
 20
-1782.065703573552
 30
0.0
 11
3319.646809689354
 21
-1782.215703573552
 31
0.0
  0
LINE
  5
2C26A
330
18
100
AcDbEntity
  8
1PHANTOM
100
AcDbLine
 10
3318.896809689354
 20
-1782.065703573552
 30
0.0
 11
3322.21883047363
 21
-1781.401299416697
 31
0.0
  0
LINE
  5
2C26B
330
18
100
AcDbEntity
  8
1PHANTOM
100
AcDbLine
 10
3322.39683336013
 20
-1793.065698839397
 30
0.0
 11
3323.14683336013
 21
-1793.215698839397
 31
0.0
  0
LINE
  5
2C26C
330
18
100
AcDbEntity
  8
1PHANTOM
100
AcDbLine
 10
3318.14683336013
 20
-1790.215698839397
 30
0.0
 11
3318.89683336013
 21
-1790.365698839397
 31
0.0
  0
LINE
  5
2C26D
330
18
100
AcDbEntity
  8
1PHANTOM
100
AcDbLine
 10
3318.14683336013
 20
-1792.215698839397
 30
0.0
 11
3318.89683336013
 21
-1792.365698839397
 31
0.0
  0
LINE
  5
2C26E
330
18
100
AcDbEntity
  8
1PHANTOM
100
AcDbLine
 10
3318.14683336013
 20
-1792.215698839397
 30
0.0
 11
3323.14683336013
 21
-1791.215698839397
 31
0.0
  0
LINE
  5
2C26F
330
18
100
AcDbEntity
  8
1PHANTOM
100
AcDbLine
 10
3318.14683336013
 20
-1788.215698839397
 30
0.0
 11
3318.89683336013
 21
-1788.365698839397
 31
0.0
  0
LINE
  5
2C270
330
18
100
AcDbEntity
  8
1PHANTOM
100
AcDbLine
 10
3318.14683336013
 20
-1786.215698839397
 30
0.0
 11
3318.89683336013
 21
-1786.365698839397
 31
0.0
  0
LINE
  5
2C271
330
18
100
AcDbEntity
  8
1PHANTOM
100
AcDbLine
 10
3318.14683336013
 20
-1786.215698839397
 30
0.0
 11
3323.14683336013
 21
-1785.215698839397
 31
0.0
  0
LINE
  5
2C272
330
18
100
AcDbEntity
  8
1PHANTOM
100
AcDbLine
 10
3318.14683336013
 20
-1788.215698839397
 30
0.0
 11
3323.14683336013
 21
-1787.215698839397
 31
0.0
  0
LINE
  5
2C273
330
18
100
AcDbEntity
  8
1PHANTOM
100
AcDbLine
 10
3318.14683336013
 20
-1790.215698839397
 30
0.0
 11
3323.14683336013
 21
-1789.215698839397
 31
0.0
  0
LINE
  5
2C274
330
18
100
AcDbEntity
  8
1PHANTOM
100
AcDbLine
 10
3322.39683336013
 20
-1785.065698839397
 30
0.0
 11
3323.14683336013
 21
-1785.215698839397
 31
0.0
  0
LINE
  5
2C275
330
18
100
AcDbEntity
  8
1PHANTOM
100
AcDbLine
 10
3322.39683336013
 20
-1787.065698839397
 30
0.0
 11
3323.14683336013
 21
-1787.215698839397
 31
0.0
  0
LINE
  5
2C276
330
18
100
AcDbEntity
  8
1PHANTOM
100
AcDbLine
 10
3322.39683336013
 20
-1791.065698839397
 30
0.0
 11
3323.14683336013
 21
-1791.215698839397
 31
0.0
  0
LINE
  5
2C277
330
18
100
AcDbEntity
  8
1PHANTOM
100
AcDbLine
 10
3322.39683336013
 20
-1789.065698839397
 30
0.0
 11
3323.14683336013
 21
-1789.215698839397
 31
0.0
  0
LINE
  5
2C278
330
18
100
AcDbEntity
  8
1PHANTOM
100
AcDbLine
 10
3318.14683336013
 20
-1796.215698839397
 30
0.0
 11
3318.89683336013
 21
-1796.365698839397
 31
0.0
  0
LINE
  5
2C279
330
18
100
AcDbEntity
  8
1PHANTOM
100
AcDbLine
 10
3318.14683336013
 20
-1794.215698839397
 30
0.0
 11
3318.89683336013
 21
-1794.365698839397
 31
0.0
  0
LINE
  5
2C27A
330
18
100
AcDbEntity
  8
1PHANTOM
100
AcDbLine
 10
3318.14683336013
 20
-1800.215698839397
 30
0.0
 11
3318.89683336013
 21
-1800.365698839397
 31
0.0
  0
LINE
  5
2C27B
330
18
100
AcDbEntity
  8
1PHANTOM
100
AcDbLine
 10
3318.14683336013
 20
-1798.215698839397
 30
0.0
 11
3318.89683336013
 21
-1798.365698839397
 31
0.0
  0
LINE
  5
2C27C
330
18
100
AcDbEntity
  8
1PHANTOM
100
AcDbLine
 10
3318.14683336013
 20
-1794.215698839397
 30
0.0
 11
3323.14683336013
 21
-1793.215698839397
 31
0.0
  0
LINE
  5
2C27D
330
18
100
AcDbEntity
  8
1PHANTOM
100
AcDbLine
 10
3318.14683336013
 20
-1796.215698839397
 30
0.0
 11
3323.14683336013
 21
-1795.215698839397
 31
0.0
  0
LINE
  5
2C27E
330
18
100
AcDbEntity
  8
1PHANTOM
100
AcDbLine
 10
3318.14683336013
 20
-1798.215698839397
 30
0.0
 11
3323.14683336013
 21
-1797.215698839397
 31
0.0
  0
LINE
  5
2C27F
330
18
100
AcDbEntity
  8
1PHANTOM
100
AcDbLine
 10
3318.14683336013
 20
-1800.215698839397
 30
0.0
 11
3323.14683336013
 21
-1799.215698839397
 31
0.0
  0
LINE
  5
2C280
330
18
100
AcDbEntity
  8
1PHANTOM
100
AcDbLine
 10
3322.39683336013
 20
-1797.065698839397
 30
0.0
 11
3323.14683336013
 21
-1797.215698839397
 31
0.0
  0
LINE
  5
2C281
330
18
100
AcDbEntity
  8
1PHANTOM
100
AcDbLine
 10
3322.39683336013
 20
-1795.065698839397
 30
0.0
 11
3323.14683336013
 21
-1795.215698839397
 31
0.0
  0
LINE
  5
2C282
330
18
100
AcDbEntity
  8
1PHANTOM
100
AcDbLine
 10
3322.39683336013
 20
-1801.065698839397
 30
0.0
 11
3323.14683336013
 21
-1801.215698839397
 31
0.0
  0
LINE
  5
2C283
330
18
100
AcDbEntity
  8
1PHANTOM
100
AcDbLine
 10
3322.39683336013
 20
-1799.065698839397
 30
0.0
 11
3323.14683336013
 21
-1799.215698839397
 31
0.0
  0
LINE
  5
2C284
330
18
100
AcDbEntity
  8
1PHANTOM
100
AcDbLine
 10
3318.14683336013
 20
-1818.215698839397
 30
0.0
 11
3323.14683336013
 21
-1817.215698839397
 31
0.0
  0
LINE
  5
2C285
330
18
100
AcDbEntity
  8
1PHANTOM
100
AcDbLine
 10
3318.14683336013
 20
-1810.215698839397
 30
0.0
 11
3323.14683336013
 21
-1809.215698839397
 31
0.0
  0
LINE
  5
2C286
330
18
100
AcDbEntity
  8
1PHANTOM
100
AcDbLine
 10
3318.14683336013
 20
-1802.215698839397
 30
0.0
 11
3318.89683336013
 21
-1802.365698839397
 31
0.0
  0
LINE
  5
2C287
330
18
100
AcDbEntity
  8
1PHANTOM
100
AcDbLine
 10
3318.14683336013
 20
-1804.215698839397
 30
0.0
 11
3318.89683336013
 21
-1804.365698839397
 31
0.0
  0
LINE
  5
2C288
330
18
100
AcDbEntity
  8
1PHANTOM
100
AcDbLine
 10
3318.14683336013
 20
-1806.215698839397
 30
0.0
 11
3318.89683336013
 21
-1806.365698839397
 31
0.0
  0
LINE
  5
2C289
330
18
100
AcDbEntity
  8
1PHANTOM
100
AcDbLine
 10
3318.14683336013
 20
-1808.215698839397
 30
0.0
 11
3318.89683336013
 21
-1808.365698839397
 31
0.0
  0
LINE
  5
2C28A
330
18
100
AcDbEntity
  8
1PHANTOM
100
AcDbLine
 10
3318.14683336013
 20
-1804.215698839397
 30
0.0
 11
3323.14683336013
 21
-1803.215698839397
 31
0.0
  0
LINE
  5
2C28B
330
18
100
AcDbEntity
  8
1PHANTOM
100
AcDbLine
 10
3318.14683336013
 20
-1806.215698839397
 30
0.0
 11
3323.14683336013
 21
-1805.215698839397
 31
0.0
  0
LINE
  5
2C28C
330
18
100
AcDbEntity
  8
1PHANTOM
100
AcDbLine
 10
3318.14683336013
 20
-1808.215698839397
 30
0.0
 11
3323.14683336013
 21
-1807.215698839397
 31
0.0
  0
LINE
  5
2C28D
330
18
100
AcDbEntity
  8
1PHANTOM
100
AcDbLine
 10
3322.39683336013
 20
-1803.065698839397
 30
0.0
 11
3323.14683336013
 21
-1803.215698839397
 31
0.0
  0
LINE
  5
2C28E
330
18
100
AcDbEntity
  8
1PHANTOM
100
AcDbLine
 10
3322.39683336013
 20
-1805.065698839397
 30
0.0
 11
3323.14683336013
 21
-1805.215698839397
 31
0.0
  0
LINE
  5
2C28F
330
18
100
AcDbEntity
  8
1PHANTOM
100
AcDbLine
 10
3322.39683336013
 20
-1807.065698839397
 30
0.0
 11
3323.14683336013
 21
-1807.215698839397
 31
0.0
  0
LINE
  5
2C290
330
18
100
AcDbEntity
  8
1PHANTOM
100
AcDbLine
 10
3322.39683336013
 20
-1809.065698839397
 30
0.0
 11
3323.14683336013
 21
-1809.215698839397
 31
0.0
  0
LINE
  5
2C291
330
18
100
AcDbEntity
  8
1PHANTOM
100
AcDbLine
 10
3318.14683336013
 20
-1814.215698839397
 30
0.0
 11
3318.89683336013
 21
-1814.365698839397
 31
0.0
  0
LINE
  5
2C292
330
18
100
AcDbEntity
  8
1PHANTOM
100
AcDbLine
 10
3318.14683336013
 20
-1812.215698839397
 30
0.0
 11
3318.89683336013
 21
-1812.365698839397
 31
0.0
  0
LINE
  5
2C293
330
18
100
AcDbEntity
  8
1PHANTOM
100
AcDbLine
 10
3318.14683336013
 20
-1810.215698839397
 30
0.0
 11
3318.89683336013
 21
-1810.365698839397
 31
0.0
  0
LINE
  5
2C294
330
18
100
AcDbEntity
  8
1PHANTOM
100
AcDbLine
 10
3318.14683336013
 20
-1816.215698839397
 30
0.0
 11
3318.89683336013
 21
-1816.365698839397
 31
0.0
  0
LINE
  5
2C295
330
18
100
AcDbEntity
  8
1PHANTOM
100
AcDbLine
 10
3318.14683336013
 20
-1812.215698839397
 30
0.0
 11
3323.14683336013
 21
-1811.215698839397
 31
0.0
  0
LINE
  5
2C296
330
18
100
AcDbEntity
  8
1PHANTOM
100
AcDbLine
 10
3318.14683336013
 20
-1814.215698839397
 30
0.0
 11
3323.14683336013
 21
-1813.215698839397
 31
0.0
  0
LINE
  5
2C297
330
18
100
AcDbEntity
  8
1PHANTOM
100
AcDbLine
 10
3318.14683336013
 20
-1816.215698839397
 30
0.0
 11
3323.14683336013
 21
-1815.215698839397
 31
0.0
  0
LINE
  5
2C298
330
18
100
AcDbEntity
  8
1PHANTOM
100
AcDbLine
 10
3322.39683336013
 20
-1813.065698839397
 30
0.0
 11
3323.14683336013
 21
-1813.215698839397
 31
0.0
  0
LINE
  5
2C299
330
18
100
AcDbEntity
  8
1PHANTOM
100
AcDbLine
 10
3322.39683336013
 20
-1811.065698839397
 30
0.0
 11
3323.14683336013
 21
-1811.215698839397
 31
0.0
  0
LINE
  5
2C29A
330
18
100
AcDbEntity
  8
1PHANTOM
100
AcDbLine
 10
3322.39683336013
 20
-1815.065698839397
 30
0.0
 11
3323.14683336013
 21
-1815.215698839397
 31
0.0
  0
LINE
  5
2C29B
330
18
100
AcDbEntity
  8
1PHANTOM
100
AcDbLine
 10
3322.39683336013
 20
-1817.065698839397
 30
0.0
 11
3323.14683336013
 21
-1817.215698839397
 31
0.0
  0
LINE
  5
2C29C
330
18
100
AcDbEntity
  8
1PHANTOM
100
AcDbLine
 10
3318.14683336013
 20
-1818.215698839397
 30
0.0
 11
3318.89683336013
 21
-1818.365698839397
 31
0.0
  0
LINE
  5
2C29D
330
18
100
AcDbEntity
  8
1PHANTOM
100
AcDbLine
 10
3325.39683336013
 20
-1818.333564425443
 30
0.0
 11
3315.89683336013
 21
-1818.333564425443
 31
0.0
  0
ARC
  5
2C29E
330
18
100
AcDbEntity
  8
1PHANTOM
100
AcDbCircle
 10
3320.64683336013
 20
-1812.562731092109
 30
0.0
 40
8.270833333333439
100
AcDbArc
 50
234.9488632525092
 51
305.0511367474908
  0
LINE
  5
2C29F
330
18
100
AcDbEntity
  8
1PHANTOM
100
AcDbLine
 10
3325.39683336013
 20
-1818.333564425443
 30
0.0
 11
3325.39683336013
 21
-1819.333564425443
 31
0.0
  0
LINE
  5
2C2A0
330
18
100
AcDbEntity
  8
1PHANTOM
100
AcDbLine
 10
3315.89683336013
 20
-1818.333564425443
 30
0.0
 11
3315.89683336013
 21
-1819.333564425443
 31
0.0
  0
LINE
  5
2C2A1
330
18
100
AcDbEntity
  8
1PHANTOM
100
AcDbLine
 10
3325.179896539796
 20
-1819.333564425443
 30
0.0
 11
3316.141465575323
 21
-1819.333564425443
 31
0.0
  0
LINE
  5
2C2A3
330
18
100
AcDbEntity
  8
1DIM
100
AcDbLine
 10
3378.146833360129
 20
-2159.333564425443
 30
0.0
 11
3512.646833360129
 21
-2159.333564425443
 31
0.0
  0
LINE
  5
2C2A4
330
18
100
AcDbEntity
  8
1DIM
100
AcDbLine
 10
3530.646833360128
 20
-2163.333564425443
 30
0.0
 11
3530.646833360128
 21
-2330.976884493522
 31
0.0
  0
CIRCLE
  5
2C2A9
330
18
100
AcDbEntity
  8
1PHANTOM
100
AcDbCircle
 10
3378.146833360129
 20
-2234.333564425443
 30
0.0
 40
5.0
  0
LINE
  5
2C2AA
330
18
100
AcDbEntity
  8
1CENTER
100
AcDbLine
 10
3370.146833360129
 20
-2234.333564425443
 30
0.0
 11
3386.146833360129
 21
-2234.333564425443
 31
0.0
  0
LINE
  5
2C2AB
330
18
100
AcDbEntity
  8
1CENTER
100
AcDbLine
 10
3378.146833360129
 20
-2242.333564425443
 30
0.0
 11
3378.146833360129
 21
-2226.333564425443
 31
0.0
  0
LINE
  5
2C44D
330
18
100
AcDbEntity
  8
1DIM
100
AcDbLine
 10
3669.763811875217
 20
-1851.027451073226
 30
0.0
 11
4019.76381187522
 21
-1851.027451073224
 31
0.0
  0
LINE
  5
2C44E
330
18
100
AcDbEntity
  8
1DIM
100
AcDbLine
 10
3669.763811875217
 20
-1837.027451073226
 30
0.0
 11
4019.763811875221
 21
-1837.027451073224
 31
0.0
  0
TEXT
  5
2C44F
330
18
100
AcDbEntity
  8
1TEXT
100
AcDbText
 10
3900.830478541886
 20
-1848.027451073226
 30
0.0
 40
8.0
  1
コード
 72
     1
 11
3914.563811875219
 21
-1848.027451073226
 31
0.0
100
AcDbText
  0
TEXT
  5
2C450
330
18
100
AcDbEntity
  8
1TEXT
100
AcDbText
 10
3672.29714520855
 20
-1848.027451073227
 30
0.0
 40
8.0
  1
仕上げ：パネル（ガラス部）
 41
0.55
 72
     1
 11
3704.563811875217
 21
-1848.027451073227
 31
0.0
100
AcDbText
  0
LINE
  5
2C451
330
18
100
AcDbEntity
  8
1DIM
100
AcDbLine
 10
3669.763811875217
 20
-1865.027451073226
 30
0.0
 11
3949.763811875218
 21
-1865.027451073226
 31
0.0
  0
TEXT
  5
2C452
330
18
100
AcDbEntity
  8
1TEXT
100
AcDbText
 10
3679.443811875218
 20
-1876.456165040525
 30
0.0
 40
8.0
  1
ヘアラインシルバー
 41
0.6
 72
     1
 11
3704.563811875218
 21
-1876.456165040525
 31
0.0
100
AcDbText
  0
LINE
  5
2C453
330
18
100
AcDbEntity
  8
1DIM
100
AcDbLine
 10
3879.763811875219
 20
-1837.027451073225
 30
0.0
 11
3879.763811875219
 21
-1893.027451073227
 31
0.0
  0
TEXT
  5
2C454
330
18
100
AcDbEntity
  8
1TEXT
100
AcDbText
 10
3668.372334731923
 20
-1832.642871556499
 30
0.0
 40
16.0
  1
GP-100-X-73
100
AcDbText
  0
LINE
  5
2C455
330
18
100
AcDbEntity
  8
1DIM
100
AcDbLine
 10
3669.763811875217
 20
-1879.027451073227
 30
0.0
 11
3949.763811875218
 21
-1879.027451073227
 31
0.0
  0
TEXT
  5
2C456
330
18
100
AcDbEntity
  8
1TEXT
100
AcDbText
 10
3678.857145208551
 20
-1862.456165040525
 30
0.0
 40
8.0
  1
アクアホワイト
 41
0.8
 72
     1
 11
3704.563811875217
 21
-1862.456165040525
 31
0.0
100
AcDbText
  0
TEXT
  5
2C457
330
18
100
AcDbEntity
  8
1TEXT
100
AcDbText
 10
3884.21242298633
 20
-1862.456165040524
 30
0.0
 40
8.0
  1
GP-100-004-73
 41
0.65
 72
     1
 11
3914.563811875219
 21
-1862.456165040524
 31
0.0
100
AcDbText
  0
LINE
  5
2C458
330
18
100
AcDbEntity
  8
1DIM
100
AcDbLine
 10
3669.763811875217
 20
-1893.027451073228
 30
0.0
 11
4019.763811875219
 21
-1893.027451073228
 31
0.0
  0
TEXT
  5
2C459
330
18
100
AcDbEntity
  8
1TEXT
100
AcDbText
 10
3670.563811875219
 20
-1890.456165040527
 30
0.0
 40
8.0
  1
ヘアラインダークブラウン
 41
0.6
 72
     1
 11
3704.563811875219
 21
-1890.456165040527
 31
0.0
100
AcDbText
  0
LINE
  5
2C45A
330
18
100
AcDbEntity
  8
1DIM
100
AcDbLine
 10
3809.763811875218
 20
-1837.027451073225
 30
0.0
 11
3809.763811875218
 21
-1893.027451073227
 31
0.0
  0
TEXT
  5
2C45B
330
18
100
AcDbEntity
  8
1TEXT
100
AcDbText
 10
3829.84381187522
 20
-1876.456165040524
 30
0.0
 40
8.0
  1
シルバー
 41
0.8
 72
     1
 11
3844.56381187522
 21
-1876.456165040524
 31
0.0
100
AcDbText
  0
TEXT
  5
2C45C
330
18
100
AcDbEntity
  8
1TEXT
100
AcDbText
 10
3821.737145208552
 20
-1862.456165040524
 30
0.0
 40
8.0
  1
ミストグレー
 41
0.8
 72
     1
 11
3844.563811875219
 21
-1862.456165040524
 31
0.0
100
AcDbText
  0
TEXT
  5
2C45D
330
18
100
AcDbEntity
  8
1TEXT
100
AcDbText
 10
3818.323811875221
 20
-1890.456165040526
 30
0.0
 40
8.0
  1
ダークブラウン
 41
0.8
 72
     1
 11
3844.563811875221
 21
-1890.456165040526
 31
0.0
100
AcDbText
  0
TEXT
  5
2C45E
330
18
100
AcDbEntity
  8
1TEXT
100
AcDbText
 10
3824.870478541886
 20
-1848.027451073226
 30
0.0
 40
8.0
  1
仕上げ：本体
 41
0.7
 72
     1
 11
3844.563811875219
 21
-1848.027451073226
 31
0.0
100
AcDbText
  0
TEXT
  5
2C45F
330
18
100
AcDbEntity
  8
1TEXT
100
AcDbText
 10
3884.194367430774
 20
-1876.456165040525
 30
0.0
 40
8.0
  1
GP-100-006-73
 41
0.65
 72
     1
 11
3914.563811875219
 21
-1876.456165040525
 31
0.0
100
AcDbText
  0
TEXT
  5
2C460
330
18
100
AcDbEntity
  8
1TEXT
100
AcDbText
 10
3884.21242298633
 20
-1890.456165040526
 30
0.0
 40
8.0
  1
GP-100-008-73
 41
0.65
 72
     1
 11
3914.563811875219
 21
-1890.456165040526
 31
0.0
100
AcDbText
  0
LINE
  5
2C461
330
18
100
AcDbEntity
  8
1DIM
100
AcDbLine
 10
3739.763811875217
 20
-1837.027451073225
 30
0.0
 11
3739.763811875217
 21
-1893.027451073228
 31
0.0
  0
TEXT
  5
2C462
330
18
100
AcDbEntity
  8
1TEXT
100
AcDbText
 10
3759.843811875219
 20
-1876.456165040525
 30
0.0
 40
8.0
  1
シルバー
 41
0.8
 72
     1
 11
3774.563811875219
 21
-1876.456165040525
 31
0.0
100
AcDbText
  0
TEXT
  5
2C463
330
18
100
AcDbEntity
  8
1TEXT
100
AcDbText
 10
3751.737145208551
 20
-1862.456165040524
 30
0.0
 40
8.0
  1
ミストグレー
 41
0.8
 72
     1
 11
3774.563811875218
 21
-1862.456165040524
 31
0.0
100
AcDbText
  0
TEXT
  5
2C464
330
18
100
AcDbEntity
  8
1TEXT
100
AcDbText
 10
3748.32381187522
 20
-1890.456165040526
 30
0.0
 40
8.0
  1
ダークブラウン
 41
0.8
 72
     1
 11
3774.56381187522
 21
-1890.456165040526
 31
0.0
100
AcDbText
  0
TEXT
  5
2C465
330
18
100
AcDbEntity
  8
1TEXT
100
AcDbText
 10
3742.508739786232
 20
-1848.027451073226
 30
0.0
 40
8.0
  1
仕上げ：パネル（ステンレス部）
 41
0.5
 72
     1
 11
3776.642073119565
 21
-1848.027451073226
 31
0.0
100
AcDbText
  0
LINE
  5
2C4CB
330
18
100
AcDbEntity
  8
1CENTER
100
AcDbLine
 10
3430.746210408449
 20
-1939.833564425443
 30
0.0
 11
3325.547456311808
 21
-1939.833564425443
 31
0.0
  0
LINE
  5
2C4CC
330
18
100
AcDbEntity
  8
1HIDDEN
100
AcDbLine
 10
3423.896833360129
 20
-1952.583564425443
 30
0.0
 11
3332.396833360129
 21
-1952.583564425443
 31
0.0
  0
LINE
  5
2C4CD
330
18
100
AcDbEntity
  8
1HIDDEN
100
AcDbLine
 10
3423.896833360129
 20
-1927.083564425443
 30
0.0
 11
3332.396833360129
 21
-1927.083564425443
 31
0.0
  0
LINE
  5
2C4CF
330
18
100
AcDbEntity
  8
1HIDDEN
100
AcDbLine
 10
3423.896833360129
 20
-1952.583564425443
 30
0.0
 11
3423.896833360129
 21
-1927.083564425443
 31
0.0
  0
LINE
  5
2C4D0
330
18
100
AcDbEntity
  8
1HIDDEN
100
AcDbLine
 10
3332.396833360129
 20
-1952.583564425443
 30
0.0
 11
3332.396833360129
 21
-1927.083564425443
 31
0.0
  0
LINE
  5
2C8B1
330
18
100
AcDbEntity
  8
01
100
AcDbLine
 10
3418.146833361997
 20
-2237.83356443
 30
0.0
 11
3418.146833361997
 21
-2070.83356443
 31
0.0
  0
ARC
  5
2C8B2
330
18
100
AcDbEntity
  8
01
100
AcDbCircle
 10
3413.146833361997
 20
-2070.83356443
 30
0.0
 40
5.0
100
AcDbArc
 50
0.0
 51
90.0
  0
LINE
  5
2C8B3
330
18
100
AcDbEntity
  8
01
100
AcDbLine
 10
3338.146833361997
 20
-2237.83356443
 30
0.0
 11
3338.146833361997
 21
-2070.83356443
 31
0.0
  0
ARC
  5
2C8B4
330
18
100
AcDbEntity
  8
01
100
AcDbCircle
 10
3343.146833361997
 20
-2237.83356443
 30
0.0
 40
5.0
100
AcDbArc
 50
180.0
 51
270.0
  0
LINE
  5
2C8B5
330
18
100
AcDbEntity
  8
01
100
AcDbLine
 10
3343.146833361997
 20
-2065.83356443
 30
0.0
 11
3413.146833361997
 21
-2065.83356443
 31
0.0
  0
ARC
  5
2C8B6
330
18
100
AcDbEntity
  8
01
100
AcDbCircle
 10
3343.146833361997
 20
-2070.83356443
 30
0.0
 40
5.0
100
AcDbArc
 50
90.0
 51
180.0
  0
LINE
  5
2C8B7
330
18
100
AcDbEntity
  8
01
100
AcDbLine
 10
3343.146833361997
 20
-2242.83356443
 30
0.0
 11
3413.146833361997
 21
-2242.83356443
 31
0.0
  0
ARC
  5
2C8B8
330
18
100
AcDbEntity
  8
01
100
AcDbCircle
 10
3413.146833361997
 20
-2237.83356443
 30
0.0
 40
5.0
100
AcDbArc
 50
270.0
 51
0.0
  0
LINE
  5
2CACD
330
18
100
AcDbEntity
  8
01
100
AcDbLine
 10
3360.146833360129
 20
-2081.333564425443
 30
0.0
 11
3360.146833360129
 21
-2237.333564425443
 31
0.0
  0
LINE
  5
2CACE
330
18
100
AcDbEntity
  8
01
100
AcDbLine
 10
3396.146833360129
 20
-2081.333564425443
 30
0.0
 11
3396.146833360129
 21
-2237.333564425443
 31
0.0
  0
LINE
  5
2CACF
330
18
100
AcDbEntity
  8
01
100
AcDbLine
 10
3360.146833360129
 20
-2081.333564425443
 30
0.0
 11
3396.146833360129
 21
-2081.333564425443
 31
0.0
  0
LINE
  5
2CAD0
330
18
100
AcDbEntity
  8
01
100
AcDbLine
 10
3360.146833360129
 20
-2237.333564425443
 30
0.0
 11
3396.146833360129
 21
-2237.333564425443
 31
0.0
  0
LINE
  5
2CD1E
330
18
100
AcDbEntity
  8
1DIM
100
AcDbLine
 10
3305.646833360129
 20
-1915.833564425443
 30
0.0
 11
3305.646833360129
 21
-1888.833564425443
 31
0.0
1001
ACAD
1000
DSTYLE
1002
{
1070
    40
1040
2.0
1002
}
  0
LINE
  5
2CD1F
330
18
100
AcDbEntity
  8
1DIM
100
AcDbLine
 10
3450.646833360129
 20
-1915.833564425443
 30
0.0
 11
3450.646833360129
 21
-1888.833564425443
 31
0.0
1001
ACAD
1000
DSTYLE
1002
{
1070
    40
1040
2.0
1002
}
  0
LINE
  5
2CD20
330
18
100
AcDbEntity
  8
1DIM
100
AcDbLine
 10
3309.646833360129
 20
-1890.833564425443
 30
0.0
 11
3446.646833360129
 21
-1890.833564425443
 31
0.0
1001
ACAD
1000
DSTYLE
1002
{
1070
    40
1040
2.0
1002
}
  0
LINE
  5
2CD24
330
18
100
AcDbEntity
  8
1DIM
100
AcDbLine
 10
3310.736343341134
 20
-2265.833564425444
 30
0.0
 11
3283.646833360129
 21
-2265.833564425444
 31
0.0
1001
ACAD
1000
DSTYLE
1002
{
1070
    40
1040
2.0
1002
}
  0
LINE
  5
2CD25
330
18
100
AcDbEntity
  8
1DIM
100
AcDbLine
 10
3315.465219946452
 20
-2065.833564425444
 30
0.0
 11
3283.646833360129
 21
-2065.833564425444
 31
0.0
1001
ACAD
1000
DSTYLE
1002
{
1070
    40
1040
2.0
1002
}
  0
LINE
  5
2CD26
330
18
100
AcDbEntity
  8
1DIM
100
AcDbLine
 10
3285.646833360129
 20
-2261.833564425444
 30
0.0
 11
3285.646833360129
 21
-2069.833564425444
 31
0.0
1001
ACAD
1000
DSTYLE
1002
{
1070
    40
1040
2.0
1002
}
  0
LINE
  5
2CD2A
330
18
100
AcDbEntity
  8
1DIM
100
AcDbLine
 10
3320.646833360129
 20
-2055.923074406449
 30
0.0
 11
3320.646833360129
 21
-1898.835924251539
 31
0.0
1001
ACAD
1000
DSTYLE
1002
{
1070
    40
1040
2.0
1002
}
  0
LINE
  5
2CD2B
330
18
100
AcDbEntity
  8
1DIM
100
AcDbLine
 10
3435.646833360129
 20
-2055.923074406449
 30
0.0
 11
3435.646833360129
 21
-1898.835924251539
 31
0.0
1001
ACAD
1000
DSTYLE
1002
{
1070
    40
1040
2.0
1002
}
  0
LINE
  5
2CD2C
330
18
100
AcDbEntity
  8
1DIM
100
AcDbLine
 10
3324.646833360129
 20
-1900.835924251539
 30
0.0
 11
3431.646833360129
 21
-1900.835924251539
 31
0.0
1001
ACAD
1000
DSTYLE
1002
{
1070
    40
1040
2.0
1002
}
  0
SOLID
  5
2CD30
330
18
100
AcDbEntity
  8
1DIM
100
AcDbTrace
 10
3628.472184852523
 20
-2152.061445080008
 30
0.0
 11
3625.359929227296
 21
-2154.661119938079
 31
0.0
 12
3627.46081702692
 22
-2151.192587842532
 32
0.0
 13
3627.46081702692
 23
-2151.192587842532
 33
0.0
1001
ACAD
1000
DSTYLE
1002
{
1070
    40
1040
2.0
1002
}
  0
LINE
  5
2CD31
330
18
100
AcDbEntity
  8
1DIM
100
AcDbLine
 10
3627.966500939722
 20
-2151.62701646127
 30
0.0
 11
3649.747092283485
 21
-2126.27395688189
 31
0.0
1001
ACAD
1000
DSTYLE
1002
{
1070
    40
1040
2.0
1002
}
  0
LINE
  5
2CD32
330
18
100
AcDbEntity
  8
1DIM
100
AcDbLine
 10
3649.747092283485
 20
-2126.27395688189
 30
0.0
 11
3729.113758950151
 21
-2126.27395688189
 31
0.0
1001
ACAD
1000
DSTYLE
1002
{
1070
    40
1040
2.0
1002
}
  0
TEXT
  5
2CD33
330
18
100
AcDbEntity
  8
1DIM
  6
CONTINUOUS
100
AcDbText
 10
3654.680425616818
 20
-2113.207290215224
 30
0.0
 40
7.0
  1
材質：ステンレス
100
AcDbText
  0
TEXT
  5
2CD34
330
18
100
AcDbEntity
  8
1DIM
  6
CONTINUOUS
100
AcDbText
 10
3654.913758950152
 20
-2124.87395688189
 30
0.0
 40
7.0
  1
仕上げ：各種仕上げ
100
AcDbText
  0
SOLID
  5
2CD35
330
18
100
AcDbEntity
  8
1DIM
100
AcDbTrace
 10
3422.378509394502
 20
-1963.083909210161
 30
0.0
 11
3418.975983087431
 21
-1965.290095778458
 31
0.0
 12
3421.479069085483
 22
-1962.09964049264
 32
0.0
 13
3421.479069085483
 23
-1962.09964049264
 33
0.0
1001
ACAD
1000
DSTYLE
1002
{
1070
    40
1040
2.0
1002
}
  0
LINE
  5
2CD36
330
18
100
AcDbEntity
  8
1DIM
100
AcDbLine
 10
3421.928789239993
 20
-1962.5917748514
 30
0.0
 11
3450.04040870321
 21
-1936.902932722269
 31
0.0
1001
ACAD
1000
DSTYLE
1002
{
1070
    40
1040
2.0
1002
}
  0
LINE
  5
2CD37
330
18
100
AcDbEntity
  8
1DIM
100
AcDbLine
 10
3450.04040870321
 20
-1936.902932722269
 30
0.0
 11
3529.407075369877
 21
-1936.902932722269
 31
0.0
1001
ACAD
1000
DSTYLE
1002
{
1070
    40
1040
2.0
1002
}
  0
TEXT
  5
2CD38
330
18
100
AcDbEntity
  8
1DIM
  6
CONTINUOUS
100
AcDbText
 10
3454.973742036543
 20
-1923.836266055603
 30
0.0
 40
7.0
  1
材質：ガラス
100
AcDbText
  0
TEXT
  5
2CD39
330
18
100
AcDbEntity
  8
1DIM
  6
CONTINUOUS
100
AcDbText
 10
3455.207075369877
 20
-1935.502932722269
 30
0.0
 40
7.0
  1
仕上げ：各種仕上げ
100
AcDbText
  0
SOLID
  5
2CD3A
330
18
100
AcDbEntity
  8
1DIM
100
AcDbTrace
 10
3413.238218540147
 20
-2142.286201852955
 30
0.0
 11
3410.43838437562
 21
-2145.219693474828
 31
0.0
 12
3412.1354734647
 22
-2141.536714644021
 32
0.0
 13
3412.1354734647
 23
-2141.536714644021
 33
0.0
1001
ACAD
1000
DSTYLE
1002
{
1070
    40
1040
2.0
1002
}
  0
LINE
  5
2CD3B
330
18
100
AcDbEntity
  8
1DIM
100
AcDbLine
 10
3412.686846002423
 20
-2141.911458248488
 30
0.0
 11
3447.823497861486
 21
-2090.213751678736
 31
0.0
1001
ACAD
1000
DSTYLE
1002
{
1070
    40
1040
2.0
1002
}
  0
LINE
  5
2CD3C
330
18
100
AcDbEntity
  8
1DIM
100
AcDbLine
 10
3447.823497861486
 20
-2090.213751678736
 30
0.0
 11
3527.190164528153
 21
-2090.213751678736
 31
0.0
1001
ACAD
1000
DSTYLE
1002
{
1070
    40
1040
2.0
1002
}
  0
TEXT
  5
2CD3D
330
18
100
AcDbEntity
  8
1DIM
  6
CONTINUOUS
100
AcDbText
 10
3452.756831194819
 20
-2077.147085012069
 30
0.0
 40
7.0
  1
材質：ステンレス
100
AcDbText
  0
TEXT
  5
2CD3E
330
18
100
AcDbEntity
  8
1DIM
  6
CONTINUOUS
100
AcDbText
 10
3452.990164528153
 20
-2088.813751678736
 30
0.0
 40
7.0
  1
仕上げ：各種仕上げ
100
AcDbText
  0
LINE
  5
2CD3F
330
18
100
AcDbEntity
  8
1DIM
100
AcDbLine
 10
3630.646833360129
 20
-1900.637922644627
 30
0.0
 11
3630.646833360129
 21
-1888.833564425443
 31
0.0
1001
ACAD
1000
DSTYLE
1002
{
1070
    40
1040
2.0
1002
}
  0
LINE
  5
2CD40
330
18
100
AcDbEntity
  8
1DIM
100
AcDbLine
 10
3570.646833360129
 20
-1911.833564425443
 30
0.0
 11
3570.646833360129
 21
-1888.833564425443
 31
0.0
1001
ACAD
1000
DSTYLE
1002
{
1070
    40
1040
2.0
1002
}
  0
LINE
  5
2CD41
330
18
100
AcDbEntity
  8
1DIM
100
AcDbLine
 10
3626.646833360129
 20
-1890.833564425443
 30
0.0
 11
3574.646833360129
 21
-1890.833564425443
 31
0.0
1001
ACAD
1000
DSTYLE
1002
{
1070
    40
1040
2.0
1002
}
  0
LINE
  5
2CD45
330
18
100
AcDbEntity
  8
1DIM
100
AcDbLine
 10
3578.146833360129
 20
-2323.833564425446
 30
0.0
 11
3578.146833360129
 21
-2307.114699029171
 31
0.0
1001
ACAD
1000
DSTYLE
1002
{
1070
    40
1040
2.0
1002
}
  0
LINE
  5
2CD46
330
18
100
AcDbEntity
  8
1DIM
100
AcDbLine
 10
3603.146833360129
 20
-2321.333564425446
 30
0.0
 11
3603.146833360129
 21
-2307.114699029171
 31
0.0
1001
ACAD
1000
DSTYLE
1002
{
1070
    40
1040
2.0
1002
}
  0
LINE
  5
2CD47
330
18
100
AcDbEntity
  8
1DIM
100
AcDbLine
 10
3582.146833360129
 20
-2309.114699029171
 30
0.0
 11
3599.146833360129
 21
-2309.114699029171
 31
0.0
1001
ACAD
1000
DSTYLE
1002
{
1070
    40
1040
2.0
1002
}
  0
LINE
  5
2CD4B
330
18
100
AcDbEntity
  8
1DIM
100
AcDbLine
 10
3603.146833360129
 20
-2321.333564425446
 30
0.0
 11
3603.146833360129
 21
-2307.114699029171
 31
0.0
1001
ACAD
1000
DSTYLE
1002
{
1070
    40
1040
2.0
1002
}
  0
LINE
  5
2CD4C
330
18
100
AcDbEntity
  8
1DIM
100
AcDbLine
 10
3630.646833360129
 20
-2309.114699029171
 30
0.0
 11
3630.646833360129
 21
-2307.114699029171
 31
0.0
1001
ACAD
1000
DSTYLE
1002
{
1070
    40
1040
2.0
1002
}
  0
LINE
  5
2CD4D
330
18
100
AcDbEntity
  8
1DIM
100
AcDbLine
 10
3607.146833360129
 20
-2309.114699029171
 30
0.0
 11
3626.646833360129
 21
-2309.114699029171
 31
0.0
1001
ACAD
1000
DSTYLE
1002
{
1070
    40
1040
2.0
1002
}
  0
LINE
  5
2CD51
330
18
100
AcDbEntity
  8
1DIM
100
AcDbLine
 10
3445.646833360129
 20
-2340.833564425443
 30
0.0
 11
3552.646833360129
 21
-2340.833564425443
 31
0.0
1001
ACAD
1000
DSTYLE
1002
{
1070
    40
1040
2.0
1002
}
  0
LINE
  5
2CD52
330
18
100
AcDbEntity
  8
1DIM
100
AcDbLine
 10
3445.646833360129
 20
-1910.833564425443
 30
0.0
 11
3552.646833360129
 21
-1910.833564425443
 31
0.0
1001
ACAD
1000
DSTYLE
1002
{
1070
    40
1040
2.0
1002
}
  0
LINE
  5
2CD53
330
18
100
AcDbEntity
  8
1DIM
100
AcDbLine
 10
3550.646833360129
 20
-2336.833564425443
 30
0.0
 11
3550.646833360129
 21
-1914.833564425443
 31
0.0
1001
ACAD
1000
DSTYLE
1002
{
1070
    40
1040
2.0
1002
}
  0
LINE
  5
2CD57
330
18
100
AcDbEntity
  8
0
  6
BYBLOCK
100
AcDbLine
 10
3529.575036600128
 20
-2163.333564425443
 30
0.0
 11
3530.646833360128
 21
-2159.333564425443
 31
0.0
  0
LINE
  5
2CD58
330
18
100
AcDbEntity
  8
0
  6
BYBLOCK
100
AcDbLine
 10
3530.646833360128
 20
-2159.333564425443
 30
0.0
 11
3531.718630120128
 21
-2163.333564425443
 31
0.0
  0
LINE
  5
2CD59
330
18
100
AcDbEntity
  8
0
  6
BYBLOCK
100
AcDbLine
 10
3530.646833360128
 20
-2159.333564425443
 30
0.0
 11
3530.646833360128
 21
-2163.333564425443
 31
0.0
  0
TEXT
  5
2CD5A
330
18
100
AcDbEntity
  8
1DIM
  6
CONTINUOUS
100
AcDbText
 10
3515.690652602024
 20
-2324.76909469276
 30
0.0
 40
7.0
  1
JIS2個用スイッチボックス（カバーなし）
 50
90.0
100
AcDbText
  0
TEXT
  5
2CD5B
330
18
100
AcDbEntity
  8
1DIM
  6
CONTINUOUS
100
AcDbText
 10
3527.362180379802
 20
-2303.676733581648
 30
0.0
 40
7.0
  1
中心床面より1350（推奨位置）
 50
90.0
100
AcDbText
  0
LINE
  5
2CD5C
330
18
100
AcDbEntity
  8
1DIM
100
AcDbLine
 10
3378.146833360129
 20
-2159.333564425443
 30
0.0
 11
3532.646833360129
 21
-2159.333564425443
 31
0.0
1001
ACAD
1000
DSTYLE
1002
{
1070
    40
1040
2.0
1002
}
  0
LINE
  5
2CD5D
330
18
100
AcDbEntity
  8
1DIM
100
AcDbLine
 10
3440.828446773805
 20
-2065.833564425444
 30
0.0
 11
3532.646833360129
 21
-2065.833564425444
 31
0.0
1001
ACAD
1000
DSTYLE
1002
{
1070
    40
1040
2.0
1002
}
  0
LINE
  5
2CD5E
330
18
100
AcDbEntity
  8
1DIM
100
AcDbLine
 10
3530.646833360129
 20
-2155.333564425443
 30
0.0
 11
3530.646833360129
 21
-2069.833564425444
 31
0.0
1001
ACAD
1000
DSTYLE
1002
{
1070
    40
1040
2.0
1002
}
  0
LINE
  5
2CD62
330
18
100
AcDbEntity
  8
1DIM
100
AcDbLine
 10
3440.828446773805
 20
-2065.833564425444
 30
0.0
 11
3532.646833360129
 21
-2065.833564425444
 31
0.0
1001
ACAD
1000
DSTYLE
1002
{
1070
    40
1040
2.0
1002
}
  0
LINE
  5
2CD63
330
18
100
AcDbEntity
  8
1DIM
100
AcDbLine
 10
3445.646833360129
 20
-1910.833564425443
 30
0.0
 11
3532.646833360129
 21
-1910.833564425443
 31
0.0
1001
ACAD
1000
DSTYLE
1002
{
1070
    40
1040
2.0
1002
}
  0
LINE
  5
2CD64
330
18
100
AcDbEntity
  8
1DIM
100
AcDbLine
 10
3530.646833360129
 20
-2061.833564425444
 30
0.0
 11
3530.646833360129
 21
-1914.833564425443
 31
0.0
1001
ACAD
1000
DSTYLE
1002
{
1070
    40
1040
2.0
1002
}
  0
LINE
  5
2CD68
330
18
100
AcDbEntity
  8
1DIM
100
AcDbLine
 10
3386.146833360129
 20
-2234.333564425443
 30
0.0
 11
3502.646833360129
 21
-2234.333564425443
 31
0.0
1001
ACAD
1000
DSTYLE
1002
{
1070
    40
1040
2.0
1002
}
  0
LINE
  5
2CD69
330
18
100
AcDbEntity
  8
1DIM
100
AcDbLine
 10
3378.146833360129
 20
-2159.333564425443
 30
0.0
 11
3502.646833360129
 21
-2159.333564425443
 31
0.0
1001
ACAD
1000
DSTYLE
1002
{
1070
    40
1040
2.0
1002
}
  0
LINE
  5
2CD6A
330
18
100
AcDbEntity
  8
1DIM
100
AcDbLine
 10
3500.646833360129
 20
-2230.333564425443
 30
0.0
 11
3500.646833360129
 21
-2163.333564425443
 31
0.0
1001
ACAD
1000
DSTYLE
1002
{
1070
    40
1040
2.0
1002
}
  0
SOLID
  5
2CD6E
330
18
100
AcDbEntity
  8
1DIM
100
AcDbTrace
 10
3602.37503755227
 20
-2326.742251654251
 30
0.0
 11
3598.514043010311
 21
-2327.982076477119
 31
0.0
 12
3601.764229796639
 22
-2325.557054766202
 32
0.0
 13
3601.764229796639
 23
-2325.557054766202
 33
0.0
1001
ACAD
1000
DSTYLE
1002
{
1070
    40
1040
2.0
1002
}
  0
LINE
  5
2CD6F
330
18
100
AcDbEntity
  8
1DIM
100
AcDbLine
 10
3602.069633674455
 20
-2326.149653210226
 30
0.0
 11
3653.595821204096
 21
-2299.594913420931
 31
0.0
1001
ACAD
1000
DSTYLE
1002
{
1070
    40
1040
2.0
1002
}
  0
LINE
  5
2CD70
330
18
100
AcDbEntity
  8
1DIM
100
AcDbLine
 10
3653.595821204096
 20
-2299.594913420931
 30
0.0
 11
3748.12915453743
 21
-2299.594913420931
 31
0.0
1001
ACAD
1000
DSTYLE
1002
{
1070
    40
1040
2.0
1002
}
  0
TEXT
  5
2CD71
330
18
100
AcDbEntity
  8
1DIM
  6
CONTINUOUS
100
AcDbText
 10
3658.52915453743
 20
-2298.194913420931
 30
0.0
 40
7.0
  1
材質：ポリカーボネイト
100
AcDbText
  0
SOLID
  5
2CD72
330
18
100
AcDbEntity
  8
1DIM
100
AcDbTrace
 10
3448.796390237506
 20
-1846.210334724683
 30
0.0
 11
3445.204679771159
 21
-1848.092902218925
 31
0.0
 12
3447.991681295247
 22
-1845.14721605961
 32
0.0
 13
3447.991681295247
 23
-1845.14721605961
 33
0.0
1001
ACAD
1000
DSTYLE
1002
{
1070
    40
1040
2.0
1002
}
  0
LINE
  5
2CD73
330
18
100
AcDbEntity
  8
1DIM
100
AcDbLine
 10
3448.394035766376
 20
-1845.678775392147
 30
0.0
 11
3469.022413561459
 21
-1830.064488275026
 31
0.0
1001
ACAD
1000
DSTYLE
1002
{
1070
    40
1040
2.0
1002
}
  0
LINE
  5
2CD74
330
18
100
AcDbEntity
  8
1DIM
100
AcDbLine
 10
3469.022413561459
 20
-1830.064488275026
 30
0.0
 11
3563.555746894792
 21
-1830.064488275026
 31
0.0
1001
ACAD
1000
DSTYLE
1002
{
1070
    40
1040
2.0
1002
}
  0
TEXT
  5
2CD75
330
18
100
AcDbEntity
  8
1DIM
  6
CONTINUOUS
100
AcDbText
 10
3473.955746894792
 20
-1828.664488275026
 30
0.0
 40
7.0
  1
材質：ポリカーボネイト
100
AcDbText
  0
LINE
  5
2CD76
330
18
100
AcDbEntity
  8
1DIM
100
AcDbLine
 10
3325.547456311808
 20
-1939.833564425443
 30
0.0
 11
3283.646833360129
 21
-1939.833564425443
 31
0.0
1001
ACAD
1000
DSTYLE
1002
{
1070
    40
1040
2.0
1002
}
  0
LINE
  5
2CD77
330
18
100
AcDbEntity
  8
1DIM
100
AcDbLine
 10
3310.646833360129
 20
-1910.833564425443
 30
0.0
 11
3283.646833360129
 21
-1910.833564425443
 31
0.0
1001
ACAD
1000
DSTYLE
1002
{
1070
    40
1040
2.0
1002
}
  0
LINE
  5
2CD78
330
18
100
AcDbEntity
  8
1DIM
100
AcDbLine
 10
3285.646833360129
 20
-1935.833564425443
 30
0.0
 11
3285.646833360129
 21
-1914.833564425443
 31
0.0
1001
ACAD
1000
DSTYLE
1002
{
1070
    40
1040
2.0
1002
}
  0
SOLID
  5
2CD7C
330
18
100
AcDbEntity
  8
1DIM
100
AcDbTrace
 10
3422.378509394502
 20
-1928.766133372998
 30
0.0
 11
3418.975983087431
 21
-1930.972319941295
 31
0.0
 12
3421.479069085483
 22
-1927.781864655478
 32
0.0
 13
3421.479069085483
 23
-1927.781864655478
 33
0.0
1001
ACAD
1000
DSTYLE
1002
{
1070
    40
1040
2.0
1002
}
  0
LINE
  5
2CD7D
330
18
100
AcDbEntity
  8
1DIM
100
AcDbLine
 10
3421.928789239993
 20
-1928.273999014238
 30
0.0
 11
3450.04040870321
 21
-1902.585156885107
 31
0.0
1001
ACAD
1000
DSTYLE
1002
{
1070
    40
1040
2.0
1002
}
  0
LINE
  5
2CD7E
330
18
100
AcDbEntity
  8
1DIM
100
AcDbLine
 10
3450.04040870321
 20
-1902.585156885107
 30
0.0
 11
3540.34040870321
 21
-1902.585156885107
 31
0.0
1001
ACAD
1000
DSTYLE
1002
{
1070
    40
1040
2.0
1002
}
  0
TEXT
  5
2CD7F
330
18
100
AcDbEntity
  8
1DIM
  6
CONTINUOUS
100
AcDbText
 10
3455.207075369877
 20
-1889.51849021844
 30
0.0
 40
7.0
  1
ルームナンバーGP-1
100
AcDbText
  0
TEXT
  5
2CD80
330
18
100
AcDbEntity
  8
1DIM
  6
CONTINUOUS
100
AcDbText
 10
3455.207075369877
 20
-1901.185156885107
 30
0.0
 40
7.0
  1
張付け推奨位置
100
AcDbText
  0
LINE
  5
2CD81
330
18
100
AcDbEntity
  8
0
  6
BYBLOCK
100
AcDbLine
 10
3309.646833360129
 20
-1891.905361185443
 30
0.0
 11
3305.646833360129
 21
-1890.833564425443
 31
0.0
  0
LINE
  5
2CD82
330
18
100
AcDbEntity
  8
0
  6
BYBLOCK
100
AcDbLine
 10
3305.646833360129
 20
-1890.833564425443
 30
0.0
 11
3309.646833360129
 21
-1889.761767665443
 31
0.0
  0
LINE
  5
2CD83
330
18
100
AcDbEntity
  8
0
  6
BYBLOCK
100
AcDbLine
 10
3305.646833360129
 20
-1890.833564425443
 30
0.0
 11
3309.646833360129
 21
-1890.833564425443
 31
0.0
  0
LINE
  5
2CD84
330
18
100
AcDbEntity
  8
0
  6
BYBLOCK
100
AcDbLine
 10
3446.646833360129
 20
-1889.761767665443
 30
0.0
 11
3450.646833360129
 21
-1890.833564425443
 31
0.0
  0
LINE
  5
2CD85
330
18
100
AcDbEntity
  8
0
  6
BYBLOCK
100
AcDbLine
 10
3450.646833360129
 20
-1890.833564425443
 30
0.0
 11
3446.646833360129
 21
-1891.905361185443
 31
0.0
  0
LINE
  5
2CD86
330
18
100
AcDbEntity
  8
0
  6
BYBLOCK
100
AcDbLine
 10
3450.646833360129
 20
-1890.833564425443
 30
0.0
 11
3446.646833360129
 21
-1890.833564425443
 31
0.0
  0
TEXT
  5
2CD87
330
18
100
AcDbEntity
  8
1DIM
  6
CONTINUOUS
100
AcDbText
 10
3369.980166693463
 20
-1889.433564425443
 30
0.0
 40
7.0
  1
145
100
AcDbText
1001
ACAD
1000
DSTYLE
1002
{
1070
    40
1040
2.0
1002
}
  0
LINE
  5
2CD88
330
18
100
AcDbEntity
  8
0
  6
BYBLOCK
100
AcDbLine
 10
3286.718630120129
 20
-2261.833564425444
 30
0.0
 11
3285.646833360129
 21
-2265.833564425444
 31
0.0
  0
LINE
  5
2CD89
330
18
100
AcDbEntity
  8
0
  6
BYBLOCK
100
AcDbLine
 10
3285.646833360129
 20
-2265.833564425444
 30
0.0
 11
3284.575036600129
 21
-2261.833564425444
 31
0.0
  0
LINE
  5
2CD8A
330
18
100
AcDbEntity
  8
0
  6
BYBLOCK
100
AcDbLine
 10
3285.646833360129
 20
-2265.833564425444
 30
0.0
 11
3285.646833360129
 21
-2261.833564425444
 31
0.0
  0
LINE
  5
2CD8B
330
18
100
AcDbEntity
  8
0
  6
BYBLOCK
100
AcDbLine
 10
3284.575036600129
 20
-2069.833564425444
 30
0.0
 11
3285.646833360129
 21
-2065.833564425444
 31
0.0
  0
LINE
  5
2CD8C
330
18
100
AcDbEntity
  8
0
  6
BYBLOCK
100
AcDbLine
 10
3285.646833360129
 20
-2065.833564425444
 30
0.0
 11
3286.718630120129
 21
-2069.833564425444
 31
0.0
  0
LINE
  5
2CD8D
330
18
100
AcDbEntity
  8
0
  6
BYBLOCK
100
AcDbLine
 10
3285.646833360129
 20
-2065.833564425444
 30
0.0
 11
3285.646833360129
 21
-2069.833564425444
 31
0.0
  0
TEXT
  5
2CD8E
330
18
100
AcDbEntity
  8
1DIM
  6
CONTINUOUS
100
AcDbText
 10
3284.24683336013
 20
-2177.646064425443
 30
0.0
 40
7.0
  1
P200
 50
90.0
100
AcDbText
1001
ACAD
1000
DSTYLE
1002
{
1070
    40
1040
2.0
1002
}
  0
LINE
  5
2CD8F
330
18
100
AcDbEntity
  8
0
  6
BYBLOCK
100
AcDbLine
 10
3324.646833360129
 20
-1901.907721011539
 30
0.0
 11
3320.646833360129
 21
-1900.835924251539
 31
0.0
  0
LINE
  5
2CD90
330
18
100
AcDbEntity
  8
0
  6
BYBLOCK
100
AcDbLine
 10
3320.646833360129
 20
-1900.835924251539
 30
0.0
 11
3324.646833360129
 21
-1899.764127491539
 31
0.0
  0
LINE
  5
2CD91
330
18
100
AcDbEntity
  8
0
  6
BYBLOCK
100
AcDbLine
 10
3320.646833360129
 20
-1900.835924251539
 30
0.0
 11
3324.646833360129
 21
-1900.835924251539
 31
0.0
  0
LINE
  5
2CD92
330
18
100
AcDbEntity
  8
0
  6
BYBLOCK
100
AcDbLine
 10
3431.646833360129
 20
-1899.764127491539
 30
0.0
 11
3435.646833360129
 21
-1900.835924251539
 31
0.0
  0
LINE
  5
2CD93
330
18
100
AcDbEntity
  8
0
  6
BYBLOCK
100
AcDbLine
 10
3435.646833360129
 20
-1900.835924251539
 30
0.0
 11
3431.646833360129
 21
-1901.907721011539
 31
0.0
  0
LINE
  5
2CD94
330
18
100
AcDbEntity
  8
0
  6
BYBLOCK
100
AcDbLine
 10
3435.646833360129
 20
-1900.835924251539
 30
0.0
 11
3431.646833360129
 21
-1900.835924251539
 31
0.0
  0
TEXT
  5
2CD95
330
18
100
AcDbEntity
  8
1DIM
  6
CONTINUOUS
100
AcDbText
 10
3367.646833360129
 20
-1899.43592425154
 30
0.0
 40
7.0
  1
P115
100
AcDbText
1001
ACAD
1000
DSTYLE
1002
{
1070
    40
1040
2.0
1002
}
  0
LINE
  5
2CD96
330
18
100
AcDbEntity
  8
0
  6
BYBLOCK
100
AcDbLine
 10
3626.646833360129
 20
-1889.761767665443
 30
0.0
 11
3630.646833360129
 21
-1890.833564425443
 31
0.0
  0
LINE
  5
2CD97
330
18
100
AcDbEntity
  8
0
  6
BYBLOCK
100
AcDbLine
 10
3630.646833360129
 20
-1890.833564425443
 30
0.0
 11
3626.646833360129
 21
-1891.905361185443
 31
0.0
  0
LINE
  5
2CD98
330
18
100
AcDbEntity
  8
0
  6
BYBLOCK
100
AcDbLine
 10
3630.646833360129
 20
-1890.833564425443
 30
0.0
 11
3626.646833360129
 21
-1890.833564425443
 31
0.0
  0
LINE
  5
2CD99
330
18
100
AcDbEntity
  8
0
  6
BYBLOCK
100
AcDbLine
 10
3574.646833360129
 20
-1891.905361185443
 30
0.0
 11
3570.646833360129
 21
-1890.833564425443
 31
0.0
  0
LINE
  5
2CD9A
330
18
100
AcDbEntity
  8
0
  6
BYBLOCK
100
AcDbLine
 10
3570.646833360129
 20
-1890.833564425443
 30
0.0
 11
3574.646833360129
 21
-1889.761767665443
 31
0.0
  0
LINE
  5
2CD9B
330
18
100
AcDbEntity
  8
0
  6
BYBLOCK
100
AcDbLine
 10
3570.646833360129
 20
-1890.833564425443
 30
0.0
 11
3574.646833360129
 21
-1890.833564425443
 31
0.0
  0
TEXT
  5
2CD9C
330
18
100
AcDbEntity
  8
1DIM
  6
CONTINUOUS
100
AcDbText
 10
3595.226694471241
 20
-1889.433564425443
 30
0.0
 40
7.0
  1
60
100
AcDbText
1001
ACAD
1000
DSTYLE
1002
{
1070
    40
1040
2.0
1002
}
  0
LINE
  5
2CD9D
330
18
100
AcDbEntity
  8
0
  6
BYBLOCK
100
AcDbLine
 10
3582.146833360129
 20
-2310.186495789171
 30
0.0
 11
3578.146833360129
 21
-2309.114699029171
 31
0.0
  0
LINE
  5
2CD9E
330
18
100
AcDbEntity
  8
0
  6
BYBLOCK
100
AcDbLine
 10
3578.146833360129
 20
-2309.114699029171
 30
0.0
 11
3582.146833360129
 21
-2308.042902269171
 31
0.0
  0
LINE
  5
2CD9F
330
18
100
AcDbEntity
  8
0
  6
BYBLOCK
100
AcDbLine
 10
3578.146833360129
 20
-2309.114699029171
 30
0.0
 11
3582.146833360129
 21
-2309.114699029171
 31
0.0
  0
LINE
  5
2CDA0
330
18
100
AcDbEntity
  8
0
  6
BYBLOCK
100
AcDbLine
 10
3599.146833360129
 20
-2308.042902269171
 30
0.0
 11
3603.146833360129
 21
-2309.114699029171
 31
0.0
  0
LINE
  5
2CDA1
330
18
100
AcDbEntity
  8
0
  6
BYBLOCK
100
AcDbLine
 10
3603.146833360129
 20
-2309.114699029171
 30
0.0
 11
3599.146833360129
 21
-2310.186495789171
 31
0.0
  0
LINE
  5
2CDA2
330
18
100
AcDbEntity
  8
0
  6
BYBLOCK
100
AcDbLine
 10
3603.146833360129
 20
-2309.114699029171
 30
0.0
 11
3599.146833360129
 21
-2309.114699029171
 31
0.0
  0
TEXT
  5
2CDA3
330
18
100
AcDbEntity
  8
1DIM
  6
CONTINUOUS
100
AcDbText
 10
3584.813500026795
 20
-2307.714699029171
 30
0.0
 40
7.0
  1
25
100
AcDbText
1001
ACAD
1000
DSTYLE
1002
{
1070
    40
1040
2.0
1002
}
  0
LINE
  5
2CDA4
330
18
100
AcDbEntity
  8
0
  6
BYBLOCK
100
AcDbLine
 10
3607.146833360129
 20
-2310.186495789171
 30
0.0
 11
3603.146833360129
 21
-2309.114699029171
 31
0.0
  0
LINE
  5
2CDA5
330
18
100
AcDbEntity
  8
0
  6
BYBLOCK
100
AcDbLine
 10
3603.146833360129
 20
-2309.114699029171
 30
0.0
 11
3607.146833360129
 21
-2308.042902269171
 31
0.0
  0
LINE
  5
2CDA6
330
18
100
AcDbEntity
  8
0
  6
BYBLOCK
100
AcDbLine
 10
3603.146833360129
 20
-2309.114699029171
 30
0.0
 11
3607.146833360129
 21
-2309.114699029171
 31
0.0
  0
LINE
  5
2CDA7
330
18
100
AcDbEntity
  8
0
  6
BYBLOCK
100
AcDbLine
 10
3626.646833360129
 20
-2308.042902269171
 30
0.0
 11
3630.646833360129
 21
-2309.114699029171
 31
0.0
  0
LINE
  5
2CDA8
330
18
100
AcDbEntity
  8
0
  6
BYBLOCK
100
AcDbLine
 10
3630.646833360129
 20
-2309.114699029171
 30
0.0
 11
3626.646833360129
 21
-2310.186495789171
 31
0.0
  0
LINE
  5
2CDA9
330
18
100
AcDbEntity
  8
0
  6
BYBLOCK
100
AcDbLine
 10
3630.646833360129
 20
-2309.114699029171
 30
0.0
 11
3626.646833360129
 21
-2309.114699029171
 31
0.0
  0
TEXT
  5
2CDAA
330
18
100
AcDbEntity
  8
1DIM
  6
CONTINUOUS
100
AcDbText
 10
3606.396833360129
 20
-2307.714699029171
 30
0.0
 40
7.0
  1
27.5
100
AcDbText
1001
ACAD
1000
DSTYLE
1002
{
1070
    40
1040
2.0
1002
}
  0
LINE
  5
2CDAB
330
18
100
AcDbEntity
  8
0
  6
BYBLOCK
100
AcDbLine
 10
3551.718630120129
 20
-2336.833564425443
 30
0.0
 11
3550.646833360129
 21
-2340.833564425443
 31
0.0
  0
LINE
  5
2CDAC
330
18
100
AcDbEntity
  8
0
  6
BYBLOCK
100
AcDbLine
 10
3550.646833360129
 20
-2340.833564425443
 30
0.0
 11
3549.575036600129
 21
-2336.833564425443
 31
0.0
  0
LINE
  5
2CDAD
330
18
100
AcDbEntity
  8
0
  6
BYBLOCK
100
AcDbLine
 10
3550.646833360129
 20
-2340.833564425443
 30
0.0
 11
3550.646833360129
 21
-2336.833564425443
 31
0.0
  0
LINE
  5
2CDAE
330
18
100
AcDbEntity
  8
0
  6
BYBLOCK
100
AcDbLine
 10
3549.575036600129
 20
-1914.833564425443
 30
0.0
 11
3550.646833360129
 21
-1910.833564425443
 31
0.0
  0
LINE
  5
2CDAF
330
18
100
AcDbEntity
  8
0
  6
BYBLOCK
100
AcDbLine
 10
3550.646833360129
 20
-1910.833564425443
 30
0.0
 11
3551.718630120129
 21
-1914.833564425443
 31
0.0
  0
LINE
  5
2CDB0
330
18
100
AcDbEntity
  8
0
  6
BYBLOCK
100
AcDbLine
 10
3550.646833360129
 20
-1910.833564425443
 30
0.0
 11
3550.646833360129
 21
-1914.833564425443
 31
0.0
  0
TEXT
  5
2CDB1
330
18
100
AcDbEntity
  8
1DIM
  6
CONTINUOUS
100
AcDbText
 10
3549.246833360129
 20
-2134.729397758776
 30
0.0
 40
7.0
  1
430
 50
90.0
100
AcDbText
1001
ACAD
1000
DSTYLE
1002
{
1070
    40
1040
2.0
1002
}
  0
LINE
  5
2CDB2
330
18
100
AcDbEntity
  8
0
  6
BYBLOCK
100
AcDbLine
 10
3531.718630120129
 20
-2155.333564425443
 30
0.0
 11
3530.646833360129
 21
-2159.333564425443
 31
0.0
  0
LINE
  5
2CDB3
330
18
100
AcDbEntity
  8
0
  6
BYBLOCK
100
AcDbLine
 10
3530.646833360129
 20
-2159.333564425443
 30
0.0
 11
3529.575036600129
 21
-2155.333564425443
 31
0.0
  0
LINE
  5
2CDB4
330
18
100
AcDbEntity
  8
0
  6
BYBLOCK
100
AcDbLine
 10
3530.646833360129
 20
-2159.333564425443
 30
0.0
 11
3530.646833360129
 21
-2155.333564425443
 31
0.0
  0
LINE
  5
2CDB5
330
18
100
AcDbEntity
  8
0
  6
BYBLOCK
100
AcDbLine
 10
3529.575036600129
 20
-2069.833564425444
 30
0.0
 11
3530.646833360129
 21
-2065.833564425444
 31
0.0
  0
LINE
  5
2CDB6
330
18
100
AcDbEntity
  8
0
  6
BYBLOCK
100
AcDbLine
 10
3530.646833360129
 20
-2065.833564425444
 30
0.0
 11
3531.718630120129
 21
-2069.833564425444
 31
0.0
  0
LINE
  5
2CDB7
330
18
100
AcDbEntity
  8
0
  6
BYBLOCK
100
AcDbLine
 10
3530.646833360129
 20
-2065.833564425444
 30
0.0
 11
3530.646833360129
 21
-2069.833564425444
 31
0.0
  0
TEXT
  5
2CDB8
330
18
100
AcDbEntity
  8
1DIM
  6
CONTINUOUS
100
AcDbText
 10
3529.246833360129
 20
-2123.086805166184
 30
0.0
 40
7.0
  1
93.5
 50
90.0
100
AcDbText
1001
ACAD
1000
DSTYLE
1002
{
1070
    40
1040
2.0
1002
}
  0
LINE
  5
2CDB9
330
18
100
AcDbEntity
  8
0
  6
BYBLOCK
100
AcDbLine
 10
3531.718630120129
 20
-2061.833564425444
 30
0.0
 11
3530.646833360129
 21
-2065.833564425444
 31
0.0
  0
LINE
  5
2CDBA
330
18
100
AcDbEntity
  8
0
  6
BYBLOCK
100
AcDbLine
 10
3530.646833360129
 20
-2065.833564425444
 30
0.0
 11
3529.575036600129
 21
-2061.833564425444
 31
0.0
  0
LINE
  5
2CDBB
330
18
100
AcDbEntity
  8
0
  6
BYBLOCK
100
AcDbLine
 10
3530.646833360129
 20
-2065.833564425444
 30
0.0
 11
3530.646833360129
 21
-2061.833564425444
 31
0.0
  0
LINE
  5
2CDBC
330
18
100
AcDbEntity
  8
0
  6
BYBLOCK
100
AcDbLine
 10
3529.575036600129
 20
-1914.833564425443
 30
0.0
 11
3530.646833360129
 21
-1910.833564425443
 31
0.0
  0
LINE
  5
2CDBD
330
18
100
AcDbEntity
  8
0
  6
BYBLOCK
100
AcDbLine
 10
3530.646833360129
 20
-1910.833564425443
 30
0.0
 11
3531.718630120129
 21
-1914.833564425443
 31
0.0
  0
LINE
  5
2CDBE
330
18
100
AcDbEntity
  8
0
  6
BYBLOCK
100
AcDbLine
 10
3530.646833360129
 20
-1910.833564425443
 30
0.0
 11
3530.646833360129
 21
-1914.833564425443
 31
0.0
  0
TEXT
  5
2CDBF
330
18
100
AcDbEntity
  8
1DIM
  6
CONTINUOUS
100
AcDbText
 10
3529.246833360129
 20
-1996.524536647665
 30
0.0
 40
7.0
  1
155
 50
90.0
100
AcDbText
1001
ACAD
1000
DSTYLE
1002
{
1070
    40
1040
2.0
1002
}
  0
LINE
  5
2CDC0
330
18
100
AcDbEntity
  8
0
  6
BYBLOCK
100
AcDbLine
 10
3501.718630120129
 20
-2230.333564425443
 30
0.0
 11
3500.646833360129
 21
-2234.333564425443
 31
0.0
  0
LINE
  5
2CDC1
330
18
100
AcDbEntity
  8
0
  6
BYBLOCK
100
AcDbLine
 10
3500.646833360129
 20
-2234.333564425443
 30
0.0
 11
3499.575036600129
 21
-2230.333564425443
 31
0.0
  0
LINE
  5
2CDC2
330
18
100
AcDbEntity
  8
0
  6
BYBLOCK
100
AcDbLine
 10
3500.646833360129
 20
-2234.333564425443
 30
0.0
 11
3500.646833360129
 21
-2230.333564425443
 31
0.0
  0
LINE
  5
2CDC3
330
18
100
AcDbEntity
  8
0
  6
BYBLOCK
100
AcDbLine
 10
3499.575036600129
 20
-2163.333564425443
 30
0.0
 11
3500.646833360129
 21
-2159.333564425443
 31
0.0
  0
LINE
  5
2CDC4
330
18
100
AcDbEntity
  8
0
  6
BYBLOCK
100
AcDbLine
 10
3500.646833360129
 20
-2159.333564425443
 30
0.0
 11
3501.718630120129
 21
-2163.333564425443
 31
0.0
  0
LINE
  5
2CDC5
330
18
100
AcDbEntity
  8
0
  6
BYBLOCK
100
AcDbLine
 10
3500.646833360129
 20
-2159.333564425443
 30
0.0
 11
3500.646833360129
 21
-2163.333564425443
 31
0.0
  0
TEXT
  5
2CDC6
330
18
100
AcDbEntity
  8
1DIM
  6
CONTINUOUS
100
AcDbText
 10
3475.908638915685
 20
-2233.933564425442
 30
0.0
 40
7.0
  1
スイッチボックスを
 50
90.0
100
AcDbText
1001
ACAD
1000
DSTYLE
1002
{
1070
    40
1040
2.0
1002
}
  0
TEXT
  5
2CDC7
330
18
100
AcDbEntity
  8
1DIM
  6
CONTINUOUS
100
AcDbText
 10
3487.575305582352
 20
-2229.500231092108
 30
0.0
 40
7.0
  1
使用しない場合の
 50
90.0
100
AcDbText
1001
ACAD
1000
DSTYLE
1002
{
1070
    40
1040
2.0
1002
}
  0
TEXT
  5
2CDC8
330
18
100
AcDbEntity
  8
1DIM
  6
CONTINUOUS
100
AcDbText
 10
3499.24683336013
 20
-2242.474536647664
 30
0.0
 40
7.0
  1
配線用穴75（推奨位置）
 50
90.0
100
AcDbText
1001
ACAD
1000
DSTYLE
1002
{
1070
    40
1040
2.0
1002
}
  0
LINE
  5
2CDC9
330
18
100
AcDbEntity
  8
0
  6
BYBLOCK
100
AcDbLine
 10
3286.718630120129
 20
-1935.833564425443
 30
0.0
 11
3285.646833360129
 21
-1939.833564425443
 31
0.0
  0
LINE
  5
2CDCA
330
18
100
AcDbEntity
  8
0
  6
BYBLOCK
100
AcDbLine
 10
3285.646833360129
 20
-1939.833564425443
 30
0.0
 11
3284.575036600129
 21
-1935.833564425443
 31
0.0
  0
LINE
  5
2CDCB
330
18
100
AcDbEntity
  8
0
  6
BYBLOCK
100
AcDbLine
 10
3285.646833360129
 20
-1939.833564425443
 30
0.0
 11
3285.646833360129
 21
-1935.833564425443
 31
0.0
  0
LINE
  5
2CDCC
330
18
100
AcDbEntity
  8
0
  6
BYBLOCK
100
AcDbLine
 10
3284.575036600129
 20
-1914.833564425443
 30
0.0
 11
3285.646833360129
 21
-1910.833564425443
 31
0.0
  0
LINE
  5
2CDCD
330
18
100
AcDbEntity
  8
0
  6
BYBLOCK
100
AcDbLine
 10
3285.646833360129
 20
-1910.833564425443
 30
0.0
 11
3286.718630120129
 21
-1914.833564425443
 31
0.0
  0
LINE
  5
2CDCE
330
18
100
AcDbEntity
  8
0
  6
BYBLOCK
100
AcDbLine
 10
3285.646833360129
 20
-1910.833564425443
 30
0.0
 11
3285.646833360129
 21
-1914.833564425443
 31
0.0
  0
TEXT
  5
2CDCF
330
18
100
AcDbEntity
  8
1DIM
  6
CONTINUOUS
100
AcDbText
 10
3284.24683336013
 20
-1931.168518129146
 30
0.0
 40
7.0
  1
29
 50
90.0
100
AcDbText
1001
ACAD
1000
DSTYLE
1002
{
1070
    40
1040
2.0
1002
}
  0
VIEWPORT
  5
57
330
15
100
AcDbEntity
 67
     1
  8
0
100
AcDbViewport
 68
     1
 10
0.0
 20
0.0
 30
0.0
 40
565.9889042995839
 41
296.9999999999999
 68
     1
 69
     1
1001
ACAD
1000
MVIEW
1002
{
1070
    16
1010
0.0
1020
0.0
1030
0.0
1010
0.0
1020
0.0
1030
1.0
1040
0.0
1040
296.9999999999999
1040
-4.272048862584541
1040
18.33904653606845
1040
50.0
1040
0.0
1040
0.0
1070
    16
1070
   100
1070
     0
1070
     1
1070
     0
1070
     0
1070
     0
1070
     0
1040
0.0
1040
0.0
1040
0.0
1040
10.0
1040
10.0
1040
10.0
1040
10.0
1070
     0
1002
{
1002
}
1002
}
  0
ENDSEC
  0
SECTION
  2
OBJECTS
  0
DICTIONARY
  5
C
330
0
100
AcDbDictionary
  3
ACAD_COLOR
350
2D0
  3
ACAD_GROUP
350
D
  3
ACAD_LAYOUT
350
2D1
  3
ACAD_MATERIAL
350
2CF
  3
ACAD_MLEADERSTYLE
350
15B98
  3
ACAD_MLINESTYLE
350
1B
  3
ACAD_PLOTSETTINGS
350
2D2
  3
ACAD_SCALELIST
350
15B76
  3
ACAD_VISUALSTYLE
350
15B65
  3
ACDBHEADERROUNDTRIPXREC
350
2CDD0
  3
ACDBVARIABLEDICTIONARY
350
37
  3
CONTENTDICTIONARY
350
D8
  3
DRAWINGVARIABLESDICT
350
20
  3
DWGPROPS
350
2CDD3
1001
ACAD
1000
TREAT_AS_HARD
1070
     0
  0
DICTIONARY
  5
14EC2
330
2
100
AcDbDictionary
  3
ACAD_LAYERSTATES
360
14EC3
1001
ACAD
1000
TREAT_AS_HARD
1070
     1
  0
DICTIONARY
  5
15BB5
330
E
100
AcDbDictionary
  3
ADSK_XREC_LAYER_RECONCILED
360
15BB6
1001
ACAD
1000
TREAT_AS_HARD
1070
     1
  0
DICTIONARY
  5
15BB7
330
29
100
AcDbDictionary
  3
ADSK_XREC_LAYER_RECONCILED
360
15BB8
1001
ACAD
1000
TREAT_AS_HARD
1070
     1
  0
DICTIONARY
  5
15BB9
330
31
100
AcDbDictionary
  3
ADSK_XREC_LAYER_RECONCILED
360
15BBA
1001
ACAD
1000
TREAT_AS_HARD
1070
     1
  0
DICTIONARY
  5
15BC3
330
101
100
AcDbDictionary
  3
ADSK_XREC_LAYER_RECONCILED
360
15BC4
1001
ACAD
1000
TREAT_AS_HARD
1070
     1
  0
DICTIONARY
  5
15BC5
330
102
100
AcDbDictionary
  3
ADSK_XREC_LAYER_RECONCILED
360
15BC6
1001
ACAD
1000
TREAT_AS_HARD
1070
     1
  0
DICTIONARY
  5
15BC7
330
103
100
AcDbDictionary
  3
ADSK_XREC_LAYER_RECONCILED
360
15BC8
1001
ACAD
1000
TREAT_AS_HARD
1070
     1
  0
DICTIONARY
  5
15BCB
330
25F
100
AcDbDictionary
  3
ADSK_XREC_LAYER_RECONCILED
360
15BCC
1001
ACAD
1000
TREAT_AS_HARD
1070
     1
  0
DICTIONARY
  5
6E9
330
18
100
AcDbDictionary
  3
ACAD_SORTENTS
360
6EA
1001
ACAD
1000
TREAT_AS_HARD
1070
     1
  0
DICTIONARY
  5
59B
330
15
100
AcDbDictionary
  3
ACAD_SORTENTS
360
59C
1001
ACAD
1000
TREAT_AS_HARD
1070
     1
  0
DICTIONARY
  5
2D0
102
{ACAD_REACTORS
330
C
102
}
330
C
100
AcDbDictionary
1001
ACAD
1000
TREAT_AS_HARD
1070
     0
  0
DICTIONARY
  5
D
102
{ACAD_REACTORS
330
C
102
}
330
C
100
AcDbDictionary
1001
ACAD
1000
TREAT_AS_HARD
1070
     0
  0
DICTIONARY
  5
2D1
102
{ACAD_REACTORS
330
C
102
}
330
C
100
AcDbDictionary
1001
ACAD
1000
TREAT_AS_HARD
1070
     0
  0
DICTIONARY
  5
2CF
102
{ACAD_REACTORS
330
C
102
}
330
C
100
AcDbDictionary
  3
BYBLOCK
350
15B55
  3
BYLAYER
350
15B4D
  3
GLOBAL
350
15B5D
1001
ACAD
1000
TREAT_AS_HARD
1070
     0
  0
DICTIONARY
  5
15B98
102
{ACAD_REACTORS
330
C
102
}
330
C
100
AcDbDictionary
  3
STANDARD
350
15B99
1001
ACAD
1000
TREAT_AS_HARD
1070
     0
  0
DICTIONARY
  5
1B
102
{ACAD_REACTORS
330
C
102
}
330
C
100
AcDbDictionary
  3
STANDARD
350
1C
1001
ACAD
1000
TREAT_AS_HARD
1070
     0
  0
DICTIONARY
  5
2D2
102
{ACAD_REACTORS
330
C
102
}
330
C
100
AcDbDictionary
1001
ACAD
1000
TREAT_AS_HARD
1070
     0
  0
DICTIONARY
  5
15B76
102
{ACAD_REACTORS
330
C
102
}
330
C
100
AcDbDictionary
  3
A0
350
15B77
  3
A1
350
15B78
  3
A2
350
15B79
  3
A3
350
15B7A
  3
A4
350
15B7B
  3
A5
350
15B7C
  3
A6
350
15B7D
  3
A7
350
15B7E
  3
A8
350
15B7F
  3
A9
350
15B80
  3
B0
350
15B81
  3
B1
350
15B82
  3
B2
350
15B83
  3
B3
350
15B84
  3
B4
350
15B85
  3
B5
350
15B86
  3
B6
350
15B87
  3
B7
350
15B88
  3
B8
350
15B89
  3
B9
350
15B8A
  3
C0
350
15B8B
  3
C1
350
15B8C
  3
C2
350
15B8D
  3
C3
350
15B8E
  3
C4
350
15B8F
  3
C5
350
15B90
  3
C6
350
15B91
  3
C7
350
15B92
  3
C8
350
15B93
  3
C9
350
15B94
  3
D0
350
15B95
  3
D1
350
15B96
  3
D2
350
15B97
1001
ACAD
1000
TREAT_AS_HARD
1070
     0
  0
DICTIONARY
  5
15B65
102
{ACAD_REACTORS
330
C
102
}
330
C
100
AcDbDictionary
  3
2DWIREFRAME
350
15B6B
  3
3D_HIDDEN
350
15B6D
  3
3DWIREFRAME
350
15B6C
  3
BASIC
350
15B6A
  3
BRIGHTEN
350
15B71
  3
COLORCHANGE
350
15B75
  3
CONCEPTUAL
350
15B6E
  3
DIM
350
15B70
  3
EDGECOLOROFF
350
1F525
  3
FACEPATTERN
350
15B74
  3
FLAT
350
15B66
  3
FLATWITHEDGES
350
15B67
  3
GOURAUD
350
15B68
  3
GOURAUDWITHEDGES
350
15B69
  3
HIDDEN
350
2C59F
  3
JITTEROFF
350
1F523
  3
LINEPATTERN
350
15B73
  3
MODELING
350
2C5A5
  3
OVERHANGOFF
350
1F524
  3
REALISTIC
350
15B6F
  3
SHADED
350
2C5A4
  3
SHADED_WITH_EDGES
350
2C5A3
  3
SHADES_OF_GRAY
350
2C5A0
  3
SKETCHY
350
2C5A1
  3
THICKEN
350
15B72
  3
WIREFRAME
350
2C59E
  3
X-RAY
350
2C5A2
1001
ACAD
1000
TREAT_AS_HARD
1070
     0
  0
DICTIONARY
  5
2CDD0
102
{ACAD_REACTORS
330
C
102
}
330
C
100
AcDbDictionary
  3
COLORDICT
350
2CDD1
  3
MATERIALDICT
350
2CDD2
1001
ACAD
1000
TREAT_AS_HARD
1070
     0
  0
DICTIONARY
  5
37
102
{ACAD_REACTORS
330
C
102
}
330
C
100
AcDbDictionary
  3
CANNOSCALE
350
2CBA4
  3
CMLEADERSTYLE
350
15C4B
  3
CTABLESTYLE
350
4F1
  3
DIMADEC
350
38
  3
DIMASSOC
350
408
  3
HIDETEXT
350
1891
  3
INDEXCTL
350
15C4E
  3
INTERSECTIONCOLOR
350
1895
  3
INTERSECTIONDISPLAY
350
1894
  3
MSLTSCALE
350
2CBFA
  3
OBSCOLOR
350
1892
  3
OBSLTYPE
350
1893
  3
PROJECTNAME
350
409
  3
SORTENTS
350
15C4D
  3
XCLIPFRAME
350
2C59D
1001
ACAD
1000
TREAT_AS_HARD
1070
     0
  0
DICTIONARY
  5
D8
102
{ACAD_REACTORS
330
C
102
}
330
C
100
AcDbDictionary
1001
CONTENTTABDATA
1070
    11
1000
Child
1000
D:\ACLT\TABset\CHILDREN.dwg
1070
     0
1070
     0
1070
     1
1000
PK
1000
D:\ACLT\TABset\PK.dwg
1070
     0
1070
     0
1070
     1
1000
Lev1
1000
D:\ACLT\TABset\Lever01.dwg
1070
     0
1070
     0
1070
     1
1000
Lev2
1000
D:\ACLT\TABset\Lever02.dwg
1070
     0
1070
     0
1070
     1
1000
L3
1000
D:\Aclt\TABset\Lever03.dwg
1070
     0
1070
     0
1070
     1
1000
Form
1000
D:\ACLT\FORMAT
1070
     1
1070
     0
1070
     1
1000
Jnt
1000
D:\ACLT\TABset\JOINTPARTS.dwg
1070
     0
1070
     0
1070
     1
1000
ISO
1000
D:\ACLT\TABset\Isome01.dwg
1070
     0
1070
     0
1070
     1
1000
R
1000
D:\ACLT\TABset\REGION.dwg
1070
     0
1070
     0
1070
     1
1000
std
1000
D:\ACLT\TABset\std_sym_all.dwg
1070
     0
1070
     0
1070
     1
1000
丸
1000
D:\Aclt\TABset\MARU.dwg
1070
     0
1070
     0
1070
     1
1001
CONTENTCURRENTTAB
1070
     0
1001
ACAD
1000
TREAT_AS_HARD
1070
     0
  0
DICTIONARY
  5
20
102
{ACAD_REACTORS
330
C
102
}
330
C
100
AcDbDictionary
1001
DRAWINGVARIABLESXDATA
1000
POLARANG
1000
0.261799387799149410000000
1000
POLARMODE
1000
1
1000
POLARSTYLE
1000
1
1001
ACAD
1000
TREAT_AS_HARD
1070
     0
  0
XRECORD
  5
2CDD3
102
{ACAD_REACTORS
330
C
102
}
330
C
100
AcDbXrecord
  1
DWGPROPS COOKIE
  2

  3

  4

  6

  7

  8
619
  9

300
=
301
=
302
=
303
=
304
=
305
=
306
=
307
=
308
=
309
=
 40
0.0
 41
2453033.357663484
 42
2458296.004061771
  1

 90
        0
  0
DICTIONARY
  5
14EC3
102
{ACAD_REACTORS
330
14EC2
102
}
330
14EC2
100
AcDbDictionary
  3
_LAYISO_STATE
350
253AA
1001
ACLAYERTOOLS
1000
2D3
1000
0
1001
ACAD
1000
TREAT_AS_HARD
1070
     0
  0
ACAD_PROXY_OBJECT
  5
15BB6
102
{ACAD_REACTORS
330
15BB5
102
}
330
15BB5
100
AcDbZombieObject
 90
      499
 91
      517
 93
       34
310
40C8804040
  0
ACAD_PROXY_OBJECT
  5
15BB8
102
{ACAD_REACTORS
330
15BB7
102
}
330
15BB7
100
AcDbZombieObject
 90
      499
 91
      517
 93
       34
310
40C8804040
  0
ACAD_PROXY_OBJECT
  5
15BBA
102
{ACAD_REACTORS
330
15BB9
102
}
330
15BB9
100
AcDbZombieObject
 90
      499
 91
      517
 93
       34
310
40C8804040
  0
ACAD_PROXY_OBJECT
  5
15BC4
102
{ACAD_REACTORS
330
15BC3
102
}
330
15BC3
100
AcDbZombieObject
 90
      499
 91
      517
 93
       34
310
40C8804040
  0
ACAD_PROXY_OBJECT
  5
15BC6
102
{ACAD_REACTORS
330
15BC5
102
}
330
15BC5
100
AcDbZombieObject
 90
      499
 91
      517
 93
       34
310
40C8804040
  0
ACAD_PROXY_OBJECT
  5
15BC8
102
{ACAD_REACTORS
330
15BC7
102
}
330
15BC7
100
AcDbZombieObject
 90
      499
 91
      517
 93
       34
310
40C8804040
  0
ACAD_PROXY_OBJECT
  5
15BCC
102
{ACAD_REACTORS
330
15BCB
102
}
330
15BCB
100
AcDbZombieObject
 90
      499
 91
      517
 93
       34
310
40C8804040
  0
SORTENTSTABLE
  5
6EA
102
{ACAD_REACTORS
330
6E9
102
}
330
6E9
100
AcDbSortentsTable
330
18
331
2539B
  5
253AD
331
2539D
  5
253AF
331
253A6
  5
25412
331
253A7
  5
25416
331
253A8
  5
2541B
331
253A9
  5
2541C
331
2C16F
  5
2C19F
331
2C170
  5
2C1A0
331
2C171
  5
2C1A1
331
2C172
  5
2C1A2
331
2C173
  5
2C1A3
331
2C174
  5
2C1A4
331
2C175
  5
2C1A5
331
2C176
  5
2C1A6
331
2C177
  5
2C1A7
331
2C178
  5
2C1A8
331
2C179
  5
2C1A9
331
2C17A
  5
2C1AA
331
2C17B
  5
2C1AB
331
2C17C
  5
2C1AC
331
2C17D
  5
2C1AD
331
2C17E
  5
2C1AE
331
2C183
  5
2C1B9
331
2C184
  5
2C1BA
331
2C185
  5
2C1BB
331
2C186
  5
2C1BC
331
2C187
  5
2C1BD
331
2C188
  5
2C1BE
331
2C189
  5
2C1BF
331
2C18A
  5
2C1C0
331
2C18B
  5
2C1C1
331
2C18C
  5
2C1C2
331
2C18D
  5
2C1C3
331
2C18E
  5
2C1C4
331
2C18F
  5
2C1C5
331
2C190
  5
2C1C6
331
2C191
  5
2C1C7
331
2C192
  5
2C1C8
331
2C193
  5
2C1C9
331
2C194
  5
2C1CA
331
2C195
  5
2C1CB
331
2C196
  5
2C1CC
331
2C197
  5
2C1CD
331
2C198
  5
2C1CE
331
2C199
  5
2C1CF
331
2C19A
  5
2C1D0
331
2C19B
  5
2C1D1
331
2C19C
  5
2C1D2
331
2C19D
  5
2C1D3
331
2C19E
  5
2C1D4
331
2C19F
  5
2C1D5
331
2C1A0
  5
2C1D6
331
2C1A1
  5
2C1D7
331
2C1A2
  5
2C1D8
331
2C1A3
  5
2C1D9
331
2C1A4
  5
2C1DA
331
2C1A5
  5
2C1DB
331
2C1A6
  5
2C1DC
331
2C1A7
  5
2C1DD
331
2C1A8
  5
2C1DE
331
2C1A9
  5
2C1DF
331
2C1AA
  5
2C1E0
331
2C1AB
  5
2C1E1
331
2C1AC
  5
2C1E2
331
2C1AD
  5
2C1E3
331
2C1AE
  5
2C1E4
331
2C1AF
  5
2C1E5
331
2C1B0
  5
2C1E6
331
2C1B1
  5
2C1E7
331
2C1B2
  5
2C1E8
331
2C1B3
  5
2C1E9
331
2C1B4
  5
2C1EA
331
2C1B5
  5
2C1EB
331
2C1B6
  5
2C1EC
331
2C1B7
  5
2C1ED
331
2C1B8
  5
2C1EE
331
2C1B9
  5
2C1EF
331
2C1BA
  5
2C1F0
331
2C1BB
  5
2C1F1
331
2C1BC
  5
2C1F2
331
2C1BD
  5
2C1F3
331
2C1BE
  5
2C1F4
331
2C1BF
  5
2C1F5
331
2C1C0
  5
2C1F6
331
2C1C1
  5
2C1F7
331
2C1C2
  5
2C1F8
331
2C1C3
  5
2C1F9
331
2C1C4
  5
2C1FA
331
2C1C5
  5
2C1FB
331
2C1C6
  5
2C1FC
331
2C1C7
  5
2C1FD
331
2C1C8
  5
2C1FE
331
2C1C9
  5
2C1FF
331
2C1CA
  5
2C200
331
2C1CB
  5
2C201
331
2C1CC
  5
2C202
331
2C1CD
  5
2C203
331
2C1CE
  5
2C204
331
2C1CF
  5
2C205
331
2C1D0
  5
2C206
331
2C1D1
  5
2C207
331
2C1D2
  5
2C208
331
2C1D3
  5
2C209
331
2C1D4
  5
2C20A
331
2C1D5
  5
2C20B
331
2C1D6
  5
2C20C
331
2C1D7
  5
2C20D
331
2C1D8
  5
2C20E
331
2C1D9
  5
2C20F
331
2C1DA
  5
2C210
331
2C1DB
  5
2C211
331
2C1DC
  5
2C212
331
2C1DD
  5
2C213
331
2C1DE
  5
2C214
331
2C1DF
  5
2C215
331
2C1E0
  5
2C216
331
2C1E1
  5
2C217
331
2C1E2
  5
2C218
331
2C1E3
  5
2C219
331
2C1E4
  5
2C21A
331
2C1E5
  5
2C21B
331
2C1E6
  5
2C21C
331
2C1E7
  5
2C21D
331
2C1E8
  5
2C21E
331
2C1E9
  5
2C21F
331
2C1EA
  5
2C220
331
2C1EB
  5
2C221
331
2C1EC
  5
2C222
331
2C1ED
  5
2C223
331
2C1EE
  5
2C224
331
2C1EF
  5
2C225
331
2C1F0
  5
2C226
331
2C1F1
  5
2C227
331
2C1F2
  5
2C228
331
2C1F3
  5
2C229
331
2C1F4
  5
2C22A
331
2C1F5
  5
2C22B
331
2C1F6
  5
2C22C
331
2C1F7
  5
2C22D
331
2C1F8
  5
2C22E
331
2C1F9
  5
2C22F
331
2C1FA
  5
2C230
331
2C1FB
  5
2C231
331
2C1FC
  5
2C232
331
2C1FD
  5
2C233
331
2C1FE
  5
2C234
331
2C1FF
  5
2C235
331
2C200
  5
2C236
331
2C201
  5
2C237
331
2C202
  5
2C238
331
2C203
  5
2C239
331
2C204
  5
2C23A
331
2C205
  5
2C23B
331
2C206
  5
2C23C
331
2C207
  5
2C23D
331
2C208
  5
2C23E
331
2C209
  5
2C23F
331
2C20A
  5
2C240
331
2C20B
  5
2C241
331
2C20C
  5
2C242
331
2C20D
  5
2C243
331
2C20E
  5
2C244
331
2C20F
  5
2C245
331
2C210
  5
2C246
331
2C211
  5
2C247
331
2C212
  5
2C248
331
2C213
  5
2C249
331
2C214
  5
2C24A
331
2C215
  5
2C24B
331
2C216
  5
2C24C
331
2C217
  5
2C24D
331
2C218
  5
2C24E
331
2C219
  5
2C24F
331
2C21A
  5
2C250
331
2C21B
  5
2C251
331
2C21C
  5
2C252
331
2C21D
  5
2C253
331
2C21E
  5
2C254
331
2C21F
  5
2C255
331
2C220
  5
2C256
331
2C221
  5
2C257
331
2C222
  5
2C258
331
2C223
  5
2C25C
331
2C224
  5
2C25D
331
2C225
  5
2C25E
331
2C226
  5
2C25F
331
2C227
  5
2C260
331
2C228
  5
2C261
331
2C229
  5
2C262
331
2C22A
  5
2C263
331
2C22B
  5
2C264
331
2C22C
  5
2C265
331
2C22D
  5
2C266
331
2C22E
  5
2C267
331
2C22F
  5
2C268
331
2C230
  5
2C269
331
2C231
  5
2C26A
331
2C232
  5
2C26B
331
2C233
  5
2C26C
331
2C234
  5
2C26D
331
2C235
  5
2C26E
331
2C236
  5
2C26F
331
2C237
  5
2C270
331
2C238
  5
2C271
331
2C239
  5
2C272
331
2C23A
  5
2C273
331
2C23B
  5
2C274
331
2C23C
  5
2C275
331
2C23D
  5
2C276
331
2C23E
  5
2C277
331
2C23F
  5
2C278
331
2C240
  5
2C279
331
2C241
  5
2C27A
331
2C242
  5
2C27B
331
2C243
  5
2C27C
331
2C244
  5
2C27D
331
2C245
  5
2C27E
331
2C246
  5
2C27F
331
2C247
  5
2C283
331
2C248
  5
2C284
331
2C249
  5
2C285
331
2C24A
  5
2C289
331
2C24B
  5
2C28A
331
2C24C
  5
2C28B
331
2C24D
  5
2C28F
331
2C24E
  5
2C290
331
2C24F
  5
2C291
331
2C250
  5
2C292
331
2C251
  5
2C293
331
2C252
  5
2C294
331
2C253
  5
2C295
331
2C254
  5
2C296
331
2C255
  5
2C297
331
2C256
  5
2C298
331
2C257
  5
2C299
331
2C258
  5
2C29A
331
2C25C
  5
2C45F
331
2C25D
  5
2C460
331
2C25E
  5
2C461
331
2C25F
  5
2C462
331
2C260
  5
2C463
331
2C261
  5
2C464
331
2C262
  5
2C465
331
2C263
  5
2C4CB
331
2C264
  5
2C4CC
331
2C265
  5
2C4CD
331
2C266
  5
2C4CF
331
2C267
  5
2C4D0
331
2C268
  5
2C8B1
331
2C269
  5
2C8B2
331
2C26A
  5
2C8B3
331
2C26B
  5
2C8B4
331
2C26C
  5
2C8B5
331
2C26D
  5
2C8B6
331
2C26E
  5
2C8B7
331
2C26F
  5
2C8B8
331
2C270
  5
2CACD
331
2C271
  5
2CACE
331
2C272
  5
2CACF
331
2C273
  5
2CAD0
331
2C274
  5
2CD1E
331
2C275
  5
2CD1F
331
2C276
  5
2CD20
331
2C277
  5
2CD21
331
2C278
  5
2CD22
331
2C279
  5
2CD23
331
2C27A
  5
2CD24
331
2C27B
  5
2CD28
331
2C27C
  5
2CD29
331
2C27D
  5
2CD2A
331
2C27E
  5
2CD2B
331
2C27F
  5
2CD2C
331
2C280
  5
2CD2D
331
2C281
  5
2CD2E
331
2C282
  5
2CD2F
331
2C283
  5
2CD30
331
2C284
  5
2CD31
331
2C285
  5
2CD35
331
2C286
  5
2CD36
331
2C287
  5
2CD37
331
2C288
  5
2CD3B
331
2C289
  5
2CD3C
331
2C28A
  5
2CD3D
331
2C28B
  5
2CD3E
331
2C28C
  5
2CD3F
331
2C28D
  5
2CD40
331
2C28E
  5
2CD44
331
2C28F
  5
2CD45
331
2C290
  5
2CD46
331
2C291
  5
2CD47
331
2C292
  5
2CD48
331
2C293
  5
2CD49
331
2C294
  5
2CD4A
331
2C295
  5
2CD4B
331
2C296
  5
2CD4C
331
2C297
  5
2CD4D
331
2C298
  5
2CD4E
331
2C299
  5
2CD4F
331
2C29A
  5
2CD50
331
2C29B
  5
2CD51
331
2C29C
  5
2CD52
331
2C29D
  5
2CD53
331
2C29E
  5
2CD54
331
2C29F
  5
2CD55
331
2C2A0
  5
2CD56
331
2C2A1
  5
2CD57
331
2C2A3
  5
2CD62
331
2C2A4
  5
2CD63
331
2C2A9
  5
2CD80
331
2C2AA
  5
2CD81
331
2C2AB
  5
2CD82
331
2C44D
  5
2CD97
331
2C44E
  5
2CD98
331
2C44F
  5
2CD99
331
2C450
  5
2CD9A
331
2C451
  5
2CD9B
331
2C452
  5
2CD9C
331
2C453
  5
2CD9D
331
2C454
  5
2CD9E
331
2C455
  5
2CD9F
331
2C456
  5
2CDA0
331
2C457
  5
2CDA1
331
2C458
  5
2CDA2
331
2C459
  5
2CDA3
331
2C45A
  5
2CDA4
331
2C45B
  5
2CDA5
331
2C45C
  5
2CDA6
331
2C45D
  5
2CDA7
331
2C45E
  5
2CDA8
331
2C45F
  5
2CDA9
331
2C460
  5
2CDAA
331
2C461
  5
2CDAB
331
2C462
  5
2CDAC
331
2C463
  5
2CDAD
331
2C464
  5
2CDAE
331
2C465
  5
2CDAF
331
2C4CB
  5
2CDB0
331
2C4CC
  5
2CDB1
331
2C4CD
  5
2CDB2
331
2C4CF
  5
2CDBD
331
2C4D0
  5
2CDBE
331
2C8B1
  5
2CDC4
331
2C8B2
  5
2CDC5
331
2C8B3
  5
2CDC6
331
2C8B4
  5
2CDC7
331
2C8B5
  5
2CDC8
331
2C8B6
  5
2CDC9
331
2C8B7
  5
2CDCA
331
2C8B8
  5
2CDCB
331
2CACD
  5
2CDCC
331
2CACE
  5
2CDCD
331
2CACF
  5
2CDCE
331
2CAD0
  5
2CDCF
331
2CD1E
  5
2C16F
331
2CD1F
  5
2C170
331
2CD20
  5
2C171
331
0
  5
2C172
331
0
  5
2C173
331
0
  5
2C174
331
2CD24
  5
2C186
331
2CD25
  5
2C187
331
2CD26
  5
2C188
331
0
  5
2C178
331
0
  5
2C179
331
0
  5
2C17A
331
2CD2A
  5
2C190
331
2CD2B
  5
2C191
331
2CD2C
  5
2C192
331
0
  5
2C17E
331
0
  5
2C183
331
0
  5
2C184
331
2CD30
  5
2C19A
331
2CD31
  5
2C19B
331
2CD32
  5
2C19C
331
2CD33
  5
2C19D
331
2CD34
  5
2C19E
331
2CD35
  5
2C1AF
331
2CD36
  5
2C1B0
331
2CD37
  5
2C1B1
331
2CD38
  5
2C1B2
331
2CD39
  5
2C1B3
331
2CD3A
  5
2C1B4
331
2CD3B
  5
2C1B5
331
2CD3C
  5
2C1B6
331
2CD3D
  5
2C1B7
331
2CD3E
  5
2C1B8
331
2CD3F
  5
2C29B
331
2CD40
  5
2C29C
331
2CD41
  5
2C29D
331
0
  5
2C280
331
0
  5
2C281
331
0
  5
2C282
331
2CD45
  5
2C2AA
331
2CD46
  5
2C2AB
331
2CD47
  5
2C44D
331
0
  5
2C286
331
0
  5
2C287
331
0
  5
2C288
331
2CD4B
  5
2C455
331
2CD4C
  5
2C456
331
2CD4D
  5
2C457
331
0
  5
2C28C
331
0
  5
2C28D
331
0
  5
2C28E
331
2CD51
  5
2CD58
331
2CD52
  5
2CD59
331
2CD53
  5
2CD5A
331
0
  5
2CD25
331
0
  5
2CD26
331
0
  5
2CD27
331
2CD57
  5
2CD64
331
2CD58
  5
2CD65
331
2CD59
  5
2CD66
331
2CD5A
  5
2CD67
331
2CD5B
  5
2CD68
331
2CD5C
  5
2CD69
331
2CD5D
  5
2CD6A
331
2CD5E
  5
2CD6E
331
0
  5
2CD32
331
0
  5
2CD33
331
0
  5
2CD34
331
2CD62
  5
2CD76
331
2CD63
  5
2CD77
331
2CD64
  5
2CD78
331
0
  5
2CD38
331
0
  5
2CD39
331
0
  5
2CD3A
331
2CD68
  5
2CD83
331
2CD69
  5
2CD84
331
2CD6A
  5
2CD85
331
0
  5
2CD41
331
0
  5
2CD42
331
0
  5
2CD43
331
2CD6E
  5
2CD8F
331
2CD6F
  5
2CD90
331
2CD70
  5
2CD91
331
2CD71
  5
2CD92
331
2CD72
  5
2CD93
331
2CD73
  5
2CD94
331
2CD74
  5
2CD95
331
2CD75
  5
2CD96
331
2CD76
  5
2CDB3
331
2CD77
  5
2CDB4
331
2CD78
  5
2CDB5
331
0
  5
2CD6B
331
0
  5
2CD6C
331
0
  5
2CD6D
331
2CD7C
  5
2CDBF
331
2CD7D
  5
2CDC0
331
2CD7E
  5
2CDC1
331
2CD7F
  5
2CDC2
331
2CD80
  5
2CDC3
331
2CD81
  5
2C175
331
2CD82
  5
2C176
331
2CD83
  5
2C177
331
2CD84
  5
2C17B
331
2CD85
  5
2C17C
331
2CD86
  5
2C17D
331
2CD87
  5
2C185
331
2CD88
  5
2C189
331
2CD89
  5
2C18A
331
2CD8A
  5
2C18B
331
2CD8B
  5
2C18C
331
2CD8C
  5
2C18D
331
2CD8D
  5
2C18E
331
2CD8E
  5
2C18F
331
2CD8F
  5
2C193
331
2CD90
  5
2C194
331
2CD91
  5
2C195
331
2CD92
  5
2C196
331
2CD93
  5
2C197
331
2CD94
  5
2C198
331
2CD95
  5
2C199
331
2CD96
  5
2C29E
331
2CD97
  5
2C29F
331
2CD98
  5
2C2A0
331
2CD99
  5
2C2A1
331
2CD9A
  5
2C2A3
331
2CD9B
  5
2C2A4
331
2CD9C
  5
2C2A9
331
2CD9D
  5
2C44E
331
2CD9E
  5
2C44F
331
2CD9F
  5
2C450
331
2CDA0
  5
2C451
331
2CDA1
  5
2C452
331
2CDA2
  5
2C453
331
2CDA3
  5
2C454
331
2CDA4
  5
2C458
331
2CDA5
  5
2C459
331
2CDA6
  5
2C45A
331
2CDA7
  5
2C45B
331
2CDA8
  5
2C45C
331
2CDA9
  5
2C45D
331
2CDAA
  5
2C45E
331
2CDAB
  5
2CD5B
331
2CDAC
  5
2CD5C
331
2CDAD
  5
2CD5D
331
2CDAE
  5
2CD5E
331
2CDAF
  5
2CD5F
331
2CDB0
  5
2CD60
331
2CDB1
  5
2CD61
331
2CDB2
  5
2CD6F
331
2CDB3
  5
2CD70
331
2CDB4
  5
2CD71
331
2CDB5
  5
2CD72
331
2CDB6
  5
2CD73
331
2CDB7
  5
2CD74
331
2CDB8
  5
2CD75
331
2CDB9
  5
2CD79
331
2CDBA
  5
2CD7A
331
2CDBB
  5
2CD7B
331
2CDBC
  5
2CD7C
331
2CDBD
  5
2CD7D
331
2CDBE
  5
2CD7E
331
2CDBF
  5
2CD7F
331
2CDC0
  5
2CD86
331
2CDC1
  5
2CD87
331
2CDC2
  5
2CD88
331
2CDC3
  5
2CD89
331
2CDC4
  5
2CD8A
331
2CDC5
  5
2CD8B
331
2CDC6
  5
2CD8C
331
2CDC7
  5
2CD8D
331
2CDC8
  5
2CD8E
331
2CDC9
  5
2CDB6
331
2CDCA
  5
2CDB7
331
2CDCB
  5
2CDB8
331
2CDCC
  5
2CDB9
331
2CDCD
  5
2CDBA
331
2CDCE
  5
2CDBB
331
2CDCF
  5
2CDBC
  0
SORTENTSTABLE
  5
59C
102
{ACAD_REACTORS
330
59B
102
}
330
59B
100
AcDbSortentsTable
330
15
331
57
  5
57
331
0
  5
70
331
0
  5
15E0C
331
0
  5
15E0D
331
0
  5
15E0E
331
0
  5
15E0F
331
0
  5
15E10
331
0
  5
15E11
331
0
  5
15E12
331
0
  5
15E13
331
0
  5
15E14
331
0
  5
15E15
331
0
  5
15E16
331
0
  5
15E17
331
0
  5
15E18
331
0
  5
15E19
331
0
  5
15E1A
331
0
  5
15FEC
331
0
  5
15FED
331
0
  5
15FEE
331
0
  5
15FEF
331
0
  5
15E1C
331
0
  5
15E1D
331
0
  5
15E1E
331
0
  5
15E1F
331
0
  5
15E20
331
0
  5
15E21
331
0
  5
15E22
331
0
  5
15E23
331
0
  5
15E24
331
0
  5
15E25
331
0
  5
15E26
331
0
  5
15E27
331
0
  5
15E28
331
0
  5
15E29
331
0
  5
15E2A
331
0
  5
15E2B
331
0
  5
15E2C
331
0
  5
15E2D
331
0
  5
15E2E
331
0
  5
15E2F
331
0
  5
15E30
331
0
  5
15E31
331
0
  5
15E32
331
0
  5
15E33
331
0
  5
15E34
331
0
  5
15E35
331
0
  5
15E36
331
0
  5
15E37
331
0
  5
15E38
331
0
  5
15E39
331
0
  5
15E3A
331
0
  5
15E3B
331
0
  5
15E3C
331
0
  5
15E3D
331
0
  5
15E3E
331
0
  5
15E3F
331
0
  5
15E40
331
0
  5
15E41
331
0
  5
15E42
331
0
  5
15E43
331
0
  5
15E44
331
0
  5
15E45
331
0
  5
15E46
331
0
  5
15E47
331
0
  5
15E48
331
0
  5
15E49
331
0
  5
15E4A
331
0
  5
15E4B
331
0
  5
15E4C
331
0
  5
15E4D
331
0
  5
15E4E
331
0
  5
15E4F
331
0
  5
15E50
331
0
  5
15E51
331
0
  5
15E52
331
0
  5
15E53
331
0
  5
15E54
331
0
  5
15E55
331
0
  5
15E56
331
0
  5
15E57
331
0
  5
15E58
331
0
  5
15E59
331
0
  5
15E5A
331
0
  5
15E5B
331
0
  5
15E5C
331
0
  5
15FCD
331
0
  5
15FCE
331
0
  5
15FCF
331
0
  5
15FD0
331
0
  5
15FD1
331
0
  5
15FD2
331
0
  5
15FD3
331
0
  5
15FD4
331
0
  5
15FD5
331
0
  5
15FD6
331
0
  5
15FD7
331
0
  5
15FD8
331
0
  5
15FD9
331
0
  5
15FDA
331
0
  5
15FDB
331
0
  5
15FDC
331
0
  5
15FDD
331
0
  5
15FDE
331
0
  5
15FDF
331
0
  5
15FE0
331
0
  5
15FE1
331
0
  5
15FE2
331
0
  5
15FE3
331
0
  5
15FE4
331
0
  5
15FE5
331
0
  5
15FE6
331
0
  5
15FE7
331
0
  5
15FE8
331
0
  5
15FE9
331
0
  5
15FEA
331
0
  5
15FEB
331
0
  5
15F8E
331
0
  5
15F8F
331
0
  5
15F90
331
0
  5
15F91
331
0
  5
15F92
331
0
  5
15F93
331
0
  5
15F94
331
0
  5
15F95
331
0
  5
15F96
331
0
  5
15F97
331
0
  5
15F98
331
0
  5
15F99
331
0
  5
15F9A
331
0
  5
15F9B
331
0
  5
15F9C
331
0
  5
15F9D
331
0
  5
15F9E
331
0
  5
15F9F
331
0
  5
15FA0
331
0
  5
15FA1
331
0
  5
15FA2
331
0
  5
15FA3
331
0
  5
15FA4
331
0
  5
15FA5
331
0
  5
15FA6
331
0
  5
15FA7
331
0
  5
15FA8
331
0
  5
15FA9
331
0
  5
15FAA
331
0
  5
15FAB
331
0
  5
15FAC
331
0
  5
15FAD
331
0
  5
15FAE
331
0
  5
15FAF
331
0
  5
15FB0
331
0
  5
15FB1
331
0
  5
15FB2
331
0
  5
15FB3
331
0
  5
15FB4
331
0
  5
15FB5
331
0
  5
15FB6
331
0
  5
15FB7
331
0
  5
15FB8
331
0
  5
15FB9
331
0
  5
15FBA
331
0
  5
15FBB
331
0
  5
15FBC
331
0
  5
15FBD
331
0
  5
15FBE
331
0
  5
15FBF
331
0
  5
15FC0
331
0
  5
15FC1
331
0
  5
15FC2
331
0
  5
15FC3
331
0
  5
15FC4
331
0
  5
15FC5
331
0
  5
15FC6
331
0
  5
15FC7
331
0
  5
15FC8
331
0
  5
15FC9
331
0
  5
15FCA
331
0
  5
15FCB
331
0
  5
15FCC
331
0
  5
15F51
331
0
  5
15F52
331
0
  5
15F53
331
0
  5
15F54
331
0
  5
15F55
331
0
  5
15F56
331
0
  5
15F57
331
0
  5
15F58
331
0
  5
15F59
331
0
  5
15F5A
331
0
  5
15F5B
331
0
  5
15F5C
331
0
  5
15F5D
331
0
  5
15F5E
331
0
  5
15F5F
331
0
  5
15F60
331
0
  5
15F61
331
0
  5
15F62
331
0
  5
15F63
331
0
  5
15F64
331
0
  5
15F65
331
0
  5
15F66
331
0
  5
15F67
331
0
  5
15F68
331
0
  5
15F69
331
0
  5
15F6A
331
0
  5
15F6B
331
0
  5
15F6C
331
0
  5
15F6D
331
0
  5
15F6E
331
0
  5
15F6F
331
0
  5
15F70
331
0
  5
15F71
331
0
  5
15F72
331
0
  5
15F73
331
0
  5
15F74
331
0
  5
15F75
331
0
  5
15F76
331
0
  5
15F77
331
0
  5
15F78
331
0
  5
15F79
331
0
  5
15F7A
331
0
  5
15F7B
331
0
  5
15F7C
331
0
  5
15F7D
331
0
  5
15F7E
331
0
  5
15F7F
331
0
  5
15F80
331
0
  5
15F81
331
0
  5
15F82
331
0
  5
15F83
331
0
  5
15F84
331
0
  5
15F85
331
0
  5
15F86
331
0
  5
15F87
331
0
  5
15F88
331
0
  5
15F89
331
0
  5
15F8A
331
0
  5
15F8B
331
0
  5
15F8C
331
0
  5
15F8D
331
0
  5
15F01
331
0
  5
15F02
331
0
  5
15F03
331
0
  5
15F04
331
0
  5
15F05
331
0
  5
15F06
331
0
  5
15F07
331
0
  5
15F08
331
0
  5
15F09
331
0
  5
15F0A
331
0
  5
15F0B
331
0
  5
15F0C
331
0
  5
15F0D
331
0
  5
15F0E
331
0
  5
15F0F
331
0
  5
15F10
331
0
  5
15F11
331
0
  5
15F12
331
0
  5
15F13
331
0
  5
15F14
331
0
  5
15F15
331
0
  5
15F16
331
0
  5
15F17
331
0
  5
15F18
331
0
  5
15F19
331
0
  5
15F1A
331
0
  5
15F1B
331
0
  5
15F1C
331
0
  5
15F1D
331
0
  5
15F1E
331
0
  5
15F1F
331
0
  5
15F20
331
0
  5
15F21
331
0
  5
15F22
331
0
  5
15F23
331
0
  5
15F24
331
0
  5
15F25
331
0
  5
15F26
331
0
  5
15F27
331
0
  5
15F28
331
0
  5
15F29
331
0
  5
15F2A
331
0
  5
15F2B
331
0
  5
15F2C
331
0
  5
15F2D
331
0
  5
15F2E
331
0
  5
15F2F
331
0
  5
15F30
331
0
  5
15F31
331
0
  5
15F32
331
0
  5
15F33
331
0
  5
15F34
331
0
  5
15F35
331
0
  5
15F36
331
0
  5
15F37
331
0
  5
15F38
331
0
  5
15F39
331
0
  5
15F3A
331
0
  5
15F3B
331
0
  5
15F3C
331
0
  5
15F3D
331
0
  5
15F3E
331
0
  5
15F3F
331
0
  5
15F40
331
0
  5
15F41
331
0
  5
15F42
331
0
  5
15F43
331
0
  5
15F44
331
0
  5
15F45
331
0
  5
15F46
331
0
  5
15F47
331
0
  5
15F48
331
0
  5
15F49
331
0
  5
15F4A
331
0
  5
15F4B
331
0
  5
15F4C
331
0
  5
15F4D
331
0
  5
15F4E
331
0
  5
15F4F
331
0
  5
15F50
331
0
  5
15EB0
331
0
  5
15EB1
331
0
  5
15EB2
331
0
  5
15EB3
331
0
  5
15EB4
331
0
  5
15EB5
331
0
  5
15EB6
331
0
  5
15EB7
331
0
  5
15EB8
331
0
  5
15EB9
331
0
  5
15EBA
331
0
  5
15EBB
331
0
  5
15EBC
331
0
  5
15EBD
331
0
  5
15EBE
331
0
  5
15EBF
331
0
  5
15EC0
331
0
  5
15EC1
331
0
  5
15EC2
331
0
  5
15EC3
331
0
  5
15EC4
331
0
  5
15EC5
331
0
  5
15EC6
331
0
  5
15EC7
331
0
  5
15EC8
331
0
  5
15EC9
331
0
  5
15ECA
331
0
  5
15ECB
331
0
  5
15ECC
331
0
  5
15ECD
331
0
  5
15ECE
331
0
  5
15ECF
331
0
  5
15ED0
331
0
  5
15ED1
331
0
  5
15ED2
331
0
  5
15ED3
331
0
  5
15ED4
331
0
  5
15ED5
331
0
  5
15ED6
331
0
  5
15ED7
331
0
  5
15ED8
331
0
  5
15ED9
331
0
  5
15EDA
331
0
  5
15EDB
331
0
  5
15EDC
331
0
  5
15EDD
331
0
  5
15EDE
331
0
  5
15EDF
331
0
  5
15EE0
331
0
  5
15EE1
331
0
  5
15EE2
331
0
  5
15EE3
331
0
  5
15EE4
331
0
  5
15EE5
331
0
  5
15EE6
331
0
  5
15EE7
331
0
  5
15EE8
331
0
  5
15EE9
331
0
  5
15EEA
331
0
  5
15EEB
331
0
  5
15EEC
331
0
  5
15EED
331
0
  5
15EEE
331
0
  5
15EEF
331
0
  5
15EF0
331
0
  5
15EF1
331
0
  5
15EF2
331
0
  5
15EF3
331
0
  5
15EF4
331
0
  5
15EF5
331
0
  5
15EF6
331
0
  5
15EF7
331
0
  5
15EF8
331
0
  5
15EF9
331
0
  5
15EFA
331
0
  5
15EFB
331
0
  5
15EFC
331
0
  5
15EFD
331
0
  5
15EFE
331
0
  5
15EFF
331
0
  5
15F00
331
0
  5
15E63
331
0
  5
15E64
331
0
  5
15E65
331
0
  5
15E66
331
0
  5
15E67
331
0
  5
15E68
331
0
  5
15E69
331
0
  5
15E6A
331
0
  5
15E6B
331
0
  5
15E6C
331
0
  5
15E6D
331
0
  5
15E6E
331
0
  5
15E6F
331
0
  5
15E70
331
0
  5
15E71
331
0
  5
15E72
331
0
  5
15E73
331
0
  5
15E74
331
0
  5
15E75
331
0
  5
15E76
331
0
  5
15E77
331
0
  5
15E78
331
0
  5
15E79
331
0
  5
15E7A
331
0
  5
15E7B
331
0
  5
15E7C
331
0
  5
15E7D
331
0
  5
15E7E
331
0
  5
15E7F
331
0
  5
15E80
331
0
  5
15E81
331
0
  5
15E82
331
0
  5
15E83
331
0
  5
15E84
331
0
  5
15E85
331
0
  5
15E86
331
0
  5
15E87
331
0
  5
15E88
331
0
  5
15E89
331
0
  5
15E8A
331
0
  5
15E8B
331
0
  5
15E8C
331
0
  5
15E8D
331
0
  5
15E8E
331
0
  5
15E8F
331
0
  5
15E90
331
0
  5
15E91
331
0
  5
15E92
331
0
  5
15E93
331
0
  5
15E94
331
0
  5
15E95
331
0
  5
15E96
331
0
  5
15E97
331
0
  5
15E98
331
0
  5
15E99
331
0
  5
15E9A
331
0
  5
15E9B
331
0
  5
15E9C
331
0
  5
15E9D
331
0
  5
15E9E
331
0
  5
15E9F
331
0
  5
15EA0
331
0
  5
15EA1
331
0
  5
15EA2
331
0
  5
15EA3
331
0
  5
15EA4
331
0
  5
15EA5
331
0
  5
15EA6
331
0
  5
15EA7
331
0
  5
15EA8
331
0
  5
15EA9
331
0
  5
15EAA
331
0
  5
15EAB
331
0
  5
15EAC
331
0
  5
15EAD
331
0
  5
15EAE
331
0
  5
15EAF
  0
MATERIAL
  5
15B55
102
{ACAD_REACTORS
330
2CF
102
}
102
{ACAD_XDICTIONARY
360
2CDD4
102
}
330
2CF
100
AcDbMaterial
  1
BYBLOCK
 72
     0
 73
     2
 43
0.0208333333333333
 43
0.0
 43
0.0
 43
0.0
 43
0.0
 43
0.0208333333333333
 43
0.0
 43
0.0
 43
0.0
 43
0.0
 43
1.0
 43
0.0
 43
0.0
 43
0.0
 43
0.0
 43
1.0
 77
     0
 78
     2
 47
0.0208333333333333
 47
0.0
 47
0.0
 47
0.0
 47
0.0
 47
0.0208333333333333
 47
0.0
 47
0.0
 47
0.0
 47
0.0
 47
1.0
 47
0.0
 47
0.0
 47
0.0
 47
0.0
 47
1.0
171
     0
172
     2
 49
0.0208333333333333
 49
0.0
 49
0.0
 49
0.0
 49
0.0
 49
0.0208333333333333
 49
0.0
 49
0.0
 49
0.0
 49
0.0
 49
1.0
 49
0.0
 49
0.0
 49
0.0
 49
0.0
 49
1.0
175
     0
176
     2
142
0.0208333333333333
142
0.0
142
0.0
142
0.0
142
0.0
142
0.0208333333333333
142
0.0
142
0.0
142
0.0
142
0.0
142
1.0
142
0.0
142
0.0
142
0.0
142
0.0
142
1.0
179
     0
270
     2
144
0.0208333333333333
144
0.0
144
0.0
144
0.0
144
0.0
144
0.0208333333333333
144
0.0
144
0.0
144
0.0
144
0.0
144
1.0
144
0.0
144
0.0
144
0.0
144
0.0
144
1.0
274
     2
147
0.0208333333333333
147
0.0
147
0.0
147
0.0
147
0.0
147
0.0208333333333333
147
0.0
147
0.0
147
0.0
147
0.0
147
1.0
147
0.0
147
0.0
147
0.0
147
0.0
147
1.0
  0
MATERIAL
  5
15B4D
102
{ACAD_REACTORS
330
2CF
102
}
102
{ACAD_XDICTIONARY
360
2CDD6
102
}
330
2CF
100
AcDbMaterial
  1
BYLAYER
 72
     0
 73
     2
 43
0.0208333333333333
 43
0.0
 43
0.0
 43
0.0
 43
0.0
 43
0.0208333333333333
 43
0.0
 43
0.0
 43
0.0
 43
0.0
 43
1.0
 43
0.0
 43
0.0
 43
0.0
 43
0.0
 43
1.0
 77
     0
 78
     2
 47
0.0208333333333333
 47
0.0
 47
0.0
 47
0.0
 47
0.0
 47
0.0208333333333333
 47
0.0
 47
0.0
 47
0.0
 47
0.0
 47
1.0
 47
0.0
 47
0.0
 47
0.0
 47
0.0
 47
1.0
171
     0
172
     2
 49
0.0208333333333333
 49
0.0
 49
0.0
 49
0.0
 49
0.0
 49
0.0208333333333333
 49
0.0
 49
0.0
 49
0.0
 49
0.0
 49
1.0
 49
0.0
 49
0.0
 49
0.0
 49
0.0
 49
1.0
175
     0
176
     2
142
0.0208333333333333
142
0.0
142
0.0
142
0.0
142
0.0
142
0.0208333333333333
142
0.0
142
0.0
142
0.0
142
0.0
142
1.0
142
0.0
142
0.0
142
0.0
142
0.0
142
1.0
179
     0
270
     2
144
0.0208333333333333
144
0.0
144
0.0
144
0.0
144
0.0
144
0.0208333333333333
144
0.0
144
0.0
144
0.0
144
0.0
144
1.0
144
0.0
144
0.0
144
0.0
144
0.0
144
1.0
274
     2
147
0.0208333333333333
147
0.0
147
0.0
147
0.0
147
0.0
147
0.0208333333333333
147
0.0
147
0.0
147
0.0
147
0.0
147
1.0
147
0.0
147
0.0
147
0.0
147
0.0
147
1.0
  0
MATERIAL
  5
15B5D
102
{ACAD_REACTORS
330
2CF
102
}
102
{ACAD_XDICTIONARY
360
2CDD8
102
}
330
2CF
100
AcDbMaterial
  1
GLOBAL
 72
     0
 73
     2
 43
0.0208333333333333
 43
0.0
 43
0.0
 43
0.0
 43
0.0
 43
0.0208333333333333
 43
0.0
 43
0.0
 43
0.0
 43
0.0
 43
1.0
 43
0.0
 43
0.0
 43
0.0
 43
0.0
 43
1.0
 77
     0
 78
     2
 47
0.0208333333333333
 47
0.0
 47
0.0
 47
0.0
 47
0.0
 47
0.0208333333333333
 47
0.0
 47
0.0
 47
0.0
 47
0.0
 47
1.0
 47
0.0
 47
0.0
 47
0.0
 47
0.0
 47
1.0
171
     0
172
     2
 49
0.0208333333333333
 49
0.0
 49
0.0
 49
0.0
 49
0.0
 49
0.0208333333333333
 49
0.0
 49
0.0
 49
0.0
 49
0.0
 49
1.0
 49
0.0
 49
0.0
 49
0.0
 49
0.0
 49
1.0
175
     0
176
     2
142
0.0208333333333333
142
0.0
142
0.0
142
0.0
142
0.0
142
0.0208333333333333
142
0.0
142
0.0
142
0.0
142
0.0
142
1.0
142
0.0
142
0.0
142
0.0
142
0.0
142
1.0
179
     0
270
     2
144
0.0208333333333333
144
0.0
144
0.0
144
0.0
144
0.0
144
0.0208333333333333
144
0.0
144
0.0
144
0.0
144
0.0
144
1.0
144
0.0
144
0.0
144
0.0
144
0.0
144
1.0
274
     2
147
0.0208333333333333
147
0.0
147
0.0
147
0.0
147
0.0
147
0.0208333333333333
147
0.0
147
0.0
147
0.0
147
0.0
147
1.0
147
0.0
147
0.0
147
0.0
147
0.0
147
1.0
  0
ACAD_PROXY_OBJECT
  5
15B99
102
{ACAD_REACTORS
330
15B98
102
}
330
15B98
100
AcDbZombieObject
 90
      499
 91
      512
 93
      610
310
40901902A4063FBFFFFFE000000000000002040AD7A3703D0AD73F4214DD185B99185C990000000000000104090141901A00000000000004100000000000000041025764000000000000300FC0
340
12
340
0
340
F
340
0
 94
        0
1001
ACAD_MLEADERVER
1070
     2
  0
MLINESTYLE
  5
1C
102
{ACAD_REACTORS
330
1B
102
}
330
1B
100
AcDbMlineStyle
  2
STANDARD
 70
     0
  3

 62
   256
 51
90.0
 52
90.0
 71
     2
 49
0.5
 62
   256
  6
BYLAYER
 49
-0.5
 62
   256
  6
BYLAYER
  0
ACAD_PROXY_OBJECT
  5
15B77
102
{ACAD_REACTORS
330
15B76
102
}
330
15B76
100
AcDbZombieObject
 90
      499
 91
      511
 93
       41
310
903313A31580
  0
ACAD_PROXY_OBJECT
  5
15B78
102
{ACAD_REACTORS
330
15B76
102
}
330
15B76
100
AcDbZombieObject
 90
      499
 91
      511
 93
      105
310
903313A324000000000000004000
  0
ACAD_PROXY_OBJECT
  5
15B79
102
{ACAD_REACTORS
330
15B76
102
}
330
15B76
100
AcDbZombieObject
 90
      499
 91
      511
 93
      105
310
903313A344000000000000104000
  0
ACAD_PROXY_OBJECT
  5
15B7A
102
{ACAD_REACTORS
330
15B76
102
}
330
15B76
100
AcDbZombieObject
 90
      499
 91
      511
 93
      105
310
903313A354000000000000144000
  0
ACAD_PROXY_OBJECT
  5
15B7B
102
{ACAD_REACTORS
330
15B76
102
}
330
15B76
100
AcDbZombieObject
 90
      499
 91
      511
 93
      105
310
903313A384000000000000204000
  0
ACAD_PROXY_OBJECT
  5
15B7C
102
{ACAD_REACTORS
330
15B76
102
}
330
15B76
100
AcDbZombieObject
 90
      499
 91
      511
 93
      113
310
904313A31304000000000000244000
  0
ACAD_PROXY_OBJECT
  5
15B7D
102
{ACAD_REACTORS
330
15B76
102
}
330
15B76
100
AcDbZombieObject
 90
      499
 91
      511
 93
      113
310
904313A31364000000000000304000
  0
ACAD_PROXY_OBJECT
  5
15B7E
102
{ACAD_REACTORS
330
15B76
102
}
330
15B76
100
AcDbZombieObject
 90
      499
 91
      511
 93
      113
310
904313A32304000000000000344000
  0
ACAD_PROXY_OBJECT
  5
15B7F
102
{ACAD_REACTORS
330
15B76
102
}
330
15B76
100
AcDbZombieObject
 90
      499
 91
      511
 93
      113
310
904313A333040000000000003E4000
  0
ACAD_PROXY_OBJECT
  5
15B80
102
{ACAD_REACTORS
330
15B76
102
}
330
15B76
100
AcDbZombieObject
 90
      499
 91
      511
 93
      113
310
904313A34304000000000000444000
  0
ACAD_PROXY_OBJECT
  5
15B81
102
{ACAD_REACTORS
330
15B76
102
}
330
15B76
100
AcDbZombieObject
 90
      499
 91
      511
 93
      113
310
904313A35304000000000000494000
  0
ACAD_PROXY_OBJECT
  5
15B82
102
{ACAD_REACTORS
330
15B76
102
}
330
15B76
100
AcDbZombieObject
 90
      499
 91
      511
 93
      121
310
905313A3130304000000000000594000
  0
ACAD_PROXY_OBJECT
  5
15B83
102
{ACAD_REACTORS
330
15B76
102
}
330
15B76
100
AcDbZombieObject
 90
      499
 91
      511
 93
      105
310
903323A310000000000000010100
  0
ACAD_PROXY_OBJECT
  5
15B84
102
{ACAD_REACTORS
330
15B76
102
}
330
15B76
100
AcDbZombieObject
 90
      499
 91
      511
 93
      105
310
903343A310000000000000410100
  0
ACAD_PROXY_OBJECT
  5
15B85
102
{ACAD_REACTORS
330
15B76
102
}
330
15B76
100
AcDbZombieObject
 90
      499
 91
      511
 93
      105
310
903383A310000000000000810100
  0
ACAD_PROXY_OBJECT
  5
15B86
102
{ACAD_REACTORS
330
15B76
102
}
330
15B76
100
AcDbZombieObject
 90
      499
 91
      511
 93
      113
310
90431303A310000000000000910100
  0
ACAD_PROXY_OBJECT
  5
15B87
102
{ACAD_REACTORS
330
15B76
102
}
330
15B76
100
AcDbZombieObject
 90
      499
 91
      511
 93
      121
310
9053130303A310000000000001650100
  0
ACAD_PROXY_OBJECT
  5
15B88
102
{ACAD_REACTORS
330
15B76
102
}
330
15B76
100
AcDbZombieObject
 90
      499
 91
      511
 93
      257
310
90E312F31323822203D2031272D3022000000000000200FC000000000000284000
  0
ACAD_PROXY_OBJECT
  5
15B89
102
{ACAD_REACTORS
330
15B76
102
}
330
15B76
100
AcDbZombieObject
 90
      499
 91
      511
 93
      249
310
90D312F363422203D2031272D3022000000000000240FC000000000000284000
  0
ACAD_PROXY_OBJECT
  5
15B8A
102
{ACAD_REACTORS
330
15B76
102
}
330
15B76
100
AcDbZombieObject
 90
      499
 91
      511
 93
      249
310
90D312F333222203D2031272D3022000000000000280FC000000000000284000
  0
ACAD_PROXY_OBJECT
  5
15B8B
102
{ACAD_REACTORS
330
15B76
102
}
330
15B76
100
AcDbZombieObject
 90
      499
 91
      511
 93
      249
310
90D312F313622203D2031272D30220000000000002C0FC000000000000284000
  0
ACAD_PROXY_OBJECT
  5
15B8C
102
{ACAD_REACTORS
330
15B76
102
}
330
15B76
100
AcDbZombieObject
 90
      499
 91
      511
 93
      249
310
90D332F333222203D2031272D30220000000000002E0FC000000000000284000
  0
ACAD_PROXY_OBJECT
  5
15B8D
102
{ACAD_REACTORS
330
15B76
102
}
330
15B76
100
AcDbZombieObject
 90
      499
 91
      511
 93
      241
310
90C312F3822203D2031272D3022000000000000300FC000000000000284000
  0
ACAD_PROXY_OBJECT
  5
15B8E
102
{ACAD_REACTORS
330
15B76
102
}
330
15B76
100
AcDbZombieObject
 90
      499
 91
      511
 93
      249
310
90D332F313622203D2031272D3022000000000000320FC000000000000284000
  0
ACAD_PROXY_OBJECT
  5
15B8F
102
{ACAD_REACTORS
330
15B76
102
}
330
15B76
100
AcDbZombieObject
 90
      499
 91
      511
 93
      241
310
90C312F3422203D2031272D3022000000000000340FC000000000000284000
  0
ACAD_PROXY_OBJECT
  5
15B90
102
{ACAD_REACTORS
330
15B76
102
}
330
15B76
100
AcDbZombieObject
 90
      499
 91
      511
 93
      241
310
90C332F3822203D2031272D3022000000000000360FC000000000000284000
  0
ACAD_PROXY_OBJECT
  5
15B91
102
{ACAD_REACTORS
330
15B76
102
}
330
15B76
100
AcDbZombieObject
 90
      499
 91
      511
 93
      241
310
90C312F3222203D2031272D3022000000000000380FC000000000000284000
  0
ACAD_PROXY_OBJECT
  5
15B92
102
{ACAD_REACTORS
330
15B76
102
}
330
15B76
100
AcDbZombieObject
 90
      499
 91
      511
 93
      241
310
90C332F3422203D2031272D30220000000000003A0FC000000000000284000
  0
ACAD_PROXY_OBJECT
  5
15B93
102
{ACAD_REACTORS
330
15B76
102
}
330
15B76
100
AcDbZombieObject
 90
      499
 91
      511
 93
      161
310
90A3122203D2031272D30224000000000000284000
  0
ACAD_PROXY_OBJECT
  5
15B94
102
{ACAD_REACTORS
330
15B76
102
}
330
15B76
100
AcDbZombieObject
 90
      499
 91
      511
 93
      257
310
90E312D312F3222203D2031272D30220000000000003E0FC000000000000284000
  0
ACAD_PROXY_OBJECT
  5
15B95
102
{ACAD_REACTORS
330
15B76
102
}
330
15B76
100
AcDbZombieObject
 90
      499
 91
      511
 93
      225
310
90A3322203D2031272D302200000000000002100000000000000284000
  0
ACAD_PROXY_OBJECT
  5
15B96
102
{ACAD_REACTORS
330
15B76
102
}
330
15B76
100
AcDbZombieObject
 90
      499
 91
      511
 93
      225
310
90A3622203D2031272D302200000000000006100000000000000284000
  0
ACAD_PROXY_OBJECT
  5
15B97
102
{ACAD_REACTORS
330
15B76
102
}
330
15B76
100
AcDbZombieObject
 90
      499
 91
      511
 93
      249
310
90D31272D3022203D2031272D30220000000000000A100000000000000284000
  0
ACAD_PROXY_OBJECT
  5
15B6B
102
{ACAD_REACTORS
330
15B65
102
}
330
15B65
100
AcDbZombieObject
 90
      499
 91
      510
 93
      436
310
42CC9915DA5C99599C985B595049028333333333333E3BF0000000000000FB0107901411070040501600405405064090741402480A0340
1001
ACAD
1000
AcDbSavedByObjectVersion
1070
     0
  0
ACAD_PROXY_OBJECT
  5
15B6D
102
{ACAD_REACTORS
330
15B65
102
}
330
15B65
100
AcDbZombieObject
 90
      499
 91
      510
 93
      500
310
424CD108121A5919195B90640502408333333333333E3BF0000000000000FB01079024090700405020000000000001110200405405064090740C02480A0340
1001
ACAD
1000
AcDbSavedByObjectVersion
1070
     0
  0
ACAD_PROXY_OBJECT
  5
15B6C
102
{ACAD_REACTORS
330
15B65
102
}
330
15B65
100
AcDbZombieObject
 90
      499
 91
      510
 93
      436
310
42CCD915DA5C99599C985B595059028333333333333E3BF0000000000000FB0107901411070040501600405405064090741402480A0340
1001
ACAD
1000
AcDbSavedByObjectVersion
1070
     0
  0
ACAD_PROXY_OBJECT
  5
15B6A
102
{ACAD_REACTORS
330
15B65
102
}
330
15B65
100
AcDbZombieObject
 90
      499
 91
      510
 93
      388
310
4150985CDA58D07406404333333333333E3BF0000000000000FB0107A41107004050150841D405064090741402480A0350
1001
ACAD
1000
AcDbSavedByObjectVersion
1070
     0
  0
ACAD_PROXY_OBJECT
  5
15B71
102
{ACAD_REACTORS
330
15B65
102
}
330
15B65
100
AcDbZombieObject
 90
      499
 91
      510
 93
      428
310
42109C9A59DA1D195B90C409028333333333333E3BF0000000000000FB010790141107004050150841D405064090741402480A029950
1001
ACAD
1000
AcDbSavedByObjectVersion
1070
     0
  0
ACAD_PROXY_OBJECT
  5
15B75
102
{ACAD_REACTORS
330
15B65
102
}
330
15B65
100
AcDbZombieObject
 90
      499
 91
      510
 93
      452
310
42D0DBDB1BDC90DA185B99D95104090240C333333333333E3BF0000000000000FB0108901411070040501508421405064090741402480A0350
1001
ACAD
1000
AcDbSavedByObjectVersion
1070
     0
  0
ACAD_PROXY_OBJECT
  5
15B6E
102
{ACAD_REACTORS
330
15B65
102
}
330
15B65
100
AcDbZombieObject
 90
      499
 91
      510
 93
      500
310
4290DBDB98D95C1D1D585B10940D028333333333333E3BF0000000000000FB0107902409070040501000000000000111010841D405064090740C02480A0340
1001
ACAD
1000
AcDbSavedByObjectVersion
1070
     0
  0
ACAD_PROXY_OBJECT
  5
15B70
102
{ACAD_REACTORS
330
15B65
102
}
330
15B65
100
AcDbZombieObject
 90
      499
 91
      510
 93
      412
310
40D11A5B50B409028333333333333E3BF0000000000000FB010790141107004050150841D405064090741402480A02677FFFFFD0
1001
ACAD
1000
AcDbSavedByObjectVersion
1070
     0
  0
ACAD_PROXY_OBJECT
  5
1F525
102
{ACAD_REACTORS
330
15B65
102
}
330
15B65
100
AcDbZombieObject
 90
      499
 91
      510
 93
      452
310
43115919D950DBDB1BDC93D999916409028333333333333E3BF0000000000000FB010790141107004050150841D405064090741402480A0350
1001
ACAD
1000
AcDbSavedByObjectVersion
1070
     0
  0
ACAD_PROXY_OBJECT
  5
15B74
102
{ACAD_REACTORS
330
15B65
102
}
330
15B65
100
AcDbZombieObject
 90
      499
 91
      510
 93
      444
310
42D19858D95C185D1D195C9B90F409028333333333333E3BF0000000000000FB010790141107004050150841D405064090741402480A0350
1001
ACAD
1000
AcDbSavedByObjectVersion
1070
     0
  0
ACAD_PROXY_OBJECT
  5
15B66
102
{ACAD_REACTORS
330
15B65
102
}
330
15B65
100
AcDbZombieObject
 90
      499
 91
      510
 93
      388
310
41119B185D240901404333333333333E3BF0000000000000F9010740A41107004050150841D405064090741402480A1B50
1001
ACAD
1000
AcDbSavedByObjectVersion
1070
     0
  0
ACAD_PROXY_OBJECT
  5
15B67
102
{ACAD_REACTORS
330
15B65
102
}
330
15B65
100
AcDbZombieObject
 90
      499
 91
      510
 93
      476
310
43519B185D15DA5D1A115919D95CD0140901404333333333333E3BF0000000000000F9010740901411070040501600405405064090741402480A1B50
1001
ACAD
1000
AcDbSavedByObjectVersion
1070
     0
  0
ACAD_PROXY_OBJECT
  5
15B68
102
{ACAD_REACTORS
330
15B65
102
}
330
15B65
100
AcDbZombieObject
 90
      499
 91
      510
 93
      412
310
41D1DBDD5C985D5910240902404333333333333E3BF0000000000000F9010740A411070040501641D405064090741402480A1B50
1001
ACAD
1000
AcDbSavedByObjectVersion
1070
     0
  0
ACAD_PROXY_OBJECT
  5
15B69
102
{ACAD_REACTORS
330
15B65
102
}
330
15B65
100
AcDbZombieObject
 90
      499
 91
      510
 93
      500
310
4411DBDD5C985D5915DA5D1A115919D95CD0340902404333333333333E3BF0000000000000F9010740901411070040501600405405064090741402480A1B50
1001
ACAD
1000
AcDbSavedByObjectVersion
1070
     0
  0
ACAD_PROXY_OBJECT
  5
2C59F
102
{ACAD_REACTORS
330
15B65
102
}
330
15B65
100
AcDbZombieObject
 90
      499
 91
      510
 93
      476
310
41921A5919195B90640502408333333333333E33F0000000000000F901079024090700405020000000000001110200405405064090740C02480A0340
1001
ACAD
1000
AcDbSavedByObjectVersion
1070
     0
  0
ACAD_PROXY_OBJECT
  5
1F523
102
{ACAD_REACTORS
330
15B65
102
}
330
15B65
100
AcDbZombieObject
 90
      499
 91
      510
 93
      428
310
42529A5D1D195C93D999914409028333333333333E3BF0000000000000FB010790141107004050150A41D405064090741402480A0350
1001
ACAD
1000
AcDbSavedByObjectVersion
1070
     0
  0
ACAD_PROXY_OBJECT
  5
15B73
102
{ACAD_REACTORS
330
15B65
102
}
330
15B65
100
AcDbZombieObject
 90
      499
 91
      510
 93
      444
310
42D31A5B995C185D1D195C9B90E409028333333333333E3BF0000000000000FB010790141107004050750841D405064090741402483A0350
1001
ACAD
1000
AcDbSavedByObjectVersion
1070
     0
  0
ACAD_PROXY_OBJECT
  5
2C5A5
102
{ACAD_REACTORS
330
15B65
102
}
330
15B65
100
AcDbZombieObject
 90
      499
 91
      510
 93
      484
310
42135BD9195B1A5B99D0A409038333333333333E33F0000000000000F901074090290700405010000000000201990108421405064090741402480A1B40
1001
ACAD
1000
AcDbSavedByObjectVersion
1070
     0
  0
ACAD_PROXY_OBJECT
  5
1F524
102
{ACAD_REACTORS
330
15B65
102
}
330
15B65
100
AcDbZombieObject
 90
      499
 91
      510
 93
      444
310
42D3DD995C9A185B99D3D999915409028333333333333E3BF0000000000000FB010790141107004050150941D405064090741402480A0350
1001
ACAD
1000
AcDbSavedByObjectVersion
1070
     0
  0
ACAD_PROXY_OBJECT
  5
15B6F
102
{ACAD_REACTORS
330
15B65
102
}
330
15B65
100
AcDbZombieObject
 90
      499
 91
      510
 93
      420
310
425499585B1A5CDD1A58D08409028333333333333E3BF0000000000000FB01079019070040501508421405064090741402480A1B40
1001
ACAD
1000
AcDbSavedByObjectVersion
1070
     0
  0
ACAD_PROXY_OBJECT
  5
2C5A4
102
{ACAD_REACTORS
330
15B65
102
}
330
15B65
100
AcDbZombieObject
 90
      499
 91
      510
 93
      420
310
4194DA1859195911B40902404333333333333E33F0000000000000F9010740A41107004050150800405405064090840C02480A0B40
1001
ACAD
1000
AcDbSavedByObjectVersion
1070
     0
  0
ACAD_PROXY_OBJECT
  5
2C5A3
102
{ACAD_REACTORS
330
15B65
102
}
330
15B65
100
AcDbZombieObject
 90
      499
 91
      510
 93
      516
310
4454DA18591959081DDA5D1A08195919D95CD1A40902404333333333333E33F0000000000000F901074090142907004050250800405405064090740C02480A0B40
1001
ACAD
1000
AcDbSavedByObjectVersion
1070
     0
  0
ACAD_PROXY_OBJECT
  5
2C5A0
102
{ACAD_REACTORS
330
15B65
102
}
330
15B65
100
AcDbZombieObject
 90
      499
 91
      510
 93
      532
310
4394DA1859195CC81BD98811DC985E5174090240C333333333333E33F0000000000000F901079024090741D01000000000000111010841D405064090740C02480A0340
1001
ACAD
1000
AcDbSavedByObjectVersion
1070
     0
  0
ACAD_PROXY_OBJECT
  5
2C5A1
102
{ACAD_REACTORS
330
15B65
102
}
330
15B65
100
AcDbZombieObject
 90
      499
 91
      510
 93
      476
310
41D4DAD95D18DA1E51840502408333333333333E33F0000000000000F901079024090741D01000000000000111010B41D405064090741802480A0340
1001
ACAD
1000
AcDbSavedByObjectVersion
1070
     0
  0
ACAD_PROXY_OBJECT
  5
15B72
102
{ACAD_REACTORS
330
15B65
102
}
330
15B65
100
AcDbZombieObject
 90
      499
 91
      510
 93
      412
310
41D51A1A58DAD95B90D409028333333333333E3BF0000000000000FB010790141107004050150C41D405064090741402480A0350
1001
ACAD
1000
AcDbSavedByObjectVersion
1070
     0
  0
ACAD_PROXY_OBJECT
  5
2C59E
102
{ACAD_REACTORS
330
15B65
102
}
330
15B65
100
AcDbZombieObject
 90
      499
 91
      510
 93
      420
310
4255DA5C99599C985B595059028333333333333E33F0000000000000F90107901411070040501600405405064090740C02480A0340
1001
ACAD
1000
AcDbSavedByObjectVersion
1070
     0
  0
ACAD_PROXY_OBJECT
  5
2C5A2
102
{ACAD_REACTORS
330
15B65
102
}
330
15B65
100
AcDbZombieObject
 90
      499
 91
      510
 93
      404
310
41560B54985E51940902404000000000000E03F0000000000000F9010740501907004050150841D405064090740C02480A1B40
1001
ACAD
1000
AcDbSavedByObjectVersion
1070
     0
  0
XRECORD
  5
2CDD1
102
{ACAD_REACTORS
330
2CDD0
102
}
330
2CDD0
100
AcDbXrecord
340
2D0
  0
XRECORD
  5
2CDD2
102
{ACAD_REACTORS
330
2CDD0
102
}
330
2CDD0
100
AcDbXrecord
340
2CF
  0
DICTIONARYVAR
  5
2CBA4
102
{ACAD_REACTORS
330
37
102
}
330
37
100
DictionaryVariables
280
     0
  1
1:1
  0
DICTIONARYVAR
  5
15C4B
102
{ACAD_REACTORS
330
37
102
}
330
37
100
DictionaryVariables
280
     0
  1
Standard
  0
DICTIONARYVAR
  5
4F1
102
{ACAD_REACTORS
330
37
102
}
330
37
100
DictionaryVariables
280
     0
  1
Standard
  0
DICTIONARYVAR
  5
38
102
{ACAD_REACTORS
330
37
102
}
330
37
100
DictionaryVariables
280
     0
  1
-1
  0
DICTIONARYVAR
  5
408
102
{ACAD_REACTORS
330
37
102
}
330
37
100
DictionaryVariables
280
     0
  1
2
  0
DICTIONARYVAR
  5
1891
102
{ACAD_REACTORS
330
37
102
}
330
37
100
DictionaryVariables
280
     0
  1
1
  0
DICTIONARYVAR
  5
15C4E
102
{ACAD_REACTORS
330
37
102
}
330
37
100
DictionaryVariables
280
     0
  1
0
  0
DICTIONARYVAR
  5
1895
102
{ACAD_REACTORS
330
37
102
}
330
37
100
DictionaryVariables
280
     0
  1
8
  0
DICTIONARYVAR
  5
1894
102
{ACAD_REACTORS
330
37
102
}
330
37
100
DictionaryVariables
280
     0
  1
1
  0
DICTIONARYVAR
  5
2CBFA
102
{ACAD_REACTORS
330
37
102
}
330
37
100
DictionaryVariables
280
     0
  1
0
  0
DICTIONARYVAR
  5
1892
102
{ACAD_REACTORS
330
37
102
}
330
37
100
DictionaryVariables
280
     0
  1
8
  0
DICTIONARYVAR
  5
1893
102
{ACAD_REACTORS
330
37
102
}
330
37
100
DictionaryVariables
280
     0
  1
2
  0
DICTIONARYVAR
  5
409
102
{ACAD_REACTORS
330
37
102
}
330
37
100
DictionaryVariables
280
     0
  1

  0
DICTIONARYVAR
  5
15C4D
102
{ACAD_REACTORS
330
37
102
}
330
37
100
DictionaryVariables
280
     0
  1
127
  0
DICTIONARYVAR
  5
2C59D
102
{ACAD_REACTORS
330
37
102
}
330
37
100
DictionaryVariables
280
     0
  1
2
  0
ACAD_PROXY_OBJECT
  5
253AA
102
{ACAD_REACTORS
330
14EC3
102
}
102
{ACAD_XDICTIONARY
360
253AB
102
}
330
14EC3
100
AcDbZombieObject
 90
      499
 91
      517
 93
    16594
310
0582000016C005C080000B404000098880400B804100098C511253528074410080000000001680020000000F8001C01C807F7FD2C045000000000000000040010009A41197CDD2806D75C040000000001680020000000F8001C01C807F7FD2C045000000000000000040010009A41197CDD2804C1A00400000000016800200
310
00000F8020C01C807F7FD2C045000000000000000040018009A41197CC4CCC52807EA5C000000000001680020000000F8001C01C807F7FD2C045000000000000000040010009A41197CDD28078418000000000001680020000000F8001C01C807F7FD2C045000000000000000040010009A41197CDD2807801800000000000
310
1680020000000F8001C01C807F7FD2C045000000000000000040010009A41197CDD28077C18000000000001680020000000F8037401C807F7FD2C078818000000000000040018009A41197CC8C8C528077818000000000001680020000000F8001C01C807F7FD2C045000000000000000040010009A41197CDD28077418000
310
000000001680020000000F803F001C807F7FD2C045000000000000000040018009A41197CC8D4C92806EC10000000000001680020000000F8037401C807F7FD2C05A800000000000000040018009A41197CC8C8C52804E80C000000000001680000000000F8000401C807F7FD2C05D008000000000000040010009A41197CC
310
52805DC08000000000001680024000000F8002001C807F7FD2C045000000000000000040010009A41197CE12805D808000000000001680020000000F803F001C807F7FD2C045000000000000000040018009A41197CC8D4C92805D408000000000001680020000000F8002401C807F7FD2C045000000000000000040010009
310
A41197CE52805CC08000000000001680020000000F8001C01C807F7FD2C045000000000000000040010009A41197CDD2805C808000000000001680020000000F8001C01C807F7FD2C057008000000000000040010009A41197CDD2805C408000000000001680020000000F8001C01C807F7FD2C056C0800000000000004001
310
0009A41197CDD2805C008000000000001680020000000F8001C01C807F7FD2C056808000000000000040010009A41197CDD2805BC08000000000001680020000000F8001C01C807F7FD2C056408000000000000040010009A41197CDD2805B808000000000001680020000000F8001C01C807F7FD2C0560080000000000000
310
40010009A41197CDD2805B408000000000001680020000000F8002001C807F7FD2C045000000000000000040010009A41197CE12805B008000000000001680020000000F8002001C807F7FD2C045000000000000000040010009A41197CE12805AC08000000000001680020000000F8002001C807F7FD2C045000000000000
310
000040010009A41197CE12805A808000000000001680020000000F8002001C807F7FD2C045000000000000000040010009A41197CE12805A408000000000001680020000000F8001C01C807F7FD2C045000000000000000040010009A41197CDD2805A008000000000001680020000000F8035401C807F7FD2C04500000000
310
0000000040018009A41197CC8C4CD28059C08000000000001680020000000F8003C01C807F7FD2C045000000000000000040014009A41197CC4D528059808000000000001680020000000F8017C01C807F7FD2C045000000000000000040014009A41197CE4D528059408000000000001680020000000F8023C01C807F7FD2
310
C045000000000000000040018009A41197CC4D0CD28059008000000000001680020000000F8001801C807F7FD2C045000000000000000040010009A41197CD928058C08000000000001680020000000F8001401C807F7FD2C045000000000000000040010009A41197CD528058808000000000001680020000000F8001001C
310
807F7FD2C045000000000000000040010009A41197CD128058408000000000001680020000000F8000C01C807F7FD2C045000000000000000040010009A41197CCD28058008000000000001680020000000F8000801C807F7FD2C045000000000000000040010009A41197CC928057C08000000000001680020000000F8000
310
401C807F7FD2C045000000000000000040010009A41197CC528055408000000000001680020000000F8001C01C807F7FD2C057408000000000000040010009A41197CDD28040C04000000000001680020000000F803F801C807F7FD2C040004000000000000040018009A41197CC8D4D128040804000000000001680020000
310
000F8002001C807F7FD2C07FC00000000000000040010009A41197CE128040404000000000001680020000000F8002001C807F7FD2C045000000000000000040010009A41197CE128069000000000000001680020000000F8001C01C807F7FD2C045000000000000000040010009A41197CDD2805800000000000000168000
310
0000000F8001C01C807F7FD2C045000000000000000040010009A41197CDD2804D000000000000001680020000000F803F401C807F7FD2C045000000000000000040018009A41197CC8D4CD2804CC00000000000001680024000000F8000401C807F7FD2C045000000000000000040010009A41197CC52804C800000000000
310
001680020000000F8037401C807F7FD2C045000000000000000040018009A41197CC8C8C52804C400000000000001680020000000F8032401C807F7FD2C045000000000000000040018009A41197CC8C0C52804A400000000000001680020000000F8037401C807F7FD2C045000000000000000040018009A41197CC8C8C52
310
8043800000000000001680020000000F8001C01C807F7FD2C045000000000000000040010009A41197CDC0
  0
DICTIONARY
  5
2CDD4
330
15B55
100
AcDbDictionary
  3
ACAD_XREC_ROUNDTRIP
360
2CDD5
1001
ACAD
1000
TREAT_AS_HARD
1070
     1
  0
DICTIONARY
  5
2CDD6
330
15B4D
100
AcDbDictionary
  3
ACAD_XREC_ROUNDTRIP
360
2CDD7
1001
ACAD
1000
TREAT_AS_HARD
1070
     1
  0
DICTIONARY
  5
2CDD8
330
15B5D
100
AcDbDictionary
  3
ACAD_XREC_ROUNDTRIP
360
2CDD9
1001
ACAD
1000
TREAT_AS_HARD
1070
     1
  0
DICTIONARY
  5
253AB
330
253AA
100
AcDbDictionary
  3
ACADLAYERSTATEANNOSCALE
360
253AC
1001
ACAD
1000
TREAT_AS_HARD
1070
     1
  0
XRECORD
  5
2CDD5
102
{ACAD_REACTORS
330
2CDD4
102
}
330
2CDD4
100
AcDbXrecord
102
MATERIAL
148
0.0
149
0.0
149
0.0
 93
        0
 94
      127
282
     0
 72
     0
 77
     0
171
     0
175
     0
179
     0
273
     0
  0
XRECORD
  5
2CDD7
102
{ACAD_REACTORS
330
2CDD6
102
}
330
2CDD6
100
AcDbXrecord
102
MATERIAL
148
0.0
149
0.0
149
0.0
 93
        0
 94
      127
282
     0
 72
     0
 77
     0
171
     0
175
     0
179
     0
273
     0
  0
XRECORD
  5
2CDD9
102
{ACAD_REACTORS
330
2CDD8
102
}
330
2CDD8
100
AcDbXrecord
102
MATERIAL
148
0.0
149
0.0
149
0.0
 93
        0
 94
      127
282
     0
 72
     0
 77
     0
171
     0
175
     0
179
     0
273
     0
  0
XRECORD
  5
253AC
102
{ACAD_REACTORS
330
253AB
102
}
330
253AB
100
AcDbXrecord
330
15B77
  0
ENDSEC
  0
EOF
