  0
SECTION
  2
HEADER
  9
$ACADVER
  1
AC1012
  9
$DWGCODEPAGE
  3
ansi_932
  9
$INSBASE
 10
0.0
 20
0.0
 30
0.0
  9
$EXTMIN
 10
3277.246833361997
 20
-2352.975266479033
 30
0.0
  9
$EXTMAX
 10
4019.763811875221
 20
-1800.451092890227
 30
0.0
  9
$LIMMIN
 10
0.0
 20
0.0
  9
$LIMMAX
 10
420.0
 20
297.0
  9
$ORTHOMODE
 70
     0
  9
$REGENMODE
 70
     1
  9
$FILLMODE
 70
     1
  9
$QTEXTMODE
 70
     0
  9
$MIRRTEXT
 70
     0
  9
$DRAGMODE
 70
     2
  9
$LTSCALE
 40
0.5
  9
$OSMODE
 70
 14591
  9
$ATTMODE
 70
     1
  9
$TEXTSIZE
 40
4.0
  9
$TRACEWID
 40
1.0
  9
$TEXTSTYLE
  7
STANDARD
  9
$CLAYER
  8
1TEXT
  9
$CELTYPE
  6
BYLAYER
  9
$CECOLOR
 62
   256
  9
$CELTSCALE
 40
1.0
  9
$DELOBJ
 70
     1
  9
$DISPSILH
 70
     0
  9
$DIMSCALE
 40
2.0
  9
$DIMASZ
 40
2.0
  9
$DIMEXO
 40
0.0
  9
$DIMDLI
 40
7.0
  9
$DIMRND
 40
0.0
  9
$DIMDLE
 40
0.0
  9
$DIMEXE
 40
1.0
  9
$DIMTP
 40
0.0
  9
$DIMTM
 40
0.0
  9
$DIMTXT
 40
3.5
  9
$DIMCEN
 40
0.0
  9
$DIMTSZ
 40
0.0
  9
$DIMTOL
 70
     0
  9
$DIMLIM
 70
     0
  9
$DIMTIH
 70
     0
  9
$DIMTOH
 70
     0
  9
$DIMSE1
 70
     0
  9
$DIMSE2
 70
     0
  9
$DIMTAD
 70
     1
  9
$DIMZIN
 70
     8
  9
$DIMBLK
  1

  9
$DIMASO
 70
     1
  9
$DIMSHO
 70
     1
  9
$DIMPOST
  1
 
  9
$DIMAPOST
  1

  9
$DIMALT
 70
     0
  9
$DIMALTD
 70
     2
  9
$DIMALTF
 40
25.4
  9
$DIMLFAC
 40
1.0
  9
$DIMTOFL
 70
     1
  9
$DIMTVP
 40
0.0
  9
$DIMTIX
 70
     0
  9
$DIMSOXD
 70
     0
  9
$DIMSAH
 70
     1
  9
$DIMBLK1
  1
OPEN30
  9
$DIMBLK2
  1
OPEN30
  9
$DIMSTYLE
  2
NEWX10
  9
$DIMCLRD
 70
   256
  9
$DIMCLRE
 70
   256
  9
$DIMCLRT
 70
   201
  9
$DIMTFAC
 40
0.7
  9
$DIMGAP
 40
0.7
  9
$DIMJUST
 70
     0
  9
$DIMSD1
 70
     0
  9
$DIMSD2
 70
     0
  9
$DIMTOLJ
 70
     1
  9
$DIMTZIN
 70
     8
  9
$DIMALTZ
 70
     0
  9
$DIMALTTZ
 70
     0
  9
$DIMFIT
 70
     2
  9
$DIMUPT
 70
     0
  9
$DIMUNIT
 70
     2
  9
$DIMDEC
 70
     2
  9
$DIMTDEC
 70
     4
  9
$DIMALTU
 70
     2
  9
$DIMALTTD
 70
     2
  9
$DIMTXSTY
  7
STANDARD
  9
$DIMAUNIT
 70
     0
  9
$LUNITS
 70
     2
  9
$LUPREC
 70
     4
  9
$SKETCHINC
 40
1.0
  9
$FILLETRAD
 40
5.0
  9
$AUNITS
 70
     0
  9
$AUPREC
 70
     2
  9
$MENU
  1
acad
  9
$ELEVATION
 40
0.0
  9
$PELEVATION
 40
0.0
  9
$THICKNESS
 40
0.0
  9
$LIMCHECK
 70
     0
  9
$CHAMFERA
 40
1.0
  9
$CHAMFERB
 40
1.0
  9
$CHAMFERC
 40
20.0
  9
$CHAMFERD
 40
0.0
  9
$SKPOLY
 70
     0
  9
$TDCREATE
 40
2453033.732663484
  9
$TDUPDATE
 40
2458296.377912002
  9
$TDINDWG
 40
2.7859524653
  9
$TDUSRTIMER
 40
2.7859524653
  9
$USRTIMER
 70
     1
  9
$ANGBASE
 50
0.0
  9
$ANGDIR
 70
     0
  9
$PDMODE
 70
     0
  9
$PDSIZE
 40
0.0
  9
$PLINEWID
 40
0.0
  9
$COORDS
 70
     2
  9
$SPLFRAME
 70
     0
  9
$SPLINETYPE
 70
     6
  9
$SPLINESEGS
 70
     8
  9
$ATTDIA
 70
     0
  9
$ATTREQ
 70
     1
  9
$HANDLING
 70
     1
  9
$HANDSEED
  5
2C1B8
  9
$SURFTAB1
 70
     6
  9
$SURFTAB2
 70
     6
  9
$SURFTYPE
 70
     6
  9
$SURFU
 70
     6
  9
$SURFV
 70
     6
  9
$UCSNAME
  2

  9
$UCSORG
 10
0.0
 20
0.0
 30
0.0
  9
$UCSXDIR
 10
1.0
 20
0.0
 30
0.0
  9
$UCSYDIR
 10
0.0
 20
1.0
 30
0.0
  9
$PUCSNAME
  2

  9
$PUCSORG
 10
0.0
 20
0.0
 30
0.0
  9
$PUCSXDIR
 10
1.0
 20
0.0
 30
0.0
  9
$PUCSYDIR
 10
0.0
 20
1.0
 30
0.0
  9
$USERI1
 70
     0
  9
$USERI2
 70
     0
  9
$USERI3
 70
     0
  9
$USERI4
 70
     0
  9
$USERI5
 70
     0
  9
$USERR1
 40
0.0
  9
$USERR2
 40
0.0
  9
$USERR3
 40
0.0
  9
$USERR4
 40
0.0
  9
$USERR5
 40
0.0
  9
$WORLDVIEW
 70
     1
  9
$SHADEDGE
 70
     3
  9
$SHADEDIF
 70
    70
  9
$TILEMODE
 70
     1
  9
$MAXACTVP
 70
    48
  9
$PINSBASE
 10
0.0
 20
0.0
 30
0.0
  9
$PLIMCHECK
 70
     0
  9
$PEXTMIN
 10
1.000000000000000E+20
 20
1.000000000000000E+20
 30
1.000000000000000E+20
  9
$PEXTMAX
 10
-1.000000000000000E+20
 20
-1.000000000000000E+20
 30
-1.000000000000000E+20
  9
$PLIMMIN
 10
0.0
 20
0.0
  9
$PLIMMAX
 10
420.0
 20
297.0
  9
$UNITMODE
 70
     0
  9
$VISRETAIN
 70
     1
  9
$PLINEGEN
 70
     0
  9
$PSLTSCALE
 70
     1
  9
$TREEDEPTH
 70
  3020
  9
$PICKSTYLE
 70
     1
  9
$CMLSTYLE
  2
STANDARD
  9
$CMLJUST
 70
     0
  9
$CMLSCALE
 40
20.0
  9
$SAVEIMAGES
 70
     1
  0
ENDSEC
  0
SECTION
  2
CLASSES
  0
CLASS
  1
DICTIONARYVAR
  2
AcDbDictionaryVar
  3
ObjectDBX Classes
 90
        0
280
     0
281
     0
  0
CLASS
  1
IDBUFFER
  2
AcDbIdBuffer
  3
ObjectDBX Classes
 90
    32768
280
     0
281
     0
  0
CLASS
  1
LWPOLYLINE
  2
AcDbPolyline
  3
ObjectDBX Classes
 90
    32768
280
     0
281
     1
  0
CLASS
  1
ACDBDICTIONARYWDFLT
  2
AcDbDictionaryWithDefault
  3
ObjectDBX Classes
 90
    32768
280
     0
281
     0
  0
CLASS
  1
ACDBPLACEHOLDER
  2
AcDbPlaceHolder
  3
ObjectDBX Classes
 90
        0
280
     0
281
     0
  0
CLASS
  1
LAYOUT
  2
AcDbLayout
  3
ObjectDBX Classes
 90
        0
280
     0
281
     0
  0
CLASS
  1
TABLESTYLE
  2
AcDbTableStyle
  3
ObjectDBX Classes
 90
     4095
280
     0
281
     0
  0
CLASS
  1
SORTENTSTABLE
  2
AcDbSortentsTable
  3
ObjectDBX Classes
 90
    32768
280
     0
281
     0
  0
CLASS
  1
DIMASSOC
  2
AcDbDimAssoc
  3
"AcDbDimAssoc|Product Desc:     AcDim ARX App For Dimension|Company:          Autodesk, Inc.|WEB Address:      www.autodesk.com"
 90
        0
280
     0
281
     0
  0
CLASS
  1
MATERIAL
  2
AcDbMaterial
  3
ObjectDBX Classes
 90
     1153
280
     0
281
     0
  0
CLASS
  1
VISUALSTYLE
  2
AcDbVisualStyle
  3
ObjectDBX Classes
 90
     4095
280
     0
281
     0
  0
CLASS
  1
SCALE
  2
AcDbScale
  3
ObjectDBX Classes
 90
     1153
280
     0
281
     0
  0
CLASS
  1
MLEADERSTYLE
  2
AcDbMLeaderStyle
  3
ACDB_MLEADERSTYLE_CLASS
 90
     4095
280
     0
281
     0
  0
CLASS
  1
CELLSTYLEMAP
  2
AcDbCellStyleMap
  3
ObjectDBX Classes
 90
     1152
280
     0
281
     0
  0
CLASS
  1
EXACXREFPANELOBJECT
  2
ExAcXREFPanelObject
  3
EXAC_ESW
 90
   -31743
280
     1
281
     0
  0
CLASS
  1
NPOCOLLECTION
  2
AcDbImpNonPersistentObjectsCollection
  3
ObjectDBX Classes
 90
   -31615
280
     1
281
     0
  0
CLASS
  1
SUN
  2
AcDbSun
  3
SCENEOE
 90
     1153
280
     0
281
     0
  0
CLASS
  1
XRECORD
  2
AcDbXrecord
  3
ObjectDBX Classes
 90
    32768
280
     0
281
     0
  0
CLASS
  1
HATCH
  2
AcDbHatch
  3
ObjectDBX Classes
 90
    32768
280
     0
281
     1
  0
ENDSEC
  0
SECTION
  2
TABLES
  0
TABLE
  2
VPORT
  5
8
330
0
100
AcDbSymbolTable
 70
     1
  0
VPORT
  5
15B17
330
8
100
AcDbSymbolTableRecord
100
AcDbViewportTableRecord
  2
*ACTIVE
 70
     0
 10
0.0
 20
0.0
 11
1.0
 21
1.0
 12
3648.505322618609
 22
-2076.71317968463
 13
0.0
 23
0.0
 14
10.0
 24
10.0
 15
10.0
 25
10.0
 16
0.0
 26
0.0
 36
1.0
 17
0.0
 27
0.0
 37
0.0
 40
593.2364811164027
 41
1.905686546463246
 42
50.0
 43
0.0
 44
0.0
 50
0.0
 51
0.0
 71
    16
 72
   100
 73
     1
 74
     1
 75
     0
 76
     0
 77
     0
 78
     0
  0
ENDTAB
  0
TABLE
  2
LTYPE
  5
5
330
0
100
AcDbSymbolTable
 70
     4
  0
LTYPE
  5
12
330
5
100
AcDbSymbolTableRecord
100
AcDbLinetypeTableRecord
  2
BYBLOCK
 70
     0
  3

 72
    65
 73
     0
 40
0.0
  0
LTYPE
  5
13
330
5
100
AcDbSymbolTableRecord
100
AcDbLinetypeTableRecord
  2
BYLAYER
 70
     0
  3

 72
    65
 73
     0
 40
0.0
  0
LTYPE
  5
14
330
5
100
AcDbSymbolTableRecord
100
AcDbLinetypeTableRecord
  2
CONTINUOUS
 70
     0
  3
Solid line
 72
    65
 73
     0
 40
0.0
  0
LTYPE
  5
26
330
5
100
AcDbSymbolTableRecord
100
AcDbLinetypeTableRecord
  2
CENTER2
 70
     0
  3
Center (.5x) ___ _ ___ _ ___ _ ___ _ ___ _ ___
 72
    65
 73
     4
 40
28.575
 49
19.05
 74
     0
 49
-3.175
 74
     0
 49
3.175
 74
     0
 49
-3.175
 74
     0
  0
LTYPE
  5
FF
330
5
100
AcDbSymbolTableRecord
100
AcDbLinetypeTableRecord
  2
HIDDEN
 70
     0
  3
Hidden __ __ __ __ __ __ __ __ __ __ __ __ __ _
 72
    65
 73
     2
 40
9.524999999999999
 49
6.35
 74
     0
 49
-3.175
 74
     0
  0
LTYPE
  5
100
330
5
100
AcDbSymbolTableRecord
100
AcDbLinetypeTableRecord
  2
PHANTOM2
 70
     0
  3
Phantom (0.5x) ___ _ _ ___ _ _ ___ _ _ ___ _ _
 72
    65
 73
     6
 40
31.75
 49
15.875
 74
     0
 49
-3.175
 74
     0
 49
3.175
 74
     0
 49
-3.175
 74
     0
 49
3.175
 74
     0
 49
-3.175
 74
     0
  0
ENDTAB
  0
TABLE
  2
LAYER
  5
2
102
{ACAD_XDICTIONARY
360
14EC2
102
}
330
0
100
AcDbSymbolTable
 70
     8
  0
LAYER
  5
E
102
{ACAD_XDICTIONARY
360
15BB5
102
}
330
2
100
AcDbSymbolTableRecord
100
AcDbLayerTableRecord
  2
0
 70
     0
 62
     7
  6
CONTINUOUS
  0
LAYER
  5
29
102
{ACAD_XDICTIONARY
360
15BB7
102
}
330
2
100
AcDbSymbolTableRecord
100
AcDbLayerTableRecord
  2
1CENTER
 70
     0
 62
     7
  6
CENTER2
  0
LAYER
  5
31
102
{ACAD_XDICTIONARY
360
15BB9
102
}
330
2
100
AcDbSymbolTableRecord
100
AcDbLayerTableRecord
  2
1TEXT
 70
     0
 62
     7
  6
CONTINUOUS
  0
LAYER
  5
101
102
{ACAD_XDICTIONARY
360
15BC3
102
}
330
2
100
AcDbSymbolTableRecord
100
AcDbLayerTableRecord
  2
1DIM
 70
     0
 62
     7
  6
CONTINUOUS
  0
LAYER
  5
102
102
{ACAD_XDICTIONARY
360
15BC5
102
}
330
2
100
AcDbSymbolTableRecord
100
AcDbLayerTableRecord
  2
1HIDDEN
 70
     0
 62
     7
  6
HIDDEN
  0
LAYER
  5
103
102
{ACAD_XDICTIONARY
360
15BC7
102
}
330
2
100
AcDbSymbolTableRecord
100
AcDbLayerTableRecord
  2
1PHANTOM
 70
     0
 62
     7
  6
PHANTOM2
  0
LAYER
  5
25F
102
{ACAD_XDICTIONARY
360
15BCB
102
}
330
2
100
AcDbSymbolTableRecord
100
AcDbLayerTableRecord
  2
01
 70
     0
 62
     1
  6
CONTINUOUS
  0
LAYER
  5
26D
102
{ACAD_XDICTIONARY
360
15BE7
102
}
330
2
100
AcDbSymbolTableRecord
100
AcDbLayerTableRecord
  2
1HATCH
 70
     0
 62
     7
  6
CONTINUOUS
  0
ENDTAB
  0
TABLE
  2
STYLE
  5
3
330
0
100
AcDbSymbolTable
 70
     2
  0
STYLE
  5
F
330
3
100
AcDbSymbolTableRecord
100
AcDbTextStyleTableRecord
  2
STANDARD
 70
     0
 40
0.0
 41
1.0
 50
0.0
 71
     0
 42
4.0
  3
txt.shx
  4
extfont.shx
  0
STYLE
  5
14B6B
330
3
100
AcDbSymbolTableRecord
100
AcDbTextStyleTableRecord
  2
SWISS
 70
     0
 40
0.0
 41
1.0
 50
0.0
 71
     0
 42
4.0
  3
txt.shx
  4
extfont.shx
  0
ENDTAB
  0
TABLE
  2
VIEW
  5
6
330
0
100
AcDbSymbolTable
 70
     0
  0
ENDTAB
  0
TABLE
  2
UCS
  5
7
330
0
100
AcDbSymbolTable
 70
     0
  0
ENDTAB
  0
TABLE
  2
APPID
  5
9
330
0
100
AcDbSymbolTable
 70
    14
  0
APPID
  5
10
330
9
100
AcDbSymbolTableRecord
100
AcDbRegAppTableRecord
  2
ACAD
 70
     0
  0
APPID
  5
21
330
9
100
AcDbSymbolTableRecord
100
AcDbRegAppTableRecord
  2
DRAWINGVARIABLESXDATA
 70
     0
  0
APPID
  5
64
330
9
100
AcDbSymbolTableRecord
100
AcDbRegAppTableRecord
  2
CONTENTTABDATA
 70
     0
  0
APPID
  5
65
330
9
100
AcDbSymbolTableRecord
100
AcDbRegAppTableRecord
  2
CONTENTCURRENTTAB
 70
     0
  0
APPID
  5
66
330
9
100
AcDbSymbolTableRecord
100
AcDbRegAppTableRecord
  2
CONTENTBLOCKDESCRIPTION
 70
     0
  0
APPID
  5
67
330
9
100
AcDbSymbolTableRecord
100
AcDbRegAppTableRecord
  2
CONTENTBLOCKICON
 70
     0
  0
APPID
  5
68
330
9
100
AcDbSymbolTableRecord
100
AcDbRegAppTableRecord
  2
CONTENTLONGBLOCKNAME
 70
     0
  0
APPID
  5
5A9
330
9
100
AcDbSymbolTableRecord
100
AcDbRegAppTableRecord
  2
ACAD_PSEXT
 70
     0
  0
APPID
  5
18AC
330
9
100
AcDbSymbolTableRecord
100
AcDbRegAppTableRecord
  2
ACAD_DSTYLE_DIMTEXT_FILL
 70
     0
  0
APPID
  5
15B9A
330
9
100
AcDbSymbolTableRecord
100
AcDbRegAppTableRecord
  2
ACAD_MLEADERVER
 70
     0
  0
APPID
  5
175EB
330
9
100
AcDbSymbolTableRecord
100
AcDbRegAppTableRecord
  2
ACAD_DSTYLE_DIMRADIAL_EXTE
 70
     0
  0
APPID
  5
17CB7
330
9
100
AcDbSymbolTableRecord
100
AcDbRegAppTableRecord
  2
ACADANNOTATIVE
 70
     0
  0
APPID
  5
244FC
330
9
100
AcDbSymbolTableRecord
100
AcDbRegAppTableRecord
  2
ACLAYERTOOLS
 70
     0
  0
APPID
  5
24F8E
330
9
100
AcDbSymbolTableRecord
100
AcDbRegAppTableRecord
  2
ACAD_EXEMPT_FROM_CAD_STAND
 70
     0
  0
ENDTAB
  0
TABLE
  2
DIMSTYLE
  5
A
330
0
100
AcDbSymbolTable
 70
     1
  0
DIMSTYLE
105
48
330
A
100
AcDbSymbolTableRecord
100
AcDbDimStyleTableRecord
  2
NEWX10
 70
     0
  3
 
  4

  5

  6
OPEN30
  7
OPEN30
 40
1.0
 41
2.0
 42
0.0
 43
7.0
 44
1.0
 45
0.0
 46
0.0
 47
0.0
 48
0.0
140
3.5
141
0.0
142
0.0
143
25.4
144
1.0
145
0.0
146
0.7
147
0.7
 71
     0
 72
     0
 73
     0
 74
     0
 75
     0
 76
     0
 77
     1
 78
     8
170
     0
171
     2
172
     1
173
     1
174
     0
175
     0
176
   256
177
   256
178
   201
179
     2
270
     2
271
     2
272
     4
273
     2
274
     2
340
F
275
     0
280
     0
281
     0
282
     0
283
     1
284
     8
285
     0
286
     0
287
     2
288
     0
  0
ENDTAB
  0
TABLE
  2
BLOCK_RECORD
  5
1
330
0
100
AcDbSymbolTable
 70
     1
  0
BLOCK_RECORD
  5
18
102
{ACAD_XDICTIONARY
360
6E9
102
}
330
1
100
AcDbSymbolTableRecord
100
AcDbBlockTableRecord
  2
*MODEL_SPACE
  0
BLOCK_RECORD
  5
15
102
{ACAD_XDICTIONARY
360
59B
102
}
330
1
100
AcDbSymbolTableRecord
100
AcDbBlockTableRecord
  2
*PAPER_SPACE
  0
BLOCK_RECORD
  5
42
330
1
100
AcDbSymbolTableRecord
100
AcDbBlockTableRecord
  2
_OPEN30
  0
ENDTAB
  0
ENDSEC
  0
SECTION
  2
BLOCKS
  0
BLOCK
  5
19
330
18
100
AcDbEntity
  8
0
100
AcDbBlockBegin
  2
*MODEL_SPACE
 70
     0
 10
0.0
 20
0.0
 30
0.0
  3
*MODEL_SPACE
  1

  0
ENDBLK
  5
1A
330
18
100
AcDbEntity
  8
0
100
AcDbBlockEnd
  0
BLOCK
  5
16
330
15
100
AcDbEntity
 67
     1
  8
0
100
AcDbBlockBegin
  2
*PAPER_SPACE
 70
     0
 10
0.0
 20
0.0
 30
0.0
  3
*PAPER_SPACE
  1

  0
ENDBLK
  5
17
330
15
100
AcDbEntity
 67
     1
  8
0
100
AcDbBlockEnd
  0
BLOCK
  5
43
330
42
100
AcDbEntity
  8
0
100
AcDbBlockBegin
  2
_OPEN30
 70
     0
 10
0.0
 20
0.0
 30
0.0
  3
_OPEN30
  1

  0
LINE
  5
44
330
42
100
AcDbEntity
  8
0
  6
BYBLOCK
 62
     0
100
AcDbLine
 10
-1.0
 20
0.26794919
 30
0.0
 11
0.0
 21
0.0
 31
0.0
  0
LINE
  5
45
330
42
100
AcDbEntity
  8
0
  6
BYBLOCK
 62
     0
100
AcDbLine
 10
0.0
 20
0.0
 30
0.0
 11
-1.0
 21
-0.26794919
 31
0.0
  0
LINE
  5
46
330
42
100
AcDbEntity
  8
0
  6
BYBLOCK
 62
     0
100
AcDbLine
 10
0.0
 20
0.0
 30
0.0
 11
-1.0
 21
0.0
 31
0.0
  0
ENDBLK
  5
47
330
42
100
AcDbEntity
  8
0
100
AcDbBlockEnd
  0
ENDSEC
  0
SECTION
  2
ENTITIES
  0
LINE
  5
22F13
330
18
100
AcDbEntity
  8
01
100
AcDbLine
 10
3575.646833361996
 20
-1911.833564434558
 30
0.0
 11
3575.646833361996
 21
-2339.833564434558
 31
0.0
  0
LINE
  5
22F14
330
18
100
AcDbEntity
  8
01
100
AcDbLine
 10
3574.646833361996
 20
-1910.833564434558
 30
0.0
 11
3575.646833361996
 21
-1911.833564434558
 31
0.0
  0
LINE
  5
22F15
330
18
100
AcDbEntity
  8
01
100
AcDbLine
 10
3570.646833361996
 20
-1911.833564434558
 30
0.0
 11
3570.646833361996
 21
-2339.833564434558
 31
0.0
  0
LINE
  5
22F16
330
18
100
AcDbEntity
  8
01
100
AcDbLine
 10
3571.646833361996
 20
-2340.833564434558
 30
0.0
 11
3570.646833361996
 21
-2339.833564434558
 31
0.0
  0
LINE
  5
22F17
330
18
100
AcDbEntity
  8
01
100
AcDbLine
 10
3571.646833361996
 20
-2340.833564434558
 30
0.0
 11
3574.646833361996
 21
-2340.833564434558
 31
0.0
  0
LINE
  5
22F18
330
18
100
AcDbEntity
  8
01
100
AcDbLine
 10
3575.646833361996
 20
-2339.833564434558
 30
0.0
 11
3574.646833361996
 21
-2340.833564434558
 31
0.0
  0
LINE
  5
22F19
330
18
100
AcDbEntity
  8
01
100
AcDbLine
 10
3571.646833361996
 20
-1910.833564434558
 30
0.0
 11
3574.646833361996
 21
-1910.833564434558
 31
0.0
  0
LINE
  5
22F1A
330
18
100
AcDbEntity
  8
01
100
AcDbLine
 10
3570.646833361996
 20
-1911.833564434558
 30
0.0
 11
3571.646833361996
 21
-1910.833564434558
 31
0.0
  0
LINE
  5
22F22
330
18
100
AcDbEntity
  8
01
100
AcDbLine
 10
3575.646833361996
 20
-2338.833564434559
 30
0.0
 11
3576.646833361996
 21
-2338.833564434559
 31
0.0
  0
LINE
  5
22F30
330
18
100
AcDbEntity
  8
01
100
AcDbLine
 10
3575.646833361996
 20
-1912.833564434558
 30
0.0
 11
3575.646833361996
 21
-2338.833564434559
 31
0.0
  0
LINE
  5
22F32
330
18
100
AcDbEntity
  8
01
100
AcDbLine
 10
3576.646833361996
 20
-1912.833564434558
 30
0.0
 11
3576.646833361996
 21
-2338.833564434559
 31
0.0
  0
LINE
  5
22F41
330
18
100
AcDbEntity
  8
01
100
AcDbLine
 10
3351.046833361996
 20
-2206.833564434559
 30
0.0
 11
3351.046833361996
 21
-2186.833564434559
 31
0.0
  0
LINE
  5
22F42
330
18
100
AcDbEntity
  8
01
100
AcDbLine
 10
3353.246833361996
 20
-2206.833564434559
 30
0.0
 11
3353.246833361995
 21
-2186.833564434559
 31
0.0
  0
LINE
  5
22F43
330
18
100
AcDbEntity
  8
01
100
AcDbLine
 10
3398.146833361996
 20
-2215.833564434559
 30
0.0
 11
3398.146833361996
 21
-2148.833564434559
 31
0.0
  0
ARC
  5
22F44
330
18
100
AcDbEntity
  8
01
100
AcDbCircle
 10
3397.646833361996
 20
-2215.833564434559
 30
0.0
 40
0.5
100
AcDbArc
 50
270.0
 51
0.0
  0
LINE
  5
22F45
330
18
100
AcDbEntity
  8
01
100
AcDbLine
 10
3358.146833361996
 20
-2215.833564434559
 30
0.0
 11
3358.146833361996
 21
-2148.833564434559
 31
0.0
  0
ARC
  5
22F46
330
18
100
AcDbEntity
  8
01
100
AcDbCircle
 10
3358.646833361996
 20
-2148.833564434559
 30
0.0
 40
0.5
100
AcDbArc
 50
90.0
 51
180.0
  0
LINE
  5
22F47
330
18
100
AcDbEntity
  8
01
100
AcDbLine
 10
3351.046833361996
 20
-2206.833564434559
 30
0.0
 11
3353.246833361996
 21
-2206.833564434559
 31
0.0
  0
LINE
  5
22F48
330
18
100
AcDbEntity
  8
01
100
AcDbLine
 10
3351.046833361996
 20
-2186.833564434559
 30
0.0
 11
3353.246833361995
 21
-2186.833564434559
 31
0.0
  0
LINE
  5
22F49
330
18
100
AcDbEntity
  8
01
100
AcDbLine
 10
3358.646833361996
 20
-2148.333564434559
 30
0.0
 11
3397.646833361996
 21
-2148.333564434559
 31
0.0
  0
ARC
  5
22F4A
330
18
100
AcDbEntity
  8
01
100
AcDbCircle
 10
3397.646833361996
 20
-2148.833564434559
 30
0.0
 40
0.5
100
AcDbArc
 50
0.0
 51
90.0
  0
LINE
  5
22F4B
330
18
100
AcDbEntity
  8
01
100
AcDbLine
 10
3358.646833361996
 20
-2216.333564434559
 30
0.0
 11
3397.646833361996
 21
-2216.333564434559
 31
0.0
  0
ARC
  5
22F4C
330
18
100
AcDbEntity
  8
01
100
AcDbCircle
 10
3358.646833361996
 20
-2215.833564434559
 30
0.0
 40
0.5
100
AcDbArc
 50
180.0
 51
270.0
  0
LINE
  5
22F4D
330
18
100
AcDbEntity
  8
01
100
AcDbLine
 10
3358.146833361996
 20
-2111.33356443456
 30
0.0
 11
3398.146833361996
 21
-2111.33356443456
 31
0.0
  0
LINE
  5
22F4E
330
18
100
AcDbEntity
  8
01
100
AcDbLine
 10
3358.146833361996
 20
-2115.33356443456
 30
0.0
 11
3398.146833361995
 21
-2115.33356443456
 31
0.0
  0
LINE
  5
22F4F
330
18
100
AcDbEntity
  8
01
100
AcDbLine
 10
3398.146833361996
 20
-2111.33356443456
 30
0.0
 11
3398.146833361995
 21
-2115.33356443456
 31
0.0
  0
LINE
  5
22F50
330
18
100
AcDbEntity
  8
01
100
AcDbLine
 10
3398.146833361995
 20
-2119.33356443456
 30
0.0
 11
3398.146833361995
 21
-2123.33356443456
 31
0.0
  0
LINE
  5
22F51
330
18
100
AcDbEntity
  8
01
100
AcDbLine
 10
3398.146833361995
 20
-2127.33356443456
 30
0.0
 11
3398.146833361995
 21
-2131.33356443456
 31
0.0
  0
LINE
  5
22F52
330
18
100
AcDbEntity
  8
01
100
AcDbLine
 10
3358.146833361996
 20
-2119.33356443456
 30
0.0
 11
3398.146833361995
 21
-2119.33356443456
 31
0.0
  0
LINE
  5
22F53
330
18
100
AcDbEntity
  8
01
100
AcDbLine
 10
3358.146833361996
 20
-2123.33356443456
 30
0.0
 11
3398.146833361995
 21
-2123.33356443456
 31
0.0
  0
LINE
  5
22F54
330
18
100
AcDbEntity
  8
01
100
AcDbLine
 10
3358.146833361996
 20
-2127.33356443456
 30
0.0
 11
3398.146833361995
 21
-2127.33356443456
 31
0.0
  0
LINE
  5
22F55
330
18
100
AcDbEntity
  8
01
100
AcDbLine
 10
3358.146833361996
 20
-2131.33356443456
 30
0.0
 11
3398.146833361995
 21
-2131.33356443456
 31
0.0
  0
LINE
  5
22F56
330
18
100
AcDbEntity
  8
01
100
AcDbLine
 10
3358.146833361996
 20
-2103.33356443456
 30
0.0
 11
3398.146833361996
 21
-2103.33356443456
 31
0.0
  0
LINE
  5
22F57
330
18
100
AcDbEntity
  8
01
100
AcDbLine
 10
3358.146833361996
 20
-2107.33356443456
 30
0.0
 11
3398.146833361996
 21
-2107.33356443456
 31
0.0
  0
LINE
  5
22F58
330
18
100
AcDbEntity
  8
01
100
AcDbLine
 10
3398.146833361996
 20
-2103.33356443456
 30
0.0
 11
3398.146833361995
 21
-2107.33356443456
 31
0.0
  0
LINE
  5
22F59
330
18
100
AcDbEntity
  8
01
100
AcDbLine
 10
3358.146833361996
 20
-2095.33356443456
 30
0.0
 11
3398.146833361996
 21
-2095.33356443456
 31
0.0
  0
LINE
  5
22F5A
330
18
100
AcDbEntity
  8
01
100
AcDbLine
 10
3358.146833361996
 20
-2099.33356443456
 30
0.0
 11
3398.146833361996
 21
-2099.33356443456
 31
0.0
  0
LINE
  5
22F5B
330
18
100
AcDbEntity
  8
01
100
AcDbLine
 10
3398.146833361996
 20
-2095.33356443456
 30
0.0
 11
3398.146833361996
 21
-2099.33356443456
 31
0.0
  0
LINE
  5
22F5C
330
18
100
AcDbEntity
  8
01
100
AcDbLine
 10
3358.146833361996
 20
-2131.33356443456
 30
0.0
 11
3358.146833361996
 21
-2127.33356443456
 31
0.0
  0
LINE
  5
22F5D
330
18
100
AcDbEntity
  8
01
100
AcDbLine
 10
3358.146833361996
 20
-2123.33356443456
 30
0.0
 11
3358.146833361996
 21
-2119.33356443456
 31
0.0
  0
LINE
  5
22F5E
330
18
100
AcDbEntity
  8
01
100
AcDbLine
 10
3358.146833361996
 20
-2115.33356443456
 30
0.0
 11
3358.146833361996
 21
-2111.33356443456
 31
0.0
  0
LINE
  5
22F5F
330
18
100
AcDbEntity
  8
01
100
AcDbLine
 10
3358.146833361996
 20
-2107.33356443456
 30
0.0
 11
3358.146833361996
 21
-2103.33356443456
 31
0.0
  0
LINE
  5
22F60
330
18
100
AcDbEntity
  8
01
100
AcDbLine
 10
3358.146833361996
 20
-2099.33356443456
 30
0.0
 11
3358.146833361996
 21
-2095.33356443456
 31
0.0
  0
LINE
  5
22F67
330
18
100
AcDbEntity
  8
01
100
AcDbLine
 10
3575.646833361996
 20
-1912.833564434558
 30
0.0
 11
3576.646833361996
 21
-1912.833564434558
 31
0.0
  0
LINE
  5
22FC8
330
18
100
AcDbEntity
  8
01
100
AcDbLine
 10
3305.646833361996
 20
-1915.833564434558
 30
0.0
 11
3305.646833361996
 21
-2335.833564434558
 31
0.0
  0
ARC
  5
22FC9
330
18
100
AcDbEntity
  8
01
100
AcDbCircle
 10
3310.646833361996
 20
-1915.833564434558
 30
0.0
 40
5.0
100
AcDbArc
 50
90.0
 51
180.0
  0
ARC
  5
22FCA
330
18
100
AcDbEntity
  8
01
100
AcDbCircle
 10
3310.646833361996
 20
-2335.833564434558
 30
0.0
 40
5.0
100
AcDbArc
 50
180.0
 51
270.0
  0
LINE
  5
22FCB
330
18
100
AcDbEntity
  8
01
100
AcDbLine
 10
3450.646833361996
 20
-1915.833564434558
 30
0.0
 11
3450.646833361996
 21
-2335.833564434558
 31
0.0
  0
LINE
  5
22FCC
330
18
100
AcDbEntity
  8
01
100
AcDbLine
 10
3310.646833361996
 20
-1910.833564434558
 30
0.0
 11
3445.646833361996
 21
-1910.833564434558
 31
0.0
  0
ARC
  5
22FCD
330
18
100
AcDbEntity
  8
01
100
AcDbCircle
 10
3445.646833361996
 20
-1915.833564434558
 30
0.0
 40
5.0
100
AcDbArc
 50
0.0
 51
90.0
  0
ARC
  5
22FCE
330
18
100
AcDbEntity
  8
01
100
AcDbCircle
 10
3445.646833361996
 20
-2335.833564434558
 30
0.0
 40
5.0
100
AcDbArc
 50
270.0
 51
0.0
  0
LINE
  5
22FCF
330
18
100
AcDbEntity
  8
01
100
AcDbLine
 10
3310.646833361996
 20
-2340.833564434558
 30
0.0
 11
3445.646833361996
 21
-2340.833564434558
 31
0.0
  0
LINE
  5
2300E
330
18
100
AcDbEntity
  8
01
100
AcDbLine
 10
3413.146833361996
 20
-2219.333564434558
 30
0.0
 11
3413.146833361996
 21
-2089.333564434558
 31
0.0
  0
ARC
  5
2300F
330
18
100
AcDbEntity
  8
01
100
AcDbCircle
 10
3408.146833361996
 20
-2219.333564434558
 30
0.0
 40
5.0
100
AcDbArc
 50
270.0
 51
0.0
  0
LINE
  5
23010
330
18
100
AcDbEntity
  8
01
100
AcDbLine
 10
3343.146833361996
 20
-2219.333564434558
 30
0.0
 11
3343.146833361996
 21
-2089.333564434558
 31
0.0
  0
ARC
  5
23011
330
18
100
AcDbEntity
  8
01
100
AcDbCircle
 10
3348.146833361996
 20
-2089.333564434558
 30
0.0
 40
5.0
100
AcDbArc
 50
90.0
 51
180.0
  0
LINE
  5
23012
330
18
100
AcDbEntity
  8
01
100
AcDbLine
 10
3348.146833361996
 20
-2084.333564434558
 30
0.0
 11
3408.146833361996
 21
-2084.333564434558
 31
0.0
  0
ARC
  5
23013
330
18
100
AcDbEntity
  8
01
100
AcDbCircle
 10
3408.146833361996
 20
-2089.333564434558
 30
0.0
 40
5.0
100
AcDbArc
 50
0.0
 51
90.0
  0
LINE
  5
23014
330
18
100
AcDbEntity
  8
01
100
AcDbLine
 10
3348.146833361996
 20
-2224.333564434558
 30
0.0
 11
3408.146833361996
 21
-2224.333564434558
 31
0.0
  0
ARC
  5
23015
330
18
100
AcDbEntity
  8
01
100
AcDbCircle
 10
3348.146833361996
 20
-2219.333564434558
 30
0.0
 40
5.0
100
AcDbArc
 50
180.0
 51
270.0
  0
LINE
  5
23085
330
18
100
AcDbEntity
  8
01
100
AcDbLine
 10
3428.146833361996
 20
-2003.833564434557
 30
0.0
 11
3428.146833361996
 21
-1973.833564434559
 31
0.0
  0
ARC
  5
23086
330
18
100
AcDbEntity
  8
01
100
AcDbCircle
 10
3423.146833361996
 20
-2003.833564434557
 30
0.0
 40
5.0
100
AcDbArc
 50
270.0
 51
0.0
  0
LINE
  5
23087
330
18
100
AcDbEntity
  8
01
100
AcDbLine
 10
3328.146833361996
 20
-2003.833564434557
 30
0.0
 11
3328.146833361996
 21
-1973.833564434559
 31
0.0
  0
ARC
  5
23088
330
18
100
AcDbEntity
  8
01
100
AcDbCircle
 10
3333.146833361996
 20
-2003.833564434557
 30
0.0
 40
5.0
100
AcDbArc
 50
180.0
 51
270.0
  0
LINE
  5
23089
330
18
100
AcDbEntity
  8
01
100
AcDbLine
 10
3333.146833361996
 20
-2008.833564434557
 30
0.0
 11
3423.146833361996
 21
-2008.833564434557
 31
0.0
  0
ARC
  5
2308A
330
18
100
AcDbEntity
  8
01
100
AcDbCircle
 10
3423.146833361996
 20
-1973.833564434559
 30
0.0
 40
5.0
100
AcDbArc
 50
0.0
 51
90.0
  0
LINE
  5
2308B
330
18
100
AcDbEntity
  8
01
100
AcDbLine
 10
3333.146833361996
 20
-1968.833564434558
 30
0.0
 11
3423.146833361996
 21
-1968.833564434557
 31
0.0
  0
ARC
  5
2308C
330
18
100
AcDbEntity
  8
01
100
AcDbCircle
 10
3333.146833361996
 20
-1973.833564434559
 30
0.0
 40
5.0
100
AcDbArc
 50
90.0
 51
180.0
  0
ARC
  5
237DB
330
18
100
AcDbEntity
  8
01
100
AcDbCircle
 10
3307.646833361996
 20
-1859.897446120774
 30
0.0
 40
1.0
100
AcDbArc
 50
180.0
 51
270.0
  0
LINE
  5
237FD
330
18
100
AcDbEntity
  8
01
100
AcDbLine
 10
3448.646833361996
 20
-1859.897446120774
 30
0.0
 11
3446.646833361997
 21
-1859.897446120774
 31
0.0
  0
LINE
  5
23829
330
18
100
AcDbEntity
  8
01
100
AcDbLine
 10
3307.646833361996
 20
-1859.897446120774
 30
0.0
 11
3309.646833361996
 21
-1859.897446120774
 31
0.0
  0
LINE
  5
2472F
330
18
100
AcDbEntity
  8
01
100
AcDbLine
 10
3329.646833361998
 20
-1857.901774441979
 30
0.0
 11
3426.646833361995
 21
-1857.901774441976
 31
0.0
  0
LINE
  5
24771
330
18
100
AcDbEntity
  8
01
100
AcDbLine
 10
3426.646833361996
 20
-1859.897446120771
 30
0.0
 11
3426.646833361995
 21
-1857.901774441976
 31
0.0
  0
LINE
  5
24773
330
18
100
AcDbEntity
  8
01
100
AcDbLine
 10
3329.646833361999
 20
-1859.897446120774
 30
0.0
 11
3329.646833361998
 21
-1857.901774441979
 31
0.0
  0
LINE
  5
2486D
330
18
100
AcDbEntity
  8
01
100
AcDbLine
 10
3306.646833361996
 20
-1861.897446120774
 30
0.0
 11
3449.646833361996
 21
-1861.897446120775
 31
0.0
  0
LINE
  5
2486E
330
18
100
AcDbEntity
  8
01
100
AcDbLine
 10
3446.646833361997
 20
-1861.897446120774
 30
0.0
 11
3446.646833361996
 21
-1859.897446120774
 31
0.0
  0
LINE
  5
24880
330
18
100
AcDbEntity
  8
01
100
AcDbLine
 10
3307.646833361996
 20
-1860.897446120774
 30
0.0
 11
3448.646833361996
 21
-1860.897446120774
 31
0.0
  0
LINE
  5
24881
330
18
100
AcDbEntity
  8
01
100
AcDbLine
 10
3441.646833361995
 20
-1857.897446120774
 30
0.0
 11
3444.646833361996
 21
-1857.897446120774
 31
0.0
  0
ARC
  5
24882
330
18
100
AcDbEntity
  8
01
100
AcDbCircle
 10
3444.646833361996
 20
-1859.897446120774
 30
0.0
 40
2.0
100
AcDbArc
 50
0.0
 51
90.0
  0
LINE
  5
2488A
330
18
100
AcDbEntity
  8
01
100
AcDbLine
 10
3444.146833361997
 20
-1857.897446120774
 30
0.0
 11
3444.146833361997
 21
-1855.897446120775
 31
0.0
  0
LINE
  5
2488B
330
18
100
AcDbEntity
  8
01
100
AcDbLine
 10
3443.146833361996
 20
-1857.897446120774
 30
0.0
 11
3443.146833361997
 21
-1855.897446120775
 31
0.0
  0
LINE
  5
2488C
330
18
100
AcDbEntity
  8
01
100
AcDbLine
 10
3444.146833361997
 20
-1855.897446120775
 30
0.0
 11
3443.146833361997
 21
-1855.897446120775
 31
0.0
  0
LINE
  5
2488D
330
18
100
AcDbEntity
  8
01
100
AcDbLine
 10
3312.146833361996
 20
-1857.897446120774
 30
0.0
 11
3312.146833361996
 21
-1855.897446120775
 31
0.0
  0
LINE
  5
2488E
330
18
100
AcDbEntity
  8
01
100
AcDbLine
 10
3312.146833361996
 20
-1855.897446120775
 30
0.0
 11
3313.146833361996
 21
-1855.897446120775
 31
0.0
  0
LINE
  5
24892
330
18
100
AcDbEntity
  8
01
100
AcDbLine
 10
3313.146833361996
 20
-1857.897446120774
 30
0.0
 11
3313.146833361996
 21
-1855.897446120775
 31
0.0
  0
LINE
  5
24893
330
18
100
AcDbEntity
  8
01
100
AcDbLine
 10
3415.146833361997
 20
-1858.397446120775
 30
0.0
 11
3399.146833361996
 21
-1858.397446120774
 31
0.0
  0
LINE
  5
24894
330
18
100
AcDbEntity
  8
01
100
AcDbLine
 10
3415.146833361997
 20
-1859.397446120775
 30
0.0
 11
3399.146833361996
 21
-1859.397446120774
 31
0.0
  0
LINE
  5
24895
330
18
100
AcDbEntity
  8
01
100
AcDbLine
 10
3398.146833361997
 20
-1858.397446120774
 30
0.0
 11
3358.146833361995
 21
-1858.397446120775
 31
0.0
  0
LINE
  5
24896
330
18
100
AcDbEntity
  8
01
100
AcDbLine
 10
3357.146833361995
 20
-1858.397446120775
 30
0.0
 11
3341.146833361995
 21
-1858.397446120775
 31
0.0
  0
LINE
  5
24897
330
18
100
AcDbEntity
  8
01
100
AcDbLine
 10
3357.146833361995
 20
-1859.397446120775
 30
0.0
 11
3341.146833361995
 21
-1859.397446120775
 31
0.0
  0
LINE
  5
24898
330
18
100
AcDbEntity
  8
01
100
AcDbLine
 10
3441.646833361996
 20
-1860.897446120774
 30
0.0
 11
3441.646833361995
 21
-1857.897446120774
 31
0.0
  0
LINE
  5
24899
330
18
100
AcDbEntity
  8
01
100
AcDbLine
 10
3309.646833361996
 20
-1861.897446120774
 30
0.0
 11
3309.646833361996
 21
-1859.897446120774
 31
0.0
  0
LINE
  5
2489A
330
18
100
AcDbEntity
  8
01
100
AcDbLine
 10
3314.646833361998
 20
-1857.897446120774
 30
0.0
 11
3311.646833361996
 21
-1857.897446120774
 31
0.0
  0
ARC
  5
2489B
330
18
100
AcDbEntity
  8
01
100
AcDbCircle
 10
3311.646833361996
 20
-1859.897446120774
 30
0.0
 40
2.0
100
AcDbArc
 50
90.0
 51
180.0
  0
LINE
  5
2489C
330
18
100
AcDbEntity
  8
01
100
AcDbLine
 10
3314.646833361997
 20
-1860.897446120774
 30
0.0
 11
3314.646833361998
 21
-1857.897446120774
 31
0.0
  0
LINE
  5
248A0
330
18
100
AcDbEntity
  8
01
100
AcDbLine
 10
3358.146833361995
 20
-1860.897446120774
 30
0.0
 11
3358.146833361995
 21
-1858.397446120774
 31
0.0
  0
LINE
  5
248A1
330
18
100
AcDbEntity
  8
01
100
AcDbLine
 10
3398.146833361997
 20
-1860.897446120774
 30
0.0
 11
3398.146833361997
 21
-1858.397446120774
 31
0.0
  0
LINE
  5
248A2
330
18
100
AcDbEntity
  8
01
100
AcDbLine
 10
3415.146833361996
 20
-1859.897446120772
 30
0.0
 11
3415.146833361997
 21
-1858.397446120774
 31
0.0
  0
LINE
  5
248A3
330
18
100
AcDbEntity
  8
01
100
AcDbLine
 10
3399.146833361996
 20
-1859.897446120772
 30
0.0
 11
3399.146833361997
 21
-1858.397446120774
 31
0.0
  0
LINE
  5
248A4
330
18
100
AcDbEntity
  8
01
100
AcDbLine
 10
3341.146833361995
 20
-1859.897446120773
 30
0.0
 11
3341.146833361995
 21
-1858.397446120774
 31
0.0
  0
LINE
  5
248A5
330
18
100
AcDbEntity
  8
01
100
AcDbLine
 10
3357.146833361996
 20
-1859.897446120773
 30
0.0
 11
3357.146833361995
 21
-1858.397446120774
 31
0.0
  0
LINE
  5
248CC
330
18
100
AcDbEntity
  8
01
100
AcDbLine
 10
3314.646833361997
 20
-1859.897446120774
 30
0.0
 11
3358.146833361995
 21
-1859.897446120773
 31
0.0
  0
LINE
  5
248CE
330
18
100
AcDbEntity
  8
01
100
AcDbLine
 10
3315.146833361997
 20
-1860.897446120774
 30
0.0
 11
3315.146833361997
 21
-1859.897446120774
 31
0.0
  0
LINE
  5
248CF
330
18
100
AcDbEntity
  8
01
100
AcDbLine
 10
3441.146833361996
 20
-1860.897446120774
 30
0.0
 11
3441.146833361996
 21
-1859.897446120771
 31
0.0
  0
LINE
  5
248D0
330
18
100
AcDbEntity
  8
01
100
AcDbLine
 10
3398.146833361997
 20
-1859.897446120772
 30
0.0
 11
3441.646833361996
 21
-1859.897446120771
 31
0.0
  0
LINE
  5
24F9E
330
18
100
AcDbEntity
  8
1DIM
100
AcDbLine
 10
3383.146833361996
 20
-2159.333564434558
 30
0.0
 11
3512.646833363863
 21
-2159.333564434558
 31
0.0
  0
LINE
  5
24FA0
330
18
100
AcDbEntity
  8
1DIM
100
AcDbLine
 10
3510.646833363863
 20
-2163.333564434558
 30
0.0
 11
3510.646833363863
 21
-2315.692719432859
 31
0.0
  0
LINE
  5
251C1
330
18
100
AcDbEntity
  8
01
100
AcDbLine
 10
3579.646833361997
 20
-2010.833564434559
 30
0.0
 11
3579.646833361997
 21
-2011.83356443456
 31
0.0
  0
LINE
  5
251C3
330
18
100
AcDbEntity
  8
01
100
AcDbLine
 10
3579.146833361996
 20
-2009.833564434557
 30
0.0
 11
3579.146833361996
 21
-2010.833564434559
 31
0.0
  0
LINE
  5
251C4
330
18
100
AcDbEntity
  8
01
100
AcDbLine
 10
3578.146833361996
 20
-2009.833564434557
 30
0.0
 11
3578.146833361996
 21
-2010.833564434559
 31
0.0
  0
LINE
  5
251F5
330
18
100
AcDbEntity
  8
01
100
AcDbLine
 10
3578.146833361996
 20
-2009.833564434557
 30
0.0
 11
3579.146833361996
 21
-2009.833564434557
 31
0.0
  0
LINE
  5
251F7
330
18
100
AcDbEntity
  8
01
100
AcDbLine
 10
3576.646833361997
 20
-2011.833564434559
 30
0.0
 11
3579.646833361997
 21
-2011.83356443456
 31
0.0
  0
LINE
  5
251F9
330
18
100
AcDbEntity
  8
01
100
AcDbLine
 10
3576.646833361997
 20
-2010.833564434559
 30
0.0
 11
3579.646833361997
 21
-2010.833564434559
 31
0.0
  0
LINE
  5
251FB
330
18
100
AcDbEntity
  8
01
100
AcDbLine
 10
3579.146833361996
 20
-1967.833564434559
 30
0.0
 11
3579.146833361996
 21
-1959.833564434558
 31
0.0
  0
LINE
  5
251FC
330
18
100
AcDbEntity
  8
01
100
AcDbLine
 10
3578.146833361996
 20
-1967.833564434559
 30
0.0
 11
3578.146833361996
 21
-1959.833564434558
 31
0.0
  0
LINE
  5
251FD
330
18
100
AcDbEntity
  8
01
100
AcDbLine
 10
3576.646833361996
 20
-1958.833564434558
 30
0.0
 11
3578.146833361996
 21
-1958.833564434558
 31
0.0
  0
ARC
  5
251FE
330
18
100
AcDbEntity
  8
01
100
AcDbCircle
 10
3578.146833361996
 20
-1959.833564434558
 30
0.0
 40
1.0
100
AcDbArc
 50
0.0
 51
90.0
  0
LINE
  5
251FF
330
18
100
AcDbEntity
  8
01
100
AcDbLine
 10
3576.646833361997
 20
-1959.833564434558
 30
0.0
 11
3578.146833361996
 21
-1959.833564434558
 31
0.0
  0
LINE
  5
25201
330
18
100
AcDbEntity
  8
01
100
AcDbLine
 10
3578.146833361996
 20
-1967.833564434559
 30
0.0
 11
3579.146833361996
 21
-1967.833564434559
 31
0.0
  0
LINE
  5
2530D
330
18
100
AcDbEntity
  8
01
100
AcDbLine
 10
3579.146833361996
 20
-2011.83356443456
 30
0.0
 11
3579.146833361996
 21
-2013.833564434557
 31
0.0
  0
LINE
  5
2530E
330
18
100
AcDbEntity
  8
01
100
AcDbLine
 10
3578.146833361996
 20
-2011.83356443456
 30
0.0
 11
3578.146833361996
 21
-2013.833564434557
 31
0.0
  0
LINE
  5
2539B
330
18
100
AcDbEntity
  8
1DIM
100
AcDbLine
 10
3669.763811875217
 20
-1837.027451073227
 30
0.0
 11
3669.763811875217
 21
-1893.027451073228
 31
0.0
  0
LINE
  5
2539D
330
18
100
AcDbEntity
  8
1DIM
100
AcDbLine
 10
3949.76381187522
 20
-1837.027451073226
 30
0.0
 11
3949.763811875218
 21
-1893.027451073228
 31
0.0
  0
TEXT
  5
253A6
330
18
100
AcDbEntity
  8
1TEXT
100
AcDbText
 10
3966.030478541887
 20
-1848.027451073226
 30
0.0
 40
8.0
  1
対応子機
 72
     1
 11
3984.56381187522
 21
-1848.027451073226
 31
0.0
100
AcDbText
  0
LINE
  5
253A7
330
18
100
AcDbEntity
  8
1DIM
100
AcDbLine
 10
4019.763811875221
 20
-1837.027451073225
 30
0.0
 11
4019.763811875219
 21
-1893.027451073228
 31
0.0
  0
TEXT
  5
253A8
330
18
100
AcDbEntity
  8
1TEXT
100
AcDbText
 10
3957.470478541888
 20
-1876.456165040526
 30
0.0
 40
8.0
  1
PR-NXU-「」
 41
0.8
 72
     1
 11
3984.563811875221
 21
-1876.456165040526
 31
0.0
100
AcDbText
  0
TEXT
  5
253A9
330
18
100
AcDbEntity
  8
1TEXT
100
AcDbText
 10
3966.163811875222
 20
-1862.456165040525
 30
0.0
 40
8.0
  1
アイホン
 72
     1
 11
3984.563811875222
 21
-1862.456165040525
 31
0.0
100
AcDbText
  0
LINE
  5
253AD
330
18
100
AcDbEntity
  8
01
100
AcDbLine
 10
3596.646833361996
 20
-2352.975266479033
 30
0.0
 11
3596.646833361996
 21
-1900.637922653742
 31
0.0
  0
LINE
  5
253AE
330
18
100
AcDbEntity
  8
01
100
AcDbLine
 10
3616.646833361996
 20
-2352.975266479033
 30
0.0
 11
3616.646833361996
 21
-1900.637922653742
 31
0.0
  0
LINE
  5
25414
102
{ACAD_REACTORS
330
2546C
102
}
330
18
100
AcDbEntity
  8
1PHANTOM
100
AcDbLine
 10
3611.764698948042
 20
-2263.333564434559
 30
0.0
 11
3612.764698948042
 21
-2268.333564434559
 31
0.0
  0
LINE
  5
25415
102
{ACAD_REACTORS
330
2546C
102
}
330
18
100
AcDbEntity
  8
1PHANTOM
100
AcDbLine
 10
3637.093186592544
 20
-2265.833564434559
 30
0.0
 11
3590.66388061185
 21
-2265.833564434559
 31
0.0
  0
LINE
  5
25417
102
{ACAD_REACTORS
330
2546C
102
}
330
18
100
AcDbEntity
  8
1PHANTOM
100
AcDbLine
 10
3629.801445559835
 20
-2263.517297493524
 30
0.0
 11
3629.651445559835
 21
-2264.267297493524
 31
0.0
  0
LINE
  5
25418
102
{ACAD_REACTORS
330
2546C
102
}
330
18
100
AcDbEntity
  8
1PHANTOM
100
AcDbLine
 10
3629.801445559835
 20
-2263.517297493524
 30
0.0
 11
3630.680826456053
 21
-2267.914201974614
 31
0.0
  0
LINE
  5
25419
102
{ACAD_REACTORS
330
2546C
102
}
330
18
100
AcDbEntity
  8
1PHANTOM
100
AcDbLine
 10
3634.627370285431
 20
-2266.146921121503
 30
0.0
 11
3634.477370285431
 21
-2266.896921121503
 31
0.0
  0
LINE
  5
2541A
102
{ACAD_REACTORS
330
2546C
102
}
330
18
100
AcDbEntity
  8
1PHANTOM
100
AcDbLine
 10
3634.027942867939
 20
-2264.649784034042
 30
0.0
 11
3633.877942867939
 21
-2265.399784034042
 31
0.0
  0
LINE
  5
2541B
102
{ACAD_REACTORS
330
2546C
102
}
330
18
100
AcDbEntity
  8
1PHANTOM
100
AcDbLine
 10
3634.027942867939
 20
-2264.649784034042
 30
0.0
 11
3634.477370285431
 21
-2266.896921121503
 31
0.0
  0
LINE
  5
2541C
102
{ACAD_REACTORS
330
2546C
102
}
330
18
100
AcDbEntity
  8
1PHANTOM
100
AcDbLine
 10
3630.830826456053
 20
-2267.164201974614
 30
0.0
 11
3630.680826456053
 21
-2267.914201974614
 31
0.0
  0
LINE
  5
2541D
102
{ACAD_REACTORS
330
2546C
102
}
330
18
100
AcDbEntity
  8
1PHANTOM
100
AcDbLine
 10
3632.729098370742
 20
-2266.655561548059
 30
0.0
 11
3632.579098370742
 21
-2267.405561548059
 31
0.0
  0
LINE
  5
2541E
102
{ACAD_REACTORS
330
2546C
102
}
330
18
100
AcDbEntity
  8
1PHANTOM
100
AcDbLine
 10
3631.914694213887
 20
-2264.083540763783
 30
0.0
 11
3631.764694213887
 21
-2264.833540763783
 31
0.0
  0
LINE
  5
2541F
102
{ACAD_REACTORS
330
2546C
102
}
330
18
100
AcDbEntity
  8
1PHANTOM
100
AcDbLine
 10
3631.914694213887
 20
-2264.083540763783
 30
0.0
 11
3632.579098370742
 21
-2267.405561548059
 31
0.0
  0
LINE
  5
25420
102
{ACAD_REACTORS
330
2546C
102
}
330
18
100
AcDbEntity
  8
1PHANTOM
100
AcDbLine
 10
3620.914698948042
 20
-2267.583564434559
 30
0.0
 11
3620.764698948042
 21
-2268.333564434559
 31
0.0
  0
LINE
  5
25421
102
{ACAD_REACTORS
330
2546C
102
}
330
18
100
AcDbEntity
  8
1PHANTOM
100
AcDbLine
 10
3623.764698948042
 20
-2263.333564434559
 30
0.0
 11
3623.614698948042
 21
-2264.083564434559
 31
0.0
  0
LINE
  5
25422
102
{ACAD_REACTORS
330
2546C
102
}
330
18
100
AcDbEntity
  8
1PHANTOM
100
AcDbLine
 10
3621.764698948042
 20
-2263.333564434559
 30
0.0
 11
3621.614698948042
 21
-2264.083564434559
 31
0.0
  0
LINE
  5
25423
102
{ACAD_REACTORS
330
2546C
102
}
330
18
100
AcDbEntity
  8
1PHANTOM
100
AcDbLine
 10
3621.764698948042
 20
-2263.333564434559
 30
0.0
 11
3622.764698948042
 21
-2268.333564434559
 31
0.0
  0
LINE
  5
25424
102
{ACAD_REACTORS
330
2546C
102
}
330
18
100
AcDbEntity
  8
1PHANTOM
100
AcDbLine
 10
3625.764698948042
 20
-2263.333564434559
 30
0.0
 11
3625.614698948042
 21
-2264.083564434559
 31
0.0
  0
LINE
  5
25425
102
{ACAD_REACTORS
330
2546C
102
}
330
18
100
AcDbEntity
  8
1PHANTOM
100
AcDbLine
 10
3627.764698948042
 20
-2263.333564434559
 30
0.0
 11
3627.614698948042
 21
-2264.083564434559
 31
0.0
  0
LINE
  5
25426
102
{ACAD_REACTORS
330
2546C
102
}
330
18
100
AcDbEntity
  8
1PHANTOM
100
AcDbLine
 10
3627.764698948042
 20
-2263.333564434559
 30
0.0
 11
3628.764698948042
 21
-2268.333564434559
 31
0.0
  0
LINE
  5
25427
102
{ACAD_REACTORS
330
2546C
102
}
330
18
100
AcDbEntity
  8
1PHANTOM
100
AcDbLine
 10
3625.764698948042
 20
-2263.333564434559
 30
0.0
 11
3626.764698948042
 21
-2268.333564434559
 31
0.0
  0
LINE
  5
25428
102
{ACAD_REACTORS
330
2546C
102
}
330
18
100
AcDbEntity
  8
1PHANTOM
100
AcDbLine
 10
3623.764698948042
 20
-2263.333564434559
 30
0.0
 11
3624.764698948042
 21
-2268.333564434559
 31
0.0
  0
LINE
  5
25429
102
{ACAD_REACTORS
330
2546C
102
}
330
18
100
AcDbEntity
  8
1PHANTOM
100
AcDbLine
 10
3628.914698948042
 20
-2267.583564434559
 30
0.0
 11
3628.764698948042
 21
-2268.333564434559
 31
0.0
  0
LINE
  5
2542A
102
{ACAD_REACTORS
330
2546C
102
}
330
18
100
AcDbEntity
  8
1PHANTOM
100
AcDbLine
 10
3626.914698948042
 20
-2267.583564434559
 30
0.0
 11
3626.764698948042
 21
-2268.333564434559
 31
0.0
  0
LINE
  5
2542B
102
{ACAD_REACTORS
330
2546C
102
}
330
18
100
AcDbEntity
  8
1PHANTOM
100
AcDbLine
 10
3622.914698948042
 20
-2267.583564434559
 30
0.0
 11
3622.764698948042
 21
-2268.333564434559
 31
0.0
  0
LINE
  5
2542C
102
{ACAD_REACTORS
330
2546C
102
}
330
18
100
AcDbEntity
  8
1PHANTOM
100
AcDbLine
 10
3624.914698948042
 20
-2267.583564434559
 30
0.0
 11
3624.764698948042
 21
-2268.333564434559
 31
0.0
  0
LINE
  5
2542D
102
{ACAD_REACTORS
330
2546C
102
}
330
18
100
AcDbEntity
  8
1PHANTOM
100
AcDbLine
 10
3617.764698948042
 20
-2263.333564434559
 30
0.0
 11
3617.614698948042
 21
-2264.083564434559
 31
0.0
  0
LINE
  5
2542E
102
{ACAD_REACTORS
330
2546C
102
}
330
18
100
AcDbEntity
  8
1PHANTOM
100
AcDbLine
 10
3619.764698948042
 20
-2263.333564434559
 30
0.0
 11
3619.614698948042
 21
-2264.083564434559
 31
0.0
  0
LINE
  5
2542F
102
{ACAD_REACTORS
330
2546C
102
}
330
18
100
AcDbEntity
  8
1PHANTOM
100
AcDbLine
 10
3613.764698948042
 20
-2263.333564434559
 30
0.0
 11
3613.614698948042
 21
-2264.083564434559
 31
0.0
  0
LINE
  5
25430
102
{ACAD_REACTORS
330
2546C
102
}
330
18
100
AcDbEntity
  8
1PHANTOM
100
AcDbLine
 10
3615.764698948042
 20
-2263.333564434559
 30
0.0
 11
3615.614698948042
 21
-2264.083564434559
 31
0.0
  0
LINE
  5
25431
102
{ACAD_REACTORS
330
2546C
102
}
330
18
100
AcDbEntity
  8
1PHANTOM
100
AcDbLine
 10
3619.764698948042
 20
-2263.333564434559
 30
0.0
 11
3620.764698948042
 21
-2268.333564434559
 31
0.0
  0
LINE
  5
25432
102
{ACAD_REACTORS
330
2546C
102
}
330
18
100
AcDbEntity
  8
1PHANTOM
100
AcDbLine
 10
3617.764698948042
 20
-2263.333564434559
 30
0.0
 11
3618.764698948042
 21
-2268.333564434559
 31
0.0
  0
LINE
  5
25433
102
{ACAD_REACTORS
330
2546C
102
}
330
18
100
AcDbEntity
  8
1PHANTOM
100
AcDbLine
 10
3615.764698948042
 20
-2263.333564434559
 30
0.0
 11
3616.764698948042
 21
-2268.333564434559
 31
0.0
  0
LINE
  5
25434
102
{ACAD_REACTORS
330
2546C
102
}
330
18
100
AcDbEntity
  8
1PHANTOM
100
AcDbLine
 10
3613.764698948042
 20
-2263.333564434559
 30
0.0
 11
3614.764698948042
 21
-2268.333564434559
 31
0.0
  0
LINE
  5
25435
102
{ACAD_REACTORS
330
2546C
102
}
330
18
100
AcDbEntity
  8
1PHANTOM
100
AcDbLine
 10
3616.914698948042
 20
-2267.583564434559
 30
0.0
 11
3616.764698948042
 21
-2268.333564434559
 31
0.0
  0
LINE
  5
25436
102
{ACAD_REACTORS
330
2546C
102
}
330
18
100
AcDbEntity
  8
1PHANTOM
100
AcDbLine
 10
3618.914698948042
 20
-2267.583564434559
 30
0.0
 11
3618.764698948042
 21
-2268.333564434559
 31
0.0
  0
LINE
  5
25437
102
{ACAD_REACTORS
330
2546C
102
}
330
18
100
AcDbEntity
  8
1PHANTOM
100
AcDbLine
 10
3612.914698948042
 20
-2267.583564434559
 30
0.0
 11
3612.764698948042
 21
-2268.333564434559
 31
0.0
  0
LINE
  5
25438
102
{ACAD_REACTORS
330
2546C
102
}
330
18
100
AcDbEntity
  8
1PHANTOM
100
AcDbLine
 10
3614.914698948042
 20
-2267.583564434559
 30
0.0
 11
3614.764698948042
 21
-2268.333564434559
 31
0.0
  0
LINE
  5
25439
102
{ACAD_REACTORS
330
2546C
102
}
330
18
100
AcDbEntity
  8
1PHANTOM
100
AcDbLine
 10
3595.764698948042
 20
-2263.333564434559
 30
0.0
 11
3596.764698948042
 21
-2268.333564434559
 31
0.0
  0
LINE
  5
2543A
102
{ACAD_REACTORS
330
2546C
102
}
330
18
100
AcDbEntity
  8
1PHANTOM
100
AcDbLine
 10
3603.764698948042
 20
-2263.333564434559
 30
0.0
 11
3604.764698948042
 21
-2268.333564434559
 31
0.0
  0
LINE
  5
2543B
102
{ACAD_REACTORS
330
2546C
102
}
330
18
100
AcDbEntity
  8
1PHANTOM
100
AcDbLine
 10
3611.764698948042
 20
-2263.333564434559
 30
0.0
 11
3611.614698948042
 21
-2264.083564434559
 31
0.0
  0
LINE
  5
2543C
102
{ACAD_REACTORS
330
2546C
102
}
330
18
100
AcDbEntity
  8
1PHANTOM
100
AcDbLine
 10
3609.764698948042
 20
-2263.333564434559
 30
0.0
 11
3609.614698948042
 21
-2264.083564434559
 31
0.0
  0
LINE
  5
2543D
102
{ACAD_REACTORS
330
2546C
102
}
330
18
100
AcDbEntity
  8
1PHANTOM
100
AcDbLine
 10
3607.764698948042
 20
-2263.333564434559
 30
0.0
 11
3607.614698948042
 21
-2264.083564434559
 31
0.0
  0
LINE
  5
2543E
102
{ACAD_REACTORS
330
2546C
102
}
330
18
100
AcDbEntity
  8
1PHANTOM
100
AcDbLine
 10
3605.764698948042
 20
-2263.333564434559
 30
0.0
 11
3605.614698948042
 21
-2264.083564434559
 31
0.0
  0
LINE
  5
2543F
102
{ACAD_REACTORS
330
2546C
102
}
330
18
100
AcDbEntity
  8
1PHANTOM
100
AcDbLine
 10
3609.764698948042
 20
-2263.333564434559
 30
0.0
 11
3610.764698948042
 21
-2268.333564434559
 31
0.0
  0
LINE
  5
25440
102
{ACAD_REACTORS
330
2546C
102
}
330
18
100
AcDbEntity
  8
1PHANTOM
100
AcDbLine
 10
3607.764698948042
 20
-2263.333564434559
 30
0.0
 11
3608.764698948042
 21
-2268.333564434559
 31
0.0
  0
LINE
  5
25441
102
{ACAD_REACTORS
330
2546C
102
}
330
18
100
AcDbEntity
  8
1PHANTOM
100
AcDbLine
 10
3605.764698948042
 20
-2263.333564434559
 30
0.0
 11
3606.764698948042
 21
-2268.333564434559
 31
0.0
  0
LINE
  5
25442
102
{ACAD_REACTORS
330
2546C
102
}
330
18
100
AcDbEntity
  8
1PHANTOM
100
AcDbLine
 10
3610.914698948042
 20
-2267.583564434559
 30
0.0
 11
3610.764698948042
 21
-2268.333564434559
 31
0.0
  0
LINE
  5
25443
102
{ACAD_REACTORS
330
2546C
102
}
330
18
100
AcDbEntity
  8
1PHANTOM
100
AcDbLine
 10
3608.914698948042
 20
-2267.583564434559
 30
0.0
 11
3608.764698948042
 21
-2268.333564434559
 31
0.0
  0
LINE
  5
25444
102
{ACAD_REACTORS
330
2546C
102
}
330
18
100
AcDbEntity
  8
1PHANTOM
100
AcDbLine
 10
3606.914698948042
 20
-2267.583564434559
 30
0.0
 11
3606.764698948042
 21
-2268.333564434559
 31
0.0
  0
LINE
  5
25445
102
{ACAD_REACTORS
330
2546C
102
}
330
18
100
AcDbEntity
  8
1PHANTOM
100
AcDbLine
 10
3604.914698948042
 20
-2267.583564434559
 30
0.0
 11
3604.764698948042
 21
-2268.333564434559
 31
0.0
  0
LINE
  5
25446
102
{ACAD_REACTORS
330
2546C
102
}
330
18
100
AcDbEntity
  8
1PHANTOM
100
AcDbLine
 10
3599.764698948042
 20
-2263.333564434559
 30
0.0
 11
3599.614698948042
 21
-2264.083564434559
 31
0.0
  0
LINE
  5
25447
102
{ACAD_REACTORS
330
2546C
102
}
330
18
100
AcDbEntity
  8
1PHANTOM
100
AcDbLine
 10
3601.764698948042
 20
-2263.333564434559
 30
0.0
 11
3601.614698948042
 21
-2264.083564434559
 31
0.0
  0
LINE
  5
25448
102
{ACAD_REACTORS
330
2546C
102
}
330
18
100
AcDbEntity
  8
1PHANTOM
100
AcDbLine
 10
3603.764698948042
 20
-2263.333564434559
 30
0.0
 11
3603.614698948042
 21
-2264.083564434559
 31
0.0
  0
LINE
  5
25449
102
{ACAD_REACTORS
330
2546C
102
}
330
18
100
AcDbEntity
  8
1PHANTOM
100
AcDbLine
 10
3597.764698948042
 20
-2263.333564434559
 30
0.0
 11
3597.614698948042
 21
-2264.083564434559
 31
0.0
  0
LINE
  5
2544A
102
{ACAD_REACTORS
330
2546C
102
}
330
18
100
AcDbEntity
  8
1PHANTOM
100
AcDbLine
 10
3601.764698948042
 20
-2263.333564434559
 30
0.0
 11
3602.764698948042
 21
-2268.333564434559
 31
0.0
  0
LINE
  5
2544B
102
{ACAD_REACTORS
330
2546C
102
}
330
18
100
AcDbEntity
  8
1PHANTOM
100
AcDbLine
 10
3599.764698948042
 20
-2263.333564434559
 30
0.0
 11
3600.764698948042
 21
-2268.333564434559
 31
0.0
  0
LINE
  5
2544C
102
{ACAD_REACTORS
330
2546C
102
}
330
18
100
AcDbEntity
  8
1PHANTOM
100
AcDbLine
 10
3597.764698948042
 20
-2263.333564434559
 30
0.0
 11
3598.764698948042
 21
-2268.333564434559
 31
0.0
  0
LINE
  5
2544D
102
{ACAD_REACTORS
330
2546C
102
}
330
18
100
AcDbEntity
  8
1PHANTOM
100
AcDbLine
 10
3600.914698948042
 20
-2267.583564434559
 30
0.0
 11
3600.764698948042
 21
-2268.333564434559
 31
0.0
  0
LINE
  5
2544E
102
{ACAD_REACTORS
330
2546C
102
}
330
18
100
AcDbEntity
  8
1PHANTOM
100
AcDbLine
 10
3602.914698948042
 20
-2267.583564434559
 30
0.0
 11
3602.764698948042
 21
-2268.333564434559
 31
0.0
  0
LINE
  5
2544F
102
{ACAD_REACTORS
330
2546C
102
}
330
18
100
AcDbEntity
  8
1PHANTOM
100
AcDbLine
 10
3598.914698948042
 20
-2267.583564434559
 30
0.0
 11
3598.764698948042
 21
-2268.333564434559
 31
0.0
  0
LINE
  5
25450
102
{ACAD_REACTORS
330
2546C
102
}
330
18
100
AcDbEntity
  8
1PHANTOM
100
AcDbLine
 10
3596.914698948042
 20
-2267.583564434559
 30
0.0
 11
3596.764698948042
 21
-2268.333564434559
 31
0.0
  0
LINE
  5
25451
102
{ACAD_REACTORS
330
2546C
102
}
330
18
100
AcDbEntity
  8
1PHANTOM
100
AcDbLine
 10
3595.764698948042
 20
-2263.333564434559
 30
0.0
 11
3595.614698948042
 21
-2264.083564434559
 31
0.0
  0
LINE
  5
25452
102
{ACAD_REACTORS
330
2546C
102
}
330
18
100
AcDbEntity
  8
1PHANTOM
100
AcDbLine
 10
3595.646833361996
 20
-2270.583564434559
 30
0.0
 11
3595.646833361996
 21
-2261.083564434559
 31
0.0
  0
LINE
  5
2545D
102
{ACAD_REACTORS
330
2546C
102
}
330
18
100
AcDbEntity
  8
1PHANTOM
100
AcDbLine
 10
3629.115744448751
 20
-2264.083564434559
 30
0.0
 11
3595.646833361996
 21
-2264.083564434559
 31
0.0
  0
LINE
  5
2545F
102
{ACAD_REACTORS
330
2546C
102
}
330
18
100
AcDbEntity
  8
1PHANTOM
100
AcDbLine
 10
3635.646833361996
 20
-2265.833564434559
 30
0.0
 11
3629.115744448751
 21
-2264.083564434559
 31
0.0
  0
LINE
  5
25461
102
{ACAD_REACTORS
330
2546C
102
}
330
18
100
AcDbEntity
  8
1PHANTOM
100
AcDbLine
 10
3635.646833361996
 20
-2265.833564434559
 30
0.0
 11
3629.115744448751
 21
-2267.583564434559
 31
0.0
  0
LINE
  5
25463
102
{ACAD_REACTORS
330
2546C
102
}
330
18
100
AcDbEntity
  8
1PHANTOM
100
AcDbLine
 10
3629.115744448751
 20
-2267.583564434559
 30
0.0
 11
3595.646833361996
 21
-2267.583564434559
 31
0.0
  0
ARC
  5
25468
102
{ACAD_REACTORS
330
2546C
102
}
330
18
100
AcDbEntity
  8
1PHANTOM
100
AcDbCircle
 10
3601.41766669533
 20
-2265.833564434559
 30
0.0
 40
8.270833333333439
100
AcDbArc
 50
144.9488632525304
 51
215.0511367474696
  0
LINE
  5
25469
102
{ACAD_REACTORS
330
2546C
102
}
330
18
100
AcDbEntity
  8
1PHANTOM
100
AcDbLine
 10
3595.646833361996
 20
-2270.583564434559
 30
0.0
 11
3594.646833361996
 21
-2270.583564434559
 31
0.0
  0
LINE
  5
2546A
102
{ACAD_REACTORS
330
2546C
102
}
330
18
100
AcDbEntity
  8
1PHANTOM
100
AcDbLine
 10
3595.646833361996
 20
-2261.083564434559
 30
0.0
 11
3594.646833361996
 21
-2261.083564434559
 31
0.0
  0
LINE
  5
2546B
102
{ACAD_REACTORS
330
2546C
102
}
330
18
100
AcDbEntity
  8
1PHANTOM
100
AcDbLine
 10
3594.646833361996
 20
-2270.366627614225
 30
0.0
 11
3594.646833361996
 21
-2261.328196649753
 31
0.0
  0
LINE
  5
2546D
102
{ACAD_REACTORS
330
254B3
102
}
330
18
100
AcDbEntity
  8
1PHANTOM
100
AcDbLine
 10
3433.146833361996
 20
-1825.779580534729
 30
0.0
 11
3438.146833361996
 21
-1824.779580534729
 31
0.0
  0
LINE
  5
2546E
102
{ACAD_REACTORS
330
254B3
102
}
330
18
100
AcDbEntity
  8
1PHANTOM
100
AcDbLine
 10
3435.646833361996
 20
-1800.451092890227
 30
0.0
 11
3435.646833361996
 21
-1846.880398870921
 31
0.0
  0
LINE
  5
2546F
102
{ACAD_REACTORS
330
254B3
102
}
330
18
100
AcDbEntity
  8
1PHANTOM
100
AcDbLine
 10
3433.896833361996
 20
-1808.42853503402
 30
0.0
 11
3433.896833361996
 21
-1841.897446120775
 31
0.0
  0
LINE
  5
25470
102
{ACAD_REACTORS
330
254B3
102
}
330
18
100
AcDbEntity
  8
1PHANTOM
100
AcDbLine
 10
3435.646833361996
 20
-1801.897446120775
 30
0.0
 11
3433.896833361996
 21
-1808.42853503402
 31
0.0
  0
LINE
  5
25471
102
{ACAD_REACTORS
330
254B3
102
}
330
18
100
AcDbEntity
  8
1PHANTOM
100
AcDbLine
 10
3435.646833361996
 20
-1801.897446120775
 30
0.0
 11
3437.396833361996
 21
-1808.42853503402
 31
0.0
  0
LINE
  5
25472
102
{ACAD_REACTORS
330
254B3
102
}
330
18
100
AcDbEntity
  8
1PHANTOM
100
AcDbLine
 10
3437.396833361996
 20
-1808.42853503402
 30
0.0
 11
3437.396833361996
 21
-1841.897446120775
 31
0.0
  0
LINE
  5
25473
102
{ACAD_REACTORS
330
254B3
102
}
330
18
100
AcDbEntity
  8
1PHANTOM
100
AcDbLine
 10
3433.330566420961
 20
-1807.742833922936
 30
0.0
 11
3434.080566420961
 21
-1807.892833922936
 31
0.0
  0
LINE
  5
25474
102
{ACAD_REACTORS
330
254B3
102
}
330
18
100
AcDbEntity
  8
1PHANTOM
100
AcDbLine
 10
3433.330566420961
 20
-1807.742833922936
 30
0.0
 11
3437.727470902051
 21
-1806.863453026718
 31
0.0
  0
LINE
  5
25475
102
{ACAD_REACTORS
330
254B3
102
}
330
18
100
AcDbEntity
  8
1PHANTOM
100
AcDbLine
 10
3435.96019004894
 20
-1802.91690919734
 30
0.0
 11
3436.71019004894
 21
-1803.06690919734
 31
0.0
  0
LINE
  5
25476
102
{ACAD_REACTORS
330
254B3
102
}
330
18
100
AcDbEntity
  8
1PHANTOM
100
AcDbLine
 10
3434.463052961479
 20
-1803.516336614832
 30
0.0
 11
3435.213052961479
 21
-1803.666336614833
 31
0.0
  0
LINE
  5
25477
102
{ACAD_REACTORS
330
254B3
102
}
330
18
100
AcDbEntity
  8
1PHANTOM
100
AcDbLine
 10
3434.463052961479
 20
-1803.516336614832
 30
0.0
 11
3436.71019004894
 21
-1803.06690919734
 31
0.0
  0
LINE
  5
25478
102
{ACAD_REACTORS
330
254B3
102
}
330
18
100
AcDbEntity
  8
1PHANTOM
100
AcDbLine
 10
3436.977470902051
 20
-1806.713453026718
 30
0.0
 11
3437.727470902051
 21
-1806.863453026718
 31
0.0
  0
LINE
  5
25479
102
{ACAD_REACTORS
330
254B3
102
}
330
18
100
AcDbEntity
  8
1PHANTOM
100
AcDbLine
 10
3436.468830475496
 20
-1804.815181112029
 30
0.0
 11
3437.218830475496
 21
-1804.965181112029
 31
0.0
  0
LINE
  5
2547A
102
{ACAD_REACTORS
330
254B3
102
}
330
18
100
AcDbEntity
  8
1PHANTOM
100
AcDbLine
 10
3433.89680969122
 20
-1805.629585268884
 30
0.0
 11
3434.64680969122
 21
-1805.779585268884
 31
0.0
  0
LINE
  5
2547B
102
{ACAD_REACTORS
330
254B3
102
}
330
18
100
AcDbEntity
  8
1PHANTOM
100
AcDbLine
 10
3433.89680969122
 20
-1805.629585268884
 30
0.0
 11
3437.218830475496
 21
-1804.965181112029
 31
0.0
  0
LINE
  5
2547C
102
{ACAD_REACTORS
330
254B3
102
}
330
18
100
AcDbEntity
  8
1PHANTOM
100
AcDbLine
 10
3437.396833361996
 20
-1816.629580534729
 30
0.0
 11
3438.146833361996
 21
-1816.779580534729
 31
0.0
  0
LINE
  5
2547D
102
{ACAD_REACTORS
330
254B3
102
}
330
18
100
AcDbEntity
  8
1PHANTOM
100
AcDbLine
 10
3433.146833361996
 20
-1813.779580534729
 30
0.0
 11
3433.896833361996
 21
-1813.929580534729
 31
0.0
  0
LINE
  5
2547E
102
{ACAD_REACTORS
330
254B3
102
}
330
18
100
AcDbEntity
  8
1PHANTOM
100
AcDbLine
 10
3433.146833361996
 20
-1815.779580534729
 30
0.0
 11
3433.896833361996
 21
-1815.929580534729
 31
0.0
  0
LINE
  5
2547F
102
{ACAD_REACTORS
330
254B3
102
}
330
18
100
AcDbEntity
  8
1PHANTOM
100
AcDbLine
 10
3433.146833361996
 20
-1815.779580534729
 30
0.0
 11
3438.146833361996
 21
-1814.779580534729
 31
0.0
  0
LINE
  5
25480
102
{ACAD_REACTORS
330
254B3
102
}
330
18
100
AcDbEntity
  8
1PHANTOM
100
AcDbLine
 10
3433.146833361996
 20
-1811.779580534729
 30
0.0
 11
3433.896833361996
 21
-1811.929580534729
 31
0.0
  0
LINE
  5
25481
102
{ACAD_REACTORS
330
254B3
102
}
330
18
100
AcDbEntity
  8
1PHANTOM
100
AcDbLine
 10
3433.146833361996
 20
-1809.779580534729
 30
0.0
 11
3433.896833361996
 21
-1809.929580534729
 31
0.0
  0
LINE
  5
25482
102
{ACAD_REACTORS
330
254B3
102
}
330
18
100
AcDbEntity
  8
1PHANTOM
100
AcDbLine
 10
3433.146833361996
 20
-1809.779580534729
 30
0.0
 11
3438.146833361996
 21
-1808.779580534729
 31
0.0
  0
LINE
  5
25483
102
{ACAD_REACTORS
330
254B3
102
}
330
18
100
AcDbEntity
  8
1PHANTOM
100
AcDbLine
 10
3433.146833361996
 20
-1811.779580534729
 30
0.0
 11
3438.146833361996
 21
-1810.779580534729
 31
0.0
  0
LINE
  5
25484
102
{ACAD_REACTORS
330
254B3
102
}
330
18
100
AcDbEntity
  8
1PHANTOM
100
AcDbLine
 10
3433.146833361996
 20
-1813.779580534729
 30
0.0
 11
3438.146833361996
 21
-1812.779580534729
 31
0.0
  0
LINE
  5
25485
102
{ACAD_REACTORS
330
254B3
102
}
330
18
100
AcDbEntity
  8
1PHANTOM
100
AcDbLine
 10
3437.396833361996
 20
-1808.629580534729
 30
0.0
 11
3438.146833361996
 21
-1808.779580534729
 31
0.0
  0
LINE
  5
25486
102
{ACAD_REACTORS
330
254B3
102
}
330
18
100
AcDbEntity
  8
1PHANTOM
100
AcDbLine
 10
3437.396833361996
 20
-1810.629580534729
 30
0.0
 11
3438.146833361996
 21
-1810.779580534729
 31
0.0
  0
LINE
  5
25487
102
{ACAD_REACTORS
330
254B3
102
}
330
18
100
AcDbEntity
  8
1PHANTOM
100
AcDbLine
 10
3437.396833361996
 20
-1814.629580534729
 30
0.0
 11
3438.146833361996
 21
-1814.779580534729
 31
0.0
  0
LINE
  5
25488
102
{ACAD_REACTORS
330
254B3
102
}
330
18
100
AcDbEntity
  8
1PHANTOM
100
AcDbLine
 10
3437.396833361996
 20
-1812.629580534729
 30
0.0
 11
3438.146833361996
 21
-1812.779580534729
 31
0.0
  0
LINE
  5
25489
102
{ACAD_REACTORS
330
254B3
102
}
330
18
100
AcDbEntity
  8
1PHANTOM
100
AcDbLine
 10
3433.146833361996
 20
-1819.779580534729
 30
0.0
 11
3433.896833361996
 21
-1819.929580534729
 31
0.0
  0
LINE
  5
2548A
102
{ACAD_REACTORS
330
254B3
102
}
330
18
100
AcDbEntity
  8
1PHANTOM
100
AcDbLine
 10
3433.146833361996
 20
-1817.779580534729
 30
0.0
 11
3433.896833361996
 21
-1817.929580534729
 31
0.0
  0
LINE
  5
2548B
102
{ACAD_REACTORS
330
254B3
102
}
330
18
100
AcDbEntity
  8
1PHANTOM
100
AcDbLine
 10
3433.146833361996
 20
-1823.779580534729
 30
0.0
 11
3433.896833361996
 21
-1823.929580534729
 31
0.0
  0
LINE
  5
2548C
102
{ACAD_REACTORS
330
254B3
102
}
330
18
100
AcDbEntity
  8
1PHANTOM
100
AcDbLine
 10
3433.146833361996
 20
-1821.779580534729
 30
0.0
 11
3433.896833361996
 21
-1821.929580534729
 31
0.0
  0
LINE
  5
2548D
102
{ACAD_REACTORS
330
254B3
102
}
330
18
100
AcDbEntity
  8
1PHANTOM
100
AcDbLine
 10
3433.146833361996
 20
-1817.779580534729
 30
0.0
 11
3438.146833361996
 21
-1816.779580534729
 31
0.0
  0
LINE
  5
2548E
102
{ACAD_REACTORS
330
254B3
102
}
330
18
100
AcDbEntity
  8
1PHANTOM
100
AcDbLine
 10
3433.146833361996
 20
-1819.779580534729
 30
0.0
 11
3438.146833361996
 21
-1818.779580534729
 31
0.0
  0
LINE
  5
2548F
102
{ACAD_REACTORS
330
254B3
102
}
330
18
100
AcDbEntity
  8
1PHANTOM
100
AcDbLine
 10
3433.146833361996
 20
-1821.779580534729
 30
0.0
 11
3438.146833361996
 21
-1820.779580534729
 31
0.0
  0
LINE
  5
25490
102
{ACAD_REACTORS
330
254B3
102
}
330
18
100
AcDbEntity
  8
1PHANTOM
100
AcDbLine
 10
3433.146833361996
 20
-1823.779580534729
 30
0.0
 11
3438.146833361996
 21
-1822.779580534729
 31
0.0
  0
LINE
  5
25491
102
{ACAD_REACTORS
330
254B3
102
}
330
18
100
AcDbEntity
  8
1PHANTOM
100
AcDbLine
 10
3437.396833361996
 20
-1820.629580534729
 30
0.0
 11
3438.146833361996
 21
-1820.779580534729
 31
0.0
  0
LINE
  5
25492
102
{ACAD_REACTORS
330
254B3
102
}
330
18
100
AcDbEntity
  8
1PHANTOM
100
AcDbLine
 10
3437.396833361996
 20
-1818.629580534729
 30
0.0
 11
3438.146833361996
 21
-1818.779580534729
 31
0.0
  0
LINE
  5
25493
102
{ACAD_REACTORS
330
254B3
102
}
330
18
100
AcDbEntity
  8
1PHANTOM
100
AcDbLine
 10
3437.396833361996
 20
-1824.629580534729
 30
0.0
 11
3438.146833361996
 21
-1824.779580534729
 31
0.0
  0
LINE
  5
25494
102
{ACAD_REACTORS
330
254B3
102
}
330
18
100
AcDbEntity
  8
1PHANTOM
100
AcDbLine
 10
3437.396833361996
 20
-1822.629580534729
 30
0.0
 11
3438.146833361996
 21
-1822.779580534729
 31
0.0
  0
LINE
  5
25495
102
{ACAD_REACTORS
330
254B3
102
}
330
18
100
AcDbEntity
  8
1PHANTOM
100
AcDbLine
 10
3433.146833361996
 20
-1841.779580534729
 30
0.0
 11
3438.146833361996
 21
-1840.779580534729
 31
0.0
  0
LINE
  5
25496
102
{ACAD_REACTORS
330
254B3
102
}
330
18
100
AcDbEntity
  8
1PHANTOM
100
AcDbLine
 10
3433.146833361996
 20
-1833.779580534729
 30
0.0
 11
3438.146833361996
 21
-1832.779580534729
 31
0.0
  0
LINE
  5
25497
102
{ACAD_REACTORS
330
254B3
102
}
330
18
100
AcDbEntity
  8
1PHANTOM
100
AcDbLine
 10
3433.146833361996
 20
-1825.779580534729
 30
0.0
 11
3433.896833361996
 21
-1825.929580534729
 31
0.0
  0
LINE
  5
25498
102
{ACAD_REACTORS
330
254B3
102
}
330
18
100
AcDbEntity
  8
1PHANTOM
100
AcDbLine
 10
3433.146833361996
 20
-1827.779580534729
 30
0.0
 11
3433.896833361996
 21
-1827.929580534729
 31
0.0
  0
LINE
  5
25499
102
{ACAD_REACTORS
330
254B3
102
}
330
18
100
AcDbEntity
  8
1PHANTOM
100
AcDbLine
 10
3433.146833361996
 20
-1829.779580534729
 30
0.0
 11
3433.896833361996
 21
-1829.929580534729
 31
0.0
  0
LINE
  5
2549A
102
{ACAD_REACTORS
330
254B3
102
}
330
18
100
AcDbEntity
  8
1PHANTOM
100
AcDbLine
 10
3433.146833361996
 20
-1831.779580534729
 30
0.0
 11
3433.896833361996
 21
-1831.929580534729
 31
0.0
  0
LINE
  5
2549B
102
{ACAD_REACTORS
330
254B3
102
}
330
18
100
AcDbEntity
  8
1PHANTOM
100
AcDbLine
 10
3433.146833361996
 20
-1827.779580534729
 30
0.0
 11
3438.146833361996
 21
-1826.779580534729
 31
0.0
  0
LINE
  5
2549C
102
{ACAD_REACTORS
330
254B3
102
}
330
18
100
AcDbEntity
  8
1PHANTOM
100
AcDbLine
 10
3433.146833361996
 20
-1829.779580534729
 30
0.0
 11
3438.146833361996
 21
-1828.779580534729
 31
0.0
  0
LINE
  5
2549D
102
{ACAD_REACTORS
330
254B3
102
}
330
18
100
AcDbEntity
  8
1PHANTOM
100
AcDbLine
 10
3433.146833361996
 20
-1831.779580534729
 30
0.0
 11
3438.146833361996
 21
-1830.779580534729
 31
0.0
  0
LINE
  5
2549E
102
{ACAD_REACTORS
330
254B3
102
}
330
18
100
AcDbEntity
  8
1PHANTOM
100
AcDbLine
 10
3437.396833361996
 20
-1826.629580534729
 30
0.0
 11
3438.146833361996
 21
-1826.779580534729
 31
0.0
  0
LINE
  5
2549F
102
{ACAD_REACTORS
330
254B3
102
}
330
18
100
AcDbEntity
  8
1PHANTOM
100
AcDbLine
 10
3437.396833361996
 20
-1828.629580534729
 30
0.0
 11
3438.146833361996
 21
-1828.779580534729
 31
0.0
  0
LINE
  5
254A0
102
{ACAD_REACTORS
330
254B3
102
}
330
18
100
AcDbEntity
  8
1PHANTOM
100
AcDbLine
 10
3437.396833361996
 20
-1830.629580534729
 30
0.0
 11
3438.146833361996
 21
-1830.779580534729
 31
0.0
  0
LINE
  5
254A1
102
{ACAD_REACTORS
330
254B3
102
}
330
18
100
AcDbEntity
  8
1PHANTOM
100
AcDbLine
 10
3437.396833361996
 20
-1832.629580534729
 30
0.0
 11
3438.146833361996
 21
-1832.779580534729
 31
0.0
  0
LINE
  5
254A2
102
{ACAD_REACTORS
330
254B3
102
}
330
18
100
AcDbEntity
  8
1PHANTOM
100
AcDbLine
 10
3433.146833361996
 20
-1837.779580534729
 30
0.0
 11
3433.896833361996
 21
-1837.929580534729
 31
0.0
  0
LINE
  5
254A3
102
{ACAD_REACTORS
330
254B3
102
}
330
18
100
AcDbEntity
  8
1PHANTOM
100
AcDbLine
 10
3433.146833361996
 20
-1835.779580534729
 30
0.0
 11
3433.896833361996
 21
-1835.929580534729
 31
0.0
  0
LINE
  5
254A4
102
{ACAD_REACTORS
330
254B3
102
}
330
18
100
AcDbEntity
  8
1PHANTOM
100
AcDbLine
 10
3433.146833361996
 20
-1833.779580534729
 30
0.0
 11
3433.896833361996
 21
-1833.929580534729
 31
0.0
  0
LINE
  5
254A5
102
{ACAD_REACTORS
330
254B3
102
}
330
18
100
AcDbEntity
  8
1PHANTOM
100
AcDbLine
 10
3433.146833361996
 20
-1839.779580534729
 30
0.0
 11
3433.896833361996
 21
-1839.929580534729
 31
0.0
  0
LINE
  5
254A6
102
{ACAD_REACTORS
330
254B3
102
}
330
18
100
AcDbEntity
  8
1PHANTOM
100
AcDbLine
 10
3433.146833361996
 20
-1835.779580534729
 30
0.0
 11
3438.146833361996
 21
-1834.779580534729
 31
0.0
  0
LINE
  5
254A7
102
{ACAD_REACTORS
330
254B3
102
}
330
18
100
AcDbEntity
  8
1PHANTOM
100
AcDbLine
 10
3433.146833361996
 20
-1837.779580534729
 30
0.0
 11
3438.146833361996
 21
-1836.779580534729
 31
0.0
  0
LINE
  5
254A8
102
{ACAD_REACTORS
330
254B3
102
}
330
18
100
AcDbEntity
  8
1PHANTOM
100
AcDbLine
 10
3433.146833361996
 20
-1839.779580534729
 30
0.0
 11
3438.146833361996
 21
-1838.779580534729
 31
0.0
  0
LINE
  5
254A9
102
{ACAD_REACTORS
330
254B3
102
}
330
18
100
AcDbEntity
  8
1PHANTOM
100
AcDbLine
 10
3437.396833361996
 20
-1836.629580534729
 30
0.0
 11
3438.146833361996
 21
-1836.779580534729
 31
0.0
  0
LINE
  5
254AA
102
{ACAD_REACTORS
330
254B3
102
}
330
18
100
AcDbEntity
  8
1PHANTOM
100
AcDbLine
 10
3437.396833361996
 20
-1834.629580534729
 30
0.0
 11
3438.146833361996
 21
-1834.779580534729
 31
0.0
  0
LINE
  5
254AB
102
{ACAD_REACTORS
330
254B3
102
}
330
18
100
AcDbEntity
  8
1PHANTOM
100
AcDbLine
 10
3437.396833361996
 20
-1838.629580534729
 30
0.0
 11
3438.146833361996
 21
-1838.779580534729
 31
0.0
  0
LINE
  5
254AC
102
{ACAD_REACTORS
330
254B3
102
}
330
18
100
AcDbEntity
  8
1PHANTOM
100
AcDbLine
 10
3437.396833361996
 20
-1840.629580534729
 30
0.0
 11
3438.146833361996
 21
-1840.779580534729
 31
0.0
  0
LINE
  5
254AD
102
{ACAD_REACTORS
330
254B3
102
}
330
18
100
AcDbEntity
  8
1PHANTOM
100
AcDbLine
 10
3433.146833361996
 20
-1841.779580534729
 30
0.0
 11
3433.896833361996
 21
-1841.929580534729
 31
0.0
  0
LINE
  5
254AE
102
{ACAD_REACTORS
330
254B3
102
}
330
18
100
AcDbEntity
  8
1PHANTOM
100
AcDbLine
 10
3440.396833361996
 20
-1841.897446120775
 30
0.0
 11
3430.896833361996
 21
-1841.897446120775
 31
0.0
  0
ARC
  5
254AF
102
{ACAD_REACTORS
330
254B3
102
}
330
18
100
AcDbEntity
  8
1PHANTOM
100
AcDbCircle
 10
3435.646833361996
 20
-1836.126612787441
 30
0.0
 40
8.270833333333439
100
AcDbArc
 50
234.9488632525199
 51
305.0511367474801
  0
LINE
  5
254B0
102
{ACAD_REACTORS
330
254B3
102
}
330
18
100
AcDbEntity
  8
1PHANTOM
100
AcDbLine
 10
3440.396833361996
 20
-1841.897446120775
 30
0.0
 11
3440.396833361996
 21
-1842.897446120775
 31
0.0
  0
LINE
  5
254B1
102
{ACAD_REACTORS
330
254B3
102
}
330
18
100
AcDbEntity
  8
1PHANTOM
100
AcDbLine
 10
3430.896833361996
 20
-1841.897446120775
 30
0.0
 11
3430.896833361996
 21
-1842.897446120775
 31
0.0
  0
LINE
  5
254B2
102
{ACAD_REACTORS
330
254B3
102
}
330
18
100
AcDbEntity
  8
1PHANTOM
100
AcDbLine
 10
3440.179896541662
 20
-1842.897446120775
 30
0.0
 11
3431.14146557719
 21
-1842.897446120775
 31
0.0
  0
LINE
  5
254B4
102
{ACAD_REACTORS
330
254FA
102
}
330
18
100
AcDbEntity
  8
1PHANTOM
100
AcDbLine
 10
3611.764698948042
 20
-2063.333564434559
 30
0.0
 11
3612.764698948042
 21
-2068.333564434559
 31
0.0
  0
LINE
  5
254B5
102
{ACAD_REACTORS
330
254FA
102
}
330
18
100
AcDbEntity
  8
1PHANTOM
100
AcDbLine
 10
3637.093186592544
 20
-2065.833564434559
 30
0.0
 11
3590.66388061185
 21
-2065.833564434559
 31
0.0
  0
LINE
  5
254B6
102
{ACAD_REACTORS
330
254FA
102
}
330
18
100
AcDbEntity
  8
1PHANTOM
100
AcDbLine
 10
3629.115744448751
 20
-2064.083564434559
 30
0.0
 11
3595.646833361996
 21
-2064.083564434559
 31
0.0
  0
LINE
  5
254B7
102
{ACAD_REACTORS
330
254FA
102
}
330
18
100
AcDbEntity
  8
1PHANTOM
100
AcDbLine
 10
3635.646833361996
 20
-2065.833564434559
 30
0.0
 11
3629.115744448751
 21
-2064.083564434559
 31
0.0
  0
LINE
  5
254B8
102
{ACAD_REACTORS
330
254FA
102
}
330
18
100
AcDbEntity
  8
1PHANTOM
100
AcDbLine
 10
3635.646833361996
 20
-2065.833564434559
 30
0.0
 11
3629.11574444875
 21
-2067.583564434559
 31
0.0
  0
LINE
  5
254B9
102
{ACAD_REACTORS
330
254FA
102
}
330
18
100
AcDbEntity
  8
1PHANTOM
100
AcDbLine
 10
3629.11574444875
 20
-2067.583564434559
 30
0.0
 11
3595.646833361996
 21
-2067.583564434559
 31
0.0
  0
LINE
  5
254BA
102
{ACAD_REACTORS
330
254FA
102
}
330
18
100
AcDbEntity
  8
1PHANTOM
100
AcDbLine
 10
3629.801445559835
 20
-2063.517297493524
 30
0.0
 11
3629.651445559834
 21
-2064.267297493524
 31
0.0
  0
LINE
  5
254BB
102
{ACAD_REACTORS
330
254FA
102
}
330
18
100
AcDbEntity
  8
1PHANTOM
100
AcDbLine
 10
3629.801445559835
 20
-2063.517297493524
 30
0.0
 11
3630.680826456053
 21
-2067.914201974614
 31
0.0
  0
LINE
  5
254BC
102
{ACAD_REACTORS
330
254FA
102
}
330
18
100
AcDbEntity
  8
1PHANTOM
100
AcDbLine
 10
3634.627370285431
 20
-2066.146921121503
 30
0.0
 11
3634.47737028543
 21
-2066.896921121503
 31
0.0
  0
LINE
  5
254BD
102
{ACAD_REACTORS
330
254FA
102
}
330
18
100
AcDbEntity
  8
1PHANTOM
100
AcDbLine
 10
3634.027942867938
 20
-2064.649784034042
 30
0.0
 11
3633.877942867938
 21
-2065.399784034042
 31
0.0
  0
LINE
  5
254BE
102
{ACAD_REACTORS
330
254FA
102
}
330
18
100
AcDbEntity
  8
1PHANTOM
100
AcDbLine
 10
3634.027942867938
 20
-2064.649784034042
 30
0.0
 11
3634.47737028543
 21
-2066.896921121503
 31
0.0
  0
LINE
  5
254BF
102
{ACAD_REACTORS
330
254FA
102
}
330
18
100
AcDbEntity
  8
1PHANTOM
100
AcDbLine
 10
3630.830826456053
 20
-2067.164201974614
 30
0.0
 11
3630.680826456053
 21
-2067.914201974614
 31
0.0
  0
LINE
  5
254C0
102
{ACAD_REACTORS
330
254FA
102
}
330
18
100
AcDbEntity
  8
1PHANTOM
100
AcDbLine
 10
3632.729098370742
 20
-2066.655561548059
 30
0.0
 11
3632.579098370742
 21
-2067.405561548059
 31
0.0
  0
LINE
  5
254C1
102
{ACAD_REACTORS
330
254FA
102
}
330
18
100
AcDbEntity
  8
1PHANTOM
100
AcDbLine
 10
3631.914694213886
 20
-2064.083540763783
 30
0.0
 11
3631.764694213886
 21
-2064.833540763783
 31
0.0
  0
LINE
  5
254C2
102
{ACAD_REACTORS
330
254FA
102
}
330
18
100
AcDbEntity
  8
1PHANTOM
100
AcDbLine
 10
3631.914694213886
 20
-2064.083540763783
 30
0.0
 11
3632.579098370742
 21
-2067.405561548059
 31
0.0
  0
LINE
  5
254C3
102
{ACAD_REACTORS
330
254FA
102
}
330
18
100
AcDbEntity
  8
1PHANTOM
100
AcDbLine
 10
3620.914698948042
 20
-2067.583564434559
 30
0.0
 11
3620.764698948042
 21
-2068.333564434559
 31
0.0
  0
LINE
  5
254C4
102
{ACAD_REACTORS
330
254FA
102
}
330
18
100
AcDbEntity
  8
1PHANTOM
100
AcDbLine
 10
3623.764698948042
 20
-2063.333564434559
 30
0.0
 11
3623.614698948042
 21
-2064.083564434559
 31
0.0
  0
LINE
  5
254C5
102
{ACAD_REACTORS
330
254FA
102
}
330
18
100
AcDbEntity
  8
1PHANTOM
100
AcDbLine
 10
3621.764698948042
 20
-2063.333564434559
 30
0.0
 11
3621.614698948042
 21
-2064.083564434559
 31
0.0
  0
LINE
  5
254C6
102
{ACAD_REACTORS
330
254FA
102
}
330
18
100
AcDbEntity
  8
1PHANTOM
100
AcDbLine
 10
3621.764698948042
 20
-2063.333564434559
 30
0.0
 11
3622.764698948042
 21
-2068.333564434559
 31
0.0
  0
LINE
  5
254C7
102
{ACAD_REACTORS
330
254FA
102
}
330
18
100
AcDbEntity
  8
1PHANTOM
100
AcDbLine
 10
3625.764698948042
 20
-2063.333564434559
 30
0.0
 11
3625.614698948042
 21
-2064.083564434559
 31
0.0
  0
LINE
  5
254C8
102
{ACAD_REACTORS
330
254FA
102
}
330
18
100
AcDbEntity
  8
1PHANTOM
100
AcDbLine
 10
3627.764698948042
 20
-2063.333564434559
 30
0.0
 11
3627.614698948042
 21
-2064.083564434559
 31
0.0
  0
LINE
  5
254C9
102
{ACAD_REACTORS
330
254FA
102
}
330
18
100
AcDbEntity
  8
1PHANTOM
100
AcDbLine
 10
3627.764698948042
 20
-2063.333564434559
 30
0.0
 11
3628.764698948042
 21
-2068.333564434559
 31
0.0
  0
LINE
  5
254CA
102
{ACAD_REACTORS
330
254FA
102
}
330
18
100
AcDbEntity
  8
1PHANTOM
100
AcDbLine
 10
3625.764698948042
 20
-2063.333564434559
 30
0.0
 11
3626.764698948042
 21
-2068.333564434559
 31
0.0
  0
LINE
  5
254CB
102
{ACAD_REACTORS
330
254FA
102
}
330
18
100
AcDbEntity
  8
1PHANTOM
100
AcDbLine
 10
3623.764698948042
 20
-2063.333564434559
 30
0.0
 11
3624.764698948042
 21
-2068.333564434559
 31
0.0
  0
LINE
  5
254CC
102
{ACAD_REACTORS
330
254FA
102
}
330
18
100
AcDbEntity
  8
1PHANTOM
100
AcDbLine
 10
3628.914698948042
 20
-2067.583564434559
 30
0.0
 11
3628.764698948042
 21
-2068.333564434559
 31
0.0
  0
LINE
  5
254CD
102
{ACAD_REACTORS
330
254FA
102
}
330
18
100
AcDbEntity
  8
1PHANTOM
100
AcDbLine
 10
3626.914698948042
 20
-2067.583564434559
 30
0.0
 11
3626.764698948042
 21
-2068.333564434559
 31
0.0
  0
LINE
  5
254CE
102
{ACAD_REACTORS
330
254FA
102
}
330
18
100
AcDbEntity
  8
1PHANTOM
100
AcDbLine
 10
3622.914698948042
 20
-2067.583564434559
 30
0.0
 11
3622.764698948042
 21
-2068.333564434559
 31
0.0
  0
LINE
  5
254CF
102
{ACAD_REACTORS
330
254FA
102
}
330
18
100
AcDbEntity
  8
1PHANTOM
100
AcDbLine
 10
3624.914698948042
 20
-2067.583564434559
 30
0.0
 11
3624.764698948042
 21
-2068.333564434559
 31
0.0
  0
LINE
  5
254D0
102
{ACAD_REACTORS
330
254FA
102
}
330
18
100
AcDbEntity
  8
1PHANTOM
100
AcDbLine
 10
3617.764698948042
 20
-2063.333564434559
 30
0.0
 11
3617.614698948042
 21
-2064.083564434559
 31
0.0
  0
LINE
  5
254D1
102
{ACAD_REACTORS
330
254FA
102
}
330
18
100
AcDbEntity
  8
1PHANTOM
100
AcDbLine
 10
3619.764698948042
 20
-2063.333564434559
 30
0.0
 11
3619.614698948042
 21
-2064.083564434559
 31
0.0
  0
LINE
  5
254D2
102
{ACAD_REACTORS
330
254FA
102
}
330
18
100
AcDbEntity
  8
1PHANTOM
100
AcDbLine
 10
3613.764698948042
 20
-2063.333564434559
 30
0.0
 11
3613.614698948042
 21
-2064.083564434559
 31
0.0
  0
LINE
  5
254D3
102
{ACAD_REACTORS
330
254FA
102
}
330
18
100
AcDbEntity
  8
1PHANTOM
100
AcDbLine
 10
3615.764698948042
 20
-2063.333564434559
 30
0.0
 11
3615.614698948042
 21
-2064.083564434559
 31
0.0
  0
LINE
  5
254D4
102
{ACAD_REACTORS
330
254FA
102
}
330
18
100
AcDbEntity
  8
1PHANTOM
100
AcDbLine
 10
3619.764698948042
 20
-2063.333564434559
 30
0.0
 11
3620.764698948042
 21
-2068.333564434559
 31
0.0
  0
LINE
  5
254D5
102
{ACAD_REACTORS
330
254FA
102
}
330
18
100
AcDbEntity
  8
1PHANTOM
100
AcDbLine
 10
3617.764698948042
 20
-2063.333564434559
 30
0.0
 11
3618.764698948042
 21
-2068.333564434559
 31
0.0
  0
LINE
  5
254D6
102
{ACAD_REACTORS
330
254FA
102
}
330
18
100
AcDbEntity
  8
1PHANTOM
100
AcDbLine
 10
3615.764698948042
 20
-2063.333564434559
 30
0.0
 11
3616.764698948042
 21
-2068.333564434559
 31
0.0
  0
LINE
  5
254D7
102
{ACAD_REACTORS
330
254FA
102
}
330
18
100
AcDbEntity
  8
1PHANTOM
100
AcDbLine
 10
3613.764698948042
 20
-2063.333564434559
 30
0.0
 11
3614.764698948042
 21
-2068.333564434559
 31
0.0
  0
LINE
  5
254D8
102
{ACAD_REACTORS
330
254FA
102
}
330
18
100
AcDbEntity
  8
1PHANTOM
100
AcDbLine
 10
3616.914698948042
 20
-2067.583564434559
 30
0.0
 11
3616.764698948042
 21
-2068.333564434559
 31
0.0
  0
LINE
  5
254D9
102
{ACAD_REACTORS
330
254FA
102
}
330
18
100
AcDbEntity
  8
1PHANTOM
100
AcDbLine
 10
3618.914698948042
 20
-2067.583564434559
 30
0.0
 11
3618.764698948042
 21
-2068.333564434559
 31
0.0
  0
LINE
  5
254DA
102
{ACAD_REACTORS
330
254FA
102
}
330
18
100
AcDbEntity
  8
1PHANTOM
100
AcDbLine
 10
3612.914698948042
 20
-2067.583564434559
 30
0.0
 11
3612.764698948042
 21
-2068.333564434559
 31
0.0
  0
LINE
  5
254DB
102
{ACAD_REACTORS
330
254FA
102
}
330
18
100
AcDbEntity
  8
1PHANTOM
100
AcDbLine
 10
3614.914698948042
 20
-2067.583564434559
 30
0.0
 11
3614.764698948042
 21
-2068.333564434559
 31
0.0
  0
LINE
  5
254DC
102
{ACAD_REACTORS
330
254FA
102
}
330
18
100
AcDbEntity
  8
1PHANTOM
100
AcDbLine
 10
3595.764698948042
 20
-2063.333564434559
 30
0.0
 11
3596.764698948042
 21
-2068.333564434559
 31
0.0
  0
LINE
  5
254DD
102
{ACAD_REACTORS
330
254FA
102
}
330
18
100
AcDbEntity
  8
1PHANTOM
100
AcDbLine
 10
3603.764698948042
 20
-2063.333564434559
 30
0.0
 11
3604.764698948042
 21
-2068.333564434559
 31
0.0
  0
LINE
  5
254DE
102
{ACAD_REACTORS
330
254FA
102
}
330
18
100
AcDbEntity
  8
1PHANTOM
100
AcDbLine
 10
3611.764698948042
 20
-2063.333564434559
 30
0.0
 11
3611.614698948042
 21
-2064.083564434559
 31
0.0
  0
LINE
  5
254DF
102
{ACAD_REACTORS
330
254FA
102
}
330
18
100
AcDbEntity
  8
1PHANTOM
100
AcDbLine
 10
3609.764698948042
 20
-2063.333564434559
 30
0.0
 11
3609.614698948042
 21
-2064.083564434559
 31
0.0
  0
LINE
  5
254E0
102
{ACAD_REACTORS
330
254FA
102
}
330
18
100
AcDbEntity
  8
1PHANTOM
100
AcDbLine
 10
3607.764698948042
 20
-2063.333564434559
 30
0.0
 11
3607.614698948042
 21
-2064.083564434559
 31
0.0
  0
LINE
  5
254E1
102
{ACAD_REACTORS
330
254FA
102
}
330
18
100
AcDbEntity
  8
1PHANTOM
100
AcDbLine
 10
3605.764698948042
 20
-2063.333564434559
 30
0.0
 11
3605.614698948042
 21
-2064.083564434559
 31
0.0
  0
LINE
  5
254E2
102
{ACAD_REACTORS
330
254FA
102
}
330
18
100
AcDbEntity
  8
1PHANTOM
100
AcDbLine
 10
3609.764698948042
 20
-2063.333564434559
 30
0.0
 11
3610.764698948042
 21
-2068.333564434559
 31
0.0
  0
LINE
  5
254E3
102
{ACAD_REACTORS
330
254FA
102
}
330
18
100
AcDbEntity
  8
1PHANTOM
100
AcDbLine
 10
3607.764698948042
 20
-2063.333564434559
 30
0.0
 11
3608.764698948042
 21
-2068.333564434559
 31
0.0
  0
LINE
  5
254E4
102
{ACAD_REACTORS
330
254FA
102
}
330
18
100
AcDbEntity
  8
1PHANTOM
100
AcDbLine
 10
3605.764698948042
 20
-2063.333564434559
 30
0.0
 11
3606.764698948042
 21
-2068.333564434559
 31
0.0
  0
LINE
  5
254E5
102
{ACAD_REACTORS
330
254FA
102
}
330
18
100
AcDbEntity
  8
1PHANTOM
100
AcDbLine
 10
3610.914698948042
 20
-2067.583564434559
 30
0.0
 11
3610.764698948042
 21
-2068.333564434559
 31
0.0
  0
LINE
  5
254E6
102
{ACAD_REACTORS
330
254FA
102
}
330
18
100
AcDbEntity
  8
1PHANTOM
100
AcDbLine
 10
3608.914698948042
 20
-2067.583564434559
 30
0.0
 11
3608.764698948042
 21
-2068.333564434559
 31
0.0
  0
LINE
  5
254E7
102
{ACAD_REACTORS
330
254FA
102
}
330
18
100
AcDbEntity
  8
1PHANTOM
100
AcDbLine
 10
3606.914698948042
 20
-2067.583564434559
 30
0.0
 11
3606.764698948042
 21
-2068.333564434559
 31
0.0
  0
LINE
  5
254E8
102
{ACAD_REACTORS
330
254FA
102
}
330
18
100
AcDbEntity
  8
1PHANTOM
100
AcDbLine
 10
3604.914698948042
 20
-2067.583564434559
 30
0.0
 11
3604.764698948042
 21
-2068.333564434559
 31
0.0
  0
LINE
  5
254E9
102
{ACAD_REACTORS
330
254FA
102
}
330
18
100
AcDbEntity
  8
1PHANTOM
100
AcDbLine
 10
3599.764698948042
 20
-2063.333564434559
 30
0.0
 11
3599.614698948042
 21
-2064.083564434559
 31
0.0
  0
LINE
  5
254EA
102
{ACAD_REACTORS
330
254FA
102
}
330
18
100
AcDbEntity
  8
1PHANTOM
100
AcDbLine
 10
3601.764698948042
 20
-2063.333564434559
 30
0.0
 11
3601.614698948042
 21
-2064.083564434559
 31
0.0
  0
LINE
  5
254EB
102
{ACAD_REACTORS
330
254FA
102
}
330
18
100
AcDbEntity
  8
1PHANTOM
100
AcDbLine
 10
3603.764698948042
 20
-2063.333564434559
 30
0.0
 11
3603.614698948042
 21
-2064.083564434559
 31
0.0
  0
LINE
  5
254EC
102
{ACAD_REACTORS
330
254FA
102
}
330
18
100
AcDbEntity
  8
1PHANTOM
100
AcDbLine
 10
3597.764698948042
 20
-2063.333564434559
 30
0.0
 11
3597.614698948042
 21
-2064.083564434559
 31
0.0
  0
LINE
  5
254ED
102
{ACAD_REACTORS
330
254FA
102
}
330
18
100
AcDbEntity
  8
1PHANTOM
100
AcDbLine
 10
3601.764698948042
 20
-2063.333564434559
 30
0.0
 11
3602.764698948042
 21
-2068.333564434559
 31
0.0
  0
LINE
  5
254EE
102
{ACAD_REACTORS
330
254FA
102
}
330
18
100
AcDbEntity
  8
1PHANTOM
100
AcDbLine
 10
3599.764698948042
 20
-2063.333564434559
 30
0.0
 11
3600.764698948042
 21
-2068.333564434559
 31
0.0
  0
LINE
  5
254EF
102
{ACAD_REACTORS
330
254FA
102
}
330
18
100
AcDbEntity
  8
1PHANTOM
100
AcDbLine
 10
3597.764698948042
 20
-2063.333564434559
 30
0.0
 11
3598.764698948042
 21
-2068.333564434559
 31
0.0
  0
LINE
  5
254F0
102
{ACAD_REACTORS
330
254FA
102
}
330
18
100
AcDbEntity
  8
1PHANTOM
100
AcDbLine
 10
3600.914698948042
 20
-2067.583564434559
 30
0.0
 11
3600.764698948042
 21
-2068.333564434559
 31
0.0
  0
LINE
  5
254F1
102
{ACAD_REACTORS
330
254FA
102
}
330
18
100
AcDbEntity
  8
1PHANTOM
100
AcDbLine
 10
3602.914698948042
 20
-2067.583564434559
 30
0.0
 11
3602.764698948042
 21
-2068.333564434559
 31
0.0
  0
LINE
  5
254F2
102
{ACAD_REACTORS
330
254FA
102
}
330
18
100
AcDbEntity
  8
1PHANTOM
100
AcDbLine
 10
3598.914698948042
 20
-2067.583564434559
 30
0.0
 11
3598.764698948042
 21
-2068.333564434559
 31
0.0
  0
LINE
  5
254F3
102
{ACAD_REACTORS
330
254FA
102
}
330
18
100
AcDbEntity
  8
1PHANTOM
100
AcDbLine
 10
3596.914698948042
 20
-2067.583564434559
 30
0.0
 11
3596.764698948042
 21
-2068.333564434559
 31
0.0
  0
LINE
  5
254F4
102
{ACAD_REACTORS
330
254FA
102
}
330
18
100
AcDbEntity
  8
1PHANTOM
100
AcDbLine
 10
3595.764698948042
 20
-2063.333564434559
 30
0.0
 11
3595.614698948042
 21
-2064.083564434559
 31
0.0
  0
LINE
  5
254F5
102
{ACAD_REACTORS
330
254FA
102
}
330
18
100
AcDbEntity
  8
1PHANTOM
100
AcDbLine
 10
3595.646833361996
 20
-2070.583564434559
 30
0.0
 11
3595.646833361996
 21
-2061.083564434559
 31
0.0
  0
ARC
  5
254F6
102
{ACAD_REACTORS
330
254FA
102
}
330
18
100
AcDbEntity
  8
1PHANTOM
100
AcDbCircle
 10
3601.417666695329
 20
-2065.833564434559
 30
0.0
 40
8.270833333333439
100
AcDbArc
 50
144.9488632525305
 51
215.0511367474695
  0
LINE
  5
254F7
102
{ACAD_REACTORS
330
254FA
102
}
330
18
100
AcDbEntity
  8
1PHANTOM
100
AcDbLine
 10
3595.646833361996
 20
-2070.583564434559
 30
0.0
 11
3594.646833361996
 21
-2070.583564434559
 31
0.0
  0
LINE
  5
254F8
102
{ACAD_REACTORS
330
254FA
102
}
330
18
100
AcDbEntity
  8
1PHANTOM
100
AcDbLine
 10
3595.646833361996
 20
-2061.083564434559
 30
0.0
 11
3594.646833361996
 21
-2061.083564434559
 31
0.0
  0
LINE
  5
254F9
102
{ACAD_REACTORS
330
254FA
102
}
330
18
100
AcDbEntity
  8
1PHANTOM
100
AcDbLine
 10
3594.646833361996
 20
-2070.366627614225
 30
0.0
 11
3594.646833361996
 21
-2061.328196649753
 31
0.0
  0
LINE
  5
25564
330
18
100
AcDbEntity
  8
01
100
AcDbLine
 10
3306.646833361996
 20
-1866.897446120774
 30
0.0
 11
3449.646833361996
 21
-1866.897446120774
 31
0.0
  0
LINE
  5
25565
330
18
100
AcDbEntity
  8
01
100
AcDbLine
 10
3305.646833361996
 20
-1865.897446120774
 30
0.0
 11
3305.646833361996
 21
-1862.897446120774
 31
0.0
  0
LINE
  5
25566
330
18
100
AcDbEntity
  8
01
100
AcDbLine
 10
3450.646833361996
 20
-1865.897446120774
 30
0.0
 11
3450.646833361996
 21
-1862.897446120775
 31
0.0
  0
LINE
  5
25567
330
18
100
AcDbEntity
  8
01
100
AcDbLine
 10
3306.646833361996
 20
-1861.897446120774
 30
0.0
 11
3305.646833361996
 21
-1862.897446120774
 31
0.0
  0
LINE
  5
25568
330
18
100
AcDbEntity
  8
01
100
AcDbLine
 10
3305.646833361996
 20
-1865.897446120774
 30
0.0
 11
3306.646833361996
 21
-1866.897446120774
 31
0.0
  0
LINE
  5
25569
330
18
100
AcDbEntity
  8
01
100
AcDbLine
 10
3449.646833361996
 20
-1861.897446120775
 30
0.0
 11
3450.646833361996
 21
-1862.897446120775
 31
0.0
  0
LINE
  5
2556A
330
18
100
AcDbEntity
  8
01
100
AcDbLine
 10
3450.646833361996
 20
-1865.897446120774
 30
0.0
 11
3449.646833361996
 21
-1866.897446120774
 31
0.0
  0
LINE
  5
255B2
330
18
100
AcDbEntity
  8
01
100
AcDbLine
 10
3577.646833361996
 20
-1963.833564434561
 30
0.0
 11
3577.646833361996
 21
-2010.833564434559
 31
0.0
  0
LINE
  5
255B3
330
18
100
AcDbEntity
  8
01
100
AcDbLine
 10
3576.646833361996
 20
-1963.833564434561
 30
0.0
 11
3577.646833361996
 21
-1963.833564434561
 31
0.0
  0
LINE
  5
255B4
330
18
100
AcDbEntity
  8
01
100
AcDbLine
 10
3577.646833361996
 20
-2011.83356443456
 30
0.0
 11
3577.646833361996
 21
-2013.83356443456
 31
0.0
  0
LINE
  5
25CD5
330
18
100
AcDbEntity
  8
01
100
AcDbLine
 10
3576.646833361997
 20
-2013.833564434561
 30
0.0
 11
3595.646833361996
 21
-2013.833564434561
 31
0.0
  0
LINE
  5
25D79
330
18
100
AcDbEntity
  8
01
100
AcDbLine
 10
3579.396833361996
 20
-2289.083564434561
 30
0.0
 11
3579.396833361996
 21
-2291.833564434561
 31
0.0
  0
LINE
  5
25D7A
330
18
100
AcDbEntity
  8
01
100
AcDbLine
 10
3596.646833361996
 20
-2014.833564434561
 30
0.0
 11
3596.646833361996
 21
-2290.83356443456
 31
0.0
  0
ARC
  5
25D7B
330
18
100
AcDbEntity
  8
01
100
AcDbCircle
 10
3595.646833361996
 20
-2014.833564434561
 30
0.0
 40
1.0
100
AcDbArc
 50
0.0
 51
90.0
  0
LINE
  5
25D7E
330
18
100
AcDbEntity
  8
01
100
AcDbLine
 10
3595.646833361996
 20
-2291.83356443456
 30
0.0
 11
3579.396833361996
 21
-2291.833564434561
 31
0.0
  0
LINE
  5
25DAB
330
18
100
AcDbEntity
  8
01
100
AcDbLine
 10
3576.646833361996
 20
-2289.083564434561
 30
0.0
 11
3579.396833361996
 21
-2289.083564434561
 31
0.0
  0
LINE
  5
264D0
330
18
100
AcDbEntity
  8
1PHANTOM
100
AcDbLine
 10
3314.146833361996
 20
-2061.333564434561
 30
0.0
 11
3314.146833361996
 21
-2070.333564434561
 31
0.0
  0
LINE
  5
264D1
330
18
100
AcDbEntity
  8
1PHANTOM
100
AcDbLine
 10
3320.146833361996
 20
-2061.333564434561
 30
0.0
 11
3320.146833361996
 21
-2070.333564434561
 31
0.0
  0
ARC
  5
264D2
330
18
100
AcDbEntity
  8
1PHANTOM
100
AcDbCircle
 10
3317.146833361996
 20
-2061.333564434561
 30
0.0
 40
3.0
100
AcDbArc
 50
0.0
 51
180.0
  0
ARC
  5
264D3
330
18
100
AcDbEntity
  8
1PHANTOM
100
AcDbCircle
 10
3317.146833361996
 20
-2070.333564434561
 30
0.0
 40
3.0
100
AcDbArc
 50
180.0
 51
0.0
  0
LINE
  5
264D4
330
18
100
AcDbEntity
  8
1PHANTOM
100
AcDbLine
 10
3316.146833361996
 20
-2268.833564434561
 30
0.0
 11
3325.146833361996
 21
-2268.833564434561
 31
0.0
  0
LINE
  5
264D5
330
18
100
AcDbEntity
  8
1PHANTOM
100
AcDbLine
 10
3316.146833361996
 20
-2262.833564434561
 30
0.0
 11
3325.146833361996
 21
-2262.833564434561
 31
0.0
  0
ARC
  5
264D6
330
18
100
AcDbEntity
  8
1PHANTOM
100
AcDbCircle
 10
3316.146833361996
 20
-2265.833564434561
 30
0.0
 40
3.0
100
AcDbArc
 50
90.0
 51
270.0
  0
ARC
  5
264D7
330
18
100
AcDbEntity
  8
1PHANTOM
100
AcDbCircle
 10
3325.146833361996
 20
-2265.833564434561
 30
0.0
 40
3.0
100
AcDbArc
 50
270.0
 51
90.0
  0
LINE
  5
264D8
330
18
100
AcDbEntity
  8
1CENTER
100
AcDbLine
 10
3317.146833361996
 20
-2055.923074415566
 30
0.0
 11
3317.146833361996
 21
-2075.744054453556
 31
0.0
  0
LINE
  5
264D9
330
18
100
AcDbEntity
  8
1CENTER
100
AcDbLine
 10
3311.965219948319
 20
-2065.833564434561
 30
0.0
 11
3322.328446775673
 21
-2065.833564434561
 31
0.0
  0
LINE
  5
264DA
330
18
100
AcDbEntity
  8
1CENTER
100
AcDbLine
 10
3310.736343343001
 20
-2265.833564434561
 30
0.0
 11
3330.557323380991
 21
-2265.833564434561
 31
0.0
  0
LINE
  5
264DB
330
18
100
AcDbEntity
  8
1CENTER
100
AcDbLine
 10
3320.646833361996
 20
-2271.015177848237
 30
0.0
 11
3320.646833361996
 21
-2260.651951020884
 31
0.0
  0
LINE
  5
264DC
330
18
100
AcDbEntity
  8
1PHANTOM
100
AcDbLine
 10
3442.146833361996
 20
-2061.333564434561
 30
0.0
 11
3442.146833361996
 21
-2070.333564434561
 31
0.0
  0
LINE
  5
264DD
330
18
100
AcDbEntity
  8
1PHANTOM
100
AcDbLine
 10
3436.146833361996
 20
-2061.333564434561
 30
0.0
 11
3436.146833361996
 21
-2070.333564434561
 31
0.0
  0
ARC
  5
264DE
330
18
100
AcDbEntity
  8
1PHANTOM
100
AcDbCircle
 10
3439.146833361996
 20
-2061.333564434561
 30
0.0
 40
3.0
100
AcDbArc
 50
0.0
 51
180.0
  0
ARC
  5
264DF
330
18
100
AcDbEntity
  8
1PHANTOM
100
AcDbCircle
 10
3439.146833361996
 20
-2070.333564434561
 30
0.0
 40
3.0
100
AcDbArc
 50
180.0
 51
0.0
  0
LINE
  5
264E0
330
18
100
AcDbEntity
  8
1CENTER
100
AcDbLine
 10
3439.146833361996
 20
-2055.923074415566
 30
0.0
 11
3439.146833361996
 21
-2075.744054453556
 31
0.0
  0
LINE
  5
264E1
330
18
100
AcDbEntity
  8
1CENTER
100
AcDbLine
 10
3444.328446775673
 20
-2065.833564434561
 30
0.0
 11
3433.965219948319
 21
-2065.833564434561
 31
0.0
  0
LINE
  5
264E2
330
18
100
AcDbEntity
  8
1PHANTOM
100
AcDbLine
 10
3440.146833361996
 20
-2268.833564434561
 30
0.0
 11
3431.146833361996
 21
-2268.833564434561
 31
0.0
  0
LINE
  5
264E3
330
18
100
AcDbEntity
  8
1PHANTOM
100
AcDbLine
 10
3440.146833361996
 20
-2262.833564434561
 30
0.0
 11
3431.146833361996
 21
-2262.833564434561
 31
0.0
  0
ARC
  5
264E4
330
18
100
AcDbEntity
  8
1PHANTOM
100
AcDbCircle
 10
3440.146833361996
 20
-2265.833564434561
 30
0.0
 40
3.0
100
AcDbArc
 50
270.0
 51
90.0
  0
ARC
  5
264E5
330
18
100
AcDbEntity
  8
1PHANTOM
100
AcDbCircle
 10
3431.146833361996
 20
-2265.833564434561
 30
0.0
 40
3.0
100
AcDbArc
 50
90.0
 51
270.0
  0
LINE
  5
264E6
330
18
100
AcDbEntity
  8
1CENTER
100
AcDbLine
 10
3445.557323380991
 20
-2265.833564434561
 30
0.0
 11
3425.736343343001
 21
-2265.833564434561
 31
0.0
  0
LINE
  5
264E7
330
18
100
AcDbEntity
  8
1CENTER
100
AcDbLine
 10
3435.646833361996
 20
-2271.015177848237
 30
0.0
 11
3435.646833361996
 21
-2260.651951020884
 31
0.0
  0
LINE
  5
2689B
330
18
100
AcDbEntity
  8
01
100
AcDbLine
 10
3581.346833361996
 20
-2331.833564434561
 30
0.0
 11
3591.646833361997
 21
-2331.833564434558
 31
0.0
  0
LINE
  5
2689C
330
18
100
AcDbEntity
  8
01
100
AcDbLine
 10
3578.146833361997
 20
-2333.333564434561
 30
0.0
 11
3591.646833361997
 21
-2333.333564434558
 31
0.0
  0
LINE
  5
268A2
330
18
100
AcDbEntity
  8
01
100
AcDbLine
 10
3579.396833361996
 20
-2289.333564434561
 30
0.0
 11
3578.146833361996
 21
-2289.333564434561
 31
0.0
  0
ARC
  5
268A4
330
18
100
AcDbEntity
  8
01
100
AcDbCircle
 10
3578.146833361996
 20
-2290.833564434561
 30
0.0
 40
1.5
100
AcDbArc
 50
90.0
 51
180.0
  0
LINE
  5
268A5
330
18
100
AcDbEntity
  8
01
100
AcDbLine
 10
3578.146833361996
 20
-2290.833564434561
 30
0.0
 11
3578.146833361996
 21
-2338.833564434561
 31
0.0
  0
LINE
  5
268A7
330
18
100
AcDbEntity
  8
01
100
AcDbLine
 10
3592.146833361997
 20
-2291.83356443456
 30
0.0
 11
3592.146833361996
 21
-2305.333564434561
 31
0.0
  0
LINE
  5
268A9
330
18
100
AcDbEntity
  8
01
100
AcDbLine
 10
3591.646833361997
 20
-2331.833564434558
 30
0.0
 11
3591.646833361997
 21
-2333.333564434558
 31
0.0
  0
LINE
  5
268AA
330
18
100
AcDbEntity
  8
01
100
AcDbLine
 10
3576.646833361998
 20
-2338.833564434561
 30
0.0
 11
3578.146833361996
 21
-2338.833564434561
 31
0.0
  0
LINE
  5
268AD
330
18
100
AcDbEntity
  8
01
100
AcDbLine
 10
3578.146833361996
 20
-2307.333564434561
 30
0.0
 11
3590.146833361996
 21
-2307.333564434561
 31
0.0
  0
ARC
  5
268AE
330
18
100
AcDbEntity
  8
01
100
AcDbCircle
 10
3590.146833361996
 20
-2305.333564434561
 30
0.0
 40
2.0
100
AcDbArc
 50
270.0
 51
0.0
  0
LINE
  5
268AF
330
18
100
AcDbEntity
  8
01
100
AcDbLine
 10
3578.146833361996
 20
-2312.333564434561
 30
0.0
 11
3580.396833361996
 21
-2312.333564434561
 31
0.0
  0
LINE
  5
268B0
330
18
100
AcDbEntity
  8
01
100
AcDbLine
 10
3578.146833361996
 20
-2310.833564434561
 30
0.0
 11
3580.396833361996
 21
-2310.833564434561
 31
0.0
  0
LINE
  5
268B2
330
18
100
AcDbEntity
  8
01
100
AcDbLine
 10
3588.146833361996
 20
-2324.333564434561
 30
0.0
 11
3587.646833361996
 21
-2323.833564434561
 31
0.0
  0
LINE
  5
268B3
330
18
100
AcDbEntity
  8
01
100
AcDbLine
 10
3587.646833361996
 20
-2323.833564434561
 30
0.0
 11
3581.346833361996
 21
-2323.833564434561
 31
0.0
  0
LINE
  5
268B4
330
18
100
AcDbEntity
  8
01
100
AcDbLine
 10
3588.146833361996
 20
-2324.333564434561
 30
0.0
 11
3588.146833361996
 21
-2329.333564434561
 31
0.0
  0
LINE
  5
268B5
330
18
100
AcDbEntity
  8
01
100
AcDbLine
 10
3587.646833361996
 20
-2329.833564434561
 30
0.0
 11
3588.146833361996
 21
-2329.333564434561
 31
0.0
  0
LINE
  5
268B6
330
18
100
AcDbEntity
  8
1HATCH
100
AcDbLine
 10
3587.646833361996
 20
-2329.833564434561
 30
0.0
 11
3587.646833361996
 21
-2323.833564434561
 31
0.0
  0
LINE
  5
268B7
330
18
100
AcDbEntity
  8
1HATCH
100
AcDbLine
 10
3588.146833361996
 20
-2324.333564434561
 30
0.0
 11
3581.346833361996
 21
-2324.333564434561
 31
0.0
  0
LINE
  5
268B8
330
18
100
AcDbEntity
  8
1HATCH
100
AcDbLine
 10
3588.146833361997
 20
-2329.333564434561
 30
0.0
 11
3581.346833361996
 21
-2329.333564434561
 31
0.0
  0
LINE
  5
269A0
330
18
100
AcDbEntity
  8
01
100
AcDbLine
 10
3587.646833361996
 20
-2329.833564434561
 30
0.0
 11
3581.346833361996
 21
-2329.833564434561
 31
0.0
  0
ARC
  5
269AE
330
18
100
AcDbEntity
  8
01
100
AcDbCircle
 10
3580.396833361996
 20
-2310.833564434561
 30
0.0
 40
1.5
100
AcDbArc
 50
270.0
 51
340.5287793655048
  0
LINE
  5
269AF
330
18
100
AcDbEntity
  8
01
100
AcDbLine
 10
3580.396833361996
 20
-2310.833564434561
 30
0.0
 11
3581.396833361996
 21
-2308.005137309814
 31
0.0
  0
LINE
  5
269B0
330
18
100
AcDbEntity
  8
01
100
AcDbLine
 10
3581.81104692437
 20
-2311.333564434561
 30
0.0
 11
3582.81104692437
 21
-2308.505137309814
 31
0.0
  0
LINE
  5
269B1
330
18
100
AcDbEntity
  8
01
100
AcDbLine
 10
3582.81104692437
 20
-2308.505137309814
 30
0.0
 11
3581.396833361996
 21
-2308.005137309814
 31
0.0
  0
ARC
  5
26DB7
330
18
100
AcDbEntity
  8
01
100
AcDbCircle
 10
3595.646833361996
 20
-2290.83356443456
 30
0.0
 40
1.0
100
AcDbArc
 50
270.0
 51
0.0
  0
LINE
  5
26DB8
330
18
100
AcDbEntity
  8
01
100
AcDbLine
 10
3579.396833361996
 20
-2290.833564434561
 30
0.0
 11
3578.146833361996
 21
-2290.833564434561
 31
0.0
  0
LINE
  5
26DB9
330
18
100
AcDbEntity
  8
01
100
AcDbLine
 10
3581.346833361996
 20
-2331.333564434561
 30
0.0
 11
3591.646833361997
 21
-2331.333564434558
 31
0.0
  0
LINE
  5
26DBA
330
18
100
AcDbEntity
  8
01
100
AcDbLine
 10
3581.346833361996
 20
-2330.333564434561
 30
0.0
 11
3591.646833361997
 21
-2330.333564434558
 31
0.0
  0
LINE
  5
26DBB
330
18
100
AcDbEntity
  8
01
100
AcDbLine
 10
3591.646833361997
 20
-2331.333564434558
 30
0.0
 11
3591.646833361997
 21
-2330.333564434558
 31
0.0
  0
LINE
  5
26DFA
330
18
100
AcDbEntity
  8
1HATCH
100
AcDbLine
 10
3588.296833361997
 20
-2327.33356443456
 30
0.0
 11
3588.296833361997
 21
-2330.333564434559
 31
0.0
  0
LINE
  5
26DFC
330
18
100
AcDbEntity
  8
1HATCH
100
AcDbLine
 10
3588.646833361996
 20
-2327.683564434559
 30
0.0
 11
3588.146833361997
 21
-2327.683564434559
 31
0.0
  0
LINE
  5
26DFE
330
18
100
AcDbEntity
  8
01
100
AcDbLine
 10
3591.179896541663
 20
-2334.333564434559
 30
0.0
 11
3582.141465577191
 21
-2334.333564434559
 31
0.0
  0
LINE
  5
26DFF
330
18
100
AcDbEntity
  8
01
100
AcDbLine
 10
3588.646833361997
 20
-2327.68356443456
 30
0.0
 11
3588.646833361997
 21
-2330.333564434559
 31
0.0
  0
LINE
  5
26E00
330
18
100
AcDbEntity
  8
01
100
AcDbLine
 10
3588.646833361996
 20
-2327.683564434559
 30
0.0
 11
3588.296833361997
 21
-2327.333564434559
 31
0.0
  0
LINE
  5
26E02
330
18
100
AcDbEntity
  8
01
100
AcDbLine
 10
3588.296833361997
 20
-2327.333564434559
 30
0.0
 11
3588.146833361997
 21
-2327.333564434559
 31
0.0
  0
LINE
  5
26E03
330
18
100
AcDbEntity
  8
01
100
AcDbLine
 10
3591.396833361996
 20
-2333.333564434559
 30
0.0
 11
3591.396833361996
 21
-2334.333564434559
 31
0.0
  0
ARC
  5
26E05
330
18
100
AcDbEntity
  8
01
100
AcDbCircle
 10
3586.646833361996
 20
-2327.562731101226
 30
0.0
 40
8.270833333333439
100
AcDbArc
 50
234.9488632525549
 51
305.0511367474451
  0
LINE
  5
26E07
330
18
100
AcDbEntity
  8
01
100
AcDbLine
 10
3581.896833361996
 20
-2333.333564434559
 30
0.0
 11
3581.896833361996
 21
-2334.333564434559
 31
0.0
  0
LINE
  5
26E09
330
18
100
AcDbEntity
  8
01
100
AcDbLine
 10
3588.646833361997
 20
-2331.333564434559
 30
0.0
 11
3588.646833361997
 21
-2331.833564434559
 31
0.0
  0
LINE
  5
26E0A
330
18
100
AcDbEntity
  8
1HATCH
100
AcDbLine
 10
3588.296833361997
 20
-2331.333564434559
 30
0.0
 11
3588.296833361997
 21
-2331.833564434559
 31
0.0
  0
LINE
  5
26E0B
330
18
100
AcDbEntity
  8
1HATCH
100
AcDbLine
 10
3584.996833361996
 20
-2331.33356443456
 30
0.0
 11
3584.996833361996
 21
-2331.833564434559
 31
0.0
  0
LINE
  5
26E0C
330
18
100
AcDbEntity
  8
01
100
AcDbLine
 10
3584.646833361996
 20
-2331.33356443456
 30
0.0
 11
3584.646833361996
 21
-2331.83356443456
 31
0.0
  0
LINE
  5
26E0F
330
18
100
AcDbEntity
  8
1HATCH
100
AcDbLine
 10
3584.996833361995
 20
-2329.833564434561
 30
0.0
 11
3584.996833361996
 21
-2330.33356443456
 31
0.0
  0
LINE
  5
26E10
330
18
100
AcDbEntity
  8
01
100
AcDbLine
 10
3584.646833361996
 20
-2329.833564434562
 30
0.0
 11
3584.646833361996
 21
-2330.33356443456
 31
0.0
  0
LINE
  5
26E12
330
18
100
AcDbEntity
  8
01
100
AcDbLine
 10
3307.646833361996
 20
-1840.897446120775
 30
0.0
 11
3448.646833361996
 21
-1840.897446120774
 31
0.0
  0
LINE
  5
26E13
330
18
100
AcDbEntity
  8
01
100
AcDbLine
 10
3373.146833361996
 20
-1841.897446120774
 30
0.0
 11
3383.146833361996
 21
-1841.897446120774
 31
0.0
  0
ARC
  5
26E14
330
18
100
AcDbEntity
  8
01
100
AcDbCircle
 10
3448.646833361996
 20
-1841.897446120774
 30
0.0
 40
1.0
100
AcDbArc
 50
0.0
 51
90.0
  0
LINE
  5
26E15
330
18
100
AcDbEntity
  8
01
100
AcDbLine
 10
3329.646833361995
 20
-1857.897446120774
 30
0.0
 11
3426.646833361998
 21
-1857.897446120774
 31
0.0
  0
ARC
  5
26E16
330
18
100
AcDbEntity
  8
01
100
AcDbCircle
 10
3307.646833361996
 20
-1859.897446120774
 30
0.0
 40
1.0
100
AcDbArc
 50
180.0
 51
270.0
  0
LINE
  5
26E17
330
18
100
AcDbEntity
  8
01
100
AcDbLine
 10
3306.646833361996
 20
-1859.897446120774
 30
0.0
 11
3306.646833361996
 21
-1841.897446120775
 31
0.0
  0
ARC
  5
26E18
330
18
100
AcDbEntity
  8
01
100
AcDbCircle
 10
3307.646833361996
 20
-1841.897446120775
 30
0.0
 40
1.0
100
AcDbArc
 50
90.0
 51
180.0
  0
LINE
  5
26E19
330
18
100
AcDbEntity
  8
01
100
AcDbLine
 10
3307.646833361996
 20
-1859.897446120775
 30
0.0
 11
3307.646833361996
 21
-1840.897446120775
 31
0.0
  0
LINE
  5
26E1A
330
18
100
AcDbEntity
  8
01
100
AcDbLine
 10
3449.646833361996
 20
-1859.897446120774
 30
0.0
 11
3449.646833361996
 21
-1841.897446120774
 31
0.0
  0
ARC
  5
26E1B
330
18
100
AcDbEntity
  8
01
100
AcDbCircle
 10
3448.646833361996
 20
-1859.897446120774
 30
0.0
 40
1.0
100
AcDbArc
 50
270.0
 51
0.0
  0
LINE
  5
26E1C
330
18
100
AcDbEntity
  8
01
100
AcDbLine
 10
3448.646833361996
 20
-1859.897446120774
 30
0.0
 11
3448.646833361996
 21
-1840.897446120774
 31
0.0
  0
LINE
  5
26E1D
330
18
100
AcDbEntity
  8
01
100
AcDbLine
 10
3383.146833361996
 20
-1840.897446120774
 30
0.0
 11
3383.146833361997
 21
-1848.897446120774
 31
0.0
  0
LINE
  5
26E1E
330
18
100
AcDbEntity
  8
01
100
AcDbLine
 10
3373.146833361996
 20
-1840.897446120774
 30
0.0
 11
3373.146833361996
 21
-1848.897446120774
 31
0.0
  0
CIRCLE
  5
26E21
330
18
100
AcDbEntity
  8
01
100
AcDbCircle
 10
3328.146833361996
 20
-1850.897446120774
 30
0.0
 40
1.75
  0
CIRCLE
  5
26E22
330
18
100
AcDbEntity
  8
01
100
AcDbCircle
 10
3428.146833361996
 20
-1850.897446120774
 30
0.0
 40
1.75
  0
LINE
  5
26E23
330
18
100
AcDbEntity
  8
01
100
AcDbLine
 10
3383.146833361997
 20
-1848.897446120774
 30
0.0
 11
3373.146833361996
 21
-1848.897446120774
 31
0.0
  0
LINE
  5
26F5B
330
18
100
AcDbEntity
  8
1PHANTOM
100
AcDbLine
 10
3685.56516713215
 20
-1915.833564434558
 30
0.0
 11
3685.56516713215
 21
-2335.833564434558
 31
0.0
  0
ARC
  5
26F5C
330
18
100
AcDbEntity
  8
1PHANTOM
100
AcDbCircle
 10
3690.56516713215
 20
-1915.833564434558
 30
0.0
 40
5.0
100
AcDbArc
 50
90.0
 51
180.0
  0
ARC
  5
26F5D
330
18
100
AcDbEntity
  8
1PHANTOM
100
AcDbCircle
 10
3690.565167132149
 20
-2335.833564434558
 30
0.0
 40
5.0
100
AcDbArc
 50
180.0
 51
270.0
  0
LINE
  5
26F5E
330
18
100
AcDbEntity
  8
1PHANTOM
100
AcDbLine
 10
3830.56516713215
 20
-1915.833564434558
 30
0.0
 11
3830.565167132149
 21
-2335.833564434558
 31
0.0
  0
LINE
  5
26F5F
330
18
100
AcDbEntity
  8
1PHANTOM
100
AcDbLine
 10
3690.56516713215
 20
-1910.833564434558
 30
0.0
 11
3825.56516713215
 21
-1910.833564434558
 31
0.0
  0
ARC
  5
26F60
330
18
100
AcDbEntity
  8
1PHANTOM
100
AcDbCircle
 10
3825.56516713215
 20
-1915.833564434558
 30
0.0
 40
5.0
100
AcDbArc
 50
0.0
 51
90.0
  0
ARC
  5
26F61
330
18
100
AcDbEntity
  8
1PHANTOM
100
AcDbCircle
 10
3825.565167132149
 20
-2335.833564434558
 30
0.0
 40
5.0
100
AcDbArc
 50
270.0
 51
0.0
  0
LINE
  5
26F62
330
18
100
AcDbEntity
  8
1PHANTOM
100
AcDbLine
 10
3690.56516713215
 20
-2340.833564434558
 30
0.0
 11
3825.56516713215
 21
-2340.833564434558
 31
0.0
  0
LINE
  5
26F76
330
18
100
AcDbEntity
  8
1DIM
100
AcDbLine
 10
3870.565167134017
 20
-2163.333564439115
 30
0.0
 11
3870.565167134017
 21
-2330.976884507194
 31
0.0
  0
LINE
  5
26F8C
330
18
100
AcDbEntity
  8
01
100
AcDbLine
 10
3694.06516713215
 20
-2061.333564434561
 30
0.0
 11
3694.06516713215
 21
-2070.333564434561
 31
0.0
  0
LINE
  5
26F8D
330
18
100
AcDbEntity
  8
01
100
AcDbLine
 10
3700.06516713215
 20
-2061.333564434561
 30
0.0
 11
3700.06516713215
 21
-2070.333564434561
 31
0.0
  0
ARC
  5
26F8E
330
18
100
AcDbEntity
  8
01
100
AcDbCircle
 10
3697.06516713215
 20
-2061.333564434561
 30
0.0
 40
3.0
100
AcDbArc
 50
0.0
 51
180.0
  0
ARC
  5
26F8F
330
18
100
AcDbEntity
  8
01
100
AcDbCircle
 10
3697.06516713215
 20
-2070.333564434561
 30
0.0
 40
3.0
100
AcDbArc
 50
180.0
 51
0.0
  0
LINE
  5
26F90
330
18
100
AcDbEntity
  8
01
100
AcDbLine
 10
3696.06516713215
 20
-2268.833564434561
 30
0.0
 11
3705.06516713215
 21
-2268.833564434561
 31
0.0
  0
LINE
  5
26F91
330
18
100
AcDbEntity
  8
01
100
AcDbLine
 10
3696.06516713215
 20
-2262.833564434561
 30
0.0
 11
3705.06516713215
 21
-2262.833564434561
 31
0.0
  0
ARC
  5
26F92
330
18
100
AcDbEntity
  8
01
100
AcDbCircle
 10
3696.06516713215
 20
-2265.833564434561
 30
0.0
 40
3.0
100
AcDbArc
 50
90.0
 51
270.0
  0
ARC
  5
26F93
330
18
100
AcDbEntity
  8
01
100
AcDbCircle
 10
3705.06516713215
 20
-2265.833564434561
 30
0.0
 40
3.0
100
AcDbArc
 50
270.0
 51
90.0
  0
LINE
  5
26F94
330
18
100
AcDbEntity
  8
1CENTER
100
AcDbLine
 10
3697.06516713215
 20
-2055.923074415566
 30
0.0
 11
3697.06516713215
 21
-2075.744054453556
 31
0.0
  0
LINE
  5
26F95
330
18
100
AcDbEntity
  8
1CENTER
100
AcDbLine
 10
3691.883553718473
 20
-2065.833564434561
 30
0.0
 11
3702.246780545827
 21
-2065.833564434561
 31
0.0
  0
LINE
  5
26F96
330
18
100
AcDbEntity
  8
1CENTER
100
AcDbLine
 10
3690.654677113155
 20
-2265.833564434561
 30
0.0
 11
3710.475657151145
 21
-2265.833564434561
 31
0.0
  0
LINE
  5
26F97
330
18
100
AcDbEntity
  8
1CENTER
100
AcDbLine
 10
3700.56516713215
 20
-2271.015177848237
 30
0.0
 11
3700.56516713215
 21
-2260.651951020884
 31
0.0
  0
LINE
  5
26F98
330
18
100
AcDbEntity
  8
01
100
AcDbLine
 10
3822.06516713215
 20
-2061.333564434561
 30
0.0
 11
3822.06516713215
 21
-2070.333564434561
 31
0.0
  0
LINE
  5
26F99
330
18
100
AcDbEntity
  8
01
100
AcDbLine
 10
3816.06516713215
 20
-2061.333564434561
 30
0.0
 11
3816.06516713215
 21
-2070.333564434561
 31
0.0
  0
ARC
  5
26F9A
330
18
100
AcDbEntity
  8
01
100
AcDbCircle
 10
3819.06516713215
 20
-2061.333564434561
 30
0.0
 40
3.0
100
AcDbArc
 50
0.0
 51
180.0
  0
ARC
  5
26F9B
330
18
100
AcDbEntity
  8
01
100
AcDbCircle
 10
3819.06516713215
 20
-2070.333564434561
 30
0.0
 40
3.0
100
AcDbArc
 50
180.0
 51
0.0
  0
LINE
  5
26F9C
330
18
100
AcDbEntity
  8
1CENTER
100
AcDbLine
 10
3819.06516713215
 20
-2055.923074415566
 30
0.0
 11
3819.06516713215
 21
-2075.744054453556
 31
0.0
  0
LINE
  5
26F9D
330
18
100
AcDbEntity
  8
1CENTER
100
AcDbLine
 10
3824.246780545827
 20
-2065.833564434561
 30
0.0
 11
3813.883553718473
 21
-2065.833564434561
 31
0.0
  0
LINE
  5
26F9E
330
18
100
AcDbEntity
  8
01
100
AcDbLine
 10
3820.06516713215
 20
-2268.833564434561
 30
0.0
 11
3811.06516713215
 21
-2268.833564434561
 31
0.0
  0
LINE
  5
26F9F
330
18
100
AcDbEntity
  8
01
100
AcDbLine
 10
3820.06516713215
 20
-2262.833564434561
 30
0.0
 11
3811.06516713215
 21
-2262.833564434561
 31
0.0
  0
ARC
  5
26FA0
330
18
100
AcDbEntity
  8
01
100
AcDbCircle
 10
3820.06516713215
 20
-2265.833564434561
 30
0.0
 40
3.0
100
AcDbArc
 50
270.0
 51
90.0
  0
ARC
  5
26FA1
330
18
100
AcDbEntity
  8
01
100
AcDbCircle
 10
3811.06516713215
 20
-2265.833564434561
 30
0.0
 40
3.0
100
AcDbArc
 50
90.0
 51
270.0
  0
LINE
  5
26FA2
330
18
100
AcDbEntity
  8
1CENTER
100
AcDbLine
 10
3825.475657151145
 20
-2265.833564434561
 30
0.0
 11
3805.654677113155
 21
-2265.833564434561
 31
0.0
  0
LINE
  5
26FA3
330
18
100
AcDbEntity
  8
1CENTER
100
AcDbLine
 10
3815.56516713215
 20
-2271.015177848237
 30
0.0
 11
3815.56516713215
 21
-2260.651951020884
 31
0.0
  0
LINE
  5
2749C
330
18
100
AcDbEntity
  8
1CENTER
100
AcDbLine
 10
3435.146833361996
 20
-2326.833564434561
 30
0.0
 11
3445.146833361996
 21
-2326.833564434561
 31
0.0
  0
LINE
  5
2749D
330
18
100
AcDbEntity
  8
1CENTER
100
AcDbLine
 10
3440.146833361996
 20
-2331.833564434561
 30
0.0
 11
3440.146833361996
 21
-2321.833564434561
 31
0.0
  0
LINE
  5
2749E
330
18
100
AcDbEntity
  8
1CENTER
100
AcDbLine
 10
3321.146833361996
 20
-2326.833564434561
 30
0.0
 11
3311.146833361996
 21
-2326.833564434561
 31
0.0
  0
LINE
  5
2749F
330
18
100
AcDbEntity
  8
1CENTER
100
AcDbLine
 10
3316.146833361996
 20
-2331.833564434561
 30
0.0
 11
3316.146833361996
 21
-2321.833564434561
 31
0.0
  0
LINE
  5
274FF
102
{ACAD_REACTORS
330
27545
102
}
330
18
100
AcDbEntity
  8
1PHANTOM
100
AcDbLine
 10
3318.146833361997
 20
-1825.779580534729
 30
0.0
 11
3323.146833361997
 21
-1824.779580534729
 31
0.0
  0
LINE
  5
27500
102
{ACAD_REACTORS
330
27545
102
}
330
18
100
AcDbEntity
  8
1PHANTOM
100
AcDbLine
 10
3320.646833361997
 20
-1800.451092890227
 30
0.0
 11
3320.646833361997
 21
-1846.880398870921
 31
0.0
  0
LINE
  5
27501
102
{ACAD_REACTORS
330
27545
102
}
330
18
100
AcDbEntity
  8
1PHANTOM
100
AcDbLine
 10
3318.896833361997
 20
-1808.42853503402
 30
0.0
 11
3318.896833361997
 21
-1841.897446120775
 31
0.0
  0
LINE
  5
27502
102
{ACAD_REACTORS
330
27545
102
}
330
18
100
AcDbEntity
  8
1PHANTOM
100
AcDbLine
 10
3320.646833361997
 20
-1801.897446120775
 30
0.0
 11
3318.896833361997
 21
-1808.42853503402
 31
0.0
  0
LINE
  5
27503
102
{ACAD_REACTORS
330
27545
102
}
330
18
100
AcDbEntity
  8
1PHANTOM
100
AcDbLine
 10
3320.646833361997
 20
-1801.897446120775
 30
0.0
 11
3322.396833361997
 21
-1808.42853503402
 31
0.0
  0
LINE
  5
27504
102
{ACAD_REACTORS
330
27545
102
}
330
18
100
AcDbEntity
  8
1PHANTOM
100
AcDbLine
 10
3322.396833361997
 20
-1808.42853503402
 30
0.0
 11
3322.396833361997
 21
-1841.897446120775
 31
0.0
  0
LINE
  5
27505
102
{ACAD_REACTORS
330
27545
102
}
330
18
100
AcDbEntity
  8
1PHANTOM
100
AcDbLine
 10
3318.330566420962
 20
-1807.742833922936
 30
0.0
 11
3319.080566420962
 21
-1807.892833922936
 31
0.0
  0
LINE
  5
27506
102
{ACAD_REACTORS
330
27545
102
}
330
18
100
AcDbEntity
  8
1PHANTOM
100
AcDbLine
 10
3318.330566420962
 20
-1807.742833922936
 30
0.0
 11
3322.727470902052
 21
-1806.863453026718
 31
0.0
  0
LINE
  5
27507
102
{ACAD_REACTORS
330
27545
102
}
330
18
100
AcDbEntity
  8
1PHANTOM
100
AcDbLine
 10
3320.960190048941
 20
-1802.91690919734
 30
0.0
 11
3321.710190048941
 21
-1803.06690919734
 31
0.0
  0
LINE
  5
27508
102
{ACAD_REACTORS
330
27545
102
}
330
18
100
AcDbEntity
  8
1PHANTOM
100
AcDbLine
 10
3319.46305296148
 20
-1803.516336614832
 30
0.0
 11
3320.21305296148
 21
-1803.666336614833
 31
0.0
  0
LINE
  5
27509
102
{ACAD_REACTORS
330
27545
102
}
330
18
100
AcDbEntity
  8
1PHANTOM
100
AcDbLine
 10
3319.46305296148
 20
-1803.516336614832
 30
0.0
 11
3321.710190048941
 21
-1803.06690919734
 31
0.0
  0
LINE
  5
2750A
102
{ACAD_REACTORS
330
27545
102
}
330
18
100
AcDbEntity
  8
1PHANTOM
100
AcDbLine
 10
3321.977470902052
 20
-1806.713453026718
 30
0.0
 11
3322.727470902052
 21
-1806.863453026718
 31
0.0
  0
LINE
  5
2750B
102
{ACAD_REACTORS
330
27545
102
}
330
18
100
AcDbEntity
  8
1PHANTOM
100
AcDbLine
 10
3321.468830475497
 20
-1804.815181112029
 30
0.0
 11
3322.218830475497
 21
-1804.965181112029
 31
0.0
  0
LINE
  5
2750C
102
{ACAD_REACTORS
330
27545
102
}
330
18
100
AcDbEntity
  8
1PHANTOM
100
AcDbLine
 10
3318.896809691221
 20
-1805.629585268884
 30
0.0
 11
3319.646809691221
 21
-1805.779585268884
 31
0.0
  0
LINE
  5
2750D
102
{ACAD_REACTORS
330
27545
102
}
330
18
100
AcDbEntity
  8
1PHANTOM
100
AcDbLine
 10
3318.896809691221
 20
-1805.629585268884
 30
0.0
 11
3322.218830475497
 21
-1804.965181112029
 31
0.0
  0
LINE
  5
2750E
102
{ACAD_REACTORS
330
27545
102
}
330
18
100
AcDbEntity
  8
1PHANTOM
100
AcDbLine
 10
3322.396833361997
 20
-1816.629580534729
 30
0.0
 11
3323.146833361997
 21
-1816.779580534729
 31
0.0
  0
LINE
  5
2750F
102
{ACAD_REACTORS
330
27545
102
}
330
18
100
AcDbEntity
  8
1PHANTOM
100
AcDbLine
 10
3318.146833361997
 20
-1813.779580534729
 30
0.0
 11
3318.896833361997
 21
-1813.929580534729
 31
0.0
  0
LINE
  5
27510
102
{ACAD_REACTORS
330
27545
102
}
330
18
100
AcDbEntity
  8
1PHANTOM
100
AcDbLine
 10
3318.146833361997
 20
-1815.779580534729
 30
0.0
 11
3318.896833361997
 21
-1815.929580534729
 31
0.0
  0
LINE
  5
27511
102
{ACAD_REACTORS
330
27545
102
}
330
18
100
AcDbEntity
  8
1PHANTOM
100
AcDbLine
 10
3318.146833361997
 20
-1815.779580534729
 30
0.0
 11
3323.146833361997
 21
-1814.779580534729
 31
0.0
  0
LINE
  5
27512
102
{ACAD_REACTORS
330
27545
102
}
330
18
100
AcDbEntity
  8
1PHANTOM
100
AcDbLine
 10
3318.146833361997
 20
-1811.779580534729
 30
0.0
 11
3318.896833361997
 21
-1811.929580534729
 31
0.0
  0
LINE
  5
27513
102
{ACAD_REACTORS
330
27545
102
}
330
18
100
AcDbEntity
  8
1PHANTOM
100
AcDbLine
 10
3318.146833361997
 20
-1809.779580534729
 30
0.0
 11
3318.896833361997
 21
-1809.929580534729
 31
0.0
  0
LINE
  5
27514
102
{ACAD_REACTORS
330
27545
102
}
330
18
100
AcDbEntity
  8
1PHANTOM
100
AcDbLine
 10
3318.146833361997
 20
-1809.779580534729
 30
0.0
 11
3323.146833361997
 21
-1808.779580534729
 31
0.0
  0
LINE
  5
27515
102
{ACAD_REACTORS
330
27545
102
}
330
18
100
AcDbEntity
  8
1PHANTOM
100
AcDbLine
 10
3318.146833361997
 20
-1811.779580534729
 30
0.0
 11
3323.146833361997
 21
-1810.779580534729
 31
0.0
  0
LINE
  5
27516
102
{ACAD_REACTORS
330
27545
102
}
330
18
100
AcDbEntity
  8
1PHANTOM
100
AcDbLine
 10
3318.146833361997
 20
-1813.779580534729
 30
0.0
 11
3323.146833361997
 21
-1812.779580534729
 31
0.0
  0
LINE
  5
27517
102
{ACAD_REACTORS
330
27545
102
}
330
18
100
AcDbEntity
  8
1PHANTOM
100
AcDbLine
 10
3322.396833361997
 20
-1808.629580534729
 30
0.0
 11
3323.146833361997
 21
-1808.779580534729
 31
0.0
  0
LINE
  5
27518
102
{ACAD_REACTORS
330
27545
102
}
330
18
100
AcDbEntity
  8
1PHANTOM
100
AcDbLine
 10
3322.396833361997
 20
-1810.629580534729
 30
0.0
 11
3323.146833361997
 21
-1810.779580534729
 31
0.0
  0
LINE
  5
27519
102
{ACAD_REACTORS
330
27545
102
}
330
18
100
AcDbEntity
  8
1PHANTOM
100
AcDbLine
 10
3322.396833361997
 20
-1814.629580534729
 30
0.0
 11
3323.146833361997
 21
-1814.779580534729
 31
0.0
  0
LINE
  5
2751A
102
{ACAD_REACTORS
330
27545
102
}
330
18
100
AcDbEntity
  8
1PHANTOM
100
AcDbLine
 10
3322.396833361997
 20
-1812.629580534729
 30
0.0
 11
3323.146833361997
 21
-1812.779580534729
 31
0.0
  0
LINE
  5
2751B
102
{ACAD_REACTORS
330
27545
102
}
330
18
100
AcDbEntity
  8
1PHANTOM
100
AcDbLine
 10
3318.146833361997
 20
-1819.779580534729
 30
0.0
 11
3318.896833361997
 21
-1819.929580534729
 31
0.0
  0
LINE
  5
2751C
102
{ACAD_REACTORS
330
27545
102
}
330
18
100
AcDbEntity
  8
1PHANTOM
100
AcDbLine
 10
3318.146833361997
 20
-1817.779580534729
 30
0.0
 11
3318.896833361997
 21
-1817.929580534729
 31
0.0
  0
LINE
  5
2751D
102
{ACAD_REACTORS
330
27545
102
}
330
18
100
AcDbEntity
  8
1PHANTOM
100
AcDbLine
 10
3318.146833361997
 20
-1823.779580534729
 30
0.0
 11
3318.896833361997
 21
-1823.929580534729
 31
0.0
  0
LINE
  5
2751E
102
{ACAD_REACTORS
330
27545
102
}
330
18
100
AcDbEntity
  8
1PHANTOM
100
AcDbLine
 10
3318.146833361997
 20
-1821.779580534729
 30
0.0
 11
3318.896833361997
 21
-1821.929580534729
 31
0.0
  0
LINE
  5
2751F
102
{ACAD_REACTORS
330
27545
102
}
330
18
100
AcDbEntity
  8
1PHANTOM
100
AcDbLine
 10
3318.146833361997
 20
-1817.779580534729
 30
0.0
 11
3323.146833361997
 21
-1816.779580534729
 31
0.0
  0
LINE
  5
27520
102
{ACAD_REACTORS
330
27545
102
}
330
18
100
AcDbEntity
  8
1PHANTOM
100
AcDbLine
 10
3318.146833361997
 20
-1819.779580534729
 30
0.0
 11
3323.146833361997
 21
-1818.779580534729
 31
0.0
  0
LINE
  5
27521
102
{ACAD_REACTORS
330
27545
102
}
330
18
100
AcDbEntity
  8
1PHANTOM
100
AcDbLine
 10
3318.146833361997
 20
-1821.779580534729
 30
0.0
 11
3323.146833361997
 21
-1820.779580534729
 31
0.0
  0
LINE
  5
27522
102
{ACAD_REACTORS
330
27545
102
}
330
18
100
AcDbEntity
  8
1PHANTOM
100
AcDbLine
 10
3318.146833361997
 20
-1823.779580534729
 30
0.0
 11
3323.146833361997
 21
-1822.779580534729
 31
0.0
  0
LINE
  5
27523
102
{ACAD_REACTORS
330
27545
102
}
330
18
100
AcDbEntity
  8
1PHANTOM
100
AcDbLine
 10
3322.396833361997
 20
-1820.629580534729
 30
0.0
 11
3323.146833361997
 21
-1820.779580534729
 31
0.0
  0
LINE
  5
27524
102
{ACAD_REACTORS
330
27545
102
}
330
18
100
AcDbEntity
  8
1PHANTOM
100
AcDbLine
 10
3322.396833361997
 20
-1818.629580534729
 30
0.0
 11
3323.146833361997
 21
-1818.779580534729
 31
0.0
  0
LINE
  5
27525
102
{ACAD_REACTORS
330
27545
102
}
330
18
100
AcDbEntity
  8
1PHANTOM
100
AcDbLine
 10
3322.396833361997
 20
-1824.629580534729
 30
0.0
 11
3323.146833361997
 21
-1824.779580534729
 31
0.0
  0
LINE
  5
27526
102
{ACAD_REACTORS
330
27545
102
}
330
18
100
AcDbEntity
  8
1PHANTOM
100
AcDbLine
 10
3322.396833361997
 20
-1822.629580534729
 30
0.0
 11
3323.146833361997
 21
-1822.779580534729
 31
0.0
  0
LINE
  5
27527
102
{ACAD_REACTORS
330
27545
102
}
330
18
100
AcDbEntity
  8
1PHANTOM
100
AcDbLine
 10
3318.146833361997
 20
-1841.779580534729
 30
0.0
 11
3323.146833361997
 21
-1840.779580534729
 31
0.0
  0
LINE
  5
27528
102
{ACAD_REACTORS
330
27545
102
}
330
18
100
AcDbEntity
  8
1PHANTOM
100
AcDbLine
 10
3318.146833361997
 20
-1833.779580534729
 30
0.0
 11
3323.146833361997
 21
-1832.779580534729
 31
0.0
  0
LINE
  5
27529
102
{ACAD_REACTORS
330
27545
102
}
330
18
100
AcDbEntity
  8
1PHANTOM
100
AcDbLine
 10
3318.146833361997
 20
-1825.779580534729
 30
0.0
 11
3318.896833361997
 21
-1825.929580534729
 31
0.0
  0
LINE
  5
2752A
102
{ACAD_REACTORS
330
27545
102
}
330
18
100
AcDbEntity
  8
1PHANTOM
100
AcDbLine
 10
3318.146833361997
 20
-1827.779580534729
 30
0.0
 11
3318.896833361997
 21
-1827.929580534729
 31
0.0
  0
LINE
  5
2752B
102
{ACAD_REACTORS
330
27545
102
}
330
18
100
AcDbEntity
  8
1PHANTOM
100
AcDbLine
 10
3318.146833361997
 20
-1829.779580534729
 30
0.0
 11
3318.896833361997
 21
-1829.929580534729
 31
0.0
  0
LINE
  5
2752C
102
{ACAD_REACTORS
330
27545
102
}
330
18
100
AcDbEntity
  8
1PHANTOM
100
AcDbLine
 10
3318.146833361997
 20
-1831.779580534729
 30
0.0
 11
3318.896833361997
 21
-1831.929580534729
 31
0.0
  0
LINE
  5
2752D
102
{ACAD_REACTORS
330
27545
102
}
330
18
100
AcDbEntity
  8
1PHANTOM
100
AcDbLine
 10
3318.146833361997
 20
-1827.779580534729
 30
0.0
 11
3323.146833361997
 21
-1826.779580534729
 31
0.0
  0
LINE
  5
2752E
102
{ACAD_REACTORS
330
27545
102
}
330
18
100
AcDbEntity
  8
1PHANTOM
100
AcDbLine
 10
3318.146833361997
 20
-1829.779580534729
 30
0.0
 11
3323.146833361997
 21
-1828.779580534729
 31
0.0
  0
LINE
  5
2752F
102
{ACAD_REACTORS
330
27545
102
}
330
18
100
AcDbEntity
  8
1PHANTOM
100
AcDbLine
 10
3318.146833361997
 20
-1831.779580534729
 30
0.0
 11
3323.146833361997
 21
-1830.779580534729
 31
0.0
  0
LINE
  5
27530
102
{ACAD_REACTORS
330
27545
102
}
330
18
100
AcDbEntity
  8
1PHANTOM
100
AcDbLine
 10
3322.396833361997
 20
-1826.629580534729
 30
0.0
 11
3323.146833361997
 21
-1826.779580534729
 31
0.0
  0
LINE
  5
27531
102
{ACAD_REACTORS
330
27545
102
}
330
18
100
AcDbEntity
  8
1PHANTOM
100
AcDbLine
 10
3322.396833361997
 20
-1828.629580534729
 30
0.0
 11
3323.146833361997
 21
-1828.779580534729
 31
0.0
  0
LINE
  5
27532
102
{ACAD_REACTORS
330
27545
102
}
330
18
100
AcDbEntity
  8
1PHANTOM
100
AcDbLine
 10
3322.396833361997
 20
-1830.629580534729
 30
0.0
 11
3323.146833361997
 21
-1830.779580534729
 31
0.0
  0
LINE
  5
27533
102
{ACAD_REACTORS
330
27545
102
}
330
18
100
AcDbEntity
  8
1PHANTOM
100
AcDbLine
 10
3322.396833361997
 20
-1832.629580534729
 30
0.0
 11
3323.146833361997
 21
-1832.779580534729
 31
0.0
  0
LINE
  5
27534
102
{ACAD_REACTORS
330
27545
102
}
330
18
100
AcDbEntity
  8
1PHANTOM
100
AcDbLine
 10
3318.146833361997
 20
-1837.779580534729
 30
0.0
 11
3318.896833361997
 21
-1837.929580534729
 31
0.0
  0
LINE
  5
27535
102
{ACAD_REACTORS
330
27545
102
}
330
18
100
AcDbEntity
  8
1PHANTOM
100
AcDbLine
 10
3318.146833361997
 20
-1835.779580534729
 30
0.0
 11
3318.896833361997
 21
-1835.929580534729
 31
0.0
  0
LINE
  5
27536
102
{ACAD_REACTORS
330
27545
102
}
330
18
100
AcDbEntity
  8
1PHANTOM
100
AcDbLine
 10
3318.146833361997
 20
-1833.779580534729
 30
0.0
 11
3318.896833361997
 21
-1833.929580534729
 31
0.0
  0
LINE
  5
27537
102
{ACAD_REACTORS
330
27545
102
}
330
18
100
AcDbEntity
  8
1PHANTOM
100
AcDbLine
 10
3318.146833361997
 20
-1839.779580534729
 30
0.0
 11
3318.896833361997
 21
-1839.929580534729
 31
0.0
  0
LINE
  5
27538
102
{ACAD_REACTORS
330
27545
102
}
330
18
100
AcDbEntity
  8
1PHANTOM
100
AcDbLine
 10
3318.146833361997
 20
-1835.779580534729
 30
0.0
 11
3323.146833361997
 21
-1834.779580534729
 31
0.0
  0
LINE
  5
27539
102
{ACAD_REACTORS
330
27545
102
}
330
18
100
AcDbEntity
  8
1PHANTOM
100
AcDbLine
 10
3318.146833361997
 20
-1837.779580534729
 30
0.0
 11
3323.146833361997
 21
-1836.779580534729
 31
0.0
  0
LINE
  5
2753A
102
{ACAD_REACTORS
330
27545
102
}
330
18
100
AcDbEntity
  8
1PHANTOM
100
AcDbLine
 10
3318.146833361997
 20
-1839.779580534729
 30
0.0
 11
3323.146833361997
 21
-1838.779580534729
 31
0.0
  0
LINE
  5
2753B
102
{ACAD_REACTORS
330
27545
102
}
330
18
100
AcDbEntity
  8
1PHANTOM
100
AcDbLine
 10
3322.396833361997
 20
-1836.629580534729
 30
0.0
 11
3323.146833361997
 21
-1836.779580534729
 31
0.0
  0
LINE
  5
2753C
102
{ACAD_REACTORS
330
27545
102
}
330
18
100
AcDbEntity
  8
1PHANTOM
100
AcDbLine
 10
3322.396833361997
 20
-1834.629580534729
 30
0.0
 11
3323.146833361997
 21
-1834.779580534729
 31
0.0
  0
LINE
  5
2753D
102
{ACAD_REACTORS
330
27545
102
}
330
18
100
AcDbEntity
  8
1PHANTOM
100
AcDbLine
 10
3322.396833361997
 20
-1838.629580534729
 30
0.0
 11
3323.146833361997
 21
-1838.779580534729
 31
0.0
  0
LINE
  5
2753E
102
{ACAD_REACTORS
330
27545
102
}
330
18
100
AcDbEntity
  8
1PHANTOM
100
AcDbLine
 10
3322.396833361997
 20
-1840.629580534729
 30
0.0
 11
3323.146833361997
 21
-1840.779580534729
 31
0.0
  0
LINE
  5
2753F
102
{ACAD_REACTORS
330
27545
102
}
330
18
100
AcDbEntity
  8
1PHANTOM
100
AcDbLine
 10
3318.146833361997
 20
-1841.779580534729
 30
0.0
 11
3318.896833361997
 21
-1841.929580534729
 31
0.0
  0
LINE
  5
27540
102
{ACAD_REACTORS
330
27545
102
}
330
18
100
AcDbEntity
  8
1PHANTOM
100
AcDbLine
 10
3325.396833361997
 20
-1841.897446120775
 30
0.0
 11
3315.896833361997
 21
-1841.897446120775
 31
0.0
  0
ARC
  5
27541
102
{ACAD_REACTORS
330
27545
102
}
330
18
100
AcDbEntity
  8
1PHANTOM
100
AcDbCircle
 10
3320.646833361997
 20
-1836.126612787441
 30
0.0
 40
8.270833333333439
100
AcDbArc
 50
234.9488632525198
 51
305.0511367474802
  0
LINE
  5
27542
102
{ACAD_REACTORS
330
27545
102
}
330
18
100
AcDbEntity
  8
1PHANTOM
100
AcDbLine
 10
3325.396833361997
 20
-1841.897446120775
 30
0.0
 11
3325.396833361997
 21
-1842.897446120775
 31
0.0
  0
LINE
  5
27543
102
{ACAD_REACTORS
330
27545
102
}
330
18
100
AcDbEntity
  8
1PHANTOM
100
AcDbLine
 10
3315.896833361997
 20
-1841.897446120775
 30
0.0
 11
3315.896833361997
 21
-1842.897446120775
 31
0.0
  0
LINE
  5
27544
102
{ACAD_REACTORS
330
27545
102
}
330
18
100
AcDbEntity
  8
1PHANTOM
100
AcDbLine
 10
3325.179896541663
 20
-1842.897446120775
 30
0.0
 11
3316.141465577191
 21
-1842.897446120775
 31
0.0
  0
CIRCLE
  5
2768E
330
18
100
AcDbEntity
  8
1PHANTOM
100
AcDbCircle
 10
3440.148097394676
 20
-2326.833564434561
 30
0.0
 40
3.0
  0
CIRCLE
  5
2768F
330
18
100
AcDbEntity
  8
1PHANTOM
100
AcDbCircle
 10
3316.145569329317
 20
-2326.833564434561
 30
0.0
 40
3.0
  0
LINE
  5
27889
330
18
100
AcDbEntity
  8
01
100
AcDbLine
 10
3578.146833361996
 20
-2321.060061742665
 30
0.0
 11
3581.346833361996
 21
-2321.060061742665
 31
0.0
  0
LINE
  5
2788B
330
18
100
AcDbEntity
  8
01
100
AcDbLine
 10
3578.146833361996
 20
-2332.607067126457
 30
0.0
 11
3581.346833361996
 21
-2332.607067126457
 31
0.0
  0
LINE
  5
2788C
330
18
100
AcDbEntity
  8
01
100
AcDbLine
 10
3578.146833361996
 20
-2323.946813088613
 30
0.0
 11
3581.346833361996
 21
-2323.946813088613
 31
0.0
  0
LINE
  5
2788D
330
18
100
AcDbEntity
  8
01
100
AcDbLine
 10
3578.146833361996
 20
-2329.720315780508
 30
0.0
 11
3581.346833361996
 21
-2329.720315780509
 31
0.0
  0
LINE
  5
278EA
330
18
100
AcDbEntity
  8
01
100
AcDbLine
 10
3581.346833361996
 20
-2321.060061742665
 30
0.0
 11
3581.346833361996
 21
-2332.607067126457
 31
0.0
  0
LINE
  5
29AA9
330
18
100
AcDbEntity
  8
1CENTER
100
AcDbLine
 10
3763.06516713215
 20
-2159.333564434558
 30
0.0
 11
3753.06516713215
 21
-2159.333564434558
 31
0.0
  0
LINE
  5
29AAA
330
18
100
AcDbEntity
  8
1CENTER
100
AcDbLine
 10
3758.065167134017
 20
-2154.333564439115
 30
0.0
 11
3758.065167134017
 21
-2164.333564439115
 31
0.0
  0
LINE
  5
29AAB
330
18
100
AcDbEntity
  8
01
100
AcDbLine
 10
3713.06516713215
 20
-2254.333564439115
 30
0.0
 11
3713.06516713215
 21
-2064.333564439115
 31
0.0
  0
ARC
  5
29AAC
330
18
100
AcDbEntity
  8
01
100
AcDbCircle
 10
3718.06516713215
 20
-2254.333564439115
 30
0.0
 40
5.0
100
AcDbArc
 50
180.0
 51
270.0
  0
LINE
  5
29AAD
330
18
100
AcDbEntity
  8
01
100
AcDbLine
 10
3803.06516713215
 20
-2254.333564439115
 30
0.0
 11
3803.06516713215
 21
-2064.333564439115
 31
0.0
  0
ARC
  5
29AAE
330
18
100
AcDbEntity
  8
01
100
AcDbCircle
 10
3798.06516713215
 20
-2064.333564439115
 30
0.0
 40
5.0
100
AcDbArc
 50
0.0
 51
90.0
  0
LINE
  5
29AAF
330
18
100
AcDbEntity
  8
01
100
AcDbLine
 10
3718.06516713215
 20
-2259.333564439115
 30
0.0
 11
3798.06516713215
 21
-2259.333564439115
 31
0.0
  0
ARC
  5
29AB0
330
18
100
AcDbEntity
  8
01
100
AcDbCircle
 10
3798.06516713215
 20
-2254.333564439115
 30
0.0
 40
5.0
100
AcDbArc
 50
270.0
 51
0.0
  0
LINE
  5
29AB1
330
18
100
AcDbEntity
  8
01
100
AcDbLine
 10
3718.06516713215
 20
-2059.333564439115
 30
0.0
 11
3798.06516713215
 21
-2059.333564439115
 31
0.0
  0
ARC
  5
29AB2
330
18
100
AcDbEntity
  8
01
100
AcDbCircle
 10
3718.06516713215
 20
-2064.333564439115
 30
0.0
 40
5.0
100
AcDbArc
 50
90.0
 51
180.0
  0
LINE
  5
29B17
330
18
100
AcDbEntity
  8
1CENTER
100
AcDbLine
 10
3383.146833361996
 20
-2159.333564434558
 30
0.0
 11
3373.146833361996
 21
-2159.333564434558
 31
0.0
  0
LINE
  5
29B18
330
18
100
AcDbEntity
  8
1CENTER
100
AcDbLine
 10
3378.146833363864
 20
-2154.333564439115
 30
0.0
 11
3378.146833363864
 21
-2164.333564439115
 31
0.0
  0
LINE
  5
2BDC5
330
18
100
AcDbEntity
  8
1DIM
100
AcDbLine
 10
3669.763811875217
 20
-1851.027451073226
 30
0.0
 11
4019.76381187522
 21
-1851.027451073224
 31
0.0
  0
LINE
  5
2BDC6
330
18
100
AcDbEntity
  8
1DIM
100
AcDbLine
 10
3669.763811875217
 20
-1837.027451073226
 30
0.0
 11
4019.763811875221
 21
-1837.027451073224
 31
0.0
  0
TEXT
  5
2BDC7
330
18
100
AcDbEntity
  8
1TEXT
100
AcDbText
 10
3900.830478541886
 20
-1848.027451073226
 30
0.0
 40
8.0
  1
コード
 72
     1
 11
3914.563811875219
 21
-1848.027451073226
 31
0.0
100
AcDbText
  0
TEXT
  5
2BDC8
330
18
100
AcDbEntity
  8
1TEXT
100
AcDbText
 10
3672.297145208551
 20
-1848.027451073227
 30
0.0
 40
8.0
  1
仕上げ：パネル（ガラス部）
 41
0.55
 72
     1
 11
3704.563811875218
 21
-1848.027451073227
 31
0.0
100
AcDbText
  0
LINE
  5
2BDC9
330
18
100
AcDbEntity
  8
1DIM
100
AcDbLine
 10
3669.763811875217
 20
-1865.027451073226
 30
0.0
 11
3949.763811875219
 21
-1865.027451073226
 31
0.0
  0
TEXT
  5
2BDCA
330
18
100
AcDbEntity
  8
1TEXT
100
AcDbText
 10
3679.443811875219
 20
-1876.456165040526
 30
0.0
 40
8.0
  1
ヘアラインシルバー
 41
0.6
 72
     1
 11
3704.563811875219
 21
-1876.456165040526
 31
0.0
100
AcDbText
  0
LINE
  5
2BDCB
330
18
100
AcDbEntity
  8
1DIM
100
AcDbLine
 10
3879.763811875219
 20
-1837.027451073225
 30
0.0
 11
3879.763811875219
 21
-1893.027451073228
 31
0.0
  0
TEXT
  5
2BDCC
330
18
100
AcDbEntity
  8
1TEXT
100
AcDbText
 10
3668.372334731924
 20
-1832.642871556499
 30
0.0
 40
16.0
  1
GP-110-X-01
100
AcDbText
  0
LINE
  5
2BDCD
330
18
100
AcDbEntity
  8
1DIM
100
AcDbLine
 10
3669.763811875217
 20
-1879.027451073227
 30
0.0
 11
3949.763811875218
 21
-1879.027451073227
 31
0.0
  0
TEXT
  5
2BDCE
330
18
100
AcDbEntity
  8
1TEXT
100
AcDbText
 10
3678.857145208551
 20
-1862.456165040525
 30
0.0
 40
8.0
  1
アクアホワイト
 41
0.8
 72
     1
 11
3704.563811875218
 21
-1862.456165040525
 31
0.0
100
AcDbText
  0
TEXT
  5
2BDCF
330
18
100
AcDbEntity
  8
1TEXT
100
AcDbText
 10
3885.945756319664
 20
-1862.456165040525
 30
0.0
 40
8.0
  1
GP-110-004-01
 41
0.65
 72
     1
 11
3914.563811875219
 21
-1862.456165040525
 31
0.0
100
AcDbText
  0
LINE
  5
2BDD0
330
18
100
AcDbEntity
  8
1DIM
100
AcDbLine
 10
3669.763811875217
 20
-1893.027451073228
 30
0.0
 11
4019.76381187522
 21
-1893.027451073228
 31
0.0
  0
TEXT
  5
2BDD1
330
18
100
AcDbEntity
  8
1TEXT
100
AcDbText
 10
3670.563811875219
 20
-1890.456165040527
 30
0.0
 40
8.0
  1
ヘアラインダークブラウン
 41
0.6
 72
     1
 11
3704.563811875219
 21
-1890.456165040527
 31
0.0
100
AcDbText
  0
LINE
  5
2BDD2
330
18
100
AcDbEntity
  8
1DIM
100
AcDbLine
 10
3809.763811875218
 20
-1837.027451073225
 30
0.0
 11
3809.763811875218
 21
-1893.027451073228
 31
0.0
  0
TEXT
  5
2BDD3
330
18
100
AcDbEntity
  8
1TEXT
100
AcDbText
 10
3829.843811875221
 20
-1876.456165040525
 30
0.0
 40
8.0
  1
シルバー
 41
0.8
 72
     1
 11
3844.56381187522
 21
-1876.456165040525
 31
0.0
100
AcDbText
  0
TEXT
  5
2BDD4
330
18
100
AcDbEntity
  8
1TEXT
100
AcDbText
 10
3821.737145208553
 20
-1862.456165040524
 30
0.0
 40
8.0
  1
ミストグレー
 41
0.8
 72
     1
 11
3844.563811875219
 21
-1862.456165040524
 31
0.0
100
AcDbText
  0
TEXT
  5
2BDD5
330
18
100
AcDbEntity
  8
1TEXT
100
AcDbText
 10
3818.323811875222
 20
-1890.456165040526
 30
0.0
 40
8.0
  1
ダークブラウン
 41
0.8
 72
     1
 11
3844.563811875221
 21
-1890.456165040526
 31
0.0
100
AcDbText
  0
TEXT
  5
2BDD6
330
18
100
AcDbEntity
  8
1TEXT
100
AcDbText
 10
3824.870478541886
 20
-1848.027451073226
 30
0.0
 40
8.0
  1
仕上げ：本体
 41
0.7
 72
     1
 11
3844.563811875219
 21
-1848.027451073226
 31
0.0
100
AcDbText
  0
TEXT
  5
2BDD7
330
18
100
AcDbEntity
  8
1TEXT
100
AcDbText
 10
3885.927700764109
 20
-1876.456165040525
 30
0.0
 40
8.0
  1
GP-110-006-01
 41
0.65
 72
     1
 11
3914.563811875219
 21
-1876.456165040525
 31
0.0
100
AcDbText
  0
TEXT
  5
2BDD8
330
18
100
AcDbEntity
  8
1TEXT
100
AcDbText
 10
3885.945756319664
 20
-1890.456165040526
 30
0.0
 40
8.0
  1
GP-110-008-01
 41
0.65
 72
     1
 11
3914.563811875219
 21
-1890.456165040526
 31
0.0
100
AcDbText
  0
LINE
  5
2BDD9
330
18
100
AcDbEntity
  8
1DIM
100
AcDbLine
 10
3739.763811875217
 20
-1837.027451073226
 30
0.0
 11
3739.763811875217
 21
-1893.027451073228
 31
0.0
  0
TEXT
  5
2BDDA
330
18
100
AcDbEntity
  8
1TEXT
100
AcDbText
 10
3759.84381187522
 20
-1876.456165040525
 30
0.0
 40
8.0
  1
シルバー
 41
0.8
 72
     1
 11
3774.563811875219
 21
-1876.456165040525
 31
0.0
100
AcDbText
  0
TEXT
  5
2BDDB
330
18
100
AcDbEntity
  8
1TEXT
100
AcDbText
 10
3751.737145208552
 20
-1862.456165040524
 30
0.0
 40
8.0
  1
ミストグレー
 41
0.8
 72
     1
 11
3774.563811875219
 21
-1862.456165040524
 31
0.0
100
AcDbText
  0
TEXT
  5
2BDDC
330
18
100
AcDbEntity
  8
1TEXT
100
AcDbText
 10
3748.323811875221
 20
-1890.456165040526
 30
0.0
 40
8.0
  1
ダークブラウン
 41
0.8
 72
     1
 11
3774.56381187522
 21
-1890.456165040526
 31
0.0
100
AcDbText
  0
TEXT
  5
2BDDD
330
18
100
AcDbEntity
  8
1TEXT
100
AcDbText
 10
3742.508739786233
 20
-1848.027451073226
 30
0.0
 40
8.0
  1
仕上げ：パネル（ステンレス部）
 41
0.5
 72
     1
 11
3776.642073119566
 21
-1848.027451073226
 31
0.0
100
AcDbText
  0
LINE
  5
2BEBA
330
18
100
AcDbEntity
  8
1CENTER
100
AcDbLine
 10
3430.746210410317
 20
-1939.833564434558
 30
0.0
 11
3325.547456313675
 21
-1939.833564434558
 31
0.0
  0
LINE
  5
2BEBB
330
18
100
AcDbEntity
  8
1HIDDEN
100
AcDbLine
 10
3423.896833361996
 20
-1952.583564434558
 30
0.0
 11
3332.396833361996
 21
-1952.583564434558
 31
0.0
  0
LINE
  5
2BEBC
330
18
100
AcDbEntity
  8
1HIDDEN
100
AcDbLine
 10
3423.896833361996
 20
-1927.083564434558
 30
0.0
 11
3332.396833361996
 21
-1927.083564434558
 31
0.0
  0
LINE
  5
2BEBE
330
18
100
AcDbEntity
  8
1HIDDEN
100
AcDbLine
 10
3423.896833361996
 20
-1952.583564434558
 30
0.0
 11
3423.896833361996
 21
-1927.083564434558
 31
0.0
  0
LINE
  5
2BEBF
330
18
100
AcDbEntity
  8
1HIDDEN
100
AcDbLine
 10
3332.396833361996
 20
-1952.583564434558
 30
0.0
 11
3332.396833361996
 21
-1927.083564434558
 31
0.0
  0
LINE
  5
2BF40
330
18
100
AcDbEntity
  8
1PHANTOM
100
AcDbLine
 10
3673.065167134017
 20
-2201.590080614191
 30
0.0
 11
3673.065167134017
 21
-2141.166353314842
 31
0.0
  0
LINE
  5
2BF41
330
18
100
AcDbEntity
  8
1PHANTOM
100
AcDbLine
 10
3843.065167134017
 20
-2201.590080614191
 30
0.0
 11
3843.065167134017
 21
-2141.166353314842
 31
0.0
  0
TEXT
  5
2C075
330
18
100
AcDbEntity
  8
01
  6
CONTINUOUS
100
AcDbText
 10
3695.322448532488
 20
-1930.565516078676
 30
0.0
 40
7.0
  1
スイッチボックスを施工できない
  7
SWISS
100
AcDbText
  0
TEXT
  5
2C076
330
18
100
AcDbEntity
  8
01
  6
CONTINUOUS
100
AcDbText
 10
3716.439115199154
 20
-1942.232182745342
 30
0.0
 40
7.0
  1
場合の壁面切欠き寸法
  7
SWISS
100
AcDbText
  0
LINE
  5
2C077
330
18
100
AcDbEntity
  8
1DIM
100
AcDbLine
 10
3445.646833361996
 20
-2340.833564434558
 30
0.0
 11
3532.646833361996
 21
-2340.833564434558
 31
0.0
1001
ACAD
1000
DSTYLE
1002
{
1070
    40
1040
2.0
1002
}
  0
LINE
  5
2C078
330
18
100
AcDbEntity
  8
1DIM
100
AcDbLine
 10
3445.646833361996
 20
-1910.833564434558
 30
0.0
 11
3532.646833361996
 21
-1910.833564434558
 31
0.0
1001
ACAD
1000
DSTYLE
1002
{
1070
    40
1040
2.0
1002
}
  0
LINE
  5
2C079
330
18
100
AcDbEntity
  8
1DIM
100
AcDbLine
 10
3530.646833361996
 20
-2336.833564434558
 30
0.0
 11
3530.646833361996
 21
-1914.833564434558
 31
0.0
1001
ACAD
1000
DSTYLE
1002
{
1070
    40
1040
2.0
1002
}
  0
LINE
  5
2C07D
330
18
100
AcDbEntity
  8
1DIM
100
AcDbLine
 10
3305.646833361996
 20
-1915.833564434558
 30
0.0
 11
3305.646833361996
 21
-1878.833564434558
 31
0.0
1001
ACAD
1000
DSTYLE
1002
{
1070
    40
1040
2.0
1002
}
  0
LINE
  5
2C07E
330
18
100
AcDbEntity
  8
1DIM
100
AcDbLine
 10
3450.646833361996
 20
-1915.833564434558
 30
0.0
 11
3450.646833361996
 21
-1878.833564434558
 31
0.0
1001
ACAD
1000
DSTYLE
1002
{
1070
    40
1040
2.0
1002
}
  0
LINE
  5
2C07F
330
18
100
AcDbEntity
  8
1DIM
100
AcDbLine
 10
3309.646833361996
 20
-1880.833564434558
 30
0.0
 11
3446.646833361996
 21
-1880.833564434558
 31
0.0
1001
ACAD
1000
DSTYLE
1002
{
1070
    40
1040
2.0
1002
}
  0
LINE
  5
2C083
330
18
100
AcDbEntity
  8
0
  6
BYBLOCK
100
AcDbLine
 10
3509.575036603863
 20
-2163.333564434558
 30
0.0
 11
3510.646833363863
 21
-2159.333564434558
 31
0.0
  0
LINE
  5
2C084
330
18
100
AcDbEntity
  8
0
  6
BYBLOCK
100
AcDbLine
 10
3510.646833363863
 20
-2159.333564434558
 30
0.0
 11
3511.718630123863
 21
-2163.333564434558
 31
0.0
  0
LINE
  5
2C085
330
18
100
AcDbEntity
  8
0
  6
BYBLOCK
100
AcDbLine
 10
3510.646833363863
 20
-2159.333564434558
 30
0.0
 11
3510.646833363863
 21
-2163.333564434558
 31
0.0
  0
TEXT
  5
2C086
330
18
100
AcDbEntity
  8
1DIM
  6
CONTINUOUS
100
AcDbText
 10
3495.690652605759
 20
-2319.344682683643
 30
0.0
 40
7.0
  1
JIS3個用スイッチボックス（カバーなし）
 50
90.0
100
AcDbText
  0
TEXT
  5
2C087
330
18
100
AcDbEntity
  8
1DIM
  6
CONTINUOUS
100
AcDbText
 10
3507.362180383537
 20
-2298.252321572532
 30
0.0
 40
7.0
  1
中心床面より1350（推奨位置）
 50
90.0
100
AcDbText
  0
LINE
  5
2C088
330
18
100
AcDbEntity
  8
1DIM
100
AcDbLine
 10
3310.736343343001
 20
-2265.833564434559
 30
0.0
 11
3285.806026655157
 21
-2265.833564434559
 31
0.0
1001
ACAD
1000
DSTYLE
1002
{
1070
    40
1040
2.0
1002
}
  0
LINE
  5
2C089
330
18
100
AcDbEntity
  8
1DIM
100
AcDbLine
 10
3311.965219948319
 20
-2065.833564434561
 30
0.0
 11
3285.806026655157
 21
-2065.833564434561
 31
0.0
1001
ACAD
1000
DSTYLE
1002
{
1070
    40
1040
2.0
1002
}
  0
LINE
  5
2C08A
330
18
100
AcDbEntity
  8
1DIM
100
AcDbLine
 10
3287.806026655157
 20
-2261.833564434559
 30
0.0
 11
3287.806026655157
 21
-2069.833564434561
 31
0.0
1001
ACAD
1000
DSTYLE
1002
{
1070
    40
1040
2.0
1002
}
  0
LINE
  5
2C08E
330
18
100
AcDbEntity
  8
1DIM
100
AcDbLine
 10
3383.146833361996
 20
-2159.333564434558
 30
0.0
 11
3512.646833363864
 21
-2159.333564434558
 31
0.0
1001
ACAD
1000
DSTYLE
1002
{
1070
    40
1040
2.0
1002
}
  0
LINE
  5
2C08F
330
18
100
AcDbEntity
  8
1DIM
100
AcDbLine
 10
3444.328446775673
 20
-2065.833564434561
 30
0.0
 11
3512.646833363864
 21
-2065.833564434561
 31
0.0
1001
ACAD
1000
DSTYLE
1002
{
1070
    40
1040
2.0
1002
}
  0
LINE
  5
2C090
330
18
100
AcDbEntity
  8
1DIM
100
AcDbLine
 10
3510.646833363864
 20
-2155.333564434558
 30
0.0
 11
3510.646833363864
 21
-2069.833564434561
 31
0.0
1001
ACAD
1000
DSTYLE
1002
{
1070
    40
1040
2.0
1002
}
  0
LINE
  5
2C094
330
18
100
AcDbEntity
  8
1DIM
100
AcDbLine
 10
3317.146833361996
 20
-2055.923074415566
 30
0.0
 11
3317.146833361996
 21
-1898.833564434558
 31
0.0
1001
ACAD
1000
DSTYLE
1002
{
1070
    40
1040
2.0
1002
}
  0
LINE
  5
2C095
330
18
100
AcDbEntity
  8
1DIM
100
AcDbLine
 10
3439.146833361996
 20
-2055.923074415564
 30
0.0
 11
3439.146833361996
 21
-1898.833564434558
 31
0.0
1001
ACAD
1000
DSTYLE
1002
{
1070
    40
1040
2.0
1002
}
  0
LINE
  5
2C096
330
18
100
AcDbEntity
  8
1DIM
100
AcDbLine
 10
3321.146833361996
 20
-1900.833564434558
 30
0.0
 11
3435.146833361996
 21
-1900.833564434558
 31
0.0
1001
ACAD
1000
DSTYLE
1002
{
1070
    40
1040
2.0
1002
}
  0
LINE
  5
2C09A
330
18
100
AcDbEntity
  8
1DIM
100
AcDbLine
 10
3444.328446775673
 20
-2065.833564434561
 30
0.0
 11
3512.646833361996
 21
-2065.833564434561
 31
0.0
1001
ACAD
1000
DSTYLE
1002
{
1070
    40
1040
2.0
1002
}
  0
LINE
  5
2C09B
330
18
100
AcDbEntity
  8
1DIM
100
AcDbLine
 10
3445.646833361996
 20
-1910.833564434558
 30
0.0
 11
3512.646833361996
 21
-1910.833564434558
 31
0.0
1001
ACAD
1000
DSTYLE
1002
{
1070
    40
1040
2.0
1002
}
  0
LINE
  5
2C09C
330
18
100
AcDbEntity
  8
1DIM
100
AcDbLine
 10
3510.646833361996
 20
-2061.833564434561
 30
0.0
 11
3510.646833361996
 21
-1914.833564434558
 31
0.0
1001
ACAD
1000
DSTYLE
1002
{
1070
    40
1040
2.0
1002
}
  0
SOLID
  5
2C0A0
330
18
100
AcDbEntity
  8
1DIM
100
AcDbTrace
 10
3437.893983605923
 20
-1851.140923397465
 30
0.0
 11
3434.133470114768
 21
-1852.658481543728
 31
0.0
 12
3437.198531585991
 22
-1850.003327570402
 32
0.0
 13
3437.198531585991
 23
-1850.003327570402
 33
0.0
1001
ACAD
1000
DSTYLE
1002
{
1070
    40
1040
2.0
1002
}
  0
LINE
  5
2C0A1
330
18
100
AcDbEntity
  8
1DIM
100
AcDbLine
 10
3437.546257595957
 20
-1850.572125483933
 30
0.0
 11
3447.476167565701
 21
-1844.501625063738
 31
0.0
1001
ACAD
1000
DSTYLE
1002
{
1070
    40
1040
2.0
1002
}
  0
LINE
  5
2C0A2
330
18
100
AcDbEntity
  8
1DIM
100
AcDbLine
 10
3447.476167565701
 20
-1844.501625063738
 30
0.0
 11
3526.842834232367
 21
-1844.501625063738
 31
0.0
1001
ACAD
1000
DSTYLE
1002
{
1070
    40
1040
2.0
1002
}
  0
TEXT
  5
2C0A3
330
18
100
AcDbEntity
  8
1DIM
  6
CONTINUOUS
100
AcDbText
 10
3452.409500899034
 20
-1831.434958397071
 30
0.0
 40
7.0
  1
材質：ステンレス
100
AcDbText
  0
TEXT
  5
2C0A4
330
18
100
AcDbEntity
  8
1DIM
  6
CONTINUOUS
100
AcDbText
 10
3452.642834232367
 20
-1843.101625063738
 30
0.0
 40
7.0
  1
仕上げ：各種仕上げ
100
AcDbText
  0
SOLID
  5
2C0A5
330
18
100
AcDbEntity
  8
1DIM
100
AcDbTrace
 10
3449.218976925716
 20
-1910.512203670199
 30
0.0
 11
3447.768960385882
 21
-1914.299273312898
 31
0.0
 12
3447.912358850255
 22
-1910.246634502831
 32
0.0
 13
3447.912358850255
 23
-1910.246634502831
 33
0.0
1001
ACAD
1000
DSTYLE
1002
{
1070
    40
1040
2.0
1002
}
  0
LINE
  5
2C0A6
330
18
100
AcDbEntity
  8
1DIM
100
AcDbLine
 10
3448.565667887986
 20
-1910.379419086515
 30
0.0
 11
3456.223717140961
 21
-1872.701304281717
 31
0.0
1001
ACAD
1000
DSTYLE
1002
{
1070
    40
1040
2.0
1002
}
  0
LINE
  5
2C0A7
330
18
100
AcDbEntity
  8
1DIM
100
AcDbLine
 10
3456.223717140961
 20
-1872.701304281717
 30
0.0
 11
3535.590383807628
 21
-1872.701304281717
 31
0.0
1001
ACAD
1000
DSTYLE
1002
{
1070
    40
1040
2.0
1002
}
  0
TEXT
  5
2C0A8
330
18
100
AcDbEntity
  8
1DIM
  6
CONTINUOUS
100
AcDbText
 10
3461.157050474294
 20
-1859.63463761505
 30
0.0
 40
7.0
  1
材質：ガラス
100
AcDbText
  0
TEXT
  5
2C0A9
330
18
100
AcDbEntity
  8
1DIM
  6
CONTINUOUS
100
AcDbText
 10
3461.390383807628
 20
-1871.301304281717
 30
0.0
 40
7.0
  1
仕上げ：各種仕上げ
100
AcDbText
  0
SOLID
  5
2C0AA
330
18
100
AcDbEntity
  8
1DIM
100
AcDbTrace
 10
3413.469377976793
 20
-2091.791809298469
 30
0.0
 11
3411.932754404781
 21
-2095.544572606004
 31
0.0
 12
3412.169204819106
 22
-2091.496296967413
 32
0.0
 13
3412.169204819106
 23
-2091.496296967413
 33
0.0
1001
ACAD
1000
DSTYLE
1002
{
1070
    40
1040
2.0
1002
}
  0
LINE
  5
2C0AB
330
18
100
AcDbEntity
  8
1DIM
100
AcDbLine
 10
3412.819291397949
 20
-2091.644053132941
 30
0.0
 11
3455.579598641566
 21
-1903.510436190678
 31
0.0
1001
ACAD
1000
DSTYLE
1002
{
1070
    40
1040
2.0
1002
}
  0
LINE
  5
2C0AC
330
18
100
AcDbEntity
  8
1DIM
100
AcDbLine
 10
3455.579598641566
 20
-1903.510436190678
 30
0.0
 11
3534.946265308232
 21
-1903.510436190678
 31
0.0
1001
ACAD
1000
DSTYLE
1002
{
1070
    40
1040
2.0
1002
}
  0
TEXT
  5
2C0AD
330
18
100
AcDbEntity
  8
1DIM
  6
CONTINUOUS
100
AcDbText
 10
3460.512931974899
 20
-1890.443769524011
 30
0.0
 40
7.0
  1
材質：ステンレス
100
AcDbText
  0
TEXT
  5
2C0AE
330
18
100
AcDbEntity
  8
1DIM
  6
CONTINUOUS
100
AcDbText
 10
3460.746265308233
 20
-1902.110436190678
 30
0.0
 40
7.0
  1
仕上げ：各種仕上げ
100
AcDbText
  0
LINE
  5
2C0AF
330
18
100
AcDbEntity
  8
1DIM
100
AcDbLine
 10
3596.646833361996
 20
-1900.637922653742
 30
0.0
 11
3596.646833361996
 21
-1888.833564434558
 31
0.0
1001
ACAD
1000
DSTYLE
1002
{
1070
    40
1040
2.0
1002
}
  0
LINE
  5
2C0B0
330
18
100
AcDbEntity
  8
1DIM
100
AcDbLine
 10
3570.646833361996
 20
-1911.833564434558
 30
0.0
 11
3570.646833361996
 21
-1888.833564434558
 31
0.0
1001
ACAD
1000
DSTYLE
1002
{
1070
    40
1040
2.0
1002
}
  0
LINE
  5
2C0B1
330
18
100
AcDbEntity
  8
1DIM
100
AcDbLine
 10
3592.646833361996
 20
-1890.833564434558
 30
0.0
 11
3574.646833361996
 21
-1890.833564434558
 31
0.0
1001
ACAD
1000
DSTYLE
1002
{
1070
    40
1040
2.0
1002
}
  0
LINE
  5
2C0B5
330
18
100
AcDbEntity
  8
1DIM
100
AcDbLine
 10
3320.646833361996
 20
-2271.015177848237
 30
0.0
 11
3320.646833361996
 21
-2309.453016000096
 31
0.0
1001
ACAD
1000
DSTYLE
1002
{
1070
    40
1040
2.0
1002
}
  0
LINE
  5
2C0B6
330
18
100
AcDbEntity
  8
1DIM
100
AcDbLine
 10
3435.646833361996
 20
-2271.015177848235
 30
0.0
 11
3435.646833361996
 21
-2309.453016000096
 31
0.0
1001
ACAD
1000
DSTYLE
1002
{
1070
    40
1040
2.0
1002
}
  0
LINE
  5
2C0B7
330
18
100
AcDbEntity
  8
1DIM
100
AcDbLine
 10
3324.646833361996
 20
-2307.453016000096
 30
0.0
 11
3431.646833361996
 21
-2307.453016000096
 31
0.0
1001
ACAD
1000
DSTYLE
1002
{
1070
    40
1040
2.0
1002
}
  0
LINE
  5
2C0BB
330
18
100
AcDbEntity
  8
1DIM
100
AcDbLine
 10
3825.56516713215
 20
-2340.833564434558
 30
0.0
 11
3892.56516713215
 21
-2340.833564434558
 31
0.0
1001
ACAD
1000
DSTYLE
1002
{
1070
    40
1040
2.0
1002
}
  0
LINE
  5
2C0BC
330
18
100
AcDbEntity
  8
1DIM
100
AcDbLine
 10
3825.56516713215
 20
-1910.833564434558
 30
0.0
 11
3892.56516713215
 21
-1910.833564434558
 31
0.0
1001
ACAD
1000
DSTYLE
1002
{
1070
    40
1040
2.0
1002
}
  0
LINE
  5
2C0BD
330
18
100
AcDbEntity
  8
1DIM
100
AcDbLine
 10
3890.56516713215
 20
-2336.833564434558
 30
0.0
 11
3890.56516713215
 21
-1914.833564434558
 31
0.0
1001
ACAD
1000
DSTYLE
1002
{
1070
    40
1040
2.0
1002
}
  0
LINE
  5
2C0C1
330
18
100
AcDbEntity
  8
0
  6
BYBLOCK
100
AcDbLine
 10
3869.493370374018
 20
-2163.333564439115
 30
0.0
 11
3870.565167134017
 21
-2159.333564439115
 31
0.0
  0
LINE
  5
2C0C2
330
18
100
AcDbEntity
  8
0
  6
BYBLOCK
100
AcDbLine
 10
3870.565167134017
 20
-2159.333564439115
 30
0.0
 11
3871.636963894017
 21
-2163.333564439115
 31
0.0
  0
LINE
  5
2C0C3
330
18
100
AcDbEntity
  8
0
  6
BYBLOCK
100
AcDbLine
 10
3870.565167134017
 20
-2159.333564439115
 30
0.0
 11
3870.565167134017
 21
-2163.333564439115
 31
0.0
  0
TEXT
  5
2C0C4
330
18
100
AcDbEntity
  8
1DIM
  6
CONTINUOUS
100
AcDbText
 10
3867.493118151219
 20
-2320.12673359532
 30
0.0
 40
7.0
  1
逃げ穴中心　床面より1350（推奨位置）
 50
90.0
100
AcDbText
  0
LINE
  5
2C0C5
330
18
100
AcDbEntity
  8
1DIM
100
AcDbLine
 10
3690.654677113155
 20
-2265.833564434559
 30
0.0
 11
3665.724360425311
 21
-2265.833564434559
 31
0.0
1001
ACAD
1000
DSTYLE
1002
{
1070
    40
1040
2.0
1002
}
  0
LINE
  5
2C0C6
330
18
100
AcDbEntity
  8
1DIM
100
AcDbLine
 10
3691.883553718473
 20
-2065.833564434561
 30
0.0
 11
3665.724360425311
 21
-2065.833564434561
 31
0.0
1001
ACAD
1000
DSTYLE
1002
{
1070
    40
1040
2.0
1002
}
  0
LINE
  5
2C0C7
330
18
100
AcDbEntity
  8
1DIM
100
AcDbLine
 10
3667.724360425311
 20
-2261.833564434559
 30
0.0
 11
3667.724360425311
 21
-2069.833564434561
 31
0.0
1001
ACAD
1000
DSTYLE
1002
{
1070
    40
1040
2.0
1002
}
  0
LINE
  5
2C0CB
330
18
100
AcDbEntity
  8
1DIM
100
AcDbLine
 10
3758.065167134017
 20
-2159.333564439115
 30
0.0
 11
3872.565167134017
 21
-2159.333564439115
 31
0.0
1001
ACAD
1000
DSTYLE
1002
{
1070
    40
1040
2.0
1002
}
  0
LINE
  5
2C0CC
330
18
100
AcDbEntity
  8
1DIM
100
AcDbLine
 10
3824.246780545827
 20
-2065.833564434561
 30
0.0
 11
3872.565167134017
 21
-2065.833564434561
 31
0.0
1001
ACAD
1000
DSTYLE
1002
{
1070
    40
1040
2.0
1002
}
  0
LINE
  5
2C0CD
330
18
100
AcDbEntity
  8
1DIM
100
AcDbLine
 10
3870.565167134017
 20
-2155.333564439115
 30
0.0
 11
3870.565167134017
 21
-2069.833564434561
 31
0.0
1001
ACAD
1000
DSTYLE
1002
{
1070
    40
1040
2.0
1002
}
  0
LINE
  5
2C0D1
330
18
100
AcDbEntity
  8
1DIM
100
AcDbLine
 10
3697.06516713215
 20
-2055.923074415566
 30
0.0
 11
3697.06516713215
 21
-2015.40213083472
 31
0.0
1001
ACAD
1000
DSTYLE
1002
{
1070
    40
1040
2.0
1002
}
  0
LINE
  5
2C0D2
330
18
100
AcDbEntity
  8
1DIM
100
AcDbLine
 10
3819.06516713215
 20
-2055.923074415564
 30
0.0
 11
3819.06516713215
 21
-2015.40213083472
 31
0.0
1001
ACAD
1000
DSTYLE
1002
{
1070
    40
1040
2.0
1002
}
  0
LINE
  5
2C0D3
330
18
100
AcDbEntity
  8
1DIM
100
AcDbLine
 10
3701.06516713215
 20
-2017.40213083472
 30
0.0
 11
3815.06516713215
 21
-2017.40213083472
 31
0.0
1001
ACAD
1000
DSTYLE
1002
{
1070
    40
1040
2.0
1002
}
  0
LINE
  5
2C0D7
330
18
100
AcDbEntity
  8
1DIM
100
AcDbLine
 10
3824.246780545827
 20
-2065.833564434561
 30
0.0
 11
3872.56516713215
 21
-2065.833564434561
 31
0.0
1001
ACAD
1000
DSTYLE
1002
{
1070
    40
1040
2.0
1002
}
  0
LINE
  5
2C0D8
330
18
100
AcDbEntity
  8
1DIM
100
AcDbLine
 10
3825.56516713215
 20
-1910.833564434558
 30
0.0
 11
3872.56516713215
 21
-1910.833564434558
 31
0.0
1001
ACAD
1000
DSTYLE
1002
{
1070
    40
1040
2.0
1002
}
  0
LINE
  5
2C0D9
330
18
100
AcDbEntity
  8
1DIM
100
AcDbLine
 10
3870.56516713215
 20
-2061.833564434561
 30
0.0
 11
3870.56516713215
 21
-1914.833564434558
 31
0.0
1001
ACAD
1000
DSTYLE
1002
{
1070
    40
1040
2.0
1002
}
  0
LINE
  5
2C0DD
330
18
100
AcDbEntity
  8
1DIM
100
AcDbLine
 10
3700.56516713215
 20
-2271.015177848237
 30
0.0
 11
3700.56516713215
 21
-2309.453016000096
 31
0.0
1001
ACAD
1000
DSTYLE
1002
{
1070
    40
1040
2.0
1002
}
  0
LINE
  5
2C0DE
330
18
100
AcDbEntity
  8
1DIM
100
AcDbLine
 10
3815.56516713215
 20
-2271.015177848235
 30
0.0
 11
3815.56516713215
 21
-2309.453016000096
 31
0.0
1001
ACAD
1000
DSTYLE
1002
{
1070
    40
1040
2.0
1002
}
  0
LINE
  5
2C0DF
330
18
100
AcDbEntity
  8
1DIM
100
AcDbLine
 10
3704.56516713215
 20
-2307.453016000096
 30
0.0
 11
3811.56516713215
 21
-2307.453016000096
 31
0.0
1001
ACAD
1000
DSTYLE
1002
{
1070
    40
1040
2.0
1002
}
  0
SOLID
  5
2C0E3
330
18
100
AcDbEntity
  8
1DIM
100
AcDbTrace
 10
3442.120598842032
 20
-2330.37629746668
 30
0.0
 11
3440.147868728271
 21
-2326.83330715584
 31
0.0
 12
3443.16304272048
 22
-2329.544980115685
 32
0.0
 13
3443.16304272048
 23
-2329.544980115685
 33
0.0
1001
ACAD
1000
DSTYLE
1002
{
1070
    40
1040
2.0
1002
}
  0
LINE
  5
2C0E4
330
18
100
AcDbEntity
  8
1DIM
100
AcDbLine
 10
3442.641820781256
 20
-2329.960638791183
 30
0.0
 11
3451.014115471666
 21
-2340.459213538998
 31
0.0
1001
ACAD
1000
DSTYLE
1002
{
1070
    40
1040
2.0
1002
}
  0
LINE
  5
2C0E5
330
18
100
AcDbEntity
  8
1DIM
100
AcDbLine
 10
3451.014115471666
 20
-2340.459213538998
 30
0.0
 11
3512.414115471666
 21
-2340.459213538998
 31
0.0
1001
ACAD
1000
DSTYLE
1002
{
1070
    40
1040
2.0
1002
}
  0
TEXT
  5
2C0E6
330
18
100
AcDbEntity
  8
1PHANTOM
  6
CONTINUOUS
100
AcDbText
 10
3455.480782138332
 20
-2327.392546872331
 30
0.0
 40
7.0
  1
カスタムパーツ
100
AcDbText
  0
TEXT
  5
2C0E7
330
18
100
AcDbEntity
  8
1PHANTOM
  6
CONTINUOUS
100
AcDbText
 10
3456.180782138333
 20
-2339.059213538998
 30
0.0
 40
7.0
  1
接続位置
100
AcDbText
  0
LINE
  5
2C0E8
330
18
100
AcDbEntity
  8
1DIM
100
AcDbLine
 10
3713.06516713215
 20
-2064.333564439115
 30
0.0
 11
3713.06516713215
 21
-2037.333564439116
 31
0.0
1001
ACAD
1000
DSTYLE
1002
{
1070
    40
1040
2.0
1002
}
  0
LINE
  5
2C0E9
330
18
100
AcDbEntity
  8
1DIM
100
AcDbLine
 10
3803.065167132151
 20
-2064.333564439116
 30
0.0
 11
3803.065167132151
 21
-2037.333564439116
 31
0.0
1001
ACAD
1000
DSTYLE
1002
{
1070
    40
1040
2.0
1002
}
  0
LINE
  5
2C0EA
330
18
100
AcDbEntity
  8
1DIM
100
AcDbLine
 10
3717.06516713215
 20
-2039.333564439116
 30
0.0
 11
3799.065167132151
 21
-2039.333564439116
 31
0.0
1001
ACAD
1000
DSTYLE
1002
{
1070
    40
1040
2.0
1002
}
  0
LINE
  5
2C0EE
330
18
100
AcDbEntity
  8
1DIM
100
AcDbLine
 10
3718.06516713215
 20
-2259.333564439115
 30
0.0
 11
3705.886865185746
 21
-2259.333564439115
 31
0.0
1001
ACAD
1000
DSTYLE
1002
{
1070
    40
1040
2.0
1002
}
  0
LINE
  5
2C0EF
330
18
100
AcDbEntity
  8
1DIM
100
AcDbLine
 10
3718.06516713215
 20
-2059.333564439115
 30
0.0
 11
3705.886865185746
 21
-2059.333564439115
 31
0.0
1001
ACAD
1000
DSTYLE
1002
{
1070
    40
1040
2.0
1002
}
  0
LINE
  5
2C0F0
330
18
100
AcDbEntity
  8
1DIM
100
AcDbLine
 10
3707.886865185746
 20
-2255.333564439115
 30
0.0
 11
3707.886865185746
 21
-2063.333564439115
 31
0.0
1001
ACAD
1000
DSTYLE
1002
{
1070
    40
1040
2.0
1002
}
  0
LINE
  5
2C0F4
330
18
100
AcDbEntity
  8
1DIM
100
AcDbLine
 10
3819.938775780993
 20
-2048.278564518371
 30
0.0
 11
3805.320541008302
 21
-2059.008195915035
 31
0.0
1001
ACAD_DSTYLE_DIMRADIAL_EXTE
1070
   387
1070
     1
1070
   388
1040
0.0
1070
   390
1040
1.570796326794897
1001
ACAD
1000
DSTYLE
1002
{
1070
    40
1040
2.0
1002
}
  0
LINE
  5
2C0F7
330
18
100
AcDbEntity
  8
1DIM
100
AcDbLine
 10
3685.56516713215
 20
-1915.833564434558
 30
0.0
 11
3685.56516713215
 21
-1905.160613044451
 31
0.0
1001
ACAD
1000
DSTYLE
1002
{
1070
    40
1040
2.0
1002
}
  0
LINE
  5
2C0F8
330
18
100
AcDbEntity
  8
1DIM
100
AcDbLine
 10
3830.56516713215
 20
-1915.833564434558
 30
0.0
 11
3830.56516713215
 21
-1905.160613044451
 31
0.0
1001
ACAD
1000
DSTYLE
1002
{
1070
    40
1040
2.0
1002
}
  0
LINE
  5
2C0F9
330
18
100
AcDbEntity
  8
1DIM
100
AcDbLine
 10
3689.56516713215
 20
-1907.160613044451
 30
0.0
 11
3826.56516713215
 21
-1907.160613044451
 31
0.0
1001
ACAD
1000
DSTYLE
1002
{
1070
    40
1040
2.0
1002
}
  0
LINE
  5
2C0FD
330
18
100
AcDbEntity
  8
1DIM
100
AcDbLine
 10
3325.547456313675
 20
-1939.833564434558
 30
0.0
 11
3283.646833361996
 21
-1939.833564434558
 31
0.0
1001
ACAD
1000
DSTYLE
1002
{
1070
    40
1040
2.0
1002
}
  0
LINE
  5
2C0FE
330
18
100
AcDbEntity
  8
1DIM
100
AcDbLine
 10
3310.646833361996
 20
-1910.833564434558
 30
0.0
 11
3283.646833361996
 21
-1910.833564434558
 31
0.0
1001
ACAD
1000
DSTYLE
1002
{
1070
    40
1040
2.0
1002
}
  0
LINE
  5
2C0FF
330
18
100
AcDbEntity
  8
1DIM
100
AcDbLine
 10
3285.646833361996
 20
-1935.833564434558
 30
0.0
 11
3285.646833361996
 21
-1914.833564434558
 31
0.0
1001
ACAD
1000
DSTYLE
1002
{
1070
    40
1040
2.0
1002
}
  0
SOLID
  5
2C103
330
18
100
AcDbEntity
  8
1DIM
100
AcDbTrace
 10
3421.556721009591
 20
-1944.183523198463
 30
0.0
 11
3418.975983089299
 21
-1941.055546818883
 31
0.0
 12
3422.431700488358
 22
-1943.177447311904
 32
0.0
 13
3422.431700488358
 23
-1943.177447311904
 33
0.0
1001
ACAD
1000
DSTYLE
1002
{
1070
    40
1040
2.0
1002
}
  0
LINE
  5
2C104
330
18
100
AcDbEntity
  8
1DIM
100
AcDbLine
 10
3421.994210748974
 20
-1943.680485255184
 30
0.0
 11
3447.246283921666
 21
-1965.642094829193
 31
0.0
1001
ACAD
1000
DSTYLE
1002
{
1070
    40
1040
2.0
1002
}
  0
LINE
  5
2C105
330
18
100
AcDbEntity
  8
1DIM
100
AcDbLine
 10
3447.246283921666
 20
-1965.642094829193
 30
0.0
 11
3509.346283921666
 21
-1965.642094829193
 31
0.0
1001
ACAD
1000
DSTYLE
1002
{
1070
    40
1040
2.0
1002
}
  0
TEXT
  5
2C106
330
18
100
AcDbEntity
  8
1DIM
  6
CONTINUOUS
100
AcDbText
 10
3452.412950588333
 20
-1940.90876149586
 30
0.0
 40
7.0
  1
ルームナンバー
100
AcDbText
  0
TEXT
  5
2C107
330
18
100
AcDbEntity
  8
1DIM
  6
CONTINUOUS
100
AcDbText
 10
3452.646283921666
 20
-1952.575428162527
 30
0.0
 40
7.0
  1
GP-1
100
AcDbText
  0
TEXT
  5
2C108
330
18
100
AcDbEntity
  8
1DIM
  6
CONTINUOUS
100
AcDbText
 10
3452.412950588333
 20
-1964.242094829194
 30
0.0
 40
7.0
  1
張付け推奨位置
100
AcDbText
  0
LINE
  5
2C109
330
18
100
AcDbEntity
  8
1DIM
100
AcDbLine
 10
3673.065167134017
 20
-2201.590080614191
 30
0.0
 11
3673.065167134017
 21
-2195.032182827812
 31
0.0
1001
ACAD
1000
DSTYLE
1002
{
1070
    40
1040
2.0
1002
}
  0
LINE
  5
2C10A
330
18
100
AcDbEntity
  8
1DIM
100
AcDbLine
 10
3758.065167134017
 20
-2164.333564439115
 30
0.0
 11
3758.065167134017
 21
-2199.032182827812
 31
0.0
1001
ACAD
1000
DSTYLE
1002
{
1070
    40
1040
2.0
1002
}
  0
LINE
  5
2C10B
330
18
100
AcDbEntity
  8
1DIM
100
AcDbLine
 10
3677.065167134017
 20
-2197.032182827812
 30
0.0
 11
3754.065167134017
 21
-2197.032182827812
 31
0.0
1001
ACAD
1000
DSTYLE
1002
{
1070
    40
1040
2.0
1002
}
  0
LINE
  5
2C10F
330
18
100
AcDbEntity
  8
1DIM
100
AcDbLine
 10
3843.065167134017
 20
-2201.590080614191
 30
0.0
 11
3843.065167134017
 21
-2195.032182827812
 31
0.0
1001
ACAD
1000
DSTYLE
1002
{
1070
    40
1040
2.0
1002
}
  0
LINE
  5
2C110
330
18
100
AcDbEntity
  8
1DIM
100
AcDbLine
 10
3758.065167134017
 20
-2164.333564439115
 30
0.0
 11
3758.065167134017
 21
-2199.032182827812
 31
0.0
1001
ACAD
1000
DSTYLE
1002
{
1070
    40
1040
2.0
1002
}
  0
LINE
  5
2C111
330
18
100
AcDbEntity
  8
1DIM
100
AcDbLine
 10
3839.065167134017
 20
-2197.032182827812
 30
0.0
 11
3762.065167134017
 21
-2197.032182827812
 31
0.0
1001
ACAD
1000
DSTYLE
1002
{
1070
    40
1040
2.0
1002
}
  0
SOLID
  5
2C115
330
18
100
AcDbEntity
  8
1DIM
100
AcDbTrace
 10
3795.96726232837
 20
-2188.036150473952
 30
0.0
 11
3792.063028940283
 21
-2189.132237193054
 31
0.0
 12
3795.400735101197
 22
-2186.829160549118
 32
0.0
 13
3795.400735101197
 23
-2186.829160549118
 33
0.0
1001
ACAD
1000
DSTYLE
1002
{
1070
    40
1040
2.0
1002
}
  0
LINE
  5
2C116
330
18
100
AcDbEntity
  8
1DIM
100
AcDbLine
 10
3795.683998714784
 20
-2187.432655511535
 30
0.0
 11
3893.295105997974
 21
-2141.616738731578
 31
0.0
1001
ACAD
1000
DSTYLE
1002
{
1070
    40
1040
2.0
1002
}
  0
LINE
  5
2C117
330
18
100
AcDbEntity
  8
1DIM
100
AcDbLine
 10
3893.295105997974
 20
-2141.616738731578
 30
0.0
 11
4011.961772664641
 21
-2141.616738731578
 31
0.0
1001
ACAD
1000
DSTYLE
1002
{
1070
    40
1040
2.0
1002
}
  0
TEXT
  5
2C118
330
18
100
AcDbEntity
  8
1DIM
  6
CONTINUOUS
100
AcDbText
 10
3898.228439331308
 20
-2128.316738731578
 30
0.0
 40
7.0
  1
扉や壁面より200mm以上の
100
AcDbText
  0
TEXT
  5
2C119
330
18
100
AcDbEntity
  8
1DIM
  6
CONTINUOUS
100
AcDbText
 10
3898.228439331308
 20
-2140.216738731578
 30
0.0
 40
7.0
  1
空間が必要です。
100
AcDbText
  0
LINE
  5
2C11A
330
18
100
AcDbEntity
  8
0
  6
BYBLOCK
100
AcDbLine
 10
3531.718630121996
 20
-2336.833564434558
 30
0.0
 11
3530.646833361996
 21
-2340.833564434558
 31
0.0
  0
LINE
  5
2C11B
330
18
100
AcDbEntity
  8
0
  6
BYBLOCK
100
AcDbLine
 10
3530.646833361996
 20
-2340.833564434558
 30
0.0
 11
3529.575036601996
 21
-2336.833564434558
 31
0.0
  0
LINE
  5
2C11C
330
18
100
AcDbEntity
  8
0
  6
BYBLOCK
100
AcDbLine
 10
3530.646833361996
 20
-2340.833564434558
 30
0.0
 11
3530.646833361996
 21
-2336.833564434558
 31
0.0
  0
LINE
  5
2C11D
330
18
100
AcDbEntity
  8
0
  6
BYBLOCK
100
AcDbLine
 10
3529.575036601996
 20
-1914.833564434558
 30
0.0
 11
3530.646833361996
 21
-1910.833564434558
 31
0.0
  0
LINE
  5
2C11E
330
18
100
AcDbEntity
  8
0
  6
BYBLOCK
100
AcDbLine
 10
3530.646833361996
 20
-1910.833564434558
 30
0.0
 11
3531.718630121996
 21
-1914.833564434558
 31
0.0
  0
LINE
  5
2C11F
330
18
100
AcDbEntity
  8
0
  6
BYBLOCK
100
AcDbLine
 10
3530.646833361996
 20
-1910.833564434558
 30
0.0
 11
3530.646833361996
 21
-1914.833564434558
 31
0.0
  0
TEXT
  5
2C120
330
18
100
AcDbEntity
  8
1DIM
  6
CONTINUOUS
100
AcDbText
 10
3529.246833361996
 20
-2134.729397767891
 30
0.0
 40
7.0
  1
430
 50
90.0
100
AcDbText
1001
ACAD
1000
DSTYLE
1002
{
1070
    40
1040
2.0
1002
}
  0
LINE
  5
2C121
330
18
100
AcDbEntity
  8
0
  6
BYBLOCK
100
AcDbLine
 10
3309.646833361996
 20
-1881.905361194558
 30
0.0
 11
3305.646833361996
 21
-1880.833564434558
 31
0.0
  0
LINE
  5
2C122
330
18
100
AcDbEntity
  8
0
  6
BYBLOCK
100
AcDbLine
 10
3305.646833361996
 20
-1880.833564434558
 30
0.0
 11
3309.646833361996
 21
-1879.761767674558
 31
0.0
  0
LINE
  5
2C123
330
18
100
AcDbEntity
  8
0
  6
BYBLOCK
100
AcDbLine
 10
3305.646833361996
 20
-1880.833564434558
 30
0.0
 11
3309.646833361996
 21
-1880.833564434558
 31
0.0
  0
LINE
  5
2C124
330
18
100
AcDbEntity
  8
0
  6
BYBLOCK
100
AcDbLine
 10
3446.646833361996
 20
-1879.761767674558
 30
0.0
 11
3450.646833361996
 21
-1880.833564434558
 31
0.0
  0
LINE
  5
2C125
330
18
100
AcDbEntity
  8
0
  6
BYBLOCK
100
AcDbLine
 10
3450.646833361996
 20
-1880.833564434558
 30
0.0
 11
3446.646833361996
 21
-1881.905361194558
 31
0.0
  0
LINE
  5
2C126
330
18
100
AcDbEntity
  8
0
  6
BYBLOCK
100
AcDbLine
 10
3450.646833361996
 20
-1880.833564434558
 30
0.0
 11
3446.646833361996
 21
-1880.833564434558
 31
0.0
  0
TEXT
  5
2C127
330
18
100
AcDbEntity
  8
1DIM
  6
CONTINUOUS
100
AcDbText
 10
3369.98016669533
 20
-1879.433564434558
 30
0.0
 40
7.0
  1
145
100
AcDbText
1001
ACAD
1000
DSTYLE
1002
{
1070
    40
1040
2.0
1002
}
  0
LINE
  5
2C128
330
18
100
AcDbEntity
  8
0
  6
BYBLOCK
100
AcDbLine
 10
3288.877823415157
 20
-2261.833564434559
 30
0.0
 11
3287.806026655157
 21
-2265.833564434559
 31
0.0
  0
LINE
  5
2C129
330
18
100
AcDbEntity
  8
0
  6
BYBLOCK
100
AcDbLine
 10
3287.806026655157
 20
-2265.833564434559
 30
0.0
 11
3286.734229895158
 21
-2261.833564434559
 31
0.0
  0
LINE
  5
2C12A
330
18
100
AcDbEntity
  8
0
  6
BYBLOCK
100
AcDbLine
 10
3287.806026655157
 20
-2265.833564434559
 30
0.0
 11
3287.806026655157
 21
-2261.833564434559
 31
0.0
  0
LINE
  5
2C12B
330
18
100
AcDbEntity
  8
0
  6
BYBLOCK
100
AcDbLine
 10
3286.734229895158
 20
-2069.833564434561
 30
0.0
 11
3287.806026655157
 21
-2065.833564434561
 31
0.0
  0
LINE
  5
2C12C
330
18
100
AcDbEntity
  8
0
  6
BYBLOCK
100
AcDbLine
 10
3287.806026655157
 20
-2065.833564434561
 30
0.0
 11
3288.877823415157
 21
-2069.833564434561
 31
0.0
  0
LINE
  5
2C12D
330
18
100
AcDbEntity
  8
0
  6
BYBLOCK
100
AcDbLine
 10
3287.806026655157
 20
-2065.833564434561
 30
0.0
 11
3287.806026655157
 21
-2069.833564434561
 31
0.0
  0
TEXT
  5
2C12E
330
18
100
AcDbEntity
  8
1DIM
  6
CONTINUOUS
100
AcDbText
 10
3286.406026655158
 20
-2181.146064434559
 30
0.0
 40
7.0
  1
P=200
 50
90.0
100
AcDbText
1001
ACAD
1000
DSTYLE
1002
{
1070
    40
1040
2.0
1002
}
  0
LINE
  5
2C12F
330
18
100
AcDbEntity
  8
0
  6
BYBLOCK
100
AcDbLine
 10
3511.718630123863
 20
-2155.333564434558
 30
0.0
 11
3510.646833363864
 21
-2159.333564434558
 31
0.0
  0
LINE
  5
2C130
330
18
100
AcDbEntity
  8
0
  6
BYBLOCK
100
AcDbLine
 10
3510.646833363864
 20
-2159.333564434558
 30
0.0
 11
3509.575036603864
 21
-2155.333564434558
 31
0.0
  0
LINE
  5
2C131
330
18
100
AcDbEntity
  8
0
  6
BYBLOCK
100
AcDbLine
 10
3510.646833363864
 20
-2159.333564434558
 30
0.0
 11
3510.646833363864
 21
-2155.333564434558
 31
0.0
  0
LINE
  5
2C132
330
18
100
AcDbEntity
  8
0
  6
BYBLOCK
100
AcDbLine
 10
3509.575036603864
 20
-2069.833564434561
 30
0.0
 11
3510.646833363864
 21
-2065.833564434561
 31
0.0
  0
LINE
  5
2C133
330
18
100
AcDbEntity
  8
0
  6
BYBLOCK
100
AcDbLine
 10
3510.646833363864
 20
-2065.833564434561
 30
0.0
 11
3511.718630123863
 21
-2069.833564434561
 31
0.0
  0
LINE
  5
2C134
330
18
100
AcDbEntity
  8
0
  6
BYBLOCK
100
AcDbLine
 10
3510.646833363864
 20
-2065.833564434561
 30
0.0
 11
3510.646833363864
 21
-2069.833564434561
 31
0.0
  0
TEXT
  5
2C135
330
18
100
AcDbEntity
  8
1DIM
  6
CONTINUOUS
100
AcDbText
 10
3509.246833363864
 20
-2123.086805175299
 30
0.0
 40
7.0
  1
93.5
 50
90.0
100
AcDbText
1001
ACAD
1000
DSTYLE
1002
{
1070
    40
1040
2.0
1002
}
  0
LINE
  5
2C136
330
18
100
AcDbEntity
  8
0
  6
BYBLOCK
100
AcDbLine
 10
3321.146833361996
 20
-1901.905361194558
 30
0.0
 11
3317.146833361996
 21
-1900.833564434558
 31
0.0
  0
LINE
  5
2C137
330
18
100
AcDbEntity
  8
0
  6
BYBLOCK
100
AcDbLine
 10
3317.146833361996
 20
-1900.833564434558
 30
0.0
 11
3321.146833361996
 21
-1899.761767674558
 31
0.0
  0
LINE
  5
2C138
330
18
100
AcDbEntity
  8
0
  6
BYBLOCK
100
AcDbLine
 10
3317.146833361996
 20
-1900.833564434558
 30
0.0
 11
3321.146833361996
 21
-1900.833564434558
 31
0.0
  0
LINE
  5
2C139
330
18
100
AcDbEntity
  8
0
  6
BYBLOCK
100
AcDbLine
 10
3435.146833361996
 20
-1899.761767674558
 30
0.0
 11
3439.146833361996
 21
-1900.833564434558
 31
0.0
  0
LINE
  5
2C13A
330
18
100
AcDbEntity
  8
0
  6
BYBLOCK
100
AcDbLine
 10
3439.146833361996
 20
-1900.833564434558
 30
0.0
 11
3435.146833361996
 21
-1901.905361194558
 31
0.0
  0
LINE
  5
2C13B
330
18
100
AcDbEntity
  8
0
  6
BYBLOCK
100
AcDbLine
 10
3439.146833361996
 20
-1900.833564434558
 30
0.0
 11
3435.146833361996
 21
-1900.833564434558
 31
0.0
  0
TEXT
  5
2C13C
330
18
100
AcDbEntity
  8
1DIM
  6
CONTINUOUS
100
AcDbText
 10
3362.98016669533
 20
-1899.433564434558
 30
0.0
 40
7.0
  1
P=122
100
AcDbText
1001
ACAD
1000
DSTYLE
1002
{
1070
    40
1040
2.0
1002
}
  0
LINE
  5
2C13D
330
18
100
AcDbEntity
  8
0
  6
BYBLOCK
100
AcDbLine
 10
3511.718630121996
 20
-2061.833564434561
 30
0.0
 11
3510.646833361996
 21
-2065.833564434561
 31
0.0
  0
LINE
  5
2C13E
330
18
100
AcDbEntity
  8
0
  6
BYBLOCK
100
AcDbLine
 10
3510.646833361996
 20
-2065.833564434561
 30
0.0
 11
3509.575036601997
 21
-2061.833564434561
 31
0.0
  0
LINE
  5
2C13F
330
18
100
AcDbEntity
  8
0
  6
BYBLOCK
100
AcDbLine
 10
3510.646833361996
 20
-2065.833564434561
 30
0.0
 11
3510.646833361996
 21
-2061.833564434561
 31
0.0
  0
LINE
  5
2C140
330
18
100
AcDbEntity
  8
0
  6
BYBLOCK
100
AcDbLine
 10
3509.575036601997
 20
-1914.833564434558
 30
0.0
 11
3510.646833361996
 21
-1910.833564434558
 31
0.0
  0
LINE
  5
2C141
330
18
100
AcDbEntity
  8
0
  6
BYBLOCK
100
AcDbLine
 10
3510.646833361996
 20
-1910.833564434558
 30
0.0
 11
3511.718630121996
 21
-1914.833564434558
 31
0.0
  0
LINE
  5
2C142
330
18
100
AcDbEntity
  8
0
  6
BYBLOCK
100
AcDbLine
 10
3510.646833361996
 20
-1910.833564434558
 30
0.0
 11
3510.646833361996
 21
-1914.833564434558
 31
0.0
  0
TEXT
  5
2C143
330
18
100
AcDbEntity
  8
1DIM
  6
CONTINUOUS
100
AcDbText
 10
3509.246833361996
 20
-1996.524536656781
 30
0.0
 40
7.0
  1
155
 50
90.0
100
AcDbText
1001
ACAD
1000
DSTYLE
1002
{
1070
    40
1040
2.0
1002
}
  0
LINE
  5
2C144
330
18
100
AcDbEntity
  8
0
  6
BYBLOCK
100
AcDbLine
 10
3592.646833361996
 20
-1889.761767674558
 30
0.0
 11
3596.646833361996
 21
-1890.833564434558
 31
0.0
  0
LINE
  5
2C145
330
18
100
AcDbEntity
  8
0
  6
BYBLOCK
100
AcDbLine
 10
3596.646833361996
 20
-1890.833564434558
 30
0.0
 11
3592.646833361996
 21
-1891.905361194558
 31
0.0
  0
LINE
  5
2C146
330
18
100
AcDbEntity
  8
0
  6
BYBLOCK
100
AcDbLine
 10
3596.646833361996
 20
-1890.833564434558
 30
0.0
 11
3592.646833361996
 21
-1890.833564434558
 31
0.0
  0
LINE
  5
2C147
330
18
100
AcDbEntity
  8
0
  6
BYBLOCK
100
AcDbLine
 10
3574.646833361996
 20
-1891.905361194558
 30
0.0
 11
3570.646833361996
 21
-1890.833564434558
 31
0.0
  0
LINE
  5
2C148
330
18
100
AcDbEntity
  8
0
  6
BYBLOCK
100
AcDbLine
 10
3570.646833361996
 20
-1890.833564434558
 30
0.0
 11
3574.646833361996
 21
-1889.761767674558
 31
0.0
  0
LINE
  5
2C149
330
18
100
AcDbEntity
  8
0
  6
BYBLOCK
100
AcDbLine
 10
3570.646833361996
 20
-1890.833564434558
 30
0.0
 11
3574.646833361996
 21
-1890.833564434558
 31
0.0
  0
TEXT
  5
2C14A
330
18
100
AcDbEntity
  8
1DIM
  6
CONTINUOUS
100
AcDbText
 10
3577.813500028663
 20
-1889.433564434558
 30
0.0
 40
7.0
  1
26
100
AcDbText
1001
ACAD
1000
DSTYLE
1002
{
1070
    40
1040
2.0
1002
}
  0
LINE
  5
2C14B
330
18
100
AcDbEntity
  8
0
  6
BYBLOCK
100
AcDbLine
 10
3324.646833361996
 20
-2308.524812760096
 30
0.0
 11
3320.646833361996
 21
-2307.453016000096
 31
0.0
  0
LINE
  5
2C14C
330
18
100
AcDbEntity
  8
0
  6
BYBLOCK
100
AcDbLine
 10
3320.646833361996
 20
-2307.453016000096
 30
0.0
 11
3324.646833361996
 21
-2306.381219240096
 31
0.0
  0
LINE
  5
2C14D
330
18
100
AcDbEntity
  8
0
  6
BYBLOCK
100
AcDbLine
 10
3320.646833361996
 20
-2307.453016000096
 30
0.0
 11
3324.646833361996
 21
-2307.453016000096
 31
0.0
  0
LINE
  5
2C14E
330
18
100
AcDbEntity
  8
0
  6
BYBLOCK
100
AcDbLine
 10
3431.646833361996
 20
-2306.381219240096
 30
0.0
 11
3435.646833361996
 21
-2307.453016000096
 31
0.0
  0
LINE
  5
2C14F
330
18
100
AcDbEntity
  8
0
  6
BYBLOCK
100
AcDbLine
 10
3435.646833361996
 20
-2307.453016000096
 30
0.0
 11
3431.646833361996
 21
-2308.524812760096
 31
0.0
  0
LINE
  5
2C150
330
18
100
AcDbEntity
  8
0
  6
BYBLOCK
100
AcDbLine
 10
3435.646833361996
 20
-2307.453016000096
 30
0.0
 11
3431.646833361996
 21
-2307.453016000096
 31
0.0
  0
TEXT
  5
2C151
330
18
100
AcDbEntity
  8
1DIM
  6
CONTINUOUS
100
AcDbText
 10
3364.146833361996
 20
-2306.053016000096
 30
0.0
 40
7.0
  1
P=115
100
AcDbText
1001
ACAD
1000
DSTYLE
1002
{
1070
    40
1040
2.0
1002
}
  0
LINE
  5
2C152
330
18
100
AcDbEntity
  8
0
  6
BYBLOCK
100
AcDbLine
 10
3891.63696389215
 20
-2336.833564434558
 30
0.0
 11
3890.56516713215
 21
-2340.833564434558
 31
0.0
  0
LINE
  5
2C153
330
18
100
AcDbEntity
  8
0
  6
BYBLOCK
100
AcDbLine
 10
3890.56516713215
 20
-2340.833564434558
 30
0.0
 11
3889.49337037215
 21
-2336.833564434558
 31
0.0
  0
LINE
  5
2C154
330
18
100
AcDbEntity
  8
0
  6
BYBLOCK
100
AcDbLine
 10
3890.56516713215
 20
-2340.833564434558
 30
0.0
 11
3890.56516713215
 21
-2336.833564434558
 31
0.0
  0
LINE
  5
2C155
330
18
100
AcDbEntity
  8
0
  6
BYBLOCK
100
AcDbLine
 10
3889.49337037215
 20
-1914.833564434558
 30
0.0
 11
3890.56516713215
 21
-1910.833564434558
 31
0.0
  0
LINE
  5
2C156
330
18
100
AcDbEntity
  8
0
  6
BYBLOCK
100
AcDbLine
 10
3890.56516713215
 20
-1910.833564434558
 30
0.0
 11
3891.63696389215
 21
-1914.833564434558
 31
0.0
  0
LINE
  5
2C157
330
18
100
AcDbEntity
  8
0
  6
BYBLOCK
100
AcDbLine
 10
3890.56516713215
 20
-1910.833564434558
 30
0.0
 11
3890.56516713215
 21
-1914.833564434558
 31
0.0
  0
TEXT
  5
2C158
330
18
100
AcDbEntity
  8
1DIM
  6
CONTINUOUS
100
AcDbText
 10
3889.165167132151
 20
-2134.729397767891
 30
0.0
 40
7.0
  1
430
 50
90.0
100
AcDbText
1001
ACAD
1000
DSTYLE
1002
{
1070
    40
1040
2.0
1002
}
  0
LINE
  5
2C159
330
18
100
AcDbEntity
  8
0
  6
BYBLOCK
100
AcDbLine
 10
3668.796157185311
 20
-2261.833564434559
 30
0.0
 11
3667.724360425311
 21
-2265.833564434559
 31
0.0
  0
LINE
  5
2C15A
330
18
100
AcDbEntity
  8
0
  6
BYBLOCK
100
AcDbLine
 10
3667.724360425311
 20
-2265.833564434559
 30
0.0
 11
3666.652563665311
 21
-2261.833564434559
 31
0.0
  0
LINE
  5
2C15B
330
18
100
AcDbEntity
  8
0
  6
BYBLOCK
100
AcDbLine
 10
3667.724360425311
 20
-2265.833564434559
 30
0.0
 11
3667.724360425311
 21
-2261.833564434559
 31
0.0
  0
LINE
  5
2C15C
330
18
100
AcDbEntity
  8
0
  6
BYBLOCK
100
AcDbLine
 10
3666.652563665311
 20
-2069.833564434561
 30
0.0
 11
3667.724360425311
 21
-2065.833564434561
 31
0.0
  0
LINE
  5
2C15D
330
18
100
AcDbEntity
  8
0
  6
BYBLOCK
100
AcDbLine
 10
3667.724360425311
 20
-2065.833564434561
 30
0.0
 11
3668.796157185311
 21
-2069.833564434561
 31
0.0
  0
LINE
  5
2C15E
330
18
100
AcDbEntity
  8
0
  6
BYBLOCK
100
AcDbLine
 10
3667.724360425311
 20
-2065.833564434561
 30
0.0
 11
3667.724360425311
 21
-2069.833564434561
 31
0.0
  0
TEXT
  5
2C15F
330
18
100
AcDbEntity
  8
1DIM
  6
CONTINUOUS
100
AcDbText
 10
3666.324360425312
 20
-2181.146064434558
 30
0.0
 40
7.0
  1
P=200
 50
90.0
100
AcDbText
1001
ACAD
1000
DSTYLE
1002
{
1070
    40
1040
2.0
1002
}
  0
LINE
  5
2C160
330
18
100
AcDbEntity
  8
0
  6
BYBLOCK
100
AcDbLine
 10
3871.636963894017
 20
-2155.333564439115
 30
0.0
 11
3870.565167134017
 21
-2159.333564439115
 31
0.0
  0
LINE
  5
2C161
330
18
100
AcDbEntity
  8
0
  6
BYBLOCK
100
AcDbLine
 10
3870.565167134017
 20
-2159.333564439115
 30
0.0
 11
3869.493370374018
 21
-2155.333564439115
 31
0.0
  0
LINE
  5
2C162
330
18
100
AcDbEntity
  8
0
  6
BYBLOCK
100
AcDbLine
 10
3870.565167134017
 20
-2159.333564439115
 30
0.0
 11
3870.565167134017
 21
-2155.333564439115
 31
0.0
  0
LINE
  5
2C163
330
18
100
AcDbEntity
  8
0
  6
BYBLOCK
100
AcDbLine
 10
3869.493370374018
 20
-2069.833564434561
 30
0.0
 11
3870.565167134017
 21
-2065.833564434561
 31
0.0
  0
LINE
  5
2C164
330
18
100
AcDbEntity
  8
0
  6
BYBLOCK
100
AcDbLine
 10
3870.565167134017
 20
-2065.833564434561
 30
0.0
 11
3871.636963894017
 21
-2069.833564434561
 31
0.0
  0
LINE
  5
2C165
330
18
100
AcDbEntity
  8
0
  6
BYBLOCK
100
AcDbLine
 10
3870.565167134017
 20
-2065.833564434561
 30
0.0
 11
3870.565167134017
 21
-2069.833564434561
 31
0.0
  0
TEXT
  5
2C166
330
18
100
AcDbEntity
  8
1DIM
  6
CONTINUOUS
100
AcDbText
 10
3869.165167134018
 20
-2123.086805177578
 30
0.0
 40
7.0
  1
93.5
 50
90.0
100
AcDbText
1001
ACAD
1000
DSTYLE
1002
{
1070
    40
1040
2.0
1002
}
  0
LINE
  5
2C167
330
18
100
AcDbEntity
  8
0
  6
BYBLOCK
100
AcDbLine
 10
3701.06516713215
 20
-2018.47392759472
 30
0.0
 11
3697.06516713215
 21
-2017.40213083472
 31
0.0
  0
LINE
  5
2C168
330
18
100
AcDbEntity
  8
0
  6
BYBLOCK
100
AcDbLine
 10
3697.06516713215
 20
-2017.40213083472
 30
0.0
 11
3701.06516713215
 21
-2016.33033407472
 31
0.0
  0
LINE
  5
2C169
330
18
100
AcDbEntity
  8
0
  6
BYBLOCK
100
AcDbLine
 10
3697.06516713215
 20
-2017.40213083472
 30
0.0
 11
3701.06516713215
 21
-2017.40213083472
 31
0.0
  0
LINE
  5
2C16A
330
18
100
AcDbEntity
  8
0
  6
BYBLOCK
100
AcDbLine
 10
3815.06516713215
 20
-2016.33033407472
 30
0.0
 11
3819.06516713215
 21
-2017.40213083472
 31
0.0
  0
LINE
  5
2C16B
330
18
100
AcDbEntity
  8
0
  6
BYBLOCK
100
AcDbLine
 10
3819.06516713215
 20
-2017.40213083472
 30
0.0
 11
3815.06516713215
 21
-2018.47392759472
 31
0.0
  0
LINE
  5
2C16C
330
18
100
AcDbEntity
  8
0
  6
BYBLOCK
100
AcDbLine
 10
3819.06516713215
 20
-2017.40213083472
 30
0.0
 11
3815.06516713215
 21
-2017.40213083472
 31
0.0
  0
TEXT
  5
2C16D
330
18
100
AcDbEntity
  8
1DIM
  6
CONTINUOUS
100
AcDbText
 10
3742.898500465484
 20
-2016.00213083472
 30
0.0
 40
7.0
  1
P=122
100
AcDbText
1001
ACAD
1000
DSTYLE
1002
{
1070
    40
1040
2.0
1002
}
  0
LINE
  5
2C16E
330
18
100
AcDbEntity
  8
0
  6
BYBLOCK
100
AcDbLine
 10
3871.63696389215
 20
-2061.833564434561
 30
0.0
 11
3870.56516713215
 21
-2065.833564434561
 31
0.0
  0
LINE
  5
2C16F
330
18
100
AcDbEntity
  8
0
  6
BYBLOCK
100
AcDbLine
 10
3870.56516713215
 20
-2065.833564434561
 30
0.0
 11
3869.49337037215
 21
-2061.833564434561
 31
0.0
  0
LINE
  5
2C170
330
18
100
AcDbEntity
  8
0
  6
BYBLOCK
100
AcDbLine
 10
3870.56516713215
 20
-2065.833564434561
 30
0.0
 11
3870.56516713215
 21
-2061.833564434561
 31
0.0
  0
LINE
  5
2C171
330
18
100
AcDbEntity
  8
0
  6
BYBLOCK
100
AcDbLine
 10
3869.49337037215
 20
-1914.833564434558
 30
0.0
 11
3870.56516713215
 21
-1910.833564434558
 31
0.0
  0
LINE
  5
2C172
330
18
100
AcDbEntity
  8
0
  6
BYBLOCK
100
AcDbLine
 10
3870.56516713215
 20
-1910.833564434558
 30
0.0
 11
3871.63696389215
 21
-1914.833564434558
 31
0.0
  0
LINE
  5
2C173
330
18
100
AcDbEntity
  8
0
  6
BYBLOCK
100
AcDbLine
 10
3870.56516713215
 20
-1910.833564434558
 30
0.0
 11
3870.56516713215
 21
-1914.833564434558
 31
0.0
  0
TEXT
  5
2C174
330
18
100
AcDbEntity
  8
1DIM
  6
CONTINUOUS
100
AcDbText
 10
3869.165167132151
 20
-1996.524536656781
 30
0.0
 40
7.0
  1
155
 50
90.0
100
AcDbText
1001
ACAD
1000
DSTYLE
1002
{
1070
    40
1040
2.0
1002
}
  0
LINE
  5
2C175
330
18
100
AcDbEntity
  8
0
  6
BYBLOCK
100
AcDbLine
 10
3704.56516713215
 20
-2308.524812760096
 30
0.0
 11
3700.56516713215
 21
-2307.453016000096
 31
0.0
  0
LINE
  5
2C176
330
18
100
AcDbEntity
  8
0
  6
BYBLOCK
100
AcDbLine
 10
3700.56516713215
 20
-2307.453016000096
 30
0.0
 11
3704.56516713215
 21
-2306.381219240096
 31
0.0
  0
LINE
  5
2C177
330
18
100
AcDbEntity
  8
0
  6
BYBLOCK
100
AcDbLine
 10
3700.56516713215
 20
-2307.453016000096
 30
0.0
 11
3704.56516713215
 21
-2307.453016000096
 31
0.0
  0
LINE
  5
2C178
330
18
100
AcDbEntity
  8
0
  6
BYBLOCK
100
AcDbLine
 10
3811.56516713215
 20
-2306.381219240096
 30
0.0
 11
3815.56516713215
 21
-2307.453016000096
 31
0.0
  0
LINE
  5
2C179
330
18
100
AcDbEntity
  8
0
  6
BYBLOCK
100
AcDbLine
 10
3815.56516713215
 20
-2307.453016000096
 30
0.0
 11
3811.56516713215
 21
-2308.524812760096
 31
0.0
  0
LINE
  5
2C17A
330
18
100
AcDbEntity
  8
0
  6
BYBLOCK
100
AcDbLine
 10
3815.56516713215
 20
-2307.453016000096
 30
0.0
 11
3811.56516713215
 21
-2307.453016000096
 31
0.0
  0
TEXT
  5
2C17B
330
18
100
AcDbEntity
  8
1DIM
  6
CONTINUOUS
100
AcDbText
 10
3744.06516713215
 20
-2306.053016000096
 30
0.0
 40
7.0
  1
P=115
100
AcDbText
1001
ACAD
1000
DSTYLE
1002
{
1070
    40
1040
2.0
1002
}
  0
LINE
  5
2C17C
330
18
100
AcDbEntity
  8
0
  6
BYBLOCK
100
AcDbLine
 10
3717.06516713215
 20
-2040.405361199116
 30
0.0
 11
3713.06516713215
 21
-2039.333564439116
 31
0.0
  0
LINE
  5
2C17D
330
18
100
AcDbEntity
  8
0
  6
BYBLOCK
100
AcDbLine
 10
3713.06516713215
 20
-2039.333564439116
 30
0.0
 11
3717.06516713215
 21
-2038.261767679116
 31
0.0
  0
LINE
  5
2C17E
330
18
100
AcDbEntity
  8
0
  6
BYBLOCK
100
AcDbLine
 10
3713.06516713215
 20
-2039.333564439116
 30
0.0
 11
3717.06516713215
 21
-2039.333564439116
 31
0.0
  0
LINE
  5
2C17F
330
18
100
AcDbEntity
  8
0
  6
BYBLOCK
100
AcDbLine
 10
3799.065167132151
 20
-2038.261767679116
 30
0.0
 11
3803.065167132151
 21
-2039.333564439116
 31
0.0
  0
LINE
  5
2C180
330
18
100
AcDbEntity
  8
0
  6
BYBLOCK
100
AcDbLine
 10
3803.065167132151
 20
-2039.333564439116
 30
0.0
 11
3799.065167132151
 21
-2040.405361199116
 31
0.0
  0
LINE
  5
2C181
330
18
100
AcDbEntity
  8
0
  6
BYBLOCK
100
AcDbLine
 10
3803.065167132151
 20
-2039.333564439116
 30
0.0
 11
3799.065167132151
 21
-2039.333564439116
 31
0.0
  0
TEXT
  5
2C182
330
18
100
AcDbEntity
  8
1DIM
  6
CONTINUOUS
100
AcDbText
 10
3731.55104676178
 20
-2037.933564439116
 30
0.0
 40
7.0
  1
逃げ穴寸法90
100
AcDbText
1001
ACAD
1000
DSTYLE
1002
{
1070
    40
1040
2.0
1002
}
  0
LINE
  5
2C183
330
18
100
AcDbEntity
  8
0
  6
BYBLOCK
100
AcDbLine
 10
3708.958661945746
 20
-2255.333564439115
 30
0.0
 11
3707.886865185746
 21
-2259.333564439115
 31
0.0
  0
LINE
  5
2C184
330
18
100
AcDbEntity
  8
0
  6
BYBLOCK
100
AcDbLine
 10
3707.886865185746
 20
-2259.333564439115
 30
0.0
 11
3706.815068425746
 21
-2255.333564439115
 31
0.0
  0
LINE
  5
2C185
330
18
100
AcDbEntity
  8
0
  6
BYBLOCK
100
AcDbLine
 10
3707.886865185746
 20
-2259.333564439115
 30
0.0
 11
3707.886865185746
 21
-2255.333564439115
 31
0.0
  0
LINE
  5
2C186
330
18
100
AcDbEntity
  8
0
  6
BYBLOCK
100
AcDbLine
 10
3706.815068425746
 20
-2063.333564439115
 30
0.0
 11
3707.886865185746
 21
-2059.333564439115
 31
0.0
  0
LINE
  5
2C187
330
18
100
AcDbEntity
  8
0
  6
BYBLOCK
100
AcDbLine
 10
3707.886865185746
 20
-2059.333564439115
 30
0.0
 11
3708.958661945746
 21
-2063.333564439115
 31
0.0
  0
LINE
  5
2C188
330
18
100
AcDbEntity
  8
0
  6
BYBLOCK
100
AcDbLine
 10
3707.886865185746
 20
-2059.333564439115
 30
0.0
 11
3707.886865185746
 21
-2063.333564439115
 31
0.0
  0
TEXT
  5
2C189
330
18
100
AcDbEntity
  8
1DIM
  6
CONTINUOUS
100
AcDbText
 10
3706.486865185746
 20
-2183.762731105781
 30
0.0
 40
7.0
  1
逃げ穴寸法200
 50
90.0
100
AcDbText
1001
ACAD
1000
DSTYLE
1002
{
1070
    40
1040
2.0
1002
}
  0
TEXT
  5
2C18A
330
18
100
AcDbEntity
  8
1DIM
  6
CONTINUOUS
100
AcDbText
 10
3808.711015899208
 20
-2054.782979022149
 30
0.0
 40
7.0
  1
R5
 50
36.27827952059118
100
AcDbText
1001
ACAD_DSTYLE_DIMRADIAL_EXTE
1070
   387
1070
     1
1070
   388
1040
0.0
1070
   390
1040
1.570796326794897
1001
ACAD
1000
DSTYLE
1002
{
1070
    40
1040
2.0
1002
}
  0
LINE
  5
2C18B
330
18
100
AcDbEntity
  8
0
  6
BYBLOCK
100
AcDbLine
 10
3805.954731311626
 20
-2059.872227716485
 30
0.0
 11
3802.095930396679
 21
-2061.375026370181
 31
0.0
  0
LINE
  5
2C18C
330
18
100
AcDbEntity
  8
0
  6
BYBLOCK
100
AcDbLine
 10
3802.095930396679
 20
-2061.375026370181
 30
0.0
 11
3804.686350704978
 21
-2058.144164113585
 31
0.0
  0
LINE
  5
2C18D
330
18
100
AcDbEntity
  8
0
  6
BYBLOCK
100
AcDbLine
 10
3802.095930396679
 20
-2061.375026370181
 30
0.0
 11
3805.320541008302
 21
-2059.008195915035
 31
0.0
  0
LINE
  5
2C18E
330
18
100
AcDbEntity
  8
0
  6
BYBLOCK
100
AcDbLine
 10
3689.56516713215
 20
-1908.232409804451
 30
0.0
 11
3685.56516713215
 21
-1907.160613044451
 31
0.0
  0
LINE
  5
2C18F
330
18
100
AcDbEntity
  8
0
  6
BYBLOCK
100
AcDbLine
 10
3685.56516713215
 20
-1907.160613044451
 30
0.0
 11
3689.56516713215
 21
-1906.088816284451
 31
0.0
  0
LINE
  5
2C190
330
18
100
AcDbEntity
  8
0
  6
BYBLOCK
100
AcDbLine
 10
3685.56516713215
 20
-1907.160613044451
 30
0.0
 11
3689.56516713215
 21
-1907.160613044451
 31
0.0
  0
LINE
  5
2C191
330
18
100
AcDbEntity
  8
0
  6
BYBLOCK
100
AcDbLine
 10
3826.56516713215
 20
-1906.088816284451
 30
0.0
 11
3830.56516713215
 21
-1907.160613044451
 31
0.0
  0
LINE
  5
2C192
330
18
100
AcDbEntity
  8
0
  6
BYBLOCK
100
AcDbLine
 10
3830.56516713215
 20
-1907.160613044451
 30
0.0
 11
3826.56516713215
 21
-1908.232409804451
 31
0.0
  0
LINE
  5
2C193
330
18
100
AcDbEntity
  8
0
  6
BYBLOCK
100
AcDbLine
 10
3830.56516713215
 20
-1907.160613044451
 30
0.0
 11
3826.56516713215
 21
-1907.160613044451
 31
0.0
  0
TEXT
  5
2C194
330
18
100
AcDbEntity
  8
1DIM
  6
CONTINUOUS
100
AcDbText
 10
3749.898500465484
 20
-1905.760613044451
 30
0.0
 40
7.0
  1
145
100
AcDbText
1001
ACAD
1000
DSTYLE
1002
{
1070
    40
1040
2.0
1002
}
  0
LINE
  5
2C195
330
18
100
AcDbEntity
  8
0
  6
BYBLOCK
100
AcDbLine
 10
3286.718630121996
 20
-1935.833564434558
 30
0.0
 11
3285.646833361996
 21
-1939.833564434558
 31
0.0
  0
LINE
  5
2C196
330
18
100
AcDbEntity
  8
0
  6
BYBLOCK
100
AcDbLine
 10
3285.646833361996
 20
-1939.833564434558
 30
0.0
 11
3284.575036601997
 21
-1935.833564434558
 31
0.0
  0
LINE
  5
2C197
330
18
100
AcDbEntity
  8
0
  6
BYBLOCK
100
AcDbLine
 10
3285.646833361996
 20
-1939.833564434558
 30
0.0
 11
3285.646833361996
 21
-1935.833564434558
 31
0.0
  0
LINE
  5
2C198
330
18
100
AcDbEntity
  8
0
  6
BYBLOCK
100
AcDbLine
 10
3284.575036601997
 20
-1914.833564434558
 30
0.0
 11
3285.646833361996
 21
-1910.833564434558
 31
0.0
  0
LINE
  5
2C199
330
18
100
AcDbEntity
  8
0
  6
BYBLOCK
100
AcDbLine
 10
3285.646833361996
 20
-1910.833564434558
 30
0.0
 11
3286.718630121996
 21
-1914.833564434558
 31
0.0
  0
LINE
  5
2C19A
330
18
100
AcDbEntity
  8
0
  6
BYBLOCK
100
AcDbLine
 10
3285.646833361996
 20
-1910.833564434558
 30
0.0
 11
3285.646833361996
 21
-1914.833564434558
 31
0.0
  0
TEXT
  5
2C19B
330
18
100
AcDbEntity
  8
1DIM
  6
CONTINUOUS
100
AcDbText
 10
3284.246833361997
 20
-1931.168518138261
 30
0.0
 40
7.0
  1
29
 50
90.0
100
AcDbText
1001
ACAD
1000
DSTYLE
1002
{
1070
    40
1040
2.0
1002
}
  0
LINE
  5
2C19C
330
18
100
AcDbEntity
  8
0
  6
BYBLOCK
100
AcDbLine
 10
3677.065167134017
 20
-2198.103979587812
 30
0.0
 11
3673.065167134017
 21
-2197.032182827812
 31
0.0
  0
LINE
  5
2C19D
330
18
100
AcDbEntity
  8
0
  6
BYBLOCK
100
AcDbLine
 10
3673.065167134017
 20
-2197.032182827812
 30
0.0
 11
3677.065167134017
 21
-2195.960386067813
 31
0.0
  0
LINE
  5
2C19E
330
18
100
AcDbEntity
  8
0
  6
BYBLOCK
100
AcDbLine
 10
3673.065167134017
 20
-2197.032182827812
 30
0.0
 11
3677.065167134017
 21
-2197.032182827812
 31
0.0
  0
LINE
  5
2C19F
330
18
100
AcDbEntity
  8
0
  6
BYBLOCK
100
AcDbLine
 10
3754.065167134017
 20
-2195.960386067813
 30
0.0
 11
3758.065167134017
 21
-2197.032182827812
 31
0.0
  0
LINE
  5
2C1A0
330
18
100
AcDbEntity
  8
0
  6
BYBLOCK
100
AcDbLine
 10
3758.065167134017
 20
-2197.032182827812
 30
0.0
 11
3754.065167134017
 21
-2198.103979587812
 31
0.0
  0
LINE
  5
2C1A1
330
18
100
AcDbEntity
  8
0
  6
BYBLOCK
100
AcDbLine
 10
3758.065167134017
 20
-2197.032182827812
 30
0.0
 11
3754.065167134017
 21
-2197.032182827812
 31
0.0
  0
TEXT
  5
2C1A2
330
18
100
AcDbEntity
  8
1DIM
  6
CONTINUOUS
100
AcDbText
 10
3725.539716091104
 20
-2195.632182827812
 30
0.0
 40
7.0
  1
200
100
AcDbText
1001
ACAD
1000
DSTYLE
1002
{
1070
    40
1040
2.0
1002
}
  0
LINE
  5
2C1A3
330
18
100
AcDbEntity
  8
0
  6
BYBLOCK
100
AcDbLine
 10
3839.065167134017
 20
-2195.960386067813
 30
0.0
 11
3843.065167134017
 21
-2197.032182827812
 31
0.0
  0
LINE
  5
2C1A4
330
18
100
AcDbEntity
  8
0
  6
BYBLOCK
100
AcDbLine
 10
3843.065167134017
 20
-2197.032182827812
 30
0.0
 11
3839.065167134017
 21
-2198.103979587812
 31
0.0
  0
LINE
  5
2C1A5
330
18
100
AcDbEntity
  8
0
  6
BYBLOCK
100
AcDbLine
 10
3843.065167134017
 20
-2197.032182827812
 30
0.0
 11
3839.065167134017
 21
-2197.032182827812
 31
0.0
  0
LINE
  5
2C1A6
330
18
100
AcDbEntity
  8
0
  6
BYBLOCK
100
AcDbLine
 10
3762.065167134017
 20
-2198.103979587812
 30
0.0
 11
3758.065167134017
 21
-2197.032182827812
 31
0.0
  0
LINE
  5
2C1A7
330
18
100
AcDbEntity
  8
0
  6
BYBLOCK
100
AcDbLine
 10
3758.065167134017
 20
-2197.032182827812
 30
0.0
 11
3762.065167134017
 21
-2195.960386067813
 31
0.0
  0
LINE
  5
2C1A8
330
18
100
AcDbEntity
  8
0
  6
BYBLOCK
100
AcDbLine
 10
3758.065167134017
 20
-2197.032182827812
 30
0.0
 11
3762.065167134017
 21
-2197.032182827812
 31
0.0
  0
TEXT
  5
2C1A9
330
18
100
AcDbEntity
  8
1DIM
  6
CONTINUOUS
100
AcDbText
 10
3773.965618176929
 20
-2195.632182827812
 30
0.0
 40
7.0
  1
200
100
AcDbText
1001
ACAD
1000
DSTYLE
1002
{
1070
    40
1040
2.0
1002
}
  0
VIEWPORT
  5
57
330
15
100
AcDbEntity
 67
     1
  8
0
100
AcDbViewport
 68
     1
 10
0.0
 20
0.0
 30
0.0
 40
565.988904299584
 41
297.0
 68
     1
 69
     1
1001
ACAD
1000
MVIEW
1002
{
1070
    16
1010
0.0
1020
0.0
1030
0.0
1010
0.0
1020
0.0
1030
1.0
1040
0.0
1040
297.0
1040
-4.272048862584541
1040
18.33904653606845
1040
50.0
1040
0.0
1040
0.0
1070
    16
1070
   100
1070
     0
1070
     1
1070
     0
1070
     0
1070
     0
1070
     0
1040
0.0
1040
0.0
1040
0.0
1040
10.0
1040
10.0
1040
10.0
1040
10.0
1070
     0
1002
{
1002
}
1002
}
  0
ENDSEC
  0
SECTION
  2
OBJECTS
  0
DICTIONARY
  5
C
330
0
100
AcDbDictionary
  3
ACAD_COLOR
350
2D0
  3
ACAD_GROUP
350
D
  3
ACAD_LAYOUT
350
2D1
  3
ACAD_MATERIAL
350
2CF
  3
ACAD_MLEADERSTYLE
350
15B98
  3
ACAD_MLINESTYLE
350
1B
  3
ACAD_PLOTSETTINGS
350
2D2
  3
ACAD_SCALELIST
350
15B76
  3
ACAD_VISUALSTYLE
350
15B65
  3
ACDBHEADERROUNDTRIPXREC
350
2C1AD
  3
ACDBVARIABLEDICTIONARY
350
37
  3
CONTENTDICTIONARY
350
D8
  3
DRAWINGVARIABLESDICT
350
20
  3
DWGPROPS
350
2C1B0
1001
ACAD
1000
TREAT_AS_HARD
1070
     0
  0
DICTIONARY
  5
14EC2
330
2
100
AcDbDictionary
  3
ACAD_LAYERSTATES
360
14EC3
1001
ACAD
1000
TREAT_AS_HARD
1070
     1
  0
DICTIONARY
  5
15BB5
330
E
100
AcDbDictionary
  3
ADSK_XREC_LAYER_RECONCILED
360
15BB6
1001
ACAD
1000
TREAT_AS_HARD
1070
     1
  0
DICTIONARY
  5
15BB7
330
29
100
AcDbDictionary
  3
ADSK_XREC_LAYER_RECONCILED
360
15BB8
1001
ACAD
1000
TREAT_AS_HARD
1070
     1
  0
DICTIONARY
  5
15BB9
330
31
100
AcDbDictionary
  3
ADSK_XREC_LAYER_RECONCILED
360
15BBA
1001
ACAD
1000
TREAT_AS_HARD
1070
     1
  0
DICTIONARY
  5
15BC3
330
101
100
AcDbDictionary
  3
ADSK_XREC_LAYER_RECONCILED
360
15BC4
1001
ACAD
1000
TREAT_AS_HARD
1070
     1
  0
DICTIONARY
  5
15BC5
330
102
100
AcDbDictionary
  3
ADSK_XREC_LAYER_RECONCILED
360
15BC6
1001
ACAD
1000
TREAT_AS_HARD
1070
     1
  0
DICTIONARY
  5
15BC7
330
103
100
AcDbDictionary
  3
ADSK_XREC_LAYER_RECONCILED
360
15BC8
1001
ACAD
1000
TREAT_AS_HARD
1070
     1
  0
DICTIONARY
  5
15BCB
330
25F
100
AcDbDictionary
  3
ADSK_XREC_LAYER_RECONCILED
360
15BCC
1001
ACAD
1000
TREAT_AS_HARD
1070
     1
  0
DICTIONARY
  5
15BE7
330
26D
100
AcDbDictionary
  3
ADSK_XREC_LAYER_RECONCILED
360
15BE8
1001
ACAD
1000
TREAT_AS_HARD
1070
     1
  0
DICTIONARY
  5
6E9
330
18
100
AcDbDictionary
  3
ACAD_SORTENTS
360
6EA
1001
ACAD
1000
TREAT_AS_HARD
1070
     1
  0
DICTIONARY
  5
59B
330
15
100
AcDbDictionary
  3
ACAD_SORTENTS
360
59C
1001
ACAD
1000
TREAT_AS_HARD
1070
     1
  0
DICTIONARY
  5
2D0
102
{ACAD_REACTORS
330
C
102
}
330
C
100
AcDbDictionary
1001
ACAD
1000
TREAT_AS_HARD
1070
     0
  0
DICTIONARY
  5
D
102
{ACAD_REACTORS
330
C
102
}
330
C
100
AcDbDictionary
  3
*A204
350
27545
  3
*A217
350
2546C
  3
*A227
350
254FA
  3
*A62
350
254B3
1001
ACAD
1000
TREAT_AS_HARD
1070
     0
  0
DICTIONARY
  5
2D1
102
{ACAD_REACTORS
330
C
102
}
330
C
100
AcDbDictionary
1001
ACAD
1000
TREAT_AS_HARD
1070
     0
  0
DICTIONARY
  5
2CF
102
{ACAD_REACTORS
330
C
102
}
330
C
100
AcDbDictionary
  3
BYBLOCK
350
15B55
  3
BYLAYER
350
15B4D
  3
GLOBAL
350
15B5D
1001
ACAD
1000
TREAT_AS_HARD
1070
     0
  0
DICTIONARY
  5
15B98
102
{ACAD_REACTORS
330
C
102
}
330
C
100
AcDbDictionary
  3
STANDARD
350
15B99
1001
ACAD
1000
TREAT_AS_HARD
1070
     0
  0
DICTIONARY
  5
1B
102
{ACAD_REACTORS
330
C
102
}
330
C
100
AcDbDictionary
  3
STANDARD
350
1C
1001
ACAD
1000
TREAT_AS_HARD
1070
     0
  0
DICTIONARY
  5
2D2
102
{ACAD_REACTORS
330
C
102
}
330
C
100
AcDbDictionary
1001
ACAD
1000
TREAT_AS_HARD
1070
     0
  0
DICTIONARY
  5
15B76
102
{ACAD_REACTORS
330
C
102
}
330
C
100
AcDbDictionary
  3
A0
350
15B77
  3
A1
350
15B78
  3
A2
350
15B79
  3
A3
350
15B7A
  3
A4
350
15B7B
  3
A5
350
15B7C
  3
A6
350
15B7D
  3
A7
350
15B7E
  3
A8
350
15B7F
  3
A9
350
15B80
  3
B0
350
15B81
  3
B1
350
15B82
  3
B2
350
15B83
  3
B3
350
15B84
  3
B4
350
15B85
  3
B5
350
15B86
  3
B6
350
15B87
  3
B7
350
15B88
  3
B8
350
15B89
  3
B9
350
15B8A
  3
C0
350
15B8B
  3
C1
350
15B8C
  3
C2
350
15B8D
  3
C3
350
15B8E
  3
C4
350
15B8F
  3
C5
350
15B90
  3
C6
350
15B91
  3
C7
350
15B92
  3
C8
350
15B93
  3
C9
350
15B94
  3
D0
350
15B95
  3
D1
350
15B96
  3
D2
350
15B97
1001
ACAD
1000
TREAT_AS_HARD
1070
     0
  0
DICTIONARY
  5
15B65
102
{ACAD_REACTORS
330
C
102
}
330
C
100
AcDbDictionary
  3
2DWIREFRAME
350
15B6B
  3
3D_HIDDEN
350
15B6D
  3
3DWIREFRAME
350
15B6C
  3
BASIC
350
15B6A
  3
BRIGHTEN
350
15B71
  3
COLORCHANGE
350
15B75
  3
CONCEPTUAL
350
15B6E
  3
DIM
350
15B70
  3
EDGECOLOROFF
350
1F525
  3
FACEPATTERN
350
15B74
  3
FLAT
350
15B66
  3
FLATWITHEDGES
350
15B67
  3
GOURAUD
350
15B68
  3
GOURAUDWITHEDGES
350
15B69
  3
HIDDEN
350
2C06B
  3
JITTEROFF
350
1F523
  3
LINEPATTERN
350
15B73
  3
MODELING
350
2C071
  3
OVERHANGOFF
350
1F524
  3
REALISTIC
350
15B6F
  3
SHADED
350
2C070
  3
SHADED_WITH_EDGES
350
2C06F
  3
SHADES_OF_GRAY
350
2C06C
  3
SKETCHY
350
2C06D
  3
THICKEN
350
15B72
  3
WIREFRAME
350
2C06A
  3
X-RAY
350
2C06E
1001
ACAD
1000
TREAT_AS_HARD
1070
     0
  0
DICTIONARY
  5
2C1AD
102
{ACAD_REACTORS
330
C
102
}
330
C
100
AcDbDictionary
  3
COLORDICT
350
2C1AE
  3
MATERIALDICT
350
2C1AF
1001
ACAD
1000
TREAT_AS_HARD
1070
     0
  0
DICTIONARY
  5
37
102
{ACAD_REACTORS
330
C
102
}
330
C
100
AcDbDictionary
  3
CANNOSCALE
350
2C1B1
  3
CMLEADERSTYLE
350
15C4B
  3
CTABLESTYLE
350
4F1
  3
DIMADEC
350
38
  3
DIMASSOC
350
408
  3
HIDETEXT
350
1891
  3
INDEXCTL
350
15C4E
  3
INTERSECTIONCOLOR
350
1895
  3
INTERSECTIONDISPLAY
350
1894
  3
MSLTSCALE
350
2C1AA
  3
OBSCOLOR
350
1892
  3
OBSLTYPE
350
1893
  3
PROJECTNAME
350
409
  3
SORTENTS
350
15C4D
  3
XCLIPFRAME
350
2C069
1001
ACAD
1000
TREAT_AS_HARD
1070
     0
  0
DICTIONARY
  5
D8
102
{ACAD_REACTORS
330
C
102
}
330
C
100
AcDbDictionary
1001
CONTENTTABDATA
1070
    11
1000
Child
1000
D:\ACLT\TABset\CHILDREN.dwg
1070
     0
1070
     0
1070
     1
1000
PK
1000
D:\ACLT\TABset\PK.dwg
1070
     0
1070
     0
1070
     1
1000
Lev1
1000
D:\ACLT\TABset\Lever01.dwg
1070
     0
1070
     0
1070
     1
1000
Lev2
1000
D:\ACLT\TABset\Lever02.dwg
1070
     0
1070
     0
1070
     1
1000
L3
1000
D:\Aclt\TABset\Lever03.dwg
1070
     0
1070
     0
1070
     1
1000
Form
1000
D:\ACLT\FORMAT
1070
     1
1070
     0
1070
     1
1000
Jnt
1000
D:\ACLT\TABset\JOINTPARTS.dwg
1070
     0
1070
     0
1070
     1
1000
ISO
1000
D:\ACLT\TABset\Isome01.dwg
1070
     0
1070
     0
1070
     1
1000
R
1000
D:\ACLT\TABset\REGION.dwg
1070
     0
1070
     0
1070
     1
1000
std
1000
D:\ACLT\TABset\std_sym_all.dwg
1070
     0
1070
     0
1070
     1
1000
丸
1000
D:\Aclt\TABset\MARU.dwg
1070
     0
1070
     0
1070
     1
1001
CONTENTCURRENTTAB
1070
     0
1001
ACAD
1000
TREAT_AS_HARD
1070
     0
  0
DICTIONARY
  5
20
102
{ACAD_REACTORS
330
C
102
}
330
C
100
AcDbDictionary
1001
DRAWINGVARIABLESXDATA
1000
POLARANG
1000
0.261799387799149410000000
1000
POLARMODE
1000
1
1000
POLARSTYLE
1000
1
1001
ACAD
1000
TREAT_AS_HARD
1070
     0
  0
XRECORD
  5
2C1B0
102
{ACAD_REACTORS
330
C
102
}
330
C
100
AcDbXrecord
  1
DWGPROPS COOKIE
  2

  3

  4

  6

  7

  8
619
  9

300
=
301
=
302
=
303
=
304
=
305
=
306
=
307
=
308
=
309
=
 40
0.0
 41
2453033.357663484
 42
2458296.002912002
  1

 90
        0
  0
DICTIONARY
  5
14EC3
102
{ACAD_REACTORS
330
14EC2
102
}
330
14EC2
100
AcDbDictionary
  3
_LAYISO_STATE
350
253AA
1001
ACLAYERTOOLS
1000
2D3
1000
0
1001
ACAD
1000
TREAT_AS_HARD
1070
     0
  0
ACAD_PROXY_OBJECT
  5
15BB6
102
{ACAD_REACTORS
330
15BB5
102
}
330
15BB5
100
AcDbZombieObject
 90
      499
 91
      517
 93
       34
310
40C8804040
  0
ACAD_PROXY_OBJECT
  5
15BB8
102
{ACAD_REACTORS
330
15BB7
102
}
330
15BB7
100
AcDbZombieObject
 90
      499
 91
      517
 93
       34
310
40C8804040
  0
ACAD_PROXY_OBJECT
  5
15BBA
102
{ACAD_REACTORS
330
15BB9
102
}
330
15BB9
100
AcDbZombieObject
 90
      499
 91
      517
 93
       34
310
40C8804040
  0
ACAD_PROXY_OBJECT
  5
15BC4
102
{ACAD_REACTORS
330
15BC3
102
}
330
15BC3
100
AcDbZombieObject
 90
      499
 91
      517
 93
       34
310
40C8804040
  0
ACAD_PROXY_OBJECT
  5
15BC6
102
{ACAD_REACTORS
330
15BC5
102
}
330
15BC5
100
AcDbZombieObject
 90
      499
 91
      517
 93
       34
310
40C8804040
  0
ACAD_PROXY_OBJECT
  5
15BC8
102
{ACAD_REACTORS
330
15BC7
102
}
330
15BC7
100
AcDbZombieObject
 90
      499
 91
      517
 93
       34
310
40C8804040
  0
ACAD_PROXY_OBJECT
  5
15BCC
102
{ACAD_REACTORS
330
15BCB
102
}
330
15BCB
100
AcDbZombieObject
 90
      499
 91
      517
 93
       34
310
40C8804040
  0
ACAD_PROXY_OBJECT
  5
15BE8
102
{ACAD_REACTORS
330
15BE7
102
}
330
15BE7
100
AcDbZombieObject
 90
      499
 91
      517
 93
       34
310
40C8804040
  0
SORTENTSTABLE
  5
6EA
102
{ACAD_REACTORS
330
6E9
102
}
330
6E9
100
AcDbSortentsTable
330
18
331
22F41
  5
22F43
331
22F42
  5
22F44
331
22F43
  5
22F45
331
22F44
  5
22F46
331
22F45
  5
22F47
331
22F46
  5
22F48
331
22F47
  5
22F49
331
22F48
  5
22F4A
331
22F49
  5
22F4B
331
22F4A
  5
22F4C
331
22F4B
  5
22F4D
331
22F4C
  5
22F4E
331
22F4D
  5
22F4F
331
22F4E
  5
22F50
331
22F4F
  5
22F51
331
22F50
  5
22F52
331
22F51
  5
22F53
331
22F52
  5
22F54
331
22F53
  5
22F55
331
22F54
  5
22F56
331
22F55
  5
22F57
331
22F56
  5
22F58
331
22F57
  5
22F59
331
22F58
  5
22F5A
331
22F59
  5
22F5B
331
22F5A
  5
22F5C
331
22F5B
  5
22F5D
331
22F5C
  5
22F5E
331
22F5D
  5
22F5F
331
22F5E
  5
22F60
331
22F5F
  5
22F61
331
22F60
  5
22F62
331
22F67
  5
22FCA
331
22FC8
  5
22FCB
331
22FC9
  5
22FCC
331
22FCA
  5
23014
331
22FCB
  5
23015
331
22FCC
  5
23085
331
22FCD
  5
2308C
331
22FCE
  5
237D6
331
22FCF
  5
237D7
331
2300E
  5
237D8
331
2300F
  5
237DB
331
23010
  5
237DC
331
23011
  5
237DD
331
23012
  5
237DE
331
23013
  5
237DF
331
23014
  5
237E0
331
23015
  5
237E1
331
23085
  5
237F4
331
23086
  5
237F5
331
23087
  5
237F6
331
23088
  5
237F7
331
23089
  5
237FB
331
2308A
  5
23932
331
2308B
  5
239A8
331
2308C
  5
244C2
331
237DB
  5
244C3
331
237FD
  5
244C4
331
23829
  5
24898
331
2472F
  5
248A0
331
24771
  5
248A1
331
24773
  5
248A2
331
2486D
  5
248A3
331
2486E
  5
248CB
331
24880
  5
248CC
331
24881
  5
248CD
331
24882
  5
248CE
331
2488A
  5
248CF
331
2488B
  5
248D0
331
2488C
  5
24BD9
331
2488D
  5
24BDA
331
2488E
  5
24BDB
331
24892
  5
24BDC
331
24893
  5
24BDD
331
24894
  5
24BDE
331
24895
  5
24BDF
331
24896
  5
24BE0
331
24897
  5
24BE1
331
24898
  5
24BE2
331
24899
  5
24BE4
331
2489A
  5
24BE5
331
2489B
  5
24BE6
331
2489C
  5
24BE7
331
248A0
  5
24BE9
331
248A1
  5
24BEA
331
248A2
  5
2500D
331
248A3
  5
2500E
331
248A4
  5
2500F
331
248A5
  5
25010
331
248CC
  5
2489A
331
248CE
  5
24BE8
331
248CF
  5
24BE3
331
248D0
  5
2489C
331
0
  5
25011
331
0
  5
25012
331
24F9E
  5
2542B
331
24FA0
  5
2542C
331
0
  5
25016
331
0
  5
25017
331
0
  5
25053
331
0
  5
2508D
331
0
  5
25097
331
0
  5
251FF
331
0
  5
25200
331
0
  5
25201
331
251C1
  5
25477
331
251C3
  5
25478
331
251C4
  5
2547A
331
251F5
  5
2547C
331
251F7
  5
2547D
331
251F9
  5
2547E
331
251FB
  5
2547F
331
251FC
  5
25480
331
251FD
  5
25481
331
251FE
  5
25482
331
251FF
  5
25483
331
25201
  5
25484
331
2530D
  5
25479
331
2530E
  5
2547B
331
2539B
  5
25485
331
2539D
  5
25486
331
253A6
  5
25487
331
253A7
  5
25488
331
253A8
  5
25489
331
253A9
  5
2548A
331
253AD
  5
2548B
331
253AE
  5
2548C
331
0
  5
2541F
331
0
  5
25420
331
0
  5
25421
331
0
  5
25422
331
25414
  5
25497
331
25415
  5
25498
331
25417
  5
2549D
331
25418
  5
2549E
331
25419
  5
2549F
331
2541A
  5
254A0
331
2541B
  5
254A1
331
2541C
  5
254A2
331
2541D
  5
254A3
331
2541E
  5
254A4
331
2541F
  5
254A5
331
25420
  5
254A6
331
25421
  5
254A7
331
25422
  5
254A8
331
25423
  5
254A9
331
25424
  5
254AA
331
25425
  5
254AB
331
25426
  5
254AC
331
25427
  5
254AD
331
25428
  5
254AE
331
25429
  5
254AF
331
2542A
  5
254B0
331
2542B
  5
254B1
331
2542C
  5
254B2
331
2542D
  5
254B4
331
2542E
  5
254B5
331
2542F
  5
254B6
331
25430
  5
254B7
331
25431
  5
254B8
331
25432
  5
254B9
331
25433
  5
254BA
331
25434
  5
254BB
331
25435
  5
254BC
331
25436
  5
254BD
331
25437
  5
254BE
331
25438
  5
254BF
331
25439
  5
254C0
331
2543A
  5
254C1
331
2543B
  5
254C2
331
2543C
  5
254C3
331
2543D
  5
254C4
331
2543E
  5
254C5
331
2543F
  5
254C6
331
25440
  5
254C7
331
25441
  5
254C8
331
25442
  5
254C9
331
25443
  5
254CA
331
25444
  5
254CB
331
25445
  5
254CC
331
25446
  5
254CD
331
25447
  5
254CE
331
25448
  5
254CF
331
25449
  5
254D0
331
2544A
  5
254D1
331
2544B
  5
254D2
331
2544C
  5
254D3
331
2544D
  5
254D4
331
2544E
  5
254D5
331
2544F
  5
254D6
331
25450
  5
254D7
331
25451
  5
254D8
331
25452
  5
254D9
331
2545D
  5
25499
331
2545F
  5
2549A
331
25461
  5
2549B
331
25463
  5
2549C
331
25468
  5
254DA
331
25469
  5
254DB
331
2546A
  5
254DC
331
2546B
  5
254DD
331
2546D
  5
254DE
331
2546E
  5
254DF
331
2546F
  5
254E0
331
25470
  5
254E1
331
25471
  5
254E2
331
25472
  5
254E3
331
25473
  5
254E4
331
25474
  5
254E5
331
25475
  5
254E6
331
25476
  5
254E7
331
25477
  5
254E8
331
25478
  5
254E9
331
25479
  5
254EA
331
2547A
  5
254EB
331
2547B
  5
254EC
331
2547C
  5
254ED
331
2547D
  5
254EE
331
2547E
  5
254EF
331
2547F
  5
254F0
331
25480
  5
254F1
331
25481
  5
254F2
331
25482
  5
254F3
331
25483
  5
254F4
331
25484
  5
254F5
331
25485
  5
254F6
331
25486
  5
254F7
331
25487
  5
254F8
331
25488
  5
254F9
331
25489
  5
254FB
331
2548A
  5
254FC
331
2548B
  5
254FD
331
2548C
  5
254FE
331
2548D
  5
254FF
331
2548E
  5
25500
331
2548F
  5
25501
331
25490
  5
25502
331
25491
  5
25503
331
25492
  5
25504
331
25493
  5
25505
331
25494
  5
25506
331
25495
  5
25507
331
25496
  5
25508
331
25497
  5
25592
331
25498
  5
255A5
331
25499
  5
255B2
331
2549A
  5
255B3
331
2549B
  5
25D7F
331
2549C
  5
25D80
331
2549D
  5
25DDB
331
2549E
  5
264D2
331
2549F
  5
264D3
331
254A0
  5
264D4
331
254A1
  5
264D5
331
254A2
  5
264D6
331
254A3
  5
264D7
331
254A4
  5
264D8
331
254A5
  5
264D9
331
254A6
  5
264DA
331
254A7
  5
264DB
331
254A8
  5
264DC
331
254A9
  5
264DD
331
254AA
  5
264DE
331
254AB
  5
264DF
331
254AC
  5
264E0
331
254AD
  5
264E1
331
254AE
  5
264E2
331
254AF
  5
264E3
331
254B0
  5
264E4
331
254B1
  5
264E5
331
254B2
  5
264E6
331
254B4
  5
264E7
331
254B5
  5
26504
331
254B6
  5
26847
331
254B7
  5
26848
331
254B8
  5
2689D
331
254B9
  5
268A3
331
254BA
  5
268A4
331
254BB
  5
268A6
331
254BC
  5
268A7
331
254BD
  5
268AB
331
254BE
  5
268AC
331
254BF
  5
268AF
331
254C0
  5
268B0
331
254C1
  5
268B1
331
254C2
  5
268B2
331
254C3
  5
268B4
331
254C4
  5
268B5
331
254C5
  5
268B6
331
254C6
  5
268B7
331
254C7
  5
268B8
331
254C8
  5
268BA
331
254C9
  5
268BB
331
254CA
  5
268BC
331
254CB
  5
268BD
331
254CC
  5
268BE
331
254CD
  5
269A5
331
254CE
  5
26DB8
331
254CF
  5
26DB9
331
254D0
  5
26DBA
331
254D1
  5
26DBB
331
254D2
  5
26DC9
331
254D3
  5
26DF9
331
254D4
  5
26DFA
331
254D5
  5
26DFC
331
254D6
  5
26DFD
331
254D7
  5
26E05
331
254D8
  5
26E06
331
254D9
  5
26E08
331
254DA
  5
26E09
331
254DB
  5
26E0A
331
254DC
  5
26E0B
331
254DD
  5
26E0D
331
254DE
  5
26E10
331
254DF
  5
26E12
331
254E0
  5
26E13
331
254E1
  5
26E14
331
254E2
  5
26E15
331
254E3
  5
26E16
331
254E4
  5
26E17
331
254E5
  5
26E18
331
254E6
  5
26E19
331
254E7
  5
26E1A
331
254E8
  5
26E1B
331
254E9
  5
26E1C
331
254EA
  5
26E1D
331
254EB
  5
26E1E
331
254EC
  5
26E21
331
254ED
  5
26E22
331
254EE
  5
26E23
331
254EF
  5
26F37
331
254F0
  5
26F38
331
254F1
  5
26F39
331
254F2
  5
26F3A
331
254F3
  5
26F5F
331
254F4
  5
26F60
331
254F5
  5
26F61
331
254F6
  5
26F62
331
254F7
  5
26F63
331
254F8
  5
26F64
331
254F9
  5
26F91
331
25564
  5
248A4
331
25565
  5
26F92
331
25566
  5
26F94
331
25567
  5
26F93
331
25568
  5
248CA
331
25569
  5
26F95
331
2556A
  5
248A5
331
0
  5
25D7E
331
255B2
  5
22F41
331
255B3
  5
24746
331
255B4
  5
22F42
331
25CD5
  5
26FA0
331
25D79
  5
26FA1
331
25D7A
  5
26FA2
331
25D7B
  5
26FA3
331
25D7E
  5
26FA4
331
25DAB
  5
27096
331
264D0
  5
27097
331
264D1
  5
27098
331
264D2
  5
27502
331
264D3
  5
27503
331
264D4
  5
27504
331
264D5
  5
27505
331
264D6
  5
27506
331
264D7
  5
27507
331
264D8
  5
27508
331
264D9
  5
27509
331
264DA
  5
2750A
331
264DB
  5
2750B
331
264DC
  5
2750C
331
264DD
  5
2750D
331
264DE
  5
2750E
331
264DF
  5
2750F
331
264E0
  5
27510
331
264E1
  5
27511
331
264E2
  5
27512
331
264E3
  5
27513
331
264E4
  5
27514
331
264E5
  5
27515
331
264E6
  5
27516
331
264E7
  5
27517
331
0
  5
268A5
331
2689B
  5
27522
331
2689C
  5
27525
331
268A2
  5
27526
331
268A4
  5
27528
331
268A5
  5
27529
331
268A7
  5
2752A
331
268A9
  5
2752B
331
268AA
  5
2752C
331
268AD
  5
2752D
331
268AE
  5
2752E
331
268AF
  5
2752F
331
268B0
  5
27533
331
268B2
  5
27534
331
268B3
  5
27535
331
268B4
  5
27536
331
268B5
  5
27537
331
268B6
  5
27538
331
268B7
  5
27539
331
268B8
  5
2753A
331
269A0
  5
2753E
331
269AE
  5
2753F
331
269AF
  5
27540
331
269B0
  5
27544
331
269B1
  5
27689
331
26DB7
  5
2708C
331
26DB8
  5
27527
331
26DB9
  5
27523
331
26DBA
  5
27524
331
26DBB
  5
2768D
331
26DFA
  5
29AAE
331
26DFC
  5
29AB0
331
26DFE
  5
29AB1
331
26DFF
  5
276E8
331
26E00
  5
27889
331
26E02
  5
27D94
331
26E03
  5
27D95
331
26E05
  5
27D96
331
26E07
  5
29AAB
331
26E09
  5
276E9
331
26E0A
  5
29AAF
331
26E0B
  5
29AAD
331
26E0C
  5
29AA7
331
26E0F
  5
29AAC
331
26E10
  5
29AA6
331
26E12
  5
29AB2
331
26E13
  5
29B17
331
26E14
  5
29B18
331
26E15
  5
29BD3
331
26E16
  5
2BDC5
331
26E17
  5
2BDC7
331
26E18
  5
2BDC8
331
26E19
  5
2BDC9
331
26E1A
  5
2BDCA
331
26E1B
  5
2BDCB
331
26E1C
  5
2BDCC
331
26E1D
  5
2BDCD
331
26E1E
  5
2BDCE
331
26E21
  5
2BDCF
331
26E22
  5
2BDD0
331
26E23
  5
2BDD4
331
26F5B
  5
2BDD5
331
26F5C
  5
2BDD6
331
26F5D
  5
2BDD7
331
26F5E
  5
2BDD8
331
26F5F
  5
2BDD9
331
26F60
  5
2BDDA
331
26F61
  5
2BDDB
331
26F62
  5
2BDDC
331
0
  5
26F77
331
26F76
  5
2C077
331
0
  5
26F7C
331
0
  5
26F7D
331
0
  5
26F7E
331
0
  5
26F7F
331
0
  5
26F80
331
0
  5
26F8C
331
26F8C
  5
2C0A4
331
26F8D
  5
2C0A5
331
26F8E
  5
2C0A6
331
26F8F
  5
2C0A7
331
26F90
  5
2C0A8
331
26F91
  5
2C0A9
331
26F92
  5
2C0AA
331
26F93
  5
2C0AB
331
26F94
  5
2C0AC
331
26F95
  5
2C0AD
331
26F96
  5
2C0AE
331
26F97
  5
2C0AF
331
26F98
  5
2C0B0
331
26F99
  5
2C0B1
331
26F9A
  5
2C0B2
331
26F9B
  5
2C0B3
331
26F9C
  5
2C0B4
331
26F9D
  5
2C0B5
331
26F9E
  5
2C0B6
331
26F9F
  5
2C0B7
331
26FA0
  5
2C0B8
331
26FA1
  5
2C0B9
331
26FA2
  5
2C0BA
331
26FA3
  5
2C0BB
331
0
  5
2712C
331
0
  5
2712D
331
2749C
  5
2C0D0
331
2749D
  5
2C0D1
331
2749E
  5
2C0D2
331
2749F
  5
2C0D3
331
274FF
  5
2C0D4
331
27500
  5
2C0D5
331
27501
  5
2C0D6
331
27502
  5
2C0D7
331
27503
  5
2C0D8
331
27504
  5
2C0D9
331
27505
  5
2C0DD
331
27506
  5
2C0DE
331
27507
  5
2C0DF
331
27508
  5
2C0E0
331
27509
  5
2C0E1
331
2750A
  5
2C0E2
331
2750B
  5
2C0E3
331
2750C
  5
2C0E4
331
2750D
  5
2C0E5
331
2750E
  5
2C0E6
331
2750F
  5
2C0E7
331
27510
  5
2C0E8
331
27511
  5
2C0E9
331
27512
  5
2C0EA
331
27513
  5
2C0EB
331
27514
  5
2C0EC
331
27515
  5
2C0ED
331
27516
  5
2C0EE
331
27517
  5
2C0EF
331
27518
  5
2C0F0
331
27519
  5
2C0F1
331
2751A
  5
2C0F2
331
2751B
  5
2C0F3
331
2751C
  5
2C0F4
331
2751D
  5
2C0F5
331
2751E
  5
2C0F6
331
2751F
  5
2C0F7
331
27520
  5
2C0F8
331
27521
  5
2C0F9
331
27522
  5
2C0FA
331
27523
  5
2C0FB
331
27524
  5
2C0FF
331
27525
  5
2C100
331
27526
  5
2C101
331
27527
  5
2C102
331
27528
  5
2C103
331
27529
  5
2C104
331
2752A
  5
2C105
331
2752B
  5
2C106
331
2752C
  5
2C107
331
2752D
  5
2C108
331
2752E
  5
2C109
331
2752F
  5
2C10A
331
27530
  5
2C10B
331
27531
  5
2C10F
331
27532
  5
2C110
331
27533
  5
2C111
331
27534
  5
2C115
331
27535
  5
2C116
331
27536
  5
2C117
331
27537
  5
2C118
331
27538
  5
2C119
331
27539
  5
2C11A
331
2753A
  5
2C11B
331
2753B
  5
2C11C
331
2753C
  5
2C11D
331
2753D
  5
2C11E
331
2753E
  5
2C11F
331
2753F
  5
2C120
331
27540
  5
2C121
331
27541
  5
2C122
331
27542
  5
2C123
331
27543
  5
2C124
331
27544
  5
2C125
331
0
  5
2788C
331
0
  5
2788D
331
2768E
  5
2C12B
331
2768F
  5
2C12C
331
27889
  5
2C12D
331
2788B
  5
2C12F
331
2788C
  5
2C130
331
2788D
  5
2C131
331
278EA
  5
2C12E
331
0
  5
29AA8
331
0
  5
29AA9
331
0
  5
29AAA
331
29AA9
  5
2C14B
331
29AAA
  5
2C14C
331
29AAB
  5
2C14D
331
29AAC
  5
2C14E
331
29AAD
  5
2C14F
331
29AAE
  5
2C150
331
29AAF
  5
2C151
331
29AB0
  5
2C152
331
29AB1
  5
2C153
331
29AB2
  5
2C154
331
29B17
  5
2C155
331
29B18
  5
2C156
331
0
  5
2BDC6
331
2BDC5
  5
2C161
331
2BDC6
  5
2C162
331
2BDC7
  5
2C163
331
2BDC8
  5
2C164
331
2BDC9
  5
2C165
331
2BDCA
  5
2C166
331
2BDCB
  5
2C167
331
2BDCC
  5
2C168
331
2BDCD
  5
2C169
331
2BDCE
  5
2C16A
331
2BDCF
  5
2C16B
331
2BDD0
  5
2C16C
331
2BDD1
  5
2C16D
331
2BDD2
  5
2C16E
331
2BDD3
  5
2C16F
331
2BDD4
  5
2C170
331
2BDD5
  5
2C171
331
2BDD6
  5
2C172
331
2BDD7
  5
2C173
331
2BDD8
  5
2C174
331
2BDD9
  5
2C175
331
2BDDA
  5
2C176
331
2BDDB
  5
2C177
331
2BDDC
  5
2C178
331
2BDDD
  5
2C179
331
2BEBA
  5
2C17A
331
2BEBB
  5
2C17B
331
2BEBC
  5
2C17C
331
0
  5
2BEBF
331
2BEBE
  5
2C187
331
2BEBF
  5
2C188
331
0
  5
2BF3F
331
0
  5
2BF41
331
2BF40
  5
2C18F
331
2BF41
  5
2C190
331
0
  5
2C014
331
0
  5
2C015
331
0
  5
2C075
331
0
  5
2C076
331
2C075
  5
2C0CE
331
2C076
  5
2C0CF
331
2C077
  5
25013
331
2C078
  5
25014
331
2C079
  5
25203
331
0
  5
25395
331
0
  5
25396
331
0
  5
25397
331
2C07D
  5
253AD
331
2C07E
  5
253AF
331
2C07F
  5
25412
331
0
  5
2539B
331
0
  5
2539C
331
0
  5
2539D
331
2C083
  5
25430
331
2C084
  5
25431
331
2C085
  5
25432
331
2C086
  5
25436
331
2C087
  5
25437
331
2C088
  5
25438
331
2C089
  5
25439
331
2C08A
  5
2543A
331
0
  5
2541D
331
0
  5
2541E
331
0
  5
25423
331
2C08E
  5
25442
331
2C08F
  5
25443
331
2C090
  5
25444
331
0
  5
25427
331
0
  5
25428
331
0
  5
25429
331
2C094
  5
2544D
331
2C095
  5
2544E
331
2C096
  5
2544F
331
0
  5
2542D
331
0
  5
2542E
331
0
  5
2542F
331
2C09A
  5
25457
331
2C09B
  5
25468
331
2C09C
  5
25469
331
0
  5
25433
331
0
  5
25434
331
0
  5
25435
331
2C0A0
  5
25472
331
2C0A1
  5
25473
331
2C0A2
  5
25474
331
2C0A3
  5
25475
331
2C0A4
  5
25476
331
2C0A5
  5
2548D
331
2C0A6
  5
2548E
331
2C0A7
  5
2548F
331
2C0A8
  5
25490
331
2C0A9
  5
25491
331
2C0AA
  5
25492
331
2C0AB
  5
25493
331
2C0AC
  5
25494
331
2C0AD
  5
25495
331
2C0AE
  5
25496
331
2C0AF
  5
26F96
331
2C0B0
  5
26F97
331
2C0B1
  5
26F98
331
0
  5
26DFF
331
0
  5
26E01
331
0
  5
26E04
331
2C0B5
  5
27518
331
2C0B6
  5
27519
331
2C0B7
  5
2751A
331
0
  5
26F65
331
0
  5
26F66
331
0
  5
26F7B
331
2C0BB
  5
2BDDD
331
2C0BC
  5
2BEBA
331
2C0BD
  5
2BEBB
331
0
  5
27530
331
0
  5
27531
331
0
  5
27532
331
2C0C1
  5
2C078
331
2C0C2
  5
2C079
331
2C0C3
  5
2C07A
331
2C0C4
  5
2C07B
331
2C0C5
  5
2C07C
331
2C0C6
  5
2C07D
331
2C0C7
  5
2C07E
331
0
  5
2753B
331
0
  5
2753C
331
0
  5
2753D
331
2C0CB
  5
2C086
331
2C0CC
  5
2C087
331
2C0CD
  5
2C088
331
0
  5
27541
331
0
  5
27542
331
0
  5
27543
331
2C0D1
  5
2C090
331
2C0D2
  5
2C091
331
2C0D3
  5
2C092
331
0
  5
2768E
331
0
  5
2768F
331
0
  5
276E7
331
2C0D7
  5
2C09A
331
2C0D8
  5
2C09B
331
2C0D9
  5
2C09C
331
0
  5
2788B
331
0
  5
278EA
331
0
  5
27D93
331
2C0DD
  5
2C0BC
331
2C0DE
  5
2C0BD
331
2C0DF
  5
2C0BE
331
0
  5
2BDD1
331
0
  5
2BDD2
331
0
  5
2BDD3
331
2C0E3
  5
2C126
331
2C0E4
  5
2C127
331
2C0E5
  5
2C128
331
2C0E6
  5
2C129
331
2C0E7
  5
2C12A
331
2C0E8
  5
2C132
331
2C0E9
  5
2C133
331
2C0EA
  5
2C134
331
0
  5
2C0BF
331
0
  5
2C0C0
331
0
  5
2C0C1
331
2C0EE
  5
2C13C
331
2C0EF
  5
2C13D
331
2C0F0
  5
2C13E
331
0
  5
2C0C5
331
0
  5
2C0C6
331
0
  5
2C0C7
331
2C0F4
  5
2C146
331
0
  5
2C0C9
331
0
  5
2C0CA
331
2C0F7
  5
2C157
331
2C0F8
  5
2C158
331
2C0F9
  5
2C159
331
0
  5
2C0DA
331
0
  5
2C0DB
331
0
  5
2C0DC
331
2C0FD
  5
2C17D
331
2C0FE
  5
2C17E
331
2C0FF
  5
2C17F
331
0
  5
2C0FC
331
0
  5
2C0FD
331
0
  5
2C0FE
331
2C103
  5
2C189
331
2C104
  5
2C18A
331
2C105
  5
2C18B
331
2C106
  5
2C18C
331
2C107
  5
2C18D
331
2C108
  5
2C18E
331
2C109
  5
2C191
331
2C10A
  5
2C192
331
2C10B
  5
2C193
331
2C10F
  5
2C19B
331
2C110
  5
2C19C
331
2C111
  5
2C19D
331
2C115
  5
2C1A5
331
2C116
  5
2C1A6
331
2C117
  5
2C1A7
331
2C118
  5
2C1A8
331
2C119
  5
2C1A9
331
2C11A
  5
25398
331
2C11B
  5
25399
331
2C11C
  5
2539A
331
2C11D
  5
2539E
331
2C11E
  5
2539F
331
2C11F
  5
253A0
331
2C120
  5
253A1
331
2C121
  5
25416
331
2C122
  5
2541B
331
2C123
  5
2541C
331
2C124
  5
25424
331
2C125
  5
25425
331
2C126
  5
25426
331
2C127
  5
2542A
331
2C128
  5
2543B
331
2C129
  5
2543C
331
2C12A
  5
2543D
331
2C12B
  5
2543E
331
2C12C
  5
2543F
331
2C12D
  5
25440
331
2C12E
  5
25441
331
2C12F
  5
25445
331
2C130
  5
25446
331
2C131
  5
25447
331
2C132
  5
25448
331
2C133
  5
25449
331
2C134
  5
2544A
331
2C135
  5
2544B
331
2C136
  5
25450
331
2C137
  5
25451
331
2C138
  5
25452
331
2C139
  5
25453
331
2C13A
  5
25454
331
2C13B
  5
25455
331
2C13C
  5
25456
331
2C13D
  5
2546A
331
2C13E
  5
2546B
331
2C13F
  5
2546D
331
2C140
  5
2546E
331
2C141
  5
2546F
331
2C142
  5
25470
331
2C143
  5
25471
331
2C144
  5
26F99
331
2C145
  5
26F9A
331
2C146
  5
26F9B
331
2C147
  5
26F9C
331
2C148
  5
26F9D
331
2C149
  5
26F9E
331
2C14A
  5
26F9F
331
2C14B
  5
2751B
331
2C14C
  5
2751C
331
2C14D
  5
2751D
331
2C14E
  5
2751E
331
2C14F
  5
2751F
331
2C150
  5
27520
331
2C151
  5
27521
331
2C152
  5
2BEBC
331
2C153
  5
2BEBD
331
2C154
  5
2BEBE
331
2C155
  5
2BEC0
331
2C156
  5
2BEC1
331
2C157
  5
2BF42
331
2C158
  5
2BF4F
331
2C159
  5
2C07F
331
2C15A
  5
2C080
331
2C15B
  5
2C081
331
2C15C
  5
2C082
331
2C15D
  5
2C083
331
2C15E
  5
2C084
331
2C15F
  5
2C085
331
2C160
  5
2C089
331
2C161
  5
2C08A
331
2C162
  5
2C08B
331
2C163
  5
2C08C
331
2C164
  5
2C08D
331
2C165
  5
2C08E
331
2C166
  5
2C08F
331
2C167
  5
2C093
331
2C168
  5
2C094
331
2C169
  5
2C095
331
2C16A
  5
2C096
331
2C16B
  5
2C097
331
2C16C
  5
2C098
331
2C16D
  5
2C099
331
2C16E
  5
2C09D
331
2C16F
  5
2C09E
331
2C170
  5
2C09F
331
2C171
  5
2C0A0
331
2C172
  5
2C0A1
331
2C173
  5
2C0A2
331
2C174
  5
2C0A3
331
2C175
  5
2C0C2
331
2C176
  5
2C0C3
331
2C177
  5
2C0C4
331
2C178
  5
2C0C8
331
2C179
  5
2C0CB
331
2C17A
  5
2C0CC
331
2C17B
  5
2C0CD
331
2C17C
  5
2C135
331
2C17D
  5
2C136
331
2C17E
  5
2C137
331
2C17F
  5
2C138
331
2C180
  5
2C139
331
2C181
  5
2C13A
331
2C182
  5
2C13B
331
2C183
  5
2C13F
331
2C184
  5
2C140
331
2C185
  5
2C141
331
2C186
  5
2C142
331
2C187
  5
2C143
331
2C188
  5
2C144
331
2C189
  5
2C145
331
2C18A
  5
2C147
331
2C18B
  5
2C148
331
2C18C
  5
2C149
331
2C18D
  5
2C14A
331
2C18E
  5
2C15A
331
2C18F
  5
2C15B
331
2C190
  5
2C15C
331
2C191
  5
2C15D
331
2C192
  5
2C15E
331
2C193
  5
2C15F
331
2C194
  5
2C160
331
2C195
  5
2C180
331
2C196
  5
2C181
331
2C197
  5
2C182
331
2C198
  5
2C183
331
2C199
  5
2C184
331
2C19A
  5
2C185
331
2C19B
  5
2C186
331
2C19C
  5
2C194
331
2C19D
  5
2C195
331
2C19E
  5
2C196
331
2C19F
  5
2C197
331
2C1A0
  5
2C198
331
2C1A1
  5
2C199
331
2C1A2
  5
2C19A
331
2C1A3
  5
2C19E
331
2C1A4
  5
2C19F
331
2C1A5
  5
2C1A0
331
2C1A6
  5
2C1A1
331
2C1A7
  5
2C1A2
331
2C1A8
  5
2C1A3
331
2C1A9
  5
2C1A4
  0
SORTENTSTABLE
  5
59C
102
{ACAD_REACTORS
330
59B
102
}
330
59B
100
AcDbSortentsTable
330
15
331
57
  5
57
331
0
  5
70
331
0
  5
15E0C
331
0
  5
15E0D
331
0
  5
15E0E
331
0
  5
15E0F
331
0
  5
15E10
331
0
  5
15E11
331
0
  5
15E12
331
0
  5
15E13
331
0
  5
15E14
331
0
  5
15E15
331
0
  5
15E16
331
0
  5
15E17
331
0
  5
15E18
331
0
  5
15E19
331
0
  5
15E1A
331
0
  5
15FEC
331
0
  5
15FED
331
0
  5
15FEE
331
0
  5
15FEF
331
0
  5
15E1C
331
0
  5
15E1D
331
0
  5
15E1E
331
0
  5
15E1F
331
0
  5
15E20
331
0
  5
15E21
331
0
  5
15E22
331
0
  5
15E23
331
0
  5
15E24
331
0
  5
15E25
331
0
  5
15E26
331
0
  5
15E27
331
0
  5
15E28
331
0
  5
15E29
331
0
  5
15E2A
331
0
  5
15E2B
331
0
  5
15E2C
331
0
  5
15E2D
331
0
  5
15E2E
331
0
  5
15E2F
331
0
  5
15E30
331
0
  5
15E31
331
0
  5
15E32
331
0
  5
15E33
331
0
  5
15E34
331
0
  5
15E35
331
0
  5
15E36
331
0
  5
15E37
331
0
  5
15E38
331
0
  5
15E39
331
0
  5
15E3A
331
0
  5
15E3B
331
0
  5
15E3C
331
0
  5
15E3D
331
0
  5
15E3E
331
0
  5
15E3F
331
0
  5
15E40
331
0
  5
15E41
331
0
  5
15E42
331
0
  5
15E43
331
0
  5
15E44
331
0
  5
15E45
331
0
  5
15E46
331
0
  5
15E47
331
0
  5
15E48
331
0
  5
15E49
331
0
  5
15E4A
331
0
  5
15E4B
331
0
  5
15E4C
331
0
  5
15E4D
331
0
  5
15E4E
331
0
  5
15E4F
331
0
  5
15E50
331
0
  5
15E51
331
0
  5
15E52
331
0
  5
15E53
331
0
  5
15E54
331
0
  5
15E55
331
0
  5
15E56
331
0
  5
15E57
331
0
  5
15E58
331
0
  5
15E59
331
0
  5
15E5A
331
0
  5
15E5B
331
0
  5
15E5C
331
0
  5
15FCD
331
0
  5
15FCE
331
0
  5
15FCF
331
0
  5
15FD0
331
0
  5
15FD1
331
0
  5
15FD2
331
0
  5
15FD3
331
0
  5
15FD4
331
0
  5
15FD5
331
0
  5
15FD6
331
0
  5
15FD7
331
0
  5
15FD8
331
0
  5
15FD9
331
0
  5
15FDA
331
0
  5
15FDB
331
0
  5
15FDC
331
0
  5
15FDD
331
0
  5
15FDE
331
0
  5
15FDF
331
0
  5
15FE0
331
0
  5
15FE1
331
0
  5
15FE2
331
0
  5
15FE3
331
0
  5
15FE4
331
0
  5
15FE5
331
0
  5
15FE6
331
0
  5
15FE7
331
0
  5
15FE8
331
0
  5
15FE9
331
0
  5
15FEA
331
0
  5
15FEB
331
0
  5
15F8E
331
0
  5
15F8F
331
0
  5
15F90
331
0
  5
15F91
331
0
  5
15F92
331
0
  5
15F93
331
0
  5
15F94
331
0
  5
15F95
331
0
  5
15F96
331
0
  5
15F97
331
0
  5
15F98
331
0
  5
15F99
331
0
  5
15F9A
331
0
  5
15F9B
331
0
  5
15F9C
331
0
  5
15F9D
331
0
  5
15F9E
331
0
  5
15F9F
331
0
  5
15FA0
331
0
  5
15FA1
331
0
  5
15FA2
331
0
  5
15FA3
331
0
  5
15FA4
331
0
  5
15FA5
331
0
  5
15FA6
331
0
  5
15FA7
331
0
  5
15FA8
331
0
  5
15FA9
331
0
  5
15FAA
331
0
  5
15FAB
331
0
  5
15FAC
331
0
  5
15FAD
331
0
  5
15FAE
331
0
  5
15FAF
331
0
  5
15FB0
331
0
  5
15FB1
331
0
  5
15FB2
331
0
  5
15FB3
331
0
  5
15FB4
331
0
  5
15FB5
331
0
  5
15FB6
331
0
  5
15FB7
331
0
  5
15FB8
331
0
  5
15FB9
331
0
  5
15FBA
331
0
  5
15FBB
331
0
  5
15FBC
331
0
  5
15FBD
331
0
  5
15FBE
331
0
  5
15FBF
331
0
  5
15FC0
331
0
  5
15FC1
331
0
  5
15FC2
331
0
  5
15FC3
331
0
  5
15FC4
331
0
  5
15FC5
331
0
  5
15FC6
331
0
  5
15FC7
331
0
  5
15FC8
331
0
  5
15FC9
331
0
  5
15FCA
331
0
  5
15FCB
331
0
  5
15FCC
331
0
  5
15F51
331
0
  5
15F52
331
0
  5
15F53
331
0
  5
15F54
331
0
  5
15F55
331
0
  5
15F56
331
0
  5
15F57
331
0
  5
15F58
331
0
  5
15F59
331
0
  5
15F5A
331
0
  5
15F5B
331
0
  5
15F5C
331
0
  5
15F5D
331
0
  5
15F5E
331
0
  5
15F5F
331
0
  5
15F60
331
0
  5
15F61
331
0
  5
15F62
331
0
  5
15F63
331
0
  5
15F64
331
0
  5
15F65
331
0
  5
15F66
331
0
  5
15F67
331
0
  5
15F68
331
0
  5
15F69
331
0
  5
15F6A
331
0
  5
15F6B
331
0
  5
15F6C
331
0
  5
15F6D
331
0
  5
15F6E
331
0
  5
15F6F
331
0
  5
15F70
331
0
  5
15F71
331
0
  5
15F72
331
0
  5
15F73
331
0
  5
15F74
331
0
  5
15F75
331
0
  5
15F76
331
0
  5
15F77
331
0
  5
15F78
331
0
  5
15F79
331
0
  5
15F7A
331
0
  5
15F7B
331
0
  5
15F7C
331
0
  5
15F7D
331
0
  5
15F7E
331
0
  5
15F7F
331
0
  5
15F80
331
0
  5
15F81
331
0
  5
15F82
331
0
  5
15F83
331
0
  5
15F84
331
0
  5
15F85
331
0
  5
15F86
331
0
  5
15F87
331
0
  5
15F88
331
0
  5
15F89
331
0
  5
15F8A
331
0
  5
15F8B
331
0
  5
15F8C
331
0
  5
15F8D
331
0
  5
15F01
331
0
  5
15F02
331
0
  5
15F03
331
0
  5
15F04
331
0
  5
15F05
331
0
  5
15F06
331
0
  5
15F07
331
0
  5
15F08
331
0
  5
15F09
331
0
  5
15F0A
331
0
  5
15F0B
331
0
  5
15F0C
331
0
  5
15F0D
331
0
  5
15F0E
331
0
  5
15F0F
331
0
  5
15F10
331
0
  5
15F11
331
0
  5
15F12
331
0
  5
15F13
331
0
  5
15F14
331
0
  5
15F15
331
0
  5
15F16
331
0
  5
15F17
331
0
  5
15F18
331
0
  5
15F19
331
0
  5
15F1A
331
0
  5
15F1B
331
0
  5
15F1C
331
0
  5
15F1D
331
0
  5
15F1E
331
0
  5
15F1F
331
0
  5
15F20
331
0
  5
15F21
331
0
  5
15F22
331
0
  5
15F23
331
0
  5
15F24
331
0
  5
15F25
331
0
  5
15F26
331
0
  5
15F27
331
0
  5
15F28
331
0
  5
15F29
331
0
  5
15F2A
331
0
  5
15F2B
331
0
  5
15F2C
331
0
  5
15F2D
331
0
  5
15F2E
331
0
  5
15F2F
331
0
  5
15F30
331
0
  5
15F31
331
0
  5
15F32
331
0
  5
15F33
331
0
  5
15F34
331
0
  5
15F35
331
0
  5
15F36
331
0
  5
15F37
331
0
  5
15F38
331
0
  5
15F39
331
0
  5
15F3A
331
0
  5
15F3B
331
0
  5
15F3C
331
0
  5
15F3D
331
0
  5
15F3E
331
0
  5
15F3F
331
0
  5
15F40
331
0
  5
15F41
331
0
  5
15F42
331
0
  5
15F43
331
0
  5
15F44
331
0
  5
15F45
331
0
  5
15F46
331
0
  5
15F47
331
0
  5
15F48
331
0
  5
15F49
331
0
  5
15F4A
331
0
  5
15F4B
331
0
  5
15F4C
331
0
  5
15F4D
331
0
  5
15F4E
331
0
  5
15F4F
331
0
  5
15F50
331
0
  5
15EB0
331
0
  5
15EB1
331
0
  5
15EB2
331
0
  5
15EB3
331
0
  5
15EB4
331
0
  5
15EB5
331
0
  5
15EB6
331
0
  5
15EB7
331
0
  5
15EB8
331
0
  5
15EB9
331
0
  5
15EBA
331
0
  5
15EBB
331
0
  5
15EBC
331
0
  5
15EBD
331
0
  5
15EBE
331
0
  5
15EBF
331
0
  5
15EC0
331
0
  5
15EC1
331
0
  5
15EC2
331
0
  5
15EC3
331
0
  5
15EC4
331
0
  5
15EC5
331
0
  5
15EC6
331
0
  5
15EC7
331
0
  5
15EC8
331
0
  5
15EC9
331
0
  5
15ECA
331
0
  5
15ECB
331
0
  5
15ECC
331
0
  5
15ECD
331
0
  5
15ECE
331
0
  5
15ECF
331
0
  5
15ED0
331
0
  5
15ED1
331
0
  5
15ED2
331
0
  5
15ED3
331
0
  5
15ED4
331
0
  5
15ED5
331
0
  5
15ED6
331
0
  5
15ED7
331
0
  5
15ED8
331
0
  5
15ED9
331
0
  5
15EDA
331
0
  5
15EDB
331
0
  5
15EDC
331
0
  5
15EDD
331
0
  5
15EDE
331
0
  5
15EDF
331
0
  5
15EE0
331
0
  5
15EE1
331
0
  5
15EE2
331
0
  5
15EE3
331
0
  5
15EE4
331
0
  5
15EE5
331
0
  5
15EE6
331
0
  5
15EE7
331
0
  5
15EE8
331
0
  5
15EE9
331
0
  5
15EEA
331
0
  5
15EEB
331
0
  5
15EEC
331
0
  5
15EED
331
0
  5
15EEE
331
0
  5
15EEF
331
0
  5
15EF0
331
0
  5
15EF1
331
0
  5
15EF2
331
0
  5
15EF3
331
0
  5
15EF4
331
0
  5
15EF5
331
0
  5
15EF6
331
0
  5
15EF7
331
0
  5
15EF8
331
0
  5
15EF9
331
0
  5
15EFA
331
0
  5
15EFB
331
0
  5
15EFC
331
0
  5
15EFD
331
0
  5
15EFE
331
0
  5
15EFF
331
0
  5
15F00
331
0
  5
15E63
331
0
  5
15E64
331
0
  5
15E65
331
0
  5
15E66
331
0
  5
15E67
331
0
  5
15E68
331
0
  5
15E69
331
0
  5
15E6A
331
0
  5
15E6B
331
0
  5
15E6C
331
0
  5
15E6D
331
0
  5
15E6E
331
0
  5
15E6F
331
0
  5
15E70
331
0
  5
15E71
331
0
  5
15E72
331
0
  5
15E73
331
0
  5
15E74
331
0
  5
15E75
331
0
  5
15E76
331
0
  5
15E77
331
0
  5
15E78
331
0
  5
15E79
331
0
  5
15E7A
331
0
  5
15E7B
331
0
  5
15E7C
331
0
  5
15E7D
331
0
  5
15E7E
331
0
  5
15E7F
331
0
  5
15E80
331
0
  5
15E81
331
0
  5
15E82
331
0
  5
15E83
331
0
  5
15E84
331
0
  5
15E85
331
0
  5
15E86
331
0
  5
15E87
331
0
  5
15E88
331
0
  5
15E89
331
0
  5
15E8A
331
0
  5
15E8B
331
0
  5
15E8C
331
0
  5
15E8D
331
0
  5
15E8E
331
0
  5
15E8F
331
0
  5
15E90
331
0
  5
15E91
331
0
  5
15E92
331
0
  5
15E93
331
0
  5
15E94
331
0
  5
15E95
331
0
  5
15E96
331
0
  5
15E97
331
0
  5
15E98
331
0
  5
15E99
331
0
  5
15E9A
331
0
  5
15E9B
331
0
  5
15E9C
331
0
  5
15E9D
331
0
  5
15E9E
331
0
  5
15E9F
331
0
  5
15EA0
331
0
  5
15EA1
331
0
  5
15EA2
331
0
  5
15EA3
331
0
  5
15EA4
331
0
  5
15EA5
331
0
  5
15EA6
331
0
  5
15EA7
331
0
  5
15EA8
331
0
  5
15EA9
331
0
  5
15EAA
331
0
  5
15EAB
331
0
  5
15EAC
331
0
  5
15EAD
331
0
  5
15EAE
331
0
  5
15EAF
  0
GROUP
  5
27545
102
{ACAD_REACTORS
330
D
102
}
330
D
100
AcDbGroup
300

 70
     1
 71
     1
340
27544
340
27543
340
27542
340
27541
340
27540
340
2753F
340
2753E
340
2753D
340
2753C
340
2753B
340
2753A
340
27539
340
27538
340
27537
340
27536
340
27535
340
27534
340
27533
340
27532
340
27531
340
27530
340
2752F
340
2752E
340
2752D
340
2752C
340
2752B
340
2752A
340
27529
340
27528
340
27527
340
27526
340
27525
340
27524
340
27523
340
27522
340
27521
340
27520
340
2751F
340
2751E
340
2751D
340
2751C
340
2751B
340
2751A
340
27519
340
27518
340
27517
340
27516
340
27515
340
27514
340
27513
340
27512
340
27511
340
27510
340
2750F
340
2750E
340
2750D
340
2750C
340
2750B
340
2750A
340
27509
340
27508
340
27507
340
27506
340
27505
340
27504
340
27503
340
27502
340
27501
340
27500
340
274FF
  0
GROUP
  5
2546C
102
{ACAD_REACTORS
330
D
102
}
330
D
100
AcDbGroup
300

 70
     1
 71
     1
340
2546B
340
2546A
340
25469
340
25468
340
25452
340
25451
340
25450
340
2544F
340
2544E
340
2544D
340
2544C
340
2544B
340
2544A
340
25449
340
25448
340
25447
340
25446
340
25445
340
25444
340
25443
340
25442
340
25441
340
25440
340
2543F
340
2543E
340
2543D
340
2543C
340
2543B
340
2543A
340
25439
340
25438
340
25437
340
25436
340
25435
340
25434
340
25433
340
25432
340
25431
340
25430
340
2542F
340
2542E
340
2542D
340
2542C
340
2542B
340
2542A
340
25429
340
25428
340
25427
340
25426
340
25425
340
25424
340
25423
340
25422
340
25421
340
25420
340
2541F
340
2541E
340
2541D
340
2541C
340
2541B
340
2541A
340
25419
340
25418
340
25417
340
25463
340
25461
340
2545F
340
2545D
340
25415
340
25414
  0
GROUP
  5
254FA
102
{ACAD_REACTORS
330
D
102
}
330
D
100
AcDbGroup
300

 70
     1
 71
     1
340
254F9
340
254F8
340
254F7
340
254F6
340
254F5
340
254F4
340
254F3
340
254F2
340
254F1
340
254F0
340
254EF
340
254EE
340
254ED
340
254EC
340
254EB
340
254EA
340
254E9
340
254E8
340
254E7
340
254E6
340
254E5
340
254E4
340
254E3
340
254E2
340
254E1
340
254E0
340
254DF
340
254DE
340
254DD
340
254DC
340
254DB
340
254DA
340
254D9
340
254D8
340
254D7
340
254D6
340
254D5
340
254D4
340
254D3
340
254D2
340
254D1
340
254D0
340
254CF
340
254CE
340
254CD
340
254CC
340
254CB
340
254CA
340
254C9
340
254C8
340
254C7
340
254C6
340
254C5
340
254C4
340
254C3
340
254C2
340
254C1
340
254C0
340
254BF
340
254BE
340
254BD
340
254BC
340
254BB
340
254BA
340
254B9
340
254B8
340
254B7
340
254B6
340
254B5
340
254B4
  0
GROUP
  5
254B3
102
{ACAD_REACTORS
330
D
102
}
330
D
100
AcDbGroup
300

 70
     1
 71
     1
340
254B2
340
254B1
340
254B0
340
254AF
340
254AE
340
254AD
340
254AC
340
254AB
340
254AA
340
254A9
340
254A8
340
254A7
340
254A6
340
254A5
340
254A4
340
254A3
340
254A2
340
254A1
340
254A0
340
2549F
340
2549E
340
2549D
340
2549C
340
2549B
340
2549A
340
25499
340
25498
340
25497
340
25496
340
25495
340
25494
340
25493
340
25492
340
25491
340
25490
340
2548F
340
2548E
340
2548D
340
2548C
340
2548B
340
2548A
340
25489
340
25488
340
25487
340
25486
340
25485
340
25484
340
25483
340
25482
340
25481
340
25480
340
2547F
340
2547E
340
2547D
340
2547C
340
2547B
340
2547A
340
25479
340
25478
340
25477
340
25476
340
25475
340
25474
340
25473
340
25472
340
25471
340
25470
340
2546F
340
2546E
340
2546D
  0
MATERIAL
  5
15B55
102
{ACAD_REACTORS
330
2CF
102
}
102
{ACAD_XDICTIONARY
360
2C1B2
102
}
330
2CF
100
AcDbMaterial
  1
BYBLOCK
 72
     0
 73
     2
 43
0.0208333333333333
 43
0.0
 43
0.0
 43
0.0
 43
0.0
 43
0.0208333333333333
 43
0.0
 43
0.0
 43
0.0
 43
0.0
 43
1.0
 43
0.0
 43
0.0
 43
0.0
 43
0.0
 43
1.0
 77
     0
 78
     2
 47
0.0208333333333333
 47
0.0
 47
0.0
 47
0.0
 47
0.0
 47
0.0208333333333333
 47
0.0
 47
0.0
 47
0.0
 47
0.0
 47
1.0
 47
0.0
 47
0.0
 47
0.0
 47
0.0
 47
1.0
171
     0
172
     2
 49
0.0208333333333333
 49
0.0
 49
0.0
 49
0.0
 49
0.0
 49
0.0208333333333333
 49
0.0
 49
0.0
 49
0.0
 49
0.0
 49
1.0
 49
0.0
 49
0.0
 49
0.0
 49
0.0
 49
1.0
175
     0
176
     2
142
0.0208333333333333
142
0.0
142
0.0
142
0.0
142
0.0
142
0.0208333333333333
142
0.0
142
0.0
142
0.0
142
0.0
142
1.0
142
0.0
142
0.0
142
0.0
142
0.0
142
1.0
179
     0
270
     2
144
0.0208333333333333
144
0.0
144
0.0
144
0.0
144
0.0
144
0.0208333333333333
144
0.0
144
0.0
144
0.0
144
0.0
144
1.0
144
0.0
144
0.0
144
0.0
144
0.0
144
1.0
274
     2
147
0.0208333333333333
147
0.0
147
0.0
147
0.0
147
0.0
147
0.0208333333333333
147
0.0
147
0.0
147
0.0
147
0.0
147
1.0
147
0.0
147
0.0
147
0.0
147
0.0
147
1.0
  0
MATERIAL
  5
15B4D
102
{ACAD_REACTORS
330
2CF
102
}
102
{ACAD_XDICTIONARY
360
2C1B4
102
}
330
2CF
100
AcDbMaterial
  1
BYLAYER
 72
     0
 73
     2
 43
0.0208333333333333
 43
0.0
 43
0.0
 43
0.0
 43
0.0
 43
0.0208333333333333
 43
0.0
 43
0.0
 43
0.0
 43
0.0
 43
1.0
 43
0.0
 43
0.0
 43
0.0
 43
0.0
 43
1.0
 77
     0
 78
     2
 47
0.0208333333333333
 47
0.0
 47
0.0
 47
0.0
 47
0.0
 47
0.0208333333333333
 47
0.0
 47
0.0
 47
0.0
 47
0.0
 47
1.0
 47
0.0
 47
0.0
 47
0.0
 47
0.0
 47
1.0
171
     0
172
     2
 49
0.0208333333333333
 49
0.0
 49
0.0
 49
0.0
 49
0.0
 49
0.0208333333333333
 49
0.0
 49
0.0
 49
0.0
 49
0.0
 49
1.0
 49
0.0
 49
0.0
 49
0.0
 49
0.0
 49
1.0
175
     0
176
     2
142
0.0208333333333333
142
0.0
142
0.0
142
0.0
142
0.0
142
0.0208333333333333
142
0.0
142
0.0
142
0.0
142
0.0
142
1.0
142
0.0
142
0.0
142
0.0
142
0.0
142
1.0
179
     0
270
     2
144
0.0208333333333333
144
0.0
144
0.0
144
0.0
144
0.0
144
0.0208333333333333
144
0.0
144
0.0
144
0.0
144
0.0
144
1.0
144
0.0
144
0.0
144
0.0
144
0.0
144
1.0
274
     2
147
0.0208333333333333
147
0.0
147
0.0
147
0.0
147
0.0
147
0.0208333333333333
147
0.0
147
0.0
147
0.0
147
0.0
147
1.0
147
0.0
147
0.0
147
0.0
147
0.0
147
1.0
  0
MATERIAL
  5
15B5D
102
{ACAD_REACTORS
330
2CF
102
}
102
{ACAD_XDICTIONARY
360
2C1B6
102
}
330
2CF
100
AcDbMaterial
  1
GLOBAL
 72
     0
 73
     2
 43
0.0208333333333333
 43
0.0
 43
0.0
 43
0.0
 43
0.0
 43
0.0208333333333333
 43
0.0
 43
0.0
 43
0.0
 43
0.0
 43
1.0
 43
0.0
 43
0.0
 43
0.0
 43
0.0
 43
1.0
 77
     0
 78
     2
 47
0.0208333333333333
 47
0.0
 47
0.0
 47
0.0
 47
0.0
 47
0.0208333333333333
 47
0.0
 47
0.0
 47
0.0
 47
0.0
 47
1.0
 47
0.0
 47
0.0
 47
0.0
 47
0.0
 47
1.0
171
     0
172
     2
 49
0.0208333333333333
 49
0.0
 49
0.0
 49
0.0
 49
0.0
 49
0.0208333333333333
 49
0.0
 49
0.0
 49
0.0
 49
0.0
 49
1.0
 49
0.0
 49
0.0
 49
0.0
 49
0.0
 49
1.0
175
     0
176
     2
142
0.0208333333333333
142
0.0
142
0.0
142
0.0
142
0.0
142
0.0208333333333333
142
0.0
142
0.0
142
0.0
142
0.0
142
1.0
142
0.0
142
0.0
142
0.0
142
0.0
142
1.0
179
     0
270
     2
144
0.0208333333333333
144
0.0
144
0.0
144
0.0
144
0.0
144
0.0208333333333333
144
0.0
144
0.0
144
0.0
144
0.0
144
1.0
144
0.0
144
0.0
144
0.0
144
0.0
144
1.0
274
     2
147
0.0208333333333333
147
0.0
147
0.0
147
0.0
147
0.0
147
0.0208333333333333
147
0.0
147
0.0
147
0.0
147
0.0
147
1.0
147
0.0
147
0.0
147
0.0
147
0.0
147
1.0
  0
ACAD_PROXY_OBJECT
  5
15B99
102
{ACAD_REACTORS
330
15B98
102
}
330
15B98
100
AcDbZombieObject
 90
      499
 91
      512
 93
      610
310
40901902A4063FBFFFFFE000000000000002040AD7A3703D0AD73F4214DD185B99185C990000000000000104090141901A00000000000004100000000000000041025764000000000000300FC0
340
12
340
0
340
F
340
0
 94
        0
1001
ACAD_MLEADERVER
1070
     2
  0
MLINESTYLE
  5
1C
102
{ACAD_REACTORS
330
1B
102
}
330
1B
100
AcDbMlineStyle
  2
STANDARD
 70
     0
  3

 62
   256
 51
90.0
 52
90.0
 71
     2
 49
0.5
 62
   256
  6
BYLAYER
 49
-0.5
 62
   256
  6
BYLAYER
  0
ACAD_PROXY_OBJECT
  5
15B77
102
{ACAD_REACTORS
330
15B76
102
}
330
15B76
100
AcDbZombieObject
 90
      499
 91
      511
 93
       41
310
903313A31580
  0
ACAD_PROXY_OBJECT
  5
15B78
102
{ACAD_REACTORS
330
15B76
102
}
330
15B76
100
AcDbZombieObject
 90
      499
 91
      511
 93
      105
310
903313A324000000000000004000
  0
ACAD_PROXY_OBJECT
  5
15B79
102
{ACAD_REACTORS
330
15B76
102
}
330
15B76
100
AcDbZombieObject
 90
      499
 91
      511
 93
      105
310
903313A344000000000000104000
  0
ACAD_PROXY_OBJECT
  5
15B7A
102
{ACAD_REACTORS
330
15B76
102
}
330
15B76
100
AcDbZombieObject
 90
      499
 91
      511
 93
      105
310
903313A354000000000000144000
  0
ACAD_PROXY_OBJECT
  5
15B7B
102
{ACAD_REACTORS
330
15B76
102
}
330
15B76
100
AcDbZombieObject
 90
      499
 91
      511
 93
      105
310
903313A384000000000000204000
  0
ACAD_PROXY_OBJECT
  5
15B7C
102
{ACAD_REACTORS
330
15B76
102
}
330
15B76
100
AcDbZombieObject
 90
      499
 91
      511
 93
      113
310
904313A31304000000000000244000
  0
ACAD_PROXY_OBJECT
  5
15B7D
102
{ACAD_REACTORS
330
15B76
102
}
330
15B76
100
AcDbZombieObject
 90
      499
 91
      511
 93
      113
310
904313A31364000000000000304000
  0
ACAD_PROXY_OBJECT
  5
15B7E
102
{ACAD_REACTORS
330
15B76
102
}
330
15B76
100
AcDbZombieObject
 90
      499
 91
      511
 93
      113
310
904313A32304000000000000344000
  0
ACAD_PROXY_OBJECT
  5
15B7F
102
{ACAD_REACTORS
330
15B76
102
}
330
15B76
100
AcDbZombieObject
 90
      499
 91
      511
 93
      113
310
904313A333040000000000003E4000
  0
ACAD_PROXY_OBJECT
  5
15B80
102
{ACAD_REACTORS
330
15B76
102
}
330
15B76
100
AcDbZombieObject
 90
      499
 91
      511
 93
      113
310
904313A34304000000000000444000
  0
ACAD_PROXY_OBJECT
  5
15B81
102
{ACAD_REACTORS
330
15B76
102
}
330
15B76
100
AcDbZombieObject
 90
      499
 91
      511
 93
      113
310
904313A35304000000000000494000
  0
ACAD_PROXY_OBJECT
  5
15B82
102
{ACAD_REACTORS
330
15B76
102
}
330
15B76
100
AcDbZombieObject
 90
      499
 91
      511
 93
      121
310
905313A3130304000000000000594000
  0
ACAD_PROXY_OBJECT
  5
15B83
102
{ACAD_REACTORS
330
15B76
102
}
330
15B76
100
AcDbZombieObject
 90
      499
 91
      511
 93
      105
310
903323A310000000000000010100
  0
ACAD_PROXY_OBJECT
  5
15B84
102
{ACAD_REACTORS
330
15B76
102
}
330
15B76
100
AcDbZombieObject
 90
      499
 91
      511
 93
      105
310
903343A310000000000000410100
  0
ACAD_PROXY_OBJECT
  5
15B85
102
{ACAD_REACTORS
330
15B76
102
}
330
15B76
100
AcDbZombieObject
 90
      499
 91
      511
 93
      105
310
903383A310000000000000810100
  0
ACAD_PROXY_OBJECT
  5
15B86
102
{ACAD_REACTORS
330
15B76
102
}
330
15B76
100
AcDbZombieObject
 90
      499
 91
      511
 93
      113
310
90431303A310000000000000910100
  0
ACAD_PROXY_OBJECT
  5
15B87
102
{ACAD_REACTORS
330
15B76
102
}
330
15B76
100
AcDbZombieObject
 90
      499
 91
      511
 93
      121
310
9053130303A310000000000001650100
  0
ACAD_PROXY_OBJECT
  5
15B88
102
{ACAD_REACTORS
330
15B76
102
}
330
15B76
100
AcDbZombieObject
 90
      499
 91
      511
 93
      257
310
90E312F31323822203D2031272D3022000000000000200FC000000000000284000
  0
ACAD_PROXY_OBJECT
  5
15B89
102
{ACAD_REACTORS
330
15B76
102
}
330
15B76
100
AcDbZombieObject
 90
      499
 91
      511
 93
      249
310
90D312F363422203D2031272D3022000000000000240FC000000000000284000
  0
ACAD_PROXY_OBJECT
  5
15B8A
102
{ACAD_REACTORS
330
15B76
102
}
330
15B76
100
AcDbZombieObject
 90
      499
 91
      511
 93
      249
310
90D312F333222203D2031272D3022000000000000280FC000000000000284000
  0
ACAD_PROXY_OBJECT
  5
15B8B
102
{ACAD_REACTORS
330
15B76
102
}
330
15B76
100
AcDbZombieObject
 90
      499
 91
      511
 93
      249
310
90D312F313622203D2031272D30220000000000002C0FC000000000000284000
  0
ACAD_PROXY_OBJECT
  5
15B8C
102
{ACAD_REACTORS
330
15B76
102
}
330
15B76
100
AcDbZombieObject
 90
      499
 91
      511
 93
      249
310
90D332F333222203D2031272D30220000000000002E0FC000000000000284000
  0
ACAD_PROXY_OBJECT
  5
15B8D
102
{ACAD_REACTORS
330
15B76
102
}
330
15B76
100
AcDbZombieObject
 90
      499
 91
      511
 93
      241
310
90C312F3822203D2031272D3022000000000000300FC000000000000284000
  0
ACAD_PROXY_OBJECT
  5
15B8E
102
{ACAD_REACTORS
330
15B76
102
}
330
15B76
100
AcDbZombieObject
 90
      499
 91
      511
 93
      249
310
90D332F313622203D2031272D3022000000000000320FC000000000000284000
  0
ACAD_PROXY_OBJECT
  5
15B8F
102
{ACAD_REACTORS
330
15B76
102
}
330
15B76
100
AcDbZombieObject
 90
      499
 91
      511
 93
      241
310
90C312F3422203D2031272D3022000000000000340FC000000000000284000
  0
ACAD_PROXY_OBJECT
  5
15B90
102
{ACAD_REACTORS
330
15B76
102
}
330
15B76
100
AcDbZombieObject
 90
      499
 91
      511
 93
      241
310
90C332F3822203D2031272D3022000000000000360FC000000000000284000
  0
ACAD_PROXY_OBJECT
  5
15B91
102
{ACAD_REACTORS
330
15B76
102
}
330
15B76
100
AcDbZombieObject
 90
      499
 91
      511
 93
      241
310
90C312F3222203D2031272D3022000000000000380FC000000000000284000
  0
ACAD_PROXY_OBJECT
  5
15B92
102
{ACAD_REACTORS
330
15B76
102
}
330
15B76
100
AcDbZombieObject
 90
      499
 91
      511
 93
      241
310
90C332F3422203D2031272D30220000000000003A0FC000000000000284000
  0
ACAD_PROXY_OBJECT
  5
15B93
102
{ACAD_REACTORS
330
15B76
102
}
330
15B76
100
AcDbZombieObject
 90
      499
 91
      511
 93
      161
310
90A3122203D2031272D30224000000000000284000
  0
ACAD_PROXY_OBJECT
  5
15B94
102
{ACAD_REACTORS
330
15B76
102
}
330
15B76
100
AcDbZombieObject
 90
      499
 91
      511
 93
      257
310
90E312D312F3222203D2031272D30220000000000003E0FC000000000000284000
  0
ACAD_PROXY_OBJECT
  5
15B95
102
{ACAD_REACTORS
330
15B76
102
}
330
15B76
100
AcDbZombieObject
 90
      499
 91
      511
 93
      225
310
90A3322203D2031272D302200000000000002100000000000000284000
  0
ACAD_PROXY_OBJECT
  5
15B96
102
{ACAD_REACTORS
330
15B76
102
}
330
15B76
100
AcDbZombieObject
 90
      499
 91
      511
 93
      225
310
90A3622203D2031272D302200000000000006100000000000000284000
  0
ACAD_PROXY_OBJECT
  5
15B97
102
{ACAD_REACTORS
330
15B76
102
}
330
15B76
100
AcDbZombieObject
 90
      499
 91
      511
 93
      249
310
90D31272D3022203D2031272D30220000000000000A100000000000000284000
  0
ACAD_PROXY_OBJECT
  5
15B6B
102
{ACAD_REACTORS
330
15B65
102
}
330
15B65
100
AcDbZombieObject
 90
      499
 91
      510
 93
      436
310
42CC9915DA5C99599C985B595049028333333333333E3BF0000000000000FB0107901411070040501600405405064090741402480A0340
1001
ACAD
1000
AcDbSavedByObjectVersion
1070
     0
  0
ACAD_PROXY_OBJECT
  5
15B6D
102
{ACAD_REACTORS
330
15B65
102
}
330
15B65
100
AcDbZombieObject
 90
      499
 91
      510
 93
      500
310
424CD108121A5919195B90640502408333333333333E3BF0000000000000FB01079024090700405020000000000001110200405405064090740C02480A0340
1001
ACAD
1000
AcDbSavedByObjectVersion
1070
     0
  0
ACAD_PROXY_OBJECT
  5
15B6C
102
{ACAD_REACTORS
330
15B65
102
}
330
15B65
100
AcDbZombieObject
 90
      499
 91
      510
 93
      436
310
42CCD915DA5C99599C985B595059028333333333333E3BF0000000000000FB0107901411070040501600405405064090741402480A0340
1001
ACAD
1000
AcDbSavedByObjectVersion
1070
     0
  0
ACAD_PROXY_OBJECT
  5
15B6A
102
{ACAD_REACTORS
330
15B65
102
}
330
15B65
100
AcDbZombieObject
 90
      499
 91
      510
 93
      388
310
4150985CDA58D07406404333333333333E3BF0000000000000FB0107A41107004050150841D405064090741402480A0350
1001
ACAD
1000
AcDbSavedByObjectVersion
1070
     0
  0
ACAD_PROXY_OBJECT
  5
15B71
102
{ACAD_REACTORS
330
15B65
102
}
330
15B65
100
AcDbZombieObject
 90
      499
 91
      510
 93
      428
310
42109C9A59DA1D195B90C409028333333333333E3BF0000000000000FB010790141107004050150841D405064090741402480A029950
1001
ACAD
1000
AcDbSavedByObjectVersion
1070
     0
  0
ACAD_PROXY_OBJECT
  5
15B75
102
{ACAD_REACTORS
330
15B65
102
}
330
15B65
100
AcDbZombieObject
 90
      499
 91
      510
 93
      452
310
42D0DBDB1BDC90DA185B99D95104090240C333333333333E3BF0000000000000FB0108901411070040501508421405064090741402480A0350
1001
ACAD
1000
AcDbSavedByObjectVersion
1070
     0
  0
ACAD_PROXY_OBJECT
  5
15B6E
102
{ACAD_REACTORS
330
15B65
102
}
330
15B65
100
AcDbZombieObject
 90
      499
 91
      510
 93
      500
310
4290DBDB98D95C1D1D585B10940D028333333333333E3BF0000000000000FB0107902409070040501000000000000111010841D405064090740C02480A0340
1001
ACAD
1000
AcDbSavedByObjectVersion
1070
     0
  0
ACAD_PROXY_OBJECT
  5
15B70
102
{ACAD_REACTORS
330
15B65
102
}
330
15B65
100
AcDbZombieObject
 90
      499
 91
      510
 93
      412
310
40D11A5B50B409028333333333333E3BF0000000000000FB010790141107004050150841D405064090741402480A02677FFFFFD0
1001
ACAD
1000
AcDbSavedByObjectVersion
1070
     0
  0
ACAD_PROXY_OBJECT
  5
1F525
102
{ACAD_REACTORS
330
15B65
102
}
330
15B65
100
AcDbZombieObject
 90
      499
 91
      510
 93
      452
310
43115919D950DBDB1BDC93D999916409028333333333333E3BF0000000000000FB010790141107004050150841D405064090741402480A0350
1001
ACAD
1000
AcDbSavedByObjectVersion
1070
     0
  0
ACAD_PROXY_OBJECT
  5
15B74
102
{ACAD_REACTORS
330
15B65
102
}
330
15B65
100
AcDbZombieObject
 90
      499
 91
      510
 93
      444
310
42D19858D95C185D1D195C9B90F409028333333333333E3BF0000000000000FB010790141107004050150841D405064090741402480A0350
1001
ACAD
1000
AcDbSavedByObjectVersion
1070
     0
  0
ACAD_PROXY_OBJECT
  5
15B66
102
{ACAD_REACTORS
330
15B65
102
}
330
15B65
100
AcDbZombieObject
 90
      499
 91
      510
 93
      388
310
41119B185D240901404333333333333E3BF0000000000000F9010740A41107004050150841D405064090741402480A1B50
1001
ACAD
1000
AcDbSavedByObjectVersion
1070
     0
  0
ACAD_PROXY_OBJECT
  5
15B67
102
{ACAD_REACTORS
330
15B65
102
}
330
15B65
100
AcDbZombieObject
 90
      499
 91
      510
 93
      476
310
43519B185D15DA5D1A115919D95CD0140901404333333333333E3BF0000000000000F9010740901411070040501600405405064090741402480A1B50
1001
ACAD
1000
AcDbSavedByObjectVersion
1070
     0
  0
ACAD_PROXY_OBJECT
  5
15B68
102
{ACAD_REACTORS
330
15B65
102
}
330
15B65
100
AcDbZombieObject
 90
      499
 91
      510
 93
      412
310
41D1DBDD5C985D5910240902404333333333333E3BF0000000000000F9010740A411070040501641D405064090741402480A1B50
1001
ACAD
1000
AcDbSavedByObjectVersion
1070
     0
  0
ACAD_PROXY_OBJECT
  5
15B69
102
{ACAD_REACTORS
330
15B65
102
}
330
15B65
100
AcDbZombieObject
 90
      499
 91
      510
 93
      500
310
4411DBDD5C985D5915DA5D1A115919D95CD0340902404333333333333E3BF0000000000000F9010740901411070040501600405405064090741402480A1B50
1001
ACAD
1000
AcDbSavedByObjectVersion
1070
     0
  0
ACAD_PROXY_OBJECT
  5
2C06B
102
{ACAD_REACTORS
330
15B65
102
}
330
15B65
100
AcDbZombieObject
 90
      499
 91
      510
 93
      476
310
41921A5919195B90640502408333333333333E33F0000000000000F901079024090700405020000000000001110200405405064090740C02480A0340
1001
ACAD
1000
AcDbSavedByObjectVersion
1070
     0
  0
ACAD_PROXY_OBJECT
  5
1F523
102
{ACAD_REACTORS
330
15B65
102
}
330
15B65
100
AcDbZombieObject
 90
      499
 91
      510
 93
      428
310
42529A5D1D195C93D999914409028333333333333E3BF0000000000000FB010790141107004050150A41D405064090741402480A0350
1001
ACAD
1000
AcDbSavedByObjectVersion
1070
     0
  0
ACAD_PROXY_OBJECT
  5
15B73
102
{ACAD_REACTORS
330
15B65
102
}
330
15B65
100
AcDbZombieObject
 90
      499
 91
      510
 93
      444
310
42D31A5B995C185D1D195C9B90E409028333333333333E3BF0000000000000FB010790141107004050750841D405064090741402483A0350
1001
ACAD
1000
AcDbSavedByObjectVersion
1070
     0
  0
ACAD_PROXY_OBJECT
  5
2C071
102
{ACAD_REACTORS
330
15B65
102
}
330
15B65
100
AcDbZombieObject
 90
      499
 91
      510
 93
      484
310
42135BD9195B1A5B99D0A409038333333333333E33F0000000000000F901074090290700405010000000000201990108421405064090741402480A1B40
1001
ACAD
1000
AcDbSavedByObjectVersion
1070
     0
  0
ACAD_PROXY_OBJECT
  5
1F524
102
{ACAD_REACTORS
330
15B65
102
}
330
15B65
100
AcDbZombieObject
 90
      499
 91
      510
 93
      444
310
42D3DD995C9A185B99D3D999915409028333333333333E3BF0000000000000FB010790141107004050150941D405064090741402480A0350
1001
ACAD
1000
AcDbSavedByObjectVersion
1070
     0
  0
ACAD_PROXY_OBJECT
  5
15B6F
102
{ACAD_REACTORS
330
15B65
102
}
330
15B65
100
AcDbZombieObject
 90
      499
 91
      510
 93
      420
310
425499585B1A5CDD1A58D08409028333333333333E3BF0000000000000FB01079019070040501508421405064090741402480A1B40
1001
ACAD
1000
AcDbSavedByObjectVersion
1070
     0
  0
ACAD_PROXY_OBJECT
  5
2C070
102
{ACAD_REACTORS
330
15B65
102
}
330
15B65
100
AcDbZombieObject
 90
      499
 91
      510
 93
      420
310
4194DA1859195911B40902404333333333333E33F0000000000000F9010740A41107004050150800405405064090840C02480A0B40
1001
ACAD
1000
AcDbSavedByObjectVersion
1070
     0
  0
ACAD_PROXY_OBJECT
  5
2C06F
102
{ACAD_REACTORS
330
15B65
102
}
330
15B65
100
AcDbZombieObject
 90
      499
 91
      510
 93
      516
310
4454DA18591959081DDA5D1A08195919D95CD1A40902404333333333333E33F0000000000000F901074090142907004050250800405405064090740C02480A0B40
1001
ACAD
1000
AcDbSavedByObjectVersion
1070
     0
  0
ACAD_PROXY_OBJECT
  5
2C06C
102
{ACAD_REACTORS
330
15B65
102
}
330
15B65
100
AcDbZombieObject
 90
      499
 91
      510
 93
      532
310
4394DA1859195CC81BD98811DC985E5174090240C333333333333E33F0000000000000F901079024090741D01000000000000111010841D405064090740C02480A0340
1001
ACAD
1000
AcDbSavedByObjectVersion
1070
     0
  0
ACAD_PROXY_OBJECT
  5
2C06D
102
{ACAD_REACTORS
330
15B65
102
}
330
15B65
100
AcDbZombieObject
 90
      499
 91
      510
 93
      476
310
41D4DAD95D18DA1E51840502408333333333333E33F0000000000000F901079024090741D01000000000000111010B41D405064090741802480A0340
1001
ACAD
1000
AcDbSavedByObjectVersion
1070
     0
  0
ACAD_PROXY_OBJECT
  5
15B72
102
{ACAD_REACTORS
330
15B65
102
}
330
15B65
100
AcDbZombieObject
 90
      499
 91
      510
 93
      412
310
41D51A1A58DAD95B90D409028333333333333E3BF0000000000000FB010790141107004050150C41D405064090741402480A0350
1001
ACAD
1000
AcDbSavedByObjectVersion
1070
     0
  0
ACAD_PROXY_OBJECT
  5
2C06A
102
{ACAD_REACTORS
330
15B65
102
}
330
15B65
100
AcDbZombieObject
 90
      499
 91
      510
 93
      420
310
4255DA5C99599C985B595059028333333333333E33F0000000000000F90107901411070040501600405405064090740C02480A0340
1001
ACAD
1000
AcDbSavedByObjectVersion
1070
     0
  0
ACAD_PROXY_OBJECT
  5
2C06E
102
{ACAD_REACTORS
330
15B65
102
}
330
15B65
100
AcDbZombieObject
 90
      499
 91
      510
 93
      404
310
41560B54985E51940902404000000000000E03F0000000000000F9010740501907004050150841D405064090740C02480A1B40
1001
ACAD
1000
AcDbSavedByObjectVersion
1070
     0
  0
XRECORD
  5
2C1AE
102
{ACAD_REACTORS
330
2C1AD
102
}
330
2C1AD
100
AcDbXrecord
340
2D0
  0
XRECORD
  5
2C1AF
102
{ACAD_REACTORS
330
2C1AD
102
}
330
2C1AD
100
AcDbXrecord
340
2CF
  0
DICTIONARYVAR
  5
2C1B1
102
{ACAD_REACTORS
330
37
102
}
330
37
100
DictionaryVariables
280
     0
  1
1:1
  0
DICTIONARYVAR
  5
15C4B
102
{ACAD_REACTORS
330
37
102
}
330
37
100
DictionaryVariables
280
     0
  1
Standard
  0
DICTIONARYVAR
  5
4F1
102
{ACAD_REACTORS
330
37
102
}
330
37
100
DictionaryVariables
280
     0
  1
Standard
  0
DICTIONARYVAR
  5
38
102
{ACAD_REACTORS
330
37
102
}
330
37
100
DictionaryVariables
280
     0
  1
-1
  0
DICTIONARYVAR
  5
408
102
{ACAD_REACTORS
330
37
102
}
330
37
100
DictionaryVariables
280
     0
  1
2
  0
DICTIONARYVAR
  5
1891
102
{ACAD_REACTORS
330
37
102
}
330
37
100
DictionaryVariables
280
     0
  1
1
  0
DICTIONARYVAR
  5
15C4E
102
{ACAD_REACTORS
330
37
102
}
330
37
100
DictionaryVariables
280
     0
  1
0
  0
DICTIONARYVAR
  5
1895
102
{ACAD_REACTORS
330
37
102
}
330
37
100
DictionaryVariables
280
     0
  1
8
  0
DICTIONARYVAR
  5
1894
102
{ACAD_REACTORS
330
37
102
}
330
37
100
DictionaryVariables
280
     0
  1
1
  0
DICTIONARYVAR
  5
2C1AA
102
{ACAD_REACTORS
330
37
102
}
330
37
100
DictionaryVariables
280
     0
  1
0
  0
DICTIONARYVAR
  5
1892
102
{ACAD_REACTORS
330
37
102
}
330
37
100
DictionaryVariables
280
     0
  1
8
  0
DICTIONARYVAR
  5
1893
102
{ACAD_REACTORS
330
37
102
}
330
37
100
DictionaryVariables
280
     0
  1
2
  0
DICTIONARYVAR
  5
409
102
{ACAD_REACTORS
330
37
102
}
330
37
100
DictionaryVariables
280
     0
  1

  0
DICTIONARYVAR
  5
15C4D
102
{ACAD_REACTORS
330
37
102
}
330
37
100
DictionaryVariables
280
     0
  1
127
  0
DICTIONARYVAR
  5
2C069
102
{ACAD_REACTORS
330
37
102
}
330
37
100
DictionaryVariables
280
     0
  1
2
  0
ACAD_PROXY_OBJECT
  5
253AA
102
{ACAD_REACTORS
330
14EC3
102
}
102
{ACAD_XDICTIONARY
360
253AB
102
}
330
14EC3
100
AcDbZombieObject
 90
      499
 91
      517
 93
    16594
310
0582000016C005C080000B404000098880400B804100098C511253528074410080000000001680020000000F8001C01C807F7FD2C045000000000000000040010009A41197CDD2806D75C040000000001680020000000F8001C01C807F7FD2C045000000000000000040010009A41197CDD2804C1A00400000000016800200
310
00000F8020C01C807F7FD2C045000000000000000040018009A41197CC4CCC52807EA5C000000000001680020000000F8001C01C807F7FD2C045000000000000000040010009A41197CDD28078418000000000001680020000000F8001C01C807F7FD2C045000000000000000040010009A41197CDD2807801800000000000
310
1680020000000F8001C01C807F7FD2C045000000000000000040010009A41197CDD28077C18000000000001680020000000F8037401C807F7FD2C078818000000000000040018009A41197CC8C8C528077818000000000001680020000000F8001C01C807F7FD2C045000000000000000040010009A41197CDD28077418000
310
000000001680020000000F803F001C807F7FD2C045000000000000000040018009A41197CC8D4C92806EC10000000000001680020000000F8037401C807F7FD2C05A800000000000000040018009A41197CC8C8C52804E80C000000000001680000000000F8000401C807F7FD2C05D008000000000000040010009A41197CC
310
52805DC08000000000001680024000000F8002001C807F7FD2C045000000000000000040010009A41197CE12805D808000000000001680020000000F803F001C807F7FD2C045000000000000000040018009A41197CC8D4C92805D408000000000001680020000000F8002401C807F7FD2C045000000000000000040010009
310
A41197CE52805CC08000000000001680020000000F8001C01C807F7FD2C045000000000000000040010009A41197CDD2805C808000000000001680020000000F8001C01C807F7FD2C057008000000000000040010009A41197CDD2805C408000000000001680020000000F8001C01C807F7FD2C056C0800000000000004001
310
0009A41197CDD2805C008000000000001680020000000F8001C01C807F7FD2C056808000000000000040010009A41197CDD2805BC08000000000001680020000000F8001C01C807F7FD2C056408000000000000040010009A41197CDD2805B808000000000001680020000000F8001C01C807F7FD2C0560080000000000000
310
40010009A41197CDD2805B408000000000001680020000000F8002001C807F7FD2C045000000000000000040010009A41197CE12805B008000000000001680020000000F8002001C807F7FD2C045000000000000000040010009A41197CE12805AC08000000000001680020000000F8002001C807F7FD2C045000000000000
310
000040010009A41197CE12805A808000000000001680020000000F8002001C807F7FD2C045000000000000000040010009A41197CE12805A408000000000001680020000000F8001C01C807F7FD2C045000000000000000040010009A41197CDD2805A008000000000001680020000000F8035401C807F7FD2C04500000000
310
0000000040018009A41197CC8C4CD28059C08000000000001680020000000F8003C01C807F7FD2C045000000000000000040014009A41197CC4D528059808000000000001680020000000F8017C01C807F7FD2C045000000000000000040014009A41197CE4D528059408000000000001680020000000F8023C01C807F7FD2
310
C045000000000000000040018009A41197CC4D0CD28059008000000000001680020000000F8001801C807F7FD2C045000000000000000040010009A41197CD928058C08000000000001680020000000F8001401C807F7FD2C045000000000000000040010009A41197CD528058808000000000001680020000000F8001001C
310
807F7FD2C045000000000000000040010009A41197CD128058408000000000001680020000000F8000C01C807F7FD2C045000000000000000040010009A41197CCD28058008000000000001680020000000F8000801C807F7FD2C045000000000000000040010009A41197CC928057C08000000000001680020000000F8000
310
401C807F7FD2C045000000000000000040010009A41197CC528055408000000000001680020000000F8001C01C807F7FD2C057408000000000000040010009A41197CDD28040C04000000000001680020000000F803F801C807F7FD2C040004000000000000040018009A41197CC8D4D128040804000000000001680020000
310
000F8002001C807F7FD2C07FC00000000000000040010009A41197CE128040404000000000001680020000000F8002001C807F7FD2C045000000000000000040010009A41197CE128069000000000000001680020000000F8001C01C807F7FD2C045000000000000000040010009A41197CDD2805800000000000000168000
310
0000000F8001C01C807F7FD2C045000000000000000040010009A41197CDD2804D000000000000001680020000000F803F401C807F7FD2C045000000000000000040018009A41197CC8D4CD2804CC00000000000001680024000000F8000401C807F7FD2C045000000000000000040010009A41197CC52804C800000000000
310
001680020000000F8037401C807F7FD2C045000000000000000040018009A41197CC8C8C52804C400000000000001680020000000F8032401C807F7FD2C045000000000000000040018009A41197CC8C0C52804A400000000000001680020000000F8037401C807F7FD2C045000000000000000040018009A41197CC8C8C52
310
8043800000000000001680020000000F8001C01C807F7FD2C045000000000000000040010009A41197CDC0
  0
DICTIONARY
  5
2C1B2
330
15B55
100
AcDbDictionary
  3
ACAD_XREC_ROUNDTRIP
360
2C1B3
1001
ACAD
1000
TREAT_AS_HARD
1070
     1
  0
DICTIONARY
  5
2C1B4
330
15B4D
100
AcDbDictionary
  3
ACAD_XREC_ROUNDTRIP
360
2C1B5
1001
ACAD
1000
TREAT_AS_HARD
1070
     1
  0
DICTIONARY
  5
2C1B6
330
15B5D
100
AcDbDictionary
  3
ACAD_XREC_ROUNDTRIP
360
2C1B7
1001
ACAD
1000
TREAT_AS_HARD
1070
     1
  0
DICTIONARY
  5
253AB
330
253AA
100
AcDbDictionary
  3
ACADLAYERSTATEANNOSCALE
360
253AC
1001
ACAD
1000
TREAT_AS_HARD
1070
     1
  0
XRECORD
  5
2C1B3
102
{ACAD_REACTORS
330
2C1B2
102
}
330
2C1B2
100
AcDbXrecord
102
MATERIAL
148
0.0
149
0.0
149
0.0
 93
        0
 94
      127
282
     0
 72
     0
 77
     0
171
     0
175
     0
179
     0
273
     0
  0
XRECORD
  5
2C1B5
102
{ACAD_REACTORS
330
2C1B4
102
}
330
2C1B4
100
AcDbXrecord
102
MATERIAL
148
0.0
149
0.0
149
0.0
 93
        0
 94
      127
282
     0
 72
     0
 77
     0
171
     0
175
     0
179
     0
273
     0
  0
XRECORD
  5
2C1B7
102
{ACAD_REACTORS
330
2C1B6
102
}
330
2C1B6
100
AcDbXrecord
102
MATERIAL
148
0.0
149
0.0
149
0.0
 93
        0
 94
      127
282
     0
 72
     0
 77
     0
171
     0
175
     0
179
     0
273
     0
  0
XRECORD
  5
253AC
102
{ACAD_REACTORS
330
253AB
102
}
330
253AB
100
AcDbXrecord
330
15B77
  0
ENDSEC
  0
EOF
