  0
SECTION
  2
HEADER
  9
$ACADVER
  1
AC1009
  9
$INSBASE
 10
0.0
 20
0.0
 30
0.0
  9
$EXTMIN
 10
3542.1022704080719
 20
-1802.2517801883009
 30
0.0
  9
$EXTMAX
 10
3870.0542117544278
 20
-1563.751780188303
 30
0.0
  9
$LIMMIN
 10
0.0
 20
0.0
  9
$LIMMAX
 10
420.0
 20
297.0
  9
$ORTHOMODE
 70
     0
  9
$REGENMODE
 70
     1
  9
$FILLMODE
 70
     1
  9
$QTEXTMODE
 70
     0
  9
$MIRRTEXT
 70
     0
  9
$DRAGMODE
 70
     2
  9
$LTSCALE
 40
0.5
  9
$OSMODE
 70
  2175
  9
$ATTMODE
 70
     1
  9
$TEXTSIZE
 40
4.0
  9
$TRACEWID
 40
1.0
  9
$TEXTSTYLE
  7
STANDARD
  9
$CLAYER
  8
1TEXT
  9
$CELTYPE
  6
BYLAYER
  9
$CECOLOR
 62
   256
  9
$DIMSCALE
 40
1.0
  9
$DIMASZ
 40
2.0
  9
$DIMEXO
 40
0.0
  9
$DIMDLI
 40
7.0
  9
$DIMRND
 40
0.0
  9
$DIMDLE
 40
0.0
  9
$DIMEXE
 40
1.0
  9
$DIMTP
 40
0.0
  9
$DIMTM
 40
0.0
  9
$DIMTXT
 40
3.5
  9
$DIMCEN
 40
0.0
  9
$DIMTSZ
 40
0.0
  9
$DIMTOL
 70
     0
  9
$DIMLIM
 70
     0
  9
$DIMTIH
 70
     0
  9
$DIMTOH
 70
     0
  9
$DIMSE1
 70
     0
  9
$DIMSE2
 70
     0
  9
$DIMTAD
 70
     1
  9
$DIMZIN
 70
     8
  9
$DIMBLK
  1

  9
$DIMASO
 70
     1
  9
$DIMSHO
 70
     1
  9
$DIMPOST
  1
 
  9
$DIMAPOST
  1

  9
$DIMALT
 70
     0
  9
$DIMALTD
 70
     2
  9
$DIMALTF
 40
25.399999999999999
  9
$DIMLFAC
 40
1.0
  9
$DIMTOFL
 70
     1
  9
$DIMTVP
 40
0.0
  9
$DIMTIX
 70
     0
  9
$DIMSOXD
 70
     0
  9
$DIMSAH
 70
     1
  9
$DIMBLK1
  1
OPEN30
  9
$DIMBLK2
  1
OPEN30
  9
$DIMSTYLE
  2
NEWX10
  9
$DIMCLRD
 70
   256
  9
$DIMCLRE
 70
   256
  9
$DIMCLRT
 70
   201
  9
$DIMTFAC
 40
0.7
  9
$DIMGAP
 40
0.7
  9
$LUNITS
 70
     2
  9
$LUPREC
 70
     4
  9
$SKETCHINC
 40
1.0
  9
$FILLETRAD
 40
0.0
  9
$AUNITS
 70
     0
  9
$AUPREC
 70
     2
  9
$MENU
  1
acad
  9
$ELEVATION
 40
0.0
  9
$PELEVATION
 40
0.0
  9
$THICKNESS
 40
0.0
  9
$LIMCHECK
 70
     0
  9
$BLIPMODE
 70
     0
  9
$CHAMFERA
 40
1.0
  9
$CHAMFERB
 40
1.0
  9
$SKPOLY
 70
     0
  9
$TDCREATE
 40
2453033.7326634838
  9
$TDUPDATE
 40
2456119.444418577
  9
$TDINDWG
 40
2.6537458102000002
  9
$TDUSRTIMER
 40
2.6537458102000002
  9
$USRTIMER
 70
     1
  9
$ANGBASE
 50
0.0
  9
$ANGDIR
 70
     0
  9
$PDMODE
 70
     0
  9
$PDSIZE
 40
0.0
  9
$PLINEWID
 40
0.0
  9
$COORDS
 70
     2
  9
$SPLFRAME
 70
     0
  9
$SPLINETYPE
 70
     6
  9
$SPLINESEGS
 70
     8
  9
$ATTDIA
 70
     0
  9
$ATTREQ
 70
     1
  9
$HANDLING
 70
     1
  9
$HANDSEED
  5
267B4
  9
$SURFTAB1
 70
     6
  9
$SURFTAB2
 70
     6
  9
$SURFTYPE
 70
     6
  9
$SURFU
 70
     6
  9
$SURFV
 70
     6
  9
$UCSNAME
  2

  9
$UCSORG
 10
0.0
 20
0.0
 30
0.0
  9
$UCSXDIR
 10
1.0
 20
0.0
 30
0.0
  9
$UCSYDIR
 10
0.0
 20
1.0
 30
0.0
  9
$PUCSNAME
  2

  9
$PUCSORG
 10
0.0
 20
0.0
 30
0.0
  9
$PUCSXDIR
 10
1.0
 20
0.0
 30
0.0
  9
$PUCSYDIR
 10
0.0
 20
1.0
 30
0.0
  9
$USERI1
 70
     0
  9
$USERI2
 70
     0
  9
$USERI3
 70
     0
  9
$USERI4
 70
     0
  9
$USERI5
 70
     0
  9
$USERR1
 40
0.0
  9
$USERR2
 40
0.0
  9
$USERR3
 40
0.0
  9
$USERR4
 40
0.0
  9
$USERR5
 40
0.0
  9
$WORLDVIEW
 70
     1
  9
$SHADEDGE
 70
     3
  9
$SHADEDIF
 70
    70
  9
$TILEMODE
 70
     1
  9
$MAXACTVP
 70
    48
  9
$PLIMCHECK
 70
     0
  9
$PEXTMIN
 10
1.0000000000000000E+020
 20
1.0000000000000000E+020
 30
1.0000000000000000E+020
  9
$PEXTMAX
 10
-1.0000000000000000E+020
 20
-1.0000000000000000E+020
 30
-1.0000000000000000E+020
  9
$PLIMMIN
 10
0.0
 20
0.0
  9
$PLIMMAX
 10
420.0
 20
297.0
  9
$UNITMODE
 70
     0
  9
$VISRETAIN
 70
     1
  9
$PLINEGEN
 70
     0
  9
$PSLTSCALE
 70
     1
  0
ENDSEC
  0
SECTION
  2
TABLES
  0
TABLE
  2
VPORT
 70
     1
  0
VPORT
  2
*ACTIVE
 70
     0
 10
0.0
 20
0.0
 11
1.0
 21
1.0
 12
3706.0068198688182
 22
-1682.996491080334
 13
0.0
 23
0.0
 14
10.0
 24
10.0
 15
10.0
 25
10.0
 16
0.0
 26
0.0
 36
1.0
 17
0.0
 27
0.0
 37
0.0
 40
253.1765699539167
 41
1.4848883048620229
 42
50.0
 43
0.0
 44
0.0
 50
0.0
 51
0.0
 71
     0
 72
   100
 73
     1
 74
     1
 75
     0
 76
     0
 77
     0
 78
     0
  0
ENDTAB
  0
TABLE
  2
LTYPE
 70
    15
  0
LTYPE
  2
CONTINUOUS
 70
     0
  3
Solid line
 72
    65
 73
     0
 40
0.0
  0
LTYPE
  2
CENTER2
 70
     0
  3
Center (.5x) ___ _ ___ _ ___ _ ___ _ ___ _ ___
 72
    65
 73
     4
 40
28.574999999999999
 49
19.050000000000001
 49
-3.1749999999999989
 49
3.1749999999999989
 49
-3.1749999999999989
  0
LTYPE
  2
PHANTOM2
 70
     0
  3
Phantom (.5x) ___ _ _ ___ _ _ ___ _ _ ___ _ _
 72
    65
 73
     6
 40
31.75
 49
15.875
 49
-3.1749999999999989
 49
3.1749999999999989
 49
-3.1749999999999989
 49
3.1749999999999989
 49
-3.1749999999999989
  0
ENDTAB
  0
TABLE
  2
LAYER
 70
    47
  0
LAYER
  2
0
 70
     0
 62
     7
  6
CONTINUOUS
  0
LAYER
  2
1CENTER
 70
     0
 62
     7
  6
CENTER2
  0
LAYER
  2
1TEXT
 70
     0
 62
     7
  6
CONTINUOUS
  0
LAYER
  2
1DIM
 70
     0
 62
     7
  6
CONTINUOUS
  0
LAYER
  2
1PHANTOM
 70
     0
 62
     7
  6
PHANTOM2
  0
LAYER
  2
01
 70
     0
 62
     1
  6
CONTINUOUS
  0
LAYER
  2
1HATCH
 70
     0
 62
     7
  6
CONTINUOUS
  0
ENDTAB
  0
TABLE
  2
STYLE
 70
    24
  0
STYLE
  2
STANDARD
 70
     0
 40
0.0
 41
1.0
 50
0.0
 71
     0
 42
4.0
  3
txt.shx
  4
extfont.shx
  0
ENDTAB
  0
TABLE
  2
VIEW
 70
     5
  0
ENDTAB
  0
TABLE
  2
UCS
 70
     0
  0
ENDTAB
  0
TABLE
  2
APPID
 70
    14
  0
APPID
  2
ACAD
 70
     0
  0
APPID
  2
DRAWINGVARIABLESXDATA
 70
     0
  0
APPID
  2
CONTENTTABDATA
 70
     0
  0
APPID
  2
CONTENTCURRENTTAB
 70
     0
  0
APPID
  2
CONTENTBLOCKDESCRIPTION
 70
     0
  0
APPID
  2
CONTENTBLOCKICON
 70
     0
  0
APPID
  2
CONTENTLONGBLOCKNAME
 70
     0
  0
APPID
  2
ACAD_PSEXT
 70
     0
  0
APPID
  2
ACAD_DSTYLE_DIMTEXT_FILL
 70
     0
  0
APPID
  2
ACAD_MLEADERVER
 70
     0
  0
APPID
  2
ACAD_DSTYLE_DIMRADIAL_EXTENSION
 70
     0
  0
APPID
  2
ACADANNOTATIVE
 70
     0
  0
APPID
  2
ACLAYERTOOLS
 70
     0
  0
APPID
  2
ACAD_EXEMPT_FROM_CAD_STANDARDS
 70
     0
  0
ENDTAB
  0
TABLE
  2
DIMSTYLE
 70
    10
  0
DIMSTYLE
  2
NEWX10
 70
     0
  3
 
  4

  5

  6
OPEN30
  7
OPEN30
 40
1.0
 41
2.0
 42
0.0
 43
7.0
 44
1.0
 45
0.0
 46
0.0
 47
0.0
 48
0.0
140
3.5
141
0.0
142
0.0
143
25.399999999999999
144
1.0
145
0.0
146
0.7
147
0.7
 71
     0
 72
     0
 73
     0
 74
     0
 75
     0
 76
     0
 77
     1
 78
     8
170
     0
171
     2
172
     1
173
     1
174
     0
175
     0
176
   256
177
   256
178
   201
  0
ENDTAB
  0
ENDSEC
  0
SECTION
  2
BLOCKS
  0
BLOCK
  8
0
  2
$MODEL_SPACE
 70
     0
 10
0.0
 20
0.0
 30
0.0
  3
$MODEL_SPACE
  1

  0
ENDBLK
  5
1A
  8
0
  0
BLOCK
 67
     1
  8
0
  2
$PAPER_SPACE
 70
     0
 10
0.0
 20
0.0
 30
0.0
  3
$PAPER_SPACE
  1

  0
ENDBLK
  5
17
 67
     1
  8
0
  0
BLOCK
  8
0
  2
_OPEN30
 70
     0
 10
0.0
 20
0.0
 30
0.0
  3
_OPEN30
  1

  0
LINE
  5
44
  8
0
  6
BYBLOCK
 62
     0
 10
-1.0
 20
0.26794919
 30
0.0
 11
0.0
 21
0.0
 31
0.0
  0
LINE
  5
45
  8
0
  6
BYBLOCK
 62
     0
 10
0.0
 20
0.0
 30
0.0
 11
-1.0
 21
-0.26794919
 31
0.0
  0
LINE
  5
46
  8
0
  6
BYBLOCK
 62
     0
 10
0.0
 20
0.0
 30
0.0
 11
-1.0
 21
0.0
 31
0.0
  0
ENDBLK
  5
47
  8
0
  0
ENDSEC
  0
SECTION
  2
ENTITIES
  0
LINE
  5
25395
  8
1DIM
 10
3764.758785468011
 20
-1617.3774270093811
 30
0.0
 11
3869.7587854680119
 21
-1617.37742700938
 31
0.0
  0
LINE
  5
25396
  8
1DIM
 10
3764.758785468011
 20
-1610.3774270093811
 30
0.0
 11
3869.7587854680119
 21
-1610.37742700938
 31
0.0
  0
TEXT
  5
25397
  8
1TEXT
 10
3845.3587854680109
 20
-1615.8774270093811
 30
0.0
 40
4.0
  1
コード
 72
     1
 11
3852.158785468012
 21
-1615.8774270093811
 31
0.0
  0
TEXT
  5
25398
  8
1TEXT
 10
3765.9187854680122
 20
-1615.8774270093811
 30
0.0
 40
4.0
  1
仕上げ：ガラスパネル
 41
0.7
 72
     1
 11
3782.158785468011
 21
-1615.8774270093811
 31
0.0
  0
LINE
  5
25399
  8
1DIM
 10
3764.7587854680119
 20
-1624.3774270093811
 30
0.0
 11
3869.758785468011
 21
-1624.3774270093811
 31
0.0
  0
TEXT
  5
2539A
  8
1TEXT
 10
3769.5187854680121
 20
-1630.09178399303
 30
0.0
 40
4.0
  1
ヘアラインシルバー
 41
0.6
 72
     1
 11
3782.158785468012
 21
-1630.09178399303
 31
0.0
  0
LINE
  5
2539B
  8
1DIM
 10
3764.7587854680119
 20
-1610.3774270093811
 30
0.0
 11
3764.7587854680119
 21
-1638.3774270093811
 31
0.0
  0
LINE
  5
2539C
  8
1DIM
 10
3834.758785468011
 20
-1610.37742700938
 30
0.0
 11
3834.758785468011
 21
-1638.377427009382
 31
0.0
  0
LINE
  5
2539D
  8
1DIM
 10
3869.7587854680119
 20
-1610.37742700938
 30
0.0
 11
3869.758785468011
 21
-1638.377427009382
 31
0.0
  0
TEXT
  5
2539F
  8
1TEXT
 10
3763.5574959849519
 20
-1606.0862977832901
 30
0.0
 40
8.0
  1
GP-113-X
  0
LINE
  5
253A0
  8
1DIM
 10
3764.758785468011
 20
-1631.3774270093811
 30
0.0
 11
3869.758785468011
 21
-1631.3774270093811
 31
0.0
  0
TEXT
  5
253A1
  8
1TEXT
 10
3769.2521188013452
 20
-1623.09178399303
 30
0.0
 40
4.0
  1
アクアホワイト
 41
0.8
 72
     1
 11
3782.158785468011
 21
-1623.09178399303
 31
0.0
  0
TEXT
  5
253A2
  8
1TEXT
 10
3838.2921188013461
 20
-1623.09178399303
 30
0.0
 40
4.0
  1
GP-113-004
 41
0.8
 72
     1
 11
3852.158785468012
 21
-1623.09178399303
 31
0.0
  0
LINE
  5
253A3
  8
1DIM
 10
3764.7587854680119
 20
-1638.377427009382
 30
0.0
 11
3869.758785468011
 21
-1638.377427009382
 31
0.0
  0
TEXT
  5
253A4
  8
1TEXT
 10
3765.1987854680119
 20
-1637.091783993031
 30
0.0
 40
4.0
  1
ヘアラインダークブラウン
 41
0.6
 72
     1
 11
3782.158785468012
 21
-1637.091783993031
 31
0.0
  0
LINE
  5
25587
  8
1DIM
 10
3799.758785468011
 20
-1610.37742700938
 30
0.0
 11
3799.758785468011
 21
-1638.377427009382
 31
0.0
  0
TEXT
  5
25588
  8
1TEXT
 10
3809.9054521346789
 20
-1630.09178399303
 30
0.0
 40
4.0
  1
シルバー
 41
0.8
 72
     1
 11
3817.158785468012
 21
-1630.09178399303
 31
0.0
  0
TEXT
  5
25589
  8
1TEXT
 10
3805.8521188013451
 20
-1623.09178399303
 30
0.0
 40
4.0
  1
ミストグレー
 41
0.8
 72
     1
 11
3817.158785468012
 21
-1623.09178399303
 31
0.0
  0
TEXT
  5
2558A
  8
1TEXT
 10
3804.0387854680139
 20
-1637.091783993031
 30
0.0
 40
4.0
  1
ダークブラウン
 41
0.8
 72
     1
 11
3817.1587854680129
 21
-1637.091783993031
 31
0.0
  0
TEXT
  5
2558B
  8
1TEXT
 10
3803.2921188013461
 20
-1615.8774270093811
 30
0.0
 40
4.0
  1
仕上げ：本体
 72
     1
 11
3817.158785468012
 21
-1615.8774270093811
 31
0.0
  0
TEXT
  5
25591
  8
1TEXT
 10
3838.2921188013461
 20
-1630.09178399303
 30
0.0
 40
4.0
  1
GP-113-006
 41
0.8
 72
     1
 11
3852.158785468012
 21
-1630.09178399303
 31
0.0
  0
TEXT
  5
25592
  8
1TEXT
 10
3838.2921188013461
 20
-1637.091783993031
 30
0.0
 40
4.0
  1
GP-113-008
 41
0.8
 72
     1
 11
3852.158785468012
 21
-1637.091783993031
 31
0.0
  0
LINE
  5
2591F
  8
01
 10
3601.804211754431
 20
-1726.2517801883009
 30
0.0
 11
3601.804211754431
 21
-1766.2517801883009
 31
0.0
  0
ARC
  5
25920
  8
01
 10
3606.804211754431
 20
-1766.2517801883009
 30
0.0
 40
5.0
 50
180.0
 51
270.0
  0
LINE
  5
25921
  8
01
 10
3701.804211754431
 20
-1726.2517801883009
 30
0.0
 11
3701.804211754431
 21
-1766.2517801883
 31
0.0
  0
ARC
  5
25922
  8
01
 10
3696.804211754431
 20
-1726.2517801883009
 30
0.0
 40
5.0
 50
0.0
 51
90.0
  0
LINE
  5
25925
  8
01
 10
3670.8042117544319
 20
-1698.2517801883021
 30
0.0
 11
3670.804211754431
 21
-1721.2517801883
 31
0.0
  0
ARC
  5
25926
  8
01
 10
3673.8042117544319
 20
-1698.2517801883021
 30
0.0
 40
3.0
 50
90.0
 51
180.0
  0
LINE
  5
25927
  8
01
 10
3718.8042117544301
 20
-1737.2517801883021
 30
0.0
 11
3701.804211754431
 21
-1737.2517801883021
 31
0.0
  0
LINE
  5
25928
  8
01
 10
3601.804211754431
 20
-1737.2517801883021
 30
0.0
 11
3584.8042117544319
 21
-1737.2517801883021
 31
0.0
  0
ARC
  5
25929
  8
01
 10
3584.8042117544319
 20
-1734.2517801883021
 30
0.0
 40
3.0
 50
180.0
 51
270.0
  0
ARC
  5
2592A
  8
01
 10
3718.8042117544301
 20
-1734.2517801883021
 30
0.0
 40
3.0
 50
270.0
 51
0.0
  0
LINE
  5
2592B
  8
01
 10
3581.8042117544328
 20
-1698.2517801883021
 30
0.0
 11
3581.8042117544328
 21
-1734.2517801883021
 31
0.0
  0
ARC
  5
2592C
  8
01
 10
3584.8042117544319
 20
-1698.2517801883021
 30
0.0
 40
3.0
 50
90.0
 51
180.0
  0
LINE
  5
2592D
  8
01
 10
3721.804211754431
 20
-1698.2517801883021
 30
0.0
 11
3721.8042117544301
 21
-1734.2517801883021
 31
0.0
  0
LINE
  5
2592F
  8
01
 10
3673.8042117544319
 20
-1695.2517801883021
 30
0.0
 11
3718.804211754431
 21
-1695.2517801883021
 31
0.0
  0
ARC
  5
25930
  8
01
 10
3718.804211754431
 20
-1698.2517801883021
 30
0.0
 40
3.0
 50
0.0
 51
90.0
  0
LINE
  5
25936
  8
01
 10
3632.8042117544319
 20
-1698.2517801883021
 30
0.0
 11
3632.8042117544301
 21
-1721.2517801883
 31
0.0
  0
LINE
  5
25938
  8
01
 10
3629.8042117544319
 20
-1695.2517801883021
 30
0.0
 11
3584.8042117544319
 21
-1695.2517801883021
 31
0.0
  0
ARC
  5
25939
  8
01
 10
3629.8042117544319
 20
-1698.2517801883021
 30
0.0
 40
3.0
 50
0.0
 51
90.0
  0
ARC
  5
2593D
  8
01
 10
3696.804211754431
 20
-1766.2517801883
 30
0.0
 40
5.0
 50
270.0
 51
0.0
  0
LINE
  5
2593E
  8
01
 10
3606.804211754431
 20
-1721.2517801883
 30
0.0
 11
3696.804211754431
 21
-1721.2517801883
 31
0.0
  0
ARC
  5
25943
  8
01
 10
3606.804211754431
 20
-1726.2517801883009
 30
0.0
 40
5.0
 50
90.0
 51
180.0
  0
LINE
  5
2594B
  8
01
 10
3606.804211754431
 20
-1771.2517801883009
 30
0.0
 11
3696.804211754431
 21
-1771.2517801883009
 31
0.0
  0
LINE
  5
25A21
  8
01
 10
3782.5542117544301
 20
-1721.2517801883
 30
0.0
 11
3786.554211754431
 21
-1721.2517801882991
 31
0.0
  0
LINE
  5
25A22
  8
01
 10
3782.0542117544301
 20
-1721.7517801883
 30
0.0
 11
3782.5542117544301
 21
-1721.2517801883
 31
0.0
  0
LINE
  5
25A23
  8
01
 10
3787.054211754431
 20
-1721.7517801882991
 30
0.0
 11
3787.0542117544292
 21
-1770.7517801883009
 31
0.0
  0
LINE
  5
25A24
  8
01
 10
3786.554211754431
 20
-1721.2517801882991
 30
0.0
 11
3787.054211754431
 21
-1721.7517801882991
 31
0.0
  0
LINE
  5
25A25
  8
01
 10
3782.054211754431
 20
-1721.7517801883
 30
0.0
 11
3782.054211754431
 21
-1770.7517801883009
 31
0.0
  0
LINE
  5
25A26
  8
01
 10
3782.554211754431
 20
-1771.2517801883
 30
0.0
 11
3782.054211754431
 21
-1770.7517801883
 31
0.0
  0
LINE
  5
25A27
  8
01
 10
3782.554211754431
 20
-1771.2517801883
 30
0.0
 11
3786.5542117544301
 21
-1771.2517801883
 31
0.0
  0
LINE
  5
25A28
  8
01
 10
3787.0542117544301
 20
-1770.7517801883
 30
0.0
 11
3786.5542117544301
 21
-1771.2517801883
 31
0.0
  0
LINE
  5
25A29
  8
01
 10
3789.0542117544301
 20
-1722.2517801883009
 30
0.0
 11
3789.0542117544292
 21
-1769.2517801883009
 31
0.0
  0
LINE
  5
25A2A
  8
01
 10
3787.0542117544292
 20
-1722.2517801883
 30
0.0
 11
3787.0542117544301
 21
-1769.2517801883009
 31
0.0
  0
ARC
  5
25A2B
  8
01
 10
3789.0542117544292
 20
-1769.2517801883009
 30
0.0
 40
2.0
 50
180.0
 51
270.0
  0
LINE
  5
25A2C
  8
01
 10
3831.5542117544219
 20
-1769.2517801883021
 30
0.0
 11
3789.0542117544292
 21
-1769.2517801883009
 31
0.0
  0
LINE
  5
25A2D
  8
01
 10
3831.5542117544278
 20
-1771.2517801883021
 30
0.0
 11
3789.0542117544292
 21
-1771.2517801883
 31
0.0
  0
LINE
  5
25A2E
  8
01
 10
3789.0542117544301
 20
-1722.2517801883009
 30
0.0
 11
3787.0542117544292
 21
-1722.2517801883
 31
0.0
  0
ARC
  5
25A2F
  8
01
 10
3831.5542117544278
 20
-1769.2517801883021
 30
0.0
 40
2.0
 50
270.0
 51
0.0
  0
LINE
  5
25A30
  8
01
 10
3831.5542117544292
 20
-1695.2517801883009
 30
0.0
 11
3833.5542117544278
 21
-1695.2517801883009
 31
0.0
  0
LINE
  5
25A31
  8
01
 10
3831.5542117544219
 20
-1769.2517801883021
 30
0.0
 11
3831.5542117544292
 21
-1695.2517801883009
 31
0.0
  0
LINE
  5
25A32
  8
01
 10
3833.5542117544269
 20
-1769.2517801883021
 30
0.0
 11
3833.5542117544278
 21
-1695.2517801883009
 31
0.0
  0
LINE
  5
25A33
  8
01
 10
3833.5542117544269
 20
-1737.2517801883009
 30
0.0
 11
3831.554211754426
 21
-1737.2517801883009
 31
0.0
  0
LINE
  5
25A59
  8
01
 10
3721.804211754431
 20
-1563.7517801883041
 30
0.0
 11
3581.8042117544328
 21
-1563.7517801883041
 31
0.0
  0
LINE
  5
25A5A
  8
01
 10
3721.804211754431
 20
-1565.751780188303
 30
0.0
 11
3581.8042117544328
 21
-1565.751780188303
 31
0.0
  0
LINE
  5
25A5B
  8
01
 10
3581.8042117544328
 20
-1565.751780188303
 30
0.0
 11
3581.8042117544319
 21
-1563.7517801883041
 31
0.0
  0
LINE
  5
25A5C
  8
01
 10
3721.804211754431
 20
-1565.7517801883041
 30
0.0
 11
3721.804211754431
 21
-1563.7517801883041
 31
0.0
  0
LINE
  5
25A5D
  8
01
 10
3701.804211754431
 20
-1614.2517801883021
 30
0.0
 11
3701.8042117544301
 21
-1611.2517801883009
 31
0.0
  0
LINE
  5
25A5E
  8
01
 10
3601.804211754431
 20
-1614.2517801883021
 30
0.0
 11
3601.804211754431
 21
-1611.2517801883021
 31
0.0
  0
LINE
  5
25A5F
  8
01
 10
3700.804211754431
 20
-1615.2517801883021
 30
0.0
 11
3602.804211754431
 21
-1615.2517801883021
 31
0.0
  0
LINE
  5
25A61
  8
01
 10
3700.804211754431
 20
-1610.2517801883009
 30
0.0
 11
3602.804211754431
 21
-1610.2517801883021
 31
0.0
  0
LINE
  5
25A64
  8
01
 10
3696.8042117544319
 20
-1608.2517801883009
 30
0.0
 11
3606.804211754431
 21
-1608.2517801883021
 31
0.0
  0
LINE
  5
25A65
  8
01
 10
3696.8042117544319
 20
-1610.2517801883009
 30
0.0
 11
3696.8042117544319
 21
-1565.751780188303
 31
0.0
  0
LINE
  5
25A66
  8
01
 10
3606.804211754431
 20
-1610.2517801883021
 30
0.0
 11
3606.804211754431
 21
-1565.751780188303
 31
0.0
  0
LINE
  5
25A6A
  8
01
 10
3602.804211754431
 20
-1615.2517801883021
 30
0.0
 11
3601.804211754431
 21
-1614.2517801883021
 31
0.0
  0
LINE
  5
25A6B
  8
01
 10
3601.804211754431
 20
-1611.2517801883021
 30
0.0
 11
3602.804211754431
 21
-1610.2517801883021
 31
0.0
  0
LINE
  5
25A6C
  8
01
 10
3700.804211754431
 20
-1610.2517801883009
 30
0.0
 11
3701.8042117544301
 21
-1611.2517801883009
 31
0.0
  0
LINE
  5
25A6D
  8
01
 10
3701.804211754431
 20
-1614.2517801883021
 30
0.0
 11
3700.804211754431
 21
-1615.2517801883021
 31
0.0
  0
LINE
  5
25B00
  8
01
 10
3697.3042117544319
 20
-1709.2517801883021
 30
0.0
 11
3697.3042117544342
 21
-1715.7517801883009
 31
0.0
  0
LINE
  5
25B01
  8
01
 10
3681.3042117544319
 20
-1709.2517801883021
 30
0.0
 11
3681.3042117544319
 21
-1715.7517801883009
 31
0.0
  0
LINE
  5
25B02
  8
01
 10
3681.3042117544319
 20
-1715.7517801883009
 30
0.0
 11
3697.3042117544342
 21
-1715.7517801883009
 31
0.0
  0
LINE
  5
25B03
  8
01
 10
3697.3042117544319
 20
-1709.2517801883021
 30
0.0
 11
3681.3042117544319
 21
-1709.2517801883021
 31
0.0
  0
LINE
  5
25B04
  8
01
 10
3606.3042117544301
 20
-1709.2517801883021
 30
0.0
 11
3606.3042117544292
 21
-1715.7517801883009
 31
0.0
  0
LINE
  5
25B05
  8
01
 10
3622.304211754431
 20
-1709.2517801883021
 30
0.0
 11
3622.304211754431
 21
-1715.7517801883009
 31
0.0
  0
LINE
  5
25B06
  8
01
 10
3622.304211754431
 20
-1715.7517801883009
 30
0.0
 11
3606.3042117544292
 21
-1715.7517801883009
 31
0.0
  0
LINE
  5
25B07
  8
01
 10
3606.3042117544301
 20
-1709.2517801883021
 30
0.0
 11
3622.304211754431
 21
-1709.2517801883021
 31
0.0
  0
ARC
  5
25B08
  8
01
 10
3589.8042117544319
 20
-1716.251780188295
 30
0.0
 40
6.5
 50
305.23441798459618
 51
234.76558201540379
  0
LINE
  5
25B09
  8
01
 10
3586.0542117544319
 20
-1729.7517801882941
 30
0.0
 11
3586.0542117544319
 21
-1721.5609703336941
 31
0.0
  0
ARC
  5
25B0A
  8
01
 10
3589.8042117544319
 20
-1729.7517801882941
 30
0.0
 40
3.75
 50
180.0
 51
0.0
  0
LINE
  5
25B0B
  8
01
 10
3593.5542117544319
 20
-1729.7517801882941
 30
0.0
 11
3593.5542117544319
 21
-1721.5609703336941
 31
0.0
  0
ARC
  5
25B0C
  8
01
 10
3713.8042117544301
 20
-1716.251780188295
 30
0.0
 40
6.5
 50
305.23441798459618
 51
234.76558201540379
  0
LINE
  5
25B0D
  8
01
 10
3717.554211754431
 20
-1729.7517801882941
 30
0.0
 11
3717.554211754431
 21
-1721.5609703336941
 31
0.0
  0
ARC
  5
25B0E
  8
01
 10
3713.8042117544301
 20
-1729.7517801882941
 30
0.0
 40
3.75
 50
180.0
 51
0.0
  0
LINE
  5
25B0F
  8
01
 10
3710.0542117544301
 20
-1729.7517801882941
 30
0.0
 11
3710.0542117544301
 21
-1721.5609703336941
 31
0.0
  0
LINE
  5
25B73
  8
01
 10
3670.804211754431
 20
-1563.751780188303
 30
0.0
 11
3670.804211754431
 21
-1565.751780188303
 31
0.0
  0
LINE
  5
25B74
  8
01
 10
3632.804211754431
 20
-1563.7517801883041
 30
0.0
 11
3632.8042117544301
 21
-1565.751780188303
 31
0.0
  0
LINE
  5
25D85
  8
1PHANTOM
 10
3829.0542117544269
 20
-1657.6266927922011
 30
0.0
 11
3829.0542117544269
 21
-1738.2517801882991
 31
0.0
  0
LINE
  5
25D86
  8
1PHANTOM
 10
3824.0542117544269
 20
-1661.0764455201211
 30
0.0
 11
3824.0542117544269
 21
-1738.2517801882991
 31
0.0
  0
LINE
  5
25D87
  8
1PHANTOM
 10
3825.0542117544269
 20
-1739.2517801882991
 30
0.0
 11
3824.0542117544269
 21
-1738.2517801882991
 31
0.0
  0
LINE
  5
25D88
  8
1PHANTOM
 10
3825.0542117544269
 20
-1739.2517801882991
 30
0.0
 11
3828.0542117544269
 21
-1739.2517801882991
 31
0.0
  0
LINE
  5
25D89
  8
1PHANTOM
 10
3829.0542117544269
 20
-1738.2517801882991
 30
0.0
 11
3828.0542117544269
 21
-1739.2517801882991
 31
0.0
  0
LINE
  5
25D8A
  8
1PHANTOM
 10
3829.0542117544278
 20
-1737.2517801882991
 30
0.0
 11
3830.0542117544278
 21
-1737.2517801882991
 31
0.0
  0
LINE
  5
25D8B
  8
1PHANTOM
 10
3829.0542117544278
 20
-1657.6266927921999
 30
0.0
 11
3829.0542117544278
 21
-1737.2517801882991
 31
0.0
  0
LINE
  5
25D8C
  8
1PHANTOM
 10
3830.0542117544278
 20
-1657.0836654360339
 30
0.0
 11
3830.0542117544278
 21
-1737.2517801882991
 31
0.0
  0
LINE
  5
25D8D
  8
1PHANTOM
 10
3579.3042117544301
 20
-1662.568200557271
 30
0.0
 11
3579.3042117544301
 21
-1734.2517801882991
 31
0.0
  0
ARC
  5
25D8E
  8
1PHANTOM
 10
3584.304211754431
 20
-1734.2517801882991
 30
0.0
 40
5.0
 50
180.0
 51
270.0
  0
LINE
  5
25D8F
  8
1PHANTOM
 10
3724.304211754431
 20
-1661.7656452842721
 30
0.0
 11
3724.304211754431
 21
-1734.2517801882991
 31
0.0
  0
ARC
  5
25D90
  8
1PHANTOM
 10
3719.304211754431
 20
-1734.2517801882991
 30
0.0
 40
5.0
 50
270.0
 51
0.0
  0
LINE
  5
25D91
  8
1PHANTOM
 10
3584.304211754431
 20
-1739.2517801882991
 30
0.0
 11
3719.304211754431
 21
-1739.2517801882991
 31
0.0
  0
LINE
  5
25D96
  8
1PHANTOM
 10
3850.0542117544278
 20
-1751.393482232774
 30
0.0
 11
3850.0542117544278
 21
-1658.776374475344
 31
0.0
  0
LINE
  5
25D97
  8
1PHANTOM
 10
3870.0542117544278
 20
-1751.393482232774
 30
0.0
 11
3870.0542117544278
 21
-1659.7107615159439
 31
0.0
  0
LINE
  5
25DDE
  8
1PHANTOM
 10
3832.8042117544278
 20
-1687.5017801883009
 30
0.0
 11
3832.8042117544278
 21
-1690.2517801883009
 31
0.0
  0
LINE
  5
25DE0
  8
1PHANTOM
 10
3849.0542117544278
 20
-1690.2517801883009
 30
0.0
 11
3832.8042117544278
 21
-1690.2517801883009
 31
0.0
  0
ARC
  5
25DE1
  8
1PHANTOM
 10
3849.0542117544278
 20
-1689.2517801883009
 30
0.0
 40
1.0
 50
270.0
 51
0.0
  0
LINE
  5
25DE2
  8
1PHANTOM
 10
3830.0542117544278
 20
-1687.5017801883009
 30
0.0
 11
3832.8042117544278
 21
-1687.5017801883009
 31
0.0
  0
LINE
  5
25DF4
  8
1PHANTOM
 10
3832.8042117544278
 20
-1687.7517801883021
 30
0.0
 11
3831.5542117544278
 21
-1687.7517801883021
 31
0.0
  0
LINE
  5
25DF5
  8
1PHANTOM
 10
3832.8042117544278
 20
-1689.2517801883021
 30
0.0
 11
3831.5542117544278
 21
-1689.2517801883021
 31
0.0
  0
ARC
  5
25DF6
  8
1PHANTOM
 10
3831.5542117544278
 20
-1689.2517801883021
 30
0.0
 40
1.5
 50
90.0
 51
180.0
  0
LINE
  5
25DF7
  8
1PHANTOM
 10
3831.5542117544278
 20
-1689.2517801883021
 30
0.0
 11
3831.5542117544278
 21
-1737.2517801883021
 31
0.0
  0
LINE
  5
25DFA
  8
1PHANTOM
 10
3830.0542117544292
 20
-1737.2517801883021
 30
0.0
 11
3831.5542117544278
 21
-1737.2517801883021
 31
0.0
  0
LINE
  5
25DFD
  8
1PHANTOM
 10
3833.5542117544278
 20
-1710.7517801883021
 30
0.0
 11
3833.8042117544278
 21
-1710.7517801883021
 31
0.0
  0
LINE
  5
25DFE
  8
1PHANTOM
 10
3833.5542117544278
 20
-1709.2517801883021
 30
0.0
 11
3833.8042117544278
 21
-1709.2517801883021
 31
0.0
  0
LINE
  5
25DFF
  8
1PHANTOM
 10
3841.5542117544278
 20
-1722.7517801883021
 30
0.0
 11
3841.0542117544278
 21
-1722.2517801883021
 31
0.0
  0
LINE
  5
25E00
  8
1PHANTOM
 10
3841.0542117544278
 20
-1722.2517801883021
 30
0.0
 11
3836.7542117544281
 21
-1722.2517801883009
 31
0.0
  0
LINE
  5
25E01
  8
1PHANTOM
 10
3841.5542117544278
 20
-1722.7517801883021
 30
0.0
 11
3841.5542117544278
 21
-1727.7517801883021
 31
0.0
  0
LINE
  5
25E02
  8
1PHANTOM
 10
3841.0542117544278
 20
-1728.2517801883009
 30
0.0
 11
3841.5542117544278
 21
-1727.7517801883021
 31
0.0
  0
LINE
  5
25E03
  8
1PHANTOM
 10
3841.0542117544278
 20
-1728.2517801883009
 30
0.0
 11
3841.0542117544278
 21
-1722.2517801883021
 31
0.0
  0
LINE
  5
25E04
  8
1PHANTOM
 10
3841.5542117544278
 20
-1722.7517801883021
 30
0.0
 11
3836.7542117544281
 21
-1722.7517801883021
 31
0.0
  0
LINE
  5
25E05
  8
1PHANTOM
 10
3841.5542117544278
 20
-1727.7517801883021
 30
0.0
 11
3836.7542117544281
 21
-1727.7517801883021
 31
0.0
  0
LINE
  5
25E06
  8
1PHANTOM
 10
3841.0542117544278
 20
-1728.2517801883009
 30
0.0
 11
3836.7542117544281
 21
-1728.251780188303
 31
0.0
  0
ARC
  5
25E07
  8
1PHANTOM
 10
3833.8042117544278
 20
-1709.2517801883021
 30
0.0
 40
1.5
 50
270.0
 51
340.52877936550448
  0
LINE
  5
25E08
  8
1PHANTOM
 10
3833.8042117544278
 20
-1709.2517801883021
 30
0.0
 11
3834.8042117544278
 21
-1706.4233530635549
 31
0.0
  0
LINE
  5
25E09
  8
1PHANTOM
 10
3835.2184253168011
 20
-1709.7517801883021
 30
0.0
 11
3836.2184253168011
 21
-1706.9233530635549
 31
0.0
  0
LINE
  5
25E0A
  8
1PHANTOM
 10
3836.2184253168011
 20
-1706.9233530635549
 30
0.0
 11
3834.8042117544278
 21
-1706.4233530635549
 31
0.0
  0
POLYLINE
  8
1PHANTOM
  5
26630
  66
     1
 10
0.000000
 20
0.000000
 30
0.000000
  70
     8
  0
VERTEX
  8
1PHANTOM
  5
26631
 10
3824.05
 20
-1661.08
 30
0.000000
  70
    32
  0
VERTEX
  8
1PHANTOM
  5
26632
 10
3824.27
 20
-1660.91
 30
0.000000
  70
    32
  0
VERTEX
  8
1PHANTOM
  5
26633
 10
3824.49
 20
-1660.74
 30
0.000000
  70
    32
  0
VERTEX
  8
1PHANTOM
  5
26634
 10
3824.71
 20
-1660.57
 30
0.000000
  70
    32
  0
VERTEX
  8
1PHANTOM
  5
26635
 10
3824.92
 20
-1660.41
 30
0.000000
  70
    32
  0
VERTEX
  8
1PHANTOM
  5
26636
 10
3825.14
 20
-1660.24
 30
0.000000
  70
    32
  0
VERTEX
  8
1PHANTOM
  5
26637
 10
3825.36
 20
-1660.08
 30
0.000000
  70
    32
  0
VERTEX
  8
1PHANTOM
  5
26638
 10
3825.58
 20
-1659.92
 30
0.000000
  70
    32
  0
VERTEX
  8
1PHANTOM
  5
26639
 10
3825.79
 20
-1659.76
 30
0.000000
  70
    32
  0
VERTEX
  8
1PHANTOM
  5
2663A
 10
3826.01
 20
-1659.60
 30
0.000000
  70
    32
  0
VERTEX
  8
1PHANTOM
  5
2663B
 10
3826.23
 20
-1659.44
 30
0.000000
  70
    32
  0
VERTEX
  8
1PHANTOM
  5
2663C
 10
3826.45
 20
-1659.29
 30
0.000000
  70
    32
  0
VERTEX
  8
1PHANTOM
  5
2663D
 10
3826.67
 20
-1659.14
 30
0.000000
  70
    32
  0
VERTEX
  8
1PHANTOM
  5
2663E
 10
3826.89
 20
-1658.99
 30
0.000000
  70
    32
  0
VERTEX
  8
1PHANTOM
  5
2663F
 10
3827.11
 20
-1658.84
 30
0.000000
  70
    32
  0
VERTEX
  8
1PHANTOM
  5
26640
 10
3827.33
 20
-1658.69
 30
0.000000
  70
    32
  0
VERTEX
  8
1PHANTOM
  5
26641
 10
3827.55
 20
-1658.55
 30
0.000000
  70
    32
  0
VERTEX
  8
1PHANTOM
  5
26642
 10
3827.77
 20
-1658.41
 30
0.000000
  70
    32
  0
VERTEX
  8
1PHANTOM
  5
26643
 10
3827.99
 20
-1658.27
 30
0.000000
  70
    32
  0
VERTEX
  8
1PHANTOM
  5
26644
 10
3828.21
 20
-1658.13
 30
0.000000
  70
    32
  0
VERTEX
  8
1PHANTOM
  5
26645
 10
3828.43
 20
-1657.99
 30
0.000000
  70
    32
  0
VERTEX
  8
1PHANTOM
  5
26646
 10
3828.65
 20
-1657.86
 30
0.000000
  70
    32
  0
VERTEX
  8
1PHANTOM
  5
26647
 10
3828.87
 20
-1657.73
 30
0.000000
  70
    32
  0
VERTEX
  8
1PHANTOM
  5
26648
 10
3829.09
 20
-1657.60
 30
0.000000
  70
    32
  0
VERTEX
  8
1PHANTOM
  5
26649
 10
3829.32
 20
-1657.48
 30
0.000000
  70
    32
  0
VERTEX
  8
1PHANTOM
  5
2664A
 10
3829.54
 20
-1657.36
 30
0.000000
  70
    32
  0
VERTEX
  8
1PHANTOM
  5
2664B
 10
3829.76
 20
-1657.24
 30
0.000000
  70
    32
  0
VERTEX
  8
1PHANTOM
  5
2664C
 10
3829.98
 20
-1657.12
 30
0.000000
  70
    32
  0
VERTEX
  8
1PHANTOM
  5
2664D
 10
3830.21
 20
-1657.01
 30
0.000000
  70
    32
  0
VERTEX
  8
1PHANTOM
  5
2664E
 10
3830.43
 20
-1656.89
 30
0.000000
  70
    32
  0
VERTEX
  8
1PHANTOM
  5
2664F
 10
3830.65
 20
-1656.79
 30
0.000000
  70
    32
  0
VERTEX
  8
1PHANTOM
  5
26650
 10
3830.88
 20
-1656.68
 30
0.000000
  70
    32
  0
VERTEX
  8
1PHANTOM
  5
26651
 10
3831.10
 20
-1656.58
 30
0.000000
  70
    32
  0
VERTEX
  8
1PHANTOM
  5
26652
 10
3831.33
 20
-1656.48
 30
0.000000
  70
    32
  0
VERTEX
  8
1PHANTOM
  5
26653
 10
3831.55
 20
-1656.38
 30
0.000000
  70
    32
  0
VERTEX
  8
1PHANTOM
  5
26654
 10
3831.78
 20
-1656.29
 30
0.000000
  70
    32
  0
VERTEX
  8
1PHANTOM
  5
26655
 10
3832.00
 20
-1656.20
 30
0.000000
  70
    32
  0
VERTEX
  8
1PHANTOM
  5
26656
 10
3832.23
 20
-1656.12
 30
0.000000
  70
    32
  0
VERTEX
  8
1PHANTOM
  5
26657
 10
3832.46
 20
-1656.03
 30
0.000000
  70
    32
  0
VERTEX
  8
1PHANTOM
  5
26658
 10
3832.68
 20
-1655.95
 30
0.000000
  70
    32
  0
VERTEX
  8
1PHANTOM
  5
26659
 10
3832.91
 20
-1655.88
 30
0.000000
  70
    32
  0
VERTEX
  8
1PHANTOM
  5
2665A
 10
3833.14
 20
-1655.81
 30
0.000000
  70
    32
  0
VERTEX
  8
1PHANTOM
  5
2665B
 10
3833.37
 20
-1655.74
 30
0.000000
  70
    32
  0
VERTEX
  8
1PHANTOM
  5
2665C
 10
3833.60
 20
-1655.67
 30
0.000000
  70
    32
  0
VERTEX
  8
1PHANTOM
  5
2665D
 10
3833.83
 20
-1655.61
 30
0.000000
  70
    32
  0
VERTEX
  8
1PHANTOM
  5
2665E
 10
3834.06
 20
-1655.55
 30
0.000000
  70
    32
  0
VERTEX
  8
1PHANTOM
  5
2665F
 10
3834.29
 20
-1655.50
 30
0.000000
  70
    32
  0
VERTEX
  8
1PHANTOM
  5
26660
 10
3834.52
 20
-1655.45
 30
0.000000
  70
    32
  0
VERTEX
  8
1PHANTOM
  5
26661
 10
3834.75
 20
-1655.40
 30
0.000000
  70
    32
  0
VERTEX
  8
1PHANTOM
  5
26662
 10
3834.98
 20
-1655.36
 30
0.000000
  70
    32
  0
VERTEX
  8
1PHANTOM
  5
26663
 10
3835.21
 20
-1655.33
 30
0.000000
  70
    32
  0
VERTEX
  8
1PHANTOM
  5
26664
 10
3835.44
 20
-1655.29
 30
0.000000
  70
    32
  0
VERTEX
  8
1PHANTOM
  5
26665
 10
3835.67
 20
-1655.26
 30
0.000000
  70
    32
  0
VERTEX
  8
1PHANTOM
  5
26666
 10
3835.91
 20
-1655.24
 30
0.000000
  70
    32
  0
VERTEX
  8
1PHANTOM
  5
26667
 10
3836.14
 20
-1655.22
 30
0.000000
  70
    32
  0
VERTEX
  8
1PHANTOM
  5
26668
 10
3836.38
 20
-1655.20
 30
0.000000
  70
    32
  0
VERTEX
  8
1PHANTOM
  5
26669
 10
3836.61
 20
-1655.19
 30
0.000000
  70
    32
  0
VERTEX
  8
1PHANTOM
  5
2666A
 10
3836.85
 20
-1655.18
 30
0.000000
  70
    32
  0
VERTEX
  8
1PHANTOM
  5
2666B
 10
3837.08
 20
-1655.18
 30
0.000000
  70
    32
  0
VERTEX
  8
1PHANTOM
  5
2666C
 10
3837.32
 20
-1655.18
 30
0.000000
  70
    32
  0
VERTEX
  8
1PHANTOM
  5
2666D
 10
3837.55
 20
-1655.18
 30
0.000000
  70
    32
  0
VERTEX
  8
1PHANTOM
  5
2666E
 10
3837.79
 20
-1655.19
 30
0.000000
  70
    32
  0
VERTEX
  8
1PHANTOM
  5
2666F
 10
3838.03
 20
-1655.21
 30
0.000000
  70
    32
  0
VERTEX
  8
1PHANTOM
  5
26670
 10
3838.27
 20
-1655.22
 30
0.000000
  70
    32
  0
VERTEX
  8
1PHANTOM
  5
26671
 10
3838.50
 20
-1655.24
 30
0.000000
  70
    32
  0
VERTEX
  8
1PHANTOM
  5
26672
 10
3838.74
 20
-1655.27
 30
0.000000
  70
    32
  0
VERTEX
  8
1PHANTOM
  5
26673
 10
3838.98
 20
-1655.29
 30
0.000000
  70
    32
  0
VERTEX
  8
1PHANTOM
  5
26674
 10
3839.22
 20
-1655.32
 30
0.000000
  70
    32
  0
VERTEX
  8
1PHANTOM
  5
26675
 10
3839.46
 20
-1655.36
 30
0.000000
  70
    32
  0
VERTEX
  8
1PHANTOM
  5
26676
 10
3839.70
 20
-1655.40
 30
0.000000
  70
    32
  0
VERTEX
  8
1PHANTOM
  5
26677
 10
3839.94
 20
-1655.44
 30
0.000000
  70
    32
  0
VERTEX
  8
1PHANTOM
  5
26678
 10
3840.18
 20
-1655.48
 30
0.000000
  70
    32
  0
VERTEX
  8
1PHANTOM
  5
26679
 10
3840.42
 20
-1655.53
 30
0.000000
  70
    32
  0
VERTEX
  8
1PHANTOM
  5
2667A
 10
3840.67
 20
-1655.58
 30
0.000000
  70
    32
  0
VERTEX
  8
1PHANTOM
  5
2667B
 10
3840.91
 20
-1655.63
 30
0.000000
  70
    32
  0
VERTEX
  8
1PHANTOM
  5
2667C
 10
3841.15
 20
-1655.68
 30
0.000000
  70
    32
  0
VERTEX
  8
1PHANTOM
  5
2667D
 10
3841.39
 20
-1655.74
 30
0.000000
  70
    32
  0
VERTEX
  8
1PHANTOM
  5
2667E
 10
3841.64
 20
-1655.80
 30
0.000000
  70
    32
  0
VERTEX
  8
1PHANTOM
  5
2667F
 10
3841.88
 20
-1655.87
 30
0.000000
  70
    32
  0
VERTEX
  8
1PHANTOM
  5
26680
 10
3842.13
 20
-1655.93
 30
0.000000
  70
    32
  0
VERTEX
  8
1PHANTOM
  5
26681
 10
3842.37
 20
-1656.00
 30
0.000000
  70
    32
  0
VERTEX
  8
1PHANTOM
  5
26682
 10
3842.61
 20
-1656.07
 30
0.000000
  70
    32
  0
VERTEX
  8
1PHANTOM
  5
26683
 10
3842.86
 20
-1656.14
 30
0.000000
  70
    32
  0
VERTEX
  8
1PHANTOM
  5
26684
 10
3843.10
 20
-1656.21
 30
0.000000
  70
    32
  0
VERTEX
  8
1PHANTOM
  5
26685
 10
3843.35
 20
-1656.29
 30
0.000000
  70
    32
  0
VERTEX
  8
1PHANTOM
  5
26686
 10
3843.60
 20
-1656.37
 30
0.000000
  70
    32
  0
VERTEX
  8
1PHANTOM
  5
26687
 10
3843.84
 20
-1656.45
 30
0.000000
  70
    32
  0
VERTEX
  8
1PHANTOM
  5
26688
 10
3844.09
 20
-1656.53
 30
0.000000
  70
    32
  0
VERTEX
  8
1PHANTOM
  5
26689
 10
3844.33
 20
-1656.61
 30
0.000000
  70
    32
  0
VERTEX
  8
1PHANTOM
  5
2668A
 10
3844.58
 20
-1656.70
 30
0.000000
  70
    32
  0
VERTEX
  8
1PHANTOM
  5
2668B
 10
3844.83
 20
-1656.78
 30
0.000000
  70
    32
  0
VERTEX
  8
1PHANTOM
  5
2668C
 10
3845.08
 20
-1656.87
 30
0.000000
  70
    32
  0
VERTEX
  8
1PHANTOM
  5
2668D
 10
3845.32
 20
-1656.96
 30
0.000000
  70
    32
  0
VERTEX
  8
1PHANTOM
  5
2668E
 10
3845.57
 20
-1657.05
 30
0.000000
  70
    32
  0
VERTEX
  8
1PHANTOM
  5
2668F
 10
3845.82
 20
-1657.14
 30
0.000000
  70
    32
  0
VERTEX
  8
1PHANTOM
  5
26690
 10
3846.07
 20
-1657.23
 30
0.000000
  70
    32
  0
VERTEX
  8
1PHANTOM
  5
26691
 10
3846.32
 20
-1657.33
 30
0.000000
  70
    32
  0
VERTEX
  8
1PHANTOM
  5
26692
 10
3846.57
 20
-1657.42
 30
0.000000
  70
    32
  0
VERTEX
  8
1PHANTOM
  5
26693
 10
3846.81
 20
-1657.52
 30
0.000000
  70
    32
  0
VERTEX
  8
1PHANTOM
  5
26694
 10
3847.06
 20
-1657.61
 30
0.000000
  70
    32
  0
VERTEX
  8
1PHANTOM
  5
26695
 10
3847.31
 20
-1657.71
 30
0.000000
  70
    32
  0
VERTEX
  8
1PHANTOM
  5
26696
 10
3847.56
 20
-1657.80
 30
0.000000
  70
    32
  0
VERTEX
  8
1PHANTOM
  5
26697
 10
3847.81
 20
-1657.90
 30
0.000000
  70
    32
  0
VERTEX
  8
1PHANTOM
  5
26698
 10
3848.06
 20
-1658.00
 30
0.000000
  70
    32
  0
VERTEX
  8
1PHANTOM
  5
26699
 10
3848.31
 20
-1658.10
 30
0.000000
  70
    32
  0
VERTEX
  8
1PHANTOM
  5
2669A
 10
3848.56
 20
-1658.20
 30
0.000000
  70
    32
  0
VERTEX
  8
1PHANTOM
  5
2669B
 10
3848.81
 20
-1658.29
 30
0.000000
  70
    32
  0
VERTEX
  8
1PHANTOM
  5
2669C
 10
3849.06
 20
-1658.39
 30
0.000000
  70
    32
  0
VERTEX
  8
1PHANTOM
  5
2669D
 10
3849.31
 20
-1658.49
 30
0.000000
  70
    32
  0
VERTEX
  8
1PHANTOM
  5
2669E
 10
3849.57
 20
-1658.59
 30
0.000000
  70
    32
  0
VERTEX
  8
1PHANTOM
  5
2669F
 10
3849.82
 20
-1658.68
 30
0.000000
  70
    32
  0
VERTEX
  8
1PHANTOM
  5
266A0
 10
3850.07
 20
-1658.78
 30
0.000000
  70
    32
  0
VERTEX
  8
1PHANTOM
  5
266A1
 10
3850.32
 20
-1658.88
 30
0.000000
  70
    32
  0
VERTEX
  8
1PHANTOM
  5
266A2
 10
3850.57
 20
-1658.97
 30
0.000000
  70
    32
  0
VERTEX
  8
1PHANTOM
  5
266A3
 10
3850.82
 20
-1659.07
 30
0.000000
  70
    32
  0
VERTEX
  8
1PHANTOM
  5
266A4
 10
3851.07
 20
-1659.17
 30
0.000000
  70
    32
  0
VERTEX
  8
1PHANTOM
  5
266A5
 10
3851.32
 20
-1659.26
 30
0.000000
  70
    32
  0
VERTEX
  8
1PHANTOM
  5
266A6
 10
3851.58
 20
-1659.35
 30
0.000000
  70
    32
  0
VERTEX
  8
1PHANTOM
  5
266A7
 10
3851.83
 20
-1659.45
 30
0.000000
  70
    32
  0
VERTEX
  8
1PHANTOM
  5
266A8
 10
3852.08
 20
-1659.54
 30
0.000000
  70
    32
  0
VERTEX
  8
1PHANTOM
  5
266A9
 10
3852.33
 20
-1659.63
 30
0.000000
  70
    32
  0
VERTEX
  8
1PHANTOM
  5
266AA
 10
3852.58
 20
-1659.72
 30
0.000000
  70
    32
  0
VERTEX
  8
1PHANTOM
  5
266AB
 10
3852.83
 20
-1659.80
 30
0.000000
  70
    32
  0
VERTEX
  8
1PHANTOM
  5
266AC
 10
3853.09
 20
-1659.89
 30
0.000000
  70
    32
  0
VERTEX
  8
1PHANTOM
  5
266AD
 10
3853.34
 20
-1659.98
 30
0.000000
  70
    32
  0
VERTEX
  8
1PHANTOM
  5
266AE
 10
3853.59
 20
-1660.06
 30
0.000000
  70
    32
  0
VERTEX
  8
1PHANTOM
  5
266AF
 10
3853.84
 20
-1660.14
 30
0.000000
  70
    32
  0
VERTEX
  8
1PHANTOM
  5
266B0
 10
3854.09
 20
-1660.22
 30
0.000000
  70
    32
  0
VERTEX
  8
1PHANTOM
  5
266B1
 10
3854.35
 20
-1660.30
 30
0.000000
  70
    32
  0
VERTEX
  8
1PHANTOM
  5
266B2
 10
3854.60
 20
-1660.38
 30
0.000000
  70
    32
  0
VERTEX
  8
1PHANTOM
  5
266B3
 10
3854.85
 20
-1660.45
 30
0.000000
  70
    32
  0
VERTEX
  8
1PHANTOM
  5
266B4
 10
3855.10
 20
-1660.52
 30
0.000000
  70
    32
  0
VERTEX
  8
1PHANTOM
  5
266B5
 10
3855.35
 20
-1660.59
 30
0.000000
  70
    32
  0
VERTEX
  8
1PHANTOM
  5
266B6
 10
3855.61
 20
-1660.66
 30
0.000000
  70
    32
  0
VERTEX
  8
1PHANTOM
  5
266B7
 10
3855.86
 20
-1660.73
 30
0.000000
  70
    32
  0
VERTEX
  8
1PHANTOM
  5
266B8
 10
3856.11
 20
-1660.79
 30
0.000000
  70
    32
  0
VERTEX
  8
1PHANTOM
  5
266B9
 10
3856.36
 20
-1660.85
 30
0.000000
  70
    32
  0
VERTEX
  8
1PHANTOM
  5
266BA
 10
3856.61
 20
-1660.91
 30
0.000000
  70
    32
  0
VERTEX
  8
1PHANTOM
  5
266BB
 10
3856.87
 20
-1660.97
 30
0.000000
  70
    32
  0
VERTEX
  8
1PHANTOM
  5
266BC
 10
3857.12
 20
-1661.02
 30
0.000000
  70
    32
  0
VERTEX
  8
1PHANTOM
  5
266BD
 10
3857.37
 20
-1661.07
 30
0.000000
  70
    32
  0
VERTEX
  8
1PHANTOM
  5
266BE
 10
3857.62
 20
-1661.12
 30
0.000000
  70
    32
  0
VERTEX
  8
1PHANTOM
  5
266BF
 10
3857.87
 20
-1661.16
 30
0.000000
  70
    32
  0
VERTEX
  8
1PHANTOM
  5
266C0
 10
3858.12
 20
-1661.20
 30
0.000000
  70
    32
  0
VERTEX
  8
1PHANTOM
  5
266C1
 10
3858.37
 20
-1661.24
 30
0.000000
  70
    32
  0
VERTEX
  8
1PHANTOM
  5
266C2
 10
3858.62
 20
-1661.27
 30
0.000000
  70
    32
  0
VERTEX
  8
1PHANTOM
  5
266C3
 10
3858.88
 20
-1661.30
 30
0.000000
  70
    32
  0
VERTEX
  8
1PHANTOM
  5
266C4
 10
3859.13
 20
-1661.33
 30
0.000000
  70
    32
  0
VERTEX
  8
1PHANTOM
  5
266C5
 10
3859.38
 20
-1661.36
 30
0.000000
  70
    32
  0
VERTEX
  8
1PHANTOM
  5
266C6
 10
3859.63
 20
-1661.38
 30
0.000000
  70
    32
  0
VERTEX
  8
1PHANTOM
  5
266C7
 10
3859.88
 20
-1661.40
 30
0.000000
  70
    32
  0
VERTEX
  8
1PHANTOM
  5
266C8
 10
3860.13
 20
-1661.41
 30
0.000000
  70
    32
  0
VERTEX
  8
1PHANTOM
  5
266C9
 10
3860.38
 20
-1661.42
 30
0.000000
  70
    32
  0
VERTEX
  8
1PHANTOM
  5
266CA
 10
3860.63
 20
-1661.43
 30
0.000000
  70
    32
  0
VERTEX
  8
1PHANTOM
  5
266CB
 10
3860.88
 20
-1661.43
 30
0.000000
  70
    32
  0
VERTEX
  8
1PHANTOM
  5
266CC
 10
3861.13
 20
-1661.43
 30
0.000000
  70
    32
  0
VERTEX
  8
1PHANTOM
  5
266CD
 10
3861.38
 20
-1661.43
 30
0.000000
  70
    32
  0
VERTEX
  8
1PHANTOM
  5
266CE
 10
3861.63
 20
-1661.43
 30
0.000000
  70
    32
  0
VERTEX
  8
1PHANTOM
  5
266CF
 10
3861.88
 20
-1661.42
 30
0.000000
  70
    32
  0
VERTEX
  8
1PHANTOM
  5
266D0
 10
3862.13
 20
-1661.41
 30
0.000000
  70
    32
  0
VERTEX
  8
1PHANTOM
  5
266D1
 10
3862.38
 20
-1661.39
 30
0.000000
  70
    32
  0
VERTEX
  8
1PHANTOM
  5
266D2
 10
3862.62
 20
-1661.38
 30
0.000000
  70
    32
  0
VERTEX
  8
1PHANTOM
  5
266D3
 10
3862.87
 20
-1661.36
 30
0.000000
  70
    32
  0
VERTEX
  8
1PHANTOM
  5
266D4
 10
3863.12
 20
-1661.33
 30
0.000000
  70
    32
  0
VERTEX
  8
1PHANTOM
  5
266D5
 10
3863.37
 20
-1661.31
 30
0.000000
  70
    32
  0
VERTEX
  8
1PHANTOM
  5
266D6
 10
3863.62
 20
-1661.28
 30
0.000000
  70
    32
  0
VERTEX
  8
1PHANTOM
  5
266D7
 10
3863.87
 20
-1661.25
 30
0.000000
  70
    32
  0
VERTEX
  8
1PHANTOM
  5
266D8
 10
3864.12
 20
-1661.21
 30
0.000000
  70
    32
  0
VERTEX
  8
1PHANTOM
  5
266D9
 10
3864.37
 20
-1661.18
 30
0.000000
  70
    32
  0
VERTEX
  8
1PHANTOM
  5
266DA
 10
3864.61
 20
-1661.14
 30
0.000000
  70
    32
  0
VERTEX
  8
1PHANTOM
  5
266DB
 10
3864.86
 20
-1661.09
 30
0.000000
  70
    32
  0
VERTEX
  8
1PHANTOM
  5
266DC
 10
3865.11
 20
-1661.05
 30
0.000000
  70
    32
  0
VERTEX
  8
1PHANTOM
  5
266DD
 10
3865.36
 20
-1661.00
 30
0.000000
  70
    32
  0
VERTEX
  8
1PHANTOM
  5
266DE
 10
3865.61
 20
-1660.95
 30
0.000000
  70
    32
  0
VERTEX
  8
1PHANTOM
  5
266DF
 10
3865.85
 20
-1660.90
 30
0.000000
  70
    32
  0
VERTEX
  8
1PHANTOM
  5
266E0
 10
3866.10
 20
-1660.85
 30
0.000000
  70
    32
  0
VERTEX
  8
1PHANTOM
  5
266E1
 10
3866.35
 20
-1660.79
 30
0.000000
  70
    32
  0
VERTEX
  8
1PHANTOM
  5
266E2
 10
3866.60
 20
-1660.74
 30
0.000000
  70
    32
  0
VERTEX
  8
1PHANTOM
  5
266E3
 10
3866.84
 20
-1660.67
 30
0.000000
  70
    32
  0
VERTEX
  8
1PHANTOM
  5
266E4
 10
3867.09
 20
-1660.61
 30
0.000000
  70
    32
  0
VERTEX
  8
1PHANTOM
  5
266E5
 10
3867.34
 20
-1660.55
 30
0.000000
  70
    32
  0
VERTEX
  8
1PHANTOM
  5
266E6
 10
3867.59
 20
-1660.48
 30
0.000000
  70
    32
  0
VERTEX
  8
1PHANTOM
  5
266E7
 10
3867.83
 20
-1660.41
 30
0.000000
  70
    32
  0
VERTEX
  8
1PHANTOM
  5
266E8
 10
3868.08
 20
-1660.34
 30
0.000000
  70
    32
  0
VERTEX
  8
1PHANTOM
  5
266E9
 10
3868.33
 20
-1660.27
 30
0.000000
  70
    32
  0
VERTEX
  8
1PHANTOM
  5
266EA
 10
3868.57
 20
-1660.19
 30
0.000000
  70
    32
  0
VERTEX
  8
1PHANTOM
  5
266EB
 10
3868.82
 20
-1660.12
 30
0.000000
  70
    32
  0
VERTEX
  8
1PHANTOM
  5
266EC
 10
3869.07
 20
-1660.04
 30
0.000000
  70
    32
  0
VERTEX
  8
1PHANTOM
  5
266ED
 10
3869.31
 20
-1659.96
 30
0.000000
  70
    32
  0
VERTEX
  8
1PHANTOM
  5
266EE
 10
3869.56
 20
-1659.88
 30
0.000000
  70
    32
  0
VERTEX
  8
1PHANTOM
  5
266EF
 10
3869.81
 20
-1659.80
 30
0.000000
  70
    32
  0
VERTEX
  8
1PHANTOM
  5
266F0
 10
3870.05
 20
-1659.71
 30
0.000000
  70
    32
  0
SEQEND
  8
1PHANTOM
  5
266F1
  0
POLYLINE
  8
1PHANTOM
  5
266F2
  66
     1
 10
0.000000
 20
0.000000
 30
0.000000
  70
     8
  0
VERTEX
  8
1PHANTOM
  5
266F3
 10
3579.30
 20
-1662.57
 30
0.000000
  70
    32
  0
VERTEX
  8
1PHANTOM
  5
266F4
 10
3580.04
 20
-1662.32
 30
0.000000
  70
    32
  0
VERTEX
  8
1PHANTOM
  5
266F5
 10
3580.79
 20
-1662.07
 30
0.000000
  70
    32
  0
VERTEX
  8
1PHANTOM
  5
266F6
 10
3581.53
 20
-1661.83
 30
0.000000
  70
    32
  0
VERTEX
  8
1PHANTOM
  5
266F7
 10
3582.27
 20
-1661.58
 30
0.000000
  70
    32
  0
VERTEX
  8
1PHANTOM
  5
266F8
 10
3583.01
 20
-1661.34
 30
0.000000
  70
    32
  0
VERTEX
  8
1PHANTOM
  5
266F9
 10
3583.75
 20
-1661.11
 30
0.000000
  70
    32
  0
VERTEX
  8
1PHANTOM
  5
266FA
 10
3584.49
 20
-1660.88
 30
0.000000
  70
    32
  0
VERTEX
  8
1PHANTOM
  5
266FB
 10
3585.23
 20
-1660.65
 30
0.000000
  70
    32
  0
VERTEX
  8
1PHANTOM
  5
266FC
 10
3585.97
 20
-1660.42
 30
0.000000
  70
    32
  0
VERTEX
  8
1PHANTOM
  5
266FD
 10
3586.72
 20
-1660.20
 30
0.000000
  70
    32
  0
VERTEX
  8
1PHANTOM
  5
266FE
 10
3587.46
 20
-1659.98
 30
0.000000
  70
    32
  0
VERTEX
  8
1PHANTOM
  5
266FF
 10
3588.20
 20
-1659.76
 30
0.000000
  70
    32
  0
VERTEX
  8
1PHANTOM
  5
26700
 10
3588.94
 20
-1659.55
 30
0.000000
  70
    32
  0
VERTEX
  8
1PHANTOM
  5
26701
 10
3589.69
 20
-1659.35
 30
0.000000
  70
    32
  0
VERTEX
  8
1PHANTOM
  5
26702
 10
3590.43
 20
-1659.14
 30
0.000000
  70
    32
  0
VERTEX
  8
1PHANTOM
  5
26703
 10
3591.17
 20
-1658.95
 30
0.000000
  70
    32
  0
VERTEX
  8
1PHANTOM
  5
26704
 10
3591.92
 20
-1658.75
 30
0.000000
  70
    32
  0
VERTEX
  8
1PHANTOM
  5
26705
 10
3592.66
 20
-1658.57
 30
0.000000
  70
    32
  0
VERTEX
  8
1PHANTOM
  5
26706
 10
3593.40
 20
-1658.38
 30
0.000000
  70
    32
  0
VERTEX
  8
1PHANTOM
  5
26707
 10
3594.15
 20
-1658.21
 30
0.000000
  70
    32
  0
VERTEX
  8
1PHANTOM
  5
26708
 10
3594.89
 20
-1658.04
 30
0.000000
  70
    32
  0
VERTEX
  8
1PHANTOM
  5
26709
 10
3595.64
 20
-1657.87
 30
0.000000
  70
    32
  0
VERTEX
  8
1PHANTOM
  5
2670A
 10
3596.38
 20
-1657.71
 30
0.000000
  70
    32
  0
VERTEX
  8
1PHANTOM
  5
2670B
 10
3597.13
 20
-1657.56
 30
0.000000
  70
    32
  0
VERTEX
  8
1PHANTOM
  5
2670C
 10
3597.88
 20
-1657.41
 30
0.000000
  70
    32
  0
VERTEX
  8
1PHANTOM
  5
2670D
 10
3598.62
 20
-1657.27
 30
0.000000
  70
    32
  0
VERTEX
  8
1PHANTOM
  5
2670E
 10
3599.37
 20
-1657.13
 30
0.000000
  70
    32
  0
VERTEX
  8
1PHANTOM
  5
2670F
 10
3600.12
 20
-1657.00
 30
0.000000
  70
    32
  0
VERTEX
  8
1PHANTOM
  5
26710
 10
3600.86
 20
-1656.88
 30
0.000000
  70
    32
  0
VERTEX
  8
1PHANTOM
  5
26711
 10
3601.61
 20
-1656.76
 30
0.000000
  70
    32
  0
VERTEX
  8
1PHANTOM
  5
26712
 10
3602.36
 20
-1656.66
 30
0.000000
  70
    32
  0
VERTEX
  8
1PHANTOM
  5
26713
 10
3603.11
 20
-1656.56
 30
0.000000
  70
    32
  0
VERTEX
  8
1PHANTOM
  5
26714
 10
3603.86
 20
-1656.46
 30
0.000000
  70
    32
  0
VERTEX
  8
1PHANTOM
  5
26715
 10
3604.61
 20
-1656.38
 30
0.000000
  70
    32
  0
VERTEX
  8
1PHANTOM
  5
26716
 10
3605.36
 20
-1656.30
 30
0.000000
  70
    32
  0
VERTEX
  8
1PHANTOM
  5
26717
 10
3606.11
 20
-1656.23
 30
0.000000
  70
    32
  0
VERTEX
  8
1PHANTOM
  5
26718
 10
3606.86
 20
-1656.17
 30
0.000000
  70
    32
  0
VERTEX
  8
1PHANTOM
  5
26719
 10
3607.61
 20
-1656.11
 30
0.000000
  70
    32
  0
VERTEX
  8
1PHANTOM
  5
2671A
 10
3608.36
 20
-1656.07
 30
0.000000
  70
    32
  0
VERTEX
  8
1PHANTOM
  5
2671B
 10
3609.11
 20
-1656.03
 30
0.000000
  70
    32
  0
VERTEX
  8
1PHANTOM
  5
2671C
 10
3609.86
 20
-1656.00
 30
0.000000
  70
    32
  0
VERTEX
  8
1PHANTOM
  5
2671D
 10
3610.62
 20
-1655.97
 30
0.000000
  70
    32
  0
VERTEX
  8
1PHANTOM
  5
2671E
 10
3611.37
 20
-1655.96
 30
0.000000
  70
    32
  0
VERTEX
  8
1PHANTOM
  5
2671F
 10
3612.12
 20
-1655.95
 30
0.000000
  70
    32
  0
VERTEX
  8
1PHANTOM
  5
26720
 10
3612.88
 20
-1655.94
 30
0.000000
  70
    32
  0
VERTEX
  8
1PHANTOM
  5
26721
 10
3613.63
 20
-1655.95
 30
0.000000
  70
    32
  0
VERTEX
  8
1PHANTOM
  5
26722
 10
3614.39
 20
-1655.96
 30
0.000000
  70
    32
  0
VERTEX
  8
1PHANTOM
  5
26723
 10
3615.14
 20
-1655.98
 30
0.000000
  70
    32
  0
VERTEX
  8
1PHANTOM
  5
26724
 10
3615.90
 20
-1656.00
 30
0.000000
  70
    32
  0
VERTEX
  8
1PHANTOM
  5
26725
 10
3616.65
 20
-1656.03
 30
0.000000
  70
    32
  0
VERTEX
  8
1PHANTOM
  5
26726
 10
3617.41
 20
-1656.07
 30
0.000000
  70
    32
  0
VERTEX
  8
1PHANTOM
  5
26727
 10
3618.16
 20
-1656.11
 30
0.000000
  70
    32
  0
VERTEX
  8
1PHANTOM
  5
26728
 10
3618.92
 20
-1656.16
 30
0.000000
  70
    32
  0
VERTEX
  8
1PHANTOM
  5
26729
 10
3619.68
 20
-1656.21
 30
0.000000
  70
    32
  0
VERTEX
  8
1PHANTOM
  5
2672A
 10
3620.44
 20
-1656.27
 30
0.000000
  70
    32
  0
VERTEX
  8
1PHANTOM
  5
2672B
 10
3621.19
 20
-1656.33
 30
0.000000
  70
    32
  0
VERTEX
  8
1PHANTOM
  5
2672C
 10
3621.95
 20
-1656.40
 30
0.000000
  70
    32
  0
VERTEX
  8
1PHANTOM
  5
2672D
 10
3622.71
 20
-1656.48
 30
0.000000
  70
    32
  0
VERTEX
  8
1PHANTOM
  5
2672E
 10
3623.47
 20
-1656.56
 30
0.000000
  70
    32
  0
VERTEX
  8
1PHANTOM
  5
2672F
 10
3624.23
 20
-1656.64
 30
0.000000
  70
    32
  0
VERTEX
  8
1PHANTOM
  5
26730
 10
3624.99
 20
-1656.73
 30
0.000000
  70
    32
  0
VERTEX
  8
1PHANTOM
  5
26731
 10
3625.75
 20
-1656.82
 30
0.000000
  70
    32
  0
VERTEX
  8
1PHANTOM
  5
26732
 10
3626.51
 20
-1656.92
 30
0.000000
  70
    32
  0
VERTEX
  8
1PHANTOM
  5
26733
 10
3627.27
 20
-1657.03
 30
0.000000
  70
    32
  0
VERTEX
  8
1PHANTOM
  5
26734
 10
3628.03
 20
-1657.13
 30
0.000000
  70
    32
  0
VERTEX
  8
1PHANTOM
  5
26735
 10
3628.79
 20
-1657.24
 30
0.000000
  70
    32
  0
VERTEX
  8
1PHANTOM
  5
26736
 10
3629.55
 20
-1657.36
 30
0.000000
  70
    32
  0
VERTEX
  8
1PHANTOM
  5
26737
 10
3630.31
 20
-1657.47
 30
0.000000
  70
    32
  0
VERTEX
  8
1PHANTOM
  5
26738
 10
3631.07
 20
-1657.60
 30
0.000000
  70
    32
  0
VERTEX
  8
1PHANTOM
  5
26739
 10
3631.83
 20
-1657.72
 30
0.000000
  70
    32
  0
VERTEX
  8
1PHANTOM
  5
2673A
 10
3632.60
 20
-1657.85
 30
0.000000
  70
    32
  0
VERTEX
  8
1PHANTOM
  5
2673B
 10
3633.36
 20
-1657.98
 30
0.000000
  70
    32
  0
VERTEX
  8
1PHANTOM
  5
2673C
 10
3634.12
 20
-1658.11
 30
0.000000
  70
    32
  0
VERTEX
  8
1PHANTOM
  5
2673D
 10
3634.88
 20
-1658.25
 30
0.000000
  70
    32
  0
VERTEX
  8
1PHANTOM
  5
2673E
 10
3635.65
 20
-1658.39
 30
0.000000
  70
    32
  0
VERTEX
  8
1PHANTOM
  5
2673F
 10
3636.41
 20
-1658.53
 30
0.000000
  70
    32
  0
VERTEX
  8
1PHANTOM
  5
26740
 10
3637.17
 20
-1658.68
 30
0.000000
  70
    32
  0
VERTEX
  8
1PHANTOM
  5
26741
 10
3637.94
 20
-1658.83
 30
0.000000
  70
    32
  0
VERTEX
  8
1PHANTOM
  5
26742
 10
3638.70
 20
-1658.98
 30
0.000000
  70
    32
  0
VERTEX
  8
1PHANTOM
  5
26743
 10
3639.46
 20
-1659.13
 30
0.000000
  70
    32
  0
VERTEX
  8
1PHANTOM
  5
26744
 10
3640.23
 20
-1659.28
 30
0.000000
  70
    32
  0
VERTEX
  8
1PHANTOM
  5
26745
 10
3640.99
 20
-1659.44
 30
0.000000
  70
    32
  0
VERTEX
  8
1PHANTOM
  5
26746
 10
3641.76
 20
-1659.59
 30
0.000000
  70
    32
  0
VERTEX
  8
1PHANTOM
  5
26747
 10
3642.52
 20
-1659.75
 30
0.000000
  70
    32
  0
VERTEX
  8
1PHANTOM
  5
26748
 10
3643.29
 20
-1659.91
 30
0.000000
  70
    32
  0
VERTEX
  8
1PHANTOM
  5
26749
 10
3644.05
 20
-1660.07
 30
0.000000
  70
    32
  0
VERTEX
  8
1PHANTOM
  5
2674A
 10
3644.82
 20
-1660.23
 30
0.000000
  70
    32
  0
VERTEX
  8
1PHANTOM
  5
2674B
 10
3645.58
 20
-1660.39
 30
0.000000
  70
    32
  0
VERTEX
  8
1PHANTOM
  5
2674C
 10
3646.35
 20
-1660.56
 30
0.000000
  70
    32
  0
VERTEX
  8
1PHANTOM
  5
2674D
 10
3647.11
 20
-1660.72
 30
0.000000
  70
    32
  0
VERTEX
  8
1PHANTOM
  5
2674E
 10
3647.88
 20
-1660.89
 30
0.000000
  70
    32
  0
VERTEX
  8
1PHANTOM
  5
2674F
 10
3648.64
 20
-1661.05
 30
0.000000
  70
    32
  0
VERTEX
  8
1PHANTOM
  5
26750
 10
3649.41
 20
-1661.21
 30
0.000000
  70
    32
  0
VERTEX
  8
1PHANTOM
  5
26751
 10
3650.18
 20
-1661.38
 30
0.000000
  70
    32
  0
VERTEX
  8
1PHANTOM
  5
26752
 10
3650.94
 20
-1661.54
 30
0.000000
  70
    32
  0
VERTEX
  8
1PHANTOM
  5
26753
 10
3651.71
 20
-1661.71
 30
0.000000
  70
    32
  0
VERTEX
  8
1PHANTOM
  5
26754
 10
3652.47
 20
-1661.87
 30
0.000000
  70
    32
  0
VERTEX
  8
1PHANTOM
  5
26755
 10
3653.24
 20
-1662.04
 30
0.000000
  70
    32
  0
VERTEX
  8
1PHANTOM
  5
26756
 10
3654.01
 20
-1662.20
 30
0.000000
  70
    32
  0
VERTEX
  8
1PHANTOM
  5
26757
 10
3654.77
 20
-1662.36
 30
0.000000
  70
    32
  0
VERTEX
  8
1PHANTOM
  5
26758
 10
3655.54
 20
-1662.52
 30
0.000000
  70
    32
  0
VERTEX
  8
1PHANTOM
  5
26759
 10
3656.31
 20
-1662.68
 30
0.000000
  70
    32
  0
VERTEX
  8
1PHANTOM
  5
2675A
 10
3657.07
 20
-1662.84
 30
0.000000
  70
    32
  0
VERTEX
  8
1PHANTOM
  5
2675B
 10
3657.84
 20
-1663.00
 30
0.000000
  70
    32
  0
VERTEX
  8
1PHANTOM
  5
2675C
 10
3658.61
 20
-1663.15
 30
0.000000
  70
    32
  0
VERTEX
  8
1PHANTOM
  5
2675D
 10
3659.37
 20
-1663.31
 30
0.000000
  70
    32
  0
VERTEX
  8
1PHANTOM
  5
2675E
 10
3660.14
 20
-1663.46
 30
0.000000
  70
    32
  0
VERTEX
  8
1PHANTOM
  5
2675F
 10
3660.91
 20
-1663.61
 30
0.000000
  70
    32
  0
VERTEX
  8
1PHANTOM
  5
26760
 10
3661.67
 20
-1663.76
 30
0.000000
  70
    32
  0
VERTEX
  8
1PHANTOM
  5
26761
 10
3662.44
 20
-1663.91
 30
0.000000
  70
    32
  0
VERTEX
  8
1PHANTOM
  5
26762
 10
3663.21
 20
-1664.05
 30
0.000000
  70
    32
  0
VERTEX
  8
1PHANTOM
  5
26763
 10
3663.98
 20
-1664.19
 30
0.000000
  70
    32
  0
VERTEX
  8
1PHANTOM
  5
26764
 10
3664.74
 20
-1664.33
 30
0.000000
  70
    32
  0
VERTEX
  8
1PHANTOM
  5
26765
 10
3665.51
 20
-1664.47
 30
0.000000
  70
    32
  0
VERTEX
  8
1PHANTOM
  5
26766
 10
3666.28
 20
-1664.60
 30
0.000000
  70
    32
  0
VERTEX
  8
1PHANTOM
  5
26767
 10
3667.04
 20
-1664.73
 30
0.000000
  70
    32
  0
VERTEX
  8
1PHANTOM
  5
26768
 10
3667.81
 20
-1664.86
 30
0.000000
  70
    32
  0
VERTEX
  8
1PHANTOM
  5
26769
 10
3668.58
 20
-1664.98
 30
0.000000
  70
    32
  0
VERTEX
  8
1PHANTOM
  5
2676A
 10
3669.34
 20
-1665.10
 30
0.000000
  70
    32
  0
VERTEX
  8
1PHANTOM
  5
2676B
 10
3670.11
 20
-1665.22
 30
0.000000
  70
    32
  0
VERTEX
  8
1PHANTOM
  5
2676C
 10
3670.88
 20
-1665.33
 30
0.000000
  70
    32
  0
VERTEX
  8
1PHANTOM
  5
2676D
 10
3671.64
 20
-1665.44
 30
0.000000
  70
    32
  0
VERTEX
  8
1PHANTOM
  5
2676E
 10
3672.41
 20
-1665.54
 30
0.000000
  70
    32
  0
VERTEX
  8
1PHANTOM
  5
2676F
 10
3673.18
 20
-1665.64
 30
0.000000
  70
    32
  0
VERTEX
  8
1PHANTOM
  5
26770
 10
3673.94
 20
-1665.74
 30
0.000000
  70
    32
  0
VERTEX
  8
1PHANTOM
  5
26771
 10
3674.71
 20
-1665.83
 30
0.000000
  70
    32
  0
VERTEX
  8
1PHANTOM
  5
26772
 10
3675.48
 20
-1665.92
 30
0.000000
  70
    32
  0
VERTEX
  8
1PHANTOM
  5
26773
 10
3676.24
 20
-1666.00
 30
0.000000
  70
    32
  0
VERTEX
  8
1PHANTOM
  5
26774
 10
3677.01
 20
-1666.08
 30
0.000000
  70
    32
  0
VERTEX
  8
1PHANTOM
  5
26775
 10
3677.77
 20
-1666.15
 30
0.000000
  70
    32
  0
VERTEX
  8
1PHANTOM
  5
26776
 10
3678.54
 20
-1666.22
 30
0.000000
  70
    32
  0
VERTEX
  8
1PHANTOM
  5
26777
 10
3679.31
 20
-1666.28
 30
0.000000
  70
    32
  0
VERTEX
  8
1PHANTOM
  5
26778
 10
3680.07
 20
-1666.34
 30
0.000000
  70
    32
  0
VERTEX
  8
1PHANTOM
  5
26779
 10
3680.84
 20
-1666.39
 30
0.000000
  70
    32
  0
VERTEX
  8
1PHANTOM
  5
2677A
 10
3681.60
 20
-1666.44
 30
0.000000
  70
    32
  0
VERTEX
  8
1PHANTOM
  5
2677B
 10
3682.37
 20
-1666.48
 30
0.000000
  70
    32
  0
VERTEX
  8
1PHANTOM
  5
2677C
 10
3683.13
 20
-1666.51
 30
0.000000
  70
    32
  0
VERTEX
  8
1PHANTOM
  5
2677D
 10
3683.90
 20
-1666.54
 30
0.000000
  70
    32
  0
VERTEX
  8
1PHANTOM
  5
2677E
 10
3684.66
 20
-1666.56
 30
0.000000
  70
    32
  0
VERTEX
  8
1PHANTOM
  5
2677F
 10
3685.43
 20
-1666.58
 30
0.000000
  70
    32
  0
VERTEX
  8
1PHANTOM
  5
26780
 10
3686.19
 20
-1666.59
 30
0.000000
  70
    32
  0
VERTEX
  8
1PHANTOM
  5
26781
 10
3686.96
 20
-1666.59
 30
0.000000
  70
    32
  0
VERTEX
  8
1PHANTOM
  5
26782
 10
3687.72
 20
-1666.59
 30
0.000000
  70
    32
  0
VERTEX
  8
1PHANTOM
  5
26783
 10
3688.49
 20
-1666.59
 30
0.000000
  70
    32
  0
VERTEX
  8
1PHANTOM
  5
26784
 10
3689.25
 20
-1666.57
 30
0.000000
  70
    32
  0
VERTEX
  8
1PHANTOM
  5
26785
 10
3690.01
 20
-1666.56
 30
0.000000
  70
    32
  0
VERTEX
  8
1PHANTOM
  5
26786
 10
3690.78
 20
-1666.54
 30
0.000000
  70
    32
  0
VERTEX
  8
1PHANTOM
  5
26787
 10
3691.54
 20
-1666.51
 30
0.000000
  70
    32
  0
VERTEX
  8
1PHANTOM
  5
26788
 10
3692.31
 20
-1666.48
 30
0.000000
  70
    32
  0
VERTEX
  8
1PHANTOM
  5
26789
 10
3693.07
 20
-1666.44
 30
0.000000
  70
    32
  0
VERTEX
  8
1PHANTOM
  5
2678A
 10
3693.83
 20
-1666.40
 30
0.000000
  70
    32
  0
VERTEX
  8
1PHANTOM
  5
2678B
 10
3694.60
 20
-1666.36
 30
0.000000
  70
    32
  0
VERTEX
  8
1PHANTOM
  5
2678C
 10
3695.36
 20
-1666.31
 30
0.000000
  70
    32
  0
VERTEX
  8
1PHANTOM
  5
2678D
 10
3696.12
 20
-1666.25
 30
0.000000
  70
    32
  0
VERTEX
  8
1PHANTOM
  5
2678E
 10
3696.89
 20
-1666.19
 30
0.000000
  70
    32
  0
VERTEX
  8
1PHANTOM
  5
2678F
 10
3697.65
 20
-1666.13
 30
0.000000
  70
    32
  0
VERTEX
  8
1PHANTOM
  5
26790
 10
3698.41
 20
-1666.06
 30
0.000000
  70
    32
  0
VERTEX
  8
1PHANTOM
  5
26791
 10
3699.18
 20
-1665.99
 30
0.000000
  70
    32
  0
VERTEX
  8
1PHANTOM
  5
26792
 10
3699.94
 20
-1665.91
 30
0.000000
  70
    32
  0
VERTEX
  8
1PHANTOM
  5
26793
 10
3700.70
 20
-1665.83
 30
0.000000
  70
    32
  0
VERTEX
  8
1PHANTOM
  5
26794
 10
3701.46
 20
-1665.75
 30
0.000000
  70
    32
  0
VERTEX
  8
1PHANTOM
  5
26795
 10
3702.23
 20
-1665.66
 30
0.000000
  70
    32
  0
VERTEX
  8
1PHANTOM
  5
26796
 10
3702.99
 20
-1665.57
 30
0.000000
  70
    32
  0
VERTEX
  8
1PHANTOM
  5
26797
 10
3703.75
 20
-1665.47
 30
0.000000
  70
    32
  0
VERTEX
  8
1PHANTOM
  5
26798
 10
3704.51
 20
-1665.37
 30
0.000000
  70
    32
  0
VERTEX
  8
1PHANTOM
  5
26799
 10
3705.27
 20
-1665.27
 30
0.000000
  70
    32
  0
VERTEX
  8
1PHANTOM
  5
2679A
 10
3706.04
 20
-1665.16
 30
0.000000
  70
    32
  0
VERTEX
  8
1PHANTOM
  5
2679B
 10
3706.80
 20
-1665.05
 30
0.000000
  70
    32
  0
VERTEX
  8
1PHANTOM
  5
2679C
 10
3707.56
 20
-1664.94
 30
0.000000
  70
    32
  0
VERTEX
  8
1PHANTOM
  5
2679D
 10
3708.32
 20
-1664.82
 30
0.000000
  70
    32
  0
VERTEX
  8
1PHANTOM
  5
2679E
 10
3709.08
 20
-1664.70
 30
0.000000
  70
    32
  0
VERTEX
  8
1PHANTOM
  5
2679F
 10
3709.84
 20
-1664.58
 30
0.000000
  70
    32
  0
VERTEX
  8
1PHANTOM
  5
267A0
 10
3710.61
 20
-1664.45
 30
0.000000
  70
    32
  0
VERTEX
  8
1PHANTOM
  5
267A1
 10
3711.37
 20
-1664.32
 30
0.000000
  70
    32
  0
VERTEX
  8
1PHANTOM
  5
267A2
 10
3712.13
 20
-1664.19
 30
0.000000
  70
    32
  0
VERTEX
  8
1PHANTOM
  5
267A3
 10
3712.89
 20
-1664.06
 30
0.000000
  70
    32
  0
VERTEX
  8
1PHANTOM
  5
267A4
 10
3713.65
 20
-1663.92
 30
0.000000
  70
    32
  0
VERTEX
  8
1PHANTOM
  5
267A5
 10
3714.41
 20
-1663.78
 30
0.000000
  70
    32
  0
VERTEX
  8
1PHANTOM
  5
267A6
 10
3715.17
 20
-1663.64
 30
0.000000
  70
    32
  0
VERTEX
  8
1PHANTOM
  5
267A7
 10
3715.94
 20
-1663.49
 30
0.000000
  70
    32
  0
VERTEX
  8
1PHANTOM
  5
267A8
 10
3716.70
 20
-1663.35
 30
0.000000
  70
    32
  0
VERTEX
  8
1PHANTOM
  5
267A9
 10
3717.46
 20
-1663.20
 30
0.000000
  70
    32
  0
VERTEX
  8
1PHANTOM
  5
267AA
 10
3718.22
 20
-1663.05
 30
0.000000
  70
    32
  0
VERTEX
  8
1PHANTOM
  5
267AB
 10
3718.98
 20
-1662.89
 30
0.000000
  70
    32
  0
VERTEX
  8
1PHANTOM
  5
267AC
 10
3719.74
 20
-1662.74
 30
0.000000
  70
    32
  0
VERTEX
  8
1PHANTOM
  5
267AD
 10
3720.50
 20
-1662.58
 30
0.000000
  70
    32
  0
VERTEX
  8
1PHANTOM
  5
267AE
 10
3721.26
 20
-1662.42
 30
0.000000
  70
    32
  0
VERTEX
  8
1PHANTOM
  5
267AF
 10
3722.02
 20
-1662.26
 30
0.000000
  70
    32
  0
VERTEX
  8
1PHANTOM
  5
267B0
 10
3722.78
 20
-1662.10
 30
0.000000
  70
    32
  0
VERTEX
  8
1PHANTOM
  5
267B1
 10
3723.54
 20
-1661.93
 30
0.000000
  70
    32
  0
VERTEX
  8
1PHANTOM
  5
267B2
 10
3724.30
 20
-1661.77
 30
0.000000
  70
    32
  0
SEQEND
  8
1PHANTOM
  5
267B3
  0
LINE
  5
25E76
  8
1PHANTOM
 10
3833.5542117544278
 20
-1719.478277496406
 30
0.0
 11
3836.7542117544281
 21
-1719.478277496406
 31
0.0
  0
LINE
  5
25E77
  8
1PHANTOM
 10
3836.7542117544281
 20
-1719.478277496406
 30
0.0
 11
3836.7542117544281
 21
-1731.0252828801979
 31
0.0
  0
LINE
  5
25E78
  8
1PHANTOM
 10
3833.5542117544278
 20
-1731.0252828801979
 30
0.0
 11
3836.7542117544281
 21
-1731.0252828801979
 31
0.0
  0
LINE
  5
25E79
  8
1PHANTOM
 10
3833.5542117544278
 20
-1722.3650288423539
 30
0.0
 11
3836.7542117544281
 21
-1722.3650288423539
 31
0.0
  0
LINE
  5
25E7A
  8
1PHANTOM
 10
3833.5542117544278
 20
-1728.1385315342491
 30
0.0
 11
3836.7542117544281
 21
-1728.1385315342491
 31
0.0
  0
LINE
  5
25E7B
  8
1PHANTOM
 10
3833.5542117544278
 20
-1731.0252828801979
 30
0.0
 11
3833.5542117544278
 21
-1719.478277496406
 31
0.0
  0
LINE
  5
2615D
  8
1CENTER
 10
3713.8042117544301
 20
-1730.2517801883021
 30
0.0
 11
3713.8042117544301
 21
-1720.2517801883021
 31
0.0
  0
LINE
  5
2615F
  8
1CENTER
 10
3718.8042117544301
 20
-1725.2517801883021
 30
0.0
 11
3708.804211754431
 21
-1725.2517801883021
 31
0.0
  0
CIRCLE
  5
26164
  8
1PHANTOM
 10
3713.8042117544301
 20
-1725.2517801883021
 30
0.0
 40
3.0
  0
LINE
  5
26165
  8
1CENTER
 10
3584.8042117544319
 20
-1725.2517801883021
 30
0.0
 11
3594.8042117544319
 21
-1725.2517801883021
 31
0.0
  0
LINE
  5
26166
  8
1CENTER
 10
3589.8042117544319
 20
-1730.2517801883021
 30
0.0
 11
3589.8042117544319
 21
-1720.2517801883021
 31
0.0
  0
CIRCLE
  5
26167
  8
1PHANTOM
 10
3589.8042117544319
 20
-1725.2517801883021
 30
0.0
 40
3.0
  0
LINE
  5
2655A
  8
1DIM
 10
3782.554211754431
 20
-1771.2517801883
 30
0.0
 11
3770.804211754431
 21
-1771.2517801883
 31
0.0
  0
LINE
  5
2655B
  8
1DIM
 10
3825.0542117544269
 20
-1739.2517801882991
 30
0.0
 11
3770.804211754431
 21
-1739.2517801882991
 31
0.0
  0
LINE
  5
2655C
  8
1DIM
 10
3771.804211754431
 20
-1769.2517801883009
 30
0.0
 11
3771.804211754431
 21
-1741.2517801882991
 31
0.0
  0
TEXT
  5
26560
  8
1PHANTOM
 10
3734.0202998722871
 20
-1673.164583120855
 30
0.0
 40
3.5
  1
GP110接続位置
  0
SOLID
  5
26561
  8
1DIM
 10
3714.7646417330579
 20
-1723.4640484822321
 30
0.0
 11
3713.803825374775
 21
-1725.2495296601689
 31
0.0
 12
3714.133630737063
 22
-1723.248944862137
 32
0.0
 13
3714.133630737063
 23
-1723.248944862137
 33
0.0
  0
LINE
  5
26563
  8
1DIM
 10
3782.054211754431
 20
-1770.7517801883
 30
0.0
 11
3782.054211754431
 21
-1802.2517801883009
 31
0.0
  0
LINE
  5
26564
  8
1DIM
 10
3850.0542117544278
 20
-1751.393482232774
 30
0.0
 11
3850.0542117544278
 21
-1802.2517801883009
 31
0.0
  0
LINE
  5
26565
  8
1DIM
 10
3784.054211754431
 20
-1801.2517801883009
 30
0.0
 11
3848.0542117544278
 21
-1801.2517801883009
 31
0.0
  0
LINE
  5
26569
  8
1DIM
 10
3782.054211754431
 20
-1770.7517801883
 30
0.0
 11
3782.054211754431
 21
-1792.2517801883009
 31
0.0
  0
LINE
  5
2656A
  8
1DIM
 10
3833.5542117544269
 20
-1769.2517801883021
 30
0.0
 11
3833.5542117544269
 21
-1792.2517801883009
 31
0.0
  0
LINE
  5
2656B
  8
1DIM
 10
3784.054211754431
 20
-1791.2517801883009
 30
0.0
 11
3831.5542117544278
 21
-1791.2517801883009
 31
0.0
  0
LINE
  5
2656F
  8
1HATCH
 10
3850.0542117544278
 20
-1664.842790460963
 30
0.0
 11
3854.5393552315691
 21
-1660.357646983821
 31
0.0
1001
ACAD
1010
0.0
1020
0.0
1030
0.0
  0
LINE
  5
26570
  8
1HATCH
 10
3850.0542117544278
 20
-1673.823046582032
 30
0.0
 11
3862.4925104804179
 21
-1661.3847478560431
 31
0.0
1001
ACAD
1010
0.0
1020
0.0
1030
0.0
  0
LINE
  5
26571
  8
1HATCH
 10
3850.0542117544278
 20
-1682.8033027031011
 30
0.0
 11
3870.0542117544269
 21
-1662.8033027031011
 31
0.0
1001
ACAD
1010
0.0
1020
0.0
1030
0.0
  0
LINE
  5
26572
  8
1HATCH
 10
3850.0542117544278
 20
-1691.7835588241701
 30
0.0
 11
3870.0542117544278
 21
-1671.783558824171
 31
0.0
1001
ACAD
1010
0.0
1020
0.0
1030
0.0
  0
LINE
  5
26573
  8
1HATCH
 10
3850.0542117544278
 20
-1700.7638149452389
 30
0.0
 11
3870.0542117544269
 21
-1680.76381494524
 31
0.0
1001
ACAD
1010
0.0
1020
0.0
1030
0.0
  0
LINE
  5
26574
  8
1HATCH
 10
3850.0542117544278
 20
-1709.7440710663091
 30
0.0
 11
3870.0542117544269
 21
-1689.7440710663091
 31
0.0
1001
ACAD
1010
0.0
1020
0.0
1030
0.0
  0
LINE
  5
26575
  8
1HATCH
 10
3850.0542117544278
 20
-1718.7243271873781
 30
0.0
 11
3870.0542117544269
 21
-1698.7243271873781
 31
0.0
1001
ACAD
1010
0.0
1020
0.0
1030
0.0
  0
LINE
  5
26576
  8
1HATCH
 10
3850.0542117544278
 20
-1727.7045833084469
 30
0.0
 11
3870.0542117544269
 21
-1707.7045833084469
 31
0.0
1001
ACAD
1010
0.0
1020
0.0
1030
0.0
  0
LINE
  5
26577
  8
1HATCH
 10
3850.0542117544278
 20
-1736.6848394295159
 30
0.0
 11
3870.0542117544269
 21
-1716.6848394295159
 31
0.0
1001
ACAD
1010
0.0
1020
0.0
1030
0.0
  0
LINE
  5
26578
  8
1HATCH
 10
3850.0542117544278
 20
-1745.6650955505861
 30
0.0
 11
3870.0542117544269
 21
-1725.6650955505861
 31
0.0
1001
ACAD
1010
0.0
1020
0.0
1030
0.0
  0
LINE
  5
26579
  8
1HATCH
 10
3853.3060811933092
 20
-1751.393482232774
 30
0.0
 11
3870.0542117544278
 21
-1734.6453516716549
 31
0.0
1001
ACAD
1010
0.0
1020
0.0
1030
0.0
  0
LINE
  5
2657A
  8
1HATCH
 10
3862.2863373143782
 20
-1751.393482232774
 30
0.0
 11
3870.0542117544278
 21
-1743.625607792723
 31
0.0
1001
ACAD
1010
0.0
1020
0.0
1030
0.0
  0
TEXT
  5
2657B
  8
1DIM
 10
3555.1689370747381
 20
-1765.1761509128539
 30
0.0
 40
3.5
  1
材質：ガラス
  0
TEXT
  5
2657C
  8
1DIM
 10
3542.102270408071
 20
-1771.009484246187
 30
0.0
 40
3.5
  1
仕上げ：各種仕上げ
  0
SOLID
  5
2657D
  8
1DIM
 10
3604.187898598067
 20
-1750.686220955057
 30
0.0
 11
3605.8893326921539
 21
-1749.5833913514491
 31
0.0
 12
3604.6375424745938
 22
-1751.1784250069979
 32
0.0
 13
3604.6375424745938
 23
-1751.1784250069979
 33
0.0
  0
TEXT
  5
2657F
  8
1DIM
 10
3714.2166007307701
 20
-1591.285243661071
 30
0.0
 40
3.5
  1
材質：ステンレス
  0
TEXT
  5
26580
  8
1DIM
 10
3714.2166007307701
 20
-1597.1185769944041
 30
0.0
 40
3.5
  1
仕上げ：各種仕上げ
  0
SOLID
  5
26581
  8
1DIM
 10
3695.0424877259838
 20
-1587.6451423580361
 30
0.0
 11
3693.5391532191588
 21
-1586.284592295855
 31
0.0
 12
3695.402485880918
 22
-1587.0840311632719
 32
0.0
 13
3695.402485880918
 23
-1587.0840311632719
 33
0.0
  0
LINE
  5
26583
  8
1DIM
 10
3601.804211754431
 20
-1614.2517801883021
 30
0.0
 11
3601.804211754431
 21
-1636.2517801883021
 31
0.0
  0
LINE
  5
26584
  8
1DIM
 10
3701.804211754431
 20
-1614.2517801883021
 30
0.0
 11
3701.804211754431
 21
-1636.2517801883021
 31
0.0
  0
LINE
  5
26585
  8
1DIM
 10
3603.804211754431
 20
-1635.2517801883021
 30
0.0
 11
3699.804211754431
 21
-1635.2517801883021
 31
0.0
  0
LINE
  5
26589
  8
1DIM
 10
3782.554211754431
 20
-1771.2517801883
 30
0.0
 11
3760.804211754431
 21
-1771.2517801883
 31
0.0
  0
LINE
  5
2658A
  8
1DIM
 10
3782.5542117544301
 20
-1721.2517801883
 30
0.0
 11
3760.804211754431
 21
-1721.2517801883
 31
0.0
  0
LINE
  5
2658B
  8
1DIM
 10
3761.804211754431
 20
-1769.2517801883009
 30
0.0
 11
3761.804211754431
 21
-1723.2517801883
 31
0.0
  0
LINE
  5
2658F
  8
1DIM
 10
3782.0542117544301
 20
-1721.7517801883
 30
0.0
 11
3782.0542117544301
 21
-1684.2517801883009
 31
0.0
  0
LINE
  5
26590
  8
1DIM
 10
3824.0542117544269
 20
-1685.2517801883009
 30
0.0
 11
3824.0542117544269
 21
-1684.2517801883009
 31
0.0
  0
LINE
  5
26591
  8
1DIM
 10
3784.0542117544301
 20
-1685.2517801883009
 30
0.0
 11
3822.0542117544269
 21
-1685.2517801883009
 31
0.0
  0
LINE
  5
26595
  8
1DIM
 10
3718.804211754431
 20
-1695.2517801883021
 30
0.0
 11
3742.804211754431
 21
-1695.2517801883021
 31
0.0
  0
LINE
  5
26596
  8
1DIM
 10
3696.804211754431
 20
-1771.2517801883
 30
0.0
 11
3742.804211754431
 21
-1771.2517801883
 31
0.0
  0
LINE
  5
26597
  8
1DIM
 10
3741.804211754431
 20
-1697.2517801883021
 30
0.0
 11
3741.804211754431
 21
-1769.2517801883009
 31
0.0
  0
LINE
  5
2659B
  8
1DIM
 10
3581.8042117544328
 20
-1734.2517801883021
 30
0.0
 11
3581.8042117544328
 21
-1792.2517801883009
 31
0.0
  0
LINE
  5
2659C
  8
1DIM
 10
3721.804211754431
 20
-1734.2517801883021
 30
0.0
 11
3721.804211754431
 21
-1792.2517801883009
 31
0.0
  0
LINE
  5
2659D
  8
1DIM
 10
3583.8042117544319
 20
-1791.2517801883009
 30
0.0
 11
3719.804211754431
 21
-1791.2517801883009
 31
0.0
  0
TEXT
  5
265A1
  8
1DIM
 10
3648.0125450877649
 20
-1790.5517801883011
 30
0.0
 40
3.5
  1
140
  0
LINE
  5
265A2
  8
0
  6
BYBLOCK
 10
3719.804211754431
 20
-1790.715881808301
 30
0.0
 11
3721.804211754431
 21
-1791.2517801883009
 31
0.0
  0
LINE
  5
265A3
  8
0
  6
BYBLOCK
 10
3721.804211754431
 20
-1791.2517801883009
 30
0.0
 11
3719.804211754431
 21
-1791.7876785683011
 31
0.0
  0
LINE
  5
265A4
  8
0
  6
BYBLOCK
 10
3721.804211754431
 20
-1791.2517801883009
 30
0.0
 11
3719.804211754431
 21
-1791.2517801883009
 31
0.0
  0
LINE
  5
265A5
  8
0
  6
BYBLOCK
 10
3583.8042117544319
 20
-1791.7876785683011
 30
0.0
 11
3581.8042117544328
 21
-1791.2517801883009
 31
0.0
  0
LINE
  5
265A6
  8
0
  6
BYBLOCK
 10
3581.8042117544328
 20
-1791.2517801883009
 30
0.0
 11
3583.8042117544319
 21
-1790.715881808301
 31
0.0
  0
LINE
  5
265A7
  8
0
  6
BYBLOCK
 10
3581.8042117544328
 20
-1791.2517801883009
 30
0.0
 11
3583.8042117544319
 21
-1791.2517801883009
 31
0.0
  0
TEXT
  5
265A8
  8
1DIM
 10
3741.1042117544321
 20
-1736.168446854967
 30
0.0
 40
3.5
  1
76
 50
90.0
  0
LINE
  5
265A9
  8
0
  6
BYBLOCK
 10
3742.3401101344311
 20
-1769.2517801883009
 30
0.0
 11
3741.804211754431
 21
-1771.2517801883
 31
0.0
  0
LINE
  5
265AA
  8
0
  6
BYBLOCK
 10
3741.804211754431
 20
-1771.2517801883
 30
0.0
 11
3741.2683133744308
 21
-1769.2517801883009
 31
0.0
  0
LINE
  5
265AB
  8
0
  6
BYBLOCK
 10
3741.804211754431
 20
-1771.2517801883
 30
0.0
 11
3741.804211754431
 21
-1769.2517801883009
 31
0.0
  0
LINE
  5
265AC
  8
0
  6
BYBLOCK
 10
3741.2683133744308
 20
-1697.2517801883021
 30
0.0
 11
3741.804211754431
 21
-1695.2517801883021
 31
0.0
  0
LINE
  5
265AD
  8
0
  6
BYBLOCK
 10
3741.804211754431
 20
-1695.2517801883021
 30
0.0
 11
3742.3401101344311
 21
-1697.2517801883021
 31
0.0
  0
LINE
  5
265AE
  8
0
  6
BYBLOCK
 10
3741.804211754431
 20
-1695.2517801883021
 30
0.0
 11
3741.804211754431
 21
-1697.2517801883021
 31
0.0
  0
TEXT
  5
265AF
  8
1DIM
 10
3800.1375450877622
 20
-1684.5517801883011
 30
0.0
 40
3.5
  1
42
  0
LINE
  5
265B0
  8
0
  6
BYBLOCK
 10
3822.0542117544269
 20
-1684.715881808301
 30
0.0
 11
3824.0542117544269
 21
-1685.2517801883009
 31
0.0
  0
LINE
  5
265B1
  8
0
  6
BYBLOCK
 10
3824.0542117544269
 20
-1685.2517801883009
 30
0.0
 11
3822.0542117544269
 21
-1685.7876785683011
 31
0.0
  0
LINE
  5
265B2
  8
0
  6
BYBLOCK
 10
3824.0542117544269
 20
-1685.2517801883009
 30
0.0
 11
3822.0542117544269
 21
-1685.2517801883009
 31
0.0
  0
LINE
  5
265B3
  8
0
  6
BYBLOCK
 10
3784.0542117544301
 20
-1685.7876785683011
 30
0.0
 11
3782.0542117544301
 21
-1685.2517801883009
 31
0.0
  0
LINE
  5
265B4
  8
0
  6
BYBLOCK
 10
3782.0542117544301
 20
-1685.2517801883009
 30
0.0
 11
3784.0542117544301
 21
-1684.715881808301
 31
0.0
  0
LINE
  5
265B5
  8
0
  6
BYBLOCK
 10
3782.0542117544301
 20
-1685.2517801883009
 30
0.0
 11
3784.0542117544301
 21
-1685.2517801883009
 31
0.0
  0
TEXT
  5
265B6
  8
1DIM
 10
3761.1042117544321
 20
-1748.8767801883
 30
0.0
 40
3.5
  1
50
 50
90.0
  0
LINE
  5
265B7
  8
0
  6
BYBLOCK
 10
3761.2683133744322
 20
-1723.2517801883
 30
0.0
 11
3761.804211754431
 21
-1721.2517801883
 31
0.0
  0
LINE
  5
265B8
  8
0
  6
BYBLOCK
 10
3761.804211754431
 20
-1721.2517801883
 30
0.0
 11
3762.3401101344311
 21
-1723.2517801883
 31
0.0
  0
LINE
  5
265B9
  8
0
  6
BYBLOCK
 10
3761.804211754431
 20
-1721.2517801883
 30
0.0
 11
3761.804211754431
 21
-1723.2517801883
 31
0.0
  0
LINE
  5
265BA
  8
0
  6
BYBLOCK
 10
3762.3401101344311
 20
-1769.2517801883009
 30
0.0
 11
3761.804211754431
 21
-1771.2517801883
 31
0.0
  0
LINE
  5
265BB
  8
0
  6
BYBLOCK
 10
3761.804211754431
 20
-1771.2517801883
 30
0.0
 11
3761.2683133744322
 21
-1769.2517801883009
 31
0.0
  0
LINE
  5
265BC
  8
0
  6
BYBLOCK
 10
3761.804211754431
 20
-1771.2517801883
 30
0.0
 11
3761.804211754431
 21
-1769.2517801883009
 31
0.0
  0
TEXT
  5
265BD
  8
1DIM
 10
3648.304211754431
 20
-1634.551780188302
 30
0.0
 40
3.5
  1
100
  0
LINE
  5
265BE
  8
0
  6
BYBLOCK
 10
3699.804211754431
 20
-1634.7158818083019
 30
0.0
 11
3701.804211754431
 21
-1635.2517801883021
 31
0.0
  0
LINE
  5
265BF
  8
0
  6
BYBLOCK
 10
3701.804211754431
 20
-1635.2517801883021
 30
0.0
 11
3699.804211754431
 21
-1635.787678568302
 31
0.0
  0
LINE
  5
265C0
  8
0
  6
BYBLOCK
 10
3701.804211754431
 20
-1635.2517801883021
 30
0.0
 11
3699.804211754431
 21
-1635.2517801883021
 31
0.0
  0
LINE
  5
265C1
  8
0
  6
BYBLOCK
 10
3603.804211754431
 20
-1635.787678568302
 30
0.0
 11
3601.804211754431
 21
-1635.2517801883021
 31
0.0
  0
LINE
  5
265C2
  8
0
  6
BYBLOCK
 10
3601.804211754431
 20
-1635.2517801883021
 30
0.0
 11
3603.804211754431
 21
-1634.7158818083019
 31
0.0
  0
LINE
  5
265C3
  8
0
  6
BYBLOCK
 10
3601.804211754431
 20
-1635.2517801883021
 30
0.0
 11
3603.804211754431
 21
-1635.2517801883021
 31
0.0
  0
LINE
  5
265C4
  8
1DIM
 10
3695.2224868034518
 20
-1587.364586760654
 30
0.0
 11
3711.5166007307698
 21
-1597.8185769944041
 31
0.0
  0
LINE
  5
265C5
  8
1DIM
 10
3711.5166007307698
 20
-1597.8185769944041
 30
0.0
 11
3714.2166007307701
 21
-1597.8185769944041
 31
0.0
  0
LINE
  5
265C6
  8
1DIM
 10
3604.4127205363311
 20
-1750.9323229810279
 30
0.0
 11
3581.6689370747381
 21
-1771.709484246187
 31
0.0
  0
LINE
  5
265C7
  8
1DIM
 10
3581.6689370747381
 20
-1771.709484246187
 30
0.0
 11
3578.9689370747378
 21
-1771.709484246187
 31
0.0
  0
TEXT
  5
265C8
  8
1DIM
 10
3803.1375450877631
 20
-1790.5517801883011
 30
0.0
 40
3.5
  1
51.5
  0
LINE
  5
265C9
  8
0
  6
BYBLOCK
 10
3831.5542117544278
 20
-1790.715881808301
 30
0.0
 11
3833.5542117544269
 21
-1791.2517801883009
 31
0.0
  0
LINE
  5
265CA
  8
0
  6
BYBLOCK
 10
3833.5542117544269
 20
-1791.2517801883009
 30
0.0
 11
3831.5542117544278
 21
-1791.7876785683011
 31
0.0
  0
LINE
  5
265CB
  8
0
  6
BYBLOCK
 10
3833.5542117544269
 20
-1791.2517801883009
 30
0.0
 11
3831.5542117544278
 21
-1791.2517801883009
 31
0.0
  0
LINE
  5
265CC
  8
0
  6
BYBLOCK
 10
3784.054211754431
 20
-1791.7876785683011
 30
0.0
 11
3782.054211754431
 21
-1791.2517801883009
 31
0.0
  0
LINE
  5
265CD
  8
0
  6
BYBLOCK
 10
3782.054211754431
 20
-1791.2517801883009
 30
0.0
 11
3784.054211754431
 21
-1790.715881808301
 31
0.0
  0
LINE
  5
265CE
  8
0
  6
BYBLOCK
 10
3782.054211754431
 20
-1791.2517801883009
 30
0.0
 11
3784.054211754431
 21
-1791.2517801883009
 31
0.0
  0
TEXT
  5
265CF
  8
1DIM
 10
3813.1375450877631
 20
-1800.5517801883011
 30
0.0
 40
3.5
  1
68
  0
LINE
  5
265D0
  8
0
  6
BYBLOCK
 10
3848.0542117544278
 20
-1800.715881808301
 30
0.0
 11
3850.0542117544278
 21
-1801.2517801883009
 31
0.0
  0
LINE
  5
265D1
  8
0
  6
BYBLOCK
 10
3850.0542117544278
 20
-1801.2517801883009
 30
0.0
 11
3848.0542117544278
 21
-1801.7876785683011
 31
0.0
  0
LINE
  5
265D2
  8
0
  6
BYBLOCK
 10
3850.0542117544278
 20
-1801.2517801883009
 30
0.0
 11
3848.0542117544278
 21
-1801.2517801883009
 31
0.0
  0
LINE
  5
265D3
  8
0
  6
BYBLOCK
 10
3784.054211754431
 20
-1801.7876785683011
 30
0.0
 11
3782.054211754431
 21
-1801.2517801883009
 31
0.0
  0
LINE
  5
265D4
  8
0
  6
BYBLOCK
 10
3782.054211754431
 20
-1801.2517801883009
 30
0.0
 11
3784.054211754431
 21
-1800.715881808301
 31
0.0
  0
LINE
  5
265D5
  8
0
  6
BYBLOCK
 10
3782.054211754431
 20
-1801.2517801883009
 30
0.0
 11
3784.054211754431
 21
-1801.2517801883009
 31
0.0
  0
LINE
  5
265D6
  8
1DIM
 10
3714.44913623506
 20
-1723.3564966721849
 30
0.0
 11
3731.3202998722868
 21
-1673.8645831208551
 31
0.0
  0
LINE
  5
265D7
  8
1DIM
 10
3731.3202998722868
 20
-1673.8645831208551
 30
0.0
 11
3734.0202998722871
 21
-1673.8645831208551
 31
0.0
  0
TEXT
  5
265D8
  8
1DIM
 10
3771.1042117544321
 20
-1758.1684468549661
 30
0.0
 40
3.5
  1
32
 50
90.0
  0
LINE
  5
265D9
  8
0
  6
BYBLOCK
 10
3771.2683133744308
 20
-1741.2517801882991
 30
0.0
 11
3771.804211754431
 21
-1739.2517801882991
 31
0.0
  0
LINE
  5
265DA
  8
0
  6
BYBLOCK
 10
3771.804211754431
 20
-1739.2517801882991
 30
0.0
 11
3772.3401101344321
 21
-1741.2517801882991
 31
0.0
  0
LINE
  5
265DB
  8
0
  6
BYBLOCK
 10
3771.804211754431
 20
-1739.2517801882991
 30
0.0
 11
3771.804211754431
 21
-1741.2517801882991
 31
0.0
  0
LINE
  5
265DC
  8
0
  6
BYBLOCK
 10
3772.3401101344321
 20
-1769.2517801883009
 30
0.0
 11
3771.804211754431
 21
-1771.2517801883
 31
0.0
  0
LINE
  5
265DD
  8
0
  6
BYBLOCK
 10
3771.804211754431
 20
-1771.2517801883
 30
0.0
 11
3771.2683133744308
 21
-1769.2517801883009
 31
0.0
  0
LINE
  5
265DE
  8
0
  6
BYBLOCK
 10
3771.804211754431
 20
-1771.2517801883
 30
0.0
 11
3771.804211754431
 21
-1769.2517801883009
 31
0.0
  0
VIEWPORT
  5
57
 67
     1
  8
0
 10
-2.3084472526301449
 20
10.09248672500371
 30
0.0
 40
426.70530166875392
 41
287.36525183178912
 68
     1
 69
     1
1001
ACAD
1000
MVIEW
1002
{
1070
    16
1010
0.0
1020
0.0
1030
0.0
1010
0.0
1020
0.0
1030
1.0
1040
0.0
1040
287.36525183178912
1040
-2.3084472526301449
1040
10.09248672500371
1040
50.0
1040
0.0
1040
0.0
1070
     0
1070
   100
1070
     1
1070
     1
1070
     0
1070
     0
1070
     0
1070
     0
1040
0.0
1040
0.0
1040
0.0
1040
10.0
1040
10.0
1040
10.0
1040
10.0
1070
     0
1002
{
1002
}
1002
}
  0
ENDSEC
  0
EOF
