  0
SECTION
  2
HEADER
  9
$ACADVER
  1
AC1009
  9
$INSBASE
 10
0.0
 20
0.0
 30
0.0
  9
$EXTMIN
 10
3598.6481977600729
 20
-1829.506469427211
 30
0.0
  9
$EXTMAX
 10
3946.633601027203
 20
-1578.006469427205
 30
0.0
  9
$LIMMIN
 10
0.0
 20
0.0
  9
$LIMMAX
 10
420.0
 20
297.0
  9
$ORTHOMODE
 70
     0
  9
$REGENMODE
 70
     1
  9
$FILLMODE
 70
     1
  9
$QTEXTMODE
 70
     0
  9
$MIRRTEXT
 70
     0
  9
$DRAGMODE
 70
     2
  9
$LTSCALE
 40
0.5
  9
$OSMODE
 70
  2175
  9
$ATTMODE
 70
     1
  9
$TEXTSIZE
 40
4.0
  9
$TRACEWID
 40
1.0
  9
$TEXTSTYLE
  7
STANDARD
  9
$CLAYER
  8
1TEXT
  9
$CELTYPE
  6
BYLAYER
  9
$CECOLOR
 62
   256
  9
$DIMSCALE
 40
1.0
  9
$DIMASZ
 40
2.0
  9
$DIMEXO
 40
0.0
  9
$DIMDLI
 40
7.0
  9
$DIMRND
 40
0.0
  9
$DIMDLE
 40
0.0
  9
$DIMEXE
 40
1.0
  9
$DIMTP
 40
0.0
  9
$DIMTM
 40
0.0
  9
$DIMTXT
 40
3.5
  9
$DIMCEN
 40
0.0
  9
$DIMTSZ
 40
0.0
  9
$DIMTOL
 70
     0
  9
$DIMLIM
 70
     0
  9
$DIMTIH
 70
     0
  9
$DIMTOH
 70
     0
  9
$DIMSE1
 70
     0
  9
$DIMSE2
 70
     0
  9
$DIMTAD
 70
     1
  9
$DIMZIN
 70
     8
  9
$DIMBLK
  1

  9
$DIMASO
 70
     1
  9
$DIMSHO
 70
     1
  9
$DIMPOST
  1
 
  9
$DIMAPOST
  1

  9
$DIMALT
 70
     0
  9
$DIMALTD
 70
     2
  9
$DIMALTF
 40
25.399999999999999
  9
$DIMLFAC
 40
1.0
  9
$DIMTOFL
 70
     1
  9
$DIMTVP
 40
0.0
  9
$DIMTIX
 70
     0
  9
$DIMSOXD
 70
     0
  9
$DIMSAH
 70
     1
  9
$DIMBLK1
  1
OPEN30
  9
$DIMBLK2
  1
OPEN30
  9
$DIMSTYLE
  2
NEWX10
  9
$DIMCLRD
 70
   256
  9
$DIMCLRE
 70
   256
  9
$DIMCLRT
 70
   201
  9
$DIMTFAC
 40
0.7
  9
$DIMGAP
 40
0.7
  9
$LUNITS
 70
     2
  9
$LUPREC
 70
     4
  9
$SKETCHINC
 40
1.0
  9
$FILLETRAD
 40
16.0
  9
$AUNITS
 70
     0
  9
$AUPREC
 70
     2
  9
$MENU
  1
acad
  9
$ELEVATION
 40
0.0
  9
$PELEVATION
 40
0.0
  9
$THICKNESS
 40
0.0
  9
$LIMCHECK
 70
     0
  9
$BLIPMODE
 70
     0
  9
$CHAMFERA
 40
1.0
  9
$CHAMFERB
 40
1.0
  9
$SKPOLY
 70
     0
  9
$TDCREATE
 40
2453033.7326634838
  9
$TDUPDATE
 40
2456119.444369386
  9
$TDINDWG
 40
2.5369738656999998
  9
$TDUSRTIMER
 40
2.5369738656999998
  9
$USRTIMER
 70
     1
  9
$ANGBASE
 50
0.0
  9
$ANGDIR
 70
     0
  9
$PDMODE
 70
     0
  9
$PDSIZE
 40
0.0
  9
$PLINEWID
 40
0.0
  9
$COORDS
 70
     2
  9
$SPLFRAME
 70
     0
  9
$SPLINETYPE
 70
     6
  9
$SPLINESEGS
 70
     8
  9
$ATTDIA
 70
     0
  9
$ATTREQ
 70
     1
  9
$HANDLING
 70
     1
  9
$HANDSEED
  5
2683B
  9
$SURFTAB1
 70
     6
  9
$SURFTAB2
 70
     6
  9
$SURFTYPE
 70
     6
  9
$SURFU
 70
     6
  9
$SURFV
 70
     6
  9
$UCSNAME
  2

  9
$UCSORG
 10
0.0
 20
0.0
 30
0.0
  9
$UCSXDIR
 10
1.0
 20
0.0
 30
0.0
  9
$UCSYDIR
 10
0.0
 20
1.0
 30
0.0
  9
$PUCSNAME
  2

  9
$PUCSORG
 10
0.0
 20
0.0
 30
0.0
  9
$PUCSXDIR
 10
1.0
 20
0.0
 30
0.0
  9
$PUCSYDIR
 10
0.0
 20
1.0
 30
0.0
  9
$USERI1
 70
     0
  9
$USERI2
 70
     0
  9
$USERI3
 70
     0
  9
$USERI4
 70
     0
  9
$USERI5
 70
     0
  9
$USERR1
 40
0.0
  9
$USERR2
 40
0.0
  9
$USERR3
 40
0.0
  9
$USERR4
 40
0.0
  9
$USERR5
 40
0.0
  9
$WORLDVIEW
 70
     1
  9
$SHADEDGE
 70
     3
  9
$SHADEDIF
 70
    70
  9
$TILEMODE
 70
     1
  9
$MAXACTVP
 70
    48
  9
$PLIMCHECK
 70
     0
  9
$PEXTMIN
 10
1.0000000000000000E+020
 20
1.0000000000000000E+020
 30
1.0000000000000000E+020
  9
$PEXTMAX
 10
-1.0000000000000000E+020
 20
-1.0000000000000000E+020
 30
-1.0000000000000000E+020
  9
$PLIMMIN
 10
0.0
 20
0.0
  9
$PLIMMAX
 10
420.0
 20
297.0
  9
$UNITMODE
 70
     0
  9
$VISRETAIN
 70
     1
  9
$PLINEGEN
 70
     0
  9
$PSLTSCALE
 70
     1
  0
ENDSEC
  0
SECTION
  2
TABLES
  0
TABLE
  2
VPORT
 70
     1
  0
VPORT
  2
*ACTIVE
 70
     0
 10
0.0
 20
0.0
 11
1.0
 21
1.0
 12
3772.5652464695718
 22
-1703.754576189621
 13
0.0
 23
0.0
 14
10.0
 24
10.0
 15
10.0
 25
10.0
 16
0.0
 26
0.0
 36
1.0
 17
0.0
 27
0.0
 37
0.0
 40
266.96308937536548
 41
1.4848883048620229
 42
50.0
 43
0.0
 44
0.0
 50
0.0
 51
0.0
 71
     0
 72
   100
 73
     1
 74
     1
 75
     0
 76
     0
 77
     0
 78
     0
  0
ENDTAB
  0
TABLE
  2
LTYPE
 70
    16
  0
LTYPE
  2
CONTINUOUS
 70
     0
  3
Solid line
 72
    65
 73
     0
 40
0.0
  0
LTYPE
  2
CENTER2
 70
     0
  3
Center (.5x) ___ _ ___ _ ___ _ ___ _ ___ _ ___
 72
    65
 73
     4
 40
28.574999999999999
 49
19.050000000000001
 49
-3.1749999999999989
 49
3.1749999999999989
 49
-3.1749999999999989
  0
LTYPE
  2
PHANTOM2
 70
     0
  3
Phantom (.5x) ___ _ _ ___ _ _ ___ _ _ ___ _ _
 72
    65
 73
     6
 40
31.75
 49
15.875
 49
-3.1749999999999989
 49
3.1749999999999989
 49
-3.1749999999999989
 49
3.1749999999999989
 49
-3.1749999999999989
  0
ENDTAB
  0
TABLE
  2
LAYER
 70
    47
  0
LAYER
  2
0
 70
     0
 62
     7
  6
CONTINUOUS
  0
LAYER
  2
1CENTER
 70
     0
 62
     7
  6
CENTER2
  0
LAYER
  2
1TEXT
 70
     0
 62
     7
  6
CONTINUOUS
  0
LAYER
  2
1DIM
 70
     0
 62
     7
  6
CONTINUOUS
  0
LAYER
  2
1PHANTOM
 70
     0
 62
     7
  6
PHANTOM2
  0
LAYER
  2
01
 70
     0
 62
     1
  6
CONTINUOUS
  0
LAYER
  2
1HATCH
 70
     0
 62
     7
  6
CONTINUOUS
  0
ENDTAB
  0
TABLE
  2
STYLE
 70
    24
  0
STYLE
  2
STANDARD
 70
     0
 40
0.0
 41
1.0
 50
0.0
 71
     0
 42
4.0
  3
txt.shx
  4
extfont.shx
  0
ENDTAB
  0
TABLE
  2
VIEW
 70
     5
  0
ENDTAB
  0
TABLE
  2
UCS
 70
     0
  0
ENDTAB
  0
TABLE
  2
APPID
 70
    14
  0
APPID
  2
ACAD
 70
     0
  0
APPID
  2
DRAWINGVARIABLESXDATA
 70
     0
  0
APPID
  2
CONTENTTABDATA
 70
     0
  0
APPID
  2
CONTENTCURRENTTAB
 70
     0
  0
APPID
  2
CONTENTBLOCKDESCRIPTION
 70
     0
  0
APPID
  2
CONTENTBLOCKICON
 70
     0
  0
APPID
  2
CONTENTLONGBLOCKNAME
 70
     0
  0
APPID
  2
ACAD_PSEXT
 70
     0
  0
APPID
  2
ACAD_DSTYLE_DIMTEXT_FILL
 70
     0
  0
APPID
  2
ACAD_MLEADERVER
 70
     0
  0
APPID
  2
ACAD_DSTYLE_DIMRADIAL_EXTENSION
 70
     0
  0
APPID
  2
ACADANNOTATIVE
 70
     0
  0
APPID
  2
ACLAYERTOOLS
 70
     0
  0
APPID
  2
ACAD_EXEMPT_FROM_CAD_STANDARDS
 70
     0
  0
ENDTAB
  0
TABLE
  2
DIMSTYLE
 70
    10
  0
DIMSTYLE
  2
NEWX10
 70
     0
  3
 
  4

  5

  6
OPEN30
  7
OPEN30
 40
1.0
 41
2.0
 42
0.0
 43
7.0
 44
1.0
 45
0.0
 46
0.0
 47
0.0
 48
0.0
140
3.5
141
0.0
142
0.0
143
25.399999999999999
144
1.0
145
0.0
146
0.7
147
0.7
 71
     0
 72
     0
 73
     0
 74
     0
 75
     0
 76
     0
 77
     1
 78
     8
170
     0
171
     2
172
     1
173
     1
174
     0
175
     0
176
   256
177
   256
178
   201
  0
ENDTAB
  0
ENDSEC
  0
SECTION
  2
BLOCKS
  0
BLOCK
  8
0
  2
$MODEL_SPACE
 70
     0
 10
0.0
 20
0.0
 30
0.0
  3
$MODEL_SPACE
  1

  0
ENDBLK
  5
1A
  8
0
  0
BLOCK
 67
     1
  8
0
  2
$PAPER_SPACE
 70
     0
 10
0.0
 20
0.0
 30
0.0
  3
$PAPER_SPACE
  1

  0
ENDBLK
  5
17
 67
     1
  8
0
  0
BLOCK
  8
0
  2
_OPEN30
 70
     0
 10
0.0
 20
0.0
 30
0.0
  3
_OPEN30
  1

  0
LINE
  5
44
  8
0
  6
BYBLOCK
 62
     0
 10
-1.0
 20
0.26794919
 30
0.0
 11
0.0
 21
0.0
 31
0.0
  0
LINE
  5
45
  8
0
  6
BYBLOCK
 62
     0
 10
0.0
 20
0.0
 30
0.0
 11
-1.0
 21
-0.26794919
 31
0.0
  0
LINE
  5
46
  8
0
  6
BYBLOCK
 62
     0
 10
0.0
 20
0.0
 30
0.0
 11
-1.0
 21
0.0
 31
0.0
  0
ENDBLK
  5
47
  8
0
  0
ENDSEC
  0
SECTION
  2
ENTITIES
  0
LINE
  5
25395
  8
1DIM
 10
3830.3937987702798
 20
-1617.3774270093811
 30
0.0
 11
3900.3937987702811
 21
-1617.37742700938
 31
0.0
  0
LINE
  5
25396
  8
1DIM
 10
3830.3937987702798
 20
-1610.3774270093811
 30
0.0
 11
3900.3937987702811
 21
-1610.37742700938
 31
0.0
  0
TEXT
  5
25397
  8
1TEXT
 10
3875.993798770281
 20
-1615.8774270093811
 30
0.0
 40
4.0
  1
コード
 72
     1
 11
3882.7937987702808
 21
-1615.8774270093811
 31
0.0
  0
TEXT
  5
25398
  8
1TEXT
 10
3841.7937987702799
 20
-1615.8774270093811
 30
0.0
 40
4.0
  1
仕上げ
 41
0.9
 72
     1
 11
3847.7937987702799
 21
-1615.8774270093811
 31
0.0
  0
LINE
  5
25399
  8
1DIM
 10
3830.3937987702798
 20
-1624.3774270093811
 30
0.0
 11
3900.3937987702811
 21
-1624.3774270093811
 31
0.0
  0
LINE
  5
2539B
  8
1DIM
 10
3830.3937987702798
 20
-1610.3774270093811
 30
0.0
 11
3830.3937987702798
 21
-1624.37742700938
 31
0.0
  0
LINE
  5
2539C
  8
1DIM
 10
3900.3937987702811
 20
-1610.37742700938
 30
0.0
 11
3900.3937987702811
 21
-1624.3774270093811
 31
0.0
  0
TEXT
  5
2539F
  8
1TEXT
 10
3829.1925092872211
 20
-1606.0862977832901
 30
0.0
 40
8.0
  1
GP-114-XT
  0
TEXT
  5
253A1
  8
1TEXT
 10
3836.3271321036132
 20
-1623.09178399303
 30
0.0
 40
4.0
  1
ヘアライン
 72
     1
 11
3847.7937987702799
 21
-1623.09178399303
 31
0.0
  0
TEXT
  5
253A2
  8
1TEXT
 10
3868.3937987702811
 20
-1623.09178399303
 30
0.0
 40
4.0
  1
GP-114-XT
 41
0.9
 72
     1
 11
3882.7937987702808
 21
-1623.09178399303
 31
0.0
  0
LINE
  5
25587
  8
1DIM
 10
3865.3937987702811
 20
-1610.37742700938
 30
0.0
 11
3865.3937987702811
 21
-1624.3774270093811
 31
0.0
  0
LINE
  5
25DC7
  8
01
 10
3649.1481977600729
 20
-1762.5064694272039
 30
0.0
 11
3604.1481977600738
 21
-1762.5064694272039
 31
0.0
  0
ARC
  5
25DC8
  8
01
 10
3604.1481977600738
 20
-1759.506469427205
 30
0.0
 40
3.0
 50
180.0
 51
270.0
  0
LINE
  5
25DC9
  8
01
 10
3601.148197760072
 20
-1723.506469427205
 30
0.0
 11
3601.1481977600729
 21
-1759.506469427205
 31
0.0
  0
ARC
  5
25DCA
  8
01
 10
3604.1481977600729
 20
-1723.506469427205
 30
0.0
 40
3.0
 50
90.0
 51
180.0
  0
LINE
  5
25DCB
  8
01
 10
3652.148197760072
 20
-1723.506469427205
 30
0.0
 11
3652.1481977600738
 21
-1759.506469427205
 31
0.0
  0
ARC
  5
25DCC
  8
01
 10
3649.1481977600729
 20
-1759.506469427205
 30
0.0
 40
3.0
 50
270.0
 51
0.0
  0
LINE
  5
25DCD
  8
01
 10
3650.8981977600729
 20
-1720.506469427205
 30
0.0
 11
3604.1481977600729
 21
-1720.506469427205
 31
0.0
  0
ARC
  5
25DCE
  8
01
 10
3649.148197760072
 20
-1723.506469427205
 30
0.0
 40
3.0
 50
0.0
 51
90.0
  0
CIRCLE
  5
25DF0
  8
01
 10
3646.8981977600738
 20
-1727.506469427208
 30
0.0
 40
4.2500000000009086
  0
CIRCLE
  5
25DF2
  8
01
 10
3646.8981977600729
 20
-1755.506469427208
 30
0.0
 40
4.2500000000009086
  0
ARC
  5
25E10
  8
01
 10
3632.1481977600738
 20
-1825.506469427211
 30
0.0
 40
4.0
 50
90.0
 51
270.0
  0
LINE
  5
25E12
  8
01
 10
3632.1481977600738
 20
-1829.506469427211
 30
0.0
 11
3710.1481977600729
 21
-1829.506469427211
 31
0.0
  0
LINE
  5
25E13
  8
01
 10
3632.1481977600738
 20
-1821.506469427211
 30
0.0
 11
3710.1481977600729
 21
-1821.506469427211
 31
0.0
  0
ARC
  5
25E14
  8
01
 10
3710.1481977600729
 20
-1825.506469427211
 30
0.0
 40
4.0
 50
270.0
 51
90.0
  0
LINE
  5
25E16
  8
01
 10
3650.8981977600738
 20
-1720.506469427211
 30
0.0
 11
3650.8981977600738
 21
-1721.069770841005
 31
0.0
  0
LINE
  5
25E17
  8
01
 10
3650.8981977600738
 20
-1761.943168013406
 30
0.0
 11
3650.8981977600761
 21
-1821.506469427211
 31
0.0
  0
LINE
  5
25E18
  8
01
 10
3642.8981977600761
 20
-1762.5064694272039
 30
0.0
 11
3642.8981977600752
 21
-1821.506469427211
 31
0.0
  0
LINE
  5
25E19
  8
01
 10
3650.3622993752151
 20
-1720.506469427211
 30
0.0
 11
3650.3622993752151
 21
-1720.7631216059999
 31
0.0
  0
LINE
  5
25E1A
  8
01
 10
3650.3622993752119
 20
-1762.2498172484111
 30
0.0
 11
3650.3622993752119
 21
-1762.756469427211
 31
0.0
  0
LINE
  5
25E1B
  8
01
 10
3643.4340961449361
 20
-1762.5064694272039
 30
0.0
 11
3643.4340961449361
 21
-1762.75646942721
 31
0.0
  0
LINE
  5
25E1C
  8
01
 10
3650.3622993752119
 20
-1762.756469427211
 30
0.0
 11
3643.4340961449352
 21
-1762.75646942721
 31
0.0
  0
CIRCLE
  5
25E1E
  8
01
 10
3619.898197760072
 20
-1727.506469427208
 30
0.0
 40
2.5000000000002269
  0
CIRCLE
  5
25E1F
  8
01
 10
3619.898197760072
 20
-1727.506469427208
 30
0.0
 40
4.2500000000009086
  0
CIRCLE
  5
25E21
  8
01
 10
3619.8981977600702
 20
-1755.506469427208
 30
0.0
 40
2.5000000000002269
  0
CIRCLE
  5
25E22
  8
01
 10
3619.8981977600702
 20
-1755.506469427208
 30
0.0
 40
4.2500000000009086
  0
LINE
  5
25E24
  8
01
 10
3693.1481977600729
 20
-1762.5064694272039
 30
0.0
 11
3738.1481977600738
 21
-1762.5064694272039
 31
0.0
  0
ARC
  5
25E25
  8
01
 10
3738.1481977600738
 20
-1759.506469427205
 30
0.0
 40
3.0
 50
270.0
 51
0.0
  0
LINE
  5
25E26
  8
01
 10
3741.1481977600738
 20
-1723.506469427205
 30
0.0
 11
3741.1481977600738
 21
-1759.506469427205
 31
0.0
  0
ARC
  5
25E27
  8
01
 10
3738.1481977600738
 20
-1723.506469427205
 30
0.0
 40
3.0
 50
0.0
 51
90.0
  0
LINE
  5
25E28
  8
01
 10
3690.1481977600761
 20
-1723.506469427205
 30
0.0
 11
3690.1481977600729
 21
-1759.506469427205
 31
0.0
  0
ARC
  5
25E29
  8
01
 10
3693.1481977600729
 20
-1759.506469427205
 30
0.0
 40
3.0
 50
180.0
 51
270.0
  0
LINE
  5
25E2A
  8
01
 10
3691.3981977600738
 20
-1720.506469427205
 30
0.0
 11
3738.1481977600738
 21
-1720.506469427205
 31
0.0
  0
ARC
  5
25E2B
  8
01
 10
3693.1481977600761
 20
-1723.506469427205
 30
0.0
 40
3.0
 50
90.0
 51
180.0
  0
CIRCLE
  5
25E2E
  8
01
 10
3695.3981977600729
 20
-1727.506469427208
 30
0.0
 40
4.2500000000009086
  0
CIRCLE
  5
25E30
  8
01
 10
3695.3981977600738
 20
-1755.506469427208
 30
0.0
 40
4.2500000000009086
  0
LINE
  5
25E3C
  8
01
 10
3691.3981977600729
 20
-1720.506469427211
 30
0.0
 11
3691.3981977600729
 21
-1721.069770841005
 31
0.0
  0
LINE
  5
25E3D
  8
01
 10
3691.3981977600729
 20
-1761.943168013406
 30
0.0
 11
3691.3981977600711
 21
-1821.506469427211
 31
0.0
  0
LINE
  5
25E3E
  8
01
 10
3699.3981977600702
 20
-1762.5064694272039
 30
0.0
 11
3699.398197760072
 21
-1821.506469427211
 31
0.0
  0
LINE
  5
25E3F
  8
01
 10
3691.9340961449329
 20
-1720.506469427211
 30
0.0
 11
3691.9340961449329
 21
-1720.7631216059999
 31
0.0
  0
LINE
  5
25E40
  8
01
 10
3691.9340961449352
 20
-1762.2498172484111
 30
0.0
 11
3691.9340961449338
 21
-1762.756469427211
 31
0.0
  0
LINE
  5
25E41
  8
01
 10
3698.862299375211
 20
-1762.5064694272039
 30
0.0
 11
3698.862299375211
 21
-1762.75646942721
 31
0.0
  0
LINE
  5
25E42
  8
01
 10
3691.9340961449338
 20
-1762.756469427211
 30
0.0
 11
3698.8622993752119
 21
-1762.75646942721
 31
0.0
  0
CIRCLE
  5
25E44
  8
01
 10
3722.3981977600752
 20
-1727.506469427208
 30
0.0
 40
2.5000000000002269
  0
CIRCLE
  5
25E45
  8
01
 10
3722.3981977600752
 20
-1727.506469427208
 30
0.0
 40
4.2500000000009086
  0
CIRCLE
  5
25E47
  8
01
 10
3722.398197760077
 20
-1755.506469427208
 30
0.0
 40
2.5000000000002269
  0
CIRCLE
  5
25E48
  8
01
 10
3722.398197760077
 20
-1755.506469427208
 30
0.0
 40
4.2500000000009086
  0
LINE
  5
25E68
  8
01
 10
3625.6481977600711
 20
-1734.506469427205
 30
0.0
 11
3625.6481977600679
 21
-1748.506469427205
 31
0.0
  0
LINE
  5
25E69
  8
01
 10
3641.648197760072
 20
-1734.506469427205
 30
0.0
 11
3641.6481977600729
 21
-1748.506469427205
 31
0.0
  0
LINE
  5
25E6A
  8
01
 10
3625.6481977600711
 20
-1734.506469427205
 30
0.0
 11
3641.648197760072
 21
-1734.506469427205
 31
0.0
  0
LINE
  5
25E6B
  8
01
 10
3625.6481977600679
 20
-1748.506469427205
 30
0.0
 11
3641.6481977600729
 21
-1748.506469427205
 31
0.0
  0
LINE
  5
25E6C
  8
01
 10
3716.6481977600761
 20
-1734.506469427205
 30
0.0
 11
3716.6481977600788
 21
-1748.506469427205
 31
0.0
  0
LINE
  5
25E6D
  8
01
 10
3700.6481977600752
 20
-1734.506469427205
 30
0.0
 11
3700.6481977600729
 21
-1748.506469427205
 31
0.0
  0
LINE
  5
25E6E
  8
01
 10
3716.6481977600761
 20
-1734.506469427205
 30
0.0
 11
3700.6481977600752
 21
-1734.506469427205
 31
0.0
  0
LINE
  5
25E6F
  8
01
 10
3716.6481977600788
 20
-1748.506469427205
 30
0.0
 11
3700.6481977600729
 21
-1748.506469427205
 31
0.0
  0
ARC
  5
25E70
  8
01
 10
3609.1481977600738
 20
-1741.506469427205
 30
0.0
 40
6.5
 50
305.23441798457458
 51
54.765582015433111
  0
ARC
  5
25E71
  8
01
 10
3609.1481977600738
 20
-1741.506469427205
 30
0.0
 40
6.5
 50
125.2344179845949
 51
234.76558201542539
  0
LINE
  5
25E72
  8
01
 10
3605.3981977600738
 20
-1755.006469427205
 30
0.0
 11
3605.3981977600738
 21
-1746.815659572603
 31
0.0
  0
ARC
  5
25E73
  8
01
 10
3609.1481977600738
 20
-1755.006469427205
 30
0.0
 40
3.75
 50
180.0
 51
0.0
  0
LINE
  5
25E74
  8
01
 10
3612.8981977600738
 20
-1755.006469427205
 30
0.0
 11
3612.8981977600729
 21
-1746.815659572603
 31
0.0
  0
LINE
  5
25E77
  8
01
 10
3605.3981977600729
 20
-1728.006469427205
 30
0.0
 11
3605.3981977600729
 21
-1736.1972792818069
 31
0.0
  0
ARC
  5
25E78
  8
01
 10
3609.1481977600729
 20
-1728.006469427205
 30
0.0
 40
3.75
 50
0.0
 51
180.0
  0
LINE
  5
25E79
  8
01
 10
3612.8981977600729
 20
-1728.006469427205
 30
0.0
 11
3612.8981977600729
 21
-1736.1972792818051
 31
0.0
  0
ARC
  5
25E7A
  8
01
 10
3733.1481977600729
 20
-1741.506469427205
 30
0.0
 40
6.5
 50
125.2344179845669
 51
234.76558201542539
  0
ARC
  5
25E7B
  8
01
 10
3733.1481977600729
 20
-1741.506469427205
 30
0.0
 40
6.5
 50
305.23441798457458
 51
54.765582015405101
  0
LINE
  5
25E7C
  8
01
 10
3736.8981977600729
 20
-1755.006469427205
 30
0.0
 11
3736.8981977600729
 21
-1746.815659572603
 31
0.0
  0
ARC
  5
25E7D
  8
01
 10
3733.1481977600729
 20
-1755.006469427205
 30
0.0
 40
3.75
 50
180.0
 51
0.0
  0
LINE
  5
25E7E
  8
01
 10
3729.3981977600738
 20
-1755.006469427205
 30
0.0
 11
3729.3981977600738
 21
-1746.815659572603
 31
0.0
  0
LINE
  5
25E81
  8
01
 10
3736.8981977600752
 20
-1728.006469427205
 30
0.0
 11
3736.8981977600752
 21
-1736.1972792818069
 31
0.0
  0
ARC
  5
25E82
  8
01
 10
3733.1481977600752
 20
-1728.006469427205
 30
0.0
 40
3.75
 50
0.0
 51
180.0
  0
LINE
  5
25E83
  8
01
 10
3729.3981977600752
 20
-1728.006469427205
 30
0.0
 11
3729.3981977600752
 21
-1736.1972792818051
 31
0.0
  0
LINE
  5
25EC3
  8
01
 10
3908.1336010272021
 20
-1731.006469427206
 30
0.0
 11
3908.1336010272021
 21
-1755.506469427206
 31
0.0
  0
LINE
  5
25EC4
  8
01
 10
3908.133601027203
 20
-1757.006469427206
 30
0.0
 11
3908.1336010272021
 21
-1762.506469427206
 31
0.0
  0
LINE
  5
25EC5
  8
01
 10
3908.133601027203
 20
-1720.506469427206
 30
0.0
 11
3910.133601027203
 21
-1720.506469427206
 31
0.0
  0
LINE
  5
25EC6
  8
01
 10
3908.1336010271989
 20
-1762.506469427205
 30
0.0
 11
3908.133601027203
 21
-1720.506469427206
 31
0.0
  0
LINE
  5
25EC7
  8
01
 10
3910.133601027198
 20
-1762.756469427206
 30
0.0
 11
3910.133601027208
 21
-1720.506469427206
 31
0.0
  0
LINE
  5
25EC8
  8
01
 10
3908.1336010271998
 20
-1762.506469427205
 30
0.0
 11
3910.1336010271998
 21
-1762.506469427206
 31
0.0
  0
ARC
  5
25EC9
  8
01
 10
3807.6336010272021
 20
-1825.506469427206
 30
0.0
 40
4.0
 50
90.0
 51
270.0
  0
LINE
  5
25ECB
  8
01
 10
3807.6336010272021
 20
-1829.506469427206
 30
0.0
 11
3900.133601027203
 21
-1829.506469427206
 31
0.0
  0
LINE
  5
25ECC
  8
01
 10
3807.6336010272021
 20
-1821.506469427206
 30
0.0
 11
3900.133601027203
 21
-1821.506469427206
 31
0.0
  0
LINE
  5
25ECD
  8
01
 10
3910.1336010272039
 20
-1720.506469427206
 30
0.0
 11
3916.1336010272021
 21
-1720.506469427206
 31
0.0
  0
LINE
  5
25ED0
  8
01
 10
3908.1336010272021
 20
-1762.756469427206
 30
0.0
 11
3908.1336010272021
 21
-1813.506469427206
 31
0.0
  0
ARC
  5
25ED1
  8
01
 10
3900.133601027203
 20
-1813.506469427206
 30
0.0
 40
8.0
 50
270.0
 51
0.0
  0
LINE
  5
25ED2
  8
01
 10
3916.1336010272021
 20
-1720.506469427206
 30
0.0
 11
3916.133601027203
 21
-1813.506469427206
 31
0.0
  0
ARC
  5
25ED3
  8
01
 10
3900.133601027203
 20
-1813.506469427206
 30
0.0
 40
16.0
 50
270.0
 51
0.0
  0
LINE
  5
25ED4
  8
01
 10
3908.1336010271998
 20
-1762.756469427206
 30
0.0
 11
3910.1336010271998
 21
-1762.756469427206
 31
0.0
  0
ARC
  5
25EF4
  8
01
 10
3671.1481977600738
 20
-1647.506469427205
 30
0.0
 40
43.0
 50
135.29876512716501
 51
44.701234872835542
  0
ARC
  5
25EF5
  8
01
 10
3671.1481977600738
 20
-1647.506469427205
 30
0.0
 40
35.0
 50
135.29876512716501
 51
44.701234872835542
  0
LINE
  5
25F07
  8
01
 10
3601.148197760072
 20
-1586.006469427203
 30
0.0
 11
3601.148197760072
 21
-1584.006469427203
 31
0.0
  0
LINE
  5
25F09
  8
01
 10
3652.148197760072
 20
-1586.006469427203
 30
0.0
 11
3652.148197760072
 21
-1584.006469427203
 31
0.0
  0
LINE
  5
25F0A
  8
01
 10
3652.148197760072
 20
-1586.006469427203
 30
0.0
 11
3601.148197760072
 21
-1586.006469427203
 31
0.0
  0
LINE
  5
25F0B
  8
01
 10
3652.148197760072
 20
-1584.006469427203
 30
0.0
 11
3601.148197760072
 21
-1584.006469427203
 31
0.0
  0
ARC
  5
25F0C
  8
01
 10
3646.8981977600738
 20
-1582.006469427205
 30
0.0
 40
4.0
 50
330.0000000000353
 51
209.9999999999647
  0
LINE
  5
25F0D
  8
01
 10
3642.8981977600738
 20
-1582.006469427205
 30
0.0
 11
3642.8981977600738
 21
-1584.006469427203
 31
0.0
  0
LINE
  5
25F0E
  8
01
 10
3650.8981977600738
 20
-1582.006469427205
 30
0.0
 11
3650.8981977600738
 21
-1584.006469427203
 31
0.0
  0
LINE
  5
25F0F
  8
01
 10
3650.8981977600738
 20
-1586.006469427203
 30
0.0
 11
3650.8981977600738
 21
-1611.632558293903
 31
0.0
  0
LINE
  5
25F10
  8
01
 10
3642.8981977600738
 20
-1586.006469427203
 30
0.0
 11
3642.8981977600738
 21
-1611.632558293903
 31
0.0
  0
LINE
  5
25F11
  8
01
 10
3741.1481977600738
 20
-1586.006469427203
 30
0.0
 11
3741.1481977600738
 21
-1584.006469427203
 31
0.0
  0
LINE
  5
25F12
  8
01
 10
3690.1481977600761
 20
-1586.006469427203
 30
0.0
 11
3690.1481977600761
 21
-1584.006469427203
 31
0.0
  0
LINE
  5
25F13
  8
01
 10
3690.1481977600761
 20
-1586.006469427203
 30
0.0
 11
3741.1481977600738
 21
-1586.006469427203
 31
0.0
  0
LINE
  5
25F14
  8
01
 10
3690.1481977600761
 20
-1584.006469427203
 30
0.0
 11
3741.1481977600738
 21
-1584.006469427203
 31
0.0
  0
ARC
  5
25F15
  8
01
 10
3695.3981977600729
 20
-1582.006469427205
 30
0.0
 40
4.0
 50
330.00000000004189
 51
209.99999999995811
  0
LINE
  5
25F16
  8
01
 10
3699.3981977600729
 20
-1582.006469427205
 30
0.0
 11
3699.3981977600729
 21
-1584.006469427203
 31
0.0
  0
LINE
  5
25F17
  8
01
 10
3699.3981977600729
 20
-1586.006469427203
 30
0.0
 11
3699.3981977600729
 21
-1611.632558293903
 31
0.0
  0
LINE
  5
25F18
  8
01
 10
3691.3981977600729
 20
-1582.006469427205
 30
0.0
 11
3691.3981977600729
 21
-1584.006469427203
 31
0.0
  0
LINE
  5
25F19
  8
01
 10
3691.3981977600729
 20
-1586.006469427203
 30
0.0
 11
3691.3981977600729
 21
-1611.632558293903
 31
0.0
  0
ARC
  5
25F1A
  8
01
 10
3707.3981977600729
 20
-1611.632558293903
 30
0.0
 40
8.0
 50
180.0
 51
224.7012348728355
  0
ARC
  5
25F1B
  8
01
 10
3634.8981977600738
 20
-1611.632558293903
 30
0.0
 40
8.0
 50
315.29876512716447
 51
0.0
  0
ARC
  5
25F1C
  8
01
 10
3707.3981977600729
 20
-1611.632558293903
 30
0.0
 40
16.0
 50
180.0
 51
224.7012348728355
  0
ARC
  5
25F1D
  8
01
 10
3634.8981977600752
 20
-1611.632558293903
 30
0.0
 40
16.0
 50
315.29876512716498
 51
0.0
  0
LINE
  5
2617C
  8
1PHANTOM
 10
3905.6336010272021
 20
-1682.8813820311041
 30
0.0
 11
3905.6336010272021
 21
-1763.5064694272021
 31
0.0
  0
LINE
  5
2617D
  8
1PHANTOM
 10
3900.6336010272021
 20
-1686.3311347590241
 30
0.0
 11
3900.6336010272021
 21
-1763.5064694272021
 31
0.0
  0
LINE
  5
2617E
  8
1PHANTOM
 10
3901.6336010272021
 20
-1764.506469427201
 30
0.0
 11
3900.6336010272021
 21
-1763.5064694272021
 31
0.0
  0
LINE
  5
2617F
  8
1PHANTOM
 10
3901.6336010272021
 20
-1764.506469427201
 30
0.0
 11
3904.6336010272021
 21
-1764.506469427201
 31
0.0
  0
LINE
  5
26180
  8
1PHANTOM
 10
3905.6336010272021
 20
-1763.5064694272021
 30
0.0
 11
3904.6336010272021
 21
-1764.506469427201
 31
0.0
  0
LINE
  5
26181
  8
1PHANTOM
 10
3905.6336010272021
 20
-1762.506469427203
 30
0.0
 11
3906.6336010272021
 21
-1762.506469427203
 31
0.0
  0
LINE
  5
26182
  8
1PHANTOM
 10
3905.6336010272021
 20
-1682.8813820311029
 30
0.0
 11
3905.6336010272021
 21
-1762.506469427203
 31
0.0
  0
LINE
  5
26183
  8
1PHANTOM
 10
3906.6336010272021
 20
-1682.338354674936
 30
0.0
 11
3906.6336010272021
 21
-1762.506469427203
 31
0.0
  0
LINE
  5
26184
  8
1PHANTOM
 10
3598.6481977600729
 20
-1697.8109443706369
 30
0.0
 11
3598.6481977600729
 21
-1759.5064694272021
 31
0.0
  0
ARC
  5
26185
  8
1PHANTOM
 10
3603.6481977600729
 20
-1759.5064694272021
 30
0.0
 40
5.0
 50
180.0
 51
270.0
  0
LINE
  5
26186
  8
1PHANTOM
 10
3743.6481977600729
 20
-1697.0083890976359
 30
0.0
 11
3743.6481977600729
 21
-1759.5064694272021
 31
0.0
  0
ARC
  5
26187
  8
1PHANTOM
 10
3738.6481977600729
 20
-1759.5064694272021
 30
0.0
 40
5.0
 50
270.0
 51
0.0
  0
LINE
  5
26188
  8
1PHANTOM
 10
3603.6481977600738
 20
-1764.506469427201
 30
0.0
 11
3738.6481977600729
 21
-1764.506469427201
 31
0.0
  0
LINE
  5
2618A
  8
1PHANTOM
 10
3926.6336010272021
 20
-1776.648171471677
 30
0.0
 11
3926.6336010272021
 21
-1684.031063714247
 31
0.0
  0
LINE
  5
2618B
  8
1PHANTOM
 10
3946.633601027203
 20
-1776.648171471677
 30
0.0
 11
3946.633601027203
 21
-1684.9654507548471
 31
0.0
  0
LINE
  5
2618C
  8
1PHANTOM
 10
3909.3836010272021
 20
-1712.7564694272039
 30
0.0
 11
3909.3836010272021
 21
-1715.5064694272039
 31
0.0
  0
LINE
  5
2618D
  8
1PHANTOM
 10
3925.6336010272021
 20
-1715.5064694272039
 30
0.0
 11
3909.3836010272021
 21
-1715.5064694272039
 31
0.0
  0
ARC
  5
2618E
  8
1PHANTOM
 10
3925.6336010272021
 20
-1714.5064694272039
 30
0.0
 40
1.0
 50
270.0
 51
0.0
  0
LINE
  5
2618F
  8
1PHANTOM
 10
3906.6336010272021
 20
-1712.7564694272039
 30
0.0
 11
3909.3836010272021
 21
-1712.7564694272039
 31
0.0
  0
LINE
  5
26194
  8
1PHANTOM
 10
3909.3836010272021
 20
-1713.0064694272039
 30
0.0
 11
3908.1336010272021
 21
-1713.0064694272039
 31
0.0
  0
LINE
  5
26195
  8
1PHANTOM
 10
3909.3836010272021
 20
-1714.5064694272039
 30
0.0
 11
3908.1336010272021
 21
-1714.5064694272039
 31
0.0
  0
ARC
  5
26196
  8
1PHANTOM
 10
3908.1336010272021
 20
-1714.5064694272039
 30
0.0
 40
1.5
 50
90.0
 51
180.0
  0
LINE
  5
26197
  8
1PHANTOM
 10
3908.1336010272021
 20
-1714.5064694272039
 30
0.0
 11
3908.1336010272021
 21
-1762.5064694272039
 31
0.0
  0
LINE
  5
2619A
  8
1PHANTOM
 10
3906.6336010272039
 20
-1762.5064694272039
 30
0.0
 11
3908.1336010272021
 21
-1762.5064694272039
 31
0.0
  0
LINE
  5
2619D
  8
1PHANTOM
 10
3910.133601027203
 20
-1736.006469427205
 30
0.0
 11
3910.3836010272021
 21
-1736.006469427205
 31
0.0
  0
LINE
  5
2619E
  8
1PHANTOM
 10
3910.133601027203
 20
-1734.506469427205
 30
0.0
 11
3910.3836010272021
 21
-1734.506469427205
 31
0.0
  0
LINE
  5
2619F
  8
1PHANTOM
 10
3918.1336010272021
 20
-1748.006469427205
 30
0.0
 11
3917.633601027203
 21
-1747.506469427205
 31
0.0
  0
LINE
  5
261A0
  8
1PHANTOM
 10
3917.633601027203
 20
-1747.506469427205
 30
0.0
 11
3913.3336010272019
 21
-1747.5064694272039
 31
0.0
  0
LINE
  5
261A1
  8
1PHANTOM
 10
3918.1336010272021
 20
-1748.006469427205
 30
0.0
 11
3918.1336010272021
 21
-1753.006469427205
 31
0.0
  0
LINE
  5
261A2
  8
1PHANTOM
 10
3917.633601027203
 20
-1753.506469427205
 30
0.0
 11
3918.1336010272021
 21
-1753.006469427205
 31
0.0
  0
LINE
  5
261A3
  8
1PHANTOM
 10
3917.633601027203
 20
-1753.506469427205
 30
0.0
 11
3917.633601027203
 21
-1747.506469427205
 31
0.0
  0
LINE
  5
261A4
  8
1PHANTOM
 10
3918.1336010272021
 20
-1748.006469427205
 30
0.0
 11
3913.3336010272019
 21
-1748.006469427205
 31
0.0
  0
LINE
  5
261A5
  8
1PHANTOM
 10
3918.1336010272021
 20
-1753.006469427205
 30
0.0
 11
3913.3336010272019
 21
-1753.006469427205
 31
0.0
  0
LINE
  5
261A6
  8
1PHANTOM
 10
3917.633601027203
 20
-1753.506469427205
 30
0.0
 11
3913.3336010272019
 21
-1753.506469427206
 31
0.0
  0
ARC
  5
261A7
  8
1PHANTOM
 10
3910.3836010272021
 20
-1734.506469427205
 30
0.0
 40
1.5
 50
270.0
 51
340.52877936550419
  0
LINE
  5
261A8
  8
1PHANTOM
 10
3910.3836010272021
 20
-1734.506469427205
 30
0.0
 11
3911.3836010272021
 21
-1731.6780423024579
 31
0.0
  0
LINE
  5
261A9
  8
1PHANTOM
 10
3911.7978145895759
 20
-1735.006469427205
 30
0.0
 11
3912.7978145895759
 21
-1732.1780423024579
 31
0.0
  0
LINE
  5
261AA
  8
1PHANTOM
 10
3912.7978145895759
 20
-1732.1780423024579
 30
0.0
 11
3911.3836010272021
 21
-1731.6780423024579
 31
0.0
  0
POLYLINE
  8
1PHANTOM
  5
266B7
  66
     1
 10
0.000000
 20
0.000000
 30
0.000000
  70
     8
  0
VERTEX
  8
1PHANTOM
  5
266B8
 10
3900.63
 20
-1686.33
 30
0.000000
  70
    32
  0
VERTEX
  8
1PHANTOM
  5
266B9
 10
3900.85
 20
-1686.16
 30
0.000000
  70
    32
  0
VERTEX
  8
1PHANTOM
  5
266BA
 10
3901.07
 20
-1685.99
 30
0.000000
  70
    32
  0
VERTEX
  8
1PHANTOM
  5
266BB
 10
3901.29
 20
-1685.83
 30
0.000000
  70
    32
  0
VERTEX
  8
1PHANTOM
  5
266BC
 10
3901.50
 20
-1685.66
 30
0.000000
  70
    32
  0
VERTEX
  8
1PHANTOM
  5
266BD
 10
3901.72
 20
-1685.50
 30
0.000000
  70
    32
  0
VERTEX
  8
1PHANTOM
  5
266BE
 10
3901.94
 20
-1685.33
 30
0.000000
  70
    32
  0
VERTEX
  8
1PHANTOM
  5
266BF
 10
3902.16
 20
-1685.17
 30
0.000000
  70
    32
  0
VERTEX
  8
1PHANTOM
  5
266C0
 10
3902.37
 20
-1685.01
 30
0.000000
  70
    32
  0
VERTEX
  8
1PHANTOM
  5
266C1
 10
3902.59
 20
-1684.85
 30
0.000000
  70
    32
  0
VERTEX
  8
1PHANTOM
  5
266C2
 10
3902.81
 20
-1684.70
 30
0.000000
  70
    32
  0
VERTEX
  8
1PHANTOM
  5
266C3
 10
3903.03
 20
-1684.54
 30
0.000000
  70
    32
  0
VERTEX
  8
1PHANTOM
  5
266C4
 10
3903.25
 20
-1684.39
 30
0.000000
  70
    32
  0
VERTEX
  8
1PHANTOM
  5
266C5
 10
3903.47
 20
-1684.24
 30
0.000000
  70
    32
  0
VERTEX
  8
1PHANTOM
  5
266C6
 10
3903.69
 20
-1684.09
 30
0.000000
  70
    32
  0
VERTEX
  8
1PHANTOM
  5
266C7
 10
3903.91
 20
-1683.95
 30
0.000000
  70
    32
  0
VERTEX
  8
1PHANTOM
  5
266C8
 10
3904.13
 20
-1683.80
 30
0.000000
  70
    32
  0
VERTEX
  8
1PHANTOM
  5
266C9
 10
3904.35
 20
-1683.66
 30
0.000000
  70
    32
  0
VERTEX
  8
1PHANTOM
  5
266CA
 10
3904.57
 20
-1683.52
 30
0.000000
  70
    32
  0
VERTEX
  8
1PHANTOM
  5
266CB
 10
3904.79
 20
-1683.38
 30
0.000000
  70
    32
  0
VERTEX
  8
1PHANTOM
  5
266CC
 10
3905.01
 20
-1683.25
 30
0.000000
  70
    32
  0
VERTEX
  8
1PHANTOM
  5
266CD
 10
3905.23
 20
-1683.12
 30
0.000000
  70
    32
  0
VERTEX
  8
1PHANTOM
  5
266CE
 10
3905.45
 20
-1682.99
 30
0.000000
  70
    32
  0
VERTEX
  8
1PHANTOM
  5
266CF
 10
3905.67
 20
-1682.86
 30
0.000000
  70
    32
  0
VERTEX
  8
1PHANTOM
  5
266D0
 10
3905.90
 20
-1682.73
 30
0.000000
  70
    32
  0
VERTEX
  8
1PHANTOM
  5
266D1
 10
3906.12
 20
-1682.61
 30
0.000000
  70
    32
  0
VERTEX
  8
1PHANTOM
  5
266D2
 10
3906.34
 20
-1682.49
 30
0.000000
  70
    32
  0
VERTEX
  8
1PHANTOM
  5
266D3
 10
3906.56
 20
-1682.37
 30
0.000000
  70
    32
  0
VERTEX
  8
1PHANTOM
  5
266D4
 10
3906.79
 20
-1682.26
 30
0.000000
  70
    32
  0
VERTEX
  8
1PHANTOM
  5
266D5
 10
3907.01
 20
-1682.15
 30
0.000000
  70
    32
  0
VERTEX
  8
1PHANTOM
  5
266D6
 10
3907.23
 20
-1682.04
 30
0.000000
  70
    32
  0
VERTEX
  8
1PHANTOM
  5
266D7
 10
3907.46
 20
-1681.94
 30
0.000000
  70
    32
  0
VERTEX
  8
1PHANTOM
  5
266D8
 10
3907.68
 20
-1681.83
 30
0.000000
  70
    32
  0
VERTEX
  8
1PHANTOM
  5
266D9
 10
3907.91
 20
-1681.73
 30
0.000000
  70
    32
  0
VERTEX
  8
1PHANTOM
  5
266DA
 10
3908.13
 20
-1681.64
 30
0.000000
  70
    32
  0
VERTEX
  8
1PHANTOM
  5
266DB
 10
3908.36
 20
-1681.55
 30
0.000000
  70
    32
  0
VERTEX
  8
1PHANTOM
  5
266DC
 10
3908.58
 20
-1681.46
 30
0.000000
  70
    32
  0
VERTEX
  8
1PHANTOM
  5
266DD
 10
3908.81
 20
-1681.37
 30
0.000000
  70
    32
  0
VERTEX
  8
1PHANTOM
  5
266DE
 10
3909.04
 20
-1681.29
 30
0.000000
  70
    32
  0
VERTEX
  8
1PHANTOM
  5
266DF
 10
3909.26
 20
-1681.21
 30
0.000000
  70
    32
  0
VERTEX
  8
1PHANTOM
  5
266E0
 10
3909.49
 20
-1681.13
 30
0.000000
  70
    32
  0
VERTEX
  8
1PHANTOM
  5
266E1
 10
3909.72
 20
-1681.06
 30
0.000000
  70
    32
  0
VERTEX
  8
1PHANTOM
  5
266E2
 10
3909.95
 20
-1680.99
 30
0.000000
  70
    32
  0
VERTEX
  8
1PHANTOM
  5
266E3
 10
3910.18
 20
-1680.93
 30
0.000000
  70
    32
  0
VERTEX
  8
1PHANTOM
  5
266E4
 10
3910.41
 20
-1680.87
 30
0.000000
  70
    32
  0
VERTEX
  8
1PHANTOM
  5
266E5
 10
3910.64
 20
-1680.81
 30
0.000000
  70
    32
  0
VERTEX
  8
1PHANTOM
  5
266E6
 10
3910.87
 20
-1680.75
 30
0.000000
  70
    32
  0
VERTEX
  8
1PHANTOM
  5
266E7
 10
3911.10
 20
-1680.70
 30
0.000000
  70
    32
  0
VERTEX
  8
1PHANTOM
  5
266E8
 10
3911.33
 20
-1680.66
 30
0.000000
  70
    32
  0
VERTEX
  8
1PHANTOM
  5
266E9
 10
3911.56
 20
-1680.62
 30
0.000000
  70
    32
  0
VERTEX
  8
1PHANTOM
  5
266EA
 10
3911.79
 20
-1680.58
 30
0.000000
  70
    32
  0
VERTEX
  8
1PHANTOM
  5
266EB
 10
3912.02
 20
-1680.55
 30
0.000000
  70
    32
  0
VERTEX
  8
1PHANTOM
  5
266EC
 10
3912.25
 20
-1680.52
 30
0.000000
  70
    32
  0
VERTEX
  8
1PHANTOM
  5
266ED
 10
3912.49
 20
-1680.49
 30
0.000000
  70
    32
  0
VERTEX
  8
1PHANTOM
  5
266EE
 10
3912.72
 20
-1680.47
 30
0.000000
  70
    32
  0
VERTEX
  8
1PHANTOM
  5
266EF
 10
3912.96
 20
-1680.46
 30
0.000000
  70
    32
  0
VERTEX
  8
1PHANTOM
  5
266F0
 10
3913.19
 20
-1680.44
 30
0.000000
  70
    32
  0
VERTEX
  8
1PHANTOM
  5
266F1
 10
3913.42
 20
-1680.44
 30
0.000000
  70
    32
  0
VERTEX
  8
1PHANTOM
  5
266F2
 10
3913.66
 20
-1680.43
 30
0.000000
  70
    32
  0
VERTEX
  8
1PHANTOM
  5
266F3
 10
3913.90
 20
-1680.43
 30
0.000000
  70
    32
  0
VERTEX
  8
1PHANTOM
  5
266F4
 10
3914.13
 20
-1680.44
 30
0.000000
  70
    32
  0
VERTEX
  8
1PHANTOM
  5
266F5
 10
3914.37
 20
-1680.45
 30
0.000000
  70
    32
  0
VERTEX
  8
1PHANTOM
  5
266F6
 10
3914.61
 20
-1680.46
 30
0.000000
  70
    32
  0
VERTEX
  8
1PHANTOM
  5
266F7
 10
3914.84
 20
-1680.48
 30
0.000000
  70
    32
  0
VERTEX
  8
1PHANTOM
  5
266F8
 10
3915.08
 20
-1680.50
 30
0.000000
  70
    32
  0
VERTEX
  8
1PHANTOM
  5
266F9
 10
3915.32
 20
-1680.52
 30
0.000000
  70
    32
  0
VERTEX
  8
1PHANTOM
  5
266FA
 10
3915.56
 20
-1680.55
 30
0.000000
  70
    32
  0
VERTEX
  8
1PHANTOM
  5
266FB
 10
3915.80
 20
-1680.58
 30
0.000000
  70
    32
  0
VERTEX
  8
1PHANTOM
  5
266FC
 10
3916.04
 20
-1680.61
 30
0.000000
  70
    32
  0
VERTEX
  8
1PHANTOM
  5
266FD
 10
3916.28
 20
-1680.65
 30
0.000000
  70
    32
  0
VERTEX
  8
1PHANTOM
  5
266FE
 10
3916.52
 20
-1680.69
 30
0.000000
  70
    32
  0
VERTEX
  8
1PHANTOM
  5
266FF
 10
3916.76
 20
-1680.74
 30
0.000000
  70
    32
  0
VERTEX
  8
1PHANTOM
  5
26700
 10
3917.00
 20
-1680.78
 30
0.000000
  70
    32
  0
VERTEX
  8
1PHANTOM
  5
26701
 10
3917.25
 20
-1680.83
 30
0.000000
  70
    32
  0
VERTEX
  8
1PHANTOM
  5
26702
 10
3917.49
 20
-1680.88
 30
0.000000
  70
    32
  0
VERTEX
  8
1PHANTOM
  5
26703
 10
3917.73
 20
-1680.94
 30
0.000000
  70
    32
  0
VERTEX
  8
1PHANTOM
  5
26704
 10
3917.97
 20
-1681.00
 30
0.000000
  70
    32
  0
VERTEX
  8
1PHANTOM
  5
26705
 10
3918.22
 20
-1681.06
 30
0.000000
  70
    32
  0
VERTEX
  8
1PHANTOM
  5
26706
 10
3918.46
 20
-1681.12
 30
0.000000
  70
    32
  0
VERTEX
  8
1PHANTOM
  5
26707
 10
3918.70
 20
-1681.19
 30
0.000000
  70
    32
  0
VERTEX
  8
1PHANTOM
  5
26708
 10
3918.95
 20
-1681.25
 30
0.000000
  70
    32
  0
VERTEX
  8
1PHANTOM
  5
26709
 10
3919.19
 20
-1681.32
 30
0.000000
  70
    32
  0
VERTEX
  8
1PHANTOM
  5
2670A
 10
3919.44
 20
-1681.40
 30
0.000000
  70
    32
  0
VERTEX
  8
1PHANTOM
  5
2670B
 10
3919.68
 20
-1681.47
 30
0.000000
  70
    32
  0
VERTEX
  8
1PHANTOM
  5
2670C
 10
3919.93
 20
-1681.55
 30
0.000000
  70
    32
  0
VERTEX
  8
1PHANTOM
  5
2670D
 10
3920.17
 20
-1681.62
 30
0.000000
  70
    32
  0
VERTEX
  8
1PHANTOM
  5
2670E
 10
3920.42
 20
-1681.70
 30
0.000000
  70
    32
  0
VERTEX
  8
1PHANTOM
  5
2670F
 10
3920.67
 20
-1681.79
 30
0.000000
  70
    32
  0
VERTEX
  8
1PHANTOM
  5
26710
 10
3920.91
 20
-1681.87
 30
0.000000
  70
    32
  0
VERTEX
  8
1PHANTOM
  5
26711
 10
3921.16
 20
-1681.95
 30
0.000000
  70
    32
  0
VERTEX
  8
1PHANTOM
  5
26712
 10
3921.41
 20
-1682.04
 30
0.000000
  70
    32
  0
VERTEX
  8
1PHANTOM
  5
26713
 10
3921.66
 20
-1682.13
 30
0.000000
  70
    32
  0
VERTEX
  8
1PHANTOM
  5
26714
 10
3921.90
 20
-1682.22
 30
0.000000
  70
    32
  0
VERTEX
  8
1PHANTOM
  5
26715
 10
3922.15
 20
-1682.31
 30
0.000000
  70
    32
  0
VERTEX
  8
1PHANTOM
  5
26716
 10
3922.40
 20
-1682.40
 30
0.000000
  70
    32
  0
VERTEX
  8
1PHANTOM
  5
26717
 10
3922.65
 20
-1682.49
 30
0.000000
  70
    32
  0
VERTEX
  8
1PHANTOM
  5
26718
 10
3922.90
 20
-1682.58
 30
0.000000
  70
    32
  0
VERTEX
  8
1PHANTOM
  5
26719
 10
3923.14
 20
-1682.68
 30
0.000000
  70
    32
  0
VERTEX
  8
1PHANTOM
  5
2671A
 10
3923.39
 20
-1682.77
 30
0.000000
  70
    32
  0
VERTEX
  8
1PHANTOM
  5
2671B
 10
3923.64
 20
-1682.87
 30
0.000000
  70
    32
  0
VERTEX
  8
1PHANTOM
  5
2671C
 10
3923.89
 20
-1682.96
 30
0.000000
  70
    32
  0
VERTEX
  8
1PHANTOM
  5
2671D
 10
3924.14
 20
-1683.06
 30
0.000000
  70
    32
  0
VERTEX
  8
1PHANTOM
  5
2671E
 10
3924.39
 20
-1683.16
 30
0.000000
  70
    32
  0
VERTEX
  8
1PHANTOM
  5
2671F
 10
3924.64
 20
-1683.25
 30
0.000000
  70
    32
  0
VERTEX
  8
1PHANTOM
  5
26720
 10
3924.89
 20
-1683.35
 30
0.000000
  70
    32
  0
VERTEX
  8
1PHANTOM
  5
26721
 10
3925.14
 20
-1683.45
 30
0.000000
  70
    32
  0
VERTEX
  8
1PHANTOM
  5
26722
 10
3925.39
 20
-1683.55
 30
0.000000
  70
    32
  0
VERTEX
  8
1PHANTOM
  5
26723
 10
3925.64
 20
-1683.65
 30
0.000000
  70
    32
  0
VERTEX
  8
1PHANTOM
  5
26724
 10
3925.89
 20
-1683.74
 30
0.000000
  70
    32
  0
VERTEX
  8
1PHANTOM
  5
26725
 10
3926.14
 20
-1683.84
 30
0.000000
  70
    32
  0
VERTEX
  8
1PHANTOM
  5
26726
 10
3926.40
 20
-1683.94
 30
0.000000
  70
    32
  0
VERTEX
  8
1PHANTOM
  5
26727
 10
3926.65
 20
-1684.04
 30
0.000000
  70
    32
  0
VERTEX
  8
1PHANTOM
  5
26728
 10
3926.90
 20
-1684.13
 30
0.000000
  70
    32
  0
VERTEX
  8
1PHANTOM
  5
26729
 10
3927.15
 20
-1684.23
 30
0.000000
  70
    32
  0
VERTEX
  8
1PHANTOM
  5
2672A
 10
3927.40
 20
-1684.32
 30
0.000000
  70
    32
  0
VERTEX
  8
1PHANTOM
  5
2672B
 10
3927.65
 20
-1684.42
 30
0.000000
  70
    32
  0
VERTEX
  8
1PHANTOM
  5
2672C
 10
3927.90
 20
-1684.51
 30
0.000000
  70
    32
  0
VERTEX
  8
1PHANTOM
  5
2672D
 10
3928.15
 20
-1684.61
 30
0.000000
  70
    32
  0
VERTEX
  8
1PHANTOM
  5
2672E
 10
3928.41
 20
-1684.70
 30
0.000000
  70
    32
  0
VERTEX
  8
1PHANTOM
  5
2672F
 10
3928.66
 20
-1684.79
 30
0.000000
  70
    32
  0
VERTEX
  8
1PHANTOM
  5
26730
 10
3928.91
 20
-1684.88
 30
0.000000
  70
    32
  0
VERTEX
  8
1PHANTOM
  5
26731
 10
3929.16
 20
-1684.97
 30
0.000000
  70
    32
  0
VERTEX
  8
1PHANTOM
  5
26732
 10
3929.41
 20
-1685.06
 30
0.000000
  70
    32
  0
VERTEX
  8
1PHANTOM
  5
26733
 10
3929.67
 20
-1685.14
 30
0.000000
  70
    32
  0
VERTEX
  8
1PHANTOM
  5
26734
 10
3929.92
 20
-1685.23
 30
0.000000
  70
    32
  0
VERTEX
  8
1PHANTOM
  5
26735
 10
3930.17
 20
-1685.31
 30
0.000000
  70
    32
  0
VERTEX
  8
1PHANTOM
  5
26736
 10
3930.42
 20
-1685.40
 30
0.000000
  70
    32
  0
VERTEX
  8
1PHANTOM
  5
26737
 10
3930.67
 20
-1685.48
 30
0.000000
  70
    32
  0
VERTEX
  8
1PHANTOM
  5
26738
 10
3930.93
 20
-1685.55
 30
0.000000
  70
    32
  0
VERTEX
  8
1PHANTOM
  5
26739
 10
3931.18
 20
-1685.63
 30
0.000000
  70
    32
  0
VERTEX
  8
1PHANTOM
  5
2673A
 10
3931.43
 20
-1685.70
 30
0.000000
  70
    32
  0
VERTEX
  8
1PHANTOM
  5
2673B
 10
3931.68
 20
-1685.78
 30
0.000000
  70
    32
  0
VERTEX
  8
1PHANTOM
  5
2673C
 10
3931.93
 20
-1685.85
 30
0.000000
  70
    32
  0
VERTEX
  8
1PHANTOM
  5
2673D
 10
3932.19
 20
-1685.92
 30
0.000000
  70
    32
  0
VERTEX
  8
1PHANTOM
  5
2673E
 10
3932.44
 20
-1685.98
 30
0.000000
  70
    32
  0
VERTEX
  8
1PHANTOM
  5
2673F
 10
3932.69
 20
-1686.04
 30
0.000000
  70
    32
  0
VERTEX
  8
1PHANTOM
  5
26740
 10
3932.94
 20
-1686.11
 30
0.000000
  70
    32
  0
VERTEX
  8
1PHANTOM
  5
26741
 10
3933.19
 20
-1686.16
 30
0.000000
  70
    32
  0
VERTEX
  8
1PHANTOM
  5
26742
 10
3933.44
 20
-1686.22
 30
0.000000
  70
    32
  0
VERTEX
  8
1PHANTOM
  5
26743
 10
3933.70
 20
-1686.27
 30
0.000000
  70
    32
  0
VERTEX
  8
1PHANTOM
  5
26744
 10
3933.95
 20
-1686.32
 30
0.000000
  70
    32
  0
VERTEX
  8
1PHANTOM
  5
26745
 10
3934.20
 20
-1686.37
 30
0.000000
  70
    32
  0
VERTEX
  8
1PHANTOM
  5
26746
 10
3934.45
 20
-1686.41
 30
0.000000
  70
    32
  0
VERTEX
  8
1PHANTOM
  5
26747
 10
3934.70
 20
-1686.46
 30
0.000000
  70
    32
  0
VERTEX
  8
1PHANTOM
  5
26748
 10
3934.95
 20
-1686.49
 30
0.000000
  70
    32
  0
VERTEX
  8
1PHANTOM
  5
26749
 10
3935.20
 20
-1686.53
 30
0.000000
  70
    32
  0
VERTEX
  8
1PHANTOM
  5
2674A
 10
3935.46
 20
-1686.56
 30
0.000000
  70
    32
  0
VERTEX
  8
1PHANTOM
  5
2674B
 10
3935.71
 20
-1686.59
 30
0.000000
  70
    32
  0
VERTEX
  8
1PHANTOM
  5
2674C
 10
3935.96
 20
-1686.61
 30
0.000000
  70
    32
  0
VERTEX
  8
1PHANTOM
  5
2674D
 10
3936.21
 20
-1686.63
 30
0.000000
  70
    32
  0
VERTEX
  8
1PHANTOM
  5
2674E
 10
3936.46
 20
-1686.65
 30
0.000000
  70
    32
  0
VERTEX
  8
1PHANTOM
  5
2674F
 10
3936.71
 20
-1686.66
 30
0.000000
  70
    32
  0
VERTEX
  8
1PHANTOM
  5
26750
 10
3936.96
 20
-1686.68
 30
0.000000
  70
    32
  0
VERTEX
  8
1PHANTOM
  5
26751
 10
3937.21
 20
-1686.68
 30
0.000000
  70
    32
  0
VERTEX
  8
1PHANTOM
  5
26752
 10
3937.46
 20
-1686.69
 30
0.000000
  70
    32
  0
VERTEX
  8
1PHANTOM
  5
26753
 10
3937.71
 20
-1686.69
 30
0.000000
  70
    32
  0
VERTEX
  8
1PHANTOM
  5
26754
 10
3937.96
 20
-1686.69
 30
0.000000
  70
    32
  0
VERTEX
  8
1PHANTOM
  5
26755
 10
3938.21
 20
-1686.68
 30
0.000000
  70
    32
  0
VERTEX
  8
1PHANTOM
  5
26756
 10
3938.46
 20
-1686.67
 30
0.000000
  70
    32
  0
VERTEX
  8
1PHANTOM
  5
26757
 10
3938.71
 20
-1686.66
 30
0.000000
  70
    32
  0
VERTEX
  8
1PHANTOM
  5
26758
 10
3938.95
 20
-1686.65
 30
0.000000
  70
    32
  0
VERTEX
  8
1PHANTOM
  5
26759
 10
3939.20
 20
-1686.63
 30
0.000000
  70
    32
  0
VERTEX
  8
1PHANTOM
  5
2675A
 10
3939.45
 20
-1686.61
 30
0.000000
  70
    32
  0
VERTEX
  8
1PHANTOM
  5
2675B
 10
3939.70
 20
-1686.59
 30
0.000000
  70
    32
  0
VERTEX
  8
1PHANTOM
  5
2675C
 10
3939.95
 20
-1686.56
 30
0.000000
  70
    32
  0
VERTEX
  8
1PHANTOM
  5
2675D
 10
3940.20
 20
-1686.53
 30
0.000000
  70
    32
  0
VERTEX
  8
1PHANTOM
  5
2675E
 10
3940.45
 20
-1686.50
 30
0.000000
  70
    32
  0
VERTEX
  8
1PHANTOM
  5
2675F
 10
3940.70
 20
-1686.47
 30
0.000000
  70
    32
  0
VERTEX
  8
1PHANTOM
  5
26760
 10
3940.94
 20
-1686.43
 30
0.000000
  70
    32
  0
VERTEX
  8
1PHANTOM
  5
26761
 10
3941.19
 20
-1686.39
 30
0.000000
  70
    32
  0
VERTEX
  8
1PHANTOM
  5
26762
 10
3941.44
 20
-1686.35
 30
0.000000
  70
    32
  0
VERTEX
  8
1PHANTOM
  5
26763
 10
3941.69
 20
-1686.31
 30
0.000000
  70
    32
  0
VERTEX
  8
1PHANTOM
  5
26764
 10
3941.94
 20
-1686.26
 30
0.000000
  70
    32
  0
VERTEX
  8
1PHANTOM
  5
26765
 10
3942.19
 20
-1686.21
 30
0.000000
  70
    32
  0
VERTEX
  8
1PHANTOM
  5
26766
 10
3942.43
 20
-1686.16
 30
0.000000
  70
    32
  0
VERTEX
  8
1PHANTOM
  5
26767
 10
3942.68
 20
-1686.10
 30
0.000000
  70
    32
  0
VERTEX
  8
1PHANTOM
  5
26768
 10
3942.93
 20
-1686.05
 30
0.000000
  70
    32
  0
VERTEX
  8
1PHANTOM
  5
26769
 10
3943.18
 20
-1685.99
 30
0.000000
  70
    32
  0
VERTEX
  8
1PHANTOM
  5
2676A
 10
3943.42
 20
-1685.93
 30
0.000000
  70
    32
  0
VERTEX
  8
1PHANTOM
  5
2676B
 10
3943.67
 20
-1685.87
 30
0.000000
  70
    32
  0
VERTEX
  8
1PHANTOM
  5
2676C
 10
3943.92
 20
-1685.80
 30
0.000000
  70
    32
  0
VERTEX
  8
1PHANTOM
  5
2676D
 10
3944.17
 20
-1685.74
 30
0.000000
  70
    32
  0
VERTEX
  8
1PHANTOM
  5
2676E
 10
3944.41
 20
-1685.67
 30
0.000000
  70
    32
  0
VERTEX
  8
1PHANTOM
  5
2676F
 10
3944.66
 20
-1685.60
 30
0.000000
  70
    32
  0
VERTEX
  8
1PHANTOM
  5
26770
 10
3944.91
 20
-1685.52
 30
0.000000
  70
    32
  0
VERTEX
  8
1PHANTOM
  5
26771
 10
3945.15
 20
-1685.45
 30
0.000000
  70
    32
  0
VERTEX
  8
1PHANTOM
  5
26772
 10
3945.40
 20
-1685.37
 30
0.000000
  70
    32
  0
VERTEX
  8
1PHANTOM
  5
26773
 10
3945.65
 20
-1685.29
 30
0.000000
  70
    32
  0
VERTEX
  8
1PHANTOM
  5
26774
 10
3945.89
 20
-1685.21
 30
0.000000
  70
    32
  0
VERTEX
  8
1PHANTOM
  5
26775
 10
3946.14
 20
-1685.13
 30
0.000000
  70
    32
  0
VERTEX
  8
1PHANTOM
  5
26776
 10
3946.39
 20
-1685.05
 30
0.000000
  70
    32
  0
VERTEX
  8
1PHANTOM
  5
26777
 10
3946.63
 20
-1684.97
 30
0.000000
  70
    32
  0
SEQEND
  8
1PHANTOM
  5
26778
  0
LINE
  5
261B9
  8
1PHANTOM
 10
3910.1336010272021
 20
-1744.7329667353081
 30
0.0
 11
3913.3336010272019
 21
-1744.7329667353081
 31
0.0
  0
LINE
  5
261BA
  8
1PHANTOM
 10
3913.3336010272019
 20
-1744.7329667353081
 30
0.0
 11
3913.3336010272019
 21
-1756.2799721191011
 31
0.0
  0
LINE
  5
261BB
  8
1PHANTOM
 10
3910.1336010272021
 20
-1756.2799721191011
 30
0.0
 11
3913.3336010272019
 21
-1756.2799721191011
 31
0.0
  0
LINE
  5
261BC
  8
1PHANTOM
 10
3910.1336010272021
 20
-1747.6197180812569
 30
0.0
 11
3913.3336010272019
 21
-1747.619718081256
 31
0.0
  0
LINE
  5
261BD
  8
1PHANTOM
 10
3910.1336010272021
 20
-1753.3932207731521
 30
0.0
 11
3913.3336010272019
 21
-1753.3932207731521
 31
0.0
  0
LINE
  5
261BE
  8
1PHANTOM
 10
3910.1336010272021
 20
-1756.2799721191011
 30
0.0
 11
3910.1336010272021
 21
-1744.7329667353081
 31
0.0
  0
POLYLINE
  8
1PHANTOM
  5
26779
  66
     1
 10
0.000000
 20
0.000000
 30
0.000000
  70
     8
  0
VERTEX
  8
1PHANTOM
  5
2677A
 10
3598.65
 20
-1697.81
 30
0.000000
  70
    32
  0
VERTEX
  8
1PHANTOM
  5
2677B
 10
3599.39
 20
-1697.56
 30
0.000000
  70
    32
  0
VERTEX
  8
1PHANTOM
  5
2677C
 10
3600.13
 20
-1697.31
 30
0.000000
  70
    32
  0
VERTEX
  8
1PHANTOM
  5
2677D
 10
3600.87
 20
-1697.07
 30
0.000000
  70
    32
  0
VERTEX
  8
1PHANTOM
  5
2677E
 10
3601.61
 20
-1696.83
 30
0.000000
  70
    32
  0
VERTEX
  8
1PHANTOM
  5
2677F
 10
3602.35
 20
-1696.59
 30
0.000000
  70
    32
  0
VERTEX
  8
1PHANTOM
  5
26780
 10
3603.09
 20
-1696.35
 30
0.000000
  70
    32
  0
VERTEX
  8
1PHANTOM
  5
26781
 10
3603.83
 20
-1696.12
 30
0.000000
  70
    32
  0
VERTEX
  8
1PHANTOM
  5
26782
 10
3604.58
 20
-1695.89
 30
0.000000
  70
    32
  0
VERTEX
  8
1PHANTOM
  5
26783
 10
3605.32
 20
-1695.66
 30
0.000000
  70
    32
  0
VERTEX
  8
1PHANTOM
  5
26784
 10
3606.06
 20
-1695.44
 30
0.000000
  70
    32
  0
VERTEX
  8
1PHANTOM
  5
26785
 10
3606.80
 20
-1695.22
 30
0.000000
  70
    32
  0
VERTEX
  8
1PHANTOM
  5
26786
 10
3607.54
 20
-1695.01
 30
0.000000
  70
    32
  0
VERTEX
  8
1PHANTOM
  5
26787
 10
3608.29
 20
-1694.80
 30
0.000000
  70
    32
  0
VERTEX
  8
1PHANTOM
  5
26788
 10
3609.03
 20
-1694.59
 30
0.000000
  70
    32
  0
VERTEX
  8
1PHANTOM
  5
26789
 10
3609.77
 20
-1694.39
 30
0.000000
  70
    32
  0
VERTEX
  8
1PHANTOM
  5
2678A
 10
3610.52
 20
-1694.19
 30
0.000000
  70
    32
  0
VERTEX
  8
1PHANTOM
  5
2678B
 10
3611.26
 20
-1694.00
 30
0.000000
  70
    32
  0
VERTEX
  8
1PHANTOM
  5
2678C
 10
3612.00
 20
-1693.81
 30
0.000000
  70
    32
  0
VERTEX
  8
1PHANTOM
  5
2678D
 10
3612.75
 20
-1693.63
 30
0.000000
  70
    32
  0
VERTEX
  8
1PHANTOM
  5
2678E
 10
3613.49
 20
-1693.45
 30
0.000000
  70
    32
  0
VERTEX
  8
1PHANTOM
  5
2678F
 10
3614.24
 20
-1693.28
 30
0.000000
  70
    32
  0
VERTEX
  8
1PHANTOM
  5
26790
 10
3614.98
 20
-1693.11
 30
0.000000
  70
    32
  0
VERTEX
  8
1PHANTOM
  5
26791
 10
3615.73
 20
-1692.95
 30
0.000000
  70
    32
  0
VERTEX
  8
1PHANTOM
  5
26792
 10
3616.47
 20
-1692.80
 30
0.000000
  70
    32
  0
VERTEX
  8
1PHANTOM
  5
26793
 10
3617.22
 20
-1692.65
 30
0.000000
  70
    32
  0
VERTEX
  8
1PHANTOM
  5
26794
 10
3617.97
 20
-1692.51
 30
0.000000
  70
    32
  0
VERTEX
  8
1PHANTOM
  5
26795
 10
3618.71
 20
-1692.37
 30
0.000000
  70
    32
  0
VERTEX
  8
1PHANTOM
  5
26796
 10
3619.46
 20
-1692.24
 30
0.000000
  70
    32
  0
VERTEX
  8
1PHANTOM
  5
26797
 10
3620.21
 20
-1692.12
 30
0.000000
  70
    32
  0
VERTEX
  8
1PHANTOM
  5
26798
 10
3620.95
 20
-1692.01
 30
0.000000
  70
    32
  0
VERTEX
  8
1PHANTOM
  5
26799
 10
3621.70
 20
-1691.90
 30
0.000000
  70
    32
  0
VERTEX
  8
1PHANTOM
  5
2679A
 10
3622.45
 20
-1691.80
 30
0.000000
  70
    32
  0
VERTEX
  8
1PHANTOM
  5
2679B
 10
3623.20
 20
-1691.71
 30
0.000000
  70
    32
  0
VERTEX
  8
1PHANTOM
  5
2679C
 10
3623.95
 20
-1691.62
 30
0.000000
  70
    32
  0
VERTEX
  8
1PHANTOM
  5
2679D
 10
3624.70
 20
-1691.54
 30
0.000000
  70
    32
  0
VERTEX
  8
1PHANTOM
  5
2679E
 10
3625.45
 20
-1691.47
 30
0.000000
  70
    32
  0
VERTEX
  8
1PHANTOM
  5
2679F
 10
3626.20
 20
-1691.41
 30
0.000000
  70
    32
  0
VERTEX
  8
1PHANTOM
  5
267A0
 10
3626.95
 20
-1691.36
 30
0.000000
  70
    32
  0
VERTEX
  8
1PHANTOM
  5
267A1
 10
3627.70
 20
-1691.31
 30
0.000000
  70
    32
  0
VERTEX
  8
1PHANTOM
  5
267A2
 10
3628.45
 20
-1691.27
 30
0.000000
  70
    32
  0
VERTEX
  8
1PHANTOM
  5
267A3
 10
3629.21
 20
-1691.24
 30
0.000000
  70
    32
  0
VERTEX
  8
1PHANTOM
  5
267A4
 10
3629.96
 20
-1691.22
 30
0.000000
  70
    32
  0
VERTEX
  8
1PHANTOM
  5
267A5
 10
3630.71
 20
-1691.20
 30
0.000000
  70
    32
  0
VERTEX
  8
1PHANTOM
  5
267A6
 10
3631.47
 20
-1691.19
 30
0.000000
  70
    32
  0
VERTEX
  8
1PHANTOM
  5
267A7
 10
3632.22
 20
-1691.19
 30
0.000000
  70
    32
  0
VERTEX
  8
1PHANTOM
  5
267A8
 10
3632.97
 20
-1691.19
 30
0.000000
  70
    32
  0
VERTEX
  8
1PHANTOM
  5
267A9
 10
3633.73
 20
-1691.20
 30
0.000000
  70
    32
  0
VERTEX
  8
1PHANTOM
  5
267AA
 10
3634.48
 20
-1691.22
 30
0.000000
  70
    32
  0
VERTEX
  8
1PHANTOM
  5
267AB
 10
3635.24
 20
-1691.24
 30
0.000000
  70
    32
  0
VERTEX
  8
1PHANTOM
  5
267AC
 10
3636.00
 20
-1691.27
 30
0.000000
  70
    32
  0
VERTEX
  8
1PHANTOM
  5
267AD
 10
3636.75
 20
-1691.31
 30
0.000000
  70
    32
  0
VERTEX
  8
1PHANTOM
  5
267AE
 10
3637.51
 20
-1691.35
 30
0.000000
  70
    32
  0
VERTEX
  8
1PHANTOM
  5
267AF
 10
3638.27
 20
-1691.40
 30
0.000000
  70
    32
  0
VERTEX
  8
1PHANTOM
  5
267B0
 10
3639.02
 20
-1691.45
 30
0.000000
  70
    32
  0
VERTEX
  8
1PHANTOM
  5
267B1
 10
3639.78
 20
-1691.51
 30
0.000000
  70
    32
  0
VERTEX
  8
1PHANTOM
  5
267B2
 10
3640.54
 20
-1691.58
 30
0.000000
  70
    32
  0
VERTEX
  8
1PHANTOM
  5
267B3
 10
3641.30
 20
-1691.65
 30
0.000000
  70
    32
  0
VERTEX
  8
1PHANTOM
  5
267B4
 10
3642.05
 20
-1691.72
 30
0.000000
  70
    32
  0
VERTEX
  8
1PHANTOM
  5
267B5
 10
3642.81
 20
-1691.80
 30
0.000000
  70
    32
  0
VERTEX
  8
1PHANTOM
  5
267B6
 10
3643.57
 20
-1691.88
 30
0.000000
  70
    32
  0
VERTEX
  8
1PHANTOM
  5
267B7
 10
3644.33
 20
-1691.97
 30
0.000000
  70
    32
  0
VERTEX
  8
1PHANTOM
  5
267B8
 10
3645.09
 20
-1692.07
 30
0.000000
  70
    32
  0
VERTEX
  8
1PHANTOM
  5
267B9
 10
3645.85
 20
-1692.17
 30
0.000000
  70
    32
  0
VERTEX
  8
1PHANTOM
  5
267BA
 10
3646.61
 20
-1692.27
 30
0.000000
  70
    32
  0
VERTEX
  8
1PHANTOM
  5
267BB
 10
3647.37
 20
-1692.37
 30
0.000000
  70
    32
  0
VERTEX
  8
1PHANTOM
  5
267BC
 10
3648.13
 20
-1692.48
 30
0.000000
  70
    32
  0
VERTEX
  8
1PHANTOM
  5
267BD
 10
3648.89
 20
-1692.60
 30
0.000000
  70
    32
  0
VERTEX
  8
1PHANTOM
  5
267BE
 10
3649.66
 20
-1692.72
 30
0.000000
  70
    32
  0
VERTEX
  8
1PHANTOM
  5
267BF
 10
3650.42
 20
-1692.84
 30
0.000000
  70
    32
  0
VERTEX
  8
1PHANTOM
  5
267C0
 10
3651.18
 20
-1692.96
 30
0.000000
  70
    32
  0
VERTEX
  8
1PHANTOM
  5
267C1
 10
3651.94
 20
-1693.09
 30
0.000000
  70
    32
  0
VERTEX
  8
1PHANTOM
  5
267C2
 10
3652.70
 20
-1693.22
 30
0.000000
  70
    32
  0
VERTEX
  8
1PHANTOM
  5
267C3
 10
3653.47
 20
-1693.36
 30
0.000000
  70
    32
  0
VERTEX
  8
1PHANTOM
  5
267C4
 10
3654.23
 20
-1693.49
 30
0.000000
  70
    32
  0
VERTEX
  8
1PHANTOM
  5
267C5
 10
3654.99
 20
-1693.63
 30
0.000000
  70
    32
  0
VERTEX
  8
1PHANTOM
  5
267C6
 10
3655.75
 20
-1693.78
 30
0.000000
  70
    32
  0
VERTEX
  8
1PHANTOM
  5
267C7
 10
3656.52
 20
-1693.92
 30
0.000000
  70
    32
  0
VERTEX
  8
1PHANTOM
  5
267C8
 10
3657.28
 20
-1694.07
 30
0.000000
  70
    32
  0
VERTEX
  8
1PHANTOM
  5
267C9
 10
3658.04
 20
-1694.22
 30
0.000000
  70
    32
  0
VERTEX
  8
1PHANTOM
  5
267CA
 10
3658.81
 20
-1694.37
 30
0.000000
  70
    32
  0
VERTEX
  8
1PHANTOM
  5
267CB
 10
3659.57
 20
-1694.52
 30
0.000000
  70
    32
  0
VERTEX
  8
1PHANTOM
  5
267CC
 10
3660.34
 20
-1694.68
 30
0.000000
  70
    32
  0
VERTEX
  8
1PHANTOM
  5
267CD
 10
3661.10
 20
-1694.83
 30
0.000000
  70
    32
  0
VERTEX
  8
1PHANTOM
  5
267CE
 10
3661.87
 20
-1694.99
 30
0.000000
  70
    32
  0
VERTEX
  8
1PHANTOM
  5
267CF
 10
3662.63
 20
-1695.15
 30
0.000000
  70
    32
  0
VERTEX
  8
1PHANTOM
  5
267D0
 10
3663.40
 20
-1695.31
 30
0.000000
  70
    32
  0
VERTEX
  8
1PHANTOM
  5
267D1
 10
3664.16
 20
-1695.47
 30
0.000000
  70
    32
  0
VERTEX
  8
1PHANTOM
  5
267D2
 10
3664.93
 20
-1695.64
 30
0.000000
  70
    32
  0
VERTEX
  8
1PHANTOM
  5
267D3
 10
3665.69
 20
-1695.80
 30
0.000000
  70
    32
  0
VERTEX
  8
1PHANTOM
  5
267D4
 10
3666.46
 20
-1695.96
 30
0.000000
  70
    32
  0
VERTEX
  8
1PHANTOM
  5
267D5
 10
3667.22
 20
-1696.13
 30
0.000000
  70
    32
  0
VERTEX
  8
1PHANTOM
  5
267D6
 10
3667.99
 20
-1696.29
 30
0.000000
  70
    32
  0
VERTEX
  8
1PHANTOM
  5
267D7
 10
3668.75
 20
-1696.46
 30
0.000000
  70
    32
  0
VERTEX
  8
1PHANTOM
  5
267D8
 10
3669.52
 20
-1696.62
 30
0.000000
  70
    32
  0
VERTEX
  8
1PHANTOM
  5
267D9
 10
3670.29
 20
-1696.79
 30
0.000000
  70
    32
  0
VERTEX
  8
1PHANTOM
  5
267DA
 10
3671.05
 20
-1696.95
 30
0.000000
  70
    32
  0
VERTEX
  8
1PHANTOM
  5
267DB
 10
3671.82
 20
-1697.12
 30
0.000000
  70
    32
  0
VERTEX
  8
1PHANTOM
  5
267DC
 10
3672.59
 20
-1697.28
 30
0.000000
  70
    32
  0
VERTEX
  8
1PHANTOM
  5
267DD
 10
3673.35
 20
-1697.44
 30
0.000000
  70
    32
  0
VERTEX
  8
1PHANTOM
  5
267DE
 10
3674.12
 20
-1697.60
 30
0.000000
  70
    32
  0
VERTEX
  8
1PHANTOM
  5
267DF
 10
3674.88
 20
-1697.76
 30
0.000000
  70
    32
  0
VERTEX
  8
1PHANTOM
  5
267E0
 10
3675.65
 20
-1697.92
 30
0.000000
  70
    32
  0
VERTEX
  8
1PHANTOM
  5
267E1
 10
3676.42
 20
-1698.08
 30
0.000000
  70
    32
  0
VERTEX
  8
1PHANTOM
  5
267E2
 10
3677.18
 20
-1698.24
 30
0.000000
  70
    32
  0
VERTEX
  8
1PHANTOM
  5
267E3
 10
3677.95
 20
-1698.40
 30
0.000000
  70
    32
  0
VERTEX
  8
1PHANTOM
  5
267E4
 10
3678.72
 20
-1698.55
 30
0.000000
  70
    32
  0
VERTEX
  8
1PHANTOM
  5
267E5
 10
3679.49
 20
-1698.70
 30
0.000000
  70
    32
  0
VERTEX
  8
1PHANTOM
  5
267E6
 10
3680.25
 20
-1698.85
 30
0.000000
  70
    32
  0
VERTEX
  8
1PHANTOM
  5
267E7
 10
3681.02
 20
-1699.00
 30
0.000000
  70
    32
  0
VERTEX
  8
1PHANTOM
  5
267E8
 10
3681.79
 20
-1699.15
 30
0.000000
  70
    32
  0
VERTEX
  8
1PHANTOM
  5
267E9
 10
3682.55
 20
-1699.29
 30
0.000000
  70
    32
  0
VERTEX
  8
1PHANTOM
  5
267EA
 10
3683.32
 20
-1699.43
 30
0.000000
  70
    32
  0
VERTEX
  8
1PHANTOM
  5
267EB
 10
3684.09
 20
-1699.57
 30
0.000000
  70
    32
  0
VERTEX
  8
1PHANTOM
  5
267EC
 10
3684.85
 20
-1699.71
 30
0.000000
  70
    32
  0
VERTEX
  8
1PHANTOM
  5
267ED
 10
3685.62
 20
-1699.84
 30
0.000000
  70
    32
  0
VERTEX
  8
1PHANTOM
  5
267EE
 10
3686.39
 20
-1699.97
 30
0.000000
  70
    32
  0
VERTEX
  8
1PHANTOM
  5
267EF
 10
3687.15
 20
-1700.10
 30
0.000000
  70
    32
  0
VERTEX
  8
1PHANTOM
  5
267F0
 10
3687.92
 20
-1700.22
 30
0.000000
  70
    32
  0
VERTEX
  8
1PHANTOM
  5
267F1
 10
3688.69
 20
-1700.34
 30
0.000000
  70
    32
  0
VERTEX
  8
1PHANTOM
  5
267F2
 10
3689.45
 20
-1700.46
 30
0.000000
  70
    32
  0
VERTEX
  8
1PHANTOM
  5
267F3
 10
3690.22
 20
-1700.57
 30
0.000000
  70
    32
  0
VERTEX
  8
1PHANTOM
  5
267F4
 10
3690.99
 20
-1700.68
 30
0.000000
  70
    32
  0
VERTEX
  8
1PHANTOM
  5
267F5
 10
3691.75
 20
-1700.79
 30
0.000000
  70
    32
  0
VERTEX
  8
1PHANTOM
  5
267F6
 10
3692.52
 20
-1700.89
 30
0.000000
  70
    32
  0
VERTEX
  8
1PHANTOM
  5
267F7
 10
3693.29
 20
-1700.98
 30
0.000000
  70
    32
  0
VERTEX
  8
1PHANTOM
  5
267F8
 10
3694.05
 20
-1701.08
 30
0.000000
  70
    32
  0
VERTEX
  8
1PHANTOM
  5
267F9
 10
3694.82
 20
-1701.16
 30
0.000000
  70
    32
  0
VERTEX
  8
1PHANTOM
  5
267FA
 10
3695.59
 20
-1701.25
 30
0.000000
  70
    32
  0
VERTEX
  8
1PHANTOM
  5
267FB
 10
3696.35
 20
-1701.32
 30
0.000000
  70
    32
  0
VERTEX
  8
1PHANTOM
  5
267FC
 10
3697.12
 20
-1701.40
 30
0.000000
  70
    32
  0
VERTEX
  8
1PHANTOM
  5
267FD
 10
3697.88
 20
-1701.46
 30
0.000000
  70
    32
  0
VERTEX
  8
1PHANTOM
  5
267FE
 10
3698.65
 20
-1701.53
 30
0.000000
  70
    32
  0
VERTEX
  8
1PHANTOM
  5
267FF
 10
3699.42
 20
-1701.58
 30
0.000000
  70
    32
  0
VERTEX
  8
1PHANTOM
  5
26800
 10
3700.18
 20
-1701.63
 30
0.000000
  70
    32
  0
VERTEX
  8
1PHANTOM
  5
26801
 10
3700.95
 20
-1701.68
 30
0.000000
  70
    32
  0
VERTEX
  8
1PHANTOM
  5
26802
 10
3701.71
 20
-1701.72
 30
0.000000
  70
    32
  0
VERTEX
  8
1PHANTOM
  5
26803
 10
3702.48
 20
-1701.75
 30
0.000000
  70
    32
  0
VERTEX
  8
1PHANTOM
  5
26804
 10
3703.24
 20
-1701.78
 30
0.000000
  70
    32
  0
VERTEX
  8
1PHANTOM
  5
26805
 10
3704.01
 20
-1701.80
 30
0.000000
  70
    32
  0
VERTEX
  8
1PHANTOM
  5
26806
 10
3704.77
 20
-1701.82
 30
0.000000
  70
    32
  0
VERTEX
  8
1PHANTOM
  5
26807
 10
3705.54
 20
-1701.83
 30
0.000000
  70
    32
  0
VERTEX
  8
1PHANTOM
  5
26808
 10
3706.30
 20
-1701.83
 30
0.000000
  70
    32
  0
VERTEX
  8
1PHANTOM
  5
26809
 10
3707.07
 20
-1701.83
 30
0.000000
  70
    32
  0
VERTEX
  8
1PHANTOM
  5
2680A
 10
3707.83
 20
-1701.83
 30
0.000000
  70
    32
  0
VERTEX
  8
1PHANTOM
  5
2680B
 10
3708.59
 20
-1701.82
 30
0.000000
  70
    32
  0
VERTEX
  8
1PHANTOM
  5
2680C
 10
3709.36
 20
-1701.80
 30
0.000000
  70
    32
  0
VERTEX
  8
1PHANTOM
  5
2680D
 10
3710.12
 20
-1701.78
 30
0.000000
  70
    32
  0
VERTEX
  8
1PHANTOM
  5
2680E
 10
3710.89
 20
-1701.75
 30
0.000000
  70
    32
  0
VERTEX
  8
1PHANTOM
  5
2680F
 10
3711.65
 20
-1701.72
 30
0.000000
  70
    32
  0
VERTEX
  8
1PHANTOM
  5
26810
 10
3712.41
 20
-1701.69
 30
0.000000
  70
    32
  0
VERTEX
  8
1PHANTOM
  5
26811
 10
3713.18
 20
-1701.65
 30
0.000000
  70
    32
  0
VERTEX
  8
1PHANTOM
  5
26812
 10
3713.94
 20
-1701.60
 30
0.000000
  70
    32
  0
VERTEX
  8
1PHANTOM
  5
26813
 10
3714.70
 20
-1701.55
 30
0.000000
  70
    32
  0
VERTEX
  8
1PHANTOM
  5
26814
 10
3715.47
 20
-1701.49
 30
0.000000
  70
    32
  0
VERTEX
  8
1PHANTOM
  5
26815
 10
3716.23
 20
-1701.44
 30
0.000000
  70
    32
  0
VERTEX
  8
1PHANTOM
  5
26816
 10
3716.99
 20
-1701.37
 30
0.000000
  70
    32
  0
VERTEX
  8
1PHANTOM
  5
26817
 10
3717.76
 20
-1701.30
 30
0.000000
  70
    32
  0
VERTEX
  8
1PHANTOM
  5
26818
 10
3718.52
 20
-1701.23
 30
0.000000
  70
    32
  0
VERTEX
  8
1PHANTOM
  5
26819
 10
3719.28
 20
-1701.16
 30
0.000000
  70
    32
  0
VERTEX
  8
1PHANTOM
  5
2681A
 10
3720.04
 20
-1701.07
 30
0.000000
  70
    32
  0
VERTEX
  8
1PHANTOM
  5
2681B
 10
3720.81
 20
-1700.99
 30
0.000000
  70
    32
  0
VERTEX
  8
1PHANTOM
  5
2681C
 10
3721.57
 20
-1700.90
 30
0.000000
  70
    32
  0
VERTEX
  8
1PHANTOM
  5
2681D
 10
3722.33
 20
-1700.81
 30
0.000000
  70
    32
  0
VERTEX
  8
1PHANTOM
  5
2681E
 10
3723.09
 20
-1700.71
 30
0.000000
  70
    32
  0
VERTEX
  8
1PHANTOM
  5
2681F
 10
3723.86
 20
-1700.61
 30
0.000000
  70
    32
  0
VERTEX
  8
1PHANTOM
  5
26820
 10
3724.62
 20
-1700.51
 30
0.000000
  70
    32
  0
VERTEX
  8
1PHANTOM
  5
26821
 10
3725.38
 20
-1700.40
 30
0.000000
  70
    32
  0
VERTEX
  8
1PHANTOM
  5
26822
 10
3726.14
 20
-1700.29
 30
0.000000
  70
    32
  0
VERTEX
  8
1PHANTOM
  5
26823
 10
3726.90
 20
-1700.18
 30
0.000000
  70
    32
  0
VERTEX
  8
1PHANTOM
  5
26824
 10
3727.67
 20
-1700.06
 30
0.000000
  70
    32
  0
VERTEX
  8
1PHANTOM
  5
26825
 10
3728.43
 20
-1699.94
 30
0.000000
  70
    32
  0
VERTEX
  8
1PHANTOM
  5
26826
 10
3729.19
 20
-1699.82
 30
0.000000
  70
    32
  0
VERTEX
  8
1PHANTOM
  5
26827
 10
3729.95
 20
-1699.70
 30
0.000000
  70
    32
  0
VERTEX
  8
1PHANTOM
  5
26828
 10
3730.71
 20
-1699.57
 30
0.000000
  70
    32
  0
VERTEX
  8
1PHANTOM
  5
26829
 10
3731.47
 20
-1699.44
 30
0.000000
  70
    32
  0
VERTEX
  8
1PHANTOM
  5
2682A
 10
3732.23
 20
-1699.30
 30
0.000000
  70
    32
  0
VERTEX
  8
1PHANTOM
  5
2682B
 10
3733.00
 20
-1699.16
 30
0.000000
  70
    32
  0
VERTEX
  8
1PHANTOM
  5
2682C
 10
3733.76
 20
-1699.02
 30
0.000000
  70
    32
  0
VERTEX
  8
1PHANTOM
  5
2682D
 10
3734.52
 20
-1698.88
 30
0.000000
  70
    32
  0
VERTEX
  8
1PHANTOM
  5
2682E
 10
3735.28
 20
-1698.74
 30
0.000000
  70
    32
  0
VERTEX
  8
1PHANTOM
  5
2682F
 10
3736.04
 20
-1698.59
 30
0.000000
  70
    32
  0
VERTEX
  8
1PHANTOM
  5
26830
 10
3736.80
 20
-1698.44
 30
0.000000
  70
    32
  0
VERTEX
  8
1PHANTOM
  5
26831
 10
3737.56
 20
-1698.29
 30
0.000000
  70
    32
  0
VERTEX
  8
1PHANTOM
  5
26832
 10
3738.32
 20
-1698.14
 30
0.000000
  70
    32
  0
VERTEX
  8
1PHANTOM
  5
26833
 10
3739.08
 20
-1697.98
 30
0.000000
  70
    32
  0
VERTEX
  8
1PHANTOM
  5
26834
 10
3739.84
 20
-1697.82
 30
0.000000
  70
    32
  0
VERTEX
  8
1PHANTOM
  5
26835
 10
3740.61
 20
-1697.66
 30
0.000000
  70
    32
  0
VERTEX
  8
1PHANTOM
  5
26836
 10
3741.37
 20
-1697.50
 30
0.000000
  70
    32
  0
VERTEX
  8
1PHANTOM
  5
26837
 10
3742.13
 20
-1697.34
 30
0.000000
  70
    32
  0
VERTEX
  8
1PHANTOM
  5
26838
 10
3742.89
 20
-1697.17
 30
0.000000
  70
    32
  0
VERTEX
  8
1PHANTOM
  5
26839
 10
3743.65
 20
-1697.01
 30
0.000000
  70
    32
  0
SEQEND
  8
1PHANTOM
  5
2683A
  0
LINE
  5
263CD
  8
1CENTER
 10
3738.1481977600729
 20
-1750.506469427205
 30
0.0
 11
3728.1481977600729
 21
-1750.506469427205
 31
0.0
  0
LINE
  5
263CE
  8
1CENTER
 10
3733.1481977600729
 20
-1755.506469427205
 30
0.0
 11
3733.1481977600729
 21
-1745.506469427205
 31
0.0
  0
CIRCLE
  5
263CF
  8
1PHANTOM
 10
3733.1481977600729
 20
-1750.506469427205
 30
0.0
 40
3.0
  0
LINE
  5
263D0
  8
1CENTER
 10
3604.1481977600752
 20
-1750.506469427205
 30
0.0
 11
3614.1481977600738
 21
-1750.506469427205
 31
0.0
  0
LINE
  5
263D1
  8
1CENTER
 10
3609.1481977600738
 20
-1755.506469427205
 30
0.0
 11
3609.1481977600738
 21
-1745.506469427205
 31
0.0
  0
CIRCLE
  5
263D2
  8
1PHANTOM
 10
3609.1481977600738
 20
-1750.506469427205
 30
0.0
 40
3.0
  0
LINE
  5
265B2
  8
01
 10
3697.5243976286019
 20
-1754.8793515940681
 30
0.0
 11
3696.0253612562751
 21
-1754.8793411302181
 31
0.0
  0
LINE
  5
265B3
  8
01
 10
3696.0253507924849
 20
-1753.3803135129669
 30
0.0
 11
3694.7711108967801
 21
-1753.3803047578911
 31
0.0
  0
LINE
  5
265B4
  8
01
 10
3696.0253507924849
 20
-1753.3803135129669
 30
0.0
 11
3696.0253612562751
 21
-1754.8793411302181
 31
0.0
  0
LINE
  5
265B5
  8
01
 10
3697.5243888735249
 20
-1756.1335914897741
 30
0.0
 11
3697.5243976286019
 21
-1754.8793515940681
 31
0.0
  0
LINE
  5
265B6
  8
01
 10
3697.5243888735249
 20
-1756.1335914897741
 30
0.0
 11
3696.0253700114981
 21
-1756.1336019535031
 31
0.0
  0
LINE
  5
265B7
  8
01
 10
3696.0253700114981
 20
-1756.1336019535031
 30
0.0
 11
3696.0253804753488
 21
-1757.632638326098
 31
0.0
  0
LINE
  5
265B8
  8
01
 10
3694.7710916776441
 20
-1756.133610708848
 30
0.0
 11
3693.2720640603952
 21
-1756.133621172637
 31
0.0
  0
LINE
  5
265B9
  8
01
 10
3694.7710916776441
 20
-1756.133610708848
 30
0.0
 11
3694.7710812139171
 21
-1757.6326295706069
 31
0.0
  0
LINE
  5
265BA
  8
01
 10
3694.7710812139171
 20
-1757.6326295706069
 30
0.0
 11
3696.0253804753488
 21
-1757.632638326098
 31
0.0
  0
LINE
  5
265BB
  8
01
 10
3694.7711004329899
 20
-1754.8793323749951
 30
0.0
 11
3693.2720728158861
 21
-1754.8793219112049
 31
0.0
  0
LINE
  5
265BC
  8
01
 10
3693.2720728158861
 20
-1754.8793219112049
 30
0.0
 11
3693.2720640603952
 21
-1756.133621172637
 31
0.0
  0
LINE
  5
265BD
  8
01
 10
3694.7711108967801
 20
-1753.3803047578911
 30
0.0
 11
3694.7711004329899
 21
-1754.8793323749951
 31
0.0
  0
LINE
  5
265BF
  8
01
 10
3697.5243976286019
 20
-1726.8793515940729
 30
0.0
 11
3696.0253612562751
 21
-1726.8793411302231
 31
0.0
  0
LINE
  5
265C0
  8
01
 10
3696.0253507924849
 20
-1725.380313512972
 30
0.0
 11
3694.7711108967801
 21
-1725.3803047578949
 31
0.0
  0
LINE
  5
265C1
  8
01
 10
3696.0253507924849
 20
-1725.380313512972
 30
0.0
 11
3696.0253612562751
 21
-1726.8793411302231
 31
0.0
  0
LINE
  5
265C2
  8
01
 10
3697.5243888735249
 20
-1728.1335914897791
 30
0.0
 11
3697.5243976286019
 21
-1726.8793515940729
 31
0.0
  0
LINE
  5
265C3
  8
01
 10
3697.5243888735249
 20
-1728.1335914897791
 30
0.0
 11
3696.0253700114981
 21
-1728.133601953507
 31
0.0
  0
LINE
  5
265C4
  8
01
 10
3696.0253700114981
 20
-1728.133601953507
 30
0.0
 11
3696.0253804753488
 21
-1729.632638326103
 31
0.0
  0
LINE
  5
265C5
  8
01
 10
3694.7710916776441
 20
-1728.133610708853
 30
0.0
 11
3693.2720640603952
 21
-1728.1336211726421
 31
0.0
  0
LINE
  5
265C6
  8
01
 10
3694.7710916776441
 20
-1728.133610708853
 30
0.0
 11
3694.7710812139171
 21
-1729.6326295706119
 31
0.0
  0
LINE
  5
265C7
  8
01
 10
3694.7710812139171
 20
-1729.6326295706119
 30
0.0
 11
3696.0253804753488
 21
-1729.632638326103
 31
0.0
  0
LINE
  5
265C8
  8
01
 10
3694.7711004329899
 20
-1726.879332374999
 30
0.0
 11
3693.2720728158861
 21
-1726.8793219112099
 31
0.0
  0
LINE
  5
265C9
  8
01
 10
3693.2720728158861
 20
-1726.8793219112099
 30
0.0
 11
3693.2720640603952
 21
-1728.1336211726421
 31
0.0
  0
LINE
  5
265CA
  8
01
 10
3694.7711108967801
 20
-1725.3803047578949
 30
0.0
 11
3694.7711004329899
 21
-1726.879332374999
 31
0.0
  0
LINE
  5
265CC
  8
01
 10
3644.7719978915452
 20
-1754.8793515940681
 30
0.0
 11
3646.271034263872
 21
-1754.8793411302181
 31
0.0
  0
LINE
  5
265CD
  8
01
 10
3646.2710447276618
 20
-1753.3803135129669
 30
0.0
 11
3647.525284623367
 21
-1753.3803047578911
 31
0.0
  0
LINE
  5
265CE
  8
01
 10
3646.2710447276618
 20
-1753.3803135129669
 30
0.0
 11
3646.271034263872
 21
-1754.8793411302181
 31
0.0
  0
LINE
  5
265CF
  8
01
 10
3644.7720066466218
 20
-1756.1335914897741
 30
0.0
 11
3644.7719978915452
 21
-1754.8793515940681
 31
0.0
  0
LINE
  5
265D0
  8
01
 10
3644.7720066466218
 20
-1756.1335914897741
 30
0.0
 11
3646.271025508649
 21
-1756.1336019535031
 31
0.0
  0
LINE
  5
265D1
  8
01
 10
3646.271025508649
 20
-1756.1336019535031
 30
0.0
 11
3646.2710150447979
 21
-1757.632638326098
 31
0.0
  0
LINE
  5
265D2
  8
01
 10
3647.525303842503
 20
-1756.133610708848
 30
0.0
 11
3649.0243314597528
 21
-1756.133621172637
 31
0.0
  0
LINE
  5
265D3
  8
01
 10
3647.525303842503
 20
-1756.133610708848
 30
0.0
 11
3647.5253143062309
 21
-1757.6326295706069
 31
0.0
  0
LINE
  5
265D4
  8
01
 10
3647.5253143062309
 20
-1757.6326295706069
 30
0.0
 11
3646.2710150447979
 21
-1757.632638326098
 31
0.0
  0
LINE
  5
265D5
  8
01
 10
3647.5252950871568
 20
-1754.8793323749951
 30
0.0
 11
3649.0243227042611
 21
-1754.8793219112049
 31
0.0
  0
LINE
  5
265D6
  8
01
 10
3649.0243227042611
 20
-1754.8793219112049
 30
0.0
 11
3649.0243314597528
 21
-1756.133621172637
 31
0.0
  0
LINE
  5
265D7
  8
01
 10
3647.525284623367
 20
-1753.3803047578911
 30
0.0
 11
3647.5252950871568
 21
-1754.8793323749951
 31
0.0
  0
LINE
  5
265D9
  8
01
 10
3644.7719978915452
 20
-1726.8793515940729
 30
0.0
 11
3646.271034263872
 21
-1726.8793411302231
 31
0.0
  0
LINE
  5
265DA
  8
01
 10
3646.2710447276618
 20
-1725.380313512972
 30
0.0
 11
3647.525284623367
 21
-1725.3803047578949
 31
0.0
  0
LINE
  5
265DB
  8
01
 10
3646.2710447276618
 20
-1725.380313512972
 30
0.0
 11
3646.271034263872
 21
-1726.8793411302231
 31
0.0
  0
LINE
  5
265DC
  8
01
 10
3644.7720066466218
 20
-1728.1335914897791
 30
0.0
 11
3644.7719978915452
 21
-1726.8793515940729
 31
0.0
  0
LINE
  5
265DD
  8
01
 10
3644.7720066466218
 20
-1728.1335914897791
 30
0.0
 11
3646.271025508649
 21
-1728.133601953507
 31
0.0
  0
LINE
  5
265DE
  8
01
 10
3646.271025508649
 20
-1728.133601953507
 30
0.0
 11
3646.2710150447979
 21
-1729.632638326103
 31
0.0
  0
LINE
  5
265DF
  8
01
 10
3647.525303842503
 20
-1728.133610708853
 30
0.0
 11
3649.0243314597528
 21
-1728.1336211726421
 31
0.0
  0
LINE
  5
265E0
  8
01
 10
3647.525303842503
 20
-1728.133610708853
 30
0.0
 11
3647.5253143062309
 21
-1729.6326295706119
 31
0.0
  0
LINE
  5
265E1
  8
01
 10
3647.5253143062309
 20
-1729.6326295706119
 30
0.0
 11
3646.2710150447979
 21
-1729.632638326103
 31
0.0
  0
LINE
  5
265E2
  8
01
 10
3647.5252950871568
 20
-1726.879332374999
 30
0.0
 11
3649.0243227042611
 21
-1726.8793219112099
 31
0.0
  0
LINE
  5
265E3
  8
01
 10
3649.0243227042611
 20
-1726.8793219112099
 30
0.0
 11
3649.0243314597528
 21
-1728.1336211726421
 31
0.0
  0
LINE
  5
265E4
  8
01
 10
3647.525284623367
 20
-1725.3803047578949
 30
0.0
 11
3647.5252950871568
 21
-1726.879332374999
 31
0.0
  0
CIRCLE
  5
265E5
  8
01
 10
3646.8981977600729
 20
-1727.506469427208
 30
0.0
 40
4.0
  0
CIRCLE
  5
265E6
  8
01
 10
3646.8981977600729
 20
-1755.506469427203
 30
0.0
 40
4.0
  0
CIRCLE
  5
265E7
  8
01
 10
3695.3981977600738
 20
-1727.506469427208
 30
0.0
 40
4.0
  0
CIRCLE
  5
265E8
  8
01
 10
3695.3981977600738
 20
-1755.506469427203
 30
0.0
 40
4.0
  0
TEXT
  5
265E9
  8
1PHANTOM
 10
3753.364285877929
 20
-1698.419272359758
 30
0.0
 40
3.5
  1
GP110接続位置
  0
SOLID
  5
265EA
  8
1DIM
 10
3734.1086277386999
 20
-1748.7187377211351
 30
0.0
 11
3733.1478113804178
 21
-1750.5042188990731
 31
0.0
 12
3733.4776167427049
 22
-1748.50363410104
 32
0.0
 13
3733.4776167427049
 23
-1748.50363410104
 33
0.0
  0
LINE
  5
265EC
  8
1DIM
 10
3807.6336010272021
 20
-1829.506469427206
 30
0.0
 11
3792.6336010272021
 21
-1829.506469427206
 31
0.0
  0
LINE
  5
265ED
  8
1DIM
 10
3901.6336010272021
 20
-1764.506469427201
 30
0.0
 11
3792.6336010272021
 21
-1764.506469427201
 31
0.0
  0
LINE
  5
265EE
  8
1DIM
 10
3793.6336010272021
 20
-1827.506469427206
 30
0.0
 11
3793.6336010272021
 21
-1766.506469427201
 31
0.0
  0
LINE
  5
265F2
  8
1DIM
 10
3703.1952874212589
 20
-1655.379464044752
 30
0.0
 11
3639.1011080988878
 21
-1639.6334748096581
 31
0.0
  0
LINE
  5
265F6
  8
1DIM
 10
3803.6336010272021
 20
-1825.506469427206
 30
0.0
 11
3803.6336010272021
 21
-1689.506469427205
 31
0.0
  0
LINE
  5
265F7
  8
1DIM
 10
3926.6336010272021
 20
-1684.031063714247
 30
0.0
 11
3926.6336010272021
 21
-1691.506469427205
 31
0.0
  0
LINE
  5
265F8
  8
1DIM
 10
3805.6336010272021
 20
-1690.506469427205
 30
0.0
 11
3924.633601027203
 21
-1690.506469427205
 31
0.0
  0
LINE
  5
265FC
  8
1DIM
 10
3803.6336010272021
 20
-1825.506469427206
 30
0.0
 11
3803.6336010272021
 21
-1709.506469427205
 31
0.0
  0
LINE
  5
265FD
  8
1DIM
 10
3900.6336010272021
 20
-1710.506469427205
 30
0.0
 11
3900.6336010272021
 21
-1709.506469427205
 31
0.0
  0
LINE
  5
265FE
  8
1DIM
 10
3805.6336010272021
 20
-1710.506469427205
 30
0.0
 11
3898.6336010272021
 21
-1710.506469427205
 31
0.0
  0
LINE
  5
26602
  8
1HATCH
 10
3926.6336010272021
 20
-1690.097479699866
 30
0.0
 11
3931.1187445043438
 21
-1685.6123362227249
 31
0.0
1001
ACAD
1010
0.0
1020
0.0
1030
0.0
  0
LINE
  5
26603
  8
1HATCH
 10
3926.6336010272021
 20
-1699.077735820935
 30
0.0
 11
3939.0718997531922
 21
-1686.6394370949461
 31
0.0
1001
ACAD
1010
0.0
1020
0.0
1030
0.0
  0
LINE
  5
26604
  8
1HATCH
 10
3926.6336010272021
 20
-1708.0579919420049
 30
0.0
 11
3946.6336010272012
 21
-1688.0579919420049
 31
0.0
1001
ACAD
1010
0.0
1020
0.0
1030
0.0
  0
LINE
  5
26605
  8
1HATCH
 10
3926.6336010272021
 20
-1717.038248063074
 30
0.0
 11
3946.6336010272012
 21
-1697.038248063074
 31
0.0
1001
ACAD
1010
0.0
1020
0.0
1030
0.0
  0
LINE
  5
26606
  8
1HATCH
 10
3926.6336010272021
 20
-1726.018504184143
 30
0.0
 11
3946.6336010272012
 21
-1706.018504184143
 31
0.0
1001
ACAD
1010
0.0
1020
0.0
1030
0.0
  0
LINE
  5
26607
  8
1HATCH
 10
3926.6336010272021
 20
-1734.998760305212
 30
0.0
 11
3946.6336010272012
 21
-1714.998760305212
 31
0.0
1001
ACAD
1010
0.0
1020
0.0
1030
0.0
  0
LINE
  5
26608
  8
1HATCH
 10
3926.6336010272021
 20
-1743.9790164262811
 30
0.0
 11
3946.6336010272012
 21
-1723.9790164262811
 31
0.0
1001
ACAD
1010
0.0
1020
0.0
1030
0.0
  0
LINE
  5
26609
  8
1HATCH
 10
3926.6336010272021
 20
-1752.9592725473501
 30
0.0
 11
3946.6336010272012
 21
-1732.9592725473501
 31
0.0
1001
ACAD
1010
0.0
1020
0.0
1030
0.0
  0
LINE
  5
2660A
  8
1HATCH
 10
3926.6336010272021
 20
-1761.9395286684189
 30
0.0
 11
3946.6336010272012
 21
-1741.9395286684189
 31
0.0
1001
ACAD
1010
0.0
1020
0.0
1030
0.0
  0
LINE
  5
2660B
  8
1HATCH
 10
3926.6336010272021
 20
-1770.9197847894891
 30
0.0
 11
3946.6336010272012
 21
-1750.9197847894891
 31
0.0
1001
ACAD
1010
0.0
1020
0.0
1030
0.0
  0
LINE
  5
2660C
  8
1HATCH
 10
3929.8854704660839
 20
-1776.648171471677
 30
0.0
 11
3946.6336010272012
 21
-1759.9000409105579
 31
0.0
1001
ACAD
1010
0.0
1020
0.0
1030
0.0
  0
LINE
  5
2660D
  8
1HATCH
 10
3938.865726587152
 20
-1776.648171471677
 30
0.0
 11
3946.633601027203
 21
-1768.8802970316281
 31
0.0
1001
ACAD
1010
0.0
1020
0.0
1030
0.0
  0
TEXT
  5
2660E
  8
1DIM
 10
3717.5867919843699
 20
-1789.368659154555
 30
0.0
 40
3.5
  1
材質：ステンレス
  0
TEXT
  5
2660F
  8
1DIM
 10
3717.5867919843699
 20
-1795.201992487888
 30
0.0
 40
3.5
  1
仕上げ：ヘアライン
  0
SOLID
  5
26610
  8
1DIM
 10
3698.4126789795851
 20
-1785.72855785152
 30
0.0
 11
3696.90934447276
 21
-1784.3680077893389
 31
0.0
 12
3698.7726771345178
 22
-1785.1674466567561
 32
0.0
 13
3698.7726771345178
 23
-1785.1674466567561
 33
0.0
  0
LINE
  5
26612
  8
1DIM
 10
3710.1481977600729
 20
-1829.506469427211
 30
0.0
 11
3762.1481977600738
 21
-1829.506469427211
 31
0.0
  0
LINE
  5
26613
  8
1DIM
 10
3710.1481977600729
 20
-1821.506469427211
 30
0.0
 11
3762.1481977600738
 21
-1821.506469427211
 31
0.0
  0
LINE
  5
26614
  8
1DIM
 10
3761.1481977600738
 20
-1827.506469427211
 30
0.0
 11
3761.1481977600738
 21
-1823.506469427211
 31
0.0
  0
LINE
  5
26618
  8
1DIM
 10
3803.6336010272021
 20
-1825.506469427206
 30
0.0
 11
3803.6336010272021
 21
-1699.506469427205
 31
0.0
  0
LINE
  5
26619
  8
1DIM
 10
3916.1336010272021
 20
-1720.506469427206
 30
0.0
 11
3916.1336010272021
 21
-1699.506469427205
 31
0.0
  0
LINE
  5
2661A
  8
1DIM
 10
3805.6336010272021
 20
-1700.506469427205
 30
0.0
 11
3914.1336010272021
 21
-1700.506469427205
 31
0.0
  0
LINE
  5
2661E
  8
1DIM
 10
3710.1481977600729
 20
-1829.506469427211
 30
0.0
 11
3772.1481977600752
 21
-1829.506469427211
 31
0.0
  0
LINE
  5
2661F
  8
1DIM
 10
3738.1481977600738
 20
-1720.506469427205
 30
0.0
 11
3772.1481977600752
 21
-1720.506469427205
 31
0.0
  0
LINE
  5
26620
  8
1DIM
 10
3771.1481977600738
 20
-1827.506469427211
 30
0.0
 11
3771.1481977600738
 21
-1722.506469427205
 31
0.0
  0
LINE
  5
26624
  8
1DIM
 10
3601.148197760072
 20
-1723.506469427205
 30
0.0
 11
3601.148197760072
 21
-1709.506469427205
 31
0.0
  0
LINE
  5
26625
  8
1DIM
 10
3741.1481977600738
 20
-1723.506469427205
 30
0.0
 11
3741.1481977600738
 21
-1709.506469427205
 31
0.0
  0
LINE
  5
26626
  8
1DIM
 10
3603.1481977600729
 20
-1710.506469427205
 30
0.0
 11
3739.1481977600738
 21
-1710.506469427205
 31
0.0
  0
TEXT
  5
2662A
  8
1DIM
 10
3667.3565310934068
 20
-1709.806469427205
 30
0.0
 40
3.5
  1
140
  0
LINE
  5
2662B
  8
0
  6
BYBLOCK
 10
3739.1481977600738
 20
-1709.9705710472051
 30
0.0
 11
3741.1481977600738
 21
-1710.506469427205
 31
0.0
  0
LINE
  5
2662C
  8
0
  6
BYBLOCK
 10
3741.1481977600738
 20
-1710.506469427205
 30
0.0
 11
3739.1481977600738
 21
-1711.042367807205
 31
0.0
  0
LINE
  5
2662D
  8
0
  6
BYBLOCK
 10
3741.1481977600738
 20
-1710.506469427205
 30
0.0
 11
3739.1481977600738
 21
-1710.506469427205
 31
0.0
  0
LINE
  5
2662E
  8
0
  6
BYBLOCK
 10
3603.1481977600729
 20
-1711.042367807205
 30
0.0
 11
3601.148197760072
 21
-1710.506469427205
 31
0.0
  0
LINE
  5
2662F
  8
0
  6
BYBLOCK
 10
3601.148197760072
 20
-1710.506469427205
 30
0.0
 11
3603.1481977600729
 21
-1709.9705710472051
 31
0.0
  0
LINE
  5
26630
  8
0
  6
BYBLOCK
 10
3601.148197760072
 20
-1710.506469427205
 30
0.0
 11
3603.1481977600729
 21
-1710.506469427205
 31
0.0
  0
TEXT
  5
26631
  8
1DIM
 10
3770.4481977600749
 20
-1778.7981360938741
 30
0.0
 40
3.5
  1
109
 50
90.0
  0
LINE
  5
26632
  8
0
  6
BYBLOCK
 10
3770.6122993800741
 20
-1722.506469427205
 30
0.0
 11
3771.1481977600738
 21
-1720.506469427205
 31
0.0
  0
LINE
  5
26633
  8
0
  6
BYBLOCK
 10
3771.1481977600738
 20
-1720.506469427205
 30
0.0
 11
3771.684096140074
 21
-1722.506469427205
 31
0.0
  0
LINE
  5
26634
  8
0
  6
BYBLOCK
 10
3771.1481977600738
 20
-1720.506469427205
 30
0.0
 11
3771.1481977600738
 21
-1722.506469427205
 31
0.0
  0
LINE
  5
26635
  8
0
  6
BYBLOCK
 10
3771.684096140074
 20
-1827.506469427211
 30
0.0
 11
3771.1481977600738
 21
-1829.506469427211
 31
0.0
  0
LINE
  5
26636
  8
0
  6
BYBLOCK
 10
3771.1481977600738
 20
-1829.506469427211
 30
0.0
 11
3770.6122993800741
 21
-1827.506469427211
 31
0.0
  0
LINE
  5
26637
  8
0
  6
BYBLOCK
 10
3771.1481977600738
 20
-1829.506469427211
 30
0.0
 11
3771.1481977600738
 21
-1827.506469427211
 31
0.0
  0
TEXT
  5
26638
  8
1DIM
 10
3854.0502676938681
 20
-1699.806469427205
 30
0.0
 40
3.5
  1
112.5
  0
LINE
  5
26639
  8
0
  6
BYBLOCK
 10
3914.1336010272021
 20
-1699.9705710472051
 30
0.0
 11
3916.1336010272021
 21
-1700.506469427205
 31
0.0
  0
LINE
  5
2663A
  8
0
  6
BYBLOCK
 10
3916.1336010272021
 20
-1700.506469427205
 30
0.0
 11
3914.1336010272021
 21
-1701.042367807205
 31
0.0
  0
LINE
  5
2663B
  8
0
  6
BYBLOCK
 10
3916.1336010272021
 20
-1700.506469427205
 30
0.0
 11
3914.1336010272021
 21
-1700.506469427205
 31
0.0
  0
LINE
  5
2663C
  8
0
  6
BYBLOCK
 10
3805.6336010272021
 20
-1701.042367807205
 30
0.0
 11
3803.6336010272021
 21
-1700.506469427205
 31
0.0
  0
LINE
  5
2663D
  8
0
  6
BYBLOCK
 10
3803.6336010272021
 20
-1700.506469427205
 30
0.0
 11
3805.6336010272021
 21
-1699.9705710472051
 31
0.0
  0
LINE
  5
2663E
  8
0
  6
BYBLOCK
 10
3803.6336010272021
 20
-1700.506469427205
 30
0.0
 11
3805.6336010272021
 21
-1700.506469427205
 31
0.0
  0
TEXT
  5
2663F
  8
1DIM
 10
3760.448197760074
 20
-1829.1231360938771
 30
0.0
 40
3.5
  1
\U+03C68
 50
90.0
  0
LINE
  5
26640
  8
0
  6
BYBLOCK
 10
3760.6122993800732
 20
-1823.506469427211
 30
0.0
 11
3761.1481977600738
 21
-1821.506469427211
 31
0.0
  0
LINE
  5
26641
  8
0
  6
BYBLOCK
 10
3761.1481977600738
 20
-1821.506469427211
 30
0.0
 11
3761.6840961400731
 21
-1823.506469427211
 31
0.0
  0
LINE
  5
26642
  8
0
  6
BYBLOCK
 10
3761.1481977600738
 20
-1821.506469427211
 30
0.0
 11
3761.1481977600738
 21
-1823.506469427211
 31
0.0
  0
LINE
  5
26643
  8
0
  6
BYBLOCK
 10
3761.6840961400731
 20
-1827.506469427211
 30
0.0
 11
3761.1481977600738
 21
-1829.506469427211
 31
0.0
  0
LINE
  5
26644
  8
0
  6
BYBLOCK
 10
3761.1481977600738
 20
-1829.506469427211
 30
0.0
 11
3760.6122993800732
 21
-1827.506469427211
 31
0.0
  0
LINE
  5
26645
  8
0
  6
BYBLOCK
 10
3761.1481977600738
 20
-1829.506469427211
 30
0.0
 11
3761.1481977600738
 21
-1827.506469427211
 31
0.0
  0
LINE
  5
26646
  8
1DIM
 10
3698.5926780570521
 20
-1785.4480022541379
 30
0.0
 11
3714.8867919843701
 21
-1795.901992487888
 31
0.0
  0
LINE
  5
26647
  8
1DIM
 10
3714.8867919843701
 20
-1795.901992487888
 30
0.0
 11
3717.5867919843699
 21
-1795.901992487888
 31
0.0
  0
TEXT
  5
26648
  8
1DIM
 10
3849.216934360536
 20
-1709.806469427205
 30
0.0
 40
3.5
  1
97
  0
LINE
  5
26649
  8
0
  6
BYBLOCK
 10
3898.6336010272021
 20
-1709.9705710472051
 30
0.0
 11
3900.6336010272021
 21
-1710.506469427205
 31
0.0
  0
LINE
  5
2664A
  8
0
  6
BYBLOCK
 10
3900.6336010272021
 20
-1710.506469427205
 30
0.0
 11
3898.6336010272021
 21
-1711.042367807205
 31
0.0
  0
LINE
  5
2664B
  8
0
  6
BYBLOCK
 10
3900.6336010272021
 20
-1710.506469427205
 30
0.0
 11
3898.6336010272021
 21
-1710.506469427205
 31
0.0
  0
LINE
  5
2664C
  8
0
  6
BYBLOCK
 10
3805.6336010272021
 20
-1711.042367807205
 30
0.0
 11
3803.6336010272021
 21
-1710.506469427205
 31
0.0
  0
LINE
  5
2664D
  8
0
  6
BYBLOCK
 10
3803.6336010272021
 20
-1710.506469427205
 30
0.0
 11
3805.6336010272021
 21
-1709.9705710472051
 31
0.0
  0
LINE
  5
2664E
  8
0
  6
BYBLOCK
 10
3803.6336010272021
 20
-1710.506469427205
 30
0.0
 11
3805.6336010272021
 21
-1710.506469427205
 31
0.0
  0
TEXT
  5
2664F
  8
1DIM
 10
3861.0502676938681
 20
-1689.806469427205
 30
0.0
 40
3.5
  1
123
  0
LINE
  5
26650
  8
0
  6
BYBLOCK
 10
3924.633601027203
 20
-1689.9705710472051
 30
0.0
 11
3926.6336010272021
 21
-1690.506469427205
 31
0.0
  0
LINE
  5
26651
  8
0
  6
BYBLOCK
 10
3926.6336010272021
 20
-1690.506469427205
 30
0.0
 11
3924.633601027203
 21
-1691.042367807205
 31
0.0
  0
LINE
  5
26652
  8
0
  6
BYBLOCK
 10
3926.6336010272021
 20
-1690.506469427205
 30
0.0
 11
3924.633601027203
 21
-1690.506469427205
 31
0.0
  0
LINE
  5
26653
  8
0
  6
BYBLOCK
 10
3805.6336010272021
 20
-1691.042367807205
 30
0.0
 11
3803.6336010272021
 21
-1690.506469427205
 31
0.0
  0
LINE
  5
26654
  8
0
  6
BYBLOCK
 10
3803.6336010272021
 20
-1690.506469427205
 30
0.0
 11
3805.6336010272021
 21
-1689.9705710472051
 31
0.0
  0
LINE
  5
26655
  8
0
  6
BYBLOCK
 10
3803.6336010272021
 20
-1690.506469427205
 30
0.0
 11
3805.6336010272021
 21
-1690.506469427205
 31
0.0
  0
TEXT
  5
26656
  8
1DIM
 10
3667.0665334862729
 20
-1645.782914451006
 30
0.0
 40
3.5
  1
\U+220570
 50
346.19751395968541
  0
LINE
  5
26657
  8
0
  6
BYBLOCK
 10
3638.9732558243031
 20
-1640.1538985500561
 30
0.0
 11
3637.1588602406341
 21
-1639.156323620716
 31
0.0
  0
LINE
  5
26658
  8
0
  6
BYBLOCK
 10
3637.1588602406341
 20
-1639.156323620716
 30
0.0
 11
3639.2289603734721
 21
-1639.1130510692601
 31
0.0
  0
LINE
  5
26659
  8
0
  6
BYBLOCK
 10
3637.1588602406341
 20
-1639.156323620716
 30
0.0
 11
3639.1011080988878
 21
-1639.6334748096581
 31
0.0
  0
LINE
  5
2665A
  8
0
  6
BYBLOCK
 10
3703.323139695844
 20
-1654.859040304354
 30
0.0
 11
3705.1375352795139
 21
-1655.856615233695
 31
0.0
  0
LINE
  5
2665B
  8
0
  6
BYBLOCK
 10
3705.1375352795139
 20
-1655.856615233695
 30
0.0
 11
3703.0674351466751
 21
-1655.8998877851509
 31
0.0
  0
LINE
  5
2665C
  8
0
  6
BYBLOCK
 10
3705.1375352795139
 20
-1655.856615233695
 30
0.0
 11
3703.1952874212589
 21
-1655.379464044752
 31
0.0
  0
TEXT
  5
2665D
  8
1DIM
 10
3792.9336010272032
 20
-1799.92313609387
 30
0.0
 40
3.5
  1
65
 50
90.0
  0
LINE
  5
2665E
  8
0
  6
BYBLOCK
 10
3793.0977026472019
 20
-1766.506469427201
 30
0.0
 11
3793.6336010272021
 21
-1764.506469427201
 31
0.0
  0
LINE
  5
2665F
  8
0
  6
BYBLOCK
 10
3793.6336010272021
 20
-1764.506469427201
 30
0.0
 11
3794.1694994072018
 21
-1766.506469427201
 31
0.0
  0
LINE
  5
26660
  8
0
  6
BYBLOCK
 10
3793.6336010272021
 20
-1764.506469427201
 30
0.0
 11
3793.6336010272021
 21
-1766.506469427201
 31
0.0
  0
LINE
  5
26661
  8
0
  6
BYBLOCK
 10
3794.1694994072018
 20
-1827.506469427206
 30
0.0
 11
3793.6336010272021
 21
-1829.506469427206
 31
0.0
  0
LINE
  5
26662
  8
0
  6
BYBLOCK
 10
3793.6336010272021
 20
-1829.506469427206
 30
0.0
 11
3793.0977026472019
 21
-1827.506469427206
 31
0.0
  0
LINE
  5
26663
  8
0
  6
BYBLOCK
 10
3793.6336010272021
 20
-1829.506469427206
 30
0.0
 11
3793.6336010272021
 21
-1827.506469427206
 31
0.0
  0
LINE
  5
26664
  8
1DIM
 10
3733.7931222407019
 20
-1748.6111859110879
 30
0.0
 11
3750.6642858779292
 21
-1699.119272359758
 31
0.0
  0
LINE
  5
26665
  8
1DIM
 10
3750.6642858779292
 20
-1699.119272359758
 30
0.0
 11
3753.364285877929
 21
-1699.119272359758
 31
0.0
  0
VIEWPORT
  5
57
 67
     1
  8
0
 10
-2.3084472526301449
 20
10.09248672500371
 30
0.0
 40
426.85258560366179
 41
287.46444039326258
 68
     1
 69
     1
1001
ACAD
1000
MVIEW
1002
{
1070
    16
1010
0.0
1020
0.0
1030
0.0
1010
0.0
1020
0.0
1030
1.0
1040
0.0
1040
287.46444039326258
1040
-2.3084472526301449
1040
10.09248672500371
1040
50.0
1040
0.0
1040
0.0
1070
     0
1070
   100
1070
     1
1070
     1
1070
     0
1070
     0
1070
     0
1070
     0
1040
0.0
1040
0.0
1040
0.0
1040
10.0
1040
10.0
1040
10.0
1040
10.0
1070
     0
1002
{
1002
}
1002
}
  0
ENDSEC
  0
EOF
