  0
SECTION
  2
HEADER
  9
$ACADVER
  1
AC1009
  9
$INSBASE
 10
0.0
 20
0.0
 30
0.0
  9
$EXTMIN
 10
3547.129287791407
 20
-1865.9517617928409
 30
0.0
  9
$EXTMAX
 10
3861.7756410219922
 20
-1606.817522754729
 30
0.0
  9
$LIMMIN
 10
0.0
 20
0.0
  9
$LIMMAX
 10
420.0
 20
297.0
  9
$ORTHOMODE
 70
     0
  9
$REGENMODE
 70
     1
  9
$FILLMODE
 70
     1
  9
$QTEXTMODE
 70
     0
  9
$MIRRTEXT
 70
     0
  9
$DRAGMODE
 70
     2
  9
$LTSCALE
 40
0.5
  9
$OSMODE
 70
  2175
  9
$ATTMODE
 70
     1
  9
$TEXTSIZE
 40
4.0
  9
$TRACEWID
 40
1.0
  9
$TEXTSTYLE
  7
STANDARD
  9
$CLAYER
  8
1TEXT
  9
$CELTYPE
  6
BYLAYER
  9
$CECOLOR
 62
   256
  9
$DIMSCALE
 40
1.0
  9
$DIMASZ
 40
2.0
  9
$DIMEXO
 40
0.0
  9
$DIMDLI
 40
7.0
  9
$DIMRND
 40
0.0
  9
$DIMDLE
 40
0.0
  9
$DIMEXE
 40
1.0
  9
$DIMTP
 40
0.0
  9
$DIMTM
 40
0.0
  9
$DIMTXT
 40
3.5
  9
$DIMCEN
 40
0.0
  9
$DIMTSZ
 40
0.0
  9
$DIMTOL
 70
     0
  9
$DIMLIM
 70
     0
  9
$DIMTIH
 70
     0
  9
$DIMTOH
 70
     0
  9
$DIMSE1
 70
     0
  9
$DIMSE2
 70
     0
  9
$DIMTAD
 70
     1
  9
$DIMZIN
 70
     8
  9
$DIMBLK
  1

  9
$DIMASO
 70
     1
  9
$DIMSHO
 70
     1
  9
$DIMPOST
  1
 
  9
$DIMAPOST
  1

  9
$DIMALT
 70
     0
  9
$DIMALTD
 70
     2
  9
$DIMALTF
 40
25.399999999999999
  9
$DIMLFAC
 40
1.0
  9
$DIMTOFL
 70
     1
  9
$DIMTVP
 40
0.0
  9
$DIMTIX
 70
     0
  9
$DIMSOXD
 70
     0
  9
$DIMSAH
 70
     1
  9
$DIMBLK1
  1
OPEN30
  9
$DIMBLK2
  1
OPEN30
  9
$DIMSTYLE
  2
NEWX10
  9
$DIMCLRD
 70
   256
  9
$DIMCLRE
 70
   256
  9
$DIMCLRT
 70
   201
  9
$DIMTFAC
 40
0.7
  9
$DIMGAP
 40
0.7
  9
$LUNITS
 70
     2
  9
$LUPREC
 70
     4
  9
$SKETCHINC
 40
1.0
  9
$FILLETRAD
 40
2.0
  9
$AUNITS
 70
     0
  9
$AUPREC
 70
     2
  9
$MENU
  1
acad
  9
$ELEVATION
 40
0.0
  9
$PELEVATION
 40
0.0
  9
$THICKNESS
 40
0.0
  9
$LIMCHECK
 70
     0
  9
$BLIPMODE
 70
     0
  9
$CHAMFERA
 40
1.0
  9
$CHAMFERB
 40
1.0
  9
$SKPOLY
 70
     0
  9
$TDCREATE
 40
2453033.7326634838
  9
$TDUPDATE
 40
2456119.4442720949
  9
$TDINDWG
 40
2.7748605324
  9
$TDUSRTIMER
 40
2.7748605324
  9
$USRTIMER
 70
     1
  9
$ANGBASE
 50
0.0
  9
$ANGDIR
 70
     0
  9
$PDMODE
 70
     0
  9
$PDSIZE
 40
0.0
  9
$PLINEWID
 40
0.0
  9
$COORDS
 70
     2
  9
$SPLFRAME
 70
     0
  9
$SPLINETYPE
 70
     6
  9
$SPLINESEGS
 70
     8
  9
$ATTDIA
 70
     0
  9
$ATTREQ
 70
     1
  9
$HANDLING
 70
     1
  9
$HANDSEED
  5
27F32
  9
$SURFTAB1
 70
     6
  9
$SURFTAB2
 70
     6
  9
$SURFTYPE
 70
     6
  9
$SURFU
 70
     6
  9
$SURFV
 70
     6
  9
$UCSNAME
  2

  9
$UCSORG
 10
0.0
 20
0.0
 30
0.0
  9
$UCSXDIR
 10
1.0
 20
0.0
 30
0.0
  9
$UCSYDIR
 10
0.0
 20
1.0
 30
0.0
  9
$PUCSNAME
  2

  9
$PUCSORG
 10
0.0
 20
0.0
 30
0.0
  9
$PUCSXDIR
 10
1.0
 20
0.0
 30
0.0
  9
$PUCSYDIR
 10
0.0
 20
1.0
 30
0.0
  9
$USERI1
 70
     0
  9
$USERI2
 70
     0
  9
$USERI3
 70
     0
  9
$USERI4
 70
     0
  9
$USERI5
 70
     0
  9
$USERR1
 40
0.0
  9
$USERR2
 40
0.0
  9
$USERR3
 40
0.0
  9
$USERR4
 40
0.0
  9
$USERR5
 40
0.0
  9
$WORLDVIEW
 70
     1
  9
$SHADEDGE
 70
     3
  9
$SHADEDIF
 70
    70
  9
$TILEMODE
 70
     1
  9
$MAXACTVP
 70
    48
  9
$PLIMCHECK
 70
     0
  9
$PEXTMIN
 10
1.0000000000000000E+020
 20
1.0000000000000000E+020
 30
1.0000000000000000E+020
  9
$PEXTMAX
 10
-1.0000000000000000E+020
 20
-1.0000000000000000E+020
 30
-1.0000000000000000E+020
  9
$PLIMMIN
 10
0.0
 20
0.0
  9
$PLIMMAX
 10
420.0
 20
297.0
  9
$UNITMODE
 70
     0
  9
$VISRETAIN
 70
     1
  9
$PLINEGEN
 70
     0
  9
$PSLTSCALE
 70
     1
  0
ENDSEC
  0
SECTION
  2
TABLES
  0
TABLE
  2
VPORT
 70
     1
  0
VPORT
  2
*ACTIVE
 70
     0
 10
0.0
 20
0.0
 11
1.0
 21
1.0
 12
3704.413715900233
 22
-1736.3944589618411
 13
0.0
 23
0.0
 14
10.0
 24
10.0
 15
10.0
 25
10.0
 16
0.0
 26
0.0
 36
1.0
 17
0.0
 27
0.0
 37
0.0
 40
275.03991957045162
 41
1.4848883048620229
 42
50.0
 43
0.0
 44
0.0
 50
0.0
 51
0.0
 71
     0
 72
   100
 73
     1
 74
     1
 75
     0
 76
     0
 77
     0
 78
     0
  0
ENDTAB
  0
TABLE
  2
LTYPE
 70
    15
  0
LTYPE
  2
CONTINUOUS
 70
     0
  3
Solid line
 72
    65
 73
     0
 40
0.0
  0
LTYPE
  2
CENTER2
 70
     0
  3
Center (.5x) ___ _ ___ _ ___ _ ___ _ ___ _ ___
 72
    65
 73
     4
 40
28.574999999999999
 49
19.050000000000001
 49
-3.1749999999999989
 49
3.1749999999999989
 49
-3.1749999999999989
  0
LTYPE
  2
PHANTOM2
 70
     0
  3
Phantom (.5x) ___ _ _ ___ _ _ ___ _ _ ___ _ _
 72
    65
 73
     6
 40
31.75
 49
15.875
 49
-3.1749999999999989
 49
3.1749999999999989
 49
-3.1749999999999989
 49
3.1749999999999989
 49
-3.1749999999999989
  0
ENDTAB
  0
TABLE
  2
LAYER
 70
    47
  0
LAYER
  2
0
 70
     0
 62
     7
  6
CONTINUOUS
  0
LAYER
  2
1CENTER
 70
     0
 62
     7
  6
CENTER2
  0
LAYER
  2
1TEXT
 70
     0
 62
     7
  6
CONTINUOUS
  0
LAYER
  2
1DIM
 70
     0
 62
     7
  6
CONTINUOUS
  0
LAYER
  2
1PHANTOM
 70
     0
 62
     7
  6
PHANTOM2
  0
LAYER
  2
01
 70
     0
 62
     1
  6
CONTINUOUS
  0
LAYER
  2
1HATCH
 70
     0
 62
     7
  6
CONTINUOUS
  0
ENDTAB
  0
TABLE
  2
STYLE
 70
    24
  0
STYLE
  2
STANDARD
 70
     0
 40
0.0
 41
1.0
 50
0.0
 71
     0
 42
4.0
  3
txt.shx
  4
extfont.shx
  0
ENDTAB
  0
TABLE
  2
VIEW
 70
     5
  0
ENDTAB
  0
TABLE
  2
UCS
 70
     0
  0
ENDTAB
  0
TABLE
  2
APPID
 70
    14
  0
APPID
  2
ACAD
 70
     0
  0
APPID
  2
DRAWINGVARIABLESXDATA
 70
     0
  0
APPID
  2
CONTENTTABDATA
 70
     0
  0
APPID
  2
CONTENTCURRENTTAB
 70
     0
  0
APPID
  2
CONTENTBLOCKDESCRIPTION
 70
     0
  0
APPID
  2
CONTENTBLOCKICON
 70
     0
  0
APPID
  2
CONTENTLONGBLOCKNAME
 70
     0
  0
APPID
  2
ACAD_PSEXT
 70
     0
  0
APPID
  2
ACAD_DSTYLE_DIMTEXT_FILL
 70
     0
  0
APPID
  2
ACAD_MLEADERVER
 70
     0
  0
APPID
  2
ACAD_DSTYLE_DIMRADIAL_EXTENSION
 70
     0
  0
APPID
  2
ACADANNOTATIVE
 70
     0
  0
APPID
  2
ACLAYERTOOLS
 70
     0
  0
APPID
  2
ACAD_EXEMPT_FROM_CAD_STANDARDS
 70
     0
  0
ENDTAB
  0
TABLE
  2
DIMSTYLE
 70
    10
  0
DIMSTYLE
  2
NEWX10
 70
     0
  3
 
  4

  5

  6
OPEN30
  7
OPEN30
 40
1.0
 41
2.0
 42
0.0
 43
7.0
 44
1.0
 45
0.0
 46
0.0
 47
0.0
 48
0.0
140
3.5
141
0.0
142
0.0
143
25.399999999999999
144
1.0
145
0.0
146
0.7
147
0.7
 71
     0
 72
     0
 73
     0
 74
     0
 75
     0
 76
     0
 77
     1
 78
     8
170
     0
171
     2
172
     1
173
     1
174
     0
175
     0
176
   256
177
   256
178
   201
  0
ENDTAB
  0
ENDSEC
  0
SECTION
  2
BLOCKS
  0
BLOCK
  8
0
  2
$MODEL_SPACE
 70
     0
 10
0.0
 20
0.0
 30
0.0
  3
$MODEL_SPACE
  1

  0
ENDBLK
  5
1A
  8
0
  0
BLOCK
 67
     1
  8
0
  2
$PAPER_SPACE
 70
     0
 10
0.0
 20
0.0
 30
0.0
  3
$PAPER_SPACE
  1

  0
ENDBLK
  5
17
 67
     1
  8
0
  0
BLOCK
  8
0
  2
_OPEN30
 70
     0
 10
0.0
 20
0.0
 30
0.0
  3
_OPEN30
  1

  0
LINE
  5
44
  8
0
  6
BYBLOCK
 62
     0
 10
-1.0
 20
0.26794919
 30
0.0
 11
0.0
 21
0.0
 31
0.0
  0
LINE
  5
45
  8
0
  6
BYBLOCK
 62
     0
 10
0.0
 20
0.0
 30
0.0
 11
-1.0
 21
-0.26794919
 31
0.0
  0
LINE
  5
46
  8
0
  6
BYBLOCK
 62
     0
 10
0.0
 20
0.0
 30
0.0
 11
-1.0
 21
0.0
 31
0.0
  0
ENDBLK
  5
47
  8
0
  0
ENDSEC
  0
SECTION
  2
ENTITIES
  0
LINE
  5
25395
  8
1DIM
 10
3764.758785468011
 20
-1628.3107892631381
 30
0.0
 11
3834.758785468011
 21
-1628.3107892631381
 31
0.0
  0
LINE
  5
25396
  8
1DIM
 10
3764.758785468011
 20
-1621.3107892631381
 30
0.0
 11
3834.758785468011
 21
-1621.3107892631381
 31
0.0
  0
TEXT
  5
25397
  8
1TEXT
 10
3810.3587854680109
 20
-1626.810789263139
 30
0.0
 40
4.0
  1
コード
 72
     1
 11
3817.158785468012
 21
-1626.810789263139
 31
0.0
  0
LINE
  5
25399
  8
1DIM
 10
3764.7587854680119
 20
-1635.310789263139
 30
0.0
 11
3834.758785468011
 21
-1635.310789263139
 31
0.0
  0
LINE
  5
2539C
  8
1DIM
 10
3799.758785468011
 20
-1621.3107892631381
 30
0.0
 11
3799.758785468011
 21
-1649.3107892631399
 31
0.0
  0
LINE
  5
2539D
  8
1DIM
 10
3834.7587854680119
 20
-1621.3107892631381
 30
0.0
 11
3834.758785468011
 21
-1649.3107892631399
 31
0.0
  0
TEXT
  5
2539F
  8
1TEXT
 10
3763.5574959849519
 20
-1617.019660037048
 30
0.0
 40
8.0
  1
GP-115-X
  0
LINE
  5
253A0
  8
1DIM
 10
3764.758785468011
 20
-1642.310789263139
 30
0.0
 11
3834.758785468011
 21
-1642.310789263139
 31
0.0
  0
TEXT
  5
253A2
  8
1TEXT
 10
3803.2921188013452
 20
-1634.0251462467879
 30
0.0
 40
4.0
  1
GP-115-005
 41
0.8
 72
     1
 11
3817.158785468012
 21
-1634.0251462467879
 31
0.0
  0
LINE
  5
253A3
  8
1DIM
 10
3764.7587854680119
 20
-1649.3107892631399
 30
0.0
 11
3834.758785468011
 21
-1649.3107892631399
 31
0.0
  0
LINE
  5
25587
  8
1DIM
 10
3764.758785468011
 20
-1621.3107892631381
 30
0.0
 11
3764.758785468011
 21
-1649.3107892631399
 31
0.0
  0
TEXT
  5
2558B
  8
1TEXT
 10
3775.492118801345
 20
-1626.810789263139
 30
0.0
 40
4.0
  1
仕上げ
 72
     1
 11
3782.158785468012
 21
-1626.810789263139
 31
0.0
  0
TEXT
  5
25591
  8
1TEXT
 10
3803.2921188013452
 20
-1641.0251462467879
 30
0.0
 40
4.0
  1
GP-115-007
 41
0.8
 72
     1
 11
3817.158785468012
 21
-1641.0251462467879
 31
0.0
  0
TEXT
  5
25592
  8
1TEXT
 10
3803.2921188013452
 20
-1648.0251462467879
 30
0.0
 40
4.0
  1
GP-115-009
 41
0.8
 72
     1
 11
3817.158785468012
 21
-1648.0251462467879
 31
0.0
  0
LINE
  5
2657D
  8
01
 10
3819.829287791445
 20
-1800.789905533677
 30
0.0
 11
3811.8292877914432
 21
-1800.789905533677
 31
0.0
  0
LINE
  5
2657E
  8
01
 10
3660.8292877914068
 20
-1800.789905533677
 30
0.0
 11
3606.8292877914068
 21
-1800.789905533677
 31
0.0
  0
LINE
  5
2657F
  8
01
 10
3606.8292877914068
 20
-1692.2899055336759
 30
0.0
 11
3606.8292877914068
 21
-1800.789905533677
 31
0.0
  0
LINE
  5
26580
  8
01
 10
3660.8292877914068
 20
-1692.2899055336759
 30
0.0
 11
3660.8292877914068
 21
-1800.789905533677
 31
0.0
  0
LINE
  5
26583
  8
01
 10
3811.8292877914432
 20
-1692.2899055336759
 30
0.0
 11
3811.8292877914432
 21
-1797.789905533677
 31
0.0
  0
LINE
  5
2658C
  8
01
 10
3766.3292877914068
 20
-1679.5899055336761
 30
0.0
 11
3766.3292877914068
 21
-1692.2899055336759
 31
0.0
  0
LINE
  5
2658D
  8
01
 10
3766.3292877914068
 20
-1692.2899055336759
 30
0.0
 11
3819.329287791445
 21
-1692.2899055336759
 31
0.0
  0
LINE
  5
2658E
  8
01
 10
3819.329287791445
 20
-1679.5899055336761
 30
0.0
 11
3766.3292877914068
 21
-1679.5899055336761
 31
0.0
  0
LINE
  5
2658F
  8
01
 10
3813.3292877914441
 20
-1679.5899055336761
 30
0.0
 11
3813.3292877914441
 21
-1692.2899055336759
 31
0.0
  0
LINE
  5
26592
  8
01
 10
3821.3292877914441
 20
-1681.5899055336761
 30
0.0
 11
3821.329287791445
 21
-1799.289905533677
 31
0.0
  0
ARC
  5
26593
  8
01
 10
3819.329287791445
 20
-1681.5899055336761
 30
0.0
 40
2.0
 50
0.0
 51
90.0
  0
LINE
  5
26594
  8
01
 10
3804.329287791445
 20
-1799.2899055336779
 30
0.0
 11
3804.329287791445
 21
-1800.789905533677
 31
0.0
  0
LINE
  5
26595
  8
01
 10
3819.8292877914441
 20
-1692.226397206779
 30
0.0
 11
3819.829287791445
 21
-1799.289905533677
 31
0.0
  0
LINE
  5
26596
  8
01
 10
3819.829287791445
 20
-1800.789905533677
 30
0.0
 11
3804.329287791445
 21
-1800.789905533677
 31
0.0
  0
ARC
  5
26597
  8
01
 10
3819.829287791445
 20
-1799.289905533677
 30
0.0
 40
1.5
 50
270.0
 51
0.0
  0
LINE
  5
26598
  8
01
 10
3819.829287791445
 20
-1799.289905533677
 30
0.0
 11
3804.329287791445
 21
-1799.2899055336779
 31
0.0
  0
LINE
  5
2659A
  8
1CENTER
 10
3811.3292877914441
 20
-1793.2317378534549
 30
0.0
 11
3811.3292877914441
 21
-1802.9921964675179
 31
0.0
  0
LINE
  5
2659B
  8
01
 10
3808.579287791445
 20
-1797.789905533677
 30
0.0
 11
3814.0792877914441
 21
-1797.789905533677
 31
0.0
  0
LINE
  5
2659C
  8
01
 10
3808.579287791445
 20
-1799.289905533677
 30
0.0
 11
3808.579287791445
 21
-1797.789905533677
 31
0.0
  0
LINE
  5
2659D
  8
01
 10
3814.079287791445
 20
-1799.289905533677
 30
0.0
 11
3814.0792877914441
 21
-1797.789905533677
 31
0.0
  0
ARC
  5
265A0
  8
01
 10
3819.329287791445
 20
-1690.289905533675
 30
0.0
 40
2.0
 50
270.0
 51
0.0
  0
LINE
  5
265A1
  8
01
 10
3819.829287791445
 20
-1692.2899055336759
 30
0.0
 11
3821.3292877914441
 21
-1692.2899055336759
 31
0.0
  0
ARC
  5
265A2
  8
01
 10
3673.8292877914059
 20
-1697.2899055336759
 30
0.0
 40
5.0
 50
0.0
 51
90.0
  0
LINE
  5
265A3
  8
01
 10
3678.8292877914068
 20
-1697.2899055336759
 30
0.0
 11
3678.8292877914068
 21
-1799.289905533677
 31
0.0
  0
LINE
  5
265A4
  8
01
 10
3588.8292877914059
 20
-1697.2899055336759
 30
0.0
 11
3588.8292877914059
 21
-1799.289905533677
 31
0.0
  0
LINE
  5
265A5
  8
1CENTER
 10
3583.8292877914059
 20
-1793.2317378534549
 30
0.0
 11
3583.8292877914059
 21
-1802.9921964675179
 31
0.0
  0
ARC
  5
265A6
  8
01
 10
3593.8292877914068
 20
-1697.2899055336759
 30
0.0
 40
5.0
 50
90.0
 51
180.0
  0
LINE
  5
265A7
  8
01
 10
3688.8292877914059
 20
-1800.789905533677
 30
0.0
 11
3578.8292877914068
 21
-1800.789905533677
 31
0.0
  0
LINE
  5
265A9
  8
01
 10
3586.5792877914068
 20
-1797.789905533677
 30
0.0
 11
3581.0792877914068
 21
-1797.789905533677
 31
0.0
  0
LINE
  5
265AA
  8
01
 10
3605.8292877914068
 20
-1799.289905533677
 30
0.0
 11
3578.8292877914068
 21
-1799.289905533677
 31
0.0
  0
CIRCLE
  5
265AB
  8
01
 10
3598.8292877914059
 20
-1702.789905533677
 30
0.0
 40
3.0
  0
LINE
  5
265AE
  8
01
 10
3605.8292877914068
 20
-1799.289905533677
 30
0.0
 11
3605.8292877914068
 21
-1800.789905533677
 31
0.0
  0
LINE
  5
265AF
  8
01
 10
3661.8292877914059
 20
-1799.289905533677
 30
0.0
 11
3688.8292877914059
 21
-1799.289905533677
 31
0.0
  0
LINE
  5
265B0
  8
01
 10
3661.8292877914068
 20
-1799.289905533677
 30
0.0
 11
3661.8292877914068
 21
-1800.789905533677
 31
0.0
  0
CIRCLE
  5
265B1
  8
01
 10
3668.8292877914068
 20
-1702.789905533677
 30
0.0
 40
3.0
  0
LINE
  5
265B4
  8
01
 10
3586.5792877914059
 20
-1799.289905533677
 30
0.0
 11
3586.5792877914068
 21
-1797.789905533677
 31
0.0
  0
LINE
  5
265B5
  8
01
 10
3581.0792877914059
 20
-1799.289905533677
 30
0.0
 11
3581.0792877914068
 21
-1797.789905533677
 31
0.0
  0
LINE
  5
265B6
  8
1CENTER
 10
3683.8292877914059
 20
-1793.2317378534549
 30
0.0
 11
3683.8292877914059
 21
-1802.9921964675179
 31
0.0
  0
LINE
  5
265B7
  8
01
 10
3681.0792877914068
 20
-1797.789905533677
 30
0.0
 11
3686.5792877914059
 21
-1797.789905533677
 31
0.0
  0
LINE
  5
265B8
  8
01
 10
3681.0792877914068
 20
-1799.289905533677
 30
0.0
 11
3681.0792877914068
 21
-1797.789905533677
 31
0.0
  0
LINE
  5
265B9
  8
01
 10
3686.5792877914068
 20
-1799.289905533677
 30
0.0
 11
3686.5792877914059
 21
-1797.789905533677
 31
0.0
  0
LINE
  5
265BA
  8
01
 10
3561.3292877914059
 20
-1679.5899055336761
 30
0.0
 11
3706.3292877914068
 21
-1679.5899055336761
 31
0.0
  0
LINE
  5
265BB
  8
01
 10
3561.3292877914059
 20
-1692.2899055336759
 30
0.0
 11
3706.3292877914068
 21
-1692.2899055336759
 31
0.0
  0
LINE
  5
265BC
  8
01
 10
3561.3292877914059
 20
-1679.5899055336761
 30
0.0
 11
3561.3292877914059
 21
-1692.2899055336759
 31
0.0
  0
LINE
  5
265BD
  8
01
 10
3706.3292877914068
 20
-1679.5899055336761
 30
0.0
 11
3706.3292877914068
 21
-1692.2899055336759
 31
0.0
  0
ARC
  5
265D5
  8
01
 10
3566.3292877914068
 20
-1656.817522754767
 30
0.0
 40
2.0
 50
180.0
 51
270.0
  0
LINE
  5
265D6
  8
01
 10
3606.8292877914059
 20
-1617.817522754729
 30
0.0
 11
3606.8292877914068
 21
-1606.817522754729
 31
0.0
  0
LINE
  5
265DE
  8
01
 10
3677.8292877914059
 20
-1617.817522754729
 30
0.0
 11
3677.8292877914059
 21
-1616.317522754729
 31
0.0
  0
LINE
  5
265DF
  8
01
 10
3693.8292877914068
 20
-1617.817522754729
 30
0.0
 11
3693.8292877914068
 21
-1616.317522754729
 31
0.0
  0
LINE
  5
265E0
  8
01
 10
3693.8292877914068
 20
-1616.317522754729
 30
0.0
 11
3677.8292877914059
 21
-1616.317522754729
 31
0.0
  0
LINE
  5
265E1
  8
01
 10
3701.3292877914059
 20
-1617.817522754729
 30
0.0
 11
3660.8292877914059
 21
-1617.817522754729
 31
0.0
  0
ARC
  5
265E3
  8
01
 10
3701.3292877914059
 20
-1619.817522754729
 30
0.0
 40
2.0
 50
0.0
 51
90.0
  0
LINE
  5
265E4
  8
01
 10
3701.3292877914059
 20
-1658.817522754767
 30
0.0
 11
3566.3292877914068
 21
-1658.817522754767
 31
0.0
  0
ARC
  5
265E5
  8
01
 10
3701.3292877914059
 20
-1656.817522754767
 30
0.0
 40
2.0
 50
270.0
 51
0.0
  0
LINE
  5
265E6
  8
01
 10
3703.3292877914068
 20
-1656.817522754767
 30
0.0
 11
3703.3292877914068
 21
-1619.817522754729
 31
0.0
  0
LINE
  5
265E7
  8
01
 10
3660.829287791405
 20
-1617.817522754729
 30
0.0
 11
3660.8292877914068
 21
-1606.817522754729
 31
0.0
  0
LINE
  5
26610
  8
01
 10
3573.8292877914068
 20
-1616.317522754729
 30
0.0
 11
3589.8292877914068
 21
-1616.317522754729
 31
0.0
  0
LINE
  5
26616
  8
01
 10
3561.3292877914059
 20
-1656.817522754767
 30
0.0
 11
3561.3292877914059
 21
-1619.817522754729
 31
0.0
  0
LINE
  5
26617
  8
01
 10
3562.8292877914059
 20
-1656.817522754767
 30
0.0
 11
3562.8292877914059
 21
-1619.817522754729
 31
0.0
  0
ARC
  5
26618
  8
01
 10
3566.3292877914068
 20
-1619.817522754729
 30
0.0
 40
5.0
 50
90.0
 51
180.0
  0
ARC
  5
26619
  8
01
 10
3566.3292877914068
 20
-1619.817522754729
 30
0.0
 40
3.5
 50
90.0
 51
180.0
  0
ARC
  5
2661A
  8
01
 10
3566.3292877914068
 20
-1656.817522754767
 30
0.0
 40
5.0
 50
180.0
 51
270.0
  0
ARC
  5
2661B
  8
01
 10
3566.3292877914068
 20
-1656.817522754767
 30
0.0
 40
3.5
 50
180.0
 51
270.0
  0
LINE
  5
2661C
  8
01
 10
3566.3292877914068
 20
-1616.317522754729
 30
0.0
 11
3605.3292877914068
 21
-1616.317522754729
 31
0.0
  0
ARC
  5
2661D
  8
01
 10
3605.3292877914068
 20
-1614.817522754729
 30
0.0
 40
1.5
 50
270.0
 51
0.0
  0
LINE
  5
2661E
  8
01
 10
3566.3292877914068
 20
-1614.817522754729
 30
0.0
 11
3605.3292877914068
 21
-1614.817522754729
 31
0.0
  0
LINE
  5
2661F
  8
01
 10
3605.3292877914068
 20
-1614.817522754729
 30
0.0
 11
3605.3292877914068
 21
-1606.817522754729
 31
0.0
  0
LINE
  5
26620
  8
01
 10
3701.3292877914059
 20
-1614.817522754729
 30
0.0
 11
3662.3292877914068
 21
-1614.817522754729
 31
0.0
  0
LINE
  5
26621
  8
01
 10
3701.3292877914059
 20
-1616.317522754729
 30
0.0
 11
3662.3292877914068
 21
-1616.317522754729
 31
0.0
  0
ARC
  5
26622
  8
01
 10
3701.3292877914059
 20
-1619.817522754729
 30
0.0
 40
5.0
 50
0.0
 51
90.0
  0
ARC
  5
26623
  8
01
 10
3701.3292877914059
 20
-1619.817522754729
 30
0.0
 40
3.5
 50
0.0
 51
90.0
  0
LINE
  5
26624
  8
01
 10
3701.3292877914059
 20
-1661.817522754767
 30
0.0
 11
3566.3292877914068
 21
-1661.817522754767
 31
0.0
  0
LINE
  5
26625
  8
01
 10
3701.3292877914059
 20
-1660.317522754767
 30
0.0
 11
3566.3292877914068
 21
-1660.317522754767
 31
0.0
  0
ARC
  5
26626
  8
01
 10
3701.3292877914059
 20
-1656.817522754767
 30
0.0
 40
5.0
 50
270.0
 51
0.0
  0
ARC
  5
26627
  8
01
 10
3701.3292877914059
 20
-1656.817522754767
 30
0.0
 40
3.5
 50
270.0
 51
0.0
  0
LINE
  5
26628
  8
01
 10
3706.3292877914068
 20
-1656.817522754767
 30
0.0
 11
3706.3292877914068
 21
-1619.817522754729
 31
0.0
  0
LINE
  5
26629
  8
01
 10
3704.8292877914068
 20
-1656.817522754767
 30
0.0
 11
3704.8292877914068
 21
-1619.817522754729
 31
0.0
  0
ARC
  5
2662A
  8
01
 10
3662.3292877914068
 20
-1614.817522754729
 30
0.0
 40
1.5
 50
180.0
 51
270.0
  0
LINE
  5
2662B
  8
01
 10
3662.3292877914068
 20
-1614.817522754729
 30
0.0
 11
3662.3292877914068
 21
-1606.817522754729
 31
0.0
  0
LINE
  5
2662C
  8
01
 10
3588.8292877914059
 20
-1606.817522754729
 30
0.0
 11
3678.8292877914068
 21
-1606.817522754729
 31
0.0
  0
LINE
  5
2662D
  8
01
 10
3580.8292877914068
 20
-1608.317522754729
 30
0.0
 11
3605.3292877914059
 21
-1608.317522754729
 31
0.0
  0
LINE
  5
2662F
  8
01
 10
3588.8292877914059
 20
-1608.317522754729
 30
0.0
 11
3588.8292877914059
 21
-1606.817522754729
 31
0.0
  0
LINE
  5
26630
  8
01
 10
3678.8292877914068
 20
-1608.317522754729
 30
0.0
 11
3678.8292877914068
 21
-1606.817522754729
 31
0.0
  0
ARC
  5
2671F
  8
01
 10
3813.7792877914439
 20
-1684.814905533676
 30
0.0
 40
1.5
 50
0.0
 51
90.000000000026048
  0
LINE
  5
26720
  8
01
 10
3813.3292877914441
 20
-1683.3149055336751
 30
0.0
 11
3813.7792877914439
 21
-1683.3149055336751
 31
0.0
  0
LINE
  5
26721
  8
01
 10
3815.2792877914439
 20
-1687.064905533676
 30
0.0
 11
3815.2792877914439
 21
-1684.814905533676
 31
0.0
  0
ARC
  5
26722
  8
01
 10
3813.7792877914439
 20
-1687.064905533676
 30
0.0
 40
1.5
 50
270.0
 51
0.0
  0
LINE
  5
26723
  8
01
 10
3813.3292877914441
 20
-1688.5649055336751
 30
0.0
 11
3813.7792877914439
 21
-1688.5649055336751
 31
0.0
  0
LINE
  5
26729
  8
01
 10
3578.8292877914068
 20
-1800.789905533677
 30
0.0
 11
3578.8292877914068
 21
-1799.289905533677
 31
0.0
  0
LINE
  5
2672A
  8
01
 10
3688.8292877914059
 20
-1800.789905533677
 30
0.0
 11
3688.8292877914059
 21
-1799.289905533677
 31
0.0
  0
POLYLINE
  8
01
  5
2781A
  66
     1
 10
0.000000
 20
0.000000
 30
0.000000
  70
     8
  0
VERTEX
  8
01
  5
2781B
 10
3813.48
 20
-1834.20
 30
0.000000
  70
    32
  0
VERTEX
  8
01
  5
2781C
 10
3813.48
 20
-1834.21
 30
0.000000
  70
    32
  0
VERTEX
  8
01
  5
2781D
 10
3813.48
 20
-1834.22
 30
0.000000
  70
    32
  0
VERTEX
  8
01
  5
2781E
 10
3813.48
 20
-1834.23
 30
0.000000
  70
    32
  0
VERTEX
  8
01
  5
2781F
 10
3813.48
 20
-1834.24
 30
0.000000
  70
    32
  0
VERTEX
  8
01
  5
27820
 10
3813.48
 20
-1834.25
 30
0.000000
  70
    32
  0
VERTEX
  8
01
  5
27821
 10
3813.48
 20
-1834.26
 30
0.000000
  70
    32
  0
VERTEX
  8
01
  5
27822
 10
3813.48
 20
-1834.27
 30
0.000000
  70
    32
  0
VERTEX
  8
01
  5
27823
 10
3813.48
 20
-1834.28
 30
0.000000
  70
    32
  0
VERTEX
  8
01
  5
27824
 10
3813.48
 20
-1834.29
 30
0.000000
  70
    32
  0
VERTEX
  8
01
  5
27825
 10
3813.48
 20
-1834.30
 30
0.000000
  70
    32
  0
VERTEX
  8
01
  5
27826
 10
3813.48
 20
-1834.31
 30
0.000000
  70
    32
  0
VERTEX
  8
01
  5
27827
 10
3813.48
 20
-1834.32
 30
0.000000
  70
    32
  0
VERTEX
  8
01
  5
27828
 10
3813.48
 20
-1834.33
 30
0.000000
  70
    32
  0
VERTEX
  8
01
  5
27829
 10
3813.48
 20
-1834.34
 30
0.000000
  70
    32
  0
VERTEX
  8
01
  5
2782A
 10
3813.48
 20
-1834.35
 30
0.000000
  70
    32
  0
VERTEX
  8
01
  5
2782B
 10
3813.48
 20
-1834.35
 30
0.000000
  70
    32
  0
VERTEX
  8
01
  5
2782C
 10
3813.48
 20
-1834.36
 30
0.000000
  70
    32
  0
VERTEX
  8
01
  5
2782D
 10
3813.48
 20
-1834.37
 30
0.000000
  70
    32
  0
VERTEX
  8
01
  5
2782E
 10
3813.47
 20
-1834.38
 30
0.000000
  70
    32
  0
VERTEX
  8
01
  5
2782F
 10
3813.47
 20
-1834.39
 30
0.000000
  70
    32
  0
VERTEX
  8
01
  5
27830
 10
3813.47
 20
-1834.40
 30
0.000000
  70
    32
  0
VERTEX
  8
01
  5
27831
 10
3813.47
 20
-1834.41
 30
0.000000
  70
    32
  0
VERTEX
  8
01
  5
27832
 10
3813.47
 20
-1834.42
 30
0.000000
  70
    32
  0
VERTEX
  8
01
  5
27833
 10
3813.47
 20
-1834.43
 30
0.000000
  70
    32
  0
VERTEX
  8
01
  5
27834
 10
3813.47
 20
-1834.44
 30
0.000000
  70
    32
  0
VERTEX
  8
01
  5
27835
 10
3813.47
 20
-1834.45
 30
0.000000
  70
    32
  0
VERTEX
  8
01
  5
27836
 10
3813.47
 20
-1834.46
 30
0.000000
  70
    32
  0
VERTEX
  8
01
  5
27837
 10
3813.47
 20
-1834.47
 30
0.000000
  70
    32
  0
VERTEX
  8
01
  5
27838
 10
3813.47
 20
-1834.48
 30
0.000000
  70
    32
  0
VERTEX
  8
01
  5
27839
 10
3813.47
 20
-1834.49
 30
0.000000
  70
    32
  0
VERTEX
  8
01
  5
2783A
 10
3813.47
 20
-1834.50
 30
0.000000
  70
    32
  0
VERTEX
  8
01
  5
2783B
 10
3813.47
 20
-1834.51
 30
0.000000
  70
    32
  0
VERTEX
  8
01
  5
2783C
 10
3813.47
 20
-1834.52
 30
0.000000
  70
    32
  0
VERTEX
  8
01
  5
2783D
 10
3813.47
 20
-1834.52
 30
0.000000
  70
    32
  0
VERTEX
  8
01
  5
2783E
 10
3813.47
 20
-1834.53
 30
0.000000
  70
    32
  0
VERTEX
  8
01
  5
2783F
 10
3813.47
 20
-1834.54
 30
0.000000
  70
    32
  0
VERTEX
  8
01
  5
27840
 10
3813.47
 20
-1834.55
 30
0.000000
  70
    32
  0
VERTEX
  8
01
  5
27841
 10
3813.47
 20
-1834.56
 30
0.000000
  70
    32
  0
VERTEX
  8
01
  5
27842
 10
3813.46
 20
-1834.57
 30
0.000000
  70
    32
  0
VERTEX
  8
01
  5
27843
 10
3813.46
 20
-1834.58
 30
0.000000
  70
    32
  0
VERTEX
  8
01
  5
27844
 10
3813.46
 20
-1834.59
 30
0.000000
  70
    32
  0
VERTEX
  8
01
  5
27845
 10
3813.46
 20
-1834.60
 30
0.000000
  70
    32
  0
VERTEX
  8
01
  5
27846
 10
3813.46
 20
-1834.61
 30
0.000000
  70
    32
  0
VERTEX
  8
01
  5
27847
 10
3813.46
 20
-1834.62
 30
0.000000
  70
    32
  0
VERTEX
  8
01
  5
27848
 10
3813.46
 20
-1834.63
 30
0.000000
  70
    32
  0
VERTEX
  8
01
  5
27849
 10
3813.46
 20
-1834.64
 30
0.000000
  70
    32
  0
VERTEX
  8
01
  5
2784A
 10
3813.46
 20
-1834.65
 30
0.000000
  70
    32
  0
VERTEX
  8
01
  5
2784B
 10
3813.46
 20
-1834.66
 30
0.000000
  70
    32
  0
VERTEX
  8
01
  5
2784C
 10
3813.46
 20
-1834.67
 30
0.000000
  70
    32
  0
VERTEX
  8
01
  5
2784D
 10
3813.46
 20
-1834.68
 30
0.000000
  70
    32
  0
VERTEX
  8
01
  5
2784E
 10
3813.46
 20
-1834.69
 30
0.000000
  70
    32
  0
VERTEX
  8
01
  5
2784F
 10
3813.46
 20
-1834.69
 30
0.000000
  70
    32
  0
VERTEX
  8
01
  5
27850
 10
3813.46
 20
-1834.70
 30
0.000000
  70
    32
  0
VERTEX
  8
01
  5
27851
 10
3813.46
 20
-1834.71
 30
0.000000
  70
    32
  0
VERTEX
  8
01
  5
27852
 10
3813.46
 20
-1834.72
 30
0.000000
  70
    32
  0
VERTEX
  8
01
  5
27853
 10
3813.46
 20
-1834.73
 30
0.000000
  70
    32
  0
VERTEX
  8
01
  5
27854
 10
3813.46
 20
-1834.74
 30
0.000000
  70
    32
  0
VERTEX
  8
01
  5
27855
 10
3813.46
 20
-1834.75
 30
0.000000
  70
    32
  0
VERTEX
  8
01
  5
27856
 10
3813.45
 20
-1834.76
 30
0.000000
  70
    32
  0
VERTEX
  8
01
  5
27857
 10
3813.45
 20
-1834.77
 30
0.000000
  70
    32
  0
VERTEX
  8
01
  5
27858
 10
3813.45
 20
-1834.78
 30
0.000000
  70
    32
  0
VERTEX
  8
01
  5
27859
 10
3813.45
 20
-1834.79
 30
0.000000
  70
    32
  0
VERTEX
  8
01
  5
2785A
 10
3813.45
 20
-1834.80
 30
0.000000
  70
    32
  0
VERTEX
  8
01
  5
2785B
 10
3813.45
 20
-1834.81
 30
0.000000
  70
    32
  0
VERTEX
  8
01
  5
2785C
 10
3813.45
 20
-1834.82
 30
0.000000
  70
    32
  0
VERTEX
  8
01
  5
2785D
 10
3813.45
 20
-1834.83
 30
0.000000
  70
    32
  0
VERTEX
  8
01
  5
2785E
 10
3813.45
 20
-1834.84
 30
0.000000
  70
    32
  0
VERTEX
  8
01
  5
2785F
 10
3813.45
 20
-1834.85
 30
0.000000
  70
    32
  0
VERTEX
  8
01
  5
27860
 10
3813.45
 20
-1834.86
 30
0.000000
  70
    32
  0
VERTEX
  8
01
  5
27861
 10
3813.45
 20
-1834.86
 30
0.000000
  70
    32
  0
VERTEX
  8
01
  5
27862
 10
3813.45
 20
-1834.87
 30
0.000000
  70
    32
  0
VERTEX
  8
01
  5
27863
 10
3813.45
 20
-1834.88
 30
0.000000
  70
    32
  0
VERTEX
  8
01
  5
27864
 10
3813.45
 20
-1834.89
 30
0.000000
  70
    32
  0
VERTEX
  8
01
  5
27865
 10
3813.45
 20
-1834.90
 30
0.000000
  70
    32
  0
VERTEX
  8
01
  5
27866
 10
3813.45
 20
-1834.91
 30
0.000000
  70
    32
  0
VERTEX
  8
01
  5
27867
 10
3813.45
 20
-1834.92
 30
0.000000
  70
    32
  0
VERTEX
  8
01
  5
27868
 10
3813.45
 20
-1834.93
 30
0.000000
  70
    32
  0
VERTEX
  8
01
  5
27869
 10
3813.45
 20
-1834.94
 30
0.000000
  70
    32
  0
VERTEX
  8
01
  5
2786A
 10
3813.44
 20
-1834.95
 30
0.000000
  70
    32
  0
VERTEX
  8
01
  5
2786B
 10
3813.44
 20
-1834.96
 30
0.000000
  70
    32
  0
VERTEX
  8
01
  5
2786C
 10
3813.44
 20
-1834.97
 30
0.000000
  70
    32
  0
VERTEX
  8
01
  5
2786D
 10
3813.44
 20
-1834.98
 30
0.000000
  70
    32
  0
VERTEX
  8
01
  5
2786E
 10
3813.44
 20
-1834.99
 30
0.000000
  70
    32
  0
VERTEX
  8
01
  5
2786F
 10
3813.44
 20
-1835.00
 30
0.000000
  70
    32
  0
VERTEX
  8
01
  5
27870
 10
3813.44
 20
-1835.01
 30
0.000000
  70
    32
  0
VERTEX
  8
01
  5
27871
 10
3813.44
 20
-1835.02
 30
0.000000
  70
    32
  0
VERTEX
  8
01
  5
27872
 10
3813.44
 20
-1835.03
 30
0.000000
  70
    32
  0
VERTEX
  8
01
  5
27873
 10
3813.44
 20
-1835.03
 30
0.000000
  70
    32
  0
VERTEX
  8
01
  5
27874
 10
3813.44
 20
-1835.04
 30
0.000000
  70
    32
  0
VERTEX
  8
01
  5
27875
 10
3813.44
 20
-1835.05
 30
0.000000
  70
    32
  0
VERTEX
  8
01
  5
27876
 10
3813.44
 20
-1835.06
 30
0.000000
  70
    32
  0
VERTEX
  8
01
  5
27877
 10
3813.44
 20
-1835.07
 30
0.000000
  70
    32
  0
VERTEX
  8
01
  5
27878
 10
3813.44
 20
-1835.08
 30
0.000000
  70
    32
  0
VERTEX
  8
01
  5
27879
 10
3813.44
 20
-1835.09
 30
0.000000
  70
    32
  0
VERTEX
  8
01
  5
2787A
 10
3813.44
 20
-1835.10
 30
0.000000
  70
    32
  0
VERTEX
  8
01
  5
2787B
 10
3813.44
 20
-1835.11
 30
0.000000
  70
    32
  0
VERTEX
  8
01
  5
2787C
 10
3813.44
 20
-1835.12
 30
0.000000
  70
    32
  0
VERTEX
  8
01
  5
2787D
 10
3813.44
 20
-1835.13
 30
0.000000
  70
    32
  0
VERTEX
  8
01
  5
2787E
 10
3813.43
 20
-1835.14
 30
0.000000
  70
    32
  0
VERTEX
  8
01
  5
2787F
 10
3813.43
 20
-1835.15
 30
0.000000
  70
    32
  0
VERTEX
  8
01
  5
27880
 10
3813.43
 20
-1835.16
 30
0.000000
  70
    32
  0
VERTEX
  8
01
  5
27881
 10
3813.43
 20
-1835.17
 30
0.000000
  70
    32
  0
VERTEX
  8
01
  5
27882
 10
3813.43
 20
-1835.18
 30
0.000000
  70
    32
  0
VERTEX
  8
01
  5
27883
 10
3813.43
 20
-1835.19
 30
0.000000
  70
    32
  0
VERTEX
  8
01
  5
27884
 10
3813.43
 20
-1835.20
 30
0.000000
  70
    32
  0
VERTEX
  8
01
  5
27885
 10
3813.43
 20
-1835.20
 30
0.000000
  70
    32
  0
VERTEX
  8
01
  5
27886
 10
3813.43
 20
-1835.21
 30
0.000000
  70
    32
  0
VERTEX
  8
01
  5
27887
 10
3813.43
 20
-1835.22
 30
0.000000
  70
    32
  0
VERTEX
  8
01
  5
27888
 10
3813.43
 20
-1835.23
 30
0.000000
  70
    32
  0
VERTEX
  8
01
  5
27889
 10
3813.43
 20
-1835.24
 30
0.000000
  70
    32
  0
VERTEX
  8
01
  5
2788A
 10
3813.43
 20
-1835.25
 30
0.000000
  70
    32
  0
VERTEX
  8
01
  5
2788B
 10
3813.43
 20
-1835.26
 30
0.000000
  70
    32
  0
VERTEX
  8
01
  5
2788C
 10
3813.43
 20
-1835.27
 30
0.000000
  70
    32
  0
VERTEX
  8
01
  5
2788D
 10
3813.43
 20
-1835.28
 30
0.000000
  70
    32
  0
VERTEX
  8
01
  5
2788E
 10
3813.43
 20
-1835.29
 30
0.000000
  70
    32
  0
VERTEX
  8
01
  5
2788F
 10
3813.43
 20
-1835.30
 30
0.000000
  70
    32
  0
VERTEX
  8
01
  5
27890
 10
3813.43
 20
-1835.31
 30
0.000000
  70
    32
  0
VERTEX
  8
01
  5
27891
 10
3813.43
 20
-1835.32
 30
0.000000
  70
    32
  0
VERTEX
  8
01
  5
27892
 10
3813.42
 20
-1835.33
 30
0.000000
  70
    32
  0
VERTEX
  8
01
  5
27893
 10
3813.42
 20
-1835.34
 30
0.000000
  70
    32
  0
VERTEX
  8
01
  5
27894
 10
3813.42
 20
-1835.35
 30
0.000000
  70
    32
  0
VERTEX
  8
01
  5
27895
 10
3813.42
 20
-1835.36
 30
0.000000
  70
    32
  0
VERTEX
  8
01
  5
27896
 10
3813.42
 20
-1835.37
 30
0.000000
  70
    32
  0
VERTEX
  8
01
  5
27897
 10
3813.42
 20
-1835.37
 30
0.000000
  70
    32
  0
VERTEX
  8
01
  5
27898
 10
3813.42
 20
-1835.38
 30
0.000000
  70
    32
  0
VERTEX
  8
01
  5
27899
 10
3813.42
 20
-1835.39
 30
0.000000
  70
    32
  0
VERTEX
  8
01
  5
2789A
 10
3813.42
 20
-1835.40
 30
0.000000
  70
    32
  0
SEQEND
  8
01
  5
2789B
  0
POLYLINE
  8
01
  5
2789C
  66
     1
 10
0.000000
 20
0.000000
 30
0.000000
  70
     8
  0
VERTEX
  8
01
  5
2789D
 10
3815.56
 20
-1834.29
 30
0.000000
  70
    32
  0
VERTEX
  8
01
  5
2789E
 10
3815.56
 20
-1834.30
 30
0.000000
  70
    32
  0
VERTEX
  8
01
  5
2789F
 10
3815.56
 20
-1834.31
 30
0.000000
  70
    32
  0
VERTEX
  8
01
  5
278A0
 10
3815.56
 20
-1834.32
 30
0.000000
  70
    32
  0
VERTEX
  8
01
  5
278A1
 10
3815.56
 20
-1834.33
 30
0.000000
  70
    32
  0
VERTEX
  8
01
  5
278A2
 10
3815.56
 20
-1834.34
 30
0.000000
  70
    32
  0
VERTEX
  8
01
  5
278A3
 10
3815.56
 20
-1834.35
 30
0.000000
  70
    32
  0
VERTEX
  8
01
  5
278A4
 10
3815.56
 20
-1834.36
 30
0.000000
  70
    32
  0
VERTEX
  8
01
  5
278A5
 10
3815.56
 20
-1834.37
 30
0.000000
  70
    32
  0
VERTEX
  8
01
  5
278A6
 10
3815.56
 20
-1834.38
 30
0.000000
  70
    32
  0
VERTEX
  8
01
  5
278A7
 10
3815.56
 20
-1834.39
 30
0.000000
  70
    32
  0
VERTEX
  8
01
  5
278A8
 10
3815.56
 20
-1834.40
 30
0.000000
  70
    32
  0
VERTEX
  8
01
  5
278A9
 10
3815.56
 20
-1834.41
 30
0.000000
  70
    32
  0
VERTEX
  8
01
  5
278AA
 10
3815.56
 20
-1834.41
 30
0.000000
  70
    32
  0
VERTEX
  8
01
  5
278AB
 10
3815.56
 20
-1834.42
 30
0.000000
  70
    32
  0
VERTEX
  8
01
  5
278AC
 10
3815.56
 20
-1834.43
 30
0.000000
  70
    32
  0
VERTEX
  8
01
  5
278AD
 10
3815.55
 20
-1834.44
 30
0.000000
  70
    32
  0
VERTEX
  8
01
  5
278AE
 10
3815.55
 20
-1834.45
 30
0.000000
  70
    32
  0
VERTEX
  8
01
  5
278AF
 10
3815.55
 20
-1834.46
 30
0.000000
  70
    32
  0
VERTEX
  8
01
  5
278B0
 10
3815.55
 20
-1834.47
 30
0.000000
  70
    32
  0
VERTEX
  8
01
  5
278B1
 10
3815.55
 20
-1834.48
 30
0.000000
  70
    32
  0
VERTEX
  8
01
  5
278B2
 10
3815.55
 20
-1834.49
 30
0.000000
  70
    32
  0
VERTEX
  8
01
  5
278B3
 10
3815.55
 20
-1834.50
 30
0.000000
  70
    32
  0
VERTEX
  8
01
  5
278B4
 10
3815.55
 20
-1834.51
 30
0.000000
  70
    32
  0
VERTEX
  8
01
  5
278B5
 10
3815.55
 20
-1834.52
 30
0.000000
  70
    32
  0
VERTEX
  8
01
  5
278B6
 10
3815.55
 20
-1834.53
 30
0.000000
  70
    32
  0
VERTEX
  8
01
  5
278B7
 10
3815.55
 20
-1834.54
 30
0.000000
  70
    32
  0
VERTEX
  8
01
  5
278B8
 10
3815.55
 20
-1834.55
 30
0.000000
  70
    32
  0
VERTEX
  8
01
  5
278B9
 10
3815.55
 20
-1834.55
 30
0.000000
  70
    32
  0
VERTEX
  8
01
  5
278BA
 10
3815.55
 20
-1834.56
 30
0.000000
  70
    32
  0
VERTEX
  8
01
  5
278BB
 10
3815.55
 20
-1834.57
 30
0.000000
  70
    32
  0
VERTEX
  8
01
  5
278BC
 10
3815.55
 20
-1834.58
 30
0.000000
  70
    32
  0
VERTEX
  8
01
  5
278BD
 10
3815.55
 20
-1834.59
 30
0.000000
  70
    32
  0
VERTEX
  8
01
  5
278BE
 10
3815.54
 20
-1834.60
 30
0.000000
  70
    32
  0
VERTEX
  8
01
  5
278BF
 10
3815.54
 20
-1834.61
 30
0.000000
  70
    32
  0
VERTEX
  8
01
  5
278C0
 10
3815.54
 20
-1834.62
 30
0.000000
  70
    32
  0
VERTEX
  8
01
  5
278C1
 10
3815.54
 20
-1834.63
 30
0.000000
  70
    32
  0
VERTEX
  8
01
  5
278C2
 10
3815.54
 20
-1834.64
 30
0.000000
  70
    32
  0
VERTEX
  8
01
  5
278C3
 10
3815.54
 20
-1834.65
 30
0.000000
  70
    32
  0
VERTEX
  8
01
  5
278C4
 10
3815.54
 20
-1834.66
 30
0.000000
  70
    32
  0
VERTEX
  8
01
  5
278C5
 10
3815.54
 20
-1834.67
 30
0.000000
  70
    32
  0
VERTEX
  8
01
  5
278C6
 10
3815.54
 20
-1834.68
 30
0.000000
  70
    32
  0
VERTEX
  8
01
  5
278C7
 10
3815.54
 20
-1834.69
 30
0.000000
  70
    32
  0
VERTEX
  8
01
  5
278C8
 10
3815.54
 20
-1834.70
 30
0.000000
  70
    32
  0
VERTEX
  8
01
  5
278C9
 10
3815.54
 20
-1834.70
 30
0.000000
  70
    32
  0
VERTEX
  8
01
  5
278CA
 10
3815.54
 20
-1834.71
 30
0.000000
  70
    32
  0
VERTEX
  8
01
  5
278CB
 10
3815.54
 20
-1834.72
 30
0.000000
  70
    32
  0
VERTEX
  8
01
  5
278CC
 10
3815.54
 20
-1834.73
 30
0.000000
  70
    32
  0
VERTEX
  8
01
  5
278CD
 10
3815.54
 20
-1834.74
 30
0.000000
  70
    32
  0
VERTEX
  8
01
  5
278CE
 10
3815.54
 20
-1834.75
 30
0.000000
  70
    32
  0
VERTEX
  8
01
  5
278CF
 10
3815.53
 20
-1834.76
 30
0.000000
  70
    32
  0
VERTEX
  8
01
  5
278D0
 10
3815.53
 20
-1834.77
 30
0.000000
  70
    32
  0
VERTEX
  8
01
  5
278D1
 10
3815.53
 20
-1834.78
 30
0.000000
  70
    32
  0
VERTEX
  8
01
  5
278D2
 10
3815.53
 20
-1834.79
 30
0.000000
  70
    32
  0
VERTEX
  8
01
  5
278D3
 10
3815.53
 20
-1834.80
 30
0.000000
  70
    32
  0
VERTEX
  8
01
  5
278D4
 10
3815.53
 20
-1834.81
 30
0.000000
  70
    32
  0
VERTEX
  8
01
  5
278D5
 10
3815.53
 20
-1834.82
 30
0.000000
  70
    32
  0
VERTEX
  8
01
  5
278D6
 10
3815.53
 20
-1834.83
 30
0.000000
  70
    32
  0
VERTEX
  8
01
  5
278D7
 10
3815.53
 20
-1834.84
 30
0.000000
  70
    32
  0
VERTEX
  8
01
  5
278D8
 10
3815.53
 20
-1834.84
 30
0.000000
  70
    32
  0
VERTEX
  8
01
  5
278D9
 10
3815.53
 20
-1834.85
 30
0.000000
  70
    32
  0
VERTEX
  8
01
  5
278DA
 10
3815.53
 20
-1834.86
 30
0.000000
  70
    32
  0
VERTEX
  8
01
  5
278DB
 10
3815.53
 20
-1834.87
 30
0.000000
  70
    32
  0
VERTEX
  8
01
  5
278DC
 10
3815.53
 20
-1834.88
 30
0.000000
  70
    32
  0
VERTEX
  8
01
  5
278DD
 10
3815.53
 20
-1834.89
 30
0.000000
  70
    32
  0
VERTEX
  8
01
  5
278DE
 10
3815.53
 20
-1834.90
 30
0.000000
  70
    32
  0
VERTEX
  8
01
  5
278DF
 10
3815.53
 20
-1834.91
 30
0.000000
  70
    32
  0
VERTEX
  8
01
  5
278E0
 10
3815.52
 20
-1834.92
 30
0.000000
  70
    32
  0
VERTEX
  8
01
  5
278E1
 10
3815.52
 20
-1834.93
 30
0.000000
  70
    32
  0
VERTEX
  8
01
  5
278E2
 10
3815.52
 20
-1834.94
 30
0.000000
  70
    32
  0
VERTEX
  8
01
  5
278E3
 10
3815.52
 20
-1834.95
 30
0.000000
  70
    32
  0
VERTEX
  8
01
  5
278E4
 10
3815.52
 20
-1834.96
 30
0.000000
  70
    32
  0
VERTEX
  8
01
  5
278E5
 10
3815.52
 20
-1834.97
 30
0.000000
  70
    32
  0
VERTEX
  8
01
  5
278E6
 10
3815.52
 20
-1834.98
 30
0.000000
  70
    32
  0
VERTEX
  8
01
  5
278E7
 10
3815.52
 20
-1834.98
 30
0.000000
  70
    32
  0
VERTEX
  8
01
  5
278E8
 10
3815.52
 20
-1834.99
 30
0.000000
  70
    32
  0
VERTEX
  8
01
  5
278E9
 10
3815.52
 20
-1835.00
 30
0.000000
  70
    32
  0
VERTEX
  8
01
  5
278EA
 10
3815.52
 20
-1835.01
 30
0.000000
  70
    32
  0
VERTEX
  8
01
  5
278EB
 10
3815.52
 20
-1835.02
 30
0.000000
  70
    32
  0
VERTEX
  8
01
  5
278EC
 10
3815.52
 20
-1835.03
 30
0.000000
  70
    32
  0
VERTEX
  8
01
  5
278ED
 10
3815.52
 20
-1835.04
 30
0.000000
  70
    32
  0
VERTEX
  8
01
  5
278EE
 10
3815.52
 20
-1835.05
 30
0.000000
  70
    32
  0
VERTEX
  8
01
  5
278EF
 10
3815.52
 20
-1835.06
 30
0.000000
  70
    32
  0
VERTEX
  8
01
  5
278F0
 10
3815.51
 20
-1835.07
 30
0.000000
  70
    32
  0
VERTEX
  8
01
  5
278F1
 10
3815.51
 20
-1835.08
 30
0.000000
  70
    32
  0
VERTEX
  8
01
  5
278F2
 10
3815.51
 20
-1835.09
 30
0.000000
  70
    32
  0
VERTEX
  8
01
  5
278F3
 10
3815.51
 20
-1835.10
 30
0.000000
  70
    32
  0
VERTEX
  8
01
  5
278F4
 10
3815.51
 20
-1835.11
 30
0.000000
  70
    32
  0
VERTEX
  8
01
  5
278F5
 10
3815.51
 20
-1835.12
 30
0.000000
  70
    32
  0
VERTEX
  8
01
  5
278F6
 10
3815.51
 20
-1835.12
 30
0.000000
  70
    32
  0
VERTEX
  8
01
  5
278F7
 10
3815.51
 20
-1835.13
 30
0.000000
  70
    32
  0
VERTEX
  8
01
  5
278F8
 10
3815.51
 20
-1835.14
 30
0.000000
  70
    32
  0
VERTEX
  8
01
  5
278F9
 10
3815.51
 20
-1835.15
 30
0.000000
  70
    32
  0
VERTEX
  8
01
  5
278FA
 10
3815.51
 20
-1835.16
 30
0.000000
  70
    32
  0
VERTEX
  8
01
  5
278FB
 10
3815.51
 20
-1835.17
 30
0.000000
  70
    32
  0
VERTEX
  8
01
  5
278FC
 10
3815.51
 20
-1835.18
 30
0.000000
  70
    32
  0
VERTEX
  8
01
  5
278FD
 10
3815.51
 20
-1835.19
 30
0.000000
  70
    32
  0
VERTEX
  8
01
  5
278FE
 10
3815.51
 20
-1835.20
 30
0.000000
  70
    32
  0
VERTEX
  8
01
  5
278FF
 10
3815.51
 20
-1835.21
 30
0.000000
  70
    32
  0
VERTEX
  8
01
  5
27900
 10
3815.51
 20
-1835.22
 30
0.000000
  70
    32
  0
VERTEX
  8
01
  5
27901
 10
3815.50
 20
-1835.23
 30
0.000000
  70
    32
  0
VERTEX
  8
01
  5
27902
 10
3815.50
 20
-1835.24
 30
0.000000
  70
    32
  0
VERTEX
  8
01
  5
27903
 10
3815.50
 20
-1835.25
 30
0.000000
  70
    32
  0
VERTEX
  8
01
  5
27904
 10
3815.50
 20
-1835.26
 30
0.000000
  70
    32
  0
VERTEX
  8
01
  5
27905
 10
3815.50
 20
-1835.26
 30
0.000000
  70
    32
  0
VERTEX
  8
01
  5
27906
 10
3815.50
 20
-1835.27
 30
0.000000
  70
    32
  0
VERTEX
  8
01
  5
27907
 10
3815.50
 20
-1835.28
 30
0.000000
  70
    32
  0
VERTEX
  8
01
  5
27908
 10
3815.50
 20
-1835.29
 30
0.000000
  70
    32
  0
VERTEX
  8
01
  5
27909
 10
3815.50
 20
-1835.30
 30
0.000000
  70
    32
  0
VERTEX
  8
01
  5
2790A
 10
3815.50
 20
-1835.31
 30
0.000000
  70
    32
  0
VERTEX
  8
01
  5
2790B
 10
3815.50
 20
-1835.32
 30
0.000000
  70
    32
  0
VERTEX
  8
01
  5
2790C
 10
3815.50
 20
-1835.33
 30
0.000000
  70
    32
  0
VERTEX
  8
01
  5
2790D
 10
3815.50
 20
-1835.34
 30
0.000000
  70
    32
  0
VERTEX
  8
01
  5
2790E
 10
3815.50
 20
-1835.35
 30
0.000000
  70
    32
  0
VERTEX
  8
01
  5
2790F
 10
3815.50
 20
-1835.36
 30
0.000000
  70
    32
  0
VERTEX
  8
01
  5
27910
 10
3815.50
 20
-1835.37
 30
0.000000
  70
    32
  0
VERTEX
  8
01
  5
27911
 10
3815.50
 20
-1835.38
 30
0.000000
  70
    32
  0
VERTEX
  8
01
  5
27912
 10
3815.49
 20
-1835.39
 30
0.000000
  70
    32
  0
VERTEX
  8
01
  5
27913
 10
3815.49
 20
-1835.40
 30
0.000000
  70
    32
  0
VERTEX
  8
01
  5
27914
 10
3815.49
 20
-1835.40
 30
0.000000
  70
    32
  0
VERTEX
  8
01
  5
27915
 10
3815.49
 20
-1835.41
 30
0.000000
  70
    32
  0
VERTEX
  8
01
  5
27916
 10
3815.49
 20
-1835.42
 30
0.000000
  70
    32
  0
VERTEX
  8
01
  5
27917
 10
3815.49
 20
-1835.43
 30
0.000000
  70
    32
  0
VERTEX
  8
01
  5
27918
 10
3815.49
 20
-1835.44
 30
0.000000
  70
    32
  0
VERTEX
  8
01
  5
27919
 10
3815.49
 20
-1835.45
 30
0.000000
  70
    32
  0
VERTEX
  8
01
  5
2791A
 10
3815.49
 20
-1835.46
 30
0.000000
  70
    32
  0
VERTEX
  8
01
  5
2791B
 10
3815.49
 20
-1835.47
 30
0.000000
  70
    32
  0
VERTEX
  8
01
  5
2791C
 10
3815.49
 20
-1835.48
 30
0.000000
  70
    32
  0
SEQEND
  8
01
  5
2791D
  0
LINE
  5
26751
  8
01
 10
3815.488782869334
 20
-1835.47958709779
 30
0.0
 11
3814.870794426985
 21
-1835.4403271405411
 31
0.0
  0
LINE
  5
26752
  8
01
 10
3815.2985804195741
 20
-1838.4735515311299
 30
0.0
 11
3814.4127164888318
 21
-1838.417273811895
 31
0.0
  0
POLYLINE
  8
01
  5
2791E
  66
     1
 10
0.000000
 20
0.000000
 30
0.000000
  70
     8
  0
VERTEX
  8
01
  5
2791F
 10
3814.93
 20
-1834.27
 30
0.000000
  70
    32
  0
VERTEX
  8
01
  5
27920
 10
3814.93
 20
-1834.28
 30
0.000000
  70
    32
  0
VERTEX
  8
01
  5
27921
 10
3814.93
 20
-1834.29
 30
0.000000
  70
    32
  0
VERTEX
  8
01
  5
27922
 10
3814.93
 20
-1834.29
 30
0.000000
  70
    32
  0
VERTEX
  8
01
  5
27923
 10
3814.93
 20
-1834.30
 30
0.000000
  70
    32
  0
VERTEX
  8
01
  5
27924
 10
3814.93
 20
-1834.31
 30
0.000000
  70
    32
  0
VERTEX
  8
01
  5
27925
 10
3814.93
 20
-1834.32
 30
0.000000
  70
    32
  0
VERTEX
  8
01
  5
27926
 10
3814.93
 20
-1834.33
 30
0.000000
  70
    32
  0
VERTEX
  8
01
  5
27927
 10
3814.93
 20
-1834.34
 30
0.000000
  70
    32
  0
VERTEX
  8
01
  5
27928
 10
3814.93
 20
-1834.35
 30
0.000000
  70
    32
  0
VERTEX
  8
01
  5
27929
 10
3814.93
 20
-1834.36
 30
0.000000
  70
    32
  0
VERTEX
  8
01
  5
2792A
 10
3814.93
 20
-1834.37
 30
0.000000
  70
    32
  0
VERTEX
  8
01
  5
2792B
 10
3814.93
 20
-1834.38
 30
0.000000
  70
    32
  0
VERTEX
  8
01
  5
2792C
 10
3814.93
 20
-1834.39
 30
0.000000
  70
    32
  0
VERTEX
  8
01
  5
2792D
 10
3814.93
 20
-1834.40
 30
0.000000
  70
    32
  0
VERTEX
  8
01
  5
2792E
 10
3814.93
 20
-1834.41
 30
0.000000
  70
    32
  0
VERTEX
  8
01
  5
2792F
 10
3814.93
 20
-1834.42
 30
0.000000
  70
    32
  0
VERTEX
  8
01
  5
27930
 10
3814.92
 20
-1834.43
 30
0.000000
  70
    32
  0
VERTEX
  8
01
  5
27931
 10
3814.92
 20
-1834.44
 30
0.000000
  70
    32
  0
VERTEX
  8
01
  5
27932
 10
3814.92
 20
-1834.45
 30
0.000000
  70
    32
  0
VERTEX
  8
01
  5
27933
 10
3814.92
 20
-1834.46
 30
0.000000
  70
    32
  0
VERTEX
  8
01
  5
27934
 10
3814.92
 20
-1834.47
 30
0.000000
  70
    32
  0
VERTEX
  8
01
  5
27935
 10
3814.92
 20
-1834.48
 30
0.000000
  70
    32
  0
VERTEX
  8
01
  5
27936
 10
3814.92
 20
-1834.49
 30
0.000000
  70
    32
  0
VERTEX
  8
01
  5
27937
 10
3814.92
 20
-1834.50
 30
0.000000
  70
    32
  0
VERTEX
  8
01
  5
27938
 10
3814.92
 20
-1834.51
 30
0.000000
  70
    32
  0
VERTEX
  8
01
  5
27939
 10
3814.92
 20
-1834.51
 30
0.000000
  70
    32
  0
VERTEX
  8
01
  5
2793A
 10
3814.92
 20
-1834.52
 30
0.000000
  70
    32
  0
VERTEX
  8
01
  5
2793B
 10
3814.92
 20
-1834.53
 30
0.000000
  70
    32
  0
VERTEX
  8
01
  5
2793C
 10
3814.92
 20
-1834.54
 30
0.000000
  70
    32
  0
VERTEX
  8
01
  5
2793D
 10
3814.92
 20
-1834.55
 30
0.000000
  70
    32
  0
VERTEX
  8
01
  5
2793E
 10
3814.92
 20
-1834.56
 30
0.000000
  70
    32
  0
VERTEX
  8
01
  5
2793F
 10
3814.92
 20
-1834.57
 30
0.000000
  70
    32
  0
VERTEX
  8
01
  5
27940
 10
3814.92
 20
-1834.58
 30
0.000000
  70
    32
  0
VERTEX
  8
01
  5
27941
 10
3814.92
 20
-1834.59
 30
0.000000
  70
    32
  0
VERTEX
  8
01
  5
27942
 10
3814.92
 20
-1834.60
 30
0.000000
  70
    32
  0
VERTEX
  8
01
  5
27943
 10
3814.91
 20
-1834.61
 30
0.000000
  70
    32
  0
VERTEX
  8
01
  5
27944
 10
3814.91
 20
-1834.62
 30
0.000000
  70
    32
  0
VERTEX
  8
01
  5
27945
 10
3814.91
 20
-1834.63
 30
0.000000
  70
    32
  0
VERTEX
  8
01
  5
27946
 10
3814.91
 20
-1834.64
 30
0.000000
  70
    32
  0
VERTEX
  8
01
  5
27947
 10
3814.91
 20
-1834.65
 30
0.000000
  70
    32
  0
VERTEX
  8
01
  5
27948
 10
3814.91
 20
-1834.66
 30
0.000000
  70
    32
  0
VERTEX
  8
01
  5
27949
 10
3814.91
 20
-1834.67
 30
0.000000
  70
    32
  0
VERTEX
  8
01
  5
2794A
 10
3814.91
 20
-1834.68
 30
0.000000
  70
    32
  0
VERTEX
  8
01
  5
2794B
 10
3814.91
 20
-1834.69
 30
0.000000
  70
    32
  0
VERTEX
  8
01
  5
2794C
 10
3814.91
 20
-1834.70
 30
0.000000
  70
    32
  0
VERTEX
  8
01
  5
2794D
 10
3814.91
 20
-1834.71
 30
0.000000
  70
    32
  0
VERTEX
  8
01
  5
2794E
 10
3814.91
 20
-1834.72
 30
0.000000
  70
    32
  0
VERTEX
  8
01
  5
2794F
 10
3814.91
 20
-1834.72
 30
0.000000
  70
    32
  0
VERTEX
  8
01
  5
27950
 10
3814.91
 20
-1834.73
 30
0.000000
  70
    32
  0
VERTEX
  8
01
  5
27951
 10
3814.91
 20
-1834.74
 30
0.000000
  70
    32
  0
VERTEX
  8
01
  5
27952
 10
3814.91
 20
-1834.75
 30
0.000000
  70
    32
  0
VERTEX
  8
01
  5
27953
 10
3814.91
 20
-1834.76
 30
0.000000
  70
    32
  0
VERTEX
  8
01
  5
27954
 10
3814.91
 20
-1834.77
 30
0.000000
  70
    32
  0
VERTEX
  8
01
  5
27955
 10
3814.91
 20
-1834.78
 30
0.000000
  70
    32
  0
VERTEX
  8
01
  5
27956
 10
3814.91
 20
-1834.79
 30
0.000000
  70
    32
  0
VERTEX
  8
01
  5
27957
 10
3814.90
 20
-1834.80
 30
0.000000
  70
    32
  0
VERTEX
  8
01
  5
27958
 10
3814.90
 20
-1834.81
 30
0.000000
  70
    32
  0
VERTEX
  8
01
  5
27959
 10
3814.90
 20
-1834.82
 30
0.000000
  70
    32
  0
VERTEX
  8
01
  5
2795A
 10
3814.90
 20
-1834.83
 30
0.000000
  70
    32
  0
VERTEX
  8
01
  5
2795B
 10
3814.90
 20
-1834.84
 30
0.000000
  70
    32
  0
VERTEX
  8
01
  5
2795C
 10
3814.90
 20
-1834.85
 30
0.000000
  70
    32
  0
VERTEX
  8
01
  5
2795D
 10
3814.90
 20
-1834.86
 30
0.000000
  70
    32
  0
VERTEX
  8
01
  5
2795E
 10
3814.90
 20
-1834.87
 30
0.000000
  70
    32
  0
VERTEX
  8
01
  5
2795F
 10
3814.90
 20
-1834.88
 30
0.000000
  70
    32
  0
VERTEX
  8
01
  5
27960
 10
3814.90
 20
-1834.89
 30
0.000000
  70
    32
  0
VERTEX
  8
01
  5
27961
 10
3814.90
 20
-1834.90
 30
0.000000
  70
    32
  0
VERTEX
  8
01
  5
27962
 10
3814.90
 20
-1834.91
 30
0.000000
  70
    32
  0
VERTEX
  8
01
  5
27963
 10
3814.90
 20
-1834.92
 30
0.000000
  70
    32
  0
VERTEX
  8
01
  5
27964
 10
3814.90
 20
-1834.93
 30
0.000000
  70
    32
  0
VERTEX
  8
01
  5
27965
 10
3814.90
 20
-1834.93
 30
0.000000
  70
    32
  0
VERTEX
  8
01
  5
27966
 10
3814.90
 20
-1834.94
 30
0.000000
  70
    32
  0
VERTEX
  8
01
  5
27967
 10
3814.90
 20
-1834.95
 30
0.000000
  70
    32
  0
VERTEX
  8
01
  5
27968
 10
3814.90
 20
-1834.96
 30
0.000000
  70
    32
  0
VERTEX
  8
01
  5
27969
 10
3814.90
 20
-1834.97
 30
0.000000
  70
    32
  0
VERTEX
  8
01
  5
2796A
 10
3814.90
 20
-1834.98
 30
0.000000
  70
    32
  0
VERTEX
  8
01
  5
2796B
 10
3814.89
 20
-1834.99
 30
0.000000
  70
    32
  0
VERTEX
  8
01
  5
2796C
 10
3814.89
 20
-1835.00
 30
0.000000
  70
    32
  0
VERTEX
  8
01
  5
2796D
 10
3814.89
 20
-1835.01
 30
0.000000
  70
    32
  0
VERTEX
  8
01
  5
2796E
 10
3814.89
 20
-1835.02
 30
0.000000
  70
    32
  0
VERTEX
  8
01
  5
2796F
 10
3814.89
 20
-1835.03
 30
0.000000
  70
    32
  0
VERTEX
  8
01
  5
27970
 10
3814.89
 20
-1835.04
 30
0.000000
  70
    32
  0
VERTEX
  8
01
  5
27971
 10
3814.89
 20
-1835.05
 30
0.000000
  70
    32
  0
VERTEX
  8
01
  5
27972
 10
3814.89
 20
-1835.06
 30
0.000000
  70
    32
  0
VERTEX
  8
01
  5
27973
 10
3814.89
 20
-1835.07
 30
0.000000
  70
    32
  0
VERTEX
  8
01
  5
27974
 10
3814.89
 20
-1835.08
 30
0.000000
  70
    32
  0
VERTEX
  8
01
  5
27975
 10
3814.89
 20
-1835.09
 30
0.000000
  70
    32
  0
VERTEX
  8
01
  5
27976
 10
3814.89
 20
-1835.10
 30
0.000000
  70
    32
  0
VERTEX
  8
01
  5
27977
 10
3814.89
 20
-1835.11
 30
0.000000
  70
    32
  0
VERTEX
  8
01
  5
27978
 10
3814.89
 20
-1835.12
 30
0.000000
  70
    32
  0
VERTEX
  8
01
  5
27979
 10
3814.89
 20
-1835.13
 30
0.000000
  70
    32
  0
VERTEX
  8
01
  5
2797A
 10
3814.89
 20
-1835.14
 30
0.000000
  70
    32
  0
VERTEX
  8
01
  5
2797B
 10
3814.89
 20
-1835.15
 30
0.000000
  70
    32
  0
VERTEX
  8
01
  5
2797C
 10
3814.89
 20
-1835.15
 30
0.000000
  70
    32
  0
VERTEX
  8
01
  5
2797D
 10
3814.89
 20
-1835.16
 30
0.000000
  70
    32
  0
VERTEX
  8
01
  5
2797E
 10
3814.89
 20
-1835.17
 30
0.000000
  70
    32
  0
VERTEX
  8
01
  5
2797F
 10
3814.88
 20
-1835.18
 30
0.000000
  70
    32
  0
VERTEX
  8
01
  5
27980
 10
3814.88
 20
-1835.19
 30
0.000000
  70
    32
  0
VERTEX
  8
01
  5
27981
 10
3814.88
 20
-1835.20
 30
0.000000
  70
    32
  0
VERTEX
  8
01
  5
27982
 10
3814.88
 20
-1835.21
 30
0.000000
  70
    32
  0
VERTEX
  8
01
  5
27983
 10
3814.88
 20
-1835.22
 30
0.000000
  70
    32
  0
VERTEX
  8
01
  5
27984
 10
3814.88
 20
-1835.23
 30
0.000000
  70
    32
  0
VERTEX
  8
01
  5
27985
 10
3814.88
 20
-1835.24
 30
0.000000
  70
    32
  0
VERTEX
  8
01
  5
27986
 10
3814.88
 20
-1835.25
 30
0.000000
  70
    32
  0
VERTEX
  8
01
  5
27987
 10
3814.88
 20
-1835.26
 30
0.000000
  70
    32
  0
VERTEX
  8
01
  5
27988
 10
3814.88
 20
-1835.27
 30
0.000000
  70
    32
  0
VERTEX
  8
01
  5
27989
 10
3814.88
 20
-1835.28
 30
0.000000
  70
    32
  0
VERTEX
  8
01
  5
2798A
 10
3814.88
 20
-1835.29
 30
0.000000
  70
    32
  0
VERTEX
  8
01
  5
2798B
 10
3814.88
 20
-1835.30
 30
0.000000
  70
    32
  0
VERTEX
  8
01
  5
2798C
 10
3814.88
 20
-1835.31
 30
0.000000
  70
    32
  0
VERTEX
  8
01
  5
2798D
 10
3814.88
 20
-1835.32
 30
0.000000
  70
    32
  0
VERTEX
  8
01
  5
2798E
 10
3814.88
 20
-1835.33
 30
0.000000
  70
    32
  0
VERTEX
  8
01
  5
2798F
 10
3814.88
 20
-1835.34
 30
0.000000
  70
    32
  0
VERTEX
  8
01
  5
27990
 10
3814.88
 20
-1835.35
 30
0.000000
  70
    32
  0
VERTEX
  8
01
  5
27991
 10
3814.88
 20
-1835.36
 30
0.000000
  70
    32
  0
VERTEX
  8
01
  5
27992
 10
3814.87
 20
-1835.36
 30
0.000000
  70
    32
  0
VERTEX
  8
01
  5
27993
 10
3814.87
 20
-1835.37
 30
0.000000
  70
    32
  0
VERTEX
  8
01
  5
27994
 10
3814.87
 20
-1835.38
 30
0.000000
  70
    32
  0
VERTEX
  8
01
  5
27995
 10
3814.87
 20
-1835.39
 30
0.000000
  70
    32
  0
VERTEX
  8
01
  5
27996
 10
3814.87
 20
-1835.40
 30
0.000000
  70
    32
  0
VERTEX
  8
01
  5
27997
 10
3814.87
 20
-1835.41
 30
0.000000
  70
    32
  0
VERTEX
  8
01
  5
27998
 10
3814.87
 20
-1835.42
 30
0.000000
  70
    32
  0
VERTEX
  8
01
  5
27999
 10
3814.87
 20
-1835.43
 30
0.000000
  70
    32
  0
VERTEX
  8
01
  5
2799A
 10
3814.87
 20
-1835.44
 30
0.000000
  70
    32
  0
VERTEX
  8
01
  5
2799B
 10
3814.87
 20
-1835.45
 30
0.000000
  70
    32
  0
VERTEX
  8
01
  5
2799C
 10
3814.87
 20
-1835.46
 30
0.000000
  70
    32
  0
VERTEX
  8
01
  5
2799D
 10
3814.87
 20
-1835.47
 30
0.000000
  70
    32
  0
VERTEX
  8
01
  5
2799E
 10
3814.87
 20
-1835.48
 30
0.000000
  70
    32
  0
SEQEND
  8
01
  5
2799F
  0
LINE
  5
26754
  8
01
 10
3814.8686900867278
 20
-1835.47958709779
 30
0.0
 11
3813.420705249087
 21
-1835.4029149154901
 31
0.0
  0
LINE
  5
26755
  8
01
 10
3814.7100594458529
 20
-1838.4753902154489
 30
0.0
 11
3813.2620746082121
 21
-1838.398718033149
 31
0.0
  0
LINE
  5
26756
  8
01
 10
3814.0305640878428
 20
-1858.4333144200641
 30
0.0
 11
3815.2985804195741
 21
-1838.4735515311299
 31
0.0
  0
LINE
  5
26757
  8
01
 10
3814.9991839762401
 20
-1838.4545312861551
 30
0.0
 11
3815.1893864260001
 21
-1835.4605668528141
 31
0.0
  0
LINE
  5
26758
  8
01
 10
3813.2620746082121
 20
-1838.398718033149
 30
0.0
 11
3812.204537002377
 21
-1858.370738817543
 31
0.0
  0
LINE
  5
26759
  8
01
 10
3813.6525218400188
 20
-1858.447410999843
 30
0.0
 11
3814.7100594458529
 21
-1838.4753902154489
 31
0.0
  0
LINE
  5
2675A
  8
01
 10
3814.4104791340869
 20
-1838.459527151362
 30
0.0
 11
3814.5691097749632
 21
-1835.4637240337031
 31
0.0
  0
LINE
  5
2675B
  8
01
 10
3813.5616549199781
 20
-1838.414581097237
 30
0.0
 11
3813.7202855608539
 21
-1835.418777979577
 31
0.0
  0
POLYLINE
  8
01
  5
279A0
  66
     1
 10
0.000000
 20
0.000000
 30
0.000000
  70
     8
  0
VERTEX
  8
01
  5
279A1
 10
3812.93
 20
-1834.18
 30
0.000000
  70
    32
  0
VERTEX
  8
01
  5
279A2
 10
3812.94
 20
-1833.92
 30
0.000000
  70
    32
  0
VERTEX
  8
01
  5
279A3
 10
3812.95
 20
-1833.65
 30
0.000000
  70
    32
  0
VERTEX
  8
01
  5
279A4
 10
3812.96
 20
-1833.39
 30
0.000000
  70
    32
  0
VERTEX
  8
01
  5
279A5
 10
3812.97
 20
-1833.13
 30
0.000000
  70
    32
  0
VERTEX
  8
01
  5
279A6
 10
3812.99
 20
-1832.87
 30
0.000000
  70
    32
  0
VERTEX
  8
01
  5
279A7
 10
3813.00
 20
-1832.60
 30
0.000000
  70
    32
  0
VERTEX
  8
01
  5
279A8
 10
3813.01
 20
-1832.34
 30
0.000000
  70
    32
  0
VERTEX
  8
01
  5
279A9
 10
3813.02
 20
-1832.08
 30
0.000000
  70
    32
  0
VERTEX
  8
01
  5
279AA
 10
3813.03
 20
-1831.81
 30
0.000000
  70
    32
  0
VERTEX
  8
01
  5
279AB
 10
3813.04
 20
-1831.55
 30
0.000000
  70
    32
  0
VERTEX
  8
01
  5
279AC
 10
3813.05
 20
-1831.29
 30
0.000000
  70
    32
  0
VERTEX
  8
01
  5
279AD
 10
3813.06
 20
-1831.03
 30
0.000000
  70
    32
  0
VERTEX
  8
01
  5
279AE
 10
3813.08
 20
-1830.76
 30
0.000000
  70
    32
  0
VERTEX
  8
01
  5
279AF
 10
3813.09
 20
-1830.50
 30
0.000000
  70
    32
  0
VERTEX
  8
01
  5
279B0
 10
3813.10
 20
-1830.24
 30
0.000000
  70
    32
  0
VERTEX
  8
01
  5
279B1
 10
3813.11
 20
-1829.97
 30
0.000000
  70
    32
  0
VERTEX
  8
01
  5
279B2
 10
3813.12
 20
-1829.71
 30
0.000000
  70
    32
  0
VERTEX
  8
01
  5
279B3
 10
3813.13
 20
-1829.45
 30
0.000000
  70
    32
  0
VERTEX
  8
01
  5
279B4
 10
3813.14
 20
-1829.19
 30
0.000000
  70
    32
  0
VERTEX
  8
01
  5
279B5
 10
3813.15
 20
-1828.92
 30
0.000000
  70
    32
  0
VERTEX
  8
01
  5
279B6
 10
3813.17
 20
-1828.66
 30
0.000000
  70
    32
  0
VERTEX
  8
01
  5
279B7
 10
3813.18
 20
-1828.40
 30
0.000000
  70
    32
  0
VERTEX
  8
01
  5
279B8
 10
3813.19
 20
-1828.13
 30
0.000000
  70
    32
  0
VERTEX
  8
01
  5
279B9
 10
3813.20
 20
-1827.87
 30
0.000000
  70
    32
  0
VERTEX
  8
01
  5
279BA
 10
3813.21
 20
-1827.61
 30
0.000000
  70
    32
  0
VERTEX
  8
01
  5
279BB
 10
3813.22
 20
-1827.34
 30
0.000000
  70
    32
  0
VERTEX
  8
01
  5
279BC
 10
3813.23
 20
-1827.08
 30
0.000000
  70
    32
  0
VERTEX
  8
01
  5
279BD
 10
3813.24
 20
-1826.82
 30
0.000000
  70
    32
  0
VERTEX
  8
01
  5
279BE
 10
3813.25
 20
-1826.56
 30
0.000000
  70
    32
  0
VERTEX
  8
01
  5
279BF
 10
3813.27
 20
-1826.29
 30
0.000000
  70
    32
  0
VERTEX
  8
01
  5
279C0
 10
3813.28
 20
-1826.03
 30
0.000000
  70
    32
  0
VERTEX
  8
01
  5
279C1
 10
3813.29
 20
-1825.77
 30
0.000000
  70
    32
  0
VERTEX
  8
01
  5
279C2
 10
3813.30
 20
-1825.50
 30
0.000000
  70
    32
  0
VERTEX
  8
01
  5
279C3
 10
3813.31
 20
-1825.24
 30
0.000000
  70
    32
  0
VERTEX
  8
01
  5
279C4
 10
3813.32
 20
-1824.98
 30
0.000000
  70
    32
  0
VERTEX
  8
01
  5
279C5
 10
3813.33
 20
-1824.72
 30
0.000000
  70
    32
  0
VERTEX
  8
01
  5
279C6
 10
3813.34
 20
-1824.45
 30
0.000000
  70
    32
  0
VERTEX
  8
01
  5
279C7
 10
3813.35
 20
-1824.19
 30
0.000000
  70
    32
  0
VERTEX
  8
01
  5
279C8
 10
3813.36
 20
-1823.93
 30
0.000000
  70
    32
  0
VERTEX
  8
01
  5
279C9
 10
3813.38
 20
-1823.66
 30
0.000000
  70
    32
  0
VERTEX
  8
01
  5
279CA
 10
3813.39
 20
-1823.40
 30
0.000000
  70
    32
  0
VERTEX
  8
01
  5
279CB
 10
3813.40
 20
-1823.14
 30
0.000000
  70
    32
  0
VERTEX
  8
01
  5
279CC
 10
3813.41
 20
-1822.88
 30
0.000000
  70
    32
  0
VERTEX
  8
01
  5
279CD
 10
3813.42
 20
-1822.61
 30
0.000000
  70
    32
  0
VERTEX
  8
01
  5
279CE
 10
3813.43
 20
-1822.35
 30
0.000000
  70
    32
  0
VERTEX
  8
01
  5
279CF
 10
3813.44
 20
-1822.09
 30
0.000000
  70
    32
  0
VERTEX
  8
01
  5
279D0
 10
3813.45
 20
-1821.82
 30
0.000000
  70
    32
  0
VERTEX
  8
01
  5
279D1
 10
3813.46
 20
-1821.56
 30
0.000000
  70
    32
  0
VERTEX
  8
01
  5
279D2
 10
3813.47
 20
-1821.30
 30
0.000000
  70
    32
  0
VERTEX
  8
01
  5
279D3
 10
3813.48
 20
-1821.04
 30
0.000000
  70
    32
  0
VERTEX
  8
01
  5
279D4
 10
3813.49
 20
-1820.77
 30
0.000000
  70
    32
  0
VERTEX
  8
01
  5
279D5
 10
3813.50
 20
-1820.51
 30
0.000000
  70
    32
  0
VERTEX
  8
01
  5
279D6
 10
3813.51
 20
-1820.25
 30
0.000000
  70
    32
  0
VERTEX
  8
01
  5
279D7
 10
3813.52
 20
-1819.98
 30
0.000000
  70
    32
  0
VERTEX
  8
01
  5
279D8
 10
3813.54
 20
-1819.72
 30
0.000000
  70
    32
  0
VERTEX
  8
01
  5
279D9
 10
3813.55
 20
-1819.46
 30
0.000000
  70
    32
  0
VERTEX
  8
01
  5
279DA
 10
3813.56
 20
-1819.20
 30
0.000000
  70
    32
  0
VERTEX
  8
01
  5
279DB
 10
3813.57
 20
-1818.93
 30
0.000000
  70
    32
  0
VERTEX
  8
01
  5
279DC
 10
3813.58
 20
-1818.67
 30
0.000000
  70
    32
  0
VERTEX
  8
01
  5
279DD
 10
3813.59
 20
-1818.41
 30
0.000000
  70
    32
  0
VERTEX
  8
01
  5
279DE
 10
3813.60
 20
-1818.14
 30
0.000000
  70
    32
  0
VERTEX
  8
01
  5
279DF
 10
3813.61
 20
-1817.88
 30
0.000000
  70
    32
  0
VERTEX
  8
01
  5
279E0
 10
3813.62
 20
-1817.62
 30
0.000000
  70
    32
  0
VERTEX
  8
01
  5
279E1
 10
3813.63
 20
-1817.35
 30
0.000000
  70
    32
  0
VERTEX
  8
01
  5
279E2
 10
3813.64
 20
-1817.09
 30
0.000000
  70
    32
  0
VERTEX
  8
01
  5
279E3
 10
3813.65
 20
-1816.83
 30
0.000000
  70
    32
  0
VERTEX
  8
01
  5
279E4
 10
3813.66
 20
-1816.57
 30
0.000000
  70
    32
  0
VERTEX
  8
01
  5
279E5
 10
3813.67
 20
-1816.30
 30
0.000000
  70
    32
  0
VERTEX
  8
01
  5
279E6
 10
3813.68
 20
-1816.04
 30
0.000000
  70
    32
  0
VERTEX
  8
01
  5
279E7
 10
3813.69
 20
-1815.78
 30
0.000000
  70
    32
  0
VERTEX
  8
01
  5
279E8
 10
3813.70
 20
-1815.51
 30
0.000000
  70
    32
  0
VERTEX
  8
01
  5
279E9
 10
3813.71
 20
-1815.25
 30
0.000000
  70
    32
  0
VERTEX
  8
01
  5
279EA
 10
3813.72
 20
-1814.99
 30
0.000000
  70
    32
  0
VERTEX
  8
01
  5
279EB
 10
3813.73
 20
-1814.73
 30
0.000000
  70
    32
  0
VERTEX
  8
01
  5
279EC
 10
3813.74
 20
-1814.46
 30
0.000000
  70
    32
  0
VERTEX
  8
01
  5
279ED
 10
3813.75
 20
-1814.20
 30
0.000000
  70
    32
  0
VERTEX
  8
01
  5
279EE
 10
3813.76
 20
-1813.94
 30
0.000000
  70
    32
  0
VERTEX
  8
01
  5
279EF
 10
3813.76
 20
-1813.67
 30
0.000000
  70
    32
  0
VERTEX
  8
01
  5
279F0
 10
3813.77
 20
-1813.41
 30
0.000000
  70
    32
  0
VERTEX
  8
01
  5
279F1
 10
3813.78
 20
-1813.15
 30
0.000000
  70
    32
  0
VERTEX
  8
01
  5
279F2
 10
3813.79
 20
-1812.89
 30
0.000000
  70
    32
  0
VERTEX
  8
01
  5
279F3
 10
3813.80
 20
-1812.62
 30
0.000000
  70
    32
  0
VERTEX
  8
01
  5
279F4
 10
3813.81
 20
-1812.36
 30
0.000000
  70
    32
  0
VERTEX
  8
01
  5
279F5
 10
3813.82
 20
-1812.10
 30
0.000000
  70
    32
  0
VERTEX
  8
01
  5
279F6
 10
3813.83
 20
-1811.83
 30
0.000000
  70
    32
  0
VERTEX
  8
01
  5
279F7
 10
3813.84
 20
-1811.57
 30
0.000000
  70
    32
  0
VERTEX
  8
01
  5
279F8
 10
3813.85
 20
-1811.31
 30
0.000000
  70
    32
  0
VERTEX
  8
01
  5
279F9
 10
3813.86
 20
-1811.04
 30
0.000000
  70
    32
  0
VERTEX
  8
01
  5
279FA
 10
3813.87
 20
-1810.78
 30
0.000000
  70
    32
  0
VERTEX
  8
01
  5
279FB
 10
3813.88
 20
-1810.52
 30
0.000000
  70
    32
  0
VERTEX
  8
01
  5
279FC
 10
3813.88
 20
-1810.26
 30
0.000000
  70
    32
  0
VERTEX
  8
01
  5
279FD
 10
3813.89
 20
-1809.99
 30
0.000000
  70
    32
  0
VERTEX
  8
01
  5
279FE
 10
3813.90
 20
-1809.73
 30
0.000000
  70
    32
  0
VERTEX
  8
01
  5
279FF
 10
3813.91
 20
-1809.47
 30
0.000000
  70
    32
  0
VERTEX
  8
01
  5
27A00
 10
3813.92
 20
-1809.20
 30
0.000000
  70
    32
  0
VERTEX
  8
01
  5
27A01
 10
3813.93
 20
-1808.94
 30
0.000000
  70
    32
  0
VERTEX
  8
01
  5
27A02
 10
3813.94
 20
-1808.68
 30
0.000000
  70
    32
  0
VERTEX
  8
01
  5
27A03
 10
3813.94
 20
-1808.42
 30
0.000000
  70
    32
  0
VERTEX
  8
01
  5
27A04
 10
3813.95
 20
-1808.15
 30
0.000000
  70
    32
  0
VERTEX
  8
01
  5
27A05
 10
3813.96
 20
-1807.89
 30
0.000000
  70
    32
  0
VERTEX
  8
01
  5
27A06
 10
3813.97
 20
-1807.63
 30
0.000000
  70
    32
  0
VERTEX
  8
01
  5
27A07
 10
3813.98
 20
-1807.36
 30
0.000000
  70
    32
  0
VERTEX
  8
01
  5
27A08
 10
3813.99
 20
-1807.10
 30
0.000000
  70
    32
  0
VERTEX
  8
01
  5
27A09
 10
3813.99
 20
-1806.84
 30
0.000000
  70
    32
  0
VERTEX
  8
01
  5
27A0A
 10
3814.00
 20
-1806.57
 30
0.000000
  70
    32
  0
VERTEX
  8
01
  5
27A0B
 10
3814.01
 20
-1806.31
 30
0.000000
  70
    32
  0
VERTEX
  8
01
  5
27A0C
 10
3814.02
 20
-1806.05
 30
0.000000
  70
    32
  0
VERTEX
  8
01
  5
27A0D
 10
3814.03
 20
-1805.79
 30
0.000000
  70
    32
  0
VERTEX
  8
01
  5
27A0E
 10
3814.03
 20
-1805.52
 30
0.000000
  70
    32
  0
VERTEX
  8
01
  5
27A0F
 10
3814.04
 20
-1805.26
 30
0.000000
  70
    32
  0
VERTEX
  8
01
  5
27A10
 10
3814.05
 20
-1805.00
 30
0.000000
  70
    32
  0
VERTEX
  8
01
  5
27A11
 10
3814.06
 20
-1804.73
 30
0.000000
  70
    32
  0
VERTEX
  8
01
  5
27A12
 10
3814.06
 20
-1804.47
 30
0.000000
  70
    32
  0
VERTEX
  8
01
  5
27A13
 10
3814.07
 20
-1804.21
 30
0.000000
  70
    32
  0
VERTEX
  8
01
  5
27A14
 10
3814.08
 20
-1803.95
 30
0.000000
  70
    32
  0
VERTEX
  8
01
  5
27A15
 10
3814.09
 20
-1803.68
 30
0.000000
  70
    32
  0
VERTEX
  8
01
  5
27A16
 10
3814.09
 20
-1803.42
 30
0.000000
  70
    32
  0
VERTEX
  8
01
  5
27A17
 10
3814.10
 20
-1803.16
 30
0.000000
  70
    32
  0
VERTEX
  8
01
  5
27A18
 10
3814.11
 20
-1802.89
 30
0.000000
  70
    32
  0
VERTEX
  8
01
  5
27A19
 10
3814.12
 20
-1802.63
 30
0.000000
  70
    32
  0
VERTEX
  8
01
  5
27A1A
 10
3814.12
 20
-1802.37
 30
0.000000
  70
    32
  0
VERTEX
  8
01
  5
27A1B
 10
3814.13
 20
-1802.10
 30
0.000000
  70
    32
  0
VERTEX
  8
01
  5
27A1C
 10
3814.14
 20
-1801.84
 30
0.000000
  70
    32
  0
VERTEX
  8
01
  5
27A1D
 10
3814.14
 20
-1801.58
 30
0.000000
  70
    32
  0
VERTEX
  8
01
  5
27A1E
 10
3814.15
 20
-1801.32
 30
0.000000
  70
    32
  0
VERTEX
  8
01
  5
27A1F
 10
3814.16
 20
-1801.05
 30
0.000000
  70
    32
  0
VERTEX
  8
01
  5
27A20
 10
3814.16
 20
-1800.79
 30
0.000000
  70
    32
  0
SEQEND
  8
01
  5
27A21
  0
POLYLINE
  8
01
  5
27A22
  66
     1
 10
0.000000
 20
0.000000
 30
0.000000
  70
     8
  0
VERTEX
  8
01
  5
27A23
 10
3816.93
 20
-1834.35
 30
0.000000
  70
    32
  0
VERTEX
  8
01
  5
27A24
 10
3816.93
 20
-1834.18
 30
0.000000
  70
    32
  0
VERTEX
  8
01
  5
27A25
 10
3816.94
 20
-1834.00
 30
0.000000
  70
    32
  0
VERTEX
  8
01
  5
27A26
 10
3816.95
 20
-1833.83
 30
0.000000
  70
    32
  0
VERTEX
  8
01
  5
27A27
 10
3816.96
 20
-1833.65
 30
0.000000
  70
    32
  0
VERTEX
  8
01
  5
27A28
 10
3816.96
 20
-1833.48
 30
0.000000
  70
    32
  0
VERTEX
  8
01
  5
27A29
 10
3816.97
 20
-1833.30
 30
0.000000
  70
    32
  0
VERTEX
  8
01
  5
27A2A
 10
3816.98
 20
-1833.12
 30
0.000000
  70
    32
  0
VERTEX
  8
01
  5
27A2B
 10
3816.99
 20
-1832.95
 30
0.000000
  70
    32
  0
VERTEX
  8
01
  5
27A2C
 10
3816.99
 20
-1832.77
 30
0.000000
  70
    32
  0
VERTEX
  8
01
  5
27A2D
 10
3817.00
 20
-1832.60
 30
0.000000
  70
    32
  0
VERTEX
  8
01
  5
27A2E
 10
3817.01
 20
-1832.42
 30
0.000000
  70
    32
  0
VERTEX
  8
01
  5
27A2F
 10
3817.02
 20
-1832.25
 30
0.000000
  70
    32
  0
VERTEX
  8
01
  5
27A30
 10
3817.02
 20
-1832.07
 30
0.000000
  70
    32
  0
VERTEX
  8
01
  5
27A31
 10
3817.03
 20
-1831.90
 30
0.000000
  70
    32
  0
VERTEX
  8
01
  5
27A32
 10
3817.04
 20
-1831.72
 30
0.000000
  70
    32
  0
VERTEX
  8
01
  5
27A33
 10
3817.05
 20
-1831.55
 30
0.000000
  70
    32
  0
VERTEX
  8
01
  5
27A34
 10
3817.05
 20
-1831.37
 30
0.000000
  70
    32
  0
VERTEX
  8
01
  5
27A35
 10
3817.06
 20
-1831.20
 30
0.000000
  70
    32
  0
VERTEX
  8
01
  5
27A36
 10
3817.07
 20
-1831.02
 30
0.000000
  70
    32
  0
VERTEX
  8
01
  5
27A37
 10
3817.08
 20
-1830.84
 30
0.000000
  70
    32
  0
VERTEX
  8
01
  5
27A38
 10
3817.08
 20
-1830.67
 30
0.000000
  70
    32
  0
VERTEX
  8
01
  5
27A39
 10
3817.09
 20
-1830.49
 30
0.000000
  70
    32
  0
VERTEX
  8
01
  5
27A3A
 10
3817.10
 20
-1830.32
 30
0.000000
  70
    32
  0
VERTEX
  8
01
  5
27A3B
 10
3817.11
 20
-1830.14
 30
0.000000
  70
    32
  0
VERTEX
  8
01
  5
27A3C
 10
3817.11
 20
-1829.97
 30
0.000000
  70
    32
  0
VERTEX
  8
01
  5
27A3D
 10
3817.12
 20
-1829.79
 30
0.000000
  70
    32
  0
VERTEX
  8
01
  5
27A3E
 10
3817.13
 20
-1829.62
 30
0.000000
  70
    32
  0
VERTEX
  8
01
  5
27A3F
 10
3817.14
 20
-1829.44
 30
0.000000
  70
    32
  0
VERTEX
  8
01
  5
27A40
 10
3817.14
 20
-1829.27
 30
0.000000
  70
    32
  0
VERTEX
  8
01
  5
27A41
 10
3817.15
 20
-1829.09
 30
0.000000
  70
    32
  0
VERTEX
  8
01
  5
27A42
 10
3817.16
 20
-1828.92
 30
0.000000
  70
    32
  0
VERTEX
  8
01
  5
27A43
 10
3817.17
 20
-1828.74
 30
0.000000
  70
    32
  0
VERTEX
  8
01
  5
27A44
 10
3817.17
 20
-1828.56
 30
0.000000
  70
    32
  0
VERTEX
  8
01
  5
27A45
 10
3817.18
 20
-1828.39
 30
0.000000
  70
    32
  0
VERTEX
  8
01
  5
27A46
 10
3817.19
 20
-1828.21
 30
0.000000
  70
    32
  0
VERTEX
  8
01
  5
27A47
 10
3817.20
 20
-1828.04
 30
0.000000
  70
    32
  0
VERTEX
  8
01
  5
27A48
 10
3817.20
 20
-1827.86
 30
0.000000
  70
    32
  0
VERTEX
  8
01
  5
27A49
 10
3817.21
 20
-1827.69
 30
0.000000
  70
    32
  0
VERTEX
  8
01
  5
27A4A
 10
3817.22
 20
-1827.51
 30
0.000000
  70
    32
  0
VERTEX
  8
01
  5
27A4B
 10
3817.23
 20
-1827.34
 30
0.000000
  70
    32
  0
VERTEX
  8
01
  5
27A4C
 10
3817.23
 20
-1827.16
 30
0.000000
  70
    32
  0
VERTEX
  8
01
  5
27A4D
 10
3817.24
 20
-1826.99
 30
0.000000
  70
    32
  0
VERTEX
  8
01
  5
27A4E
 10
3817.25
 20
-1826.81
 30
0.000000
  70
    32
  0
VERTEX
  8
01
  5
27A4F
 10
3817.26
 20
-1826.63
 30
0.000000
  70
    32
  0
VERTEX
  8
01
  5
27A50
 10
3817.26
 20
-1826.46
 30
0.000000
  70
    32
  0
VERTEX
  8
01
  5
27A51
 10
3817.27
 20
-1826.28
 30
0.000000
  70
    32
  0
VERTEX
  8
01
  5
27A52
 10
3817.28
 20
-1826.11
 30
0.000000
  70
    32
  0
VERTEX
  8
01
  5
27A53
 10
3817.28
 20
-1825.93
 30
0.000000
  70
    32
  0
VERTEX
  8
01
  5
27A54
 10
3817.29
 20
-1825.76
 30
0.000000
  70
    32
  0
VERTEX
  8
01
  5
27A55
 10
3817.30
 20
-1825.58
 30
0.000000
  70
    32
  0
VERTEX
  8
01
  5
27A56
 10
3817.31
 20
-1825.41
 30
0.000000
  70
    32
  0
VERTEX
  8
01
  5
27A57
 10
3817.31
 20
-1825.23
 30
0.000000
  70
    32
  0
VERTEX
  8
01
  5
27A58
 10
3817.32
 20
-1825.05
 30
0.000000
  70
    32
  0
VERTEX
  8
01
  5
27A59
 10
3817.33
 20
-1824.88
 30
0.000000
  70
    32
  0
VERTEX
  8
01
  5
27A5A
 10
3817.34
 20
-1824.70
 30
0.000000
  70
    32
  0
VERTEX
  8
01
  5
27A5B
 10
3817.34
 20
-1824.53
 30
0.000000
  70
    32
  0
VERTEX
  8
01
  5
27A5C
 10
3817.35
 20
-1824.35
 30
0.000000
  70
    32
  0
VERTEX
  8
01
  5
27A5D
 10
3817.36
 20
-1824.18
 30
0.000000
  70
    32
  0
VERTEX
  8
01
  5
27A5E
 10
3817.36
 20
-1824.00
 30
0.000000
  70
    32
  0
VERTEX
  8
01
  5
27A5F
 10
3817.37
 20
-1823.83
 30
0.000000
  70
    32
  0
VERTEX
  8
01
  5
27A60
 10
3817.38
 20
-1823.65
 30
0.000000
  70
    32
  0
VERTEX
  8
01
  5
27A61
 10
3817.39
 20
-1823.47
 30
0.000000
  70
    32
  0
VERTEX
  8
01
  5
27A62
 10
3817.39
 20
-1823.30
 30
0.000000
  70
    32
  0
VERTEX
  8
01
  5
27A63
 10
3817.40
 20
-1823.12
 30
0.000000
  70
    32
  0
VERTEX
  8
01
  5
27A64
 10
3817.41
 20
-1822.95
 30
0.000000
  70
    32
  0
VERTEX
  8
01
  5
27A65
 10
3817.42
 20
-1822.77
 30
0.000000
  70
    32
  0
VERTEX
  8
01
  5
27A66
 10
3817.42
 20
-1822.60
 30
0.000000
  70
    32
  0
VERTEX
  8
01
  5
27A67
 10
3817.43
 20
-1822.42
 30
0.000000
  70
    32
  0
VERTEX
  8
01
  5
27A68
 10
3817.44
 20
-1822.25
 30
0.000000
  70
    32
  0
VERTEX
  8
01
  5
27A69
 10
3817.44
 20
-1822.07
 30
0.000000
  70
    32
  0
VERTEX
  8
01
  5
27A6A
 10
3817.45
 20
-1821.89
 30
0.000000
  70
    32
  0
VERTEX
  8
01
  5
27A6B
 10
3817.46
 20
-1821.72
 30
0.000000
  70
    32
  0
VERTEX
  8
01
  5
27A6C
 10
3817.47
 20
-1821.54
 30
0.000000
  70
    32
  0
VERTEX
  8
01
  5
27A6D
 10
3817.47
 20
-1821.37
 30
0.000000
  70
    32
  0
VERTEX
  8
01
  5
27A6E
 10
3817.48
 20
-1821.19
 30
0.000000
  70
    32
  0
VERTEX
  8
01
  5
27A6F
 10
3817.49
 20
-1821.02
 30
0.000000
  70
    32
  0
VERTEX
  8
01
  5
27A70
 10
3817.49
 20
-1820.84
 30
0.000000
  70
    32
  0
VERTEX
  8
01
  5
27A71
 10
3817.50
 20
-1820.66
 30
0.000000
  70
    32
  0
VERTEX
  8
01
  5
27A72
 10
3817.51
 20
-1820.49
 30
0.000000
  70
    32
  0
VERTEX
  8
01
  5
27A73
 10
3817.51
 20
-1820.31
 30
0.000000
  70
    32
  0
VERTEX
  8
01
  5
27A74
 10
3817.52
 20
-1820.14
 30
0.000000
  70
    32
  0
VERTEX
  8
01
  5
27A75
 10
3817.53
 20
-1819.96
 30
0.000000
  70
    32
  0
VERTEX
  8
01
  5
27A76
 10
3817.54
 20
-1819.79
 30
0.000000
  70
    32
  0
VERTEX
  8
01
  5
27A77
 10
3817.54
 20
-1819.61
 30
0.000000
  70
    32
  0
VERTEX
  8
01
  5
27A78
 10
3817.55
 20
-1819.44
 30
0.000000
  70
    32
  0
VERTEX
  8
01
  5
27A79
 10
3817.56
 20
-1819.26
 30
0.000000
  70
    32
  0
VERTEX
  8
01
  5
27A7A
 10
3817.56
 20
-1819.08
 30
0.000000
  70
    32
  0
VERTEX
  8
01
  5
27A7B
 10
3817.57
 20
-1818.91
 30
0.000000
  70
    32
  0
VERTEX
  8
01
  5
27A7C
 10
3817.58
 20
-1818.73
 30
0.000000
  70
    32
  0
VERTEX
  8
01
  5
27A7D
 10
3817.58
 20
-1818.56
 30
0.000000
  70
    32
  0
VERTEX
  8
01
  5
27A7E
 10
3817.59
 20
-1818.38
 30
0.000000
  70
    32
  0
VERTEX
  8
01
  5
27A7F
 10
3817.60
 20
-1818.21
 30
0.000000
  70
    32
  0
VERTEX
  8
01
  5
27A80
 10
3817.60
 20
-1818.03
 30
0.000000
  70
    32
  0
VERTEX
  8
01
  5
27A81
 10
3817.61
 20
-1817.85
 30
0.000000
  70
    32
  0
VERTEX
  8
01
  5
27A82
 10
3817.62
 20
-1817.68
 30
0.000000
  70
    32
  0
VERTEX
  8
01
  5
27A83
 10
3817.62
 20
-1817.50
 30
0.000000
  70
    32
  0
VERTEX
  8
01
  5
27A84
 10
3817.63
 20
-1817.33
 30
0.000000
  70
    32
  0
VERTEX
  8
01
  5
27A85
 10
3817.64
 20
-1817.15
 30
0.000000
  70
    32
  0
VERTEX
  8
01
  5
27A86
 10
3817.64
 20
-1816.98
 30
0.000000
  70
    32
  0
VERTEX
  8
01
  5
27A87
 10
3817.65
 20
-1816.80
 30
0.000000
  70
    32
  0
VERTEX
  8
01
  5
27A88
 10
3817.66
 20
-1816.62
 30
0.000000
  70
    32
  0
VERTEX
  8
01
  5
27A89
 10
3817.66
 20
-1816.45
 30
0.000000
  70
    32
  0
VERTEX
  8
01
  5
27A8A
 10
3817.67
 20
-1816.27
 30
0.000000
  70
    32
  0
VERTEX
  8
01
  5
27A8B
 10
3817.68
 20
-1816.10
 30
0.000000
  70
    32
  0
VERTEX
  8
01
  5
27A8C
 10
3817.68
 20
-1815.92
 30
0.000000
  70
    32
  0
VERTEX
  8
01
  5
27A8D
 10
3817.69
 20
-1815.75
 30
0.000000
  70
    32
  0
VERTEX
  8
01
  5
27A8E
 10
3817.70
 20
-1815.57
 30
0.000000
  70
    32
  0
VERTEX
  8
01
  5
27A8F
 10
3817.70
 20
-1815.39
 30
0.000000
  70
    32
  0
VERTEX
  8
01
  5
27A90
 10
3817.71
 20
-1815.22
 30
0.000000
  70
    32
  0
VERTEX
  8
01
  5
27A91
 10
3817.72
 20
-1815.04
 30
0.000000
  70
    32
  0
VERTEX
  8
01
  5
27A92
 10
3817.72
 20
-1814.87
 30
0.000000
  70
    32
  0
VERTEX
  8
01
  5
27A93
 10
3817.73
 20
-1814.69
 30
0.000000
  70
    32
  0
VERTEX
  8
01
  5
27A94
 10
3817.74
 20
-1814.52
 30
0.000000
  70
    32
  0
VERTEX
  8
01
  5
27A95
 10
3817.74
 20
-1814.34
 30
0.000000
  70
    32
  0
VERTEX
  8
01
  5
27A96
 10
3817.75
 20
-1814.16
 30
0.000000
  70
    32
  0
VERTEX
  8
01
  5
27A97
 10
3817.76
 20
-1813.99
 30
0.000000
  70
    32
  0
VERTEX
  8
01
  5
27A98
 10
3817.76
 20
-1813.81
 30
0.000000
  70
    32
  0
VERTEX
  8
01
  5
27A99
 10
3817.77
 20
-1813.64
 30
0.000000
  70
    32
  0
VERTEX
  8
01
  5
27A9A
 10
3817.77
 20
-1813.46
 30
0.000000
  70
    32
  0
VERTEX
  8
01
  5
27A9B
 10
3817.78
 20
-1813.28
 30
0.000000
  70
    32
  0
VERTEX
  8
01
  5
27A9C
 10
3817.79
 20
-1813.11
 30
0.000000
  70
    32
  0
VERTEX
  8
01
  5
27A9D
 10
3817.79
 20
-1812.93
 30
0.000000
  70
    32
  0
VERTEX
  8
01
  5
27A9E
 10
3817.80
 20
-1812.76
 30
0.000000
  70
    32
  0
VERTEX
  8
01
  5
27A9F
 10
3817.81
 20
-1812.58
 30
0.000000
  70
    32
  0
VERTEX
  8
01
  5
27AA0
 10
3817.81
 20
-1812.41
 30
0.000000
  70
    32
  0
VERTEX
  8
01
  5
27AA1
 10
3817.82
 20
-1812.23
 30
0.000000
  70
    32
  0
VERTEX
  8
01
  5
27AA2
 10
3817.82
 20
-1812.05
 30
0.000000
  70
    32
  0
VERTEX
  8
01
  5
27AA3
 10
3817.83
 20
-1811.88
 30
0.000000
  70
    32
  0
VERTEX
  8
01
  5
27AA4
 10
3817.84
 20
-1811.70
 30
0.000000
  70
    32
  0
VERTEX
  8
01
  5
27AA5
 10
3817.84
 20
-1811.53
 30
0.000000
  70
    32
  0
VERTEX
  8
01
  5
27AA6
 10
3817.85
 20
-1811.35
 30
0.000000
  70
    32
  0
VERTEX
  8
01
  5
27AA7
 10
3817.86
 20
-1811.17
 30
0.000000
  70
    32
  0
VERTEX
  8
01
  5
27AA8
 10
3817.86
 20
-1811.00
 30
0.000000
  70
    32
  0
VERTEX
  8
01
  5
27AA9
 10
3817.87
 20
-1810.82
 30
0.000000
  70
    32
  0
VERTEX
  8
01
  5
27AAA
 10
3817.87
 20
-1810.65
 30
0.000000
  70
    32
  0
VERTEX
  8
01
  5
27AAB
 10
3817.88
 20
-1810.47
 30
0.000000
  70
    32
  0
VERTEX
  8
01
  5
27AAC
 10
3817.89
 20
-1810.29
 30
0.000000
  70
    32
  0
VERTEX
  8
01
  5
27AAD
 10
3817.89
 20
-1810.12
 30
0.000000
  70
    32
  0
VERTEX
  8
01
  5
27AAE
 10
3817.90
 20
-1809.94
 30
0.000000
  70
    32
  0
VERTEX
  8
01
  5
27AAF
 10
3817.90
 20
-1809.77
 30
0.000000
  70
    32
  0
VERTEX
  8
01
  5
27AB0
 10
3817.91
 20
-1809.59
 30
0.000000
  70
    32
  0
VERTEX
  8
01
  5
27AB1
 10
3817.91
 20
-1809.42
 30
0.000000
  70
    32
  0
VERTEX
  8
01
  5
27AB2
 10
3817.92
 20
-1809.24
 30
0.000000
  70
    32
  0
VERTEX
  8
01
  5
27AB3
 10
3817.93
 20
-1809.06
 30
0.000000
  70
    32
  0
VERTEX
  8
01
  5
27AB4
 10
3817.93
 20
-1808.89
 30
0.000000
  70
    32
  0
VERTEX
  8
01
  5
27AB5
 10
3817.94
 20
-1808.71
 30
0.000000
  70
    32
  0
VERTEX
  8
01
  5
27AB6
 10
3817.94
 20
-1808.54
 30
0.000000
  70
    32
  0
VERTEX
  8
01
  5
27AB7
 10
3817.95
 20
-1808.36
 30
0.000000
  70
    32
  0
VERTEX
  8
01
  5
27AB8
 10
3817.95
 20
-1808.18
 30
0.000000
  70
    32
  0
VERTEX
  8
01
  5
27AB9
 10
3817.96
 20
-1808.01
 30
0.000000
  70
    32
  0
VERTEX
  8
01
  5
27ABA
 10
3817.97
 20
-1807.83
 30
0.000000
  70
    32
  0
VERTEX
  8
01
  5
27ABB
 10
3817.97
 20
-1807.66
 30
0.000000
  70
    32
  0
VERTEX
  8
01
  5
27ABC
 10
3817.98
 20
-1807.48
 30
0.000000
  70
    32
  0
VERTEX
  8
01
  5
27ABD
 10
3817.98
 20
-1807.30
 30
0.000000
  70
    32
  0
VERTEX
  8
01
  5
27ABE
 10
3817.99
 20
-1807.13
 30
0.000000
  70
    32
  0
VERTEX
  8
01
  5
27ABF
 10
3817.99
 20
-1806.95
 30
0.000000
  70
    32
  0
VERTEX
  8
01
  5
27AC0
 10
3818.00
 20
-1806.78
 30
0.000000
  70
    32
  0
VERTEX
  8
01
  5
27AC1
 10
3818.00
 20
-1806.60
 30
0.000000
  70
    32
  0
VERTEX
  8
01
  5
27AC2
 10
3818.01
 20
-1806.42
 30
0.000000
  70
    32
  0
VERTEX
  8
01
  5
27AC3
 10
3818.01
 20
-1806.25
 30
0.000000
  70
    32
  0
VERTEX
  8
01
  5
27AC4
 10
3818.02
 20
-1806.07
 30
0.000000
  70
    32
  0
VERTEX
  8
01
  5
27AC5
 10
3818.02
 20
-1805.90
 30
0.000000
  70
    32
  0
VERTEX
  8
01
  5
27AC6
 10
3818.03
 20
-1805.72
 30
0.000000
  70
    32
  0
VERTEX
  8
01
  5
27AC7
 10
3818.04
 20
-1805.54
 30
0.000000
  70
    32
  0
VERTEX
  8
01
  5
27AC8
 10
3818.04
 20
-1805.37
 30
0.000000
  70
    32
  0
VERTEX
  8
01
  5
27AC9
 10
3818.05
 20
-1805.19
 30
0.000000
  70
    32
  0
VERTEX
  8
01
  5
27ACA
 10
3818.05
 20
-1805.02
 30
0.000000
  70
    32
  0
VERTEX
  8
01
  5
27ACB
 10
3818.06
 20
-1804.84
 30
0.000000
  70
    32
  0
VERTEX
  8
01
  5
27ACC
 10
3818.06
 20
-1804.66
 30
0.000000
  70
    32
  0
VERTEX
  8
01
  5
27ACD
 10
3818.07
 20
-1804.49
 30
0.000000
  70
    32
  0
VERTEX
  8
01
  5
27ACE
 10
3818.07
 20
-1804.31
 30
0.000000
  70
    32
  0
VERTEX
  8
01
  5
27ACF
 10
3818.08
 20
-1804.14
 30
0.000000
  70
    32
  0
VERTEX
  8
01
  5
27AD0
 10
3818.08
 20
-1803.96
 30
0.000000
  70
    32
  0
VERTEX
  8
01
  5
27AD1
 10
3818.09
 20
-1803.78
 30
0.000000
  70
    32
  0
VERTEX
  8
01
  5
27AD2
 10
3818.09
 20
-1803.61
 30
0.000000
  70
    32
  0
VERTEX
  8
01
  5
27AD3
 10
3818.10
 20
-1803.43
 30
0.000000
  70
    32
  0
VERTEX
  8
01
  5
27AD4
 10
3818.10
 20
-1803.26
 30
0.000000
  70
    32
  0
VERTEX
  8
01
  5
27AD5
 10
3818.10
 20
-1803.08
 30
0.000000
  70
    32
  0
VERTEX
  8
01
  5
27AD6
 10
3818.11
 20
-1802.90
 30
0.000000
  70
    32
  0
VERTEX
  8
01
  5
27AD7
 10
3818.11
 20
-1802.73
 30
0.000000
  70
    32
  0
VERTEX
  8
01
  5
27AD8
 10
3818.12
 20
-1802.55
 30
0.000000
  70
    32
  0
VERTEX
  8
01
  5
27AD9
 10
3818.12
 20
-1802.37
 30
0.000000
  70
    32
  0
VERTEX
  8
01
  5
27ADA
 10
3818.13
 20
-1802.20
 30
0.000000
  70
    32
  0
VERTEX
  8
01
  5
27ADB
 10
3818.13
 20
-1802.02
 30
0.000000
  70
    32
  0
VERTEX
  8
01
  5
27ADC
 10
3818.14
 20
-1801.85
 30
0.000000
  70
    32
  0
VERTEX
  8
01
  5
27ADD
 10
3818.14
 20
-1801.67
 30
0.000000
  70
    32
  0
VERTEX
  8
01
  5
27ADE
 10
3818.15
 20
-1801.49
 30
0.000000
  70
    32
  0
VERTEX
  8
01
  5
27ADF
 10
3818.15
 20
-1801.32
 30
0.000000
  70
    32
  0
VERTEX
  8
01
  5
27AE0
 10
3818.16
 20
-1801.14
 30
0.000000
  70
    32
  0
VERTEX
  8
01
  5
27AE1
 10
3818.16
 20
-1800.97
 30
0.000000
  70
    32
  0
VERTEX
  8
01
  5
27AE2
 10
3818.16
 20
-1800.79
 30
0.000000
  70
    32
  0
SEQEND
  8
01
  5
27AE3
  0
LINE
  5
26762
  8
01
 10
3812.9292020907442
 20
-1834.1799549073351
 30
0.0
 11
3816.9255021189961
 21
-1834.3519609659061
 31
0.0
  0
ARC
  5
26809
  8
01
 10
3684.7042877914068
 20
-1614.367522754729
 30
0.0
 40
1.5
 50
90.0
 51
180.0000000000087
  0
LINE
  5
2680A
  8
01
 10
3683.2042877914068
 20
-1614.817522754729
 30
0.0
 11
3683.2042877914068
 21
-1614.367522754729
 31
0.0
  0
LINE
  5
2680B
  8
01
 10
3686.9542877914068
 20
-1612.867522754729
 30
0.0
 11
3684.7042877914068
 21
-1612.867522754729
 31
0.0
  0
ARC
  5
2680D
  8
01
 10
3686.9542877914068
 20
-1614.367522754729
 30
0.0
 40
1.5
 50
0.0000000000087529
 51
90.0
  0
LINE
  5
2680F
  8
01
 10
3688.4542877914068
 20
-1614.817522754729
 30
0.0
 11
3688.4542877914068
 21
-1614.367522754729
 31
0.0
  0
LINE
  5
26815
  8
01
 10
3693.8292877914068
 20
-1617.117522754729
 30
0.0
 11
3677.8292877914059
 21
-1617.117522754729
 31
0.0
  0
LINE
  5
26816
  8
01
 10
3589.8292877914068
 20
-1617.817522754729
 30
0.0
 11
3589.8292877914068
 21
-1616.317522754729
 31
0.0
  0
LINE
  5
26817
  8
01
 10
3573.8292877914068
 20
-1617.817522754729
 30
0.0
 11
3573.8292877914068
 21
-1616.317522754729
 31
0.0
  0
LINE
  5
26818
  8
01
 10
3566.3292877914068
 20
-1617.817522754729
 30
0.0
 11
3606.8292877914068
 21
-1617.817522754729
 31
0.0
  0
ARC
  5
26819
  8
01
 10
3566.3292877914068
 20
-1619.817522754729
 30
0.0
 40
2.0
 50
90.0
 51
180.0
  0
LINE
  5
2681A
  8
01
 10
3564.3292877914068
 20
-1656.817522754767
 30
0.0
 11
3564.3292877914068
 21
-1619.817522754729
 31
0.0
  0
LINE
  5
2681B
  8
01
 10
3573.8292877914068
 20
-1617.117522754729
 30
0.0
 11
3589.8292877914068
 21
-1617.117522754729
 31
0.0
  0
ARC
  5
2681C
  8
01
 10
3582.9542877914068
 20
-1614.367522754729
 30
0.0
 40
1.5
 50
359.9999999999913
 51
90.0
  0
LINE
  5
2681D
  8
01
 10
3584.4542877914068
 20
-1614.817522754729
 30
0.0
 11
3584.4542877914068
 21
-1614.367522754729
 31
0.0
  0
LINE
  5
2681E
  8
01
 10
3580.7042877914068
 20
-1612.867522754729
 30
0.0
 11
3582.9542877914068
 21
-1612.867522754729
 31
0.0
  0
ARC
  5
2681F
  8
01
 10
3580.7042877914068
 20
-1614.367522754729
 30
0.0
 40
1.5
 50
90.0
 51
179.99999999999119
  0
LINE
  5
26820
  8
01
 10
3579.2042877914059
 20
-1614.817522754729
 30
0.0
 11
3579.2042877914059
 21
-1614.367522754729
 31
0.0
  0
LINE
  5
26821
  8
01
 10
3813.6525218400188
 20
-1858.447410999843
 30
0.0
 11
3812.204537002377
 21
-1858.370738817543
 31
0.0
  0
LINE
  5
26822
  8
01
 10
3814.0305640878428
 20
-1858.4333144200641
 30
0.0
 11
3813.6543231731112
 21
-1858.413392103716
 31
0.0
  0
LINE
  5
26823
  8
1CENTER
 10
3663.8292877914059
 20
-1702.789905533677
 30
0.0
 11
3673.8292877914059
 21
-1702.789905533677
 31
0.0
  0
LINE
  5
26824
  8
1CENTER
 10
3668.8292877914068
 20
-1707.789905533677
 30
0.0
 11
3668.8292877914068
 21
-1697.789905533677
 31
0.0
  0
LINE
  5
26825
  8
1CENTER
 10
3593.8292877914068
 20
-1702.789905533677
 30
0.0
 11
3603.8292877914068
 21
-1702.789905533677
 31
0.0
  0
LINE
  5
26826
  8
1CENTER
 10
3598.8292877914059
 20
-1707.789905533677
 30
0.0
 11
3598.8292877914059
 21
-1697.789905533677
 31
0.0
  0
LINE
  5
26F42
  8
1PHANTOM
 10
3800.329287791445
 20
-1698.789905533675
 30
0.0
 11
3800.329287791445
 21
-1862.154197288449
 31
0.0
  0
LINE
  5
26F43
  8
1PHANTOM
 10
3799.329287791445
 20
-1697.7899055336741
 30
0.0
 11
3800.329287791445
 21
-1698.789905533675
 31
0.0
  0
LINE
  5
26F44
  8
1PHANTOM
 10
3795.329287791445
 20
-1698.789905533675
 30
0.0
 11
3795.329287791445
 21
-1861.273344654729
 31
0.0
  0
LINE
  5
26F48
  8
1PHANTOM
 10
3796.329287791445
 20
-1697.7899055336741
 30
0.0
 11
3799.329287791445
 21
-1697.7899055336741
 31
0.0
  0
LINE
  5
26F49
  8
1PHANTOM
 10
3795.329287791445
 20
-1698.789905533675
 30
0.0
 11
3796.329287791445
 21
-1697.7899055336741
 31
0.0
  0
LINE
  5
26F4B
  8
1PHANTOM
 10
3800.3292877914441
 20
-1699.7899055336741
 30
0.0
 11
3800.3292877914441
 21
-1862.154197288449
 31
0.0
  0
LINE
  5
26F4C
  8
1PHANTOM
 10
3801.3292877914441
 20
-1699.7899055336741
 30
0.0
 11
3801.329287791445
 21
-1862.2739335080321
 31
0.0
  0
LINE
  5
26F4D
  8
1PHANTOM
 10
3802.3292877914441
 20
-1750.789905533677
 30
0.0
 11
3802.3292877914441
 21
-1797.7899055336759
 31
0.0
  0
LINE
  5
26F4E
  8
1PHANTOM
 10
3802.3292877914441
 20
-1798.7899055336759
 30
0.0
 11
3802.3292877914441
 21
-1800.789905533677
 31
0.0
  0
LINE
  5
26F6F
  8
1PHANTOM
 10
3800.3292877914441
 20
-1699.7899055336741
 30
0.0
 11
3801.329287791445
 21
-1699.7899055336741
 31
0.0
  0
LINE
  5
26F70
  8
1PHANTOM
 10
3561.3292877914059
 20
-1702.7899055336741
 30
0.0
 11
3561.3292877914059
 21
-1862.7470191527291
 31
0.0
  0
ARC
  5
26F71
  8
1PHANTOM
 10
3566.3292877914068
 20
-1702.7899055336741
 30
0.0
 40
5.0
 50
90.0
 51
180.0
  0
LINE
  5
26F73
  8
1PHANTOM
 10
3706.3292877914068
 20
-1702.7899055336741
 30
0.0
 11
3706.3292877914068
 21
-1862.1874004158119
 31
0.0
  0
LINE
  5
26F74
  8
1PHANTOM
 10
3566.3292877914068
 20
-1697.789905533675
 30
0.0
 11
3701.3292877914059
 21
-1697.7899055336741
 31
0.0
  0
ARC
  5
26F75
  8
1PHANTOM
 10
3701.3292877914059
 20
-1702.7899055336741
 30
0.0
 40
5.0
 50
0.0
 51
90.0
  0
LINE
  5
26F8A
  8
1PHANTOM
 10
3801.329287791445
 20
-1750.789905533677
 30
0.0
 11
3802.3292877914441
 21
-1750.789905533677
 31
0.0
  0
LINE
  5
26FBD
  8
1PHANTOM
 10
3804.329287791445
 20
-1797.789905533675
 30
0.0
 11
3804.329287791445
 21
-1798.7899055336759
 31
0.0
  0
LINE
  5
26FBE
  8
1PHANTOM
 10
3803.8292877914441
 20
-1796.7899055336729
 30
0.0
 11
3803.8292877914441
 21
-1797.789905533675
 31
0.0
  0
LINE
  5
26FBF
  8
1PHANTOM
 10
3803.8292877914441
 20
-1798.7899055336759
 30
0.0
 11
3803.8292877914441
 21
-1800.7899055336729
 31
0.0
  0
LINE
  5
26FC0
  8
1PHANTOM
 10
3802.829287791445
 20
-1796.7899055336729
 30
0.0
 11
3802.829287791445
 21
-1797.789905533675
 31
0.0
  0
LINE
  5
26FC1
  8
1PHANTOM
 10
3802.829287791445
 20
-1798.7899055336759
 30
0.0
 11
3802.829287791445
 21
-1800.7899055336729
 31
0.0
  0
LINE
  5
26FC2
  8
1PHANTOM
 10
3802.829287791445
 20
-1796.7899055336729
 30
0.0
 11
3803.8292877914441
 21
-1796.7899055336729
 31
0.0
  0
LINE
  5
26FC3
  8
1PHANTOM
 10
3801.329287791445
 20
-1798.789905533675
 30
0.0
 11
3804.329287791445
 21
-1798.7899055336759
 31
0.0
  0
LINE
  5
26FC4
  8
1PHANTOM
 10
3801.329287791445
 20
-1797.789905533675
 30
0.0
 11
3804.329287791445
 21
-1797.789905533675
 31
0.0
  0
LINE
  5
26FC5
  8
1PHANTOM
 10
3803.8292877914441
 20
-1754.789905533675
 30
0.0
 11
3803.8292877914441
 21
-1746.7899055336741
 31
0.0
  0
LINE
  5
26FC6
  8
1PHANTOM
 10
3802.829287791445
 20
-1754.789905533675
 30
0.0
 11
3802.829287791445
 21
-1746.7899055336741
 31
0.0
  0
LINE
  5
26FC7
  8
1PHANTOM
 10
3801.329287791445
 20
-1745.7899055336741
 30
0.0
 11
3802.829287791445
 21
-1745.7899055336741
 31
0.0
  0
ARC
  5
26FC8
  8
1PHANTOM
 10
3802.829287791445
 20
-1746.7899055336741
 30
0.0
 40
1.0
 50
0.0
 51
90.0
  0
LINE
  5
26FC9
  8
1PHANTOM
 10
3801.329287791445
 20
-1746.7899055336741
 30
0.0
 11
3802.829287791445
 21
-1746.7899055336741
 31
0.0
  0
LINE
  5
26FCA
  8
1PHANTOM
 10
3802.829287791445
 20
-1754.789905533675
 30
0.0
 11
3803.8292877914441
 21
-1754.789905533675
 31
0.0
  0
LINE
  5
2705E
  8
1PHANTOM
 10
3836.4471533774899
 20
-1850.2899055336759
 30
0.0
 11
3837.4471533774899
 21
-1855.2899055336759
 31
0.0
  0
LINE
  5
2705F
  8
1PHANTOM
 10
3861.7756410219922
 20
-1852.7899055336759
 30
0.0
 11
3815.346335041299
 21
-1852.7899055336759
 31
0.0
  0
LINE
  5
27060
  8
1PHANTOM
 10
3853.7981988781999
 20
-1851.0399055336759
 30
0.0
 11
3820.3292877914441
 21
-1851.0399055336759
 31
0.0
  0
LINE
  5
27061
  8
1PHANTOM
 10
3860.3292877914441
 20
-1852.7899055336759
 30
0.0
 11
3853.7981988781999
 21
-1851.0399055336759
 31
0.0
  0
LINE
  5
27062
  8
1PHANTOM
 10
3860.3292877914441
 20
-1852.7899055336759
 30
0.0
 11
3853.798198878198
 21
-1854.5399055336759
 31
0.0
  0
LINE
  5
27063
  8
1PHANTOM
 10
3853.798198878198
 20
-1854.5399055336759
 30
0.0
 11
3820.3292877914441
 21
-1854.5399055336759
 31
0.0
  0
LINE
  5
27064
  8
1PHANTOM
 10
3854.4838999892831
 20
-1850.4736385926401
 30
0.0
 11
3854.3338999892831
 21
-1851.2236385926401
 31
0.0
  0
LINE
  5
27065
  8
1PHANTOM
 10
3854.4838999892831
 20
-1850.4736385926401
 30
0.0
 11
3855.3632808855009
 21
-1854.8705430737309
 31
0.0
  0
LINE
  5
27066
  8
1PHANTOM
 10
3859.3098247148791
 20
-1853.1032622206201
 30
0.0
 11
3859.1598247148791
 21
-1853.8532622206201
 31
0.0
  0
LINE
  5
27067
  8
1PHANTOM
 10
3858.710397297386
 20
-1851.6061251331589
 30
0.0
 11
3858.5603972973872
 21
-1852.356125133158
 31
0.0
  0
LINE
  5
27068
  8
1PHANTOM
 10
3858.710397297386
 20
-1851.6061251331589
 30
0.0
 11
3859.1598247148791
 21
-1853.8532622206201
 31
0.0
  0
LINE
  5
27069
  8
1PHANTOM
 10
3855.5132808855019
 20
-1854.1205430737309
 30
0.0
 11
3855.3632808855009
 21
-1854.8705430737309
 31
0.0
  0
LINE
  5
2706A
  8
1PHANTOM
 10
3857.4115528001898
 20
-1853.6119026471749
 30
0.0
 11
3857.2615528001902
 21
-1854.3619026471749
 31
0.0
  0
LINE
  5
2706B
  8
1PHANTOM
 10
3856.597148643335
 20
-1851.0398818628989
 30
0.0
 11
3856.4471486433349
 21
-1851.7898818628989
 31
0.0
  0
LINE
  5
2706C
  8
1PHANTOM
 10
3856.597148643335
 20
-1851.0398818628989
 30
0.0
 11
3857.2615528001902
 21
-1854.3619026471749
 31
0.0
  0
LINE
  5
2706D
  8
1PHANTOM
 10
3845.59715337749
 20
-1854.5399055336759
 30
0.0
 11
3845.4471533774899
 21
-1855.2899055336759
 31
0.0
  0
LINE
  5
2706E
  8
1PHANTOM
 10
3848.4471533774899
 20
-1850.2899055336759
 30
0.0
 11
3848.2971533774898
 21
-1851.0399055336759
 31
0.0
  0
LINE
  5
2706F
  8
1PHANTOM
 10
3846.4471533774899
 20
-1850.2899055336759
 30
0.0
 11
3846.2971533774898
 21
-1851.0399055336759
 31
0.0
  0
LINE
  5
27070
  8
1PHANTOM
 10
3846.4471533774899
 20
-1850.2899055336759
 30
0.0
 11
3847.4471533774899
 21
-1855.2899055336759
 31
0.0
  0
LINE
  5
27071
  8
1PHANTOM
 10
3850.4471533774899
 20
-1850.2899055336759
 30
0.0
 11
3850.2971533774898
 21
-1851.0399055336759
 31
0.0
  0
LINE
  5
27072
  8
1PHANTOM
 10
3852.4471533774899
 20
-1850.2899055336759
 30
0.0
 11
3852.2971533774898
 21
-1851.0399055336759
 31
0.0
  0
LINE
  5
27073
  8
1PHANTOM
 10
3852.4471533774899
 20
-1850.2899055336759
 30
0.0
 11
3853.4471533774899
 21
-1855.2899055336759
 31
0.0
  0
LINE
  5
27074
  8
1PHANTOM
 10
3850.4471533774899
 20
-1850.2899055336759
 30
0.0
 11
3851.4471533774899
 21
-1855.2899055336759
 31
0.0
  0
LINE
  5
27075
  8
1PHANTOM
 10
3848.4471533774899
 20
-1850.2899055336759
 30
0.0
 11
3849.4471533774899
 21
-1855.2899055336759
 31
0.0
  0
LINE
  5
27076
  8
1PHANTOM
 10
3853.59715337749
 20
-1854.5399055336759
 30
0.0
 11
3853.4471533774899
 21
-1855.2899055336759
 31
0.0
  0
LINE
  5
27077
  8
1PHANTOM
 10
3851.59715337749
 20
-1854.5399055336759
 30
0.0
 11
3851.4471533774899
 21
-1855.2899055336759
 31
0.0
  0
LINE
  5
27078
  8
1PHANTOM
 10
3847.59715337749
 20
-1854.5399055336759
 30
0.0
 11
3847.4471533774899
 21
-1855.2899055336759
 31
0.0
  0
LINE
  5
27079
  8
1PHANTOM
 10
3849.59715337749
 20
-1854.5399055336759
 30
0.0
 11
3849.4471533774899
 21
-1855.2899055336759
 31
0.0
  0
LINE
  5
2707A
  8
1PHANTOM
 10
3842.4471533774899
 20
-1850.2899055336759
 30
0.0
 11
3842.2971533774898
 21
-1851.0399055336759
 31
0.0
  0
LINE
  5
2707B
  8
1PHANTOM
 10
3844.4471533774899
 20
-1850.2899055336759
 30
0.0
 11
3844.2971533774898
 21
-1851.0399055336759
 31
0.0
  0
LINE
  5
2707C
  8
1PHANTOM
 10
3838.4471533774899
 20
-1850.2899055336759
 30
0.0
 11
3838.2971533774898
 21
-1851.0399055336759
 31
0.0
  0
LINE
  5
2707D
  8
1PHANTOM
 10
3840.4471533774899
 20
-1850.2899055336759
 30
0.0
 11
3840.2971533774898
 21
-1851.0399055336759
 31
0.0
  0
LINE
  5
2707E
  8
1PHANTOM
 10
3844.4471533774899
 20
-1850.2899055336759
 30
0.0
 11
3845.4471533774899
 21
-1855.2899055336759
 31
0.0
  0
LINE
  5
2707F
  8
1PHANTOM
 10
3842.4471533774899
 20
-1850.2899055336759
 30
0.0
 11
3843.4471533774908
 21
-1855.2899055336759
 31
0.0
  0
LINE
  5
27080
  8
1PHANTOM
 10
3840.4471533774899
 20
-1850.2899055336759
 30
0.0
 11
3841.4471533774899
 21
-1855.2899055336759
 31
0.0
  0
LINE
  5
27081
  8
1PHANTOM
 10
3838.4471533774899
 20
-1850.2899055336759
 30
0.0
 11
3839.4471533774899
 21
-1855.2899055336759
 31
0.0
  0
LINE
  5
27082
  8
1PHANTOM
 10
3841.59715337749
 20
-1854.5399055336759
 30
0.0
 11
3841.4471533774899
 21
-1855.2899055336759
 31
0.0
  0
LINE
  5
27083
  8
1PHANTOM
 10
3843.5971533774909
 20
-1854.5399055336759
 30
0.0
 11
3843.4471533774908
 21
-1855.2899055336759
 31
0.0
  0
LINE
  5
27084
  8
1PHANTOM
 10
3837.59715337749
 20
-1854.5399055336759
 30
0.0
 11
3837.4471533774899
 21
-1855.2899055336759
 31
0.0
  0
LINE
  5
27085
  8
1PHANTOM
 10
3839.5971533774909
 20
-1854.5399055336759
 30
0.0
 11
3839.4471533774899
 21
-1855.2899055336759
 31
0.0
  0
LINE
  5
27086
  8
1PHANTOM
 10
3820.4471533774899
 20
-1850.2899055336759
 30
0.0
 11
3821.4471533774899
 21
-1855.2899055336759
 31
0.0
  0
LINE
  5
27087
  8
1PHANTOM
 10
3828.4471533774899
 20
-1850.2899055336759
 30
0.0
 11
3829.4471533774899
 21
-1855.2899055336759
 31
0.0
  0
LINE
  5
27088
  8
1PHANTOM
 10
3836.4471533774899
 20
-1850.2899055336759
 30
0.0
 11
3836.2971533774898
 21
-1851.0399055336759
 31
0.0
  0
LINE
  5
27089
  8
1PHANTOM
 10
3834.4471533774899
 20
-1850.2899055336759
 30
0.0
 11
3834.2971533774898
 21
-1851.0399055336759
 31
0.0
  0
LINE
  5
2708A
  8
1PHANTOM
 10
3832.4471533774899
 20
-1850.2899055336759
 30
0.0
 11
3832.2971533774898
 21
-1851.0399055336759
 31
0.0
  0
LINE
  5
2708B
  8
1PHANTOM
 10
3830.4471533774899
 20
-1850.2899055336759
 30
0.0
 11
3830.2971533774898
 21
-1851.0399055336759
 31
0.0
  0
LINE
  5
2708C
  8
1PHANTOM
 10
3834.4471533774899
 20
-1850.2899055336759
 30
0.0
 11
3835.4471533774899
 21
-1855.2899055336759
 31
0.0
  0
LINE
  5
2708D
  8
1PHANTOM
 10
3832.4471533774899
 20
-1850.2899055336759
 30
0.0
 11
3833.4471533774899
 21
-1855.2899055336759
 31
0.0
  0
LINE
  5
2708E
  8
1PHANTOM
 10
3830.4471533774899
 20
-1850.2899055336759
 30
0.0
 11
3831.4471533774899
 21
-1855.2899055336759
 31
0.0
  0
LINE
  5
2708F
  8
1PHANTOM
 10
3835.59715337749
 20
-1854.5399055336759
 30
0.0
 11
3835.4471533774899
 21
-1855.2899055336759
 31
0.0
  0
LINE
  5
27090
  8
1PHANTOM
 10
3833.59715337749
 20
-1854.5399055336759
 30
0.0
 11
3833.4471533774899
 21
-1855.2899055336759
 31
0.0
  0
LINE
  5
27091
  8
1PHANTOM
 10
3831.59715337749
 20
-1854.5399055336759
 30
0.0
 11
3831.4471533774899
 21
-1855.2899055336759
 31
0.0
  0
LINE
  5
27092
  8
1PHANTOM
 10
3829.59715337749
 20
-1854.5399055336759
 30
0.0
 11
3829.4471533774899
 21
-1855.2899055336759
 31
0.0
  0
LINE
  5
27093
  8
1PHANTOM
 10
3824.4471533774899
 20
-1850.2899055336759
 30
0.0
 11
3824.2971533774898
 21
-1851.0399055336759
 31
0.0
  0
LINE
  5
27094
  8
1PHANTOM
 10
3826.4471533774899
 20
-1850.2899055336759
 30
0.0
 11
3826.2971533774898
 21
-1851.0399055336759
 31
0.0
  0
LINE
  5
27095
  8
1PHANTOM
 10
3828.4471533774899
 20
-1850.2899055336759
 30
0.0
 11
3828.2971533774898
 21
-1851.0399055336759
 31
0.0
  0
LINE
  5
27096
  8
1PHANTOM
 10
3822.4471533774899
 20
-1850.2899055336759
 30
0.0
 11
3822.2971533774898
 21
-1851.0399055336759
 31
0.0
  0
LINE
  5
27097
  8
1PHANTOM
 10
3826.4471533774899
 20
-1850.2899055336759
 30
0.0
 11
3827.4471533774899
 21
-1855.2899055336759
 31
0.0
  0
LINE
  5
27098
  8
1PHANTOM
 10
3824.4471533774899
 20
-1850.2899055336759
 30
0.0
 11
3825.4471533774899
 21
-1855.2899055336759
 31
0.0
  0
LINE
  5
27099
  8
1PHANTOM
 10
3822.4471533774899
 20
-1850.2899055336759
 30
0.0
 11
3823.4471533774899
 21
-1855.2899055336759
 31
0.0
  0
LINE
  5
2709A
  8
1PHANTOM
 10
3825.59715337749
 20
-1854.5399055336759
 30
0.0
 11
3825.4471533774899
 21
-1855.2899055336759
 31
0.0
  0
LINE
  5
2709B
  8
1PHANTOM
 10
3827.59715337749
 20
-1854.5399055336759
 30
0.0
 11
3827.4471533774899
 21
-1855.2899055336759
 31
0.0
  0
LINE
  5
2709C
  8
1PHANTOM
 10
3823.59715337749
 20
-1854.5399055336759
 30
0.0
 11
3823.4471533774899
 21
-1855.2899055336759
 31
0.0
  0
LINE
  5
2709D
  8
1PHANTOM
 10
3821.59715337749
 20
-1854.5399055336759
 30
0.0
 11
3821.4471533774899
 21
-1855.2899055336759
 31
0.0
  0
LINE
  5
2709E
  8
1PHANTOM
 10
3820.4471533774899
 20
-1850.2899055336759
 30
0.0
 11
3820.2971533774898
 21
-1851.0399055336759
 31
0.0
  0
LINE
  5
2709F
  8
1PHANTOM
 10
3820.3292877914441
 20
-1857.5399055336759
 30
0.0
 11
3820.3292877914441
 21
-1848.0399055336759
 31
0.0
  0
ARC
  5
270A0
  8
1PHANTOM
 10
3826.1001211247781
 20
-1852.7899055336759
 30
0.0
 40
8.2708333333334387
 50
144.94886325253159
 51
215.05113674746829
  0
LINE
  5
270A1
  8
1PHANTOM
 10
3820.3292877914441
 20
-1857.5399055336759
 30
0.0
 11
3819.329287791445
 21
-1857.5399055336759
 31
0.0
  0
LINE
  5
270A2
  8
1PHANTOM
 10
3820.3292877914441
 20
-1848.0399055336759
 30
0.0
 11
3819.329287791445
 21
-1848.0399055336759
 31
0.0
  0
LINE
  5
270A3
  8
1PHANTOM
 10
3819.329287791445
 20
-1857.3229687133421
 30
0.0
 11
3819.329287791445
 21
-1848.28453774887
 31
0.0
  0
LINE
  5
270A9
  8
1PHANTOM
 10
3801.3292877914459
 20
-1800.789905533677
 30
0.0
 11
3804.329287791445
 21
-1800.789905533677
 31
0.0
  0
ARC
  5
270AC
  8
1PHANTOM
 10
3820.329287791445
 20
-1801.789905533677
 30
0.0
 40
1.0
 50
0.0
 51
90.0
  0
LINE
  5
270B0
  8
1PHANTOM
 10
3569.8292877914068
 20
-1848.289905533677
 30
0.0
 11
3569.8292877914068
 21
-1857.289905533677
 31
0.0
  0
LINE
  5
270B1
  8
1PHANTOM
 10
3575.8292877914068
 20
-1848.289905533677
 30
0.0
 11
3575.8292877914068
 21
-1857.289905533677
 31
0.0
  0
ARC
  5
270B2
  8
1PHANTOM
 10
3572.8292877914068
 20
-1848.289905533677
 30
0.0
 40
3.0
 50
0.0
 51
180.0
  0
ARC
  5
270B3
  8
1PHANTOM
 10
3572.8292877914068
 20
-1857.289905533677
 30
0.0
 40
3.0
 50
180.0
 51
0.0
  0
LINE
  5
270B8
  8
1CENTER
 10
3572.8292877914068
 20
-1842.879415514682
 30
0.0
 11
3572.8292877914068
 21
-1862.700395552672
 31
0.0
  0
LINE
  5
270B9
  8
1CENTER
 10
3567.6476743777298
 20
-1852.789905533677
 30
0.0
 11
3578.0109012050839
 21
-1852.789905533677
 31
0.0
  0
LINE
  5
270BC
  8
1PHANTOM
 10
3697.8292877914068
 20
-1848.289905533677
 30
0.0
 11
3697.8292877914068
 21
-1857.289905533677
 31
0.0
  0
LINE
  5
270BD
  8
1PHANTOM
 10
3691.8292877914059
 20
-1848.289905533677
 30
0.0
 11
3691.8292877914059
 21
-1857.289905533677
 31
0.0
  0
ARC
  5
270BE
  8
1PHANTOM
 10
3694.8292877914068
 20
-1848.289905533677
 30
0.0
 40
3.0
 50
0.0
 51
180.0
  0
ARC
  5
270BF
  8
1PHANTOM
 10
3694.8292877914068
 20
-1857.289905533677
 30
0.0
 40
3.0
 50
180.0
 51
0.0
  0
LINE
  5
270C0
  8
1CENTER
 10
3694.8292877914068
 20
-1842.879415514682
 30
0.0
 11
3694.8292877914068
 21
-1862.700395552672
 31
0.0
  0
LINE
  5
270C1
  8
1CENTER
 10
3700.0109012050839
 20
-1852.789905533677
 30
0.0
 11
3689.6476743777298
 21
-1852.789905533677
 31
0.0
  0
POLYLINE
  8
1PHANTOM
  5
27AE4
  66
     1
 10
0.000000
 20
0.000000
 30
0.000000
  70
     8
  0
VERTEX
  8
1PHANTOM
  5
27AE5
 10
3845.62
 20
-1863.45
 30
0.000000
  70
    32
  0
VERTEX
  8
1PHANTOM
  5
27AE6
 10
3845.34
 20
-1863.34
 30
0.000000
  70
    32
  0
VERTEX
  8
1PHANTOM
  5
27AE7
 10
3845.05
 20
-1863.22
 30
0.000000
  70
    32
  0
VERTEX
  8
1PHANTOM
  5
27AE8
 10
3844.77
 20
-1863.11
 30
0.000000
  70
    32
  0
VERTEX
  8
1PHANTOM
  5
27AE9
 10
3844.48
 20
-1863.00
 30
0.000000
  70
    32
  0
VERTEX
  8
1PHANTOM
  5
27AEA
 10
3844.19
 20
-1862.88
 30
0.000000
  70
    32
  0
VERTEX
  8
1PHANTOM
  5
27AEB
 10
3843.91
 20
-1862.77
 30
0.000000
  70
    32
  0
VERTEX
  8
1PHANTOM
  5
27AEC
 10
3843.62
 20
-1862.66
 30
0.000000
  70
    32
  0
VERTEX
  8
1PHANTOM
  5
27AED
 10
3843.33
 20
-1862.55
 30
0.000000
  70
    32
  0
VERTEX
  8
1PHANTOM
  5
27AEE
 10
3843.05
 20
-1862.44
 30
0.000000
  70
    32
  0
VERTEX
  8
1PHANTOM
  5
27AEF
 10
3842.76
 20
-1862.32
 30
0.000000
  70
    32
  0
VERTEX
  8
1PHANTOM
  5
27AF0
 10
3842.47
 20
-1862.21
 30
0.000000
  70
    32
  0
VERTEX
  8
1PHANTOM
  5
27AF1
 10
3842.19
 20
-1862.11
 30
0.000000
  70
    32
  0
VERTEX
  8
1PHANTOM
  5
27AF2
 10
3841.90
 20
-1862.00
 30
0.000000
  70
    32
  0
VERTEX
  8
1PHANTOM
  5
27AF3
 10
3841.61
 20
-1861.89
 30
0.000000
  70
    32
  0
VERTEX
  8
1PHANTOM
  5
27AF4
 10
3841.33
 20
-1861.78
 30
0.000000
  70
    32
  0
VERTEX
  8
1PHANTOM
  5
27AF5
 10
3841.04
 20
-1861.67
 30
0.000000
  70
    32
  0
VERTEX
  8
1PHANTOM
  5
27AF6
 10
3840.75
 20
-1861.57
 30
0.000000
  70
    32
  0
VERTEX
  8
1PHANTOM
  5
27AF7
 10
3840.47
 20
-1861.47
 30
0.000000
  70
    32
  0
VERTEX
  8
1PHANTOM
  5
27AF8
 10
3840.18
 20
-1861.36
 30
0.000000
  70
    32
  0
VERTEX
  8
1PHANTOM
  5
27AF9
 10
3839.89
 20
-1861.26
 30
0.000000
  70
    32
  0
VERTEX
  8
1PHANTOM
  5
27AFA
 10
3839.61
 20
-1861.16
 30
0.000000
  70
    32
  0
VERTEX
  8
1PHANTOM
  5
27AFB
 10
3839.32
 20
-1861.06
 30
0.000000
  70
    32
  0
VERTEX
  8
1PHANTOM
  5
27AFC
 10
3839.03
 20
-1860.96
 30
0.000000
  70
    32
  0
VERTEX
  8
1PHANTOM
  5
27AFD
 10
3838.74
 20
-1860.87
 30
0.000000
  70
    32
  0
VERTEX
  8
1PHANTOM
  5
27AFE
 10
3838.46
 20
-1860.77
 30
0.000000
  70
    32
  0
VERTEX
  8
1PHANTOM
  5
27AFF
 10
3838.17
 20
-1860.68
 30
0.000000
  70
    32
  0
VERTEX
  8
1PHANTOM
  5
27B00
 10
3837.88
 20
-1860.59
 30
0.000000
  70
    32
  0
VERTEX
  8
1PHANTOM
  5
27B01
 10
3837.60
 20
-1860.50
 30
0.000000
  70
    32
  0
VERTEX
  8
1PHANTOM
  5
27B02
 10
3837.31
 20
-1860.41
 30
0.000000
  70
    32
  0
VERTEX
  8
1PHANTOM
  5
27B03
 10
3837.02
 20
-1860.32
 30
0.000000
  70
    32
  0
VERTEX
  8
1PHANTOM
  5
27B04
 10
3836.73
 20
-1860.24
 30
0.000000
  70
    32
  0
VERTEX
  8
1PHANTOM
  5
27B05
 10
3836.44
 20
-1860.15
 30
0.000000
  70
    32
  0
VERTEX
  8
1PHANTOM
  5
27B06
 10
3836.16
 20
-1860.07
 30
0.000000
  70
    32
  0
VERTEX
  8
1PHANTOM
  5
27B07
 10
3835.87
 20
-1859.99
 30
0.000000
  70
    32
  0
VERTEX
  8
1PHANTOM
  5
27B08
 10
3835.58
 20
-1859.92
 30
0.000000
  70
    32
  0
VERTEX
  8
1PHANTOM
  5
27B09
 10
3835.29
 20
-1859.84
 30
0.000000
  70
    32
  0
VERTEX
  8
1PHANTOM
  5
27B0A
 10
3835.01
 20
-1859.77
 30
0.000000
  70
    32
  0
VERTEX
  8
1PHANTOM
  5
27B0B
 10
3834.72
 20
-1859.70
 30
0.000000
  70
    32
  0
VERTEX
  8
1PHANTOM
  5
27B0C
 10
3834.43
 20
-1859.64
 30
0.000000
  70
    32
  0
VERTEX
  8
1PHANTOM
  5
27B0D
 10
3834.14
 20
-1859.57
 30
0.000000
  70
    32
  0
VERTEX
  8
1PHANTOM
  5
27B0E
 10
3833.85
 20
-1859.51
 30
0.000000
  70
    32
  0
VERTEX
  8
1PHANTOM
  5
27B0F
 10
3833.56
 20
-1859.45
 30
0.000000
  70
    32
  0
VERTEX
  8
1PHANTOM
  5
27B10
 10
3833.27
 20
-1859.39
 30
0.000000
  70
    32
  0
VERTEX
  8
1PHANTOM
  5
27B11
 10
3832.99
 20
-1859.34
 30
0.000000
  70
    32
  0
VERTEX
  8
1PHANTOM
  5
27B12
 10
3832.70
 20
-1859.29
 30
0.000000
  70
    32
  0
VERTEX
  8
1PHANTOM
  5
27B13
 10
3832.41
 20
-1859.24
 30
0.000000
  70
    32
  0
VERTEX
  8
1PHANTOM
  5
27B14
 10
3832.12
 20
-1859.19
 30
0.000000
  70
    32
  0
VERTEX
  8
1PHANTOM
  5
27B15
 10
3831.83
 20
-1859.15
 30
0.000000
  70
    32
  0
VERTEX
  8
1PHANTOM
  5
27B16
 10
3831.54
 20
-1859.11
 30
0.000000
  70
    32
  0
VERTEX
  8
1PHANTOM
  5
27B17
 10
3831.25
 20
-1859.07
 30
0.000000
  70
    32
  0
VERTEX
  8
1PHANTOM
  5
27B18
 10
3830.96
 20
-1859.04
 30
0.000000
  70
    32
  0
VERTEX
  8
1PHANTOM
  5
27B19
 10
3830.67
 20
-1859.01
 30
0.000000
  70
    32
  0
VERTEX
  8
1PHANTOM
  5
27B1A
 10
3830.38
 20
-1858.98
 30
0.000000
  70
    32
  0
VERTEX
  8
1PHANTOM
  5
27B1B
 10
3830.09
 20
-1858.95
 30
0.000000
  70
    32
  0
VERTEX
  8
1PHANTOM
  5
27B1C
 10
3829.80
 20
-1858.93
 30
0.000000
  70
    32
  0
VERTEX
  8
1PHANTOM
  5
27B1D
 10
3829.51
 20
-1858.92
 30
0.000000
  70
    32
  0
VERTEX
  8
1PHANTOM
  5
27B1E
 10
3829.22
 20
-1858.90
 30
0.000000
  70
    32
  0
VERTEX
  8
1PHANTOM
  5
27B1F
 10
3828.93
 20
-1858.89
 30
0.000000
  70
    32
  0
VERTEX
  8
1PHANTOM
  5
27B20
 10
3828.64
 20
-1858.89
 30
0.000000
  70
    32
  0
VERTEX
  8
1PHANTOM
  5
27B21
 10
3828.35
 20
-1858.88
 30
0.000000
  70
    32
  0
VERTEX
  8
1PHANTOM
  5
27B22
 10
3828.06
 20
-1858.88
 30
0.000000
  70
    32
  0
VERTEX
  8
1PHANTOM
  5
27B23
 10
3827.77
 20
-1858.89
 30
0.000000
  70
    32
  0
VERTEX
  8
1PHANTOM
  5
27B24
 10
3827.48
 20
-1858.90
 30
0.000000
  70
    32
  0
VERTEX
  8
1PHANTOM
  5
27B25
 10
3827.19
 20
-1858.91
 30
0.000000
  70
    32
  0
VERTEX
  8
1PHANTOM
  5
27B26
 10
3826.89
 20
-1858.92
 30
0.000000
  70
    32
  0
VERTEX
  8
1PHANTOM
  5
27B27
 10
3826.60
 20
-1858.94
 30
0.000000
  70
    32
  0
VERTEX
  8
1PHANTOM
  5
27B28
 10
3826.31
 20
-1858.96
 30
0.000000
  70
    32
  0
VERTEX
  8
1PHANTOM
  5
27B29
 10
3826.02
 20
-1858.99
 30
0.000000
  70
    32
  0
VERTEX
  8
1PHANTOM
  5
27B2A
 10
3825.73
 20
-1859.01
 30
0.000000
  70
    32
  0
VERTEX
  8
1PHANTOM
  5
27B2B
 10
3825.43
 20
-1859.04
 30
0.000000
  70
    32
  0
VERTEX
  8
1PHANTOM
  5
27B2C
 10
3825.14
 20
-1859.07
 30
0.000000
  70
    32
  0
VERTEX
  8
1PHANTOM
  5
27B2D
 10
3824.85
 20
-1859.11
 30
0.000000
  70
    32
  0
VERTEX
  8
1PHANTOM
  5
27B2E
 10
3824.56
 20
-1859.15
 30
0.000000
  70
    32
  0
VERTEX
  8
1PHANTOM
  5
27B2F
 10
3824.27
 20
-1859.18
 30
0.000000
  70
    32
  0
VERTEX
  8
1PHANTOM
  5
27B30
 10
3823.97
 20
-1859.23
 30
0.000000
  70
    32
  0
VERTEX
  8
1PHANTOM
  5
27B31
 10
3823.68
 20
-1859.27
 30
0.000000
  70
    32
  0
VERTEX
  8
1PHANTOM
  5
27B32
 10
3823.39
 20
-1859.32
 30
0.000000
  70
    32
  0
VERTEX
  8
1PHANTOM
  5
27B33
 10
3823.09
 20
-1859.37
 30
0.000000
  70
    32
  0
VERTEX
  8
1PHANTOM
  5
27B34
 10
3822.80
 20
-1859.42
 30
0.000000
  70
    32
  0
VERTEX
  8
1PHANTOM
  5
27B35
 10
3822.51
 20
-1859.47
 30
0.000000
  70
    32
  0
VERTEX
  8
1PHANTOM
  5
27B36
 10
3822.21
 20
-1859.52
 30
0.000000
  70
    32
  0
VERTEX
  8
1PHANTOM
  5
27B37
 10
3821.92
 20
-1859.58
 30
0.000000
  70
    32
  0
VERTEX
  8
1PHANTOM
  5
27B38
 10
3821.63
 20
-1859.64
 30
0.000000
  70
    32
  0
VERTEX
  8
1PHANTOM
  5
27B39
 10
3821.33
 20
-1859.69
 30
0.000000
  70
    32
  0
VERTEX
  8
1PHANTOM
  5
27B3A
 10
3821.04
 20
-1859.75
 30
0.000000
  70
    32
  0
VERTEX
  8
1PHANTOM
  5
27B3B
 10
3820.75
 20
-1859.82
 30
0.000000
  70
    32
  0
VERTEX
  8
1PHANTOM
  5
27B3C
 10
3820.45
 20
-1859.88
 30
0.000000
  70
    32
  0
VERTEX
  8
1PHANTOM
  5
27B3D
 10
3820.16
 20
-1859.94
 30
0.000000
  70
    32
  0
VERTEX
  8
1PHANTOM
  5
27B3E
 10
3819.87
 20
-1860.01
 30
0.000000
  70
    32
  0
VERTEX
  8
1PHANTOM
  5
27B3F
 10
3819.57
 20
-1860.07
 30
0.000000
  70
    32
  0
VERTEX
  8
1PHANTOM
  5
27B40
 10
3819.28
 20
-1860.14
 30
0.000000
  70
    32
  0
VERTEX
  8
1PHANTOM
  5
27B41
 10
3818.98
 20
-1860.21
 30
0.000000
  70
    32
  0
VERTEX
  8
1PHANTOM
  5
27B42
 10
3818.69
 20
-1860.28
 30
0.000000
  70
    32
  0
VERTEX
  8
1PHANTOM
  5
27B43
 10
3818.39
 20
-1860.34
 30
0.000000
  70
    32
  0
VERTEX
  8
1PHANTOM
  5
27B44
 10
3818.10
 20
-1860.41
 30
0.000000
  70
    32
  0
VERTEX
  8
1PHANTOM
  5
27B45
 10
3817.81
 20
-1860.48
 30
0.000000
  70
    32
  0
VERTEX
  8
1PHANTOM
  5
27B46
 10
3817.51
 20
-1860.55
 30
0.000000
  70
    32
  0
VERTEX
  8
1PHANTOM
  5
27B47
 10
3817.22
 20
-1860.62
 30
0.000000
  70
    32
  0
VERTEX
  8
1PHANTOM
  5
27B48
 10
3816.92
 20
-1860.69
 30
0.000000
  70
    32
  0
VERTEX
  8
1PHANTOM
  5
27B49
 10
3816.63
 20
-1860.76
 30
0.000000
  70
    32
  0
VERTEX
  8
1PHANTOM
  5
27B4A
 10
3816.33
 20
-1860.83
 30
0.000000
  70
    32
  0
VERTEX
  8
1PHANTOM
  5
27B4B
 10
3816.04
 20
-1860.90
 30
0.000000
  70
    32
  0
VERTEX
  8
1PHANTOM
  5
27B4C
 10
3815.74
 20
-1860.97
 30
0.000000
  70
    32
  0
VERTEX
  8
1PHANTOM
  5
27B4D
 10
3815.45
 20
-1861.04
 30
0.000000
  70
    32
  0
VERTEX
  8
1PHANTOM
  5
27B4E
 10
3815.15
 20
-1861.11
 30
0.000000
  70
    32
  0
VERTEX
  8
1PHANTOM
  5
27B4F
 10
3814.86
 20
-1861.18
 30
0.000000
  70
    32
  0
VERTEX
  8
1PHANTOM
  5
27B50
 10
3814.56
 20
-1861.24
 30
0.000000
  70
    32
  0
VERTEX
  8
1PHANTOM
  5
27B51
 10
3814.27
 20
-1861.31
 30
0.000000
  70
    32
  0
VERTEX
  8
1PHANTOM
  5
27B52
 10
3813.97
 20
-1861.37
 30
0.000000
  70
    32
  0
VERTEX
  8
1PHANTOM
  5
27B53
 10
3813.68
 20
-1861.44
 30
0.000000
  70
    32
  0
VERTEX
  8
1PHANTOM
  5
27B54
 10
3813.38
 20
-1861.50
 30
0.000000
  70
    32
  0
VERTEX
  8
1PHANTOM
  5
27B55
 10
3813.09
 20
-1861.57
 30
0.000000
  70
    32
  0
VERTEX
  8
1PHANTOM
  5
27B56
 10
3812.79
 20
-1861.63
 30
0.000000
  70
    32
  0
VERTEX
  8
1PHANTOM
  5
27B57
 10
3812.50
 20
-1861.69
 30
0.000000
  70
    32
  0
VERTEX
  8
1PHANTOM
  5
27B58
 10
3812.20
 20
-1861.75
 30
0.000000
  70
    32
  0
VERTEX
  8
1PHANTOM
  5
27B59
 10
3811.91
 20
-1861.80
 30
0.000000
  70
    32
  0
VERTEX
  8
1PHANTOM
  5
27B5A
 10
3811.61
 20
-1861.86
 30
0.000000
  70
    32
  0
VERTEX
  8
1PHANTOM
  5
27B5B
 10
3811.31
 20
-1861.91
 30
0.000000
  70
    32
  0
VERTEX
  8
1PHANTOM
  5
27B5C
 10
3811.02
 20
-1861.96
 30
0.000000
  70
    32
  0
VERTEX
  8
1PHANTOM
  5
27B5D
 10
3810.72
 20
-1862.01
 30
0.000000
  70
    32
  0
VERTEX
  8
1PHANTOM
  5
27B5E
 10
3810.43
 20
-1862.06
 30
0.000000
  70
    32
  0
VERTEX
  8
1PHANTOM
  5
27B5F
 10
3810.13
 20
-1862.11
 30
0.000000
  70
    32
  0
VERTEX
  8
1PHANTOM
  5
27B60
 10
3809.84
 20
-1862.15
 30
0.000000
  70
    32
  0
VERTEX
  8
1PHANTOM
  5
27B61
 10
3809.54
 20
-1862.19
 30
0.000000
  70
    32
  0
VERTEX
  8
1PHANTOM
  5
27B62
 10
3809.25
 20
-1862.23
 30
0.000000
  70
    32
  0
VERTEX
  8
1PHANTOM
  5
27B63
 10
3808.95
 20
-1862.27
 30
0.000000
  70
    32
  0
VERTEX
  8
1PHANTOM
  5
27B64
 10
3808.66
 20
-1862.31
 30
0.000000
  70
    32
  0
VERTEX
  8
1PHANTOM
  5
27B65
 10
3808.36
 20
-1862.34
 30
0.000000
  70
    32
  0
VERTEX
  8
1PHANTOM
  5
27B66
 10
3808.06
 20
-1862.37
 30
0.000000
  70
    32
  0
VERTEX
  8
1PHANTOM
  5
27B67
 10
3807.77
 20
-1862.39
 30
0.000000
  70
    32
  0
VERTEX
  8
1PHANTOM
  5
27B68
 10
3807.47
 20
-1862.42
 30
0.000000
  70
    32
  0
VERTEX
  8
1PHANTOM
  5
27B69
 10
3807.18
 20
-1862.44
 30
0.000000
  70
    32
  0
VERTEX
  8
1PHANTOM
  5
27B6A
 10
3806.88
 20
-1862.45
 30
0.000000
  70
    32
  0
VERTEX
  8
1PHANTOM
  5
27B6B
 10
3806.59
 20
-1862.47
 30
0.000000
  70
    32
  0
VERTEX
  8
1PHANTOM
  5
27B6C
 10
3806.29
 20
-1862.48
 30
0.000000
  70
    32
  0
VERTEX
  8
1PHANTOM
  5
27B6D
 10
3806.00
 20
-1862.49
 30
0.000000
  70
    32
  0
VERTEX
  8
1PHANTOM
  5
27B6E
 10
3805.70
 20
-1862.49
 30
0.000000
  70
    32
  0
VERTEX
  8
1PHANTOM
  5
27B6F
 10
3805.41
 20
-1862.50
 30
0.000000
  70
    32
  0
VERTEX
  8
1PHANTOM
  5
27B70
 10
3805.11
 20
-1862.50
 30
0.000000
  70
    32
  0
VERTEX
  8
1PHANTOM
  5
27B71
 10
3804.82
 20
-1862.49
 30
0.000000
  70
    32
  0
VERTEX
  8
1PHANTOM
  5
27B72
 10
3804.52
 20
-1862.49
 30
0.000000
  70
    32
  0
VERTEX
  8
1PHANTOM
  5
27B73
 10
3804.23
 20
-1862.48
 30
0.000000
  70
    32
  0
VERTEX
  8
1PHANTOM
  5
27B74
 10
3803.93
 20
-1862.47
 30
0.000000
  70
    32
  0
VERTEX
  8
1PHANTOM
  5
27B75
 10
3803.63
 20
-1862.46
 30
0.000000
  70
    32
  0
VERTEX
  8
1PHANTOM
  5
27B76
 10
3803.34
 20
-1862.44
 30
0.000000
  70
    32
  0
VERTEX
  8
1PHANTOM
  5
27B77
 10
3803.04
 20
-1862.42
 30
0.000000
  70
    32
  0
VERTEX
  8
1PHANTOM
  5
27B78
 10
3802.75
 20
-1862.40
 30
0.000000
  70
    32
  0
VERTEX
  8
1PHANTOM
  5
27B79
 10
3802.45
 20
-1862.38
 30
0.000000
  70
    32
  0
VERTEX
  8
1PHANTOM
  5
27B7A
 10
3802.16
 20
-1862.36
 30
0.000000
  70
    32
  0
VERTEX
  8
1PHANTOM
  5
27B7B
 10
3801.86
 20
-1862.33
 30
0.000000
  70
    32
  0
VERTEX
  8
1PHANTOM
  5
27B7C
 10
3801.57
 20
-1862.30
 30
0.000000
  70
    32
  0
VERTEX
  8
1PHANTOM
  5
27B7D
 10
3801.27
 20
-1862.27
 30
0.000000
  70
    32
  0
VERTEX
  8
1PHANTOM
  5
27B7E
 10
3800.98
 20
-1862.23
 30
0.000000
  70
    32
  0
VERTEX
  8
1PHANTOM
  5
27B7F
 10
3800.68
 20
-1862.20
 30
0.000000
  70
    32
  0
VERTEX
  8
1PHANTOM
  5
27B80
 10
3800.39
 20
-1862.16
 30
0.000000
  70
    32
  0
VERTEX
  8
1PHANTOM
  5
27B81
 10
3800.09
 20
-1862.12
 30
0.000000
  70
    32
  0
VERTEX
  8
1PHANTOM
  5
27B82
 10
3799.80
 20
-1862.08
 30
0.000000
  70
    32
  0
VERTEX
  8
1PHANTOM
  5
27B83
 10
3799.50
 20
-1862.04
 30
0.000000
  70
    32
  0
VERTEX
  8
1PHANTOM
  5
27B84
 10
3799.21
 20
-1861.99
 30
0.000000
  70
    32
  0
VERTEX
  8
1PHANTOM
  5
27B85
 10
3798.91
 20
-1861.95
 30
0.000000
  70
    32
  0
VERTEX
  8
1PHANTOM
  5
27B86
 10
3798.62
 20
-1861.90
 30
0.000000
  70
    32
  0
VERTEX
  8
1PHANTOM
  5
27B87
 10
3798.32
 20
-1861.85
 30
0.000000
  70
    32
  0
VERTEX
  8
1PHANTOM
  5
27B88
 10
3798.03
 20
-1861.80
 30
0.000000
  70
    32
  0
VERTEX
  8
1PHANTOM
  5
27B89
 10
3797.73
 20
-1861.75
 30
0.000000
  70
    32
  0
VERTEX
  8
1PHANTOM
  5
27B8A
 10
3797.44
 20
-1861.69
 30
0.000000
  70
    32
  0
VERTEX
  8
1PHANTOM
  5
27B8B
 10
3797.14
 20
-1861.64
 30
0.000000
  70
    32
  0
VERTEX
  8
1PHANTOM
  5
27B8C
 10
3796.85
 20
-1861.58
 30
0.000000
  70
    32
  0
VERTEX
  8
1PHANTOM
  5
27B8D
 10
3796.55
 20
-1861.52
 30
0.000000
  70
    32
  0
VERTEX
  8
1PHANTOM
  5
27B8E
 10
3796.26
 20
-1861.47
 30
0.000000
  70
    32
  0
VERTEX
  8
1PHANTOM
  5
27B8F
 10
3795.96
 20
-1861.41
 30
0.000000
  70
    32
  0
VERTEX
  8
1PHANTOM
  5
27B90
 10
3795.67
 20
-1861.34
 30
0.000000
  70
    32
  0
VERTEX
  8
1PHANTOM
  5
27B91
 10
3795.37
 20
-1861.28
 30
0.000000
  70
    32
  0
VERTEX
  8
1PHANTOM
  5
27B92
 10
3795.08
 20
-1861.22
 30
0.000000
  70
    32
  0
VERTEX
  8
1PHANTOM
  5
27B93
 10
3794.78
 20
-1861.16
 30
0.000000
  70
    32
  0
VERTEX
  8
1PHANTOM
  5
27B94
 10
3794.49
 20
-1861.09
 30
0.000000
  70
    32
  0
VERTEX
  8
1PHANTOM
  5
27B95
 10
3794.19
 20
-1861.02
 30
0.000000
  70
    32
  0
VERTEX
  8
1PHANTOM
  5
27B96
 10
3793.90
 20
-1860.96
 30
0.000000
  70
    32
  0
VERTEX
  8
1PHANTOM
  5
27B97
 10
3793.60
 20
-1860.89
 30
0.000000
  70
    32
  0
VERTEX
  8
1PHANTOM
  5
27B98
 10
3793.31
 20
-1860.82
 30
0.000000
  70
    32
  0
VERTEX
  8
1PHANTOM
  5
27B99
 10
3793.01
 20
-1860.75
 30
0.000000
  70
    32
  0
VERTEX
  8
1PHANTOM
  5
27B9A
 10
3792.72
 20
-1860.68
 30
0.000000
  70
    32
  0
VERTEX
  8
1PHANTOM
  5
27B9B
 10
3792.42
 20
-1860.61
 30
0.000000
  70
    32
  0
VERTEX
  8
1PHANTOM
  5
27B9C
 10
3792.13
 20
-1860.54
 30
0.000000
  70
    32
  0
VERTEX
  8
1PHANTOM
  5
27B9D
 10
3791.83
 20
-1860.47
 30
0.000000
  70
    32
  0
VERTEX
  8
1PHANTOM
  5
27B9E
 10
3791.54
 20
-1860.40
 30
0.000000
  70
    32
  0
VERTEX
  8
1PHANTOM
  5
27B9F
 10
3791.24
 20
-1860.33
 30
0.000000
  70
    32
  0
VERTEX
  8
1PHANTOM
  5
27BA0
 10
3790.95
 20
-1860.26
 30
0.000000
  70
    32
  0
VERTEX
  8
1PHANTOM
  5
27BA1
 10
3790.65
 20
-1860.19
 30
0.000000
  70
    32
  0
VERTEX
  8
1PHANTOM
  5
27BA2
 10
3790.36
 20
-1860.12
 30
0.000000
  70
    32
  0
VERTEX
  8
1PHANTOM
  5
27BA3
 10
3790.06
 20
-1860.04
 30
0.000000
  70
    32
  0
VERTEX
  8
1PHANTOM
  5
27BA4
 10
3789.77
 20
-1859.97
 30
0.000000
  70
    32
  0
SEQEND
  8
1PHANTOM
  5
27BA5
  0
POLYLINE
  8
1PHANTOM
  5
27BA6
  66
     1
 10
0.000000
 20
0.000000
 30
0.000000
  70
     8
  0
VERTEX
  8
1PHANTOM
  5
27BA7
 10
3714.07
 20
-1860.54
 30
0.000000
  70
    32
  0
VERTEX
  8
1PHANTOM
  5
27BA8
 10
3713.26
 20
-1860.71
 30
0.000000
  70
    32
  0
VERTEX
  8
1PHANTOM
  5
27BA9
 10
3712.45
 20
-1860.89
 30
0.000000
  70
    32
  0
VERTEX
  8
1PHANTOM
  5
27BAA
 10
3711.65
 20
-1861.06
 30
0.000000
  70
    32
  0
VERTEX
  8
1PHANTOM
  5
27BAB
 10
3710.84
 20
-1861.24
 30
0.000000
  70
    32
  0
VERTEX
  8
1PHANTOM
  5
27BAC
 10
3710.03
 20
-1861.41
 30
0.000000
  70
    32
  0
VERTEX
  8
1PHANTOM
  5
27BAD
 10
3709.22
 20
-1861.58
 30
0.000000
  70
    32
  0
VERTEX
  8
1PHANTOM
  5
27BAE
 10
3708.42
 20
-1861.75
 30
0.000000
  70
    32
  0
VERTEX
  8
1PHANTOM
  5
27BAF
 10
3707.61
 20
-1861.92
 30
0.000000
  70
    32
  0
VERTEX
  8
1PHANTOM
  5
27BB0
 10
3706.80
 20
-1862.09
 30
0.000000
  70
    32
  0
VERTEX
  8
1PHANTOM
  5
27BB1
 10
3706.00
 20
-1862.26
 30
0.000000
  70
    32
  0
VERTEX
  8
1PHANTOM
  5
27BB2
 10
3705.19
 20
-1862.42
 30
0.000000
  70
    32
  0
VERTEX
  8
1PHANTOM
  5
27BB3
 10
3704.38
 20
-1862.59
 30
0.000000
  70
    32
  0
VERTEX
  8
1PHANTOM
  5
27BB4
 10
3703.57
 20
-1862.75
 30
0.000000
  70
    32
  0
VERTEX
  8
1PHANTOM
  5
27BB5
 10
3702.77
 20
-1862.91
 30
0.000000
  70
    32
  0
VERTEX
  8
1PHANTOM
  5
27BB6
 10
3701.96
 20
-1863.06
 30
0.000000
  70
    32
  0
VERTEX
  8
1PHANTOM
  5
27BB7
 10
3701.15
 20
-1863.22
 30
0.000000
  70
    32
  0
VERTEX
  8
1PHANTOM
  5
27BB8
 10
3700.34
 20
-1863.37
 30
0.000000
  70
    32
  0
VERTEX
  8
1PHANTOM
  5
27BB9
 10
3699.54
 20
-1863.52
 30
0.000000
  70
    32
  0
VERTEX
  8
1PHANTOM
  5
27BBA
 10
3698.73
 20
-1863.67
 30
0.000000
  70
    32
  0
VERTEX
  8
1PHANTOM
  5
27BBB
 10
3697.92
 20
-1863.81
 30
0.000000
  70
    32
  0
VERTEX
  8
1PHANTOM
  5
27BBC
 10
3697.11
 20
-1863.95
 30
0.000000
  70
    32
  0
VERTEX
  8
1PHANTOM
  5
27BBD
 10
3696.30
 20
-1864.09
 30
0.000000
  70
    32
  0
VERTEX
  8
1PHANTOM
  5
27BBE
 10
3695.50
 20
-1864.22
 30
0.000000
  70
    32
  0
VERTEX
  8
1PHANTOM
  5
27BBF
 10
3694.69
 20
-1864.35
 30
0.000000
  70
    32
  0
VERTEX
  8
1PHANTOM
  5
27BC0
 10
3693.88
 20
-1864.48
 30
0.000000
  70
    32
  0
VERTEX
  8
1PHANTOM
  5
27BC1
 10
3693.07
 20
-1864.60
 30
0.000000
  70
    32
  0
VERTEX
  8
1PHANTOM
  5
27BC2
 10
3692.26
 20
-1864.72
 30
0.000000
  70
    32
  0
VERTEX
  8
1PHANTOM
  5
27BC3
 10
3691.45
 20
-1864.83
 30
0.000000
  70
    32
  0
VERTEX
  8
1PHANTOM
  5
27BC4
 10
3690.64
 20
-1864.94
 30
0.000000
  70
    32
  0
VERTEX
  8
1PHANTOM
  5
27BC5
 10
3689.84
 20
-1865.04
 30
0.000000
  70
    32
  0
VERTEX
  8
1PHANTOM
  5
27BC6
 10
3689.03
 20
-1865.14
 30
0.000000
  70
    32
  0
VERTEX
  8
1PHANTOM
  5
27BC7
 10
3688.22
 20
-1865.24
 30
0.000000
  70
    32
  0
VERTEX
  8
1PHANTOM
  5
27BC8
 10
3687.41
 20
-1865.32
 30
0.000000
  70
    32
  0
VERTEX
  8
1PHANTOM
  5
27BC9
 10
3686.60
 20
-1865.41
 30
0.000000
  70
    32
  0
VERTEX
  8
1PHANTOM
  5
27BCA
 10
3685.79
 20
-1865.49
 30
0.000000
  70
    32
  0
VERTEX
  8
1PHANTOM
  5
27BCB
 10
3684.98
 20
-1865.56
 30
0.000000
  70
    32
  0
VERTEX
  8
1PHANTOM
  5
27BCC
 10
3684.17
 20
-1865.63
 30
0.000000
  70
    32
  0
VERTEX
  8
1PHANTOM
  5
27BCD
 10
3683.36
 20
-1865.69
 30
0.000000
  70
    32
  0
VERTEX
  8
1PHANTOM
  5
27BCE
 10
3682.55
 20
-1865.74
 30
0.000000
  70
    32
  0
VERTEX
  8
1PHANTOM
  5
27BCF
 10
3681.73
 20
-1865.79
 30
0.000000
  70
    32
  0
VERTEX
  8
1PHANTOM
  5
27BD0
 10
3680.92
 20
-1865.83
 30
0.000000
  70
    32
  0
VERTEX
  8
1PHANTOM
  5
27BD1
 10
3680.11
 20
-1865.87
 30
0.000000
  70
    32
  0
VERTEX
  8
1PHANTOM
  5
27BD2
 10
3679.30
 20
-1865.89
 30
0.000000
  70
    32
  0
VERTEX
  8
1PHANTOM
  5
27BD3
 10
3678.49
 20
-1865.92
 30
0.000000
  70
    32
  0
VERTEX
  8
1PHANTOM
  5
27BD4
 10
3677.68
 20
-1865.93
 30
0.000000
  70
    32
  0
VERTEX
  8
1PHANTOM
  5
27BD5
 10
3676.87
 20
-1865.95
 30
0.000000
  70
    32
  0
VERTEX
  8
1PHANTOM
  5
27BD6
 10
3676.05
 20
-1865.95
 30
0.000000
  70
    32
  0
VERTEX
  8
1PHANTOM
  5
27BD7
 10
3675.24
 20
-1865.95
 30
0.000000
  70
    32
  0
VERTEX
  8
1PHANTOM
  5
27BD8
 10
3674.43
 20
-1865.95
 30
0.000000
  70
    32
  0
VERTEX
  8
1PHANTOM
  5
27BD9
 10
3673.62
 20
-1865.93
 30
0.000000
  70
    32
  0
VERTEX
  8
1PHANTOM
  5
27BDA
 10
3672.80
 20
-1865.92
 30
0.000000
  70
    32
  0
VERTEX
  8
1PHANTOM
  5
27BDB
 10
3671.99
 20
-1865.90
 30
0.000000
  70
    32
  0
VERTEX
  8
1PHANTOM
  5
27BDC
 10
3671.18
 20
-1865.87
 30
0.000000
  70
    32
  0
VERTEX
  8
1PHANTOM
  5
27BDD
 10
3670.36
 20
-1865.84
 30
0.000000
  70
    32
  0
VERTEX
  8
1PHANTOM
  5
27BDE
 10
3669.55
 20
-1865.80
 30
0.000000
  70
    32
  0
VERTEX
  8
1PHANTOM
  5
27BDF
 10
3668.74
 20
-1865.76
 30
0.000000
  70
    32
  0
VERTEX
  8
1PHANTOM
  5
27BE0
 10
3667.92
 20
-1865.71
 30
0.000000
  70
    32
  0
VERTEX
  8
1PHANTOM
  5
27BE1
 10
3667.11
 20
-1865.66
 30
0.000000
  70
    32
  0
VERTEX
  8
1PHANTOM
  5
27BE2
 10
3666.29
 20
-1865.61
 30
0.000000
  70
    32
  0
VERTEX
  8
1PHANTOM
  5
27BE3
 10
3665.48
 20
-1865.55
 30
0.000000
  70
    32
  0
VERTEX
  8
1PHANTOM
  5
27BE4
 10
3664.67
 20
-1865.49
 30
0.000000
  70
    32
  0
VERTEX
  8
1PHANTOM
  5
27BE5
 10
3663.85
 20
-1865.42
 30
0.000000
  70
    32
  0
VERTEX
  8
1PHANTOM
  5
27BE6
 10
3663.04
 20
-1865.35
 30
0.000000
  70
    32
  0
VERTEX
  8
1PHANTOM
  5
27BE7
 10
3662.22
 20
-1865.28
 30
0.000000
  70
    32
  0
VERTEX
  8
1PHANTOM
  5
27BE8
 10
3661.41
 20
-1865.20
 30
0.000000
  70
    32
  0
VERTEX
  8
1PHANTOM
  5
27BE9
 10
3660.59
 20
-1865.12
 30
0.000000
  70
    32
  0
VERTEX
  8
1PHANTOM
  5
27BEA
 10
3659.78
 20
-1865.03
 30
0.000000
  70
    32
  0
VERTEX
  8
1PHANTOM
  5
27BEB
 10
3658.96
 20
-1864.94
 30
0.000000
  70
    32
  0
VERTEX
  8
1PHANTOM
  5
27BEC
 10
3658.15
 20
-1864.85
 30
0.000000
  70
    32
  0
VERTEX
  8
1PHANTOM
  5
27BED
 10
3657.33
 20
-1864.76
 30
0.000000
  70
    32
  0
VERTEX
  8
1PHANTOM
  5
27BEE
 10
3656.52
 20
-1864.66
 30
0.000000
  70
    32
  0
VERTEX
  8
1PHANTOM
  5
27BEF
 10
3655.70
 20
-1864.56
 30
0.000000
  70
    32
  0
VERTEX
  8
1PHANTOM
  5
27BF0
 10
3654.88
 20
-1864.46
 30
0.000000
  70
    32
  0
VERTEX
  8
1PHANTOM
  5
27BF1
 10
3654.07
 20
-1864.36
 30
0.000000
  70
    32
  0
VERTEX
  8
1PHANTOM
  5
27BF2
 10
3653.25
 20
-1864.25
 30
0.000000
  70
    32
  0
VERTEX
  8
1PHANTOM
  5
27BF3
 10
3652.44
 20
-1864.14
 30
0.000000
  70
    32
  0
VERTEX
  8
1PHANTOM
  5
27BF4
 10
3651.62
 20
-1864.03
 30
0.000000
  70
    32
  0
VERTEX
  8
1PHANTOM
  5
27BF5
 10
3650.80
 20
-1863.91
 30
0.000000
  70
    32
  0
VERTEX
  8
1PHANTOM
  5
27BF6
 10
3649.99
 20
-1863.80
 30
0.000000
  70
    32
  0
VERTEX
  8
1PHANTOM
  5
27BF7
 10
3649.17
 20
-1863.68
 30
0.000000
  70
    32
  0
VERTEX
  8
1PHANTOM
  5
27BF8
 10
3648.36
 20
-1863.56
 30
0.000000
  70
    32
  0
VERTEX
  8
1PHANTOM
  5
27BF9
 10
3647.54
 20
-1863.44
 30
0.000000
  70
    32
  0
VERTEX
  8
1PHANTOM
  5
27BFA
 10
3646.72
 20
-1863.32
 30
0.000000
  70
    32
  0
VERTEX
  8
1PHANTOM
  5
27BFB
 10
3645.91
 20
-1863.19
 30
0.000000
  70
    32
  0
VERTEX
  8
1PHANTOM
  5
27BFC
 10
3645.09
 20
-1863.07
 30
0.000000
  70
    32
  0
VERTEX
  8
1PHANTOM
  5
27BFD
 10
3644.27
 20
-1862.94
 30
0.000000
  70
    32
  0
VERTEX
  8
1PHANTOM
  5
27BFE
 10
3643.46
 20
-1862.82
 30
0.000000
  70
    32
  0
VERTEX
  8
1PHANTOM
  5
27BFF
 10
3642.64
 20
-1862.69
 30
0.000000
  70
    32
  0
VERTEX
  8
1PHANTOM
  5
27C00
 10
3641.82
 20
-1862.56
 30
0.000000
  70
    32
  0
VERTEX
  8
1PHANTOM
  5
27C01
 10
3641.01
 20
-1862.43
 30
0.000000
  70
    32
  0
VERTEX
  8
1PHANTOM
  5
27C02
 10
3640.19
 20
-1862.30
 30
0.000000
  70
    32
  0
VERTEX
  8
1PHANTOM
  5
27C03
 10
3639.37
 20
-1862.17
 30
0.000000
  70
    32
  0
VERTEX
  8
1PHANTOM
  5
27C04
 10
3638.56
 20
-1862.04
 30
0.000000
  70
    32
  0
VERTEX
  8
1PHANTOM
  5
27C05
 10
3637.74
 20
-1861.91
 30
0.000000
  70
    32
  0
VERTEX
  8
1PHANTOM
  5
27C06
 10
3636.92
 20
-1861.78
 30
0.000000
  70
    32
  0
VERTEX
  8
1PHANTOM
  5
27C07
 10
3636.11
 20
-1861.65
 30
0.000000
  70
    32
  0
VERTEX
  8
1PHANTOM
  5
27C08
 10
3635.29
 20
-1861.52
 30
0.000000
  70
    32
  0
VERTEX
  8
1PHANTOM
  5
27C09
 10
3634.47
 20
-1861.39
 30
0.000000
  70
    32
  0
VERTEX
  8
1PHANTOM
  5
27C0A
 10
3633.65
 20
-1861.27
 30
0.000000
  70
    32
  0
VERTEX
  8
1PHANTOM
  5
27C0B
 10
3632.84
 20
-1861.14
 30
0.000000
  70
    32
  0
VERTEX
  8
1PHANTOM
  5
27C0C
 10
3632.02
 20
-1861.01
 30
0.000000
  70
    32
  0
VERTEX
  8
1PHANTOM
  5
27C0D
 10
3631.20
 20
-1860.88
 30
0.000000
  70
    32
  0
VERTEX
  8
1PHANTOM
  5
27C0E
 10
3630.39
 20
-1860.76
 30
0.000000
  70
    32
  0
VERTEX
  8
1PHANTOM
  5
27C0F
 10
3629.57
 20
-1860.63
 30
0.000000
  70
    32
  0
VERTEX
  8
1PHANTOM
  5
27C10
 10
3628.75
 20
-1860.51
 30
0.000000
  70
    32
  0
VERTEX
  8
1PHANTOM
  5
27C11
 10
3627.94
 20
-1860.39
 30
0.000000
  70
    32
  0
VERTEX
  8
1PHANTOM
  5
27C12
 10
3627.12
 20
-1860.27
 30
0.000000
  70
    32
  0
VERTEX
  8
1PHANTOM
  5
27C13
 10
3626.30
 20
-1860.15
 30
0.000000
  70
    32
  0
VERTEX
  8
1PHANTOM
  5
27C14
 10
3625.49
 20
-1860.03
 30
0.000000
  70
    32
  0
VERTEX
  8
1PHANTOM
  5
27C15
 10
3624.67
 20
-1859.92
 30
0.000000
  70
    32
  0
VERTEX
  8
1PHANTOM
  5
27C16
 10
3623.85
 20
-1859.80
 30
0.000000
  70
    32
  0
VERTEX
  8
1PHANTOM
  5
27C17
 10
3623.04
 20
-1859.69
 30
0.000000
  70
    32
  0
VERTEX
  8
1PHANTOM
  5
27C18
 10
3622.22
 20
-1859.58
 30
0.000000
  70
    32
  0
VERTEX
  8
1PHANTOM
  5
27C19
 10
3621.40
 20
-1859.47
 30
0.000000
  70
    32
  0
VERTEX
  8
1PHANTOM
  5
27C1A
 10
3620.59
 20
-1859.37
 30
0.000000
  70
    32
  0
VERTEX
  8
1PHANTOM
  5
27C1B
 10
3619.77
 20
-1859.27
 30
0.000000
  70
    32
  0
VERTEX
  8
1PHANTOM
  5
27C1C
 10
3618.95
 20
-1859.17
 30
0.000000
  70
    32
  0
VERTEX
  8
1PHANTOM
  5
27C1D
 10
3618.14
 20
-1859.07
 30
0.000000
  70
    32
  0
VERTEX
  8
1PHANTOM
  5
27C1E
 10
3617.32
 20
-1858.98
 30
0.000000
  70
    32
  0
VERTEX
  8
1PHANTOM
  5
27C1F
 10
3616.50
 20
-1858.89
 30
0.000000
  70
    32
  0
VERTEX
  8
1PHANTOM
  5
27C20
 10
3615.69
 20
-1858.80
 30
0.000000
  70
    32
  0
VERTEX
  8
1PHANTOM
  5
27C21
 10
3614.87
 20
-1858.71
 30
0.000000
  70
    32
  0
VERTEX
  8
1PHANTOM
  5
27C22
 10
3614.06
 20
-1858.63
 30
0.000000
  70
    32
  0
VERTEX
  8
1PHANTOM
  5
27C23
 10
3613.24
 20
-1858.56
 30
0.000000
  70
    32
  0
VERTEX
  8
1PHANTOM
  5
27C24
 10
3612.43
 20
-1858.48
 30
0.000000
  70
    32
  0
VERTEX
  8
1PHANTOM
  5
27C25
 10
3611.61
 20
-1858.41
 30
0.000000
  70
    32
  0
VERTEX
  8
1PHANTOM
  5
27C26
 10
3610.79
 20
-1858.34
 30
0.000000
  70
    32
  0
VERTEX
  8
1PHANTOM
  5
27C27
 10
3609.98
 20
-1858.28
 30
0.000000
  70
    32
  0
VERTEX
  8
1PHANTOM
  5
27C28
 10
3609.16
 20
-1858.22
 30
0.000000
  70
    32
  0
VERTEX
  8
1PHANTOM
  5
27C29
 10
3608.35
 20
-1858.17
 30
0.000000
  70
    32
  0
VERTEX
  8
1PHANTOM
  5
27C2A
 10
3607.53
 20
-1858.12
 30
0.000000
  70
    32
  0
VERTEX
  8
1PHANTOM
  5
27C2B
 10
3606.72
 20
-1858.07
 30
0.000000
  70
    32
  0
VERTEX
  8
1PHANTOM
  5
27C2C
 10
3605.90
 20
-1858.03
 30
0.000000
  70
    32
  0
VERTEX
  8
1PHANTOM
  5
27C2D
 10
3605.09
 20
-1858.00
 30
0.000000
  70
    32
  0
VERTEX
  8
1PHANTOM
  5
27C2E
 10
3604.27
 20
-1857.97
 30
0.000000
  70
    32
  0
VERTEX
  8
1PHANTOM
  5
27C2F
 10
3603.46
 20
-1857.94
 30
0.000000
  70
    32
  0
VERTEX
  8
1PHANTOM
  5
27C30
 10
3602.64
 20
-1857.92
 30
0.000000
  70
    32
  0
VERTEX
  8
1PHANTOM
  5
27C31
 10
3601.83
 20
-1857.90
 30
0.000000
  70
    32
  0
VERTEX
  8
1PHANTOM
  5
27C32
 10
3601.01
 20
-1857.89
 30
0.000000
  70
    32
  0
VERTEX
  8
1PHANTOM
  5
27C33
 10
3600.20
 20
-1857.89
 30
0.000000
  70
    32
  0
VERTEX
  8
1PHANTOM
  5
27C34
 10
3599.39
 20
-1857.89
 30
0.000000
  70
    32
  0
VERTEX
  8
1PHANTOM
  5
27C35
 10
3598.57
 20
-1857.89
 30
0.000000
  70
    32
  0
VERTEX
  8
1PHANTOM
  5
27C36
 10
3597.76
 20
-1857.90
 30
0.000000
  70
    32
  0
VERTEX
  8
1PHANTOM
  5
27C37
 10
3596.95
 20
-1857.92
 30
0.000000
  70
    32
  0
VERTEX
  8
1PHANTOM
  5
27C38
 10
3596.13
 20
-1857.95
 30
0.000000
  70
    32
  0
VERTEX
  8
1PHANTOM
  5
27C39
 10
3595.32
 20
-1857.97
 30
0.000000
  70
    32
  0
VERTEX
  8
1PHANTOM
  5
27C3A
 10
3594.51
 20
-1858.01
 30
0.000000
  70
    32
  0
VERTEX
  8
1PHANTOM
  5
27C3B
 10
3593.69
 20
-1858.05
 30
0.000000
  70
    32
  0
VERTEX
  8
1PHANTOM
  5
27C3C
 10
3592.88
 20
-1858.10
 30
0.000000
  70
    32
  0
VERTEX
  8
1PHANTOM
  5
27C3D
 10
3592.07
 20
-1858.15
 30
0.000000
  70
    32
  0
VERTEX
  8
1PHANTOM
  5
27C3E
 10
3591.26
 20
-1858.20
 30
0.000000
  70
    32
  0
VERTEX
  8
1PHANTOM
  5
27C3F
 10
3590.44
 20
-1858.26
 30
0.000000
  70
    32
  0
VERTEX
  8
1PHANTOM
  5
27C40
 10
3589.63
 20
-1858.33
 30
0.000000
  70
    32
  0
VERTEX
  8
1PHANTOM
  5
27C41
 10
3588.82
 20
-1858.40
 30
0.000000
  70
    32
  0
VERTEX
  8
1PHANTOM
  5
27C42
 10
3588.01
 20
-1858.48
 30
0.000000
  70
    32
  0
VERTEX
  8
1PHANTOM
  5
27C43
 10
3587.19
 20
-1858.56
 30
0.000000
  70
    32
  0
VERTEX
  8
1PHANTOM
  5
27C44
 10
3586.38
 20
-1858.64
 30
0.000000
  70
    32
  0
VERTEX
  8
1PHANTOM
  5
27C45
 10
3585.57
 20
-1858.73
 30
0.000000
  70
    32
  0
VERTEX
  8
1PHANTOM
  5
27C46
 10
3584.76
 20
-1858.82
 30
0.000000
  70
    32
  0
VERTEX
  8
1PHANTOM
  5
27C47
 10
3583.95
 20
-1858.92
 30
0.000000
  70
    32
  0
VERTEX
  8
1PHANTOM
  5
27C48
 10
3583.14
 20
-1859.02
 30
0.000000
  70
    32
  0
VERTEX
  8
1PHANTOM
  5
27C49
 10
3582.33
 20
-1859.13
 30
0.000000
  70
    32
  0
VERTEX
  8
1PHANTOM
  5
27C4A
 10
3581.51
 20
-1859.24
 30
0.000000
  70
    32
  0
VERTEX
  8
1PHANTOM
  5
27C4B
 10
3580.70
 20
-1859.35
 30
0.000000
  70
    32
  0
VERTEX
  8
1PHANTOM
  5
27C4C
 10
3579.89
 20
-1859.46
 30
0.000000
  70
    32
  0
VERTEX
  8
1PHANTOM
  5
27C4D
 10
3579.08
 20
-1859.58
 30
0.000000
  70
    32
  0
VERTEX
  8
1PHANTOM
  5
27C4E
 10
3578.27
 20
-1859.70
 30
0.000000
  70
    32
  0
VERTEX
  8
1PHANTOM
  5
27C4F
 10
3577.46
 20
-1859.83
 30
0.000000
  70
    32
  0
VERTEX
  8
1PHANTOM
  5
27C50
 10
3576.65
 20
-1859.95
 30
0.000000
  70
    32
  0
VERTEX
  8
1PHANTOM
  5
27C51
 10
3575.84
 20
-1860.09
 30
0.000000
  70
    32
  0
VERTEX
  8
1PHANTOM
  5
27C52
 10
3575.03
 20
-1860.22
 30
0.000000
  70
    32
  0
VERTEX
  8
1PHANTOM
  5
27C53
 10
3574.22
 20
-1860.35
 30
0.000000
  70
    32
  0
VERTEX
  8
1PHANTOM
  5
27C54
 10
3573.41
 20
-1860.49
 30
0.000000
  70
    32
  0
VERTEX
  8
1PHANTOM
  5
27C55
 10
3572.60
 20
-1860.63
 30
0.000000
  70
    32
  0
VERTEX
  8
1PHANTOM
  5
27C56
 10
3571.79
 20
-1860.77
 30
0.000000
  70
    32
  0
VERTEX
  8
1PHANTOM
  5
27C57
 10
3570.98
 20
-1860.92
 30
0.000000
  70
    32
  0
VERTEX
  8
1PHANTOM
  5
27C58
 10
3570.17
 20
-1861.06
 30
0.000000
  70
    32
  0
VERTEX
  8
1PHANTOM
  5
27C59
 10
3569.35
 20
-1861.21
 30
0.000000
  70
    32
  0
VERTEX
  8
1PHANTOM
  5
27C5A
 10
3568.54
 20
-1861.36
 30
0.000000
  70
    32
  0
VERTEX
  8
1PHANTOM
  5
27C5B
 10
3567.73
 20
-1861.51
 30
0.000000
  70
    32
  0
VERTEX
  8
1PHANTOM
  5
27C5C
 10
3566.92
 20
-1861.67
 30
0.000000
  70
    32
  0
VERTEX
  8
1PHANTOM
  5
27C5D
 10
3566.11
 20
-1861.82
 30
0.000000
  70
    32
  0
VERTEX
  8
1PHANTOM
  5
27C5E
 10
3565.30
 20
-1861.97
 30
0.000000
  70
    32
  0
VERTEX
  8
1PHANTOM
  5
27C5F
 10
3564.49
 20
-1862.13
 30
0.000000
  70
    32
  0
VERTEX
  8
1PHANTOM
  5
27C60
 10
3563.68
 20
-1862.29
 30
0.000000
  70
    32
  0
VERTEX
  8
1PHANTOM
  5
27C61
 10
3562.87
 20
-1862.44
 30
0.000000
  70
    32
  0
VERTEX
  8
1PHANTOM
  5
27C62
 10
3562.06
 20
-1862.60
 30
0.000000
  70
    32
  0
VERTEX
  8
1PHANTOM
  5
27C63
 10
3561.25
 20
-1862.76
 30
0.000000
  70
    32
  0
VERTEX
  8
1PHANTOM
  5
27C64
 10
3560.44
 20
-1862.92
 30
0.000000
  70
    32
  0
VERTEX
  8
1PHANTOM
  5
27C65
 10
3559.63
 20
-1863.08
 30
0.000000
  70
    32
  0
VERTEX
  8
1PHANTOM
  5
27C66
 10
3558.82
 20
-1863.24
 30
0.000000
  70
    32
  0
SEQEND
  8
1PHANTOM
  5
27C67
  0
LINE
  5
27223
  8
1PHANTOM
 10
3841.3292877914441
 20
-1861.7819844717781
 30
0.0
 11
3841.3292877914441
 21
-1659.9319139831071
 31
0.0
  0
LINE
  5
27224
  8
1PHANTOM
 10
3821.329287791445
 20
-1859.695474375101
 30
0.0
 11
3821.329287791445
 21
-1659.9319139831071
 31
0.0
  0
LINE
  5
27229
  8
1PHANTOM
 10
3705.3292877914068
 20
-1800.789905533677
 30
0.0
 11
3562.3292877914068
 21
-1800.789905533677
 31
0.0
  0
LINE
  5
2722A
  8
1PHANTOM
 10
3562.3292877914068
 20
-1800.789905533677
 30
0.0
 11
3562.3292877914068
 21
-1862.7470191527291
 31
0.0
  0
LINE
  5
2722B
  8
1PHANTOM
 10
3705.3292877914068
 20
-1800.789905533677
 30
0.0
 11
3705.3292877914068
 21
-1862.1874004158119
 31
0.0
  0
LINE
  5
27232
  8
1PHANTOM
 10
3835.9471533774899
 20
-1700.289905533677
 30
0.0
 11
3836.9471533774899
 21
-1705.289905533677
 31
0.0
  0
LINE
  5
27233
  8
1PHANTOM
 10
3861.2756410219922
 20
-1702.789905533677
 30
0.0
 11
3814.8463350412981
 21
-1702.789905533677
 31
0.0
  0
LINE
  5
27234
  8
1PHANTOM
 10
3853.2981988781989
 20
-1701.039905533677
 30
0.0
 11
3819.8292877914441
 21
-1701.039905533677
 31
0.0
  0
LINE
  5
27235
  8
1PHANTOM
 10
3859.8292877914441
 20
-1702.789905533677
 30
0.0
 11
3853.2981988781989
 21
-1701.039905533677
 31
0.0
  0
LINE
  5
27236
  8
1PHANTOM
 10
3859.8292877914441
 20
-1702.789905533677
 30
0.0
 11
3853.298198878198
 21
-1704.539905533677
 31
0.0
  0
LINE
  5
27237
  8
1PHANTOM
 10
3853.298198878198
 20
-1704.539905533677
 30
0.0
 11
3819.8292877914441
 21
-1704.539905533677
 31
0.0
  0
LINE
  5
27238
  8
1PHANTOM
 10
3853.9838999892831
 20
-1700.473638592641
 30
0.0
 11
3853.8338999892831
 21
-1701.223638592641
 31
0.0
  0
LINE
  5
27239
  8
1PHANTOM
 10
3853.9838999892831
 20
-1700.473638592641
 30
0.0
 11
3854.8632808855009
 21
-1704.8705430737321
 31
0.0
  0
LINE
  5
2723A
  8
1PHANTOM
 10
3858.8098247148778
 20
-1703.1032622206201
 30
0.0
 11
3858.6598247148791
 21
-1703.853262220621
 31
0.0
  0
LINE
  5
2723B
  8
1PHANTOM
 10
3858.210397297386
 20
-1701.60612513316
 30
0.0
 11
3858.0603972973859
 21
-1702.35612513316
 31
0.0
  0
LINE
  5
2723C
  8
1PHANTOM
 10
3858.210397297386
 20
-1701.60612513316
 30
0.0
 11
3858.6598247148791
 21
-1703.853262220621
 31
0.0
  0
LINE
  5
2723D
  8
1PHANTOM
 10
3855.013280885501
 20
-1704.1205430737321
 30
0.0
 11
3854.8632808855009
 21
-1704.8705430737321
 31
0.0
  0
LINE
  5
2723E
  8
1PHANTOM
 10
3856.9115528001898
 20
-1703.6119026471761
 30
0.0
 11
3856.7615528001902
 21
-1704.361902647177
 31
0.0
  0
LINE
  5
2723F
  8
1PHANTOM
 10
3856.097148643335
 20
-1701.0398818629001
 30
0.0
 11
3855.947148643334
 21
-1701.7898818629001
 31
0.0
  0
LINE
  5
27240
  8
1PHANTOM
 10
3856.097148643335
 20
-1701.0398818629001
 30
0.0
 11
3856.7615528001902
 21
-1704.361902647177
 31
0.0
  0
LINE
  5
27241
  8
1PHANTOM
 10
3845.0971533774909
 20
-1704.539905533677
 30
0.0
 11
3844.9471533774899
 21
-1705.289905533677
 31
0.0
  0
LINE
  5
27242
  8
1PHANTOM
 10
3847.9471533774899
 20
-1700.289905533677
 30
0.0
 11
3847.7971533774898
 21
-1701.039905533677
 31
0.0
  0
LINE
  5
27243
  8
1PHANTOM
 10
3845.9471533774899
 20
-1700.289905533677
 30
0.0
 11
3845.7971533774898
 21
-1701.039905533677
 31
0.0
  0
LINE
  5
27244
  8
1PHANTOM
 10
3845.9471533774899
 20
-1700.289905533677
 30
0.0
 11
3846.9471533774899
 21
-1705.289905533677
 31
0.0
  0
LINE
  5
27245
  8
1PHANTOM
 10
3849.9471533774899
 20
-1700.289905533677
 30
0.0
 11
3849.7971533774898
 21
-1701.039905533677
 31
0.0
  0
LINE
  5
27246
  8
1PHANTOM
 10
3851.9471533774899
 20
-1700.289905533677
 30
0.0
 11
3851.7971533774898
 21
-1701.039905533677
 31
0.0
  0
LINE
  5
27247
  8
1PHANTOM
 10
3851.9471533774899
 20
-1700.289905533677
 30
0.0
 11
3852.9471533774899
 21
-1705.289905533677
 31
0.0
  0
LINE
  5
27248
  8
1PHANTOM
 10
3849.9471533774899
 20
-1700.289905533677
 30
0.0
 11
3850.9471533774899
 21
-1705.289905533677
 31
0.0
  0
LINE
  5
27249
  8
1PHANTOM
 10
3847.9471533774899
 20
-1700.289905533677
 30
0.0
 11
3848.9471533774908
 21
-1705.289905533677
 31
0.0
  0
LINE
  5
2724A
  8
1PHANTOM
 10
3853.09715337749
 20
-1704.539905533677
 30
0.0
 11
3852.9471533774899
 21
-1705.289905533677
 31
0.0
  0
LINE
  5
2724B
  8
1PHANTOM
 10
3851.09715337749
 20
-1704.539905533677
 30
0.0
 11
3850.9471533774899
 21
-1705.289905533677
 31
0.0
  0
LINE
  5
2724C
  8
1PHANTOM
 10
3847.09715337749
 20
-1704.539905533677
 30
0.0
 11
3846.9471533774899
 21
-1705.289905533677
 31
0.0
  0
LINE
  5
2724D
  8
1PHANTOM
 10
3849.0971533774909
 20
-1704.539905533677
 30
0.0
 11
3848.9471533774908
 21
-1705.289905533677
 31
0.0
  0
LINE
  5
2724E
  8
1PHANTOM
 10
3841.9471533774908
 20
-1700.289905533677
 30
0.0
 11
3841.7971533774898
 21
-1701.039905533677
 31
0.0
  0
LINE
  5
2724F
  8
1PHANTOM
 10
3843.9471533774899
 20
-1700.289905533677
 30
0.0
 11
3843.7971533774898
 21
-1701.039905533677
 31
0.0
  0
LINE
  5
27250
  8
1PHANTOM
 10
3837.9471533774899
 20
-1700.289905533677
 30
0.0
 11
3837.7971533774898
 21
-1701.039905533677
 31
0.0
  0
LINE
  5
27251
  8
1PHANTOM
 10
3839.9471533774899
 20
-1700.289905533677
 30
0.0
 11
3839.7971533774898
 21
-1701.039905533677
 31
0.0
  0
LINE
  5
27252
  8
1PHANTOM
 10
3843.9471533774899
 20
-1700.289905533677
 30
0.0
 11
3844.9471533774899
 21
-1705.289905533677
 31
0.0
  0
LINE
  5
27253
  8
1PHANTOM
 10
3841.9471533774908
 20
-1700.289905533677
 30
0.0
 11
3842.9471533774899
 21
-1705.289905533677
 31
0.0
  0
LINE
  5
27254
  8
1PHANTOM
 10
3839.9471533774899
 20
-1700.289905533677
 30
0.0
 11
3840.9471533774899
 21
-1705.289905533677
 31
0.0
  0
LINE
  5
27255
  8
1PHANTOM
 10
3837.9471533774899
 20
-1700.289905533677
 30
0.0
 11
3838.9471533774899
 21
-1705.289905533677
 31
0.0
  0
LINE
  5
27256
  8
1PHANTOM
 10
3841.09715337749
 20
-1704.539905533677
 30
0.0
 11
3840.9471533774899
 21
-1705.289905533677
 31
0.0
  0
LINE
  5
27257
  8
1PHANTOM
 10
3843.09715337749
 20
-1704.539905533677
 30
0.0
 11
3842.9471533774899
 21
-1705.289905533677
 31
0.0
  0
LINE
  5
27258
  8
1PHANTOM
 10
3837.09715337749
 20
-1704.539905533677
 30
0.0
 11
3836.9471533774899
 21
-1705.289905533677
 31
0.0
  0
LINE
  5
27259
  8
1PHANTOM
 10
3839.09715337749
 20
-1704.539905533677
 30
0.0
 11
3838.9471533774899
 21
-1705.289905533677
 31
0.0
  0
LINE
  5
2725A
  8
1PHANTOM
 10
3819.9471533774899
 20
-1700.289905533677
 30
0.0
 11
3820.9471533774899
 21
-1705.289905533677
 31
0.0
  0
LINE
  5
2725B
  8
1PHANTOM
 10
3827.9471533774899
 20
-1700.289905533677
 30
0.0
 11
3828.9471533774899
 21
-1705.289905533677
 31
0.0
  0
LINE
  5
2725C
  8
1PHANTOM
 10
3835.9471533774899
 20
-1700.289905533677
 30
0.0
 11
3835.7971533774898
 21
-1701.039905533677
 31
0.0
  0
LINE
  5
2725D
  8
1PHANTOM
 10
3833.9471533774899
 20
-1700.289905533677
 30
0.0
 11
3833.7971533774898
 21
-1701.039905533677
 31
0.0
  0
LINE
  5
2725E
  8
1PHANTOM
 10
3831.9471533774899
 20
-1700.289905533677
 30
0.0
 11
3831.7971533774898
 21
-1701.039905533677
 31
0.0
  0
LINE
  5
2725F
  8
1PHANTOM
 10
3829.9471533774899
 20
-1700.289905533677
 30
0.0
 11
3829.7971533774898
 21
-1701.039905533677
 31
0.0
  0
LINE
  5
27260
  8
1PHANTOM
 10
3833.9471533774899
 20
-1700.289905533677
 30
0.0
 11
3834.9471533774899
 21
-1705.289905533677
 31
0.0
  0
LINE
  5
27261
  8
1PHANTOM
 10
3831.9471533774899
 20
-1700.289905533677
 30
0.0
 11
3832.9471533774899
 21
-1705.289905533677
 31
0.0
  0
LINE
  5
27262
  8
1PHANTOM
 10
3829.9471533774899
 20
-1700.289905533677
 30
0.0
 11
3830.9471533774899
 21
-1705.289905533677
 31
0.0
  0
LINE
  5
27263
  8
1PHANTOM
 10
3835.09715337749
 20
-1704.539905533677
 30
0.0
 11
3834.9471533774899
 21
-1705.289905533677
 31
0.0
  0
LINE
  5
27264
  8
1PHANTOM
 10
3833.09715337749
 20
-1704.539905533677
 30
0.0
 11
3832.9471533774899
 21
-1705.289905533677
 31
0.0
  0
LINE
  5
27265
  8
1PHANTOM
 10
3831.09715337749
 20
-1704.539905533677
 30
0.0
 11
3830.9471533774899
 21
-1705.289905533677
 31
0.0
  0
LINE
  5
27266
  8
1PHANTOM
 10
3829.09715337749
 20
-1704.539905533677
 30
0.0
 11
3828.9471533774899
 21
-1705.289905533677
 31
0.0
  0
LINE
  5
27267
  8
1PHANTOM
 10
3823.9471533774908
 20
-1700.289905533677
 30
0.0
 11
3823.7971533774898
 21
-1701.039905533677
 31
0.0
  0
LINE
  5
27268
  8
1PHANTOM
 10
3825.9471533774899
 20
-1700.289905533677
 30
0.0
 11
3825.7971533774898
 21
-1701.039905533677
 31
0.0
  0
LINE
  5
27269
  8
1PHANTOM
 10
3827.9471533774899
 20
-1700.289905533677
 30
0.0
 11
3827.7971533774898
 21
-1701.039905533677
 31
0.0
  0
LINE
  5
2726A
  8
1PHANTOM
 10
3821.9471533774899
 20
-1700.289905533677
 30
0.0
 11
3821.7971533774898
 21
-1701.039905533677
 31
0.0
  0
LINE
  5
2726B
  8
1PHANTOM
 10
3825.9471533774899
 20
-1700.289905533677
 30
0.0
 11
3826.9471533774899
 21
-1705.289905533677
 31
0.0
  0
LINE
  5
2726C
  8
1PHANTOM
 10
3823.9471533774908
 20
-1700.289905533677
 30
0.0
 11
3824.9471533774899
 21
-1705.289905533677
 31
0.0
  0
LINE
  5
2726D
  8
1PHANTOM
 10
3821.9471533774899
 20
-1700.289905533677
 30
0.0
 11
3822.9471533774899
 21
-1705.289905533677
 31
0.0
  0
LINE
  5
2726E
  8
1PHANTOM
 10
3825.09715337749
 20
-1704.539905533677
 30
0.0
 11
3824.9471533774899
 21
-1705.289905533677
 31
0.0
  0
LINE
  5
2726F
  8
1PHANTOM
 10
3827.09715337749
 20
-1704.539905533677
 30
0.0
 11
3826.9471533774899
 21
-1705.289905533677
 31
0.0
  0
LINE
  5
27270
  8
1PHANTOM
 10
3823.09715337749
 20
-1704.539905533677
 30
0.0
 11
3822.9471533774899
 21
-1705.289905533677
 31
0.0
  0
LINE
  5
27271
  8
1PHANTOM
 10
3821.09715337749
 20
-1704.539905533677
 30
0.0
 11
3820.9471533774899
 21
-1705.289905533677
 31
0.0
  0
LINE
  5
27272
  8
1PHANTOM
 10
3819.9471533774899
 20
-1700.289905533677
 30
0.0
 11
3819.7971533774898
 21
-1701.039905533677
 31
0.0
  0
LINE
  5
27273
  8
1PHANTOM
 10
3819.8292877914441
 20
-1707.539905533677
 30
0.0
 11
3819.8292877914441
 21
-1698.039905533677
 31
0.0
  0
ARC
  5
27274
  8
1PHANTOM
 10
3825.6001211247781
 20
-1702.789905533677
 30
0.0
 40
8.2708333333334387
 50
144.94886325253151
 51
215.05113674746849
  0
LINE
  5
27275
  8
1PHANTOM
 10
3819.8292877914441
 20
-1707.539905533677
 30
0.0
 11
3818.8292877914441
 21
-1707.539905533677
 31
0.0
  0
LINE
  5
27276
  8
1PHANTOM
 10
3819.8292877914441
 20
-1698.039905533677
 30
0.0
 11
3818.8292877914441
 21
-1698.039905533677
 31
0.0
  0
LINE
  5
27277
  8
1PHANTOM
 10
3818.8292877914441
 20
-1707.322968713343
 30
0.0
 11
3818.8292877914441
 21
-1698.2845377488709
 31
0.0
  0
POLYLINE
  8
01
  5
27C68
  66
     1
 10
0.000000
 20
0.000000
 30
0.000000
  70
     8
  0
VERTEX
  8
01
  5
27C69
 10
3631.20
 20
-1834.20
 30
0.000000
  70
    32
  0
VERTEX
  8
01
  5
27C6A
 10
3631.19
 20
-1834.21
 30
0.000000
  70
    32
  0
VERTEX
  8
01
  5
27C6B
 10
3631.19
 20
-1834.22
 30
0.000000
  70
    32
  0
VERTEX
  8
01
  5
27C6C
 10
3631.19
 20
-1834.23
 30
0.000000
  70
    32
  0
VERTEX
  8
01
  5
27C6D
 10
3631.19
 20
-1834.24
 30
0.000000
  70
    32
  0
VERTEX
  8
01
  5
27C6E
 10
3631.19
 20
-1834.25
 30
0.000000
  70
    32
  0
VERTEX
  8
01
  5
27C6F
 10
3631.19
 20
-1834.26
 30
0.000000
  70
    32
  0
VERTEX
  8
01
  5
27C70
 10
3631.19
 20
-1834.27
 30
0.000000
  70
    32
  0
VERTEX
  8
01
  5
27C71
 10
3631.19
 20
-1834.28
 30
0.000000
  70
    32
  0
VERTEX
  8
01
  5
27C72
 10
3631.19
 20
-1834.29
 30
0.000000
  70
    32
  0
VERTEX
  8
01
  5
27C73
 10
3631.19
 20
-1834.30
 30
0.000000
  70
    32
  0
VERTEX
  8
01
  5
27C74
 10
3631.19
 20
-1834.31
 30
0.000000
  70
    32
  0
VERTEX
  8
01
  5
27C75
 10
3631.19
 20
-1834.32
 30
0.000000
  70
    32
  0
VERTEX
  8
01
  5
27C76
 10
3631.19
 20
-1834.33
 30
0.000000
  70
    32
  0
VERTEX
  8
01
  5
27C77
 10
3631.19
 20
-1834.34
 30
0.000000
  70
    32
  0
VERTEX
  8
01
  5
27C78
 10
3631.19
 20
-1834.35
 30
0.000000
  70
    32
  0
VERTEX
  8
01
  5
27C79
 10
3631.19
 20
-1834.35
 30
0.000000
  70
    32
  0
VERTEX
  8
01
  5
27C7A
 10
3631.19
 20
-1834.36
 30
0.000000
  70
    32
  0
VERTEX
  8
01
  5
27C7B
 10
3631.19
 20
-1834.37
 30
0.000000
  70
    32
  0
VERTEX
  8
01
  5
27C7C
 10
3631.19
 20
-1834.38
 30
0.000000
  70
    32
  0
VERTEX
  8
01
  5
27C7D
 10
3631.19
 20
-1834.39
 30
0.000000
  70
    32
  0
VERTEX
  8
01
  5
27C7E
 10
3631.18
 20
-1834.40
 30
0.000000
  70
    32
  0
VERTEX
  8
01
  5
27C7F
 10
3631.18
 20
-1834.41
 30
0.000000
  70
    32
  0
VERTEX
  8
01
  5
27C80
 10
3631.18
 20
-1834.42
 30
0.000000
  70
    32
  0
VERTEX
  8
01
  5
27C81
 10
3631.18
 20
-1834.43
 30
0.000000
  70
    32
  0
VERTEX
  8
01
  5
27C82
 10
3631.18
 20
-1834.44
 30
0.000000
  70
    32
  0
VERTEX
  8
01
  5
27C83
 10
3631.18
 20
-1834.45
 30
0.000000
  70
    32
  0
VERTEX
  8
01
  5
27C84
 10
3631.18
 20
-1834.46
 30
0.000000
  70
    32
  0
VERTEX
  8
01
  5
27C85
 10
3631.18
 20
-1834.47
 30
0.000000
  70
    32
  0
VERTEX
  8
01
  5
27C86
 10
3631.18
 20
-1834.48
 30
0.000000
  70
    32
  0
VERTEX
  8
01
  5
27C87
 10
3631.18
 20
-1834.49
 30
0.000000
  70
    32
  0
VERTEX
  8
01
  5
27C88
 10
3631.18
 20
-1834.50
 30
0.000000
  70
    32
  0
VERTEX
  8
01
  5
27C89
 10
3631.18
 20
-1834.51
 30
0.000000
  70
    32
  0
VERTEX
  8
01
  5
27C8A
 10
3631.18
 20
-1834.52
 30
0.000000
  70
    32
  0
VERTEX
  8
01
  5
27C8B
 10
3631.18
 20
-1834.52
 30
0.000000
  70
    32
  0
VERTEX
  8
01
  5
27C8C
 10
3631.18
 20
-1834.53
 30
0.000000
  70
    32
  0
VERTEX
  8
01
  5
27C8D
 10
3631.18
 20
-1834.54
 30
0.000000
  70
    32
  0
VERTEX
  8
01
  5
27C8E
 10
3631.18
 20
-1834.55
 30
0.000000
  70
    32
  0
VERTEX
  8
01
  5
27C8F
 10
3631.18
 20
-1834.56
 30
0.000000
  70
    32
  0
VERTEX
  8
01
  5
27C90
 10
3631.18
 20
-1834.57
 30
0.000000
  70
    32
  0
VERTEX
  8
01
  5
27C91
 10
3631.18
 20
-1834.58
 30
0.000000
  70
    32
  0
VERTEX
  8
01
  5
27C92
 10
3631.17
 20
-1834.59
 30
0.000000
  70
    32
  0
VERTEX
  8
01
  5
27C93
 10
3631.17
 20
-1834.60
 30
0.000000
  70
    32
  0
VERTEX
  8
01
  5
27C94
 10
3631.17
 20
-1834.61
 30
0.000000
  70
    32
  0
VERTEX
  8
01
  5
27C95
 10
3631.17
 20
-1834.62
 30
0.000000
  70
    32
  0
VERTEX
  8
01
  5
27C96
 10
3631.17
 20
-1834.63
 30
0.000000
  70
    32
  0
VERTEX
  8
01
  5
27C97
 10
3631.17
 20
-1834.64
 30
0.000000
  70
    32
  0
VERTEX
  8
01
  5
27C98
 10
3631.17
 20
-1834.65
 30
0.000000
  70
    32
  0
VERTEX
  8
01
  5
27C99
 10
3631.17
 20
-1834.66
 30
0.000000
  70
    32
  0
VERTEX
  8
01
  5
27C9A
 10
3631.17
 20
-1834.67
 30
0.000000
  70
    32
  0
VERTEX
  8
01
  5
27C9B
 10
3631.17
 20
-1834.68
 30
0.000000
  70
    32
  0
VERTEX
  8
01
  5
27C9C
 10
3631.17
 20
-1834.69
 30
0.000000
  70
    32
  0
VERTEX
  8
01
  5
27C9D
 10
3631.17
 20
-1834.69
 30
0.000000
  70
    32
  0
VERTEX
  8
01
  5
27C9E
 10
3631.17
 20
-1834.70
 30
0.000000
  70
    32
  0
VERTEX
  8
01
  5
27C9F
 10
3631.17
 20
-1834.71
 30
0.000000
  70
    32
  0
VERTEX
  8
01
  5
27CA0
 10
3631.17
 20
-1834.72
 30
0.000000
  70
    32
  0
VERTEX
  8
01
  5
27CA1
 10
3631.17
 20
-1834.73
 30
0.000000
  70
    32
  0
VERTEX
  8
01
  5
27CA2
 10
3631.17
 20
-1834.74
 30
0.000000
  70
    32
  0
VERTEX
  8
01
  5
27CA3
 10
3631.17
 20
-1834.75
 30
0.000000
  70
    32
  0
VERTEX
  8
01
  5
27CA4
 10
3631.17
 20
-1834.76
 30
0.000000
  70
    32
  0
VERTEX
  8
01
  5
27CA5
 10
3631.17
 20
-1834.77
 30
0.000000
  70
    32
  0
VERTEX
  8
01
  5
27CA6
 10
3631.16
 20
-1834.78
 30
0.000000
  70
    32
  0
VERTEX
  8
01
  5
27CA7
 10
3631.16
 20
-1834.79
 30
0.000000
  70
    32
  0
VERTEX
  8
01
  5
27CA8
 10
3631.16
 20
-1834.80
 30
0.000000
  70
    32
  0
VERTEX
  8
01
  5
27CA9
 10
3631.16
 20
-1834.81
 30
0.000000
  70
    32
  0
VERTEX
  8
01
  5
27CAA
 10
3631.16
 20
-1834.82
 30
0.000000
  70
    32
  0
VERTEX
  8
01
  5
27CAB
 10
3631.16
 20
-1834.83
 30
0.000000
  70
    32
  0
VERTEX
  8
01
  5
27CAC
 10
3631.16
 20
-1834.84
 30
0.000000
  70
    32
  0
VERTEX
  8
01
  5
27CAD
 10
3631.16
 20
-1834.85
 30
0.000000
  70
    32
  0
VERTEX
  8
01
  5
27CAE
 10
3631.16
 20
-1834.86
 30
0.000000
  70
    32
  0
VERTEX
  8
01
  5
27CAF
 10
3631.16
 20
-1834.86
 30
0.000000
  70
    32
  0
VERTEX
  8
01
  5
27CB0
 10
3631.16
 20
-1834.87
 30
0.000000
  70
    32
  0
VERTEX
  8
01
  5
27CB1
 10
3631.16
 20
-1834.88
 30
0.000000
  70
    32
  0
VERTEX
  8
01
  5
27CB2
 10
3631.16
 20
-1834.89
 30
0.000000
  70
    32
  0
VERTEX
  8
01
  5
27CB3
 10
3631.16
 20
-1834.90
 30
0.000000
  70
    32
  0
VERTEX
  8
01
  5
27CB4
 10
3631.16
 20
-1834.91
 30
0.000000
  70
    32
  0
VERTEX
  8
01
  5
27CB5
 10
3631.16
 20
-1834.92
 30
0.000000
  70
    32
  0
VERTEX
  8
01
  5
27CB6
 10
3631.16
 20
-1834.93
 30
0.000000
  70
    32
  0
VERTEX
  8
01
  5
27CB7
 10
3631.16
 20
-1834.94
 30
0.000000
  70
    32
  0
VERTEX
  8
01
  5
27CB8
 10
3631.16
 20
-1834.95
 30
0.000000
  70
    32
  0
VERTEX
  8
01
  5
27CB9
 10
3631.16
 20
-1834.96
 30
0.000000
  70
    32
  0
VERTEX
  8
01
  5
27CBA
 10
3631.15
 20
-1834.97
 30
0.000000
  70
    32
  0
VERTEX
  8
01
  5
27CBB
 10
3631.15
 20
-1834.98
 30
0.000000
  70
    32
  0
VERTEX
  8
01
  5
27CBC
 10
3631.15
 20
-1834.99
 30
0.000000
  70
    32
  0
VERTEX
  8
01
  5
27CBD
 10
3631.15
 20
-1835.00
 30
0.000000
  70
    32
  0
VERTEX
  8
01
  5
27CBE
 10
3631.15
 20
-1835.01
 30
0.000000
  70
    32
  0
VERTEX
  8
01
  5
27CBF
 10
3631.15
 20
-1835.02
 30
0.000000
  70
    32
  0
VERTEX
  8
01
  5
27CC0
 10
3631.15
 20
-1835.03
 30
0.000000
  70
    32
  0
VERTEX
  8
01
  5
27CC1
 10
3631.15
 20
-1835.03
 30
0.000000
  70
    32
  0
VERTEX
  8
01
  5
27CC2
 10
3631.15
 20
-1835.04
 30
0.000000
  70
    32
  0
VERTEX
  8
01
  5
27CC3
 10
3631.15
 20
-1835.05
 30
0.000000
  70
    32
  0
VERTEX
  8
01
  5
27CC4
 10
3631.15
 20
-1835.06
 30
0.000000
  70
    32
  0
VERTEX
  8
01
  5
27CC5
 10
3631.15
 20
-1835.07
 30
0.000000
  70
    32
  0
VERTEX
  8
01
  5
27CC6
 10
3631.15
 20
-1835.08
 30
0.000000
  70
    32
  0
VERTEX
  8
01
  5
27CC7
 10
3631.15
 20
-1835.09
 30
0.000000
  70
    32
  0
VERTEX
  8
01
  5
27CC8
 10
3631.15
 20
-1835.10
 30
0.000000
  70
    32
  0
VERTEX
  8
01
  5
27CC9
 10
3631.15
 20
-1835.11
 30
0.000000
  70
    32
  0
VERTEX
  8
01
  5
27CCA
 10
3631.15
 20
-1835.12
 30
0.000000
  70
    32
  0
VERTEX
  8
01
  5
27CCB
 10
3631.15
 20
-1835.13
 30
0.000000
  70
    32
  0
VERTEX
  8
01
  5
27CCC
 10
3631.15
 20
-1835.14
 30
0.000000
  70
    32
  0
VERTEX
  8
01
  5
27CCD
 10
3631.15
 20
-1835.15
 30
0.000000
  70
    32
  0
VERTEX
  8
01
  5
27CCE
 10
3631.14
 20
-1835.16
 30
0.000000
  70
    32
  0
VERTEX
  8
01
  5
27CCF
 10
3631.14
 20
-1835.17
 30
0.000000
  70
    32
  0
VERTEX
  8
01
  5
27CD0
 10
3631.14
 20
-1835.18
 30
0.000000
  70
    32
  0
VERTEX
  8
01
  5
27CD1
 10
3631.14
 20
-1835.19
 30
0.000000
  70
    32
  0
VERTEX
  8
01
  5
27CD2
 10
3631.14
 20
-1835.20
 30
0.000000
  70
    32
  0
VERTEX
  8
01
  5
27CD3
 10
3631.14
 20
-1835.20
 30
0.000000
  70
    32
  0
VERTEX
  8
01
  5
27CD4
 10
3631.14
 20
-1835.21
 30
0.000000
  70
    32
  0
VERTEX
  8
01
  5
27CD5
 10
3631.14
 20
-1835.22
 30
0.000000
  70
    32
  0
VERTEX
  8
01
  5
27CD6
 10
3631.14
 20
-1835.23
 30
0.000000
  70
    32
  0
VERTEX
  8
01
  5
27CD7
 10
3631.14
 20
-1835.24
 30
0.000000
  70
    32
  0
VERTEX
  8
01
  5
27CD8
 10
3631.14
 20
-1835.25
 30
0.000000
  70
    32
  0
VERTEX
  8
01
  5
27CD9
 10
3631.14
 20
-1835.26
 30
0.000000
  70
    32
  0
VERTEX
  8
01
  5
27CDA
 10
3631.14
 20
-1835.27
 30
0.000000
  70
    32
  0
VERTEX
  8
01
  5
27CDB
 10
3631.14
 20
-1835.28
 30
0.000000
  70
    32
  0
VERTEX
  8
01
  5
27CDC
 10
3631.14
 20
-1835.29
 30
0.000000
  70
    32
  0
VERTEX
  8
01
  5
27CDD
 10
3631.14
 20
-1835.30
 30
0.000000
  70
    32
  0
VERTEX
  8
01
  5
27CDE
 10
3631.14
 20
-1835.31
 30
0.000000
  70
    32
  0
VERTEX
  8
01
  5
27CDF
 10
3631.14
 20
-1835.32
 30
0.000000
  70
    32
  0
VERTEX
  8
01
  5
27CE0
 10
3631.14
 20
-1835.33
 30
0.000000
  70
    32
  0
VERTEX
  8
01
  5
27CE1
 10
3631.14
 20
-1835.34
 30
0.000000
  70
    32
  0
VERTEX
  8
01
  5
27CE2
 10
3631.13
 20
-1835.35
 30
0.000000
  70
    32
  0
VERTEX
  8
01
  5
27CE3
 10
3631.13
 20
-1835.36
 30
0.000000
  70
    32
  0
VERTEX
  8
01
  5
27CE4
 10
3631.13
 20
-1835.37
 30
0.000000
  70
    32
  0
VERTEX
  8
01
  5
27CE5
 10
3631.13
 20
-1835.37
 30
0.000000
  70
    32
  0
VERTEX
  8
01
  5
27CE6
 10
3631.13
 20
-1835.38
 30
0.000000
  70
    32
  0
VERTEX
  8
01
  5
27CE7
 10
3631.13
 20
-1835.39
 30
0.000000
  70
    32
  0
VERTEX
  8
01
  5
27CE8
 10
3631.13
 20
-1835.40
 30
0.000000
  70
    32
  0
SEQEND
  8
01
  5
27CE9
  0
POLYLINE
  8
01
  5
27CEA
  66
     1
 10
0.000000
 20
0.000000
 30
0.000000
  70
     8
  0
VERTEX
  8
01
  5
27CEB
 10
3633.28
 20
-1834.29
 30
0.000000
  70
    32
  0
VERTEX
  8
01
  5
27CEC
 10
3633.27
 20
-1834.30
 30
0.000000
  70
    32
  0
VERTEX
  8
01
  5
27CED
 10
3633.27
 20
-1834.31
 30
0.000000
  70
    32
  0
VERTEX
  8
01
  5
27CEE
 10
3633.27
 20
-1834.32
 30
0.000000
  70
    32
  0
VERTEX
  8
01
  5
27CEF
 10
3633.27
 20
-1834.33
 30
0.000000
  70
    32
  0
VERTEX
  8
01
  5
27CF0
 10
3633.27
 20
-1834.34
 30
0.000000
  70
    32
  0
VERTEX
  8
01
  5
27CF1
 10
3633.27
 20
-1834.35
 30
0.000000
  70
    32
  0
VERTEX
  8
01
  5
27CF2
 10
3633.27
 20
-1834.36
 30
0.000000
  70
    32
  0
VERTEX
  8
01
  5
27CF3
 10
3633.27
 20
-1834.37
 30
0.000000
  70
    32
  0
VERTEX
  8
01
  5
27CF4
 10
3633.27
 20
-1834.38
 30
0.000000
  70
    32
  0
VERTEX
  8
01
  5
27CF5
 10
3633.27
 20
-1834.39
 30
0.000000
  70
    32
  0
VERTEX
  8
01
  5
27CF6
 10
3633.27
 20
-1834.40
 30
0.000000
  70
    32
  0
VERTEX
  8
01
  5
27CF7
 10
3633.27
 20
-1834.41
 30
0.000000
  70
    32
  0
VERTEX
  8
01
  5
27CF8
 10
3633.27
 20
-1834.41
 30
0.000000
  70
    32
  0
VERTEX
  8
01
  5
27CF9
 10
3633.27
 20
-1834.42
 30
0.000000
  70
    32
  0
VERTEX
  8
01
  5
27CFA
 10
3633.27
 20
-1834.43
 30
0.000000
  70
    32
  0
VERTEX
  8
01
  5
27CFB
 10
3633.27
 20
-1834.44
 30
0.000000
  70
    32
  0
VERTEX
  8
01
  5
27CFC
 10
3633.27
 20
-1834.45
 30
0.000000
  70
    32
  0
VERTEX
  8
01
  5
27CFD
 10
3633.26
 20
-1834.46
 30
0.000000
  70
    32
  0
VERTEX
  8
01
  5
27CFE
 10
3633.26
 20
-1834.47
 30
0.000000
  70
    32
  0
VERTEX
  8
01
  5
27CFF
 10
3633.26
 20
-1834.48
 30
0.000000
  70
    32
  0
VERTEX
  8
01
  5
27D00
 10
3633.26
 20
-1834.49
 30
0.000000
  70
    32
  0
VERTEX
  8
01
  5
27D01
 10
3633.26
 20
-1834.50
 30
0.000000
  70
    32
  0
VERTEX
  8
01
  5
27D02
 10
3633.26
 20
-1834.51
 30
0.000000
  70
    32
  0
VERTEX
  8
01
  5
27D03
 10
3633.26
 20
-1834.52
 30
0.000000
  70
    32
  0
VERTEX
  8
01
  5
27D04
 10
3633.26
 20
-1834.53
 30
0.000000
  70
    32
  0
VERTEX
  8
01
  5
27D05
 10
3633.26
 20
-1834.54
 30
0.000000
  70
    32
  0
VERTEX
  8
01
  5
27D06
 10
3633.26
 20
-1834.55
 30
0.000000
  70
    32
  0
VERTEX
  8
01
  5
27D07
 10
3633.26
 20
-1834.55
 30
0.000000
  70
    32
  0
VERTEX
  8
01
  5
27D08
 10
3633.26
 20
-1834.56
 30
0.000000
  70
    32
  0
VERTEX
  8
01
  5
27D09
 10
3633.26
 20
-1834.57
 30
0.000000
  70
    32
  0
VERTEX
  8
01
  5
27D0A
 10
3633.26
 20
-1834.58
 30
0.000000
  70
    32
  0
VERTEX
  8
01
  5
27D0B
 10
3633.26
 20
-1834.59
 30
0.000000
  70
    32
  0
VERTEX
  8
01
  5
27D0C
 10
3633.26
 20
-1834.60
 30
0.000000
  70
    32
  0
VERTEX
  8
01
  5
27D0D
 10
3633.25
 20
-1834.61
 30
0.000000
  70
    32
  0
VERTEX
  8
01
  5
27D0E
 10
3633.25
 20
-1834.62
 30
0.000000
  70
    32
  0
VERTEX
  8
01
  5
27D0F
 10
3633.25
 20
-1834.63
 30
0.000000
  70
    32
  0
VERTEX
  8
01
  5
27D10
 10
3633.25
 20
-1834.64
 30
0.000000
  70
    32
  0
VERTEX
  8
01
  5
27D11
 10
3633.25
 20
-1834.65
 30
0.000000
  70
    32
  0
VERTEX
  8
01
  5
27D12
 10
3633.25
 20
-1834.66
 30
0.000000
  70
    32
  0
VERTEX
  8
01
  5
27D13
 10
3633.25
 20
-1834.67
 30
0.000000
  70
    32
  0
VERTEX
  8
01
  5
27D14
 10
3633.25
 20
-1834.68
 30
0.000000
  70
    32
  0
VERTEX
  8
01
  5
27D15
 10
3633.25
 20
-1834.69
 30
0.000000
  70
    32
  0
VERTEX
  8
01
  5
27D16
 10
3633.25
 20
-1834.70
 30
0.000000
  70
    32
  0
VERTEX
  8
01
  5
27D17
 10
3633.25
 20
-1834.70
 30
0.000000
  70
    32
  0
VERTEX
  8
01
  5
27D18
 10
3633.25
 20
-1834.71
 30
0.000000
  70
    32
  0
VERTEX
  8
01
  5
27D19
 10
3633.25
 20
-1834.72
 30
0.000000
  70
    32
  0
VERTEX
  8
01
  5
27D1A
 10
3633.25
 20
-1834.73
 30
0.000000
  70
    32
  0
VERTEX
  8
01
  5
27D1B
 10
3633.25
 20
-1834.74
 30
0.000000
  70
    32
  0
VERTEX
  8
01
  5
27D1C
 10
3633.25
 20
-1834.75
 30
0.000000
  70
    32
  0
VERTEX
  8
01
  5
27D1D
 10
3633.25
 20
-1834.76
 30
0.000000
  70
    32
  0
VERTEX
  8
01
  5
27D1E
 10
3633.24
 20
-1834.77
 30
0.000000
  70
    32
  0
VERTEX
  8
01
  5
27D1F
 10
3633.24
 20
-1834.78
 30
0.000000
  70
    32
  0
VERTEX
  8
01
  5
27D20
 10
3633.24
 20
-1834.79
 30
0.000000
  70
    32
  0
VERTEX
  8
01
  5
27D21
 10
3633.24
 20
-1834.80
 30
0.000000
  70
    32
  0
VERTEX
  8
01
  5
27D22
 10
3633.24
 20
-1834.81
 30
0.000000
  70
    32
  0
VERTEX
  8
01
  5
27D23
 10
3633.24
 20
-1834.82
 30
0.000000
  70
    32
  0
VERTEX
  8
01
  5
27D24
 10
3633.24
 20
-1834.83
 30
0.000000
  70
    32
  0
VERTEX
  8
01
  5
27D25
 10
3633.24
 20
-1834.84
 30
0.000000
  70
    32
  0
VERTEX
  8
01
  5
27D26
 10
3633.24
 20
-1834.84
 30
0.000000
  70
    32
  0
VERTEX
  8
01
  5
27D27
 10
3633.24
 20
-1834.85
 30
0.000000
  70
    32
  0
VERTEX
  8
01
  5
27D28
 10
3633.24
 20
-1834.86
 30
0.000000
  70
    32
  0
VERTEX
  8
01
  5
27D29
 10
3633.24
 20
-1834.87
 30
0.000000
  70
    32
  0
VERTEX
  8
01
  5
27D2A
 10
3633.24
 20
-1834.88
 30
0.000000
  70
    32
  0
VERTEX
  8
01
  5
27D2B
 10
3633.24
 20
-1834.89
 30
0.000000
  70
    32
  0
VERTEX
  8
01
  5
27D2C
 10
3633.24
 20
-1834.90
 30
0.000000
  70
    32
  0
VERTEX
  8
01
  5
27D2D
 10
3633.24
 20
-1834.91
 30
0.000000
  70
    32
  0
VERTEX
  8
01
  5
27D2E
 10
3633.24
 20
-1834.92
 30
0.000000
  70
    32
  0
VERTEX
  8
01
  5
27D2F
 10
3633.23
 20
-1834.93
 30
0.000000
  70
    32
  0
VERTEX
  8
01
  5
27D30
 10
3633.23
 20
-1834.94
 30
0.000000
  70
    32
  0
VERTEX
  8
01
  5
27D31
 10
3633.23
 20
-1834.95
 30
0.000000
  70
    32
  0
VERTEX
  8
01
  5
27D32
 10
3633.23
 20
-1834.96
 30
0.000000
  70
    32
  0
VERTEX
  8
01
  5
27D33
 10
3633.23
 20
-1834.97
 30
0.000000
  70
    32
  0
VERTEX
  8
01
  5
27D34
 10
3633.23
 20
-1834.98
 30
0.000000
  70
    32
  0
VERTEX
  8
01
  5
27D35
 10
3633.23
 20
-1834.98
 30
0.000000
  70
    32
  0
VERTEX
  8
01
  5
27D36
 10
3633.23
 20
-1834.99
 30
0.000000
  70
    32
  0
VERTEX
  8
01
  5
27D37
 10
3633.23
 20
-1835.00
 30
0.000000
  70
    32
  0
VERTEX
  8
01
  5
27D38
 10
3633.23
 20
-1835.01
 30
0.000000
  70
    32
  0
VERTEX
  8
01
  5
27D39
 10
3633.23
 20
-1835.02
 30
0.000000
  70
    32
  0
VERTEX
  8
01
  5
27D3A
 10
3633.23
 20
-1835.03
 30
0.000000
  70
    32
  0
VERTEX
  8
01
  5
27D3B
 10
3633.23
 20
-1835.04
 30
0.000000
  70
    32
  0
VERTEX
  8
01
  5
27D3C
 10
3633.23
 20
-1835.05
 30
0.000000
  70
    32
  0
VERTEX
  8
01
  5
27D3D
 10
3633.23
 20
-1835.06
 30
0.000000
  70
    32
  0
VERTEX
  8
01
  5
27D3E
 10
3633.23
 20
-1835.07
 30
0.000000
  70
    32
  0
VERTEX
  8
01
  5
27D3F
 10
3633.23
 20
-1835.08
 30
0.000000
  70
    32
  0
VERTEX
  8
01
  5
27D40
 10
3633.22
 20
-1835.09
 30
0.000000
  70
    32
  0
VERTEX
  8
01
  5
27D41
 10
3633.22
 20
-1835.10
 30
0.000000
  70
    32
  0
VERTEX
  8
01
  5
27D42
 10
3633.22
 20
-1835.11
 30
0.000000
  70
    32
  0
VERTEX
  8
01
  5
27D43
 10
3633.22
 20
-1835.12
 30
0.000000
  70
    32
  0
VERTEX
  8
01
  5
27D44
 10
3633.22
 20
-1835.12
 30
0.000000
  70
    32
  0
VERTEX
  8
01
  5
27D45
 10
3633.22
 20
-1835.13
 30
0.000000
  70
    32
  0
VERTEX
  8
01
  5
27D46
 10
3633.22
 20
-1835.14
 30
0.000000
  70
    32
  0
VERTEX
  8
01
  5
27D47
 10
3633.22
 20
-1835.15
 30
0.000000
  70
    32
  0
VERTEX
  8
01
  5
27D48
 10
3633.22
 20
-1835.16
 30
0.000000
  70
    32
  0
VERTEX
  8
01
  5
27D49
 10
3633.22
 20
-1835.17
 30
0.000000
  70
    32
  0
VERTEX
  8
01
  5
27D4A
 10
3633.22
 20
-1835.18
 30
0.000000
  70
    32
  0
VERTEX
  8
01
  5
27D4B
 10
3633.22
 20
-1835.19
 30
0.000000
  70
    32
  0
VERTEX
  8
01
  5
27D4C
 10
3633.22
 20
-1835.20
 30
0.000000
  70
    32
  0
VERTEX
  8
01
  5
27D4D
 10
3633.22
 20
-1835.21
 30
0.000000
  70
    32
  0
VERTEX
  8
01
  5
27D4E
 10
3633.22
 20
-1835.22
 30
0.000000
  70
    32
  0
VERTEX
  8
01
  5
27D4F
 10
3633.22
 20
-1835.23
 30
0.000000
  70
    32
  0
VERTEX
  8
01
  5
27D50
 10
3633.22
 20
-1835.24
 30
0.000000
  70
    32
  0
VERTEX
  8
01
  5
27D51
 10
3633.21
 20
-1835.25
 30
0.000000
  70
    32
  0
VERTEX
  8
01
  5
27D52
 10
3633.21
 20
-1835.26
 30
0.000000
  70
    32
  0
VERTEX
  8
01
  5
27D53
 10
3633.21
 20
-1835.26
 30
0.000000
  70
    32
  0
VERTEX
  8
01
  5
27D54
 10
3633.21
 20
-1835.27
 30
0.000000
  70
    32
  0
VERTEX
  8
01
  5
27D55
 10
3633.21
 20
-1835.28
 30
0.000000
  70
    32
  0
VERTEX
  8
01
  5
27D56
 10
3633.21
 20
-1835.29
 30
0.000000
  70
    32
  0
VERTEX
  8
01
  5
27D57
 10
3633.21
 20
-1835.30
 30
0.000000
  70
    32
  0
VERTEX
  8
01
  5
27D58
 10
3633.21
 20
-1835.31
 30
0.000000
  70
    32
  0
VERTEX
  8
01
  5
27D59
 10
3633.21
 20
-1835.32
 30
0.000000
  70
    32
  0
VERTEX
  8
01
  5
27D5A
 10
3633.21
 20
-1835.33
 30
0.000000
  70
    32
  0
VERTEX
  8
01
  5
27D5B
 10
3633.21
 20
-1835.34
 30
0.000000
  70
    32
  0
VERTEX
  8
01
  5
27D5C
 10
3633.21
 20
-1835.35
 30
0.000000
  70
    32
  0
VERTEX
  8
01
  5
27D5D
 10
3633.21
 20
-1835.36
 30
0.000000
  70
    32
  0
VERTEX
  8
01
  5
27D5E
 10
3633.21
 20
-1835.37
 30
0.000000
  70
    32
  0
VERTEX
  8
01
  5
27D5F
 10
3633.21
 20
-1835.38
 30
0.000000
  70
    32
  0
VERTEX
  8
01
  5
27D60
 10
3633.21
 20
-1835.39
 30
0.000000
  70
    32
  0
VERTEX
  8
01
  5
27D61
 10
3633.21
 20
-1835.40
 30
0.000000
  70
    32
  0
VERTEX
  8
01
  5
27D62
 10
3633.20
 20
-1835.40
 30
0.000000
  70
    32
  0
VERTEX
  8
01
  5
27D63
 10
3633.20
 20
-1835.41
 30
0.000000
  70
    32
  0
VERTEX
  8
01
  5
27D64
 10
3633.20
 20
-1835.42
 30
0.000000
  70
    32
  0
VERTEX
  8
01
  5
27D65
 10
3633.20
 20
-1835.43
 30
0.000000
  70
    32
  0
VERTEX
  8
01
  5
27D66
 10
3633.20
 20
-1835.44
 30
0.000000
  70
    32
  0
VERTEX
  8
01
  5
27D67
 10
3633.20
 20
-1835.45
 30
0.000000
  70
    32
  0
VERTEX
  8
01
  5
27D68
 10
3633.20
 20
-1835.46
 30
0.000000
  70
    32
  0
VERTEX
  8
01
  5
27D69
 10
3633.20
 20
-1835.47
 30
0.000000
  70
    32
  0
VERTEX
  8
01
  5
27D6A
 10
3633.20
 20
-1835.48
 30
0.000000
  70
    32
  0
SEQEND
  8
01
  5
27D6B
  0
LINE
  5
272D2
  8
01
 10
3633.199640980476
 20
-1835.47958709779
 30
0.0
 11
3632.5816525381269
 21
-1835.4403271405411
 31
0.0
  0
LINE
  5
272D3
  8
01
 10
3633.009438530717
 20
-1838.4735515311299
 30
0.0
 11
3632.1235745999752
 21
-1838.417273811895
 31
0.0
  0
POLYLINE
  8
01
  5
27D6C
  66
     1
 10
0.000000
 20
0.000000
 30
0.000000
  70
     8
  0
VERTEX
  8
01
  5
27D6D
 10
3632.64
 20
-1834.27
 30
0.000000
  70
    32
  0
VERTEX
  8
01
  5
27D6E
 10
3632.64
 20
-1834.28
 30
0.000000
  70
    32
  0
VERTEX
  8
01
  5
27D6F
 10
3632.64
 20
-1834.29
 30
0.000000
  70
    32
  0
VERTEX
  8
01
  5
27D70
 10
3632.64
 20
-1834.29
 30
0.000000
  70
    32
  0
VERTEX
  8
01
  5
27D71
 10
3632.64
 20
-1834.30
 30
0.000000
  70
    32
  0
VERTEX
  8
01
  5
27D72
 10
3632.64
 20
-1834.31
 30
0.000000
  70
    32
  0
VERTEX
  8
01
  5
27D73
 10
3632.64
 20
-1834.32
 30
0.000000
  70
    32
  0
VERTEX
  8
01
  5
27D74
 10
3632.64
 20
-1834.33
 30
0.000000
  70
    32
  0
VERTEX
  8
01
  5
27D75
 10
3632.64
 20
-1834.34
 30
0.000000
  70
    32
  0
VERTEX
  8
01
  5
27D76
 10
3632.64
 20
-1834.35
 30
0.000000
  70
    32
  0
VERTEX
  8
01
  5
27D77
 10
3632.64
 20
-1834.36
 30
0.000000
  70
    32
  0
VERTEX
  8
01
  5
27D78
 10
3632.64
 20
-1834.37
 30
0.000000
  70
    32
  0
VERTEX
  8
01
  5
27D79
 10
3632.64
 20
-1834.38
 30
0.000000
  70
    32
  0
VERTEX
  8
01
  5
27D7A
 10
3632.64
 20
-1834.39
 30
0.000000
  70
    32
  0
VERTEX
  8
01
  5
27D7B
 10
3632.64
 20
-1834.40
 30
0.000000
  70
    32
  0
VERTEX
  8
01
  5
27D7C
 10
3632.64
 20
-1834.41
 30
0.000000
  70
    32
  0
VERTEX
  8
01
  5
27D7D
 10
3632.64
 20
-1834.42
 30
0.000000
  70
    32
  0
VERTEX
  8
01
  5
27D7E
 10
3632.64
 20
-1834.43
 30
0.000000
  70
    32
  0
VERTEX
  8
01
  5
27D7F
 10
3632.63
 20
-1834.44
 30
0.000000
  70
    32
  0
VERTEX
  8
01
  5
27D80
 10
3632.63
 20
-1834.45
 30
0.000000
  70
    32
  0
VERTEX
  8
01
  5
27D81
 10
3632.63
 20
-1834.46
 30
0.000000
  70
    32
  0
VERTEX
  8
01
  5
27D82
 10
3632.63
 20
-1834.47
 30
0.000000
  70
    32
  0
VERTEX
  8
01
  5
27D83
 10
3632.63
 20
-1834.48
 30
0.000000
  70
    32
  0
VERTEX
  8
01
  5
27D84
 10
3632.63
 20
-1834.49
 30
0.000000
  70
    32
  0
VERTEX
  8
01
  5
27D85
 10
3632.63
 20
-1834.50
 30
0.000000
  70
    32
  0
VERTEX
  8
01
  5
27D86
 10
3632.63
 20
-1834.51
 30
0.000000
  70
    32
  0
VERTEX
  8
01
  5
27D87
 10
3632.63
 20
-1834.51
 30
0.000000
  70
    32
  0
VERTEX
  8
01
  5
27D88
 10
3632.63
 20
-1834.52
 30
0.000000
  70
    32
  0
VERTEX
  8
01
  5
27D89
 10
3632.63
 20
-1834.53
 30
0.000000
  70
    32
  0
VERTEX
  8
01
  5
27D8A
 10
3632.63
 20
-1834.54
 30
0.000000
  70
    32
  0
VERTEX
  8
01
  5
27D8B
 10
3632.63
 20
-1834.55
 30
0.000000
  70
    32
  0
VERTEX
  8
01
  5
27D8C
 10
3632.63
 20
-1834.56
 30
0.000000
  70
    32
  0
VERTEX
  8
01
  5
27D8D
 10
3632.63
 20
-1834.57
 30
0.000000
  70
    32
  0
VERTEX
  8
01
  5
27D8E
 10
3632.63
 20
-1834.58
 30
0.000000
  70
    32
  0
VERTEX
  8
01
  5
27D8F
 10
3632.63
 20
-1834.59
 30
0.000000
  70
    32
  0
VERTEX
  8
01
  5
27D90
 10
3632.63
 20
-1834.60
 30
0.000000
  70
    32
  0
VERTEX
  8
01
  5
27D91
 10
3632.63
 20
-1834.61
 30
0.000000
  70
    32
  0
VERTEX
  8
01
  5
27D92
 10
3632.63
 20
-1834.62
 30
0.000000
  70
    32
  0
VERTEX
  8
01
  5
27D93
 10
3632.62
 20
-1834.63
 30
0.000000
  70
    32
  0
VERTEX
  8
01
  5
27D94
 10
3632.62
 20
-1834.64
 30
0.000000
  70
    32
  0
VERTEX
  8
01
  5
27D95
 10
3632.62
 20
-1834.65
 30
0.000000
  70
    32
  0
VERTEX
  8
01
  5
27D96
 10
3632.62
 20
-1834.66
 30
0.000000
  70
    32
  0
VERTEX
  8
01
  5
27D97
 10
3632.62
 20
-1834.67
 30
0.000000
  70
    32
  0
VERTEX
  8
01
  5
27D98
 10
3632.62
 20
-1834.68
 30
0.000000
  70
    32
  0
VERTEX
  8
01
  5
27D99
 10
3632.62
 20
-1834.69
 30
0.000000
  70
    32
  0
VERTEX
  8
01
  5
27D9A
 10
3632.62
 20
-1834.70
 30
0.000000
  70
    32
  0
VERTEX
  8
01
  5
27D9B
 10
3632.62
 20
-1834.71
 30
0.000000
  70
    32
  0
VERTEX
  8
01
  5
27D9C
 10
3632.62
 20
-1834.72
 30
0.000000
  70
    32
  0
VERTEX
  8
01
  5
27D9D
 10
3632.62
 20
-1834.72
 30
0.000000
  70
    32
  0
VERTEX
  8
01
  5
27D9E
 10
3632.62
 20
-1834.73
 30
0.000000
  70
    32
  0
VERTEX
  8
01
  5
27D9F
 10
3632.62
 20
-1834.74
 30
0.000000
  70
    32
  0
VERTEX
  8
01
  5
27DA0
 10
3632.62
 20
-1834.75
 30
0.000000
  70
    32
  0
VERTEX
  8
01
  5
27DA1
 10
3632.62
 20
-1834.76
 30
0.000000
  70
    32
  0
VERTEX
  8
01
  5
27DA2
 10
3632.62
 20
-1834.77
 30
0.000000
  70
    32
  0
VERTEX
  8
01
  5
27DA3
 10
3632.62
 20
-1834.78
 30
0.000000
  70
    32
  0
VERTEX
  8
01
  5
27DA4
 10
3632.62
 20
-1834.79
 30
0.000000
  70
    32
  0
VERTEX
  8
01
  5
27DA5
 10
3632.62
 20
-1834.80
 30
0.000000
  70
    32
  0
VERTEX
  8
01
  5
27DA6
 10
3632.62
 20
-1834.81
 30
0.000000
  70
    32
  0
VERTEX
  8
01
  5
27DA7
 10
3632.61
 20
-1834.82
 30
0.000000
  70
    32
  0
VERTEX
  8
01
  5
27DA8
 10
3632.61
 20
-1834.83
 30
0.000000
  70
    32
  0
VERTEX
  8
01
  5
27DA9
 10
3632.61
 20
-1834.84
 30
0.000000
  70
    32
  0
VERTEX
  8
01
  5
27DAA
 10
3632.61
 20
-1834.85
 30
0.000000
  70
    32
  0
VERTEX
  8
01
  5
27DAB
 10
3632.61
 20
-1834.86
 30
0.000000
  70
    32
  0
VERTEX
  8
01
  5
27DAC
 10
3632.61
 20
-1834.87
 30
0.000000
  70
    32
  0
VERTEX
  8
01
  5
27DAD
 10
3632.61
 20
-1834.88
 30
0.000000
  70
    32
  0
VERTEX
  8
01
  5
27DAE
 10
3632.61
 20
-1834.89
 30
0.000000
  70
    32
  0
VERTEX
  8
01
  5
27DAF
 10
3632.61
 20
-1834.90
 30
0.000000
  70
    32
  0
VERTEX
  8
01
  5
27DB0
 10
3632.61
 20
-1834.91
 30
0.000000
  70
    32
  0
VERTEX
  8
01
  5
27DB1
 10
3632.61
 20
-1834.92
 30
0.000000
  70
    32
  0
VERTEX
  8
01
  5
27DB2
 10
3632.61
 20
-1834.93
 30
0.000000
  70
    32
  0
VERTEX
  8
01
  5
27DB3
 10
3632.61
 20
-1834.93
 30
0.000000
  70
    32
  0
VERTEX
  8
01
  5
27DB4
 10
3632.61
 20
-1834.94
 30
0.000000
  70
    32
  0
VERTEX
  8
01
  5
27DB5
 10
3632.61
 20
-1834.95
 30
0.000000
  70
    32
  0
VERTEX
  8
01
  5
27DB6
 10
3632.61
 20
-1834.96
 30
0.000000
  70
    32
  0
VERTEX
  8
01
  5
27DB7
 10
3632.61
 20
-1834.97
 30
0.000000
  70
    32
  0
VERTEX
  8
01
  5
27DB8
 10
3632.61
 20
-1834.98
 30
0.000000
  70
    32
  0
VERTEX
  8
01
  5
27DB9
 10
3632.61
 20
-1834.99
 30
0.000000
  70
    32
  0
VERTEX
  8
01
  5
27DBA
 10
3632.61
 20
-1835.00
 30
0.000000
  70
    32
  0
VERTEX
  8
01
  5
27DBB
 10
3632.60
 20
-1835.01
 30
0.000000
  70
    32
  0
VERTEX
  8
01
  5
27DBC
 10
3632.60
 20
-1835.02
 30
0.000000
  70
    32
  0
VERTEX
  8
01
  5
27DBD
 10
3632.60
 20
-1835.03
 30
0.000000
  70
    32
  0
VERTEX
  8
01
  5
27DBE
 10
3632.60
 20
-1835.04
 30
0.000000
  70
    32
  0
VERTEX
  8
01
  5
27DBF
 10
3632.60
 20
-1835.05
 30
0.000000
  70
    32
  0
VERTEX
  8
01
  5
27DC0
 10
3632.60
 20
-1835.06
 30
0.000000
  70
    32
  0
VERTEX
  8
01
  5
27DC1
 10
3632.60
 20
-1835.07
 30
0.000000
  70
    32
  0
VERTEX
  8
01
  5
27DC2
 10
3632.60
 20
-1835.08
 30
0.000000
  70
    32
  0
VERTEX
  8
01
  5
27DC3
 10
3632.60
 20
-1835.09
 30
0.000000
  70
    32
  0
VERTEX
  8
01
  5
27DC4
 10
3632.60
 20
-1835.10
 30
0.000000
  70
    32
  0
VERTEX
  8
01
  5
27DC5
 10
3632.60
 20
-1835.11
 30
0.000000
  70
    32
  0
VERTEX
  8
01
  5
27DC6
 10
3632.60
 20
-1835.12
 30
0.000000
  70
    32
  0
VERTEX
  8
01
  5
27DC7
 10
3632.60
 20
-1835.13
 30
0.000000
  70
    32
  0
VERTEX
  8
01
  5
27DC8
 10
3632.60
 20
-1835.14
 30
0.000000
  70
    32
  0
VERTEX
  8
01
  5
27DC9
 10
3632.60
 20
-1835.15
 30
0.000000
  70
    32
  0
VERTEX
  8
01
  5
27DCA
 10
3632.60
 20
-1835.15
 30
0.000000
  70
    32
  0
VERTEX
  8
01
  5
27DCB
 10
3632.60
 20
-1835.16
 30
0.000000
  70
    32
  0
VERTEX
  8
01
  5
27DCC
 10
3632.60
 20
-1835.17
 30
0.000000
  70
    32
  0
VERTEX
  8
01
  5
27DCD
 10
3632.60
 20
-1835.18
 30
0.000000
  70
    32
  0
VERTEX
  8
01
  5
27DCE
 10
3632.59
 20
-1835.19
 30
0.000000
  70
    32
  0
VERTEX
  8
01
  5
27DCF
 10
3632.59
 20
-1835.20
 30
0.000000
  70
    32
  0
VERTEX
  8
01
  5
27DD0
 10
3632.59
 20
-1835.21
 30
0.000000
  70
    32
  0
VERTEX
  8
01
  5
27DD1
 10
3632.59
 20
-1835.22
 30
0.000000
  70
    32
  0
VERTEX
  8
01
  5
27DD2
 10
3632.59
 20
-1835.23
 30
0.000000
  70
    32
  0
VERTEX
  8
01
  5
27DD3
 10
3632.59
 20
-1835.24
 30
0.000000
  70
    32
  0
VERTEX
  8
01
  5
27DD4
 10
3632.59
 20
-1835.25
 30
0.000000
  70
    32
  0
VERTEX
  8
01
  5
27DD5
 10
3632.59
 20
-1835.26
 30
0.000000
  70
    32
  0
VERTEX
  8
01
  5
27DD6
 10
3632.59
 20
-1835.27
 30
0.000000
  70
    32
  0
VERTEX
  8
01
  5
27DD7
 10
3632.59
 20
-1835.28
 30
0.000000
  70
    32
  0
VERTEX
  8
01
  5
27DD8
 10
3632.59
 20
-1835.29
 30
0.000000
  70
    32
  0
VERTEX
  8
01
  5
27DD9
 10
3632.59
 20
-1835.30
 30
0.000000
  70
    32
  0
VERTEX
  8
01
  5
27DDA
 10
3632.59
 20
-1835.31
 30
0.000000
  70
    32
  0
VERTEX
  8
01
  5
27DDB
 10
3632.59
 20
-1835.32
 30
0.000000
  70
    32
  0
VERTEX
  8
01
  5
27DDC
 10
3632.59
 20
-1835.33
 30
0.000000
  70
    32
  0
VERTEX
  8
01
  5
27DDD
 10
3632.59
 20
-1835.34
 30
0.000000
  70
    32
  0
VERTEX
  8
01
  5
27DDE
 10
3632.59
 20
-1835.35
 30
0.000000
  70
    32
  0
VERTEX
  8
01
  5
27DDF
 10
3632.59
 20
-1835.36
 30
0.000000
  70
    32
  0
VERTEX
  8
01
  5
27DE0
 10
3632.59
 20
-1835.36
 30
0.000000
  70
    32
  0
VERTEX
  8
01
  5
27DE1
 10
3632.59
 20
-1835.37
 30
0.000000
  70
    32
  0
VERTEX
  8
01
  5
27DE2
 10
3632.58
 20
-1835.38
 30
0.000000
  70
    32
  0
VERTEX
  8
01
  5
27DE3
 10
3632.58
 20
-1835.39
 30
0.000000
  70
    32
  0
VERTEX
  8
01
  5
27DE4
 10
3632.58
 20
-1835.40
 30
0.000000
  70
    32
  0
VERTEX
  8
01
  5
27DE5
 10
3632.58
 20
-1835.41
 30
0.000000
  70
    32
  0
VERTEX
  8
01
  5
27DE6
 10
3632.58
 20
-1835.42
 30
0.000000
  70
    32
  0
VERTEX
  8
01
  5
27DE7
 10
3632.58
 20
-1835.43
 30
0.000000
  70
    32
  0
VERTEX
  8
01
  5
27DE8
 10
3632.58
 20
-1835.44
 30
0.000000
  70
    32
  0
VERTEX
  8
01
  5
27DE9
 10
3632.58
 20
-1835.45
 30
0.000000
  70
    32
  0
VERTEX
  8
01
  5
27DEA
 10
3632.58
 20
-1835.46
 30
0.000000
  70
    32
  0
VERTEX
  8
01
  5
27DEB
 10
3632.58
 20
-1835.47
 30
0.000000
  70
    32
  0
VERTEX
  8
01
  5
27DEC
 10
3632.58
 20
-1835.48
 30
0.000000
  70
    32
  0
SEQEND
  8
01
  5
27DED
  0
LINE
  5
272D5
  8
01
 10
3632.5795481978712
 20
-1835.47958709779
 30
0.0
 11
3631.1315633602298
 21
-1835.4029149154901
 31
0.0
  0
LINE
  5
272D6
  8
01
 10
3632.4209175569949
 20
-1838.4753902154489
 30
0.0
 11
3630.972932719354
 21
-1838.398718033149
 31
0.0
  0
LINE
  5
272D7
  8
01
 10
3631.7414221989861
 20
-1858.4333144200641
 30
0.0
 11
3633.009438530717
 21
-1838.4735515311299
 31
0.0
  0
LINE
  5
272D8
  8
01
 10
3632.710042087383
 20
-1838.4545312861551
 30
0.0
 11
3632.900244537142
 21
-1835.4605668528141
 31
0.0
  0
LINE
  5
272D9
  8
01
 10
3630.972932719354
 20
-1838.398718033149
 30
0.0
 11
3629.9153951135199
 21
-1858.370738817543
 31
0.0
  0
LINE
  5
272DA
  8
01
 10
3631.3633799511608
 20
-1858.447410999843
 30
0.0
 11
3632.4209175569949
 21
-1838.4753902154489
 31
0.0
  0
LINE
  5
272DB
  8
01
 10
3632.1213372452289
 20
-1838.459527151362
 30
0.0
 11
3632.2799678861061
 21
-1835.4637240337031
 31
0.0
  0
LINE
  5
272DC
  8
01
 10
3631.2725130311201
 20
-1838.414581097237
 30
0.0
 11
3631.4311436719959
 21
-1835.418777979577
 31
0.0
  0
POLYLINE
  8
01
  5
27DEE
  66
     1
 10
0.000000
 20
0.000000
 30
0.000000
  70
     8
  0
VERTEX
  8
01
  5
27DEF
 10
3630.64
 20
-1834.18
 30
0.000000
  70
    32
  0
VERTEX
  8
01
  5
27DF0
 10
3630.65
 20
-1833.92
 30
0.000000
  70
    32
  0
VERTEX
  8
01
  5
27DF1
 10
3630.66
 20
-1833.65
 30
0.000000
  70
    32
  0
VERTEX
  8
01
  5
27DF2
 10
3630.67
 20
-1833.39
 30
0.000000
  70
    32
  0
VERTEX
  8
01
  5
27DF3
 10
3630.69
 20
-1833.13
 30
0.000000
  70
    32
  0
VERTEX
  8
01
  5
27DF4
 10
3630.70
 20
-1832.87
 30
0.000000
  70
    32
  0
VERTEX
  8
01
  5
27DF5
 10
3630.71
 20
-1832.60
 30
0.000000
  70
    32
  0
VERTEX
  8
01
  5
27DF6
 10
3630.72
 20
-1832.34
 30
0.000000
  70
    32
  0
VERTEX
  8
01
  5
27DF7
 10
3630.73
 20
-1832.08
 30
0.000000
  70
    32
  0
VERTEX
  8
01
  5
27DF8
 10
3630.74
 20
-1831.81
 30
0.000000
  70
    32
  0
VERTEX
  8
01
  5
27DF9
 10
3630.75
 20
-1831.55
 30
0.000000
  70
    32
  0
VERTEX
  8
01
  5
27DFA
 10
3630.76
 20
-1831.29
 30
0.000000
  70
    32
  0
VERTEX
  8
01
  5
27DFB
 10
3630.78
 20
-1831.03
 30
0.000000
  70
    32
  0
VERTEX
  8
01
  5
27DFC
 10
3630.79
 20
-1830.76
 30
0.000000
  70
    32
  0
VERTEX
  8
01
  5
27DFD
 10
3630.80
 20
-1830.50
 30
0.000000
  70
    32
  0
VERTEX
  8
01
  5
27DFE
 10
3630.81
 20
-1830.24
 30
0.000000
  70
    32
  0
VERTEX
  8
01
  5
27DFF
 10
3630.82
 20
-1829.97
 30
0.000000
  70
    32
  0
VERTEX
  8
01
  5
27E00
 10
3630.83
 20
-1829.71
 30
0.000000
  70
    32
  0
VERTEX
  8
01
  5
27E01
 10
3630.84
 20
-1829.45
 30
0.000000
  70
    32
  0
VERTEX
  8
01
  5
27E02
 10
3630.85
 20
-1829.19
 30
0.000000
  70
    32
  0
VERTEX
  8
01
  5
27E03
 10
3630.87
 20
-1828.92
 30
0.000000
  70
    32
  0
VERTEX
  8
01
  5
27E04
 10
3630.88
 20
-1828.66
 30
0.000000
  70
    32
  0
VERTEX
  8
01
  5
27E05
 10
3630.89
 20
-1828.40
 30
0.000000
  70
    32
  0
VERTEX
  8
01
  5
27E06
 10
3630.90
 20
-1828.13
 30
0.000000
  70
    32
  0
VERTEX
  8
01
  5
27E07
 10
3630.91
 20
-1827.87
 30
0.000000
  70
    32
  0
VERTEX
  8
01
  5
27E08
 10
3630.92
 20
-1827.61
 30
0.000000
  70
    32
  0
VERTEX
  8
01
  5
27E09
 10
3630.93
 20
-1827.34
 30
0.000000
  70
    32
  0
VERTEX
  8
01
  5
27E0A
 10
3630.94
 20
-1827.08
 30
0.000000
  70
    32
  0
VERTEX
  8
01
  5
27E0B
 10
3630.95
 20
-1826.82
 30
0.000000
  70
    32
  0
VERTEX
  8
01
  5
27E0C
 10
3630.97
 20
-1826.56
 30
0.000000
  70
    32
  0
VERTEX
  8
01
  5
27E0D
 10
3630.98
 20
-1826.29
 30
0.000000
  70
    32
  0
VERTEX
  8
01
  5
27E0E
 10
3630.99
 20
-1826.03
 30
0.000000
  70
    32
  0
VERTEX
  8
01
  5
27E0F
 10
3631.00
 20
-1825.77
 30
0.000000
  70
    32
  0
VERTEX
  8
01
  5
27E10
 10
3631.01
 20
-1825.50
 30
0.000000
  70
    32
  0
VERTEX
  8
01
  5
27E11
 10
3631.02
 20
-1825.24
 30
0.000000
  70
    32
  0
VERTEX
  8
01
  5
27E12
 10
3631.03
 20
-1824.98
 30
0.000000
  70
    32
  0
VERTEX
  8
01
  5
27E13
 10
3631.04
 20
-1824.72
 30
0.000000
  70
    32
  0
VERTEX
  8
01
  5
27E14
 10
3631.05
 20
-1824.45
 30
0.000000
  70
    32
  0
VERTEX
  8
01
  5
27E15
 10
3631.06
 20
-1824.19
 30
0.000000
  70
    32
  0
VERTEX
  8
01
  5
27E16
 10
3631.08
 20
-1823.93
 30
0.000000
  70
    32
  0
VERTEX
  8
01
  5
27E17
 10
3631.09
 20
-1823.66
 30
0.000000
  70
    32
  0
VERTEX
  8
01
  5
27E18
 10
3631.10
 20
-1823.40
 30
0.000000
  70
    32
  0
VERTEX
  8
01
  5
27E19
 10
3631.11
 20
-1823.14
 30
0.000000
  70
    32
  0
VERTEX
  8
01
  5
27E1A
 10
3631.12
 20
-1822.88
 30
0.000000
  70
    32
  0
VERTEX
  8
01
  5
27E1B
 10
3631.13
 20
-1822.61
 30
0.000000
  70
    32
  0
VERTEX
  8
01
  5
27E1C
 10
3631.14
 20
-1822.35
 30
0.000000
  70
    32
  0
VERTEX
  8
01
  5
27E1D
 10
3631.15
 20
-1822.09
 30
0.000000
  70
    32
  0
VERTEX
  8
01
  5
27E1E
 10
3631.16
 20
-1821.82
 30
0.000000
  70
    32
  0
VERTEX
  8
01
  5
27E1F
 10
3631.17
 20
-1821.56
 30
0.000000
  70
    32
  0
VERTEX
  8
01
  5
27E20
 10
3631.18
 20
-1821.30
 30
0.000000
  70
    32
  0
VERTEX
  8
01
  5
27E21
 10
3631.19
 20
-1821.04
 30
0.000000
  70
    32
  0
VERTEX
  8
01
  5
27E22
 10
3631.20
 20
-1820.77
 30
0.000000
  70
    32
  0
VERTEX
  8
01
  5
27E23
 10
3631.21
 20
-1820.51
 30
0.000000
  70
    32
  0
VERTEX
  8
01
  5
27E24
 10
3631.22
 20
-1820.25
 30
0.000000
  70
    32
  0
VERTEX
  8
01
  5
27E25
 10
3631.24
 20
-1819.98
 30
0.000000
  70
    32
  0
VERTEX
  8
01
  5
27E26
 10
3631.25
 20
-1819.72
 30
0.000000
  70
    32
  0
VERTEX
  8
01
  5
27E27
 10
3631.26
 20
-1819.46
 30
0.000000
  70
    32
  0
VERTEX
  8
01
  5
27E28
 10
3631.27
 20
-1819.20
 30
0.000000
  70
    32
  0
VERTEX
  8
01
  5
27E29
 10
3631.28
 20
-1818.93
 30
0.000000
  70
    32
  0
VERTEX
  8
01
  5
27E2A
 10
3631.29
 20
-1818.67
 30
0.000000
  70
    32
  0
VERTEX
  8
01
  5
27E2B
 10
3631.30
 20
-1818.41
 30
0.000000
  70
    32
  0
VERTEX
  8
01
  5
27E2C
 10
3631.31
 20
-1818.14
 30
0.000000
  70
    32
  0
VERTEX
  8
01
  5
27E2D
 10
3631.32
 20
-1817.88
 30
0.000000
  70
    32
  0
VERTEX
  8
01
  5
27E2E
 10
3631.33
 20
-1817.62
 30
0.000000
  70
    32
  0
VERTEX
  8
01
  5
27E2F
 10
3631.34
 20
-1817.35
 30
0.000000
  70
    32
  0
VERTEX
  8
01
  5
27E30
 10
3631.35
 20
-1817.09
 30
0.000000
  70
    32
  0
VERTEX
  8
01
  5
27E31
 10
3631.36
 20
-1816.83
 30
0.000000
  70
    32
  0
VERTEX
  8
01
  5
27E32
 10
3631.37
 20
-1816.57
 30
0.000000
  70
    32
  0
VERTEX
  8
01
  5
27E33
 10
3631.38
 20
-1816.30
 30
0.000000
  70
    32
  0
VERTEX
  8
01
  5
27E34
 10
3631.39
 20
-1816.04
 30
0.000000
  70
    32
  0
VERTEX
  8
01
  5
27E35
 10
3631.40
 20
-1815.78
 30
0.000000
  70
    32
  0
VERTEX
  8
01
  5
27E36
 10
3631.41
 20
-1815.51
 30
0.000000
  70
    32
  0
VERTEX
  8
01
  5
27E37
 10
3631.42
 20
-1815.25
 30
0.000000
  70
    32
  0
VERTEX
  8
01
  5
27E38
 10
3631.43
 20
-1814.99
 30
0.000000
  70
    32
  0
VERTEX
  8
01
  5
27E39
 10
3631.44
 20
-1814.73
 30
0.000000
  70
    32
  0
VERTEX
  8
01
  5
27E3A
 10
3631.45
 20
-1814.46
 30
0.000000
  70
    32
  0
VERTEX
  8
01
  5
27E3B
 10
3631.46
 20
-1814.20
 30
0.000000
  70
    32
  0
VERTEX
  8
01
  5
27E3C
 10
3631.47
 20
-1813.94
 30
0.000000
  70
    32
  0
VERTEX
  8
01
  5
27E3D
 10
3631.48
 20
-1813.67
 30
0.000000
  70
    32
  0
VERTEX
  8
01
  5
27E3E
 10
3631.49
 20
-1813.41
 30
0.000000
  70
    32
  0
VERTEX
  8
01
  5
27E3F
 10
3631.49
 20
-1813.15
 30
0.000000
  70
    32
  0
VERTEX
  8
01
  5
27E40
 10
3631.50
 20
-1812.89
 30
0.000000
  70
    32
  0
VERTEX
  8
01
  5
27E41
 10
3631.51
 20
-1812.62
 30
0.000000
  70
    32
  0
VERTEX
  8
01
  5
27E42
 10
3631.52
 20
-1812.36
 30
0.000000
  70
    32
  0
VERTEX
  8
01
  5
27E43
 10
3631.53
 20
-1812.10
 30
0.000000
  70
    32
  0
VERTEX
  8
01
  5
27E44
 10
3631.54
 20
-1811.83
 30
0.000000
  70
    32
  0
VERTEX
  8
01
  5
27E45
 10
3631.55
 20
-1811.57
 30
0.000000
  70
    32
  0
VERTEX
  8
01
  5
27E46
 10
3631.56
 20
-1811.31
 30
0.000000
  70
    32
  0
VERTEX
  8
01
  5
27E47
 10
3631.57
 20
-1811.04
 30
0.000000
  70
    32
  0
VERTEX
  8
01
  5
27E48
 10
3631.58
 20
-1810.78
 30
0.000000
  70
    32
  0
VERTEX
  8
01
  5
27E49
 10
3631.59
 20
-1810.52
 30
0.000000
  70
    32
  0
VERTEX
  8
01
  5
27E4A
 10
3631.59
 20
-1810.26
 30
0.000000
  70
    32
  0
VERTEX
  8
01
  5
27E4B
 10
3631.60
 20
-1809.99
 30
0.000000
  70
    32
  0
VERTEX
  8
01
  5
27E4C
 10
3631.61
 20
-1809.73
 30
0.000000
  70
    32
  0
VERTEX
  8
01
  5
27E4D
 10
3631.62
 20
-1809.47
 30
0.000000
  70
    32
  0
VERTEX
  8
01
  5
27E4E
 10
3631.63
 20
-1809.20
 30
0.000000
  70
    32
  0
VERTEX
  8
01
  5
27E4F
 10
3631.64
 20
-1808.94
 30
0.000000
  70
    32
  0
VERTEX
  8
01
  5
27E50
 10
3631.65
 20
-1808.68
 30
0.000000
  70
    32
  0
VERTEX
  8
01
  5
27E51
 10
3631.66
 20
-1808.42
 30
0.000000
  70
    32
  0
VERTEX
  8
01
  5
27E52
 10
3631.66
 20
-1808.15
 30
0.000000
  70
    32
  0
VERTEX
  8
01
  5
27E53
 10
3631.67
 20
-1807.89
 30
0.000000
  70
    32
  0
VERTEX
  8
01
  5
27E54
 10
3631.68
 20
-1807.63
 30
0.000000
  70
    32
  0
VERTEX
  8
01
  5
27E55
 10
3631.69
 20
-1807.36
 30
0.000000
  70
    32
  0
VERTEX
  8
01
  5
27E56
 10
3631.70
 20
-1807.10
 30
0.000000
  70
    32
  0
VERTEX
  8
01
  5
27E57
 10
3631.71
 20
-1806.84
 30
0.000000
  70
    32
  0
VERTEX
  8
01
  5
27E58
 10
3631.71
 20
-1806.57
 30
0.000000
  70
    32
  0
VERTEX
  8
01
  5
27E59
 10
3631.72
 20
-1806.31
 30
0.000000
  70
    32
  0
VERTEX
  8
01
  5
27E5A
 10
3631.73
 20
-1806.05
 30
0.000000
  70
    32
  0
VERTEX
  8
01
  5
27E5B
 10
3631.74
 20
-1805.79
 30
0.000000
  70
    32
  0
VERTEX
  8
01
  5
27E5C
 10
3631.74
 20
-1805.52
 30
0.000000
  70
    32
  0
VERTEX
  8
01
  5
27E5D
 10
3631.75
 20
-1805.26
 30
0.000000
  70
    32
  0
VERTEX
  8
01
  5
27E5E
 10
3631.76
 20
-1805.00
 30
0.000000
  70
    32
  0
VERTEX
  8
01
  5
27E5F
 10
3631.77
 20
-1804.73
 30
0.000000
  70
    32
  0
VERTEX
  8
01
  5
27E60
 10
3631.78
 20
-1804.47
 30
0.000000
  70
    32
  0
VERTEX
  8
01
  5
27E61
 10
3631.78
 20
-1804.21
 30
0.000000
  70
    32
  0
VERTEX
  8
01
  5
27E62
 10
3631.79
 20
-1803.95
 30
0.000000
  70
    32
  0
VERTEX
  8
01
  5
27E63
 10
3631.80
 20
-1803.68
 30
0.000000
  70
    32
  0
VERTEX
  8
01
  5
27E64
 10
3631.80
 20
-1803.42
 30
0.000000
  70
    32
  0
VERTEX
  8
01
  5
27E65
 10
3631.81
 20
-1803.16
 30
0.000000
  70
    32
  0
VERTEX
  8
01
  5
27E66
 10
3631.82
 20
-1802.89
 30
0.000000
  70
    32
  0
VERTEX
  8
01
  5
27E67
 10
3631.83
 20
-1802.63
 30
0.000000
  70
    32
  0
VERTEX
  8
01
  5
27E68
 10
3631.83
 20
-1802.37
 30
0.000000
  70
    32
  0
VERTEX
  8
01
  5
27E69
 10
3631.84
 20
-1802.10
 30
0.000000
  70
    32
  0
VERTEX
  8
01
  5
27E6A
 10
3631.85
 20
-1801.84
 30
0.000000
  70
    32
  0
VERTEX
  8
01
  5
27E6B
 10
3631.85
 20
-1801.58
 30
0.000000
  70
    32
  0
VERTEX
  8
01
  5
27E6C
 10
3631.86
 20
-1801.32
 30
0.000000
  70
    32
  0
VERTEX
  8
01
  5
27E6D
 10
3631.87
 20
-1801.05
 30
0.000000
  70
    32
  0
VERTEX
  8
01
  5
27E6E
 10
3631.87
 20
-1800.79
 30
0.000000
  70
    32
  0
SEQEND
  8
01
  5
27E6F
  0
POLYLINE
  8
01
  5
27E70
  66
     1
 10
0.000000
 20
0.000000
 30
0.000000
  70
     8
  0
VERTEX
  8
01
  5
27E71
 10
3634.64
 20
-1834.35
 30
0.000000
  70
    32
  0
VERTEX
  8
01
  5
27E72
 10
3634.64
 20
-1834.18
 30
0.000000
  70
    32
  0
VERTEX
  8
01
  5
27E73
 10
3634.65
 20
-1834.00
 30
0.000000
  70
    32
  0
VERTEX
  8
01
  5
27E74
 10
3634.66
 20
-1833.83
 30
0.000000
  70
    32
  0
VERTEX
  8
01
  5
27E75
 10
3634.67
 20
-1833.65
 30
0.000000
  70
    32
  0
VERTEX
  8
01
  5
27E76
 10
3634.67
 20
-1833.48
 30
0.000000
  70
    32
  0
VERTEX
  8
01
  5
27E77
 10
3634.68
 20
-1833.30
 30
0.000000
  70
    32
  0
VERTEX
  8
01
  5
27E78
 10
3634.69
 20
-1833.12
 30
0.000000
  70
    32
  0
VERTEX
  8
01
  5
27E79
 10
3634.70
 20
-1832.95
 30
0.000000
  70
    32
  0
VERTEX
  8
01
  5
27E7A
 10
3634.70
 20
-1832.77
 30
0.000000
  70
    32
  0
VERTEX
  8
01
  5
27E7B
 10
3634.71
 20
-1832.60
 30
0.000000
  70
    32
  0
VERTEX
  8
01
  5
27E7C
 10
3634.72
 20
-1832.42
 30
0.000000
  70
    32
  0
VERTEX
  8
01
  5
27E7D
 10
3634.73
 20
-1832.25
 30
0.000000
  70
    32
  0
VERTEX
  8
01
  5
27E7E
 10
3634.73
 20
-1832.07
 30
0.000000
  70
    32
  0
VERTEX
  8
01
  5
27E7F
 10
3634.74
 20
-1831.90
 30
0.000000
  70
    32
  0
VERTEX
  8
01
  5
27E80
 10
3634.75
 20
-1831.72
 30
0.000000
  70
    32
  0
VERTEX
  8
01
  5
27E81
 10
3634.76
 20
-1831.55
 30
0.000000
  70
    32
  0
VERTEX
  8
01
  5
27E82
 10
3634.76
 20
-1831.37
 30
0.000000
  70
    32
  0
VERTEX
  8
01
  5
27E83
 10
3634.77
 20
-1831.20
 30
0.000000
  70
    32
  0
VERTEX
  8
01
  5
27E84
 10
3634.78
 20
-1831.02
 30
0.000000
  70
    32
  0
VERTEX
  8
01
  5
27E85
 10
3634.79
 20
-1830.84
 30
0.000000
  70
    32
  0
VERTEX
  8
01
  5
27E86
 10
3634.79
 20
-1830.67
 30
0.000000
  70
    32
  0
VERTEX
  8
01
  5
27E87
 10
3634.80
 20
-1830.49
 30
0.000000
  70
    32
  0
VERTEX
  8
01
  5
27E88
 10
3634.81
 20
-1830.32
 30
0.000000
  70
    32
  0
VERTEX
  8
01
  5
27E89
 10
3634.82
 20
-1830.14
 30
0.000000
  70
    32
  0
VERTEX
  8
01
  5
27E8A
 10
3634.82
 20
-1829.97
 30
0.000000
  70
    32
  0
VERTEX
  8
01
  5
27E8B
 10
3634.83
 20
-1829.79
 30
0.000000
  70
    32
  0
VERTEX
  8
01
  5
27E8C
 10
3634.84
 20
-1829.62
 30
0.000000
  70
    32
  0
VERTEX
  8
01
  5
27E8D
 10
3634.85
 20
-1829.44
 30
0.000000
  70
    32
  0
VERTEX
  8
01
  5
27E8E
 10
3634.85
 20
-1829.27
 30
0.000000
  70
    32
  0
VERTEX
  8
01
  5
27E8F
 10
3634.86
 20
-1829.09
 30
0.000000
  70
    32
  0
VERTEX
  8
01
  5
27E90
 10
3634.87
 20
-1828.92
 30
0.000000
  70
    32
  0
VERTEX
  8
01
  5
27E91
 10
3634.88
 20
-1828.74
 30
0.000000
  70
    32
  0
VERTEX
  8
01
  5
27E92
 10
3634.88
 20
-1828.56
 30
0.000000
  70
    32
  0
VERTEX
  8
01
  5
27E93
 10
3634.89
 20
-1828.39
 30
0.000000
  70
    32
  0
VERTEX
  8
01
  5
27E94
 10
3634.90
 20
-1828.21
 30
0.000000
  70
    32
  0
VERTEX
  8
01
  5
27E95
 10
3634.91
 20
-1828.04
 30
0.000000
  70
    32
  0
VERTEX
  8
01
  5
27E96
 10
3634.91
 20
-1827.86
 30
0.000000
  70
    32
  0
VERTEX
  8
01
  5
27E97
 10
3634.92
 20
-1827.69
 30
0.000000
  70
    32
  0
VERTEX
  8
01
  5
27E98
 10
3634.93
 20
-1827.51
 30
0.000000
  70
    32
  0
VERTEX
  8
01
  5
27E99
 10
3634.94
 20
-1827.34
 30
0.000000
  70
    32
  0
VERTEX
  8
01
  5
27E9A
 10
3634.94
 20
-1827.16
 30
0.000000
  70
    32
  0
VERTEX
  8
01
  5
27E9B
 10
3634.95
 20
-1826.99
 30
0.000000
  70
    32
  0
VERTEX
  8
01
  5
27E9C
 10
3634.96
 20
-1826.81
 30
0.000000
  70
    32
  0
VERTEX
  8
01
  5
27E9D
 10
3634.97
 20
-1826.63
 30
0.000000
  70
    32
  0
VERTEX
  8
01
  5
27E9E
 10
3634.97
 20
-1826.46
 30
0.000000
  70
    32
  0
VERTEX
  8
01
  5
27E9F
 10
3634.98
 20
-1826.28
 30
0.000000
  70
    32
  0
VERTEX
  8
01
  5
27EA0
 10
3634.99
 20
-1826.11
 30
0.000000
  70
    32
  0
VERTEX
  8
01
  5
27EA1
 10
3635.00
 20
-1825.93
 30
0.000000
  70
    32
  0
VERTEX
  8
01
  5
27EA2
 10
3635.00
 20
-1825.76
 30
0.000000
  70
    32
  0
VERTEX
  8
01
  5
27EA3
 10
3635.01
 20
-1825.58
 30
0.000000
  70
    32
  0
VERTEX
  8
01
  5
27EA4
 10
3635.02
 20
-1825.41
 30
0.000000
  70
    32
  0
VERTEX
  8
01
  5
27EA5
 10
3635.02
 20
-1825.23
 30
0.000000
  70
    32
  0
VERTEX
  8
01
  5
27EA6
 10
3635.03
 20
-1825.05
 30
0.000000
  70
    32
  0
VERTEX
  8
01
  5
27EA7
 10
3635.04
 20
-1824.88
 30
0.000000
  70
    32
  0
VERTEX
  8
01
  5
27EA8
 10
3635.05
 20
-1824.70
 30
0.000000
  70
    32
  0
VERTEX
  8
01
  5
27EA9
 10
3635.05
 20
-1824.53
 30
0.000000
  70
    32
  0
VERTEX
  8
01
  5
27EAA
 10
3635.06
 20
-1824.35
 30
0.000000
  70
    32
  0
VERTEX
  8
01
  5
27EAB
 10
3635.07
 20
-1824.18
 30
0.000000
  70
    32
  0
VERTEX
  8
01
  5
27EAC
 10
3635.08
 20
-1824.00
 30
0.000000
  70
    32
  0
VERTEX
  8
01
  5
27EAD
 10
3635.08
 20
-1823.83
 30
0.000000
  70
    32
  0
VERTEX
  8
01
  5
27EAE
 10
3635.09
 20
-1823.65
 30
0.000000
  70
    32
  0
VERTEX
  8
01
  5
27EAF
 10
3635.10
 20
-1823.47
 30
0.000000
  70
    32
  0
VERTEX
  8
01
  5
27EB0
 10
3635.10
 20
-1823.30
 30
0.000000
  70
    32
  0
VERTEX
  8
01
  5
27EB1
 10
3635.11
 20
-1823.12
 30
0.000000
  70
    32
  0
VERTEX
  8
01
  5
27EB2
 10
3635.12
 20
-1822.95
 30
0.000000
  70
    32
  0
VERTEX
  8
01
  5
27EB3
 10
3635.13
 20
-1822.77
 30
0.000000
  70
    32
  0
VERTEX
  8
01
  5
27EB4
 10
3635.13
 20
-1822.60
 30
0.000000
  70
    32
  0
VERTEX
  8
01
  5
27EB5
 10
3635.14
 20
-1822.42
 30
0.000000
  70
    32
  0
VERTEX
  8
01
  5
27EB6
 10
3635.15
 20
-1822.25
 30
0.000000
  70
    32
  0
VERTEX
  8
01
  5
27EB7
 10
3635.15
 20
-1822.07
 30
0.000000
  70
    32
  0
VERTEX
  8
01
  5
27EB8
 10
3635.16
 20
-1821.89
 30
0.000000
  70
    32
  0
VERTEX
  8
01
  5
27EB9
 10
3635.17
 20
-1821.72
 30
0.000000
  70
    32
  0
VERTEX
  8
01
  5
27EBA
 10
3635.18
 20
-1821.54
 30
0.000000
  70
    32
  0
VERTEX
  8
01
  5
27EBB
 10
3635.18
 20
-1821.37
 30
0.000000
  70
    32
  0
VERTEX
  8
01
  5
27EBC
 10
3635.19
 20
-1821.19
 30
0.000000
  70
    32
  0
VERTEX
  8
01
  5
27EBD
 10
3635.20
 20
-1821.02
 30
0.000000
  70
    32
  0
VERTEX
  8
01
  5
27EBE
 10
3635.20
 20
-1820.84
 30
0.000000
  70
    32
  0
VERTEX
  8
01
  5
27EBF
 10
3635.21
 20
-1820.66
 30
0.000000
  70
    32
  0
VERTEX
  8
01
  5
27EC0
 10
3635.22
 20
-1820.49
 30
0.000000
  70
    32
  0
VERTEX
  8
01
  5
27EC1
 10
3635.23
 20
-1820.31
 30
0.000000
  70
    32
  0
VERTEX
  8
01
  5
27EC2
 10
3635.23
 20
-1820.14
 30
0.000000
  70
    32
  0
VERTEX
  8
01
  5
27EC3
 10
3635.24
 20
-1819.96
 30
0.000000
  70
    32
  0
VERTEX
  8
01
  5
27EC4
 10
3635.25
 20
-1819.79
 30
0.000000
  70
    32
  0
VERTEX
  8
01
  5
27EC5
 10
3635.25
 20
-1819.61
 30
0.000000
  70
    32
  0
VERTEX
  8
01
  5
27EC6
 10
3635.26
 20
-1819.44
 30
0.000000
  70
    32
  0
VERTEX
  8
01
  5
27EC7
 10
3635.27
 20
-1819.26
 30
0.000000
  70
    32
  0
VERTEX
  8
01
  5
27EC8
 10
3635.27
 20
-1819.08
 30
0.000000
  70
    32
  0
VERTEX
  8
01
  5
27EC9
 10
3635.28
 20
-1818.91
 30
0.000000
  70
    32
  0
VERTEX
  8
01
  5
27ECA
 10
3635.29
 20
-1818.73
 30
0.000000
  70
    32
  0
VERTEX
  8
01
  5
27ECB
 10
3635.29
 20
-1818.56
 30
0.000000
  70
    32
  0
VERTEX
  8
01
  5
27ECC
 10
3635.30
 20
-1818.38
 30
0.000000
  70
    32
  0
VERTEX
  8
01
  5
27ECD
 10
3635.31
 20
-1818.21
 30
0.000000
  70
    32
  0
VERTEX
  8
01
  5
27ECE
 10
3635.32
 20
-1818.03
 30
0.000000
  70
    32
  0
VERTEX
  8
01
  5
27ECF
 10
3635.32
 20
-1817.85
 30
0.000000
  70
    32
  0
VERTEX
  8
01
  5
27ED0
 10
3635.33
 20
-1817.68
 30
0.000000
  70
    32
  0
VERTEX
  8
01
  5
27ED1
 10
3635.34
 20
-1817.50
 30
0.000000
  70
    32
  0
VERTEX
  8
01
  5
27ED2
 10
3635.34
 20
-1817.33
 30
0.000000
  70
    32
  0
VERTEX
  8
01
  5
27ED3
 10
3635.35
 20
-1817.15
 30
0.000000
  70
    32
  0
VERTEX
  8
01
  5
27ED4
 10
3635.36
 20
-1816.98
 30
0.000000
  70
    32
  0
VERTEX
  8
01
  5
27ED5
 10
3635.36
 20
-1816.80
 30
0.000000
  70
    32
  0
VERTEX
  8
01
  5
27ED6
 10
3635.37
 20
-1816.62
 30
0.000000
  70
    32
  0
VERTEX
  8
01
  5
27ED7
 10
3635.38
 20
-1816.45
 30
0.000000
  70
    32
  0
VERTEX
  8
01
  5
27ED8
 10
3635.38
 20
-1816.27
 30
0.000000
  70
    32
  0
VERTEX
  8
01
  5
27ED9
 10
3635.39
 20
-1816.10
 30
0.000000
  70
    32
  0
VERTEX
  8
01
  5
27EDA
 10
3635.40
 20
-1815.92
 30
0.000000
  70
    32
  0
VERTEX
  8
01
  5
27EDB
 10
3635.40
 20
-1815.75
 30
0.000000
  70
    32
  0
VERTEX
  8
01
  5
27EDC
 10
3635.41
 20
-1815.57
 30
0.000000
  70
    32
  0
VERTEX
  8
01
  5
27EDD
 10
3635.42
 20
-1815.39
 30
0.000000
  70
    32
  0
VERTEX
  8
01
  5
27EDE
 10
3635.42
 20
-1815.22
 30
0.000000
  70
    32
  0
VERTEX
  8
01
  5
27EDF
 10
3635.43
 20
-1815.04
 30
0.000000
  70
    32
  0
VERTEX
  8
01
  5
27EE0
 10
3635.43
 20
-1814.87
 30
0.000000
  70
    32
  0
VERTEX
  8
01
  5
27EE1
 10
3635.44
 20
-1814.69
 30
0.000000
  70
    32
  0
VERTEX
  8
01
  5
27EE2
 10
3635.45
 20
-1814.52
 30
0.000000
  70
    32
  0
VERTEX
  8
01
  5
27EE3
 10
3635.45
 20
-1814.34
 30
0.000000
  70
    32
  0
VERTEX
  8
01
  5
27EE4
 10
3635.46
 20
-1814.16
 30
0.000000
  70
    32
  0
VERTEX
  8
01
  5
27EE5
 10
3635.47
 20
-1813.99
 30
0.000000
  70
    32
  0
VERTEX
  8
01
  5
27EE6
 10
3635.47
 20
-1813.81
 30
0.000000
  70
    32
  0
VERTEX
  8
01
  5
27EE7
 10
3635.48
 20
-1813.64
 30
0.000000
  70
    32
  0
VERTEX
  8
01
  5
27EE8
 10
3635.49
 20
-1813.46
 30
0.000000
  70
    32
  0
VERTEX
  8
01
  5
27EE9
 10
3635.49
 20
-1813.28
 30
0.000000
  70
    32
  0
VERTEX
  8
01
  5
27EEA
 10
3635.50
 20
-1813.11
 30
0.000000
  70
    32
  0
VERTEX
  8
01
  5
27EEB
 10
3635.50
 20
-1812.93
 30
0.000000
  70
    32
  0
VERTEX
  8
01
  5
27EEC
 10
3635.51
 20
-1812.76
 30
0.000000
  70
    32
  0
VERTEX
  8
01
  5
27EED
 10
3635.52
 20
-1812.58
 30
0.000000
  70
    32
  0
VERTEX
  8
01
  5
27EEE
 10
3635.52
 20
-1812.41
 30
0.000000
  70
    32
  0
VERTEX
  8
01
  5
27EEF
 10
3635.53
 20
-1812.23
 30
0.000000
  70
    32
  0
VERTEX
  8
01
  5
27EF0
 10
3635.54
 20
-1812.05
 30
0.000000
  70
    32
  0
VERTEX
  8
01
  5
27EF1
 10
3635.54
 20
-1811.88
 30
0.000000
  70
    32
  0
VERTEX
  8
01
  5
27EF2
 10
3635.55
 20
-1811.70
 30
0.000000
  70
    32
  0
VERTEX
  8
01
  5
27EF3
 10
3635.55
 20
-1811.53
 30
0.000000
  70
    32
  0
VERTEX
  8
01
  5
27EF4
 10
3635.56
 20
-1811.35
 30
0.000000
  70
    32
  0
VERTEX
  8
01
  5
27EF5
 10
3635.57
 20
-1811.17
 30
0.000000
  70
    32
  0
VERTEX
  8
01
  5
27EF6
 10
3635.57
 20
-1811.00
 30
0.000000
  70
    32
  0
VERTEX
  8
01
  5
27EF7
 10
3635.58
 20
-1810.82
 30
0.000000
  70
    32
  0
VERTEX
  8
01
  5
27EF8
 10
3635.58
 20
-1810.65
 30
0.000000
  70
    32
  0
VERTEX
  8
01
  5
27EF9
 10
3635.59
 20
-1810.47
 30
0.000000
  70
    32
  0
VERTEX
  8
01
  5
27EFA
 10
3635.60
 20
-1810.29
 30
0.000000
  70
    32
  0
VERTEX
  8
01
  5
27EFB
 10
3635.60
 20
-1810.12
 30
0.000000
  70
    32
  0
VERTEX
  8
01
  5
27EFC
 10
3635.61
 20
-1809.94
 30
0.000000
  70
    32
  0
VERTEX
  8
01
  5
27EFD
 10
3635.61
 20
-1809.77
 30
0.000000
  70
    32
  0
VERTEX
  8
01
  5
27EFE
 10
3635.62
 20
-1809.59
 30
0.000000
  70
    32
  0
VERTEX
  8
01
  5
27EFF
 10
3635.63
 20
-1809.42
 30
0.000000
  70
    32
  0
VERTEX
  8
01
  5
27F00
 10
3635.63
 20
-1809.24
 30
0.000000
  70
    32
  0
VERTEX
  8
01
  5
27F01
 10
3635.64
 20
-1809.06
 30
0.000000
  70
    32
  0
VERTEX
  8
01
  5
27F02
 10
3635.64
 20
-1808.89
 30
0.000000
  70
    32
  0
VERTEX
  8
01
  5
27F03
 10
3635.65
 20
-1808.71
 30
0.000000
  70
    32
  0
VERTEX
  8
01
  5
27F04
 10
3635.65
 20
-1808.54
 30
0.000000
  70
    32
  0
VERTEX
  8
01
  5
27F05
 10
3635.66
 20
-1808.36
 30
0.000000
  70
    32
  0
VERTEX
  8
01
  5
27F06
 10
3635.66
 20
-1808.18
 30
0.000000
  70
    32
  0
VERTEX
  8
01
  5
27F07
 10
3635.67
 20
-1808.01
 30
0.000000
  70
    32
  0
VERTEX
  8
01
  5
27F08
 10
3635.68
 20
-1807.83
 30
0.000000
  70
    32
  0
VERTEX
  8
01
  5
27F09
 10
3635.68
 20
-1807.66
 30
0.000000
  70
    32
  0
VERTEX
  8
01
  5
27F0A
 10
3635.69
 20
-1807.48
 30
0.000000
  70
    32
  0
VERTEX
  8
01
  5
27F0B
 10
3635.69
 20
-1807.30
 30
0.000000
  70
    32
  0
VERTEX
  8
01
  5
27F0C
 10
3635.70
 20
-1807.13
 30
0.000000
  70
    32
  0
VERTEX
  8
01
  5
27F0D
 10
3635.70
 20
-1806.95
 30
0.000000
  70
    32
  0
VERTEX
  8
01
  5
27F0E
 10
3635.71
 20
-1806.78
 30
0.000000
  70
    32
  0
VERTEX
  8
01
  5
27F0F
 10
3635.71
 20
-1806.60
 30
0.000000
  70
    32
  0
VERTEX
  8
01
  5
27F10
 10
3635.72
 20
-1806.42
 30
0.000000
  70
    32
  0
VERTEX
  8
01
  5
27F11
 10
3635.72
 20
-1806.25
 30
0.000000
  70
    32
  0
VERTEX
  8
01
  5
27F12
 10
3635.73
 20
-1806.07
 30
0.000000
  70
    32
  0
VERTEX
  8
01
  5
27F13
 10
3635.74
 20
-1805.90
 30
0.000000
  70
    32
  0
VERTEX
  8
01
  5
27F14
 10
3635.74
 20
-1805.72
 30
0.000000
  70
    32
  0
VERTEX
  8
01
  5
27F15
 10
3635.75
 20
-1805.54
 30
0.000000
  70
    32
  0
VERTEX
  8
01
  5
27F16
 10
3635.75
 20
-1805.37
 30
0.000000
  70
    32
  0
VERTEX
  8
01
  5
27F17
 10
3635.76
 20
-1805.19
 30
0.000000
  70
    32
  0
VERTEX
  8
01
  5
27F18
 10
3635.76
 20
-1805.02
 30
0.000000
  70
    32
  0
VERTEX
  8
01
  5
27F19
 10
3635.77
 20
-1804.84
 30
0.000000
  70
    32
  0
VERTEX
  8
01
  5
27F1A
 10
3635.77
 20
-1804.66
 30
0.000000
  70
    32
  0
VERTEX
  8
01
  5
27F1B
 10
3635.78
 20
-1804.49
 30
0.000000
  70
    32
  0
VERTEX
  8
01
  5
27F1C
 10
3635.78
 20
-1804.31
 30
0.000000
  70
    32
  0
VERTEX
  8
01
  5
27F1D
 10
3635.79
 20
-1804.14
 30
0.000000
  70
    32
  0
VERTEX
  8
01
  5
27F1E
 10
3635.79
 20
-1803.96
 30
0.000000
  70
    32
  0
VERTEX
  8
01
  5
27F1F
 10
3635.80
 20
-1803.78
 30
0.000000
  70
    32
  0
VERTEX
  8
01
  5
27F20
 10
3635.80
 20
-1803.61
 30
0.000000
  70
    32
  0
VERTEX
  8
01
  5
27F21
 10
3635.81
 20
-1803.43
 30
0.000000
  70
    32
  0
VERTEX
  8
01
  5
27F22
 10
3635.81
 20
-1803.26
 30
0.000000
  70
    32
  0
VERTEX
  8
01
  5
27F23
 10
3635.82
 20
-1803.08
 30
0.000000
  70
    32
  0
VERTEX
  8
01
  5
27F24
 10
3635.82
 20
-1802.90
 30
0.000000
  70
    32
  0
VERTEX
  8
01
  5
27F25
 10
3635.83
 20
-1802.73
 30
0.000000
  70
    32
  0
VERTEX
  8
01
  5
27F26
 10
3635.83
 20
-1802.55
 30
0.000000
  70
    32
  0
VERTEX
  8
01
  5
27F27
 10
3635.83
 20
-1802.37
 30
0.000000
  70
    32
  0
VERTEX
  8
01
  5
27F28
 10
3635.84
 20
-1802.20
 30
0.000000
  70
    32
  0
VERTEX
  8
01
  5
27F29
 10
3635.84
 20
-1802.02
 30
0.000000
  70
    32
  0
VERTEX
  8
01
  5
27F2A
 10
3635.85
 20
-1801.85
 30
0.000000
  70
    32
  0
VERTEX
  8
01
  5
27F2B
 10
3635.85
 20
-1801.67
 30
0.000000
  70
    32
  0
VERTEX
  8
01
  5
27F2C
 10
3635.86
 20
-1801.49
 30
0.000000
  70
    32
  0
VERTEX
  8
01
  5
27F2D
 10
3635.86
 20
-1801.32
 30
0.000000
  70
    32
  0
VERTEX
  8
01
  5
27F2E
 10
3635.87
 20
-1801.14
 30
0.000000
  70
    32
  0
VERTEX
  8
01
  5
27F2F
 10
3635.87
 20
-1800.97
 30
0.000000
  70
    32
  0
VERTEX
  8
01
  5
27F30
 10
3635.87
 20
-1800.79
 30
0.000000
  70
    32
  0
SEQEND
  8
01
  5
27F31
  0
LINE
  5
272DF
  8
01
 10
3630.6400602018862
 20
-1834.1799549073351
 30
0.0
 11
3634.636360230139
 21
-1834.3519609659061
 31
0.0
  0
LINE
  5
272E0
  8
01
 10
3631.3633799511608
 20
-1858.447410999843
 30
0.0
 11
3629.9153951135199
 21
-1858.370738817543
 31
0.0
  0
LINE
  5
272E1
  8
01
 10
3631.7414221989861
 20
-1858.4333144200641
 30
0.0
 11
3631.3651812842531
 21
-1858.413392103716
 31
0.0
  0
ARC
  5
2758B
  8
01
 10
3580.8292877914068
 20
-1610.317522754729
 30
0.0
 40
2.0
 50
90.0
 51
180.0
  0
LINE
  5
2758C
  8
01
 10
3578.8292877914068
 20
-1614.817522754729
 30
0.0
 11
3578.8292877914068
 21
-1610.317522754729
 31
0.0
  0
LINE
  5
2758D
  8
01
 10
3686.8292877914059
 20
-1608.317522754729
 30
0.0
 11
3662.3292877914068
 21
-1608.317522754729
 31
0.0
  0
LINE
  5
2758E
  8
01
 10
3688.829287791405
 20
-1614.817522754729
 30
0.0
 11
3688.8292877914059
 21
-1610.317522754729
 31
0.0
  0
ARC
  5
2758F
  8
01
 10
3686.8292877914059
 20
-1610.317522754729
 30
0.0
 40
2.0
 50
0.000000000000007
 51
90.0
  0
TEXT
  5
27613
  8
1TEXT
 10
3774.9054521346779
 20
-1641.0251462467879
 30
0.0
 40
4.0
  1
シルバー
 41
0.8
 72
     1
 11
3782.158785468012
 21
-1641.0251462467879
 31
0.0
  0
TEXT
  5
27614
  8
1TEXT
 10
3770.8521188013451
 20
-1634.0251462467879
 30
0.0
 40
4.0
  1
ミストグレー
 41
0.8
 72
     1
 11
3782.158785468012
 21
-1634.0251462467879
 31
0.0
  0
TEXT
  5
27615
  8
1TEXT
 10
3769.038785468013
 20
-1648.0251462467891
 30
0.0
 40
4.0
  1
ダークブラウン
 41
0.8
 72
     1
 11
3782.1587854680129
 21
-1648.0251462467891
 31
0.0
  0
TEXT
  5
2773E
  8
1DIM
 10
3721.229949775211
 20
-1723.856385271871
 30
0.0
 40
3.5
  1
材質：ステンレス
  0
TEXT
  5
2773F
  8
1DIM
 10
3721.229949775211
 20
-1729.689718605204
 30
0.0
 40
3.5
  1
仕上げ：各種仕上げ
  0
SOLID
  5
27740
  8
1DIM
 10
3654.9516057218561
 20
-1744.162257367429
 30
0.0
 11
3652.9253973180462
 21
-1744.2370277856519
 31
0.0
 12
3654.8178310779022
 22
-1743.5091503401511
 32
0.0
 13
3654.8178310779022
 23
-1743.5091503401511
 33
0.0
  0
TEXT
  5
27742
  8
1DIM
 10
3718.8817614373729
 20
-1661.7658966164211
 30
0.0
 40
3.5
  1
材質：ステンレス
  0
TEXT
  5
27743
  8
1DIM
 10
3718.8817614373729
 20
-1667.5992299497541
 30
0.0
 40
3.5
  1
仕上げ：各種仕上げ
  0
SOLID
  5
27744
  8
1DIM
 10
3699.9921810851661
 20
-1681.190169885904
 30
0.0
 11
3698.2043139257639
 21
-1682.1465391302031
 31
0.0
 12
3699.5853658081278
 22
-1680.662016712276
 32
0.0
 13
3699.5853658081278
 23
-1680.662016712276
 33
0.0
  0
LINE
  5
27746
  8
1HATCH
 10
3567.6476743777298
 20
-1852.789905533677
 30
0.0
 11
3550.3292877914059
 21
-1852.789905533677
 31
0.0
  0
LINE
  5
27747
  8
1HATCH
 10
3593.8292877914068
 20
-1702.789905533677
 30
0.0
 11
3550.3292877914059
 21
-1702.789905533677
 31
0.0
  0
LINE
  5
27748
  8
1HATCH
 10
3551.3292877914059
 20
-1850.789905533677
 30
0.0
 11
3551.3292877914059
 21
-1704.789905533677
 31
0.0
  0
LINE
  5
2774C
  8
1HATCH
 10
3821.3292877914441
 20
-1668.4060650198851
 30
0.0
 11
3829.8034388282231
 21
-1659.9319139831071
 31
0.0
1001
ACAD
1010
0.0
1020
0.0
1030
0.0
  0
LINE
  5
2774D
  8
1HATCH
 10
3821.329287791445
 20
-1677.3863211409539
 30
0.0
 11
3838.7836949492921
 21
-1659.9319139831071
 31
0.0
1001
ACAD
1010
0.0
1020
0.0
1030
0.0
  0
LINE
  5
2774E
  8
1HATCH
 10
3821.329287791445
 20
-1686.3665772620229
 30
0.0
 11
3841.3292877914441
 21
-1666.3665772620241
 31
0.0
1001
ACAD
1010
0.0
1020
0.0
1030
0.0
  0
LINE
  5
2774F
  8
1HATCH
 10
3821.329287791445
 20
-1695.3468333830931
 30
0.0
 11
3841.3292877914441
 21
-1675.3468333830931
 31
0.0
1001
ACAD
1010
0.0
1020
0.0
1030
0.0
  0
LINE
  5
27750
  8
1HATCH
 10
3824.6164717619299
 20
-1701.039905533677
 30
0.0
 11
3841.3292877914441
 21
-1684.3270895041619
 31
0.0
1001
ACAD
1010
0.0
1020
0.0
1030
0.0
  0
LINE
  5
27751
  8
1HATCH
 10
3821.329287791445
 20
-1713.30734562523
 30
0.0
 11
3830.0967278829989
 21
-1704.539905533677
 31
0.0
1001
ACAD
1010
0.0
1020
0.0
1030
0.0
  0
LINE
  5
27752
  8
1HATCH
 10
3834.0137491284081
 20
-1700.6228842882681
 30
0.0
 11
3841.3292877914441
 21
-1693.3073456252309
 31
0.0
1001
ACAD
1010
0.0
1020
0.0
1030
0.0
  0
LINE
  5
27753
  8
1HATCH
 10
3833.596727882998
 20
-1701.039905533677
 30
0.0
 11
3833.8472597511131
 21
-1700.7893736655619
 31
0.0
1001
ACAD
1010
0.0
1020
0.0
1030
0.0
  0
LINE
  5
27754
  8
1HATCH
 10
3821.329287791445
 20
-1722.2876017462991
 30
0.0
 11
3838.8437918152531
 21
-1704.773097722491
 31
0.0
1001
ACAD
1010
0.0
1020
0.0
1030
0.0
  0
LINE
  5
27755
  8
1HATCH
 10
3821.329287791445
 20
-1731.267857867369
 30
0.0
 11
3841.3292877914441
 21
-1711.267857867369
 31
0.0
1001
ACAD
1010
0.0
1020
0.0
1030
0.0
  0
LINE
  5
27756
  8
1HATCH
 10
3821.329287791445
 20
-1740.248113988438
 30
0.0
 11
3841.329287791445
 21
-1720.248113988438
 31
0.0
1001
ACAD
1010
0.0
1020
0.0
1030
0.0
  0
LINE
  5
27757
  8
1HATCH
 10
3821.329287791445
 20
-1749.2283701095071
 30
0.0
 11
3841.3292877914441
 21
-1729.2283701095071
 31
0.0
1001
ACAD
1010
0.0
1020
0.0
1030
0.0
  0
LINE
  5
27758
  8
1HATCH
 10
3821.329287791445
 20
-1758.2086262305761
 30
0.0
 11
3841.3292877914441
 21
-1738.2086262305761
 31
0.0
1001
ACAD
1010
0.0
1020
0.0
1030
0.0
  0
LINE
  5
27759
  8
1HATCH
 10
3821.329287791445
 20
-1767.188882351646
 30
0.0
 11
3841.3292877914441
 21
-1747.1888823516449
 31
0.0
1001
ACAD
1010
0.0
1020
0.0
1030
0.0
  0
LINE
  5
2775A
  8
1HATCH
 10
3821.329287791445
 20
-1776.1691384727139
 30
0.0
 11
3841.3292877914441
 21
-1756.1691384727151
 31
0.0
1001
ACAD
1010
0.0
1020
0.0
1030
0.0
  0
LINE
  5
2775B
  8
1HATCH
 10
3821.329287791445
 20
-1785.149394593783
 30
0.0
 11
3841.3292877914441
 21
-1765.149394593783
 31
0.0
1001
ACAD
1010
0.0
1020
0.0
1030
0.0
  0
LINE
  5
2775C
  8
1HATCH
 10
3821.329287791445
 20
-1794.1296507148529
 30
0.0
 11
3841.3292877914441
 21
-1774.1296507148529
 31
0.0
1001
ACAD
1010
0.0
1020
0.0
1030
0.0
  0
LINE
  5
2775D
  8
1HATCH
 10
3821.329287791445
 20
-1803.1099068359219
 30
0.0
 11
3841.3292877914441
 21
-1783.1099068359219
 31
0.0
1001
ACAD
1010
0.0
1020
0.0
1030
0.0
  0
LINE
  5
2775E
  8
1HATCH
 10
3821.329287791445
 20
-1812.0901629569919
 30
0.0
 11
3841.3292877914441
 21
-1792.0901629569919
 31
0.0
1001
ACAD
1010
0.0
1020
0.0
1030
0.0
  0
LINE
  5
2775F
  8
1HATCH
 10
3821.329287791445
 20
-1821.0704190780609
 30
0.0
 11
3841.3292877914441
 21
-1801.0704190780609
 31
0.0
1001
ACAD
1010
0.0
1020
0.0
1030
0.0
  0
LINE
  5
27760
  8
1HATCH
 10
3821.329287791445
 20
-1830.050675199129
 30
0.0
 11
3841.3292877914441
 21
-1810.05067519913
 31
0.0
1001
ACAD
1010
0.0
1020
0.0
1030
0.0
  0
LINE
  5
27761
  8
1HATCH
 10
3821.329287791445
 20
-1839.030931320199
 30
0.0
 11
3841.3292877914441
 21
-1819.030931320199
 31
0.0
1001
ACAD
1010
0.0
1020
0.0
1030
0.0
  0
LINE
  5
27762
  8
1HATCH
 10
3821.329287791445
 20
-1848.011187441268
 30
0.0
 11
3841.3292877914441
 21
-1828.011187441268
 31
0.0
1001
ACAD
1010
0.0
1020
0.0
1030
0.0
  0
LINE
  5
27763
  8
1HATCH
 10
3821.329287791445
 20
-1856.9914435623371
 30
0.0
 11
3823.3777654512578
 21
-1854.9429659025229
 31
0.0
1001
ACAD
1010
0.0
1020
0.0
1030
0.0
  0
LINE
  5
27764
  8
1HATCH
 10
3827.2808258201062
 20
-1851.0399055336759
 30
0.0
 11
3841.3292877914441
 21
-1836.9914435623371
 31
0.0
1001
ACAD
1010
0.0
1020
0.0
1030
0.0
  0
LINE
  5
27765
  8
1HATCH
 10
3823.5512352668361
 20
-1854.769496086946
 30
0.0
 11
3823.7808258201062
 21
-1854.539905533675
 31
0.0
1001
ACAD
1010
0.0
1020
0.0
1030
0.0
  0
LINE
  5
27766
  8
1HATCH
 10
3828.416606144659
 20
-1858.8843813301919
 30
0.0
 11
3832.7610819411748
 21
-1854.539905533675
 31
0.0
1001
ACAD
1010
0.0
1020
0.0
1030
0.0
  0
LINE
  5
27767
  8
1HATCH
 10
3836.5411414714381
 20
-1850.759846003413
 30
0.0
 11
3841.3292877914441
 21
-1845.9716996834061
 31
0.0
1001
ACAD
1010
0.0
1020
0.0
1030
0.0
  0
LINE
  5
27768
  8
1HATCH
 10
3836.2610819411761
 20
-1851.039905533675
 30
0.0
 11
3836.3061712365679
 21
-1850.994816238283
 31
0.0
1001
ACAD
1010
0.0
1020
0.0
1030
0.0
  0
LINE
  5
27769
  8
1HATCH
 10
3836.196729717271
 20
-1860.084513878649
 30
0.0
 11
3841.3292877914441
 21
-1854.951955804476
 31
0.0
1001
ACAD
1010
0.0
1020
0.0
1030
0.0
  0
LINE
  5
2776A
  8
1DIM
 10
3766.3292877914068
 20
-1692.2899055336759
 30
0.0
 11
3755.3292877914068
 21
-1692.2899055336759
 31
0.0
  0
LINE
  5
2776B
  8
1DIM
 10
3766.3292877914068
 20
-1679.5899055336761
 30
0.0
 11
3755.3292877914068
 21
-1679.5899055336761
 31
0.0
  0
LINE
  5
2776C
  8
1DIM
 10
3756.3292877914068
 20
-1690.2899055336759
 30
0.0
 11
3756.3292877914068
 21
-1681.5899055336761
 31
0.0
  0
LINE
  5
27770
  8
1DIM
 10
3705.3292877914068
 20
-1800.789905533677
 30
0.0
 11
3717.3292877914068
 21
-1800.789905533677
 31
0.0
  0
LINE
  5
27771
  8
1DIM
 10
3706.3292877914068
 20
-1679.5899055336761
 30
0.0
 11
3717.3292877914068
 21
-1679.5899055336761
 31
0.0
  0
LINE
  5
27772
  8
1DIM
 10
3716.3292877914068
 20
-1798.789905533677
 30
0.0
 11
3716.3292877914068
 21
-1681.5899055336761
 31
0.0
  0
LINE
  5
27776
  8
1DIM
 10
3561.3292877914059
 20
-1679.5899055336761
 30
0.0
 11
3561.3292877914059
 21
-1668.5899055336761
 31
0.0
  0
LINE
  5
27777
  8
1DIM
 10
3706.3292877914068
 20
-1679.5899055336761
 30
0.0
 11
3706.3292877914068
 21
-1668.5899055336761
 31
0.0
  0
LINE
  5
27778
  8
1DIM
 10
3563.3292877914068
 20
-1669.5899055336761
 30
0.0
 11
3704.3292877914059
 21
-1669.5899055336761
 31
0.0
  0
LINE
  5
2777C
  8
1DIM
 10
3795.329287791445
 20
-1698.789905533675
 30
0.0
 11
3795.329287791445
 21
-1668.5899055336761
 31
0.0
  0
LINE
  5
2777D
  8
1DIM
 10
3766.3292877914068
 20
-1679.5899055336761
 30
0.0
 11
3766.3292877914068
 21
-1668.5899055336761
 31
0.0
  0
LINE
  5
2777E
  8
1DIM
 10
3793.329287791445
 20
-1669.5899055336761
 30
0.0
 11
3768.3292877914059
 21
-1669.5899055336761
 31
0.0
  0
LINE
  5
27782
  8
1DIM
 10
3766.3292877914068
 20
-1679.5899055336761
 30
0.0
 11
3766.3292877914068
 21
-1658.5899055336761
 31
0.0
  0
LINE
  5
27783
  8
1DIM
 10
3821.329287791445
 20
-1659.9319139831071
 30
0.0
 11
3821.329287791445
 21
-1658.5899055336761
 31
0.0
  0
LINE
  5
27784
  8
1DIM
 10
3768.3292877914059
 20
-1659.5899055336761
 30
0.0
 11
3819.329287791445
 21
-1659.5899055336761
 31
0.0
  0
LINE
  5
27788
  8
1DIM
 10
3796.329287791445
 20
-1697.7899055336741
 30
0.0
 11
3745.3292877914068
 21
-1697.7899055336741
 31
0.0
  0
LINE
  5
27789
  8
1DIM
 10
3766.3292877914068
 20
-1679.5899055336761
 30
0.0
 11
3745.3292877914068
 21
-1679.5899055336761
 31
0.0
  0
LINE
  5
2778A
  8
1DIM
 10
3746.3292877914059
 20
-1695.7899055336741
 30
0.0
 11
3746.3292877914059
 21
-1681.5899055336761
 31
0.0
  0
TEXT
  5
2778E
  8
1DIM
 10
3718.8817614373729
 20
-1614.3687545184621
 30
0.0
 40
3.5
  1
材質：ステンレス
  0
TEXT
  5
2778F
  8
1DIM
 10
3718.8817614373729
 20
-1620.2020878517951
 30
0.0
 40
3.5
  1
仕上げ：各種仕上げ
  0
SOLID
  5
27790
  8
1DIM
 10
3699.9921810851661
 20
-1633.793027787945
 30
0.0
 11
3698.2043139257639
 21
-1634.749397032243
 31
0.0
 12
3699.5853658081278
 22
-1633.264874614317
 32
0.0
 13
3699.5853658081278
 23
-1633.264874614317
 33
0.0
  0
LINE
  5
27792
  8
1DIM
 10
3699.7887734466472
 20
-1633.5289512011309
 30
0.0
 11
3716.1817614373731
 21
-1620.9020878517949
 31
0.0
  0
LINE
  5
27793
  8
1DIM
 10
3716.1817614373731
 20
-1620.9020878517949
 30
0.0
 11
3718.8817614373729
 21
-1620.9020878517949
 31
0.0
  0
TEXT
  5
27794
  8
1DIM
 10
3745.6292877914079
 20
-1693.3565722003409
 30
0.0
 40
3.5
  1
18.2
 50
90.0
  0
LINE
  5
27795
  8
0
  6
BYBLOCK
 10
3745.7933894114071
 20
-1681.5899055336761
 30
0.0
 11
3746.3292877914059
 21
-1679.5899055336761
 31
0.0
  0
LINE
  5
27796
  8
0
  6
BYBLOCK
 10
3746.3292877914059
 20
-1679.5899055336761
 30
0.0
 11
3746.865186171407
 21
-1681.5899055336761
 31
0.0
  0
LINE
  5
27797
  8
0
  6
BYBLOCK
 10
3746.3292877914059
 20
-1679.5899055336761
 30
0.0
 11
3746.3292877914059
 21
-1681.5899055336761
 31
0.0
  0
LINE
  5
27798
  8
0
  6
BYBLOCK
 10
3746.865186171407
 20
-1695.7899055336741
 30
0.0
 11
3746.3292877914059
 21
-1697.7899055336741
 31
0.0
  0
LINE
  5
27799
  8
0
  6
BYBLOCK
 10
3746.3292877914059
 20
-1697.7899055336741
 30
0.0
 11
3745.7933894114071
 21
-1695.7899055336741
 31
0.0
  0
LINE
  5
2779A
  8
0
  6
BYBLOCK
 10
3746.3292877914059
 20
-1697.7899055336741
 30
0.0
 11
3746.3292877914059
 21
-1695.7899055336741
 31
0.0
  0
TEXT
  5
2779B
  8
1DIM
 10
3790.912621124759
 20
-1658.889905533676
 30
0.0
 40
3.5
  1
55
  0
LINE
  5
2779C
  8
0
  6
BYBLOCK
 10
3819.329287791445
 20
-1659.0540071536759
 30
0.0
 11
3821.329287791445
 21
-1659.5899055336761
 31
0.0
  0
LINE
  5
2779D
  8
0
  6
BYBLOCK
 10
3821.329287791445
 20
-1659.5899055336761
 30
0.0
 11
3819.329287791445
 21
-1660.125803913676
 31
0.0
  0
LINE
  5
2779E
  8
0
  6
BYBLOCK
 10
3821.329287791445
 20
-1659.5899055336761
 30
0.0
 11
3819.329287791445
 21
-1659.5899055336761
 31
0.0
  0
LINE
  5
2779F
  8
0
  6
BYBLOCK
 10
3768.3292877914059
 20
-1660.125803913676
 30
0.0
 11
3766.3292877914068
 21
-1659.5899055336761
 31
0.0
  0
LINE
  5
277A0
  8
0
  6
BYBLOCK
 10
3766.3292877914068
 20
-1659.5899055336761
 30
0.0
 11
3768.3292877914059
 21
-1659.0540071536759
 31
0.0
  0
LINE
  5
277A1
  8
0
  6
BYBLOCK
 10
3766.3292877914068
 20
-1659.5899055336761
 30
0.0
 11
3768.3292877914059
 21
-1659.5899055336761
 31
0.0
  0
TEXT
  5
277A2
  8
1DIM
 10
3777.912621124759
 20
-1668.889905533676
 30
0.0
 40
3.5
  1
29
  0
LINE
  5
277A3
  8
0
  6
BYBLOCK
 10
3768.3292877914059
 20
-1670.1258039136751
 30
0.0
 11
3766.3292877914068
 21
-1669.5899055336761
 31
0.0
  0
LINE
  5
277A4
  8
0
  6
BYBLOCK
 10
3766.3292877914068
 20
-1669.5899055336761
 30
0.0
 11
3768.3292877914059
 21
-1669.0540071536759
 31
0.0
  0
LINE
  5
277A5
  8
0
  6
BYBLOCK
 10
3766.3292877914068
 20
-1669.5899055336761
 30
0.0
 11
3768.3292877914059
 21
-1669.5899055336761
 31
0.0
  0
LINE
  5
277A6
  8
0
  6
BYBLOCK
 10
3793.329287791445
 20
-1669.0540071536759
 30
0.0
 11
3795.329287791445
 21
-1669.5899055336761
 31
0.0
  0
LINE
  5
277A7
  8
0
  6
BYBLOCK
 10
3795.329287791445
 20
-1669.5899055336761
 30
0.0
 11
3793.329287791445
 21
-1670.1258039136751
 31
0.0
  0
LINE
  5
277A8
  8
0
  6
BYBLOCK
 10
3795.329287791445
 20
-1669.5899055336761
 30
0.0
 11
3793.329287791445
 21
-1669.5899055336761
 31
0.0
  0
TEXT
  5
277A9
  8
1DIM
 10
3629.7459544580729
 20
-1668.889905533676
 30
0.0
 40
3.5
  1
145
  0
LINE
  5
277AA
  8
0
  6
BYBLOCK
 10
3704.3292877914059
 20
-1669.0540071536759
 30
0.0
 11
3706.3292877914068
 21
-1669.5899055336761
 31
0.0
  0
LINE
  5
277AB
  8
0
  6
BYBLOCK
 10
3706.3292877914068
 20
-1669.5899055336761
 30
0.0
 11
3704.3292877914059
 21
-1670.1258039136751
 31
0.0
  0
LINE
  5
277AC
  8
0
  6
BYBLOCK
 10
3706.3292877914068
 20
-1669.5899055336761
 30
0.0
 11
3704.3292877914059
 21
-1669.5899055336761
 31
0.0
  0
LINE
  5
277AD
  8
0
  6
BYBLOCK
 10
3563.3292877914068
 20
-1670.1258039136751
 30
0.0
 11
3561.3292877914059
 21
-1669.5899055336761
 31
0.0
  0
LINE
  5
277AE
  8
0
  6
BYBLOCK
 10
3561.3292877914059
 20
-1669.5899055336761
 30
0.0
 11
3563.3292877914068
 21
-1669.0540071536759
 31
0.0
  0
LINE
  5
277AF
  8
0
  6
BYBLOCK
 10
3561.3292877914059
 20
-1669.5899055336761
 30
0.0
 11
3563.3292877914068
 21
-1669.5899055336761
 31
0.0
  0
TEXT
  5
277B0
  8
1DIM
 10
3715.629287791407
 20
-1743.689905533676
 30
0.0
 40
3.5
  1
121
 50
90.0
  0
LINE
  5
277B1
  8
0
  6
BYBLOCK
 10
3715.7933894114071
 20
-1681.5899055336761
 30
0.0
 11
3716.3292877914068
 21
-1679.5899055336761
 31
0.0
  0
LINE
  5
277B2
  8
0
  6
BYBLOCK
 10
3716.3292877914068
 20
-1679.5899055336761
 30
0.0
 11
3716.865186171407
 21
-1681.5899055336761
 31
0.0
  0
LINE
  5
277B3
  8
0
  6
BYBLOCK
 10
3716.3292877914068
 20
-1679.5899055336761
 30
0.0
 11
3716.3292877914068
 21
-1681.5899055336761
 31
0.0
  0
LINE
  5
277B4
  8
0
  6
BYBLOCK
 10
3716.865186171407
 20
-1798.789905533677
 30
0.0
 11
3716.3292877914068
 21
-1800.789905533677
 31
0.0
  0
LINE
  5
277B5
  8
0
  6
BYBLOCK
 10
3716.3292877914068
 20
-1800.789905533677
 30
0.0
 11
3715.7933894114071
 21
-1798.789905533677
 31
0.0
  0
LINE
  5
277B6
  8
0
  6
BYBLOCK
 10
3716.3292877914068
 20
-1800.789905533677
 30
0.0
 11
3716.3292877914068
 21
-1798.789905533677
 31
0.0
  0
TEXT
  5
277B7
  8
1DIM
 10
3755.629287791407
 20
-1690.606572200342
 30
0.0
 40
3.5
  1
12.7
 50
90.0
  0
LINE
  5
277B8
  8
0
  6
BYBLOCK
 10
3755.7933894114071
 20
-1681.5899055336761
 30
0.0
 11
3756.3292877914068
 21
-1679.5899055336761
 31
0.0
  0
LINE
  5
277B9
  8
0
  6
BYBLOCK
 10
3756.3292877914068
 20
-1679.5899055336761
 30
0.0
 11
3756.865186171407
 21
-1681.5899055336761
 31
0.0
  0
LINE
  5
277BA
  8
0
  6
BYBLOCK
 10
3756.3292877914068
 20
-1679.5899055336761
 30
0.0
 11
3756.3292877914068
 21
-1681.5899055336761
 31
0.0
  0
LINE
  5
277BB
  8
0
  6
BYBLOCK
 10
3756.865186171407
 20
-1690.2899055336759
 30
0.0
 11
3756.3292877914068
 21
-1692.2899055336759
 31
0.0
  0
LINE
  5
277BC
  8
0
  6
BYBLOCK
 10
3756.3292877914068
 20
-1692.2899055336759
 30
0.0
 11
3755.7933894114071
 21
-1690.2899055336759
 31
0.0
  0
LINE
  5
277BD
  8
0
  6
BYBLOCK
 10
3756.3292877914068
 20
-1692.2899055336759
 30
0.0
 11
3756.3292877914068
 21
-1690.2899055336759
 31
0.0
  0
TEXT
  5
277BE
  8
1HATCH
 10
3550.629287791407
 20
-1785.0815722003431
 30
0.0
 40
3.5
  1
P=150
 50
90.0
  0
LINE
  5
277BF
  8
0
  6
BYBLOCK
 10
3550.7933894114062
 20
-1704.789905533677
 30
0.0
 11
3551.3292877914059
 21
-1702.789905533677
 31
0.0
  0
LINE
  5
277C0
  8
0
  6
BYBLOCK
 10
3551.3292877914059
 20
-1702.789905533677
 30
0.0
 11
3551.865186171407
 21
-1704.789905533677
 31
0.0
  0
LINE
  5
277C1
  8
0
  6
BYBLOCK
 10
3551.3292877914059
 20
-1702.789905533677
 30
0.0
 11
3551.3292877914059
 21
-1704.789905533677
 31
0.0
  0
LINE
  5
277C2
  8
0
  6
BYBLOCK
 10
3551.865186171407
 20
-1850.789905533677
 30
0.0
 11
3551.3292877914059
 21
-1852.789905533677
 31
0.0
  0
LINE
  5
277C3
  8
0
  6
BYBLOCK
 10
3551.3292877914059
 20
-1852.789905533677
 30
0.0
 11
3550.7933894114062
 21
-1850.789905533677
 31
0.0
  0
LINE
  5
277C4
  8
0
  6
BYBLOCK
 10
3551.3292877914059
 20
-1852.789905533677
 30
0.0
 11
3551.3292877914059
 21
-1850.789905533677
 31
0.0
  0
LINE
  5
277C5
  8
1DIM
 10
3699.7887734466472
 20
-1680.9260932990901
 30
0.0
 11
3716.1817614373731
 21
-1668.2992299497539
 31
0.0
  0
LINE
  5
277C6
  8
1DIM
 10
3716.1817614373731
 20
-1668.2992299497539
 30
0.0
 11
3718.8817614373729
 21
-1668.2992299497539
 31
0.0
  0
LINE
  5
277C7
  8
1DIM
 10
3654.8847183998801
 20
-1743.8357038537899
 30
0.0
 11
3720.5299497752112
 21
-1730.3897186052041
 31
0.0
  0
LINE
  5
277C8
  8
1DIM
 10
3720.5299497752112
 20
-1730.3897186052041
 30
0.0
 11
3721.229949775211
 21
-1730.3897186052041
 31
0.0
  0
VIEWPORT
  5
57
 67
     1
  8
0
 10
-12.71820606546887
 20
10.09248672500371
 30
0.0
 40
420.14405230704932
 41
282.94656973952618
 68
     1
 69
     1
1001
ACAD
1000
MVIEW
1002
{
1070
    16
1010
0.0
1020
0.0
1030
0.0
1010
0.0
1020
0.0
1030
1.0
1040
0.0
1040
282.94656973952618
1040
-12.71820606546887
1040
10.09248672500371
1040
50.0
1040
0.0
1040
0.0
1070
     0
1070
   100
1070
     1
1070
     1
1070
     0
1070
     0
1070
     0
1070
     0
1040
0.0
1040
0.0
1040
0.0
1040
10.0
1040
10.0
1040
10.0
1040
10.0
1070
     0
1002
{
1002
}
1002
}
  0
ENDSEC
  0
EOF
