  0
SECTION
  2
HEADER
  9
$ACADVER
  1
AC1009
  9
$INSBASE
 10
0.0
 20
0.0
 30
0.0
  9
$EXTMIN
 10
3553.0758036554448
 20
-1802.8390757779609
 30
0.0
  9
$EXTMAX
 10
3897.038058267889
 20
-1595.709549665854
 30
0.0
  9
$LIMMIN
 10
0.0
 20
0.0
  9
$LIMMAX
 10
420.0
 20
297.0
  9
$ORTHOMODE
 70
     0
  9
$REGENMODE
 70
     1
  9
$FILLMODE
 70
     1
  9
$QTEXTMODE
 70
     0
  9
$MIRRTEXT
 70
     0
  9
$DRAGMODE
 70
     2
  9
$LTSCALE
 40
0.5
  9
$OSMODE
 70
  2175
  9
$ATTMODE
 70
     1
  9
$TEXTSIZE
 40
4.0
  9
$TRACEWID
 40
1.0
  9
$TEXTSTYLE
  7
STANDARD
  9
$CLAYER
  8
1TEXT
  9
$CELTYPE
  6
BYLAYER
  9
$CECOLOR
 62
   256
  9
$DIMSCALE
 40
1.0
  9
$DIMASZ
 40
2.0
  9
$DIMEXO
 40
0.0
  9
$DIMDLI
 40
7.0
  9
$DIMRND
 40
0.0
  9
$DIMDLE
 40
0.0
  9
$DIMEXE
 40
1.0
  9
$DIMTP
 40
0.0
  9
$DIMTM
 40
0.0
  9
$DIMTXT
 40
3.5
  9
$DIMCEN
 40
0.0
  9
$DIMTSZ
 40
0.0
  9
$DIMTOL
 70
     0
  9
$DIMLIM
 70
     0
  9
$DIMTIH
 70
     0
  9
$DIMTOH
 70
     0
  9
$DIMSE1
 70
     0
  9
$DIMSE2
 70
     0
  9
$DIMTAD
 70
     1
  9
$DIMZIN
 70
     8
  9
$DIMBLK
  1

  9
$DIMASO
 70
     1
  9
$DIMSHO
 70
     1
  9
$DIMPOST
  1
 
  9
$DIMAPOST
  1

  9
$DIMALT
 70
     0
  9
$DIMALTD
 70
     2
  9
$DIMALTF
 40
25.399999999999999
  9
$DIMLFAC
 40
1.0
  9
$DIMTOFL
 70
     1
  9
$DIMTVP
 40
0.0
  9
$DIMTIX
 70
     0
  9
$DIMSOXD
 70
     0
  9
$DIMSAH
 70
     1
  9
$DIMBLK1
  1
OPEN30
  9
$DIMBLK2
  1
OPEN30
  9
$DIMSTYLE
  2
NEWX10
  9
$DIMCLRD
 70
   256
  9
$DIMCLRE
 70
   256
  9
$DIMCLRT
 70
   201
  9
$DIMTFAC
 40
0.7
  9
$DIMGAP
 40
0.7
  9
$LUNITS
 70
     2
  9
$LUPREC
 70
     4
  9
$SKETCHINC
 40
1.0
  9
$FILLETRAD
 40
0.0
  9
$AUNITS
 70
     0
  9
$AUPREC
 70
     2
  9
$MENU
  1
acad
  9
$ELEVATION
 40
0.0
  9
$PELEVATION
 40
0.0
  9
$THICKNESS
 40
0.0
  9
$LIMCHECK
 70
     0
  9
$BLIPMODE
 70
     0
  9
$CHAMFERA
 40
1.0
  9
$CHAMFERB
 40
1.0
  9
$SKPOLY
 70
     0
  9
$TDCREATE
 40
2453033.7326634838
  9
$TDUPDATE
 40
2456119.4442122341
  9
$TDINDWG
 40
2.6043456944000001
  9
$TDUSRTIMER
 40
2.6043456944000001
  9
$USRTIMER
 70
     1
  9
$ANGBASE
 50
0.0
  9
$ANGDIR
 70
     0
  9
$PDMODE
 70
     0
  9
$PDSIZE
 40
0.0
  9
$PLINEWID
 40
0.0
  9
$COORDS
 70
     2
  9
$SPLFRAME
 70
     0
  9
$SPLINETYPE
 70
     6
  9
$SPLINESEGS
 70
     8
  9
$ATTDIA
 70
     0
  9
$ATTREQ
 70
     1
  9
$HANDLING
 70
     1
  9
$HANDSEED
  5
26A3D
  9
$SURFTAB1
 70
     6
  9
$SURFTAB2
 70
     6
  9
$SURFTYPE
 70
     6
  9
$SURFU
 70
     6
  9
$SURFV
 70
     6
  9
$UCSNAME
  2

  9
$UCSORG
 10
0.0
 20
0.0
 30
0.0
  9
$UCSXDIR
 10
1.0
 20
0.0
 30
0.0
  9
$UCSYDIR
 10
0.0
 20
1.0
 30
0.0
  9
$PUCSNAME
  2

  9
$PUCSORG
 10
0.0
 20
0.0
 30
0.0
  9
$PUCSXDIR
 10
1.0
 20
0.0
 30
0.0
  9
$PUCSYDIR
 10
0.0
 20
1.0
 30
0.0
  9
$USERI1
 70
     0
  9
$USERI2
 70
     0
  9
$USERI3
 70
     0
  9
$USERI4
 70
     0
  9
$USERI5
 70
     0
  9
$USERR1
 40
0.0
  9
$USERR2
 40
0.0
  9
$USERR3
 40
0.0
  9
$USERR4
 40
0.0
  9
$USERR5
 40
0.0
  9
$WORLDVIEW
 70
     1
  9
$SHADEDGE
 70
     3
  9
$SHADEDIF
 70
    70
  9
$TILEMODE
 70
     1
  9
$MAXACTVP
 70
    48
  9
$PLIMCHECK
 70
     0
  9
$PEXTMIN
 10
1.0000000000000000E+020
 20
1.0000000000000000E+020
 30
1.0000000000000000E+020
  9
$PEXTMAX
 10
-1.0000000000000000E+020
 20
-1.0000000000000000E+020
 30
-1.0000000000000000E+020
  9
$PLIMMIN
 10
0.0
 20
0.0
  9
$PLIMMAX
 10
420.0
 20
297.0
  9
$UNITMODE
 70
     0
  9
$VISRETAIN
 70
     1
  9
$PLINEGEN
 70
     0
  9
$PSLTSCALE
 70
     1
  0
ENDSEC
  0
SECTION
  2
TABLES
  0
TABLE
  2
VPORT
 70
     1
  0
VPORT
  2
*ACTIVE
 70
     0
 10
0.0
 20
0.0
 11
1.0
 21
1.0
 12
3725.0084810524231
 22
-1699.2505140683541
 13
0.0
 23
0.0
 14
10.0
 24
10.0
 15
10.0
 25
10.0
 16
0.0
 26
0.0
 36
1.0
 17
0.0
 27
0.0
 37
0.0
 40
245.36508338788349
 41
1.4848883048620229
 42
50.0
 43
0.0
 44
0.0
 50
0.0
 51
0.0
 71
     0
 72
   100
 73
     1
 74
     1
 75
     0
 76
     0
 77
     0
 78
     0
  0
ENDTAB
  0
TABLE
  2
LTYPE
 70
    15
  0
LTYPE
  2
CONTINUOUS
 70
     0
  3
Solid line
 72
    65
 73
     0
 40
0.0
  0
LTYPE
  2
CENTER2
 70
     0
  3
Center (.5x) ___ _ ___ _ ___ _ ___ _ ___ _ ___
 72
    65
 73
     4
 40
28.574999999999999
 49
19.050000000000001
 49
-3.1749999999999989
 49
3.1749999999999989
 49
-3.1749999999999989
  0
LTYPE
  2
PHANTOM2
 70
     0
  3
Phantom (.5x) ___ _ _ ___ _ _ ___ _ _ ___ _ _
 72
    65
 73
     6
 40
31.75
 49
15.875
 49
-3.1749999999999989
 49
3.1749999999999989
 49
-3.1749999999999989
 49
3.1749999999999989
 49
-3.1749999999999989
  0
ENDTAB
  0
TABLE
  2
LAYER
 70
    47
  0
LAYER
  2
0
 70
     0
 62
     7
  6
CONTINUOUS
  0
LAYER
  2
1CENTER
 70
     0
 62
     7
  6
CENTER2
  0
LAYER
  2
1TEXT
 70
     0
 62
     7
  6
CONTINUOUS
  0
LAYER
  2
1DIM
 70
     0
 62
     7
  6
CONTINUOUS
  0
LAYER
  2
1PHANTOM
 70
     0
 62
     7
  6
PHANTOM2
  0
LAYER
  2
01
 70
     0
 62
     1
  6
CONTINUOUS
  0
LAYER
  2
1HATCH
 70
     0
 62
     7
  6
CONTINUOUS
  0
ENDTAB
  0
TABLE
  2
STYLE
 70
    24
  0
STYLE
  2
STANDARD
 70
     0
 40
0.0
 41
1.0
 50
0.0
 71
     0
 42
4.0
  3
txt.shx
  4
extfont.shx
  0
ENDTAB
  0
TABLE
  2
VIEW
 70
     5
  0
ENDTAB
  0
TABLE
  2
UCS
 70
     0
  0
ENDTAB
  0
TABLE
  2
APPID
 70
    14
  0
APPID
  2
ACAD
 70
     0
  0
APPID
  2
DRAWINGVARIABLESXDATA
 70
     0
  0
APPID
  2
CONTENTTABDATA
 70
     0
  0
APPID
  2
CONTENTCURRENTTAB
 70
     0
  0
APPID
  2
CONTENTBLOCKDESCRIPTION
 70
     0
  0
APPID
  2
CONTENTBLOCKICON
 70
     0
  0
APPID
  2
CONTENTLONGBLOCKNAME
 70
     0
  0
APPID
  2
ACAD_PSEXT
 70
     0
  0
APPID
  2
ACAD_DSTYLE_DIMTEXT_FILL
 70
     0
  0
APPID
  2
ACAD_MLEADERVER
 70
     0
  0
APPID
  2
ACAD_DSTYLE_DIMRADIAL_EXTENSION
 70
     0
  0
APPID
  2
ACADANNOTATIVE
 70
     0
  0
APPID
  2
ACLAYERTOOLS
 70
     0
  0
APPID
  2
ACAD_EXEMPT_FROM_CAD_STANDARDS
 70
     0
  0
ENDTAB
  0
TABLE
  2
DIMSTYLE
 70
    10
  0
DIMSTYLE
  2
NEWX10
 70
     0
  3
 
  4

  5

  6
OPEN30
  7
OPEN30
 40
1.0
 41
2.0
 42
0.0
 43
7.0
 44
1.0
 45
0.0
 46
0.0
 47
0.0
 48
0.0
140
3.5
141
0.0
142
0.0
143
25.399999999999999
144
1.0
145
0.0
146
0.7
147
0.7
 71
     0
 72
     0
 73
     0
 74
     0
 75
     0
 76
     0
 77
     1
 78
     8
170
     0
171
     2
172
     1
173
     1
174
     0
175
     0
176
   256
177
   256
178
   201
  0
ENDTAB
  0
ENDSEC
  0
SECTION
  2
BLOCKS
  0
BLOCK
  8
0
  2
$MODEL_SPACE
 70
     0
 10
0.0
 20
0.0
 30
0.0
  3
$MODEL_SPACE
  1

  0
ENDBLK
  5
1A
  8
0
  0
BLOCK
 67
     1
  8
0
  2
$PAPER_SPACE
 70
     0
 10
0.0
 20
0.0
 30
0.0
  3
$PAPER_SPACE
  1

  0
ENDBLK
  5
17
 67
     1
  8
0
  0
BLOCK
  8
0
  2
_OPEN30
 70
     0
 10
0.0
 20
0.0
 30
0.0
  3
_OPEN30
  1

  0
LINE
  5
44
  8
0
  6
BYBLOCK
 62
     0
 10
-1.0
 20
0.26794919
 30
0.0
 11
0.0
 21
0.0
 31
0.0
  0
LINE
  5
45
  8
0
  6
BYBLOCK
 62
     0
 10
0.0
 20
0.0
 30
0.0
 11
-1.0
 21
-0.26794919
 31
0.0
  0
LINE
  5
46
  8
0
  6
BYBLOCK
 62
     0
 10
0.0
 20
0.0
 30
0.0
 11
-1.0
 21
0.0
 31
0.0
  0
ENDBLK
  5
47
  8
0
  0
ENDSEC
  0
SECTION
  2
ENTITIES
  0
LINE
  5
25395
  8
1DIM
 10
3764.758785468011
 20
-1617.3774270093811
 30
0.0
 11
3834.758785468011
 21
-1617.37742700938
 31
0.0
  0
LINE
  5
25396
  8
1DIM
 10
3764.758785468011
 20
-1610.3774270093811
 30
0.0
 11
3834.758785468011
 21
-1610.37742700938
 31
0.0
  0
TEXT
  5
25397
  8
1TEXT
 10
3810.3587854680118
 20
-1615.8774270093811
 30
0.0
 40
4.0
  1
コード
 72
     1
 11
3817.158785468012
 21
-1615.8774270093811
 31
0.0
  0
TEXT
  5
25398
  8
1TEXT
 10
3776.158785468011
 20
-1615.8774270093811
 30
0.0
 40
4.0
  1
仕上げ
 41
0.9
 72
     1
 11
3782.158785468011
 21
-1615.8774270093811
 31
0.0
  0
LINE
  5
25399
  8
1DIM
 10
3764.7587854680119
 20
-1624.3774270093811
 30
0.0
 11
3834.758785468011
 21
-1624.3774270093811
 31
0.0
  0
LINE
  5
2539B
  8
1DIM
 10
3764.7587854680119
 20
-1610.3774270093811
 30
0.0
 11
3764.7587854680119
 21
-1638.3774270093811
 31
0.0
  0
LINE
  5
2539C
  8
1DIM
 10
3834.758785468011
 20
-1610.37742700938
 30
0.0
 11
3834.758785468011
 21
-1638.377427009382
 31
0.0
  0
TEXT
  5
2539F
  8
1TEXT
 10
3763.5574959849519
 20
-1606.0862977832901
 30
0.0
 40
8.0
  1
GP-116-X
  0
LINE
  5
253A0
  8
1DIM
 10
3764.758785468011
 20
-1631.3774270093811
 30
0.0
 11
3834.758785468011
 21
-1631.3774270093811
 31
0.0
  0
LINE
  5
253A3
  8
1DIM
 10
3764.7587854680119
 20
-1638.377427009382
 30
0.0
 11
3834.758785468011
 21
-1638.377427009382
 31
0.0
  0
LINE
  5
25587
  8
1DIM
 10
3799.758785468011
 20
-1610.37742700938
 30
0.0
 11
3799.758785468011
 21
-1638.377427009382
 31
0.0
  0
LINE
  5
25DBF
  8
01
 10
3692.5380582678931
 20
-1687.3390757779621
 30
0.0
 11
3692.5380582678931
 21
-1725.8390757779621
 31
0.0
  0
ARC
  5
25DC0
  8
01
 10
3695.538058267894
 20
-1687.3390757779621
 30
0.0
 40
3.0
 50
90.0
 51
180.0
  0
LINE
  5
25DC1
  8
01
 10
3692.5380582678931
 20
-1725.8390757779621
 30
0.0
 11
3654.5380582678931
 21
-1725.8390757779621
 31
0.0
  0
LINE
  5
25DC2
  8
01
 10
3740.5380582678931
 20
-1726.3390757779621
 30
0.0
 11
3738.538058267894
 21
-1726.3390757779621
 31
0.0
  0
LINE
  5
25DC3
  8
01
 10
3608.5380582678949
 20
-1726.3390757779621
 30
0.0
 11
3606.538058267894
 21
-1726.3390757779621
 31
0.0
  0
ARC
  5
25DC4
  8
01
 10
3606.538058267894
 20
-1723.3390757779621
 30
0.0
 40
3.0
 50
180.0
 51
270.0
  0
ARC
  5
25DC5
  8
01
 10
3740.5380582678931
 20
-1723.3390757779621
 30
0.0
 40
3.0
 50
270.0
 51
0.0
  0
LINE
  5
25DCA
  8
01
 10
3603.5380582678931
 20
-1687.3390757779621
 30
0.0
 11
3603.538058267894
 21
-1723.3390757779621
 31
0.0
  0
ARC
  5
25DCB
  8
01
 10
3606.538058267894
 20
-1687.3390757779621
 30
0.0
 40
3.0
 50
90.0
 51
180.0
  0
LINE
  5
25DCC
  8
01
 10
3743.538058267894
 20
-1687.3390757779621
 30
0.0
 11
3743.5380582678931
 21
-1723.3390757779621
 31
0.0
  0
LINE
  5
25DCD
  8
01
 10
3738.538058267894
 20
-1726.3390757779621
 30
0.0
 11
3738.538058267894
 21
-1731.83907577796
 31
0.0
  0
LINE
  5
25DCF
  8
01
 10
3695.538058267894
 20
-1684.339075777963
 30
0.0
 11
3740.538058267894
 21
-1684.339075777963
 31
0.0
  0
ARC
  5
25DD0
  8
01
 10
3740.538058267894
 20
-1687.3390757779621
 30
0.0
 40
3.0
 50
0.0
 51
90.0
  0
LINE
  5
25DD1
  8
01
 10
3654.5380582678931
 20
-1687.3390757779621
 30
0.0
 11
3654.5380582678931
 21
-1725.8390757779621
 31
0.0
  0
LINE
  5
25DD2
  8
01
 10
3651.5380582678931
 20
-1684.339075777963
 30
0.0
 11
3606.538058267894
 21
-1684.339075777963
 31
0.0
  0
ARC
  5
25DD3
  8
01
 10
3651.5380582678931
 20
-1687.3390757779621
 30
0.0
 40
3.0
 50
0.0
 51
90.0
  0
LINE
  5
25DD4
  8
01
 10
3608.5380582678931
 20
-1726.3390757779621
 30
0.0
 11
3608.5380582678931
 21
-1731.83907577796
 31
0.0
  0
LINE
  5
25DF6
  8
01
 10
3601.038058267894
 20
-1736.8390757779609
 30
0.0
 11
3601.038058267894
 21
-1766.8390757779609
 31
0.0
  0
ARC
  5
25DF7
  8
01
 10
3606.038058267894
 20
-1766.8390757779609
 30
0.0
 40
5.0
 50
180.0
 51
270.0
  0
LINE
  5
25DF8
  8
01
 10
3746.038058267894
 20
-1736.8390757779609
 30
0.0
 11
3746.038058267894
 21
-1766.8390757779609
 31
0.0
  0
ARC
  5
25DF9
  8
01
 10
3741.038058267894
 20
-1736.8390757779609
 30
0.0
 40
5.0
 50
0.0
 51
90.0
  0
LINE
  5
25DFA
  8
01
 10
3741.038058267894
 20
-1771.8390757779609
 30
0.0
 11
3606.038058267894
 21
-1771.8390757779609
 31
0.0
  0
ARC
  5
25DFB
  8
01
 10
3741.038058267894
 20
-1766.8390757779609
 30
0.0
 40
5.0
 50
270.0
 51
0.0
  0
LINE
  5
25DFC
  8
01
 10
3741.038058267894
 20
-1731.83907577796
 30
0.0
 11
3606.038058267894
 21
-1731.83907577796
 31
0.0
  0
ARC
  5
25DFD
  8
01
 10
3606.038058267894
 20
-1736.8390757779609
 30
0.0
 40
5.0
 50
90.0
 51
180.0
  0
CIRCLE
  5
25E20
  8
01
 10
3726.5380582678931
 20
-1751.839075777963
 30
0.0
 40
6.0000000000025011
  0
CIRCLE
  5
25E21
  8
01
 10
3620.5380582678931
 20
-1751.839075777963
 30
0.0
 40
6.0000000000025011
  0
LINE
  5
25E3C
  8
01
 10
3628.0380582678922
 20
-1698.3390757779621
 30
0.0
 11
3628.0380582678899
 21
-1704.8390757779621
 31
0.0
  0
LINE
  5
25E3D
  8
01
 10
3644.0380582678922
 20
-1698.3390757779621
 30
0.0
 11
3644.038058267894
 21
-1704.8390757779621
 31
0.0
  0
LINE
  5
25E3E
  8
01
 10
3644.0380582678922
 20
-1704.8390757779621
 30
0.0
 11
3628.0380582678899
 21
-1704.8390757779621
 31
0.0
  0
LINE
  5
25E3F
  8
01
 10
3628.0380582678922
 20
-1698.3390757779621
 30
0.0
 11
3644.0380582678922
 21
-1698.3390757779621
 31
0.0
  0
ARC
  5
25E40
  8
01
 10
3611.538058267894
 20
-1705.3390757779559
 30
0.0
 40
6.5
 50
305.23441798457458
 51
234.76558201542539
  0
LINE
  5
25E41
  8
01
 10
3607.7880582678949
 20
-1718.8390757779559
 30
0.0
 11
3607.7880582678949
 21
-1710.648265923355
 31
0.0
  0
ARC
  5
25E42
  8
01
 10
3611.538058267894
 20
-1718.8390757779559
 30
0.0
 40
3.75
 50
180.0
 51
0.0
  0
LINE
  5
25E43
  8
01
 10
3615.288058267894
 20
-1718.8390757779559
 30
0.0
 11
3615.288058267894
 21
-1710.6482659233541
 31
0.0
  0
LINE
  5
25E44
  8
01
 10
3719.038058267894
 20
-1698.3390757779621
 30
0.0
 11
3719.0380582678972
 21
-1704.8390757779621
 31
0.0
  0
LINE
  5
25E45
  8
01
 10
3703.0380582678949
 20
-1698.3390757779621
 30
0.0
 11
3703.0380582678931
 21
-1704.8390757779621
 31
0.0
  0
LINE
  5
25E46
  8
01
 10
3703.0380582678949
 20
-1704.8390757779621
 30
0.0
 11
3719.0380582678972
 21
-1704.8390757779621
 31
0.0
  0
LINE
  5
25E47
  8
01
 10
3719.038058267894
 20
-1698.3390757779621
 30
0.0
 11
3703.0380582678949
 21
-1698.3390757779621
 31
0.0
  0
ARC
  5
25E48
  8
01
 10
3735.5380582678931
 20
-1705.3390757779559
 30
0.0
 40
6.5
 50
305.23441798457458
 51
234.76558201542539
  0
LINE
  5
25E49
  8
01
 10
3739.2880582678922
 20
-1718.8390757779559
 30
0.0
 11
3739.2880582678922
 21
-1710.648265923355
 31
0.0
  0
ARC
  5
25E4A
  8
01
 10
3735.5380582678931
 20
-1718.8390757779559
 30
0.0
 40
3.75
 50
180.0
 51
0.0
  0
LINE
  5
25E4B
  8
01
 10
3731.7880582678931
 20
-1718.8390757779559
 30
0.0
 11
3731.7880582678931
 21
-1710.6482659233541
 31
0.0
  0
LINE
  5
25F0B
  8
01
 10
3858.0380582678931
 20
-1732.839075777963
 30
0.0
 11
3858.5380582678872
 21
-1732.8390757779621
 31
0.0
  0
LINE
  5
25F0C
  8
01
 10
3858.0380582678899
 20
-1734.839075777963
 30
0.0
 11
3858.5380582678899
 21
-1734.839075777963
 31
0.0
  0
LINE
  5
25F0D
  8
01
 10
3856.0380582678931
 20
-1734.8390757779621
 30
0.0
 11
3856.0380582678899
 21
-1770.839075777963
 31
0.0
  0
ARC
  5
25F0E
  8
01
 10
3858.0380582678931
 20
-1734.839075777963
 30
0.0
 40
2.0
 50
90.0
 51
180.0
  0
LINE
  5
25F0F
  8
01
 10
3858.5380582678908
 20
-1684.339075777963
 30
0.0
 11
3860.5380582678899
 21
-1684.339075777963
 31
0.0
  0
LINE
  5
25F10
  8
01
 10
3858.5380582678872
 20
-1732.8390757779621
 30
0.0
 11
3858.5380582678908
 21
-1684.339075777963
 31
0.0
  0
LINE
  5
25F11
  8
01
 10
3860.5380582678899
 20
-1732.839075777963
 30
0.0
 11
3860.5380582678899
 21
-1684.339075777963
 31
0.0
  0
ARC
  5
25F12
  8
01
 10
3858.5380582678899
 20
-1732.839075777963
 30
0.0
 40
2.0
 50
270.0
 51
0.0
  0
LINE
  5
25F13
  8
01
 10
3856.0380582678899
 20
-1770.839075777963
 30
0.0
 11
3858.0380582678872
 21
-1770.839075777963
 31
0.0
  0
LINE
  5
25F14
  8
01
 10
3858.0380582678872
 20
-1770.839075777963
 30
0.0
 11
3858.0380582678899
 21
-1734.839075777963
 31
0.0
  0
LINE
  5
25F15
  8
01
 10
3858.5380582678881
 20
-1726.3390757779621
 30
0.0
 11
3860.5380582678899
 21
-1726.3390757779621
 31
0.0
  0
LINE
  5
25F16
  8
01
 10
3851.5380582678908
 20
-1731.83907577796
 30
0.0
 11
3855.5380582678931
 21
-1731.83907577796
 31
0.0
  0
LINE
  5
25F17
  8
01
 10
3851.0380582678922
 20
-1732.33907577796
 30
0.0
 11
3851.5380582678908
 21
-1731.83907577796
 31
0.0
  0
LINE
  5
25F18
  8
01
 10
3856.0380582678931
 20
-1732.33907577796
 30
0.0
 11
3856.0380582678922
 21
-1771.3390757779609
 31
0.0
  0
LINE
  5
25F19
  8
01
 10
3855.5380582678931
 20
-1731.83907577796
 30
0.0
 11
3856.0380582678931
 21
-1732.33907577796
 31
0.0
  0
LINE
  5
25F1A
  8
01
 10
3851.0380582678931
 20
-1732.3390757779609
 30
0.0
 11
3851.0380582678931
 21
-1771.3390757779609
 31
0.0
  0
LINE
  5
25F1C
  8
01
 10
3851.5380582678931
 20
-1771.8390757779609
 30
0.0
 11
3855.5380582678922
 21
-1771.8390757779609
 31
0.0
  0
LINE
  5
25F1D
  8
01
 10
3856.0380582678922
 20
-1771.3390757779609
 30
0.0
 11
3855.5380582678922
 21
-1771.8390757779609
 31
0.0
  0
LINE
  5
25F1E
  8
01
 10
3850.888058267893
 20
-1745.83907577796
 30
0.0
 11
3850.8880582679012
 21
-1757.8390757779609
 31
0.0
  0
LINE
  5
25F1F
  8
01
 10
3826.038058267894
 20
-1746.33907577796
 30
0.0
 11
3826.0380582678931
 21
-1757.33907577796
 31
0.0
  0
ARC
  5
25F20
  8
01
 10
3826.538058267894
 20
-1746.33907577796
 30
0.0
 40
0.5
 50
90.0
 51
180.0
  0
LINE
  5
25F21
  8
01
 10
3829.0380582678931
 20
-1746.33907577796
 30
0.0
 11
3829.038058267894
 21
-1757.33907577796
 31
0.0
  0
ARC
  5
25F22
  8
01
 10
3828.538058267894
 20
-1757.33907577796
 30
0.0
 40
0.5
 50
270.0
 51
0.0
  0
LINE
  5
25F23
  8
01
 10
3843.0380582678931
 20
-1746.33907577796
 30
0.0
 11
3843.0380582678931
 21
-1757.33907577796
 31
0.0
  0
ARC
  5
25F24
  8
01
 10
3843.538058267894
 20
-1746.33907577796
 30
0.0
 40
0.5
 50
90.0
 51
180.0
  0
LINE
  5
25F25
  8
01
 10
3850.8880582679012
 20
-1757.8390757779609
 30
0.0
 11
3843.538058267894
 21
-1757.83907577796
 31
0.0
  0
ARC
  5
25F26
  8
01
 10
3843.538058267894
 20
-1757.33907577796
 30
0.0
 40
0.5
 50
180.0
 51
270.0
  0
LINE
  5
25F27
  8
01
 10
3851.0380582678908
 20
-1756.33907577796
 30
0.0
 11
3850.888058267893
 21
-1756.33907577796
 31
0.0
  0
LINE
  5
25F28
  8
01
 10
3828.538058267894
 20
-1757.83907577796
 30
0.0
 11
3826.5380582678931
 21
-1757.83907577796
 31
0.0
  0
ARC
  5
25F29
  8
01
 10
3826.5380582678931
 20
-1757.33907577796
 30
0.0
 40
0.5
 50
180.0
 51
270.0
  0
LINE
  5
25F2A
  8
01
 10
3843.0380582678931
 20
-1754.83907577796
 30
0.0
 11
3829.038058267894
 21
-1754.83907577796
 31
0.0
  0
LINE
  5
25F2B
  8
01
 10
3850.888058267893
 20
-1745.83907577796
 30
0.0
 11
3843.538058267894
 21
-1745.83907577796
 31
0.0
  0
LINE
  5
25F2C
  8
01
 10
3851.038058267894
 20
-1747.33907577796
 30
0.0
 11
3850.888058267893
 21
-1747.33907577796
 31
0.0
  0
LINE
  5
25F2D
  8
01
 10
3828.5380582678931
 20
-1745.83907577796
 30
0.0
 11
3826.538058267894
 21
-1745.83907577796
 31
0.0
  0
ARC
  5
25F2E
  8
01
 10
3828.5380582678931
 20
-1746.33907577796
 30
0.0
 40
0.5
 50
0.0
 51
90.0
  0
LINE
  5
25F2F
  8
01
 10
3843.0380582678931
 20
-1748.83907577796
 30
0.0
 11
3829.038058267894
 21
-1748.83907577796
 31
0.0
  0
LINE
  5
25F30
  8
01
 10
3859.038058267889
 20
-1748.33907577796
 30
0.0
 11
3859.6380582678889
 21
-1748.33907577796
 31
0.0
  0
ARC
  5
25F31
  8
01
 10
3859.6380582678889
 20
-1750.33907577796
 30
0.0
 40
2.0
 50
0.0
 51
90.0
  0
LINE
  5
25F32
  8
01
 10
3861.6380582678889
 20
-1750.33907577796
 30
0.0
 11
3861.6380582678889
 21
-1753.33907577796
 31
0.0
  0
LINE
  5
25F33
  8
01
 10
3859.038058267889
 20
-1748.33907577796
 30
0.0
 11
3859.038058267889
 21
-1755.33907577796
 31
0.0
  0
ARC
  5
25F34
  8
01
 10
3859.6380582678889
 20
-1753.33907577796
 30
0.0
 40
2.0
 50
270.0
 51
0.0
  0
LINE
  5
25F35
  8
01
 10
3859.038058267889
 20
-1755.33907577796
 30
0.0
 11
3859.6380582678889
 21
-1755.33907577796
 31
0.0
  0
LINE
  5
25F37
  8
01
 10
3859.038058267889
 20
-1748.33907577796
 30
0.0
 11
3858.038058267889
 21
-1748.33907577796
 31
0.0
  0
LINE
  5
25F38
  8
01
 10
3859.038058267889
 20
-1751.83907577796
 30
0.0
 11
3858.038058267889
 21
-1752.41642604715
 31
0.0
  0
LINE
  5
25F39
  8
01
 10
3859.038058267889
 20
-1755.33907577796
 30
0.0
 11
3858.038058267889
 21
-1755.33907577796
 31
0.0
  0
LINE
  5
25F3A
  8
01
 10
3851.5380582678931
 20
-1771.8390757779609
 30
0.0
 11
3851.0380582678931
 21
-1771.3390757779609
 31
0.0
  0
LINE
  5
25F59
  8
01
 10
3743.538058267894
 20
-1595.709549665854
 30
0.0
 11
3603.538058267894
 21
-1595.709549665854
 31
0.0
  0
LINE
  5
25F5A
  8
01
 10
3743.538058267894
 20
-1597.709549665853
 30
0.0
 11
3603.5380582678931
 21
-1597.709549665853
 31
0.0
  0
LINE
  5
25F5B
  8
01
 10
3745.038058267894
 20
-1600.209549665851
 30
0.0
 11
3602.038058267894
 21
-1600.209549665851
 31
0.0
  0
LINE
  5
25F5C
  8
01
 10
3745.038058267894
 20
-1605.2095496658519
 30
0.0
 11
3602.038058267894
 21
-1605.2095496658519
 31
0.0
  0
LINE
  5
25F5D
  8
01
 10
3601.038058267894
 20
-1604.2095496658519
 30
0.0
 11
3601.038058267894
 21
-1601.209549665851
 31
0.0
  0
LINE
  5
25F5E
  8
01
 10
3746.038058267894
 20
-1604.2095496658519
 30
0.0
 11
3746.038058267894
 21
-1601.209549665851
 31
0.0
  0
LINE
  5
25F5F
  8
01
 10
3746.038058267894
 20
-1601.209549665851
 30
0.0
 11
3745.038058267894
 21
-1600.209549665851
 31
0.0
  0
LINE
  5
25F60
  8
01
 10
3746.038058267894
 20
-1604.2095496658519
 30
0.0
 11
3745.038058267894
 21
-1605.2095496658519
 31
0.0
  0
LINE
  5
25F62
  8
01
 10
3601.038058267894
 20
-1601.209549665851
 30
0.0
 11
3602.038058267894
 21
-1600.209549665851
 31
0.0
  0
LINE
  5
25F63
  8
01
 10
3601.038058267894
 20
-1604.2095496658519
 30
0.0
 11
3602.038058267894
 21
-1605.2095496658519
 31
0.0
  0
LINE
  5
25F66
  8
01
 10
3603.5380582678931
 20
-1597.709549665853
 30
0.0
 11
3603.5380582678931
 21
-1595.709549665854
 31
0.0
  0
LINE
  5
25F67
  8
01
 10
3743.538058267894
 20
-1597.709549665853
 30
0.0
 11
3743.538058267894
 21
-1595.709549665854
 31
0.0
  0
LINE
  5
25F6A
  8
01
 10
3738.538058267894
 20
-1600.209549665851
 30
0.0
 11
3738.538058267894
 21
-1597.709549665853
 31
0.0
  0
LINE
  5
25F6B
  8
01
 10
3608.5380582678931
 20
-1600.209549665851
 30
0.0
 11
3608.5380582678931
 21
-1597.709549665853
 31
0.0
  0
LINE
  5
25F80
  8
01
 10
3720.5380582678931
 20
-1605.3595496658511
 30
0.0
 11
3732.538058267894
 21
-1605.3595496658429
 31
0.0
  0
LINE
  5
25F81
  8
01
 10
3721.0380582678931
 20
-1630.2095496658501
 30
0.0
 11
3732.0380582678931
 21
-1630.209549665851
 31
0.0
  0
ARC
  5
25F82
  8
01
 10
3721.0380582678931
 20
-1629.7095496658501
 30
0.0
 40
0.5
 50
180.0
 51
270.0
  0
LINE
  5
25F83
  8
01
 10
3721.0380582678931
 20
-1627.209549665851
 30
0.0
 11
3732.0380582678931
 21
-1627.2095496658501
 31
0.0
  0
ARC
  5
25F84
  8
01
 10
3732.0380582678931
 20
-1627.7095496658501
 30
0.0
 40
0.5
 50
0.0
 51
90.0
  0
LINE
  5
25F85
  8
01
 10
3721.0380582678931
 20
-1613.2095496658501
 30
0.0
 11
3732.0380582678931
 21
-1613.2095496658501
 31
0.0
  0
ARC
  5
25F86
  8
01
 10
3721.0380582678931
 20
-1612.7095496658501
 30
0.0
 40
0.5
 50
180.0
 51
270.0
  0
LINE
  5
25F87
  8
01
 10
3732.538058267894
 20
-1605.3595496658429
 30
0.0
 11
3732.5380582678931
 21
-1612.7095496658501
 31
0.0
  0
ARC
  5
25F88
  8
01
 10
3732.0380582678931
 20
-1612.7095496658501
 30
0.0
 40
0.5
 50
270.0
 51
0.0
  0
LINE
  5
25F89
  8
01
 10
3731.0380582678931
 20
-1605.2095496658519
 30
0.0
 11
3731.0380582678931
 21
-1605.3595496658511
 31
0.0
  0
LINE
  5
25F8A
  8
01
 10
3732.5380582678931
 20
-1627.7095496658501
 30
0.0
 11
3732.5380582678931
 21
-1629.709549665851
 31
0.0
  0
ARC
  5
25F8B
  8
01
 10
3732.0380582678931
 20
-1629.709549665851
 30
0.0
 40
0.5
 50
270.0
 51
0.0
  0
LINE
  5
25F8C
  8
01
 10
3729.5380582678931
 20
-1613.209549665851
 30
0.0
 11
3729.5380582678931
 21
-1627.2095496658501
 31
0.0
  0
LINE
  5
25F8D
  8
01
 10
3720.5380582678931
 20
-1605.3595496658511
 30
0.0
 11
3720.5380582678931
 21
-1612.7095496658501
 31
0.0
  0
LINE
  5
25F8E
  8
01
 10
3722.038058267894
 20
-1605.209549665851
 30
0.0
 11
3722.038058267894
 21
-1605.3595496658511
 31
0.0
  0
LINE
  5
25F8F
  8
01
 10
3720.5380582678931
 20
-1627.709549665851
 30
0.0
 11
3720.5380582678931
 21
-1629.7095496658501
 31
0.0
  0
ARC
  5
25F90
  8
01
 10
3721.0380582678931
 20
-1627.709549665851
 30
0.0
 40
0.5
 50
90.0
 51
180.0
  0
LINE
  5
25F91
  8
01
 10
3723.538058267894
 20
-1613.2095496658501
 30
0.0
 11
3723.538058267894
 21
-1627.2095496658501
 31
0.0
  0
LINE
  5
25F92
  8
01
 10
3614.5380582678931
 20
-1605.3595496658511
 30
0.0
 11
3626.538058267894
 21
-1605.3595496658429
 31
0.0
  0
LINE
  5
25F93
  8
01
 10
3615.038058267894
 20
-1630.2095496658501
 30
0.0
 11
3626.0380582678931
 21
-1630.209549665851
 31
0.0
  0
ARC
  5
25F94
  8
01
 10
3615.038058267894
 20
-1629.7095496658501
 30
0.0
 40
0.5
 50
180.0
 51
270.0
  0
LINE
  5
25F95
  8
01
 10
3615.0380582678931
 20
-1627.209549665851
 30
0.0
 11
3626.0380582678931
 21
-1627.2095496658501
 31
0.0
  0
ARC
  5
25F96
  8
01
 10
3626.0380582678931
 20
-1627.7095496658501
 30
0.0
 40
0.5
 50
0.0
 51
90.0
  0
LINE
  5
25F97
  8
01
 10
3615.038058267894
 20
-1613.2095496658501
 30
0.0
 11
3626.0380582678931
 21
-1613.2095496658501
 31
0.0
  0
ARC
  5
25F98
  8
01
 10
3615.038058267894
 20
-1612.7095496658501
 30
0.0
 40
0.5
 50
180.0
 51
270.0
  0
LINE
  5
25F99
  8
01
 10
3626.538058267894
 20
-1605.3595496658429
 30
0.0
 11
3626.5380582678931
 21
-1612.7095496658501
 31
0.0
  0
ARC
  5
25F9A
  8
01
 10
3626.0380582678931
 20
-1612.7095496658501
 30
0.0
 40
0.5
 50
270.0
 51
0.0
  0
LINE
  5
25F9B
  8
01
 10
3625.0380582678931
 20
-1605.2095496658519
 30
0.0
 11
3625.0380582678931
 21
-1605.3595496658511
 31
0.0
  0
LINE
  5
25F9C
  8
01
 10
3626.5380582678931
 20
-1627.7095496658501
 30
0.0
 11
3626.5380582678931
 21
-1629.709549665851
 31
0.0
  0
ARC
  5
25F9D
  8
01
 10
3626.0380582678931
 20
-1629.709549665851
 30
0.0
 40
0.5
 50
270.0
 51
0.0
  0
LINE
  5
25F9E
  8
01
 10
3623.5380582678931
 20
-1613.209549665851
 30
0.0
 11
3623.5380582678931
 21
-1627.2095496658501
 31
0.0
  0
LINE
  5
25F9F
  8
01
 10
3614.5380582678931
 20
-1605.3595496658511
 30
0.0
 11
3614.5380582678931
 21
-1612.7095496658501
 31
0.0
  0
LINE
  5
25FA0
  8
01
 10
3616.0380582678931
 20
-1605.209549665851
 30
0.0
 11
3616.0380582678931
 21
-1605.3595496658511
 31
0.0
  0
LINE
  5
25FA1
  8
01
 10
3614.5380582678931
 20
-1627.709549665851
 30
0.0
 11
3614.5380582678931
 21
-1629.7095496658501
 31
0.0
  0
ARC
  5
25FA2
  8
01
 10
3615.0380582678931
 20
-1627.709549665851
 30
0.0
 40
0.5
 50
90.0
 51
180.0
  0
LINE
  5
25FA3
  8
01
 10
3617.5380582678931
 20
-1613.2095496658501
 30
0.0
 11
3617.5380582678931
 21
-1627.2095496658501
 31
0.0
  0
LINE
  5
25FB2
  8
01
 10
3766.038058267894
 20
-1736.8390757779609
 30
0.0
 11
3766.038058267894
 21
-1766.8390757779609
 31
0.0
  0
LINE
  5
262A4
  8
1PHANTOM
 10
3856.038058267889
 20
-1646.7139883818611
 30
0.0
 11
3856.038058267889
 21
-1727.3390757779589
 31
0.0
  0
LINE
  5
262A5
  8
1PHANTOM
 10
3851.038058267889
 20
-1650.163741109782
 30
0.0
 11
3851.038058267889
 21
-1727.3390757779589
 31
0.0
  0
LINE
  5
262A6
  8
1PHANTOM
 10
3852.038058267889
 20
-1728.3390757779589
 30
0.0
 11
3851.038058267889
 21
-1727.3390757779589
 31
0.0
  0
LINE
  5
262A7
  8
1PHANTOM
 10
3852.038058267889
 20
-1728.3390757779589
 30
0.0
 11
3855.038058267889
 21
-1728.3390757779589
 31
0.0
  0
LINE
  5
262A8
  8
1PHANTOM
 10
3856.038058267889
 20
-1727.3390757779589
 30
0.0
 11
3855.038058267889
 21
-1728.3390757779589
 31
0.0
  0
LINE
  5
262A9
  8
1PHANTOM
 10
3856.038058267889
 20
-1726.33907577796
 30
0.0
 11
3857.038058267889
 21
-1726.33907577796
 31
0.0
  0
LINE
  5
262AA
  8
1PHANTOM
 10
3856.038058267889
 20
-1646.7139883818611
 30
0.0
 11
3856.038058267889
 21
-1726.33907577796
 31
0.0
  0
LINE
  5
262AB
  8
1PHANTOM
 10
3857.038058267889
 20
-1646.1709610256939
 30
0.0
 11
3857.038058267889
 21
-1726.33907577796
 31
0.0
  0
LINE
  5
262AC
  8
1PHANTOM
 10
3601.038058267894
 20
-1651.6554961469319
 30
0.0
 11
3601.038058267894
 21
-1723.3390757779589
 31
0.0
  0
ARC
  5
262AD
  8
1PHANTOM
 10
3606.038058267894
 20
-1723.3390757779589
 30
0.0
 40
5.0
 50
180.0
 51
270.0
  0
LINE
  5
262AE
  8
1PHANTOM
 10
3746.038058267894
 20
-1650.852940873933
 30
0.0
 11
3746.038058267894
 21
-1723.3390757779589
 31
0.0
  0
ARC
  5
262AF
  8
1PHANTOM
 10
3741.038058267894
 20
-1723.3390757779589
 30
0.0
 40
5.0
 50
270.0
 51
0.0
  0
LINE
  5
262B0
  8
1PHANTOM
 10
3606.038058267894
 20
-1728.3390757779589
 30
0.0
 11
3741.038058267894
 21
-1728.3390757779589
 31
0.0
  0
LINE
  5
262B2
  8
1PHANTOM
 10
3877.038058267889
 20
-1740.480777822434
 30
0.0
 11
3877.038058267889
 21
-1647.863670065004
 31
0.0
  0
LINE
  5
262B3
  8
1PHANTOM
 10
3897.038058267889
 20
-1740.480777822434
 30
0.0
 11
3897.038058267889
 21
-1648.7980571056039
 31
0.0
  0
LINE
  5
262B4
  8
1PHANTOM
 10
3859.788058267889
 20
-1676.5890757779621
 30
0.0
 11
3859.788058267889
 21
-1679.3390757779621
 31
0.0
  0
LINE
  5
262B5
  8
1PHANTOM
 10
3876.038058267889
 20
-1679.3390757779609
 30
0.0
 11
3859.788058267889
 21
-1679.3390757779621
 31
0.0
  0
ARC
  5
262B6
  8
1PHANTOM
 10
3876.038058267889
 20
-1678.3390757779621
 30
0.0
 40
1.0
 50
270.0
 51
0.0
  0
LINE
  5
262B7
  8
1PHANTOM
 10
3857.038058267889
 20
-1676.5890757779621
 30
0.0
 11
3859.788058267889
 21
-1676.5890757779621
 31
0.0
  0
LINE
  5
262BC
  8
1PHANTOM
 10
3859.788058267889
 20
-1676.8390757779621
 30
0.0
 11
3858.538058267889
 21
-1676.8390757779621
 31
0.0
  0
LINE
  5
262BD
  8
1PHANTOM
 10
3859.788058267889
 20
-1678.3390757779621
 30
0.0
 11
3858.538058267889
 21
-1678.3390757779621
 31
0.0
  0
ARC
  5
262BE
  8
1PHANTOM
 10
3858.538058267889
 20
-1678.3390757779621
 30
0.0
 40
1.5
 50
90.0
 51
180.0
  0
LINE
  5
262BF
  8
1PHANTOM
 10
3858.538058267889
 20
-1678.3390757779621
 30
0.0
 11
3858.538058267889
 21
-1726.3390757779621
 31
0.0
  0
LINE
  5
262C2
  8
1PHANTOM
 10
3857.0380582678908
 20
-1726.3390757779621
 30
0.0
 11
3858.538058267889
 21
-1726.3390757779621
 31
0.0
  0
LINE
  5
262C5
  8
1PHANTOM
 10
3860.5380582678899
 20
-1699.8390757779621
 30
0.0
 11
3860.788058267889
 21
-1699.8390757779621
 31
0.0
  0
LINE
  5
262C6
  8
1PHANTOM
 10
3860.5380582678899
 20
-1698.3390757779621
 30
0.0
 11
3860.788058267889
 21
-1698.3390757779621
 31
0.0
  0
LINE
  5
262C7
  8
1PHANTOM
 10
3868.538058267889
 20
-1711.8390757779621
 30
0.0
 11
3868.0380582678899
 21
-1711.339075777963
 31
0.0
  0
LINE
  5
262C8
  8
1PHANTOM
 10
3868.0380582678899
 20
-1711.339075777963
 30
0.0
 11
3863.7380582678888
 21
-1711.3390757779621
 31
0.0
  0
LINE
  5
262C9
  8
1PHANTOM
 10
3868.538058267889
 20
-1711.8390757779621
 30
0.0
 11
3868.538058267889
 21
-1716.8390757779621
 31
0.0
  0
LINE
  5
262CA
  8
1PHANTOM
 10
3868.0380582678899
 20
-1717.3390757779621
 30
0.0
 11
3868.538058267889
 21
-1716.8390757779621
 31
0.0
  0
LINE
  5
262CB
  8
1PHANTOM
 10
3868.0380582678899
 20
-1717.3390757779621
 30
0.0
 11
3868.0380582678899
 21
-1711.339075777963
 31
0.0
  0
LINE
  5
262CC
  8
1PHANTOM
 10
3868.538058267889
 20
-1711.8390757779621
 30
0.0
 11
3863.7380582678888
 21
-1711.839075777963
 31
0.0
  0
LINE
  5
262CD
  8
1PHANTOM
 10
3868.538058267889
 20
-1716.8390757779621
 30
0.0
 11
3863.7380582678888
 21
-1716.8390757779621
 31
0.0
  0
LINE
  5
262CE
  8
1PHANTOM
 10
3868.0380582678899
 20
-1717.3390757779621
 30
0.0
 11
3863.7380582678888
 21
-1717.339075777963
 31
0.0
  0
ARC
  5
262CF
  8
1PHANTOM
 10
3860.788058267889
 20
-1698.3390757779621
 30
0.0
 40
1.5
 50
270.0
 51
340.52877936550419
  0
LINE
  5
262D0
  8
1PHANTOM
 10
3860.788058267889
 20
-1698.3390757779621
 30
0.0
 11
3861.788058267889
 21
-1695.5106486532161
 31
0.0
  0
LINE
  5
262D1
  8
1PHANTOM
 10
3862.2022718302628
 20
-1698.839075777963
 30
0.0
 11
3863.2022718302619
 21
-1696.0106486532161
 31
0.0
  0
LINE
  5
262D2
  8
1PHANTOM
 10
3863.2022718302619
 20
-1696.0106486532161
 30
0.0
 11
3861.788058267889
 21
-1695.5106486532161
 31
0.0
  0
POLYLINE
  8
1PHANTOM
  5
268B9
  66
     1
 10
0.000000
 20
0.000000
 30
0.000000
  70
     8
  0
VERTEX
  8
1PHANTOM
  5
268BA
 10
3851.04
 20
-1650.16
 30
0.000000
  70
    32
  0
VERTEX
  8
1PHANTOM
  5
268BB
 10
3851.26
 20
-1649.99
 30
0.000000
  70
    32
  0
VERTEX
  8
1PHANTOM
  5
268BC
 10
3851.47
 20
-1649.83
 30
0.000000
  70
    32
  0
VERTEX
  8
1PHANTOM
  5
268BD
 10
3851.69
 20
-1649.66
 30
0.000000
  70
    32
  0
VERTEX
  8
1PHANTOM
  5
268BE
 10
3851.91
 20
-1649.49
 30
0.000000
  70
    32
  0
VERTEX
  8
1PHANTOM
  5
268BF
 10
3852.12
 20
-1649.33
 30
0.000000
  70
    32
  0
VERTEX
  8
1PHANTOM
  5
268C0
 10
3852.34
 20
-1649.17
 30
0.000000
  70
    32
  0
VERTEX
  8
1PHANTOM
  5
268C1
 10
3852.56
 20
-1649.00
 30
0.000000
  70
    32
  0
VERTEX
  8
1PHANTOM
  5
268C2
 10
3852.78
 20
-1648.84
 30
0.000000
  70
    32
  0
VERTEX
  8
1PHANTOM
  5
268C3
 10
3853.00
 20
-1648.69
 30
0.000000
  70
    32
  0
VERTEX
  8
1PHANTOM
  5
268C4
 10
3853.22
 20
-1648.53
 30
0.000000
  70
    32
  0
VERTEX
  8
1PHANTOM
  5
268C5
 10
3853.43
 20
-1648.38
 30
0.000000
  70
    32
  0
VERTEX
  8
1PHANTOM
  5
268C6
 10
3853.65
 20
-1648.22
 30
0.000000
  70
    32
  0
VERTEX
  8
1PHANTOM
  5
268C7
 10
3853.87
 20
-1648.07
 30
0.000000
  70
    32
  0
VERTEX
  8
1PHANTOM
  5
268C8
 10
3854.09
 20
-1647.93
 30
0.000000
  70
    32
  0
VERTEX
  8
1PHANTOM
  5
268C9
 10
3854.31
 20
-1647.78
 30
0.000000
  70
    32
  0
VERTEX
  8
1PHANTOM
  5
268CA
 10
3854.53
 20
-1647.64
 30
0.000000
  70
    32
  0
VERTEX
  8
1PHANTOM
  5
268CB
 10
3854.75
 20
-1647.49
 30
0.000000
  70
    32
  0
VERTEX
  8
1PHANTOM
  5
268CC
 10
3854.97
 20
-1647.35
 30
0.000000
  70
    32
  0
VERTEX
  8
1PHANTOM
  5
268CD
 10
3855.19
 20
-1647.22
 30
0.000000
  70
    32
  0
VERTEX
  8
1PHANTOM
  5
268CE
 10
3855.41
 20
-1647.08
 30
0.000000
  70
    32
  0
VERTEX
  8
1PHANTOM
  5
268CF
 10
3855.63
 20
-1646.95
 30
0.000000
  70
    32
  0
VERTEX
  8
1PHANTOM
  5
268D0
 10
3855.86
 20
-1646.82
 30
0.000000
  70
    32
  0
VERTEX
  8
1PHANTOM
  5
268D1
 10
3856.08
 20
-1646.69
 30
0.000000
  70
    32
  0
VERTEX
  8
1PHANTOM
  5
268D2
 10
3856.30
 20
-1646.57
 30
0.000000
  70
    32
  0
VERTEX
  8
1PHANTOM
  5
268D3
 10
3856.52
 20
-1646.44
 30
0.000000
  70
    32
  0
VERTEX
  8
1PHANTOM
  5
268D4
 10
3856.74
 20
-1646.32
 30
0.000000
  70
    32
  0
VERTEX
  8
1PHANTOM
  5
268D5
 10
3856.97
 20
-1646.21
 30
0.000000
  70
    32
  0
VERTEX
  8
1PHANTOM
  5
268D6
 10
3857.19
 20
-1646.09
 30
0.000000
  70
    32
  0
VERTEX
  8
1PHANTOM
  5
268D7
 10
3857.41
 20
-1645.98
 30
0.000000
  70
    32
  0
VERTEX
  8
1PHANTOM
  5
268D8
 10
3857.64
 20
-1645.87
 30
0.000000
  70
    32
  0
VERTEX
  8
1PHANTOM
  5
268D9
 10
3857.86
 20
-1645.77
 30
0.000000
  70
    32
  0
VERTEX
  8
1PHANTOM
  5
268DA
 10
3858.09
 20
-1645.67
 30
0.000000
  70
    32
  0
VERTEX
  8
1PHANTOM
  5
268DB
 10
3858.31
 20
-1645.57
 30
0.000000
  70
    32
  0
VERTEX
  8
1PHANTOM
  5
268DC
 10
3858.54
 20
-1645.47
 30
0.000000
  70
    32
  0
VERTEX
  8
1PHANTOM
  5
268DD
 10
3858.76
 20
-1645.38
 30
0.000000
  70
    32
  0
VERTEX
  8
1PHANTOM
  5
268DE
 10
3858.99
 20
-1645.29
 30
0.000000
  70
    32
  0
VERTEX
  8
1PHANTOM
  5
268DF
 10
3859.21
 20
-1645.20
 30
0.000000
  70
    32
  0
VERTEX
  8
1PHANTOM
  5
268E0
 10
3859.44
 20
-1645.12
 30
0.000000
  70
    32
  0
VERTEX
  8
1PHANTOM
  5
268E1
 10
3859.67
 20
-1645.04
 30
0.000000
  70
    32
  0
VERTEX
  8
1PHANTOM
  5
268E2
 10
3859.90
 20
-1644.96
 30
0.000000
  70
    32
  0
VERTEX
  8
1PHANTOM
  5
268E3
 10
3860.12
 20
-1644.89
 30
0.000000
  70
    32
  0
VERTEX
  8
1PHANTOM
  5
268E4
 10
3860.35
 20
-1644.82
 30
0.000000
  70
    32
  0
VERTEX
  8
1PHANTOM
  5
268E5
 10
3860.58
 20
-1644.76
 30
0.000000
  70
    32
  0
VERTEX
  8
1PHANTOM
  5
268E6
 10
3860.81
 20
-1644.70
 30
0.000000
  70
    32
  0
VERTEX
  8
1PHANTOM
  5
268E7
 10
3861.04
 20
-1644.64
 30
0.000000
  70
    32
  0
VERTEX
  8
1PHANTOM
  5
268E8
 10
3861.27
 20
-1644.59
 30
0.000000
  70
    32
  0
VERTEX
  8
1PHANTOM
  5
268E9
 10
3861.50
 20
-1644.54
 30
0.000000
  70
    32
  0
VERTEX
  8
1PHANTOM
  5
268EA
 10
3861.73
 20
-1644.49
 30
0.000000
  70
    32
  0
VERTEX
  8
1PHANTOM
  5
268EB
 10
3861.96
 20
-1644.45
 30
0.000000
  70
    32
  0
VERTEX
  8
1PHANTOM
  5
268EC
 10
3862.19
 20
-1644.41
 30
0.000000
  70
    32
  0
VERTEX
  8
1PHANTOM
  5
268ED
 10
3862.43
 20
-1644.38
 30
0.000000
  70
    32
  0
VERTEX
  8
1PHANTOM
  5
268EE
 10
3862.66
 20
-1644.35
 30
0.000000
  70
    32
  0
VERTEX
  8
1PHANTOM
  5
268EF
 10
3862.89
 20
-1644.33
 30
0.000000
  70
    32
  0
VERTEX
  8
1PHANTOM
  5
268F0
 10
3863.13
 20
-1644.31
 30
0.000000
  70
    32
  0
VERTEX
  8
1PHANTOM
  5
268F1
 10
3863.36
 20
-1644.29
 30
0.000000
  70
    32
  0
VERTEX
  8
1PHANTOM
  5
268F2
 10
3863.59
 20
-1644.28
 30
0.000000
  70
    32
  0
VERTEX
  8
1PHANTOM
  5
268F3
 10
3863.83
 20
-1644.27
 30
0.000000
  70
    32
  0
VERTEX
  8
1PHANTOM
  5
268F4
 10
3864.06
 20
-1644.27
 30
0.000000
  70
    32
  0
VERTEX
  8
1PHANTOM
  5
268F5
 10
3864.30
 20
-1644.27
 30
0.000000
  70
    32
  0
VERTEX
  8
1PHANTOM
  5
268F6
 10
3864.54
 20
-1644.27
 30
0.000000
  70
    32
  0
VERTEX
  8
1PHANTOM
  5
268F7
 10
3864.77
 20
-1644.28
 30
0.000000
  70
    32
  0
VERTEX
  8
1PHANTOM
  5
268F8
 10
3865.01
 20
-1644.29
 30
0.000000
  70
    32
  0
VERTEX
  8
1PHANTOM
  5
268F9
 10
3865.25
 20
-1644.31
 30
0.000000
  70
    32
  0
VERTEX
  8
1PHANTOM
  5
268FA
 10
3865.49
 20
-1644.33
 30
0.000000
  70
    32
  0
VERTEX
  8
1PHANTOM
  5
268FB
 10
3865.73
 20
-1644.35
 30
0.000000
  70
    32
  0
VERTEX
  8
1PHANTOM
  5
268FC
 10
3865.97
 20
-1644.38
 30
0.000000
  70
    32
  0
VERTEX
  8
1PHANTOM
  5
268FD
 10
3866.20
 20
-1644.41
 30
0.000000
  70
    32
  0
VERTEX
  8
1PHANTOM
  5
268FE
 10
3866.44
 20
-1644.45
 30
0.000000
  70
    32
  0
VERTEX
  8
1PHANTOM
  5
268FF
 10
3866.69
 20
-1644.48
 30
0.000000
  70
    32
  0
VERTEX
  8
1PHANTOM
  5
26900
 10
3866.93
 20
-1644.52
 30
0.000000
  70
    32
  0
VERTEX
  8
1PHANTOM
  5
26901
 10
3867.17
 20
-1644.57
 30
0.000000
  70
    32
  0
VERTEX
  8
1PHANTOM
  5
26902
 10
3867.41
 20
-1644.61
 30
0.000000
  70
    32
  0
VERTEX
  8
1PHANTOM
  5
26903
 10
3867.65
 20
-1644.66
 30
0.000000
  70
    32
  0
VERTEX
  8
1PHANTOM
  5
26904
 10
3867.89
 20
-1644.72
 30
0.000000
  70
    32
  0
VERTEX
  8
1PHANTOM
  5
26905
 10
3868.14
 20
-1644.77
 30
0.000000
  70
    32
  0
VERTEX
  8
1PHANTOM
  5
26906
 10
3868.38
 20
-1644.83
 30
0.000000
  70
    32
  0
VERTEX
  8
1PHANTOM
  5
26907
 10
3868.62
 20
-1644.89
 30
0.000000
  70
    32
  0
VERTEX
  8
1PHANTOM
  5
26908
 10
3868.86
 20
-1644.95
 30
0.000000
  70
    32
  0
VERTEX
  8
1PHANTOM
  5
26909
 10
3869.11
 20
-1645.02
 30
0.000000
  70
    32
  0
VERTEX
  8
1PHANTOM
  5
2690A
 10
3869.35
 20
-1645.09
 30
0.000000
  70
    32
  0
VERTEX
  8
1PHANTOM
  5
2690B
 10
3869.60
 20
-1645.16
 30
0.000000
  70
    32
  0
VERTEX
  8
1PHANTOM
  5
2690C
 10
3869.84
 20
-1645.23
 30
0.000000
  70
    32
  0
VERTEX
  8
1PHANTOM
  5
2690D
 10
3870.09
 20
-1645.30
 30
0.000000
  70
    32
  0
VERTEX
  8
1PHANTOM
  5
2690E
 10
3870.33
 20
-1645.38
 30
0.000000
  70
    32
  0
VERTEX
  8
1PHANTOM
  5
2690F
 10
3870.58
 20
-1645.46
 30
0.000000
  70
    32
  0
VERTEX
  8
1PHANTOM
  5
26910
 10
3870.83
 20
-1645.54
 30
0.000000
  70
    32
  0
VERTEX
  8
1PHANTOM
  5
26911
 10
3871.07
 20
-1645.62
 30
0.000000
  70
    32
  0
VERTEX
  8
1PHANTOM
  5
26912
 10
3871.32
 20
-1645.70
 30
0.000000
  70
    32
  0
VERTEX
  8
1PHANTOM
  5
26913
 10
3871.57
 20
-1645.79
 30
0.000000
  70
    32
  0
VERTEX
  8
1PHANTOM
  5
26914
 10
3871.81
 20
-1645.87
 30
0.000000
  70
    32
  0
VERTEX
  8
1PHANTOM
  5
26915
 10
3872.06
 20
-1645.96
 30
0.000000
  70
    32
  0
VERTEX
  8
1PHANTOM
  5
26916
 10
3872.31
 20
-1646.05
 30
0.000000
  70
    32
  0
VERTEX
  8
1PHANTOM
  5
26917
 10
3872.56
 20
-1646.14
 30
0.000000
  70
    32
  0
VERTEX
  8
1PHANTOM
  5
26918
 10
3872.80
 20
-1646.23
 30
0.000000
  70
    32
  0
VERTEX
  8
1PHANTOM
  5
26919
 10
3873.05
 20
-1646.32
 30
0.000000
  70
    32
  0
VERTEX
  8
1PHANTOM
  5
2691A
 10
3873.30
 20
-1646.41
 30
0.000000
  70
    32
  0
VERTEX
  8
1PHANTOM
  5
2691B
 10
3873.55
 20
-1646.51
 30
0.000000
  70
    32
  0
VERTEX
  8
1PHANTOM
  5
2691C
 10
3873.80
 20
-1646.60
 30
0.000000
  70
    32
  0
VERTEX
  8
1PHANTOM
  5
2691D
 10
3874.05
 20
-1646.70
 30
0.000000
  70
    32
  0
VERTEX
  8
1PHANTOM
  5
2691E
 10
3874.30
 20
-1646.80
 30
0.000000
  70
    32
  0
VERTEX
  8
1PHANTOM
  5
2691F
 10
3874.55
 20
-1646.89
 30
0.000000
  70
    32
  0
VERTEX
  8
1PHANTOM
  5
26920
 10
3874.80
 20
-1646.99
 30
0.000000
  70
    32
  0
VERTEX
  8
1PHANTOM
  5
26921
 10
3875.05
 20
-1647.09
 30
0.000000
  70
    32
  0
VERTEX
  8
1PHANTOM
  5
26922
 10
3875.30
 20
-1647.18
 30
0.000000
  70
    32
  0
VERTEX
  8
1PHANTOM
  5
26923
 10
3875.55
 20
-1647.28
 30
0.000000
  70
    32
  0
VERTEX
  8
1PHANTOM
  5
26924
 10
3875.80
 20
-1647.38
 30
0.000000
  70
    32
  0
VERTEX
  8
1PHANTOM
  5
26925
 10
3876.05
 20
-1647.48
 30
0.000000
  70
    32
  0
VERTEX
  8
1PHANTOM
  5
26926
 10
3876.30
 20
-1647.58
 30
0.000000
  70
    32
  0
VERTEX
  8
1PHANTOM
  5
26927
 10
3876.55
 20
-1647.67
 30
0.000000
  70
    32
  0
VERTEX
  8
1PHANTOM
  5
26928
 10
3876.80
 20
-1647.77
 30
0.000000
  70
    32
  0
VERTEX
  8
1PHANTOM
  5
26929
 10
3877.05
 20
-1647.87
 30
0.000000
  70
    32
  0
VERTEX
  8
1PHANTOM
  5
2692A
 10
3877.30
 20
-1647.97
 30
0.000000
  70
    32
  0
VERTEX
  8
1PHANTOM
  5
2692B
 10
3877.55
 20
-1648.06
 30
0.000000
  70
    32
  0
VERTEX
  8
1PHANTOM
  5
2692C
 10
3877.80
 20
-1648.16
 30
0.000000
  70
    32
  0
VERTEX
  8
1PHANTOM
  5
2692D
 10
3878.06
 20
-1648.25
 30
0.000000
  70
    32
  0
VERTEX
  8
1PHANTOM
  5
2692E
 10
3878.31
 20
-1648.35
 30
0.000000
  70
    32
  0
VERTEX
  8
1PHANTOM
  5
2692F
 10
3878.56
 20
-1648.44
 30
0.000000
  70
    32
  0
VERTEX
  8
1PHANTOM
  5
26930
 10
3878.81
 20
-1648.53
 30
0.000000
  70
    32
  0
VERTEX
  8
1PHANTOM
  5
26931
 10
3879.06
 20
-1648.62
 30
0.000000
  70
    32
  0
VERTEX
  8
1PHANTOM
  5
26932
 10
3879.31
 20
-1648.71
 30
0.000000
  70
    32
  0
VERTEX
  8
1PHANTOM
  5
26933
 10
3879.57
 20
-1648.80
 30
0.000000
  70
    32
  0
VERTEX
  8
1PHANTOM
  5
26934
 10
3879.82
 20
-1648.89
 30
0.000000
  70
    32
  0
VERTEX
  8
1PHANTOM
  5
26935
 10
3880.07
 20
-1648.98
 30
0.000000
  70
    32
  0
VERTEX
  8
1PHANTOM
  5
26936
 10
3880.32
 20
-1649.06
 30
0.000000
  70
    32
  0
VERTEX
  8
1PHANTOM
  5
26937
 10
3880.57
 20
-1649.15
 30
0.000000
  70
    32
  0
VERTEX
  8
1PHANTOM
  5
26938
 10
3880.83
 20
-1649.23
 30
0.000000
  70
    32
  0
VERTEX
  8
1PHANTOM
  5
26939
 10
3881.08
 20
-1649.31
 30
0.000000
  70
    32
  0
VERTEX
  8
1PHANTOM
  5
2693A
 10
3881.33
 20
-1649.39
 30
0.000000
  70
    32
  0
VERTEX
  8
1PHANTOM
  5
2693B
 10
3881.58
 20
-1649.46
 30
0.000000
  70
    32
  0
VERTEX
  8
1PHANTOM
  5
2693C
 10
3881.83
 20
-1649.54
 30
0.000000
  70
    32
  0
VERTEX
  8
1PHANTOM
  5
2693D
 10
3882.09
 20
-1649.61
 30
0.000000
  70
    32
  0
VERTEX
  8
1PHANTOM
  5
2693E
 10
3882.34
 20
-1649.68
 30
0.000000
  70
    32
  0
VERTEX
  8
1PHANTOM
  5
2693F
 10
3882.59
 20
-1649.75
 30
0.000000
  70
    32
  0
VERTEX
  8
1PHANTOM
  5
26940
 10
3882.84
 20
-1649.81
 30
0.000000
  70
    32
  0
VERTEX
  8
1PHANTOM
  5
26941
 10
3883.09
 20
-1649.88
 30
0.000000
  70
    32
  0
VERTEX
  8
1PHANTOM
  5
26942
 10
3883.35
 20
-1649.94
 30
0.000000
  70
    32
  0
VERTEX
  8
1PHANTOM
  5
26943
 10
3883.60
 20
-1650.00
 30
0.000000
  70
    32
  0
VERTEX
  8
1PHANTOM
  5
26944
 10
3883.85
 20
-1650.05
 30
0.000000
  70
    32
  0
VERTEX
  8
1PHANTOM
  5
26945
 10
3884.10
 20
-1650.11
 30
0.000000
  70
    32
  0
VERTEX
  8
1PHANTOM
  5
26946
 10
3884.35
 20
-1650.16
 30
0.000000
  70
    32
  0
VERTEX
  8
1PHANTOM
  5
26947
 10
3884.60
 20
-1650.20
 30
0.000000
  70
    32
  0
VERTEX
  8
1PHANTOM
  5
26948
 10
3884.86
 20
-1650.25
 30
0.000000
  70
    32
  0
VERTEX
  8
1PHANTOM
  5
26949
 10
3885.11
 20
-1650.29
 30
0.000000
  70
    32
  0
VERTEX
  8
1PHANTOM
  5
2694A
 10
3885.36
 20
-1650.33
 30
0.000000
  70
    32
  0
VERTEX
  8
1PHANTOM
  5
2694B
 10
3885.61
 20
-1650.36
 30
0.000000
  70
    32
  0
VERTEX
  8
1PHANTOM
  5
2694C
 10
3885.86
 20
-1650.39
 30
0.000000
  70
    32
  0
VERTEX
  8
1PHANTOM
  5
2694D
 10
3886.11
 20
-1650.42
 30
0.000000
  70
    32
  0
VERTEX
  8
1PHANTOM
  5
2694E
 10
3886.36
 20
-1650.44
 30
0.000000
  70
    32
  0
VERTEX
  8
1PHANTOM
  5
2694F
 10
3886.61
 20
-1650.47
 30
0.000000
  70
    32
  0
VERTEX
  8
1PHANTOM
  5
26950
 10
3886.86
 20
-1650.48
 30
0.000000
  70
    32
  0
VERTEX
  8
1PHANTOM
  5
26951
 10
3887.11
 20
-1650.50
 30
0.000000
  70
    32
  0
VERTEX
  8
1PHANTOM
  5
26952
 10
3887.36
 20
-1650.51
 30
0.000000
  70
    32
  0
VERTEX
  8
1PHANTOM
  5
26953
 10
3887.61
 20
-1650.52
 30
0.000000
  70
    32
  0
VERTEX
  8
1PHANTOM
  5
26954
 10
3887.86
 20
-1650.52
 30
0.000000
  70
    32
  0
VERTEX
  8
1PHANTOM
  5
26955
 10
3888.11
 20
-1650.52
 30
0.000000
  70
    32
  0
VERTEX
  8
1PHANTOM
  5
26956
 10
3888.36
 20
-1650.52
 30
0.000000
  70
    32
  0
VERTEX
  8
1PHANTOM
  5
26957
 10
3888.61
 20
-1650.51
 30
0.000000
  70
    32
  0
VERTEX
  8
1PHANTOM
  5
26958
 10
3888.86
 20
-1650.51
 30
0.000000
  70
    32
  0
VERTEX
  8
1PHANTOM
  5
26959
 10
3889.11
 20
-1650.49
 30
0.000000
  70
    32
  0
VERTEX
  8
1PHANTOM
  5
2695A
 10
3889.36
 20
-1650.48
 30
0.000000
  70
    32
  0
VERTEX
  8
1PHANTOM
  5
2695B
 10
3889.61
 20
-1650.46
 30
0.000000
  70
    32
  0
VERTEX
  8
1PHANTOM
  5
2695C
 10
3889.86
 20
-1650.44
 30
0.000000
  70
    32
  0
VERTEX
  8
1PHANTOM
  5
2695D
 10
3890.11
 20
-1650.42
 30
0.000000
  70
    32
  0
VERTEX
  8
1PHANTOM
  5
2695E
 10
3890.36
 20
-1650.39
 30
0.000000
  70
    32
  0
VERTEX
  8
1PHANTOM
  5
2695F
 10
3890.60
 20
-1650.36
 30
0.000000
  70
    32
  0
VERTEX
  8
1PHANTOM
  5
26960
 10
3890.85
 20
-1650.33
 30
0.000000
  70
    32
  0
VERTEX
  8
1PHANTOM
  5
26961
 10
3891.10
 20
-1650.30
 30
0.000000
  70
    32
  0
VERTEX
  8
1PHANTOM
  5
26962
 10
3891.35
 20
-1650.26
 30
0.000000
  70
    32
  0
VERTEX
  8
1PHANTOM
  5
26963
 10
3891.60
 20
-1650.22
 30
0.000000
  70
    32
  0
VERTEX
  8
1PHANTOM
  5
26964
 10
3891.85
 20
-1650.18
 30
0.000000
  70
    32
  0
VERTEX
  8
1PHANTOM
  5
26965
 10
3892.09
 20
-1650.14
 30
0.000000
  70
    32
  0
VERTEX
  8
1PHANTOM
  5
26966
 10
3892.34
 20
-1650.09
 30
0.000000
  70
    32
  0
VERTEX
  8
1PHANTOM
  5
26967
 10
3892.59
 20
-1650.04
 30
0.000000
  70
    32
  0
VERTEX
  8
1PHANTOM
  5
26968
 10
3892.84
 20
-1649.99
 30
0.000000
  70
    32
  0
VERTEX
  8
1PHANTOM
  5
26969
 10
3893.09
 20
-1649.94
 30
0.000000
  70
    32
  0
VERTEX
  8
1PHANTOM
  5
2696A
 10
3893.33
 20
-1649.88
 30
0.000000
  70
    32
  0
VERTEX
  8
1PHANTOM
  5
2696B
 10
3893.58
 20
-1649.82
 30
0.000000
  70
    32
  0
VERTEX
  8
1PHANTOM
  5
2696C
 10
3893.83
 20
-1649.76
 30
0.000000
  70
    32
  0
VERTEX
  8
1PHANTOM
  5
2696D
 10
3894.08
 20
-1649.70
 30
0.000000
  70
    32
  0
VERTEX
  8
1PHANTOM
  5
2696E
 10
3894.32
 20
-1649.63
 30
0.000000
  70
    32
  0
VERTEX
  8
1PHANTOM
  5
2696F
 10
3894.57
 20
-1649.57
 30
0.000000
  70
    32
  0
VERTEX
  8
1PHANTOM
  5
26970
 10
3894.82
 20
-1649.50
 30
0.000000
  70
    32
  0
VERTEX
  8
1PHANTOM
  5
26971
 10
3895.06
 20
-1649.43
 30
0.000000
  70
    32
  0
VERTEX
  8
1PHANTOM
  5
26972
 10
3895.31
 20
-1649.36
 30
0.000000
  70
    32
  0
VERTEX
  8
1PHANTOM
  5
26973
 10
3895.56
 20
-1649.28
 30
0.000000
  70
    32
  0
VERTEX
  8
1PHANTOM
  5
26974
 10
3895.80
 20
-1649.21
 30
0.000000
  70
    32
  0
VERTEX
  8
1PHANTOM
  5
26975
 10
3896.05
 20
-1649.13
 30
0.000000
  70
    32
  0
VERTEX
  8
1PHANTOM
  5
26976
 10
3896.30
 20
-1649.05
 30
0.000000
  70
    32
  0
VERTEX
  8
1PHANTOM
  5
26977
 10
3896.54
 20
-1648.97
 30
0.000000
  70
    32
  0
VERTEX
  8
1PHANTOM
  5
26978
 10
3896.79
 20
-1648.88
 30
0.000000
  70
    32
  0
VERTEX
  8
1PHANTOM
  5
26979
 10
3897.04
 20
-1648.80
 30
0.000000
  70
    32
  0
SEQEND
  8
1PHANTOM
  5
2697A
  0
POLYLINE
  8
1PHANTOM
  5
2697B
  66
     1
 10
0.000000
 20
0.000000
 30
0.000000
  70
     8
  0
VERTEX
  8
1PHANTOM
  5
2697C
 10
3601.04
 20
-1651.66
 30
0.000000
  70
    32
  0
VERTEX
  8
1PHANTOM
  5
2697D
 10
3601.78
 20
-1651.41
 30
0.000000
  70
    32
  0
VERTEX
  8
1PHANTOM
  5
2697E
 10
3602.52
 20
-1651.16
 30
0.000000
  70
    32
  0
VERTEX
  8
1PHANTOM
  5
2697F
 10
3603.26
 20
-1650.91
 30
0.000000
  70
    32
  0
VERTEX
  8
1PHANTOM
  5
26980
 10
3604.00
 20
-1650.67
 30
0.000000
  70
    32
  0
VERTEX
  8
1PHANTOM
  5
26981
 10
3604.74
 20
-1650.43
 30
0.000000
  70
    32
  0
VERTEX
  8
1PHANTOM
  5
26982
 10
3605.48
 20
-1650.20
 30
0.000000
  70
    32
  0
VERTEX
  8
1PHANTOM
  5
26983
 10
3606.22
 20
-1649.96
 30
0.000000
  70
    32
  0
VERTEX
  8
1PHANTOM
  5
26984
 10
3606.97
 20
-1649.73
 30
0.000000
  70
    32
  0
VERTEX
  8
1PHANTOM
  5
26985
 10
3607.71
 20
-1649.51
 30
0.000000
  70
    32
  0
VERTEX
  8
1PHANTOM
  5
26986
 10
3608.45
 20
-1649.28
 30
0.000000
  70
    32
  0
VERTEX
  8
1PHANTOM
  5
26987
 10
3609.19
 20
-1649.07
 30
0.000000
  70
    32
  0
VERTEX
  8
1PHANTOM
  5
26988
 10
3609.93
 20
-1648.85
 30
0.000000
  70
    32
  0
VERTEX
  8
1PHANTOM
  5
26989
 10
3610.68
 20
-1648.64
 30
0.000000
  70
    32
  0
VERTEX
  8
1PHANTOM
  5
2698A
 10
3611.42
 20
-1648.43
 30
0.000000
  70
    32
  0
VERTEX
  8
1PHANTOM
  5
2698B
 10
3612.16
 20
-1648.23
 30
0.000000
  70
    32
  0
VERTEX
  8
1PHANTOM
  5
2698C
 10
3612.91
 20
-1648.03
 30
0.000000
  70
    32
  0
VERTEX
  8
1PHANTOM
  5
2698D
 10
3613.65
 20
-1647.84
 30
0.000000
  70
    32
  0
VERTEX
  8
1PHANTOM
  5
2698E
 10
3614.39
 20
-1647.65
 30
0.000000
  70
    32
  0
VERTEX
  8
1PHANTOM
  5
2698F
 10
3615.14
 20
-1647.47
 30
0.000000
  70
    32
  0
VERTEX
  8
1PHANTOM
  5
26990
 10
3615.88
 20
-1647.29
 30
0.000000
  70
    32
  0
VERTEX
  8
1PHANTOM
  5
26991
 10
3616.63
 20
-1647.12
 30
0.000000
  70
    32
  0
VERTEX
  8
1PHANTOM
  5
26992
 10
3617.37
 20
-1646.96
 30
0.000000
  70
    32
  0
VERTEX
  8
1PHANTOM
  5
26993
 10
3618.12
 20
-1646.80
 30
0.000000
  70
    32
  0
VERTEX
  8
1PHANTOM
  5
26994
 10
3618.86
 20
-1646.64
 30
0.000000
  70
    32
  0
VERTEX
  8
1PHANTOM
  5
26995
 10
3619.61
 20
-1646.49
 30
0.000000
  70
    32
  0
VERTEX
  8
1PHANTOM
  5
26996
 10
3620.36
 20
-1646.35
 30
0.000000
  70
    32
  0
VERTEX
  8
1PHANTOM
  5
26997
 10
3621.10
 20
-1646.22
 30
0.000000
  70
    32
  0
VERTEX
  8
1PHANTOM
  5
26998
 10
3621.85
 20
-1646.09
 30
0.000000
  70
    32
  0
VERTEX
  8
1PHANTOM
  5
26999
 10
3622.60
 20
-1645.97
 30
0.000000
  70
    32
  0
VERTEX
  8
1PHANTOM
  5
2699A
 10
3623.34
 20
-1645.85
 30
0.000000
  70
    32
  0
VERTEX
  8
1PHANTOM
  5
2699B
 10
3624.09
 20
-1645.74
 30
0.000000
  70
    32
  0
VERTEX
  8
1PHANTOM
  5
2699C
 10
3624.84
 20
-1645.64
 30
0.000000
  70
    32
  0
VERTEX
  8
1PHANTOM
  5
2699D
 10
3625.59
 20
-1645.55
 30
0.000000
  70
    32
  0
VERTEX
  8
1PHANTOM
  5
2699E
 10
3626.34
 20
-1645.46
 30
0.000000
  70
    32
  0
VERTEX
  8
1PHANTOM
  5
2699F
 10
3627.09
 20
-1645.39
 30
0.000000
  70
    32
  0
VERTEX
  8
1PHANTOM
  5
269A0
 10
3627.84
 20
-1645.32
 30
0.000000
  70
    32
  0
VERTEX
  8
1PHANTOM
  5
269A1
 10
3628.59
 20
-1645.25
 30
0.000000
  70
    32
  0
VERTEX
  8
1PHANTOM
  5
269A2
 10
3629.34
 20
-1645.20
 30
0.000000
  70
    32
  0
VERTEX
  8
1PHANTOM
  5
269A3
 10
3630.09
 20
-1645.15
 30
0.000000
  70
    32
  0
VERTEX
  8
1PHANTOM
  5
269A4
 10
3630.84
 20
-1645.12
 30
0.000000
  70
    32
  0
VERTEX
  8
1PHANTOM
  5
269A5
 10
3631.60
 20
-1645.08
 30
0.000000
  70
    32
  0
VERTEX
  8
1PHANTOM
  5
269A6
 10
3632.35
 20
-1645.06
 30
0.000000
  70
    32
  0
VERTEX
  8
1PHANTOM
  5
269A7
 10
3633.10
 20
-1645.04
 30
0.000000
  70
    32
  0
VERTEX
  8
1PHANTOM
  5
269A8
 10
3633.86
 20
-1645.03
 30
0.000000
  70
    32
  0
VERTEX
  8
1PHANTOM
  5
269A9
 10
3634.61
 20
-1645.03
 30
0.000000
  70
    32
  0
VERTEX
  8
1PHANTOM
  5
269AA
 10
3635.36
 20
-1645.04
 30
0.000000
  70
    32
  0
VERTEX
  8
1PHANTOM
  5
269AB
 10
3636.12
 20
-1645.05
 30
0.000000
  70
    32
  0
VERTEX
  8
1PHANTOM
  5
269AC
 10
3636.87
 20
-1645.06
 30
0.000000
  70
    32
  0
VERTEX
  8
1PHANTOM
  5
269AD
 10
3637.63
 20
-1645.09
 30
0.000000
  70
    32
  0
VERTEX
  8
1PHANTOM
  5
269AE
 10
3638.39
 20
-1645.12
 30
0.000000
  70
    32
  0
VERTEX
  8
1PHANTOM
  5
269AF
 10
3639.14
 20
-1645.15
 30
0.000000
  70
    32
  0
VERTEX
  8
1PHANTOM
  5
269B0
 10
3639.90
 20
-1645.20
 30
0.000000
  70
    32
  0
VERTEX
  8
1PHANTOM
  5
269B1
 10
3640.66
 20
-1645.24
 30
0.000000
  70
    32
  0
VERTEX
  8
1PHANTOM
  5
269B2
 10
3641.41
 20
-1645.30
 30
0.000000
  70
    32
  0
VERTEX
  8
1PHANTOM
  5
269B3
 10
3642.17
 20
-1645.36
 30
0.000000
  70
    32
  0
VERTEX
  8
1PHANTOM
  5
269B4
 10
3642.93
 20
-1645.42
 30
0.000000
  70
    32
  0
VERTEX
  8
1PHANTOM
  5
269B5
 10
3643.69
 20
-1645.49
 30
0.000000
  70
    32
  0
VERTEX
  8
1PHANTOM
  5
269B6
 10
3644.44
 20
-1645.56
 30
0.000000
  70
    32
  0
VERTEX
  8
1PHANTOM
  5
269B7
 10
3645.20
 20
-1645.64
 30
0.000000
  70
    32
  0
VERTEX
  8
1PHANTOM
  5
269B8
 10
3645.96
 20
-1645.73
 30
0.000000
  70
    32
  0
VERTEX
  8
1PHANTOM
  5
269B9
 10
3646.72
 20
-1645.82
 30
0.000000
  70
    32
  0
VERTEX
  8
1PHANTOM
  5
269BA
 10
3647.48
 20
-1645.91
 30
0.000000
  70
    32
  0
VERTEX
  8
1PHANTOM
  5
269BB
 10
3648.24
 20
-1646.01
 30
0.000000
  70
    32
  0
VERTEX
  8
1PHANTOM
  5
269BC
 10
3649.00
 20
-1646.11
 30
0.000000
  70
    32
  0
VERTEX
  8
1PHANTOM
  5
269BD
 10
3649.76
 20
-1646.22
 30
0.000000
  70
    32
  0
VERTEX
  8
1PHANTOM
  5
269BE
 10
3650.52
 20
-1646.33
 30
0.000000
  70
    32
  0
VERTEX
  8
1PHANTOM
  5
269BF
 10
3651.28
 20
-1646.44
 30
0.000000
  70
    32
  0
VERTEX
  8
1PHANTOM
  5
269C0
 10
3652.04
 20
-1646.56
 30
0.000000
  70
    32
  0
VERTEX
  8
1PHANTOM
  5
269C1
 10
3652.81
 20
-1646.68
 30
0.000000
  70
    32
  0
VERTEX
  8
1PHANTOM
  5
269C2
 10
3653.57
 20
-1646.81
 30
0.000000
  70
    32
  0
VERTEX
  8
1PHANTOM
  5
269C3
 10
3654.33
 20
-1646.94
 30
0.000000
  70
    32
  0
VERTEX
  8
1PHANTOM
  5
269C4
 10
3655.09
 20
-1647.07
 30
0.000000
  70
    32
  0
VERTEX
  8
1PHANTOM
  5
269C5
 10
3655.86
 20
-1647.20
 30
0.000000
  70
    32
  0
VERTEX
  8
1PHANTOM
  5
269C6
 10
3656.62
 20
-1647.34
 30
0.000000
  70
    32
  0
VERTEX
  8
1PHANTOM
  5
269C7
 10
3657.38
 20
-1647.48
 30
0.000000
  70
    32
  0
VERTEX
  8
1PHANTOM
  5
269C8
 10
3658.14
 20
-1647.62
 30
0.000000
  70
    32
  0
VERTEX
  8
1PHANTOM
  5
269C9
 10
3658.91
 20
-1647.77
 30
0.000000
  70
    32
  0
VERTEX
  8
1PHANTOM
  5
269CA
 10
3659.67
 20
-1647.91
 30
0.000000
  70
    32
  0
VERTEX
  8
1PHANTOM
  5
269CB
 10
3660.43
 20
-1648.06
 30
0.000000
  70
    32
  0
VERTEX
  8
1PHANTOM
  5
269CC
 10
3661.20
 20
-1648.21
 30
0.000000
  70
    32
  0
VERTEX
  8
1PHANTOM
  5
269CD
 10
3661.96
 20
-1648.37
 30
0.000000
  70
    32
  0
VERTEX
  8
1PHANTOM
  5
269CE
 10
3662.73
 20
-1648.52
 30
0.000000
  70
    32
  0
VERTEX
  8
1PHANTOM
  5
269CF
 10
3663.49
 20
-1648.68
 30
0.000000
  70
    32
  0
VERTEX
  8
1PHANTOM
  5
269D0
 10
3664.26
 20
-1648.84
 30
0.000000
  70
    32
  0
VERTEX
  8
1PHANTOM
  5
269D1
 10
3665.02
 20
-1649.00
 30
0.000000
  70
    32
  0
VERTEX
  8
1PHANTOM
  5
269D2
 10
3665.79
 20
-1649.16
 30
0.000000
  70
    32
  0
VERTEX
  8
1PHANTOM
  5
269D3
 10
3666.55
 20
-1649.32
 30
0.000000
  70
    32
  0
VERTEX
  8
1PHANTOM
  5
269D4
 10
3667.32
 20
-1649.48
 30
0.000000
  70
    32
  0
VERTEX
  8
1PHANTOM
  5
269D5
 10
3668.08
 20
-1649.64
 30
0.000000
  70
    32
  0
VERTEX
  8
1PHANTOM
  5
269D6
 10
3668.85
 20
-1649.81
 30
0.000000
  70
    32
  0
VERTEX
  8
1PHANTOM
  5
269D7
 10
3669.61
 20
-1649.97
 30
0.000000
  70
    32
  0
VERTEX
  8
1PHANTOM
  5
269D8
 10
3670.38
 20
-1650.14
 30
0.000000
  70
    32
  0
VERTEX
  8
1PHANTOM
  5
269D9
 10
3671.14
 20
-1650.30
 30
0.000000
  70
    32
  0
VERTEX
  8
1PHANTOM
  5
269DA
 10
3671.91
 20
-1650.47
 30
0.000000
  70
    32
  0
VERTEX
  8
1PHANTOM
  5
269DB
 10
3672.68
 20
-1650.63
 30
0.000000
  70
    32
  0
VERTEX
  8
1PHANTOM
  5
269DC
 10
3673.44
 20
-1650.80
 30
0.000000
  70
    32
  0
VERTEX
  8
1PHANTOM
  5
269DD
 10
3674.21
 20
-1650.96
 30
0.000000
  70
    32
  0
VERTEX
  8
1PHANTOM
  5
269DE
 10
3674.97
 20
-1651.12
 30
0.000000
  70
    32
  0
VERTEX
  8
1PHANTOM
  5
269DF
 10
3675.74
 20
-1651.29
 30
0.000000
  70
    32
  0
VERTEX
  8
1PHANTOM
  5
269E0
 10
3676.51
 20
-1651.45
 30
0.000000
  70
    32
  0
VERTEX
  8
1PHANTOM
  5
269E1
 10
3677.27
 20
-1651.61
 30
0.000000
  70
    32
  0
VERTEX
  8
1PHANTOM
  5
269E2
 10
3678.04
 20
-1651.77
 30
0.000000
  70
    32
  0
VERTEX
  8
1PHANTOM
  5
269E3
 10
3678.81
 20
-1651.93
 30
0.000000
  70
    32
  0
VERTEX
  8
1PHANTOM
  5
269E4
 10
3679.57
 20
-1652.09
 30
0.000000
  70
    32
  0
VERTEX
  8
1PHANTOM
  5
269E5
 10
3680.34
 20
-1652.24
 30
0.000000
  70
    32
  0
VERTEX
  8
1PHANTOM
  5
269E6
 10
3681.11
 20
-1652.40
 30
0.000000
  70
    32
  0
VERTEX
  8
1PHANTOM
  5
269E7
 10
3681.87
 20
-1652.55
 30
0.000000
  70
    32
  0
VERTEX
  8
1PHANTOM
  5
269E8
 10
3682.64
 20
-1652.70
 30
0.000000
  70
    32
  0
VERTEX
  8
1PHANTOM
  5
269E9
 10
3683.41
 20
-1652.85
 30
0.000000
  70
    32
  0
VERTEX
  8
1PHANTOM
  5
269EA
 10
3684.18
 20
-1652.99
 30
0.000000
  70
    32
  0
VERTEX
  8
1PHANTOM
  5
269EB
 10
3684.94
 20
-1653.14
 30
0.000000
  70
    32
  0
VERTEX
  8
1PHANTOM
  5
269EC
 10
3685.71
 20
-1653.28
 30
0.000000
  70
    32
  0
VERTEX
  8
1PHANTOM
  5
269ED
 10
3686.48
 20
-1653.42
 30
0.000000
  70
    32
  0
VERTEX
  8
1PHANTOM
  5
269EE
 10
3687.24
 20
-1653.55
 30
0.000000
  70
    32
  0
VERTEX
  8
1PHANTOM
  5
269EF
 10
3688.01
 20
-1653.69
 30
0.000000
  70
    32
  0
VERTEX
  8
1PHANTOM
  5
269F0
 10
3688.78
 20
-1653.82
 30
0.000000
  70
    32
  0
VERTEX
  8
1PHANTOM
  5
269F1
 10
3689.54
 20
-1653.94
 30
0.000000
  70
    32
  0
VERTEX
  8
1PHANTOM
  5
269F2
 10
3690.31
 20
-1654.07
 30
0.000000
  70
    32
  0
VERTEX
  8
1PHANTOM
  5
269F3
 10
3691.08
 20
-1654.19
 30
0.000000
  70
    32
  0
VERTEX
  8
1PHANTOM
  5
269F4
 10
3691.84
 20
-1654.30
 30
0.000000
  70
    32
  0
VERTEX
  8
1PHANTOM
  5
269F5
 10
3692.61
 20
-1654.42
 30
0.000000
  70
    32
  0
VERTEX
  8
1PHANTOM
  5
269F6
 10
3693.38
 20
-1654.53
 30
0.000000
  70
    32
  0
VERTEX
  8
1PHANTOM
  5
269F7
 10
3694.14
 20
-1654.63
 30
0.000000
  70
    32
  0
VERTEX
  8
1PHANTOM
  5
269F8
 10
3694.91
 20
-1654.73
 30
0.000000
  70
    32
  0
VERTEX
  8
1PHANTOM
  5
269F9
 10
3695.68
 20
-1654.83
 30
0.000000
  70
    32
  0
VERTEX
  8
1PHANTOM
  5
269FA
 10
3696.44
 20
-1654.92
 30
0.000000
  70
    32
  0
VERTEX
  8
1PHANTOM
  5
269FB
 10
3697.21
 20
-1655.01
 30
0.000000
  70
    32
  0
VERTEX
  8
1PHANTOM
  5
269FC
 10
3697.98
 20
-1655.09
 30
0.000000
  70
    32
  0
VERTEX
  8
1PHANTOM
  5
269FD
 10
3698.74
 20
-1655.17
 30
0.000000
  70
    32
  0
VERTEX
  8
1PHANTOM
  5
269FE
 10
3699.51
 20
-1655.24
 30
0.000000
  70
    32
  0
VERTEX
  8
1PHANTOM
  5
269FF
 10
3700.27
 20
-1655.31
 30
0.000000
  70
    32
  0
VERTEX
  8
1PHANTOM
  5
26A00
 10
3701.04
 20
-1655.37
 30
0.000000
  70
    32
  0
VERTEX
  8
1PHANTOM
  5
26A01
 10
3701.81
 20
-1655.43
 30
0.000000
  70
    32
  0
VERTEX
  8
1PHANTOM
  5
26A02
 10
3702.57
 20
-1655.48
 30
0.000000
  70
    32
  0
VERTEX
  8
1PHANTOM
  5
26A03
 10
3703.34
 20
-1655.52
 30
0.000000
  70
    32
  0
VERTEX
  8
1PHANTOM
  5
26A04
 10
3704.10
 20
-1655.56
 30
0.000000
  70
    32
  0
VERTEX
  8
1PHANTOM
  5
26A05
 10
3704.87
 20
-1655.60
 30
0.000000
  70
    32
  0
VERTEX
  8
1PHANTOM
  5
26A06
 10
3705.63
 20
-1655.62
 30
0.000000
  70
    32
  0
VERTEX
  8
1PHANTOM
  5
26A07
 10
3706.40
 20
-1655.65
 30
0.000000
  70
    32
  0
VERTEX
  8
1PHANTOM
  5
26A08
 10
3707.16
 20
-1655.66
 30
0.000000
  70
    32
  0
VERTEX
  8
1PHANTOM
  5
26A09
 10
3707.93
 20
-1655.67
 30
0.000000
  70
    32
  0
VERTEX
  8
1PHANTOM
  5
26A0A
 10
3708.69
 20
-1655.68
 30
0.000000
  70
    32
  0
VERTEX
  8
1PHANTOM
  5
26A0B
 10
3709.46
 20
-1655.68
 30
0.000000
  70
    32
  0
VERTEX
  8
1PHANTOM
  5
26A0C
 10
3710.22
 20
-1655.67
 30
0.000000
  70
    32
  0
VERTEX
  8
1PHANTOM
  5
26A0D
 10
3710.98
 20
-1655.66
 30
0.000000
  70
    32
  0
VERTEX
  8
1PHANTOM
  5
26A0E
 10
3711.75
 20
-1655.65
 30
0.000000
  70
    32
  0
VERTEX
  8
1PHANTOM
  5
26A0F
 10
3712.51
 20
-1655.62
 30
0.000000
  70
    32
  0
VERTEX
  8
1PHANTOM
  5
26A10
 10
3713.28
 20
-1655.60
 30
0.000000
  70
    32
  0
VERTEX
  8
1PHANTOM
  5
26A11
 10
3714.04
 20
-1655.57
 30
0.000000
  70
    32
  0
VERTEX
  8
1PHANTOM
  5
26A12
 10
3714.80
 20
-1655.53
 30
0.000000
  70
    32
  0
VERTEX
  8
1PHANTOM
  5
26A13
 10
3715.57
 20
-1655.49
 30
0.000000
  70
    32
  0
VERTEX
  8
1PHANTOM
  5
26A14
 10
3716.33
 20
-1655.44
 30
0.000000
  70
    32
  0
VERTEX
  8
1PHANTOM
  5
26A15
 10
3717.09
 20
-1655.39
 30
0.000000
  70
    32
  0
VERTEX
  8
1PHANTOM
  5
26A16
 10
3717.86
 20
-1655.34
 30
0.000000
  70
    32
  0
VERTEX
  8
1PHANTOM
  5
26A17
 10
3718.62
 20
-1655.28
 30
0.000000
  70
    32
  0
VERTEX
  8
1PHANTOM
  5
26A18
 10
3719.38
 20
-1655.22
 30
0.000000
  70
    32
  0
VERTEX
  8
1PHANTOM
  5
26A19
 10
3720.15
 20
-1655.15
 30
0.000000
  70
    32
  0
VERTEX
  8
1PHANTOM
  5
26A1A
 10
3720.91
 20
-1655.08
 30
0.000000
  70
    32
  0
VERTEX
  8
1PHANTOM
  5
26A1B
 10
3721.67
 20
-1655.00
 30
0.000000
  70
    32
  0
VERTEX
  8
1PHANTOM
  5
26A1C
 10
3722.43
 20
-1654.92
 30
0.000000
  70
    32
  0
VERTEX
  8
1PHANTOM
  5
26A1D
 10
3723.20
 20
-1654.83
 30
0.000000
  70
    32
  0
VERTEX
  8
1PHANTOM
  5
26A1E
 10
3723.96
 20
-1654.75
 30
0.000000
  70
    32
  0
VERTEX
  8
1PHANTOM
  5
26A1F
 10
3724.72
 20
-1654.65
 30
0.000000
  70
    32
  0
VERTEX
  8
1PHANTOM
  5
26A20
 10
3725.48
 20
-1654.56
 30
0.000000
  70
    32
  0
VERTEX
  8
1PHANTOM
  5
26A21
 10
3726.25
 20
-1654.46
 30
0.000000
  70
    32
  0
VERTEX
  8
1PHANTOM
  5
26A22
 10
3727.01
 20
-1654.36
 30
0.000000
  70
    32
  0
VERTEX
  8
1PHANTOM
  5
26A23
 10
3727.77
 20
-1654.25
 30
0.000000
  70
    32
  0
VERTEX
  8
1PHANTOM
  5
26A24
 10
3728.53
 20
-1654.14
 30
0.000000
  70
    32
  0
VERTEX
  8
1PHANTOM
  5
26A25
 10
3729.29
 20
-1654.03
 30
0.000000
  70
    32
  0
VERTEX
  8
1PHANTOM
  5
26A26
 10
3730.06
 20
-1653.91
 30
0.000000
  70
    32
  0
VERTEX
  8
1PHANTOM
  5
26A27
 10
3730.82
 20
-1653.79
 30
0.000000
  70
    32
  0
VERTEX
  8
1PHANTOM
  5
26A28
 10
3731.58
 20
-1653.67
 30
0.000000
  70
    32
  0
VERTEX
  8
1PHANTOM
  5
26A29
 10
3732.34
 20
-1653.54
 30
0.000000
  70
    32
  0
VERTEX
  8
1PHANTOM
  5
26A2A
 10
3733.10
 20
-1653.41
 30
0.000000
  70
    32
  0
VERTEX
  8
1PHANTOM
  5
26A2B
 10
3733.86
 20
-1653.28
 30
0.000000
  70
    32
  0
VERTEX
  8
1PHANTOM
  5
26A2C
 10
3734.62
 20
-1653.15
 30
0.000000
  70
    32
  0
VERTEX
  8
1PHANTOM
  5
26A2D
 10
3735.39
 20
-1653.01
 30
0.000000
  70
    32
  0
VERTEX
  8
1PHANTOM
  5
26A2E
 10
3736.15
 20
-1652.87
 30
0.000000
  70
    32
  0
VERTEX
  8
1PHANTOM
  5
26A2F
 10
3736.91
 20
-1652.73
 30
0.000000
  70
    32
  0
VERTEX
  8
1PHANTOM
  5
26A30
 10
3737.67
 20
-1652.58
 30
0.000000
  70
    32
  0
VERTEX
  8
1PHANTOM
  5
26A31
 10
3738.43
 20
-1652.43
 30
0.000000
  70
    32
  0
VERTEX
  8
1PHANTOM
  5
26A32
 10
3739.19
 20
-1652.29
 30
0.000000
  70
    32
  0
VERTEX
  8
1PHANTOM
  5
26A33
 10
3739.95
 20
-1652.13
 30
0.000000
  70
    32
  0
VERTEX
  8
1PHANTOM
  5
26A34
 10
3740.71
 20
-1651.98
 30
0.000000
  70
    32
  0
VERTEX
  8
1PHANTOM
  5
26A35
 10
3741.47
 20
-1651.82
 30
0.000000
  70
    32
  0
VERTEX
  8
1PHANTOM
  5
26A36
 10
3742.23
 20
-1651.67
 30
0.000000
  70
    32
  0
VERTEX
  8
1PHANTOM
  5
26A37
 10
3743.00
 20
-1651.51
 30
0.000000
  70
    32
  0
VERTEX
  8
1PHANTOM
  5
26A38
 10
3743.76
 20
-1651.35
 30
0.000000
  70
    32
  0
VERTEX
  8
1PHANTOM
  5
26A39
 10
3744.52
 20
-1651.18
 30
0.000000
  70
    32
  0
VERTEX
  8
1PHANTOM
  5
26A3A
 10
3745.28
 20
-1651.02
 30
0.000000
  70
    32
  0
VERTEX
  8
1PHANTOM
  5
26A3B
 10
3746.04
 20
-1650.85
 30
0.000000
  70
    32
  0
SEQEND
  8
1PHANTOM
  5
26A3C
  0
LINE
  5
262E1
  8
1PHANTOM
 10
3860.538058267889
 20
-1708.565573086066
 30
0.0
 11
3863.7380582678888
 21
-1708.565573086066
 31
0.0
  0
LINE
  5
262E2
  8
1PHANTOM
 10
3863.7380582678888
 20
-1708.565573086066
 30
0.0
 11
3863.7380582678888
 21
-1720.1125784698579
 31
0.0
  0
LINE
  5
262E3
  8
1PHANTOM
 10
3860.538058267889
 20
-1720.1125784698579
 30
0.0
 11
3863.7380582678888
 21
-1720.1125784698579
 31
0.0
  0
LINE
  5
262E4
  8
1PHANTOM
 10
3860.538058267889
 20
-1711.4523244320151
 30
0.0
 11
3863.7380582678888
 21
-1711.4523244320151
 31
0.0
  0
LINE
  5
262E5
  8
1PHANTOM
 10
3860.538058267889
 20
-1717.2258271239091
 30
0.0
 11
3863.7380582678888
 21
-1717.2258271239091
 31
0.0
  0
LINE
  5
262E6
  8
1PHANTOM
 10
3860.538058267889
 20
-1720.1125784698579
 30
0.0
 11
3860.538058267889
 21
-1708.565573086066
 31
0.0
  0
LINE
  5
264BF
  8
1CENTER
 10
3740.538058267894
 20
-1714.3390757779621
 30
0.0
 11
3730.538058267894
 21
-1714.3390757779621
 31
0.0
  0
LINE
  5
264C0
  8
1CENTER
 10
3735.538058267894
 20
-1719.3390757779621
 30
0.0
 11
3735.538058267894
 21
-1709.3390757779621
 31
0.0
  0
CIRCLE
  5
264C1
  8
1PHANTOM
 10
3735.538058267894
 20
-1714.3390757779621
 30
0.0
 40
3.0
  0
LINE
  5
264C2
  8
1CENTER
 10
3606.5380582678958
 20
-1714.3390757779621
 30
0.0
 11
3616.5380582678958
 21
-1714.3390757779621
 31
0.0
  0
LINE
  5
264C3
  8
1CENTER
 10
3611.5380582678949
 20
-1719.3390757779621
 30
0.0
 11
3611.5380582678949
 21
-1709.3390757779621
 31
0.0
  0
CIRCLE
  5
264C4
  8
1PHANTOM
 10
3611.5380582678949
 20
-1714.3390757779621
 30
0.0
 40
3.0
  0
TEXT
  5
266C6
  8
1TEXT
 10
3769.5187854680121
 20
-1630.09178399303
 30
0.0
 40
4.0
  1
ヘアラインシルバー
 41
0.6
 72
     1
 11
3782.158785468012
 21
-1630.09178399303
 31
0.0
  0
TEXT
  5
266CC
  8
1TEXT
 10
3769.2521188013452
 20
-1623.09178399303
 30
0.0
 40
4.0
  1
アクアホワイト
 41
0.8
 72
     1
 11
3782.158785468011
 21
-1623.09178399303
 31
0.0
  0
TEXT
  5
266CD
  8
1TEXT
 10
3803.2921188013461
 20
-1623.09178399303
 30
0.0
 40
4.0
  1
GP-116-004
 41
0.8
 72
     1
 11
3817.158785468012
 21
-1623.09178399303
 31
0.0
  0
TEXT
  5
266CF
  8
1TEXT
 10
3765.1987854680119
 20
-1637.091783993031
 30
0.0
 40
4.0
  1
ヘアラインダークブラウン
 41
0.6
 72
     1
 11
3782.158785468012
 21
-1637.091783993031
 31
0.0
  0
TEXT
  5
266D5
  8
1TEXT
 10
3803.2921188013461
 20
-1630.09178399303
 30
0.0
 40
4.0
  1
GP-116-006
 41
0.8
 72
     1
 11
3817.158785468012
 21
-1630.09178399303
 31
0.0
  0
TEXT
  5
266D6
  8
1TEXT
 10
3803.2921188013461
 20
-1637.091783993031
 30
0.0
 40
4.0
  1
GP-116-008
 41
0.8
 72
     1
 11
3817.158785468012
 21
-1637.091783993031
 31
0.0
  0
LINE
  5
267C3
  8
1DIM
 10
3851.5380582678931
 20
-1771.8390757779609
 30
0.0
 11
3785.038058267894
 21
-1771.8390757779609
 31
0.0
  0
LINE
  5
267C4
  8
1DIM
 10
3852.038058267889
 20
-1728.3390757779589
 30
0.0
 11
3785.038058267894
 21
-1728.3390757779589
 31
0.0
  0
LINE
  5
267C5
  8
1DIM
 10
3786.038058267894
 20
-1769.83907577796
 30
0.0
 11
3786.038058267894
 21
-1730.3390757779589
 31
0.0
  0
TEXT
  5
267C9
  8
1PHANTOM
 10
3755.7541463857501
 20
-1679.1923392146009
 30
0.0
 40
3.5
  1
GP110接続位置
  0
SOLID
  5
267CA
  8
1DIM
 10
3736.74138127897
 20
-1712.7052018822069
 30
0.0
 11
3735.537671888238
 21
-1714.3368252498301
 31
0.0
 12
3736.1471407602421
 22
-1712.4030055050839
 32
0.0
 13
3736.1471407602421
 23
-1712.4030055050839
 33
0.0
  0
LINE
  5
267CC
  8
1DIM
 10
3826.0380582678931
 20
-1757.33907577796
 30
0.0
 11
3826.0380582678931
 21
-1802.8390757779609
 31
0.0
  0
LINE
  5
267CD
  8
1DIM
 10
3877.038058267889
 20
-1740.480777822434
 30
0.0
 11
3877.038058267889
 21
-1802.8390757779609
 31
0.0
  0
LINE
  5
267CE
  8
1DIM
 10
3828.0380582678931
 20
-1801.83907577796
 30
0.0
 11
3875.0380582678899
 21
-1801.83907577796
 31
0.0
  0
TEXT
  5
267D2
  8
1DIM
 10
3787.3171394389192
 20
-1714.381316608933
 30
0.0
 40
3.5
  1
材質：ステンレス
  0
TEXT
  5
267D3
  8
1DIM
 10
3783.1171394389189
 20
-1720.2146499422661
 30
0.0
 40
3.5
  1
仕上げ：ヘアライン
  0
SOLID
  5
267D4
  8
1DIM
 10
3842.356937207795
 20
-1749.529059837148
 30
0.0
 11
3843.2180335976441
 21
-1751.364713431512
 31
0.0
 12
3841.808135846913
 22
-1749.907558860579
 32
0.0
 13
3841.808135846913
 23
-1749.907558860579
 33
0.0
  0
LINE
  5
267D6
  8
1HATCH
 10
3877.038058267889
 20
-1653.9300860506239
 30
0.0
 11
3881.5232017450312
 21
-1649.4449425734831
 31
0.0
1001
ACAD
1010
0.0
1020
0.0
1030
0.0
  0
LINE
  5
267D7
  8
1HATCH
 10
3877.038058267889
 20
-1662.9103421716929
 30
0.0
 11
3889.4763569938791
 21
-1650.4720434457031
 31
0.0
1001
ACAD
1010
0.0
1020
0.0
1030
0.0
  0
LINE
  5
267D8
  8
1HATCH
 10
3877.038058267889
 20
-1671.8905982927629
 30
0.0
 11
3897.038058267889
 21
-1651.890598292762
 31
0.0
1001
ACAD
1010
0.0
1020
0.0
1030
0.0
  0
LINE
  5
267D9
  8
1HATCH
 10
3877.038058267889
 20
-1680.870854413831
 30
0.0
 11
3897.038058267889
 21
-1660.8708544138319
 31
0.0
1001
ACAD
1010
0.0
1020
0.0
1030
0.0
  0
LINE
  5
267DA
  8
1HATCH
 10
3877.038058267889
 20
-1689.851110534901
 30
0.0
 11
3897.038058267889
 21
-1669.8511105349
 31
0.0
1001
ACAD
1010
0.0
1020
0.0
1030
0.0
  0
LINE
  5
267DB
  8
1HATCH
 10
3877.038058267889
 20
-1698.83136665597
 30
0.0
 11
3897.038058267889
 21
-1678.83136665597
 31
0.0
1001
ACAD
1010
0.0
1020
0.0
1030
0.0
  0
LINE
  5
267DC
  8
1HATCH
 10
3877.038058267889
 20
-1707.811622777039
 30
0.0
 11
3897.038058267889
 21
-1687.8116227770381
 31
0.0
1001
ACAD
1010
0.0
1020
0.0
1030
0.0
  0
LINE
  5
267DD
  8
1HATCH
 10
3877.038058267889
 20
-1716.7918788981081
 30
0.0
 11
3897.038058267889
 21
-1696.7918788981081
 31
0.0
1001
ACAD
1010
0.0
1020
0.0
1030
0.0
  0
LINE
  5
267DE
  8
1HATCH
 10
3877.038058267889
 20
-1725.7721350191771
 30
0.0
 11
3897.038058267889
 21
-1705.7721350191771
 31
0.0
1001
ACAD
1010
0.0
1020
0.0
1030
0.0
  0
LINE
  5
267DF
  8
1HATCH
 10
3877.038058267889
 20
-1734.752391140247
 30
0.0
 11
3897.038058267889
 21
-1714.7523911402459
 31
0.0
1001
ACAD
1010
0.0
1020
0.0
1030
0.0
  0
LINE
  5
267E0
  8
1HATCH
 10
3880.28992770677
 20
-1740.4807778224349
 30
0.0
 11
3897.038058267889
 21
-1723.7326472613149
 31
0.0
1001
ACAD
1010
0.0
1020
0.0
1030
0.0
  0
LINE
  5
267E1
  8
1HATCH
 10
3889.270183827839
 20
-1740.4807778224349
 30
0.0
 11
3897.038058267889
 21
-1732.712903382384
 31
0.0
1001
ACAD
1010
0.0
1020
0.0
1030
0.0
  0
LINE
  5
267E2
  8
1DIM
 10
3829.0380582678931
 20
-1748.83907577796
 30
0.0
 11
3815.0380582678931
 21
-1748.83907577796
 31
0.0
  0
LINE
  5
267E3
  8
1DIM
 10
3829.038058267894
 20
-1754.83907577796
 30
0.0
 11
3815.0380582678931
 21
-1754.83907577796
 31
0.0
  0
LINE
  5
267E4
  8
1DIM
 10
3816.0380582678931
 20
-1750.83907577796
 30
0.0
 11
3816.0380582678931
 21
-1752.83907577796
 31
0.0
  0
LINE
  5
267E5
  8
1DIM
 10
3816.0380582678931
 20
-1754.83907577796
 30
0.0
 11
3816.0380582678931
 21
-1768.4390757779611
 31
0.0
  0
LINE
  5
267E9
  8
1DIM
 10
3826.538058267894
 20
-1745.83907577796
 30
0.0
 11
3805.0380582678931
 21
-1745.83907577796
 31
0.0
  0
LINE
  5
267EA
  8
1DIM
 10
3826.5380582678931
 20
-1757.83907577796
 30
0.0
 11
3805.0380582678931
 21
-1757.83907577796
 31
0.0
  0
LINE
  5
267EB
  8
1DIM
 10
3806.038058267894
 20
-1747.83907577796
 30
0.0
 11
3806.038058267894
 21
-1755.83907577796
 31
0.0
  0
LINE
  5
267EF
  8
1DIM
 10
3851.0380582678931
 20
-1674.3390757779621
 30
0.0
 11
3851.0380582678931
 21
-1673.3390757779621
 31
0.0
  0
LINE
  5
267F0
  8
1DIM
 10
3826.038058267894
 20
-1746.33907577796
 30
0.0
 11
3826.038058267894
 21
-1673.3390757779621
 31
0.0
  0
LINE
  5
267F1
  8
1DIM
 10
3849.0380582678931
 20
-1674.3390757779621
 30
0.0
 11
3828.038058267894
 21
-1674.3390757779621
 31
0.0
  0
LINE
  5
267F5
  8
1DIM
 10
3851.5380582678931
 20
-1771.8390757779609
 30
0.0
 11
3795.038058267894
 21
-1771.8390757779609
 31
0.0
  0
LINE
  5
267F6
  8
1DIM
 10
3851.5380582678908
 20
-1731.83907577796
 30
0.0
 11
3795.038058267894
 21
-1731.83907577796
 31
0.0
  0
LINE
  5
267F7
  8
1DIM
 10
3796.038058267894
 20
-1769.83907577796
 30
0.0
 11
3796.038058267894
 21
-1733.83907577796
 31
0.0
  0
LINE
  5
267FB
  8
1DIM
 10
3620.5380582678931
 20
-1630.209549665851
 30
0.0
 11
3620.5380582678931
 21
-1641.209549665851
 31
0.0
  0
LINE
  5
267FC
  8
1DIM
 10
3726.5380582678931
 20
-1630.209549665851
 30
0.0
 11
3726.5380582678931
 21
-1641.209549665851
 31
0.0
  0
LINE
  5
267FD
  8
1DIM
 10
3622.5380582678931
 20
-1640.209549665851
 30
0.0
 11
3724.5380582678931
 21
-1640.209549665851
 31
0.0
  0
LINE
  5
26801
  8
1DIM
 10
3826.0380582678931
 20
-1757.33907577796
 30
0.0
 11
3826.0380582678931
 21
-1792.83907577796
 31
0.0
  0
LINE
  5
26802
  8
1DIM
 10
3861.6380582678889
 20
-1753.33907577796
 30
0.0
 11
3861.6380582678889
 21
-1792.83907577796
 31
0.0
  0
LINE
  5
26803
  8
1DIM
 10
3828.0380582678931
 20
-1791.8390757779609
 30
0.0
 11
3859.6380582678889
 21
-1791.8390757779609
 31
0.0
  0
LINE
  5
26807
  8
1DIM
 10
3740.538058267894
 20
-1684.339075777963
 30
0.0
 11
3767.038058267894
 21
-1684.339075777963
 31
0.0
  0
LINE
  5
26808
  8
1DIM
 10
3740.5380582678949
 20
-1771.8390757779609
 30
0.0
 11
3767.038058267894
 21
-1771.8390757779609
 31
0.0
  0
LINE
  5
26809
  8
1DIM
 10
3766.038058267894
 20
-1686.339075777963
 30
0.0
 11
3766.038058267894
 21
-1769.83907577796
 31
0.0
  0
LINE
  5
2680D
  8
1DIM
 10
3601.038058267894
 20
-1766.8390757779609
 30
0.0
 11
3601.038058267894
 21
-1792.83907577796
 31
0.0
  0
LINE
  5
2680E
  8
1DIM
 10
3746.038058267894
 20
-1766.8390757779609
 30
0.0
 11
3746.038058267894
 21
-1792.83907577796
 31
0.0
  0
LINE
  5
2680F
  8
1DIM
 10
3603.0380582678949
 20
-1791.8390757779609
 30
0.0
 11
3744.038058267894
 21
-1791.8390757779609
 31
0.0
  0
TEXT
  5
26813
  8
1DIM
 10
3566.1424703221119
 20
-1754.5840427166661
 30
0.0
 40
3.5
  1
材質：ガラス
  0
TEXT
  5
26814
  8
1DIM
 10
3553.0758036554448
 20
-1760.4173760499989
 30
0.0
 40
3.5
  1
仕上げ：各種仕上げ
  0
SOLID
  5
26815
  8
1DIM
 10
3604.528775646033
 20
-1750.6209892908159
 30
0.0
 11
3606.2707577433389
 21
-1749.5833913514491
 31
0.0
 12
3604.9594550910879
 22
-1751.1298700824091
 32
0.0
 13
3604.9594550910879
 23
-1751.1298700824091
 33
0.0
  0
TEXT
  5
26817
  8
1DIM
 10
3754.9180610669418
 20
-1668.9885910615319
 30
0.0
 40
3.5
  1
材質：ステンレス
  0
SOLID
  5
26818
  8
1DIM
 10
3740.0115730201578
 20
-1690.4713841629491
 30
0.0
 11
3738.6898693118692
 21
-1692.008983076387
 31
0.0
 12
3739.4414488477842
 22
-1690.125836955581
 32
0.0
 13
3739.4414488477842
 23
-1690.125836955581
 33
0.0
  0
LINE
  5
2681A
  8
1DIM
 10
3739.726510933971
 20
-1690.2986105592649
 30
0.0
 11
3752.2180610669429
 21
-1669.688591061532
 31
0.0
  0
LINE
  5
2681B
  8
1DIM
 10
3752.2180610669429
 20
-1669.688591061532
 30
0.0
 11
3754.9180610669418
 21
-1669.688591061532
 31
0.0
  0
LINE
  5
2681C
  8
1DIM
 10
3604.7441153685609
 20
-1750.8754296866121
 30
0.0
 11
3592.6424703221119
 21
-1761.1173760499989
 31
0.0
  0
LINE
  5
2681D
  8
1DIM
 10
3592.6424703221119
 20
-1761.1173760499989
 30
0.0
 11
3589.9424703221121
 21
-1761.1173760499989
 31
0.0
  0
TEXT
  5
2681E
  8
1DIM
 10
3669.4547249345601
 20
-1791.1390757779609
 30
0.0
 40
3.5
  1
145
  0
LINE
  5
2681F
  8
0
  6
BYBLOCK
 10
3744.038058267894
 20
-1791.303177397961
 30
0.0
 11
3746.038058267894
 21
-1791.8390757779609
 31
0.0
  0
LINE
  5
26820
  8
0
  6
BYBLOCK
 10
3746.038058267894
 20
-1791.8390757779609
 30
0.0
 11
3744.038058267894
 21
-1792.37497415796
 31
0.0
  0
LINE
  5
26821
  8
0
  6
BYBLOCK
 10
3746.038058267894
 20
-1791.8390757779609
 30
0.0
 11
3744.038058267894
 21
-1791.8390757779609
 31
0.0
  0
LINE
  5
26822
  8
0
  6
BYBLOCK
 10
3603.0380582678949
 20
-1792.37497415796
 30
0.0
 11
3601.038058267894
 21
-1791.8390757779609
 31
0.0
  0
LINE
  5
26823
  8
0
  6
BYBLOCK
 10
3601.038058267894
 20
-1791.8390757779609
 30
0.0
 11
3603.0380582678949
 21
-1791.303177397961
 31
0.0
  0
LINE
  5
26824
  8
0
  6
BYBLOCK
 10
3601.038058267894
 20
-1791.8390757779609
 30
0.0
 11
3603.0380582678949
 21
-1791.8390757779609
 31
0.0
  0
TEXT
  5
26825
  8
1DIM
 10
3765.3380582678942
 20
-1733.3390757779609
 30
0.0
 40
3.5
  1
87.5
 50
90.0
  0
LINE
  5
26826
  8
0
  6
BYBLOCK
 10
3766.5739566478942
 20
-1769.83907577796
 30
0.0
 11
3766.038058267894
 21
-1771.8390757779609
 31
0.0
  0
LINE
  5
26827
  8
0
  6
BYBLOCK
 10
3766.038058267894
 20
-1771.8390757779609
 30
0.0
 11
3765.502159887893
 21
-1769.83907577796
 31
0.0
  0
LINE
  5
26828
  8
0
  6
BYBLOCK
 10
3766.038058267894
 20
-1771.8390757779609
 30
0.0
 11
3766.038058267894
 21
-1769.83907577796
 31
0.0
  0
LINE
  5
26829
  8
0
  6
BYBLOCK
 10
3765.502159887893
 20
-1686.339075777963
 30
0.0
 11
3766.038058267894
 21
-1684.339075777963
 31
0.0
  0
LINE
  5
2682A
  8
0
  6
BYBLOCK
 10
3766.038058267894
 20
-1684.339075777963
 30
0.0
 11
3766.5739566478942
 21
-1686.339075777963
 31
0.0
  0
LINE
  5
2682B
  8
0
  6
BYBLOCK
 10
3766.038058267894
 20
-1684.339075777963
 30
0.0
 11
3766.038058267894
 21
-1686.339075777963
 31
0.0
  0
TEXT
  5
2682C
  8
1DIM
 10
3838.588058267891
 20
-1791.1390757779609
 30
0.0
 40
3.5
  1
35.5
  0
LINE
  5
2682D
  8
0
  6
BYBLOCK
 10
3859.6380582678889
 20
-1791.303177397961
 30
0.0
 11
3861.6380582678889
 21
-1791.8390757779609
 31
0.0
  0
LINE
  5
2682E
  8
0
  6
BYBLOCK
 10
3861.6380582678889
 20
-1791.8390757779609
 30
0.0
 11
3859.6380582678889
 21
-1792.37497415796
 31
0.0
  0
LINE
  5
2682F
  8
0
  6
BYBLOCK
 10
3861.6380582678889
 20
-1791.8390757779609
 30
0.0
 11
3859.6380582678889
 21
-1791.8390757779609
 31
0.0
  0
LINE
  5
26830
  8
0
  6
BYBLOCK
 10
3828.0380582678931
 20
-1792.37497415796
 30
0.0
 11
3826.0380582678931
 21
-1791.8390757779609
 31
0.0
  0
LINE
  5
26831
  8
0
  6
BYBLOCK
 10
3826.0380582678931
 20
-1791.8390757779609
 30
0.0
 11
3828.0380582678931
 21
-1791.303177397961
 31
0.0
  0
LINE
  5
26832
  8
0
  6
BYBLOCK
 10
3826.0380582678931
 20
-1791.8390757779609
 30
0.0
 11
3828.0380582678931
 21
-1791.8390757779609
 31
0.0
  0
TEXT
  5
26833
  8
1DIM
 10
3669.7463916012271
 20
-1639.50954966585
 30
0.0
 40
3.5
  1
106
  0
LINE
  5
26834
  8
0
  6
BYBLOCK
 10
3724.5380582678931
 20
-1639.6736512858511
 30
0.0
 11
3726.5380582678931
 21
-1640.209549665851
 31
0.0
  0
LINE
  5
26835
  8
0
  6
BYBLOCK
 10
3726.5380582678931
 20
-1640.209549665851
 30
0.0
 11
3724.5380582678931
 21
-1640.7454480458509
 31
0.0
  0
LINE
  5
26836
  8
0
  6
BYBLOCK
 10
3726.5380582678931
 20
-1640.209549665851
 30
0.0
 11
3724.5380582678931
 21
-1640.209549665851
 31
0.0
  0
LINE
  5
26837
  8
0
  6
BYBLOCK
 10
3622.5380582678931
 20
-1640.7454480458509
 30
0.0
 11
3620.5380582678931
 21
-1640.209549665851
 31
0.0
  0
LINE
  5
26838
  8
0
  6
BYBLOCK
 10
3620.5380582678931
 20
-1640.209549665851
 30
0.0
 11
3622.5380582678931
 21
-1639.6736512858511
 31
0.0
  0
LINE
  5
26839
  8
0
  6
BYBLOCK
 10
3620.5380582678931
 20
-1640.209549665851
 30
0.0
 11
3622.5380582678931
 21
-1640.209549665851
 31
0.0
  0
TEXT
  5
2683A
  8
1DIM
 10
3795.3380582678951
 20
-1754.46407577796
 30
0.0
 40
3.5
  1
40
 50
90.0
  0
LINE
  5
2683B
  8
0
  6
BYBLOCK
 10
3795.5021598878939
 20
-1733.83907577796
 30
0.0
 11
3796.038058267894
 21
-1731.83907577796
 31
0.0
  0
LINE
  5
2683C
  8
0
  6
BYBLOCK
 10
3796.038058267894
 20
-1731.83907577796
 30
0.0
 11
3796.5739566478942
 21
-1733.83907577796
 31
0.0
  0
LINE
  5
2683D
  8
0
  6
BYBLOCK
 10
3796.038058267894
 20
-1731.83907577796
 30
0.0
 11
3796.038058267894
 21
-1733.83907577796
 31
0.0
  0
LINE
  5
2683E
  8
0
  6
BYBLOCK
 10
3796.5739566478942
 20
-1769.83907577796
 30
0.0
 11
3796.038058267894
 21
-1771.8390757779609
 31
0.0
  0
LINE
  5
2683F
  8
0
  6
BYBLOCK
 10
3796.038058267894
 20
-1771.8390757779609
 30
0.0
 11
3795.5021598878939
 21
-1769.83907577796
 31
0.0
  0
LINE
  5
26840
  8
0
  6
BYBLOCK
 10
3796.038058267894
 20
-1771.8390757779609
 30
0.0
 11
3796.038058267894
 21
-1769.83907577796
 31
0.0
  0
TEXT
  5
26841
  8
1DIM
 10
3835.6213916012271
 20
-1673.639075777962
 30
0.0
 40
3.5
  1
25
  0
LINE
  5
26842
  8
0
  6
BYBLOCK
 10
3828.038058267894
 20
-1674.874974157962
 30
0.0
 11
3826.038058267894
 21
-1674.3390757779621
 31
0.0
  0
LINE
  5
26843
  8
0
  6
BYBLOCK
 10
3826.038058267894
 20
-1674.3390757779621
 30
0.0
 11
3828.038058267894
 21
-1673.8031773979619
 31
0.0
  0
LINE
  5
26844
  8
0
  6
BYBLOCK
 10
3826.038058267894
 20
-1674.3390757779621
 30
0.0
 11
3828.038058267894
 21
-1674.3390757779621
 31
0.0
  0
LINE
  5
26845
  8
0
  6
BYBLOCK
 10
3849.0380582678931
 20
-1673.8031773979619
 30
0.0
 11
3851.0380582678931
 21
-1674.3390757779621
 31
0.0
  0
LINE
  5
26846
  8
0
  6
BYBLOCK
 10
3851.0380582678931
 20
-1674.3390757779621
 30
0.0
 11
3849.0380582678931
 21
-1674.874974157962
 31
0.0
  0
LINE
  5
26847
  8
0
  6
BYBLOCK
 10
3851.0380582678931
 20
-1674.3390757779621
 30
0.0
 11
3849.0380582678931
 21
-1674.3390757779621
 31
0.0
  0
TEXT
  5
26848
  8
1DIM
 10
3805.3380582678942
 20
-1756.6224091112931
 30
0.0
 40
3.5
  1
\U+03C612
 50
90.0
  0
LINE
  5
26849
  8
0
  6
BYBLOCK
 10
3806.5739566478942
 20
-1755.83907577796
 30
0.0
 11
3806.038058267894
 21
-1757.83907577796
 31
0.0
  0
LINE
  5
2684A
  8
0
  6
BYBLOCK
 10
3806.038058267894
 20
-1757.83907577796
 30
0.0
 11
3805.5021598878939
 21
-1755.83907577796
 31
0.0
  0
LINE
  5
2684B
  8
0
  6
BYBLOCK
 10
3806.038058267894
 20
-1757.83907577796
 30
0.0
 11
3806.038058267894
 21
-1755.83907577796
 31
0.0
  0
LINE
  5
2684C
  8
0
  6
BYBLOCK
 10
3805.5021598878939
 20
-1747.83907577796
 30
0.0
 11
3806.038058267894
 21
-1745.83907577796
 31
0.0
  0
LINE
  5
2684D
  8
0
  6
BYBLOCK
 10
3806.038058267894
 20
-1745.83907577796
 30
0.0
 11
3806.5739566478942
 21
-1747.83907577796
 31
0.0
  0
LINE
  5
2684E
  8
0
  6
BYBLOCK
 10
3806.038058267894
 20
-1745.83907577796
 30
0.0
 11
3806.038058267894
 21
-1747.83907577796
 31
0.0
  0
TEXT
  5
2684F
  8
1DIM
 10
3815.3380582678942
 20
-1768.1890757779599
 30
0.0
 40
3.5
  1
\U+03C66
 50
90.0
  0
LINE
  5
26850
  8
0
  6
BYBLOCK
 10
3816.5739566478928
 20
-1752.83907577796
 30
0.0
 11
3816.0380582678931
 21
-1754.83907577796
 31
0.0
  0
LINE
  5
26851
  8
0
  6
BYBLOCK
 10
3816.0380582678931
 20
-1754.83907577796
 30
0.0
 11
3815.502159887893
 21
-1752.83907577796
 31
0.0
  0
LINE
  5
26852
  8
0
  6
BYBLOCK
 10
3816.0380582678931
 20
-1754.83907577796
 30
0.0
 11
3816.0380582678931
 21
-1752.83907577796
 31
0.0
  0
LINE
  5
26853
  8
0
  6
BYBLOCK
 10
3815.502159887893
 20
-1750.83907577796
 30
0.0
 11
3816.0380582678931
 21
-1748.83907577796
 31
0.0
  0
LINE
  5
26854
  8
0
  6
BYBLOCK
 10
3816.0380582678931
 20
-1748.83907577796
 30
0.0
 11
3816.5739566478928
 21
-1750.83907577796
 31
0.0
  0
LINE
  5
26855
  8
0
  6
BYBLOCK
 10
3816.0380582678931
 20
-1748.83907577796
 30
0.0
 11
3816.0380582678931
 21
-1750.83907577796
 31
0.0
  0
LINE
  5
26856
  8
1DIM
 10
3842.082536527354
 20
-1749.7183093488629
 30
0.0
 11
3822.2171394389188
 21
-1720.9146499422659
 31
0.0
  0
LINE
  5
26857
  8
1DIM
 10
3822.2171394389188
 20
-1720.9146499422659
 30
0.0
 11
3819.5171394389181
 21
-1720.9146499422659
 31
0.0
  0
TEXT
  5
26858
  8
1DIM
 10
3849.2047249345578
 20
-1801.1390757779609
 30
0.0
 40
3.5
  1
51
  0
LINE
  5
26859
  8
0
  6
BYBLOCK
 10
3875.0380582678899
 20
-1801.303177397961
 30
0.0
 11
3877.038058267889
 21
-1801.83907577796
 31
0.0
  0
LINE
  5
2685A
  8
0
  6
BYBLOCK
 10
3877.038058267889
 20
-1801.83907577796
 30
0.0
 11
3875.0380582678899
 21
-1802.3749741579611
 31
0.0
  0
LINE
  5
2685B
  8
0
  6
BYBLOCK
 10
3877.038058267889
 20
-1801.83907577796
 30
0.0
 11
3875.0380582678899
 21
-1801.83907577796
 31
0.0
  0
LINE
  5
2685C
  8
0
  6
BYBLOCK
 10
3828.0380582678931
 20
-1802.3749741579611
 30
0.0
 11
3826.0380582678931
 21
-1801.83907577796
 31
0.0
  0
LINE
  5
2685D
  8
0
  6
BYBLOCK
 10
3826.0380582678931
 20
-1801.83907577796
 30
0.0
 11
3828.0380582678931
 21
-1801.303177397961
 31
0.0
  0
LINE
  5
2685E
  8
0
  6
BYBLOCK
 10
3826.0380582678931
 20
-1801.83907577796
 30
0.0
 11
3828.0380582678931
 21
-1801.83907577796
 31
0.0
  0
LINE
  5
2685F
  8
1DIM
 10
3736.4442610196061
 20
-1712.5541036936461
 30
0.0
 11
3753.0541463857498
 21
-1679.892339214601
 31
0.0
  0
LINE
  5
26860
  8
1DIM
 10
3753.0541463857498
 20
-1679.892339214601
 30
0.0
 11
3755.7541463857501
 21
-1679.892339214601
 31
0.0
  0
TEXT
  5
26861
  8
1DIM
 10
3785.3380582678951
 20
-1755.3390757779589
 30
0.0
 40
3.5
  1
43.5
 50
90.0
  0
LINE
  5
26862
  8
0
  6
BYBLOCK
 10
3785.5021598878939
 20
-1730.3390757779589
 30
0.0
 11
3786.038058267894
 21
-1728.3390757779589
 31
0.0
  0
LINE
  5
26863
  8
0
  6
BYBLOCK
 10
3786.038058267894
 20
-1728.3390757779589
 30
0.0
 11
3786.5739566478942
 21
-1730.3390757779589
 31
0.0
  0
LINE
  5
26864
  8
0
  6
BYBLOCK
 10
3786.038058267894
 20
-1728.3390757779589
 30
0.0
 11
3786.038058267894
 21
-1730.3390757779589
 31
0.0
  0
LINE
  5
26865
  8
0
  6
BYBLOCK
 10
3786.5739566478942
 20
-1769.83907577796
 30
0.0
 11
3786.038058267894
 21
-1771.8390757779609
 31
0.0
  0
LINE
  5
26866
  8
0
  6
BYBLOCK
 10
3786.038058267894
 20
-1771.8390757779609
 30
0.0
 11
3785.5021598878939
 21
-1769.83907577796
 31
0.0
  0
LINE
  5
26867
  8
0
  6
BYBLOCK
 10
3786.038058267894
 20
-1771.8390757779609
 30
0.0
 11
3786.038058267894
 21
-1769.83907577796
 31
0.0
  0
VIEWPORT
  5
57
 67
     1
  8
0
 10
-2.3084472526301449
 20
10.09248672500371
 30
0.0
 40
426.95331571119118
 41
287.53227721789079
 68
     1
 69
     1
1001
ACAD
1000
MVIEW
1002
{
1070
    16
1010
0.0
1020
0.0
1030
0.0
1010
0.0
1020
0.0
1030
1.0
1040
0.0
1040
287.53227721789079
1040
-2.3084472526301449
1040
10.09248672500371
1040
50.0
1040
0.0
1040
0.0
1070
     0
1070
   100
1070
     1
1070
     1
1070
     0
1070
     0
1070
     0
1070
     0
1040
0.0
1040
0.0
1040
0.0
1040
10.0
1040
10.0
1040
10.0
1040
10.0
1070
     0
1002
{
1002
}
1002
}
  0
ENDSEC
  0
EOF
