  0
SECTION
  2
HEADER
  9
$ACADVER
  1
AC1009
  9
$INSBASE
 10
0.0
 20
0.0
 30
0.0
  9
$EXTMIN
 10
3817.1433713505521
 20
-2278.4905495625239
 30
0.0
  9
$EXTMAX
 10
4451.7370209959799
 20
-1816.6428715564989
 30
0.0
  9
$LIMMIN
 10
0.0
 20
0.0
  9
$LIMMAX
 10
420.0
 20
297.0
  9
$ORTHOMODE
 70
     0
  9
$REGENMODE
 70
     1
  9
$FILLMODE
 70
     1
  9
$QTEXTMODE
 70
     0
  9
$MIRRTEXT
 70
     0
  9
$DRAGMODE
 70
     2
  9
$LTSCALE
 40
0.5
  9
$OSMODE
 70
    55
  9
$ATTMODE
 70
     1
  9
$TEXTSIZE
 40
4.0
  9
$TRACEWID
 40
1.0
  9
$TEXTSTYLE
  7
STANDARD
  9
$CLAYER
  8
1TEXT
  9
$CELTYPE
  6
BYLAYER
  9
$CECOLOR
 62
   256
  9
$DIMSCALE
 40
2.0
  9
$DIMASZ
 40
2.0
  9
$DIMEXO
 40
0.0
  9
$DIMDLI
 40
7.0
  9
$DIMRND
 40
0.0
  9
$DIMDLE
 40
0.0
  9
$DIMEXE
 40
1.0
  9
$DIMTP
 40
0.0
  9
$DIMTM
 40
0.0
  9
$DIMTXT
 40
3.5
  9
$DIMCEN
 40
0.0
  9
$DIMTSZ
 40
0.0
  9
$DIMTOL
 70
     0
  9
$DIMLIM
 70
     0
  9
$DIMTIH
 70
     0
  9
$DIMTOH
 70
     0
  9
$DIMSE1
 70
     0
  9
$DIMSE2
 70
     0
  9
$DIMTAD
 70
     1
  9
$DIMZIN
 70
     8
  9
$DIMBLK
  1

  9
$DIMASO
 70
     1
  9
$DIMSHO
 70
     1
  9
$DIMPOST
  1
 
  9
$DIMAPOST
  1

  9
$DIMALT
 70
     0
  9
$DIMALTD
 70
     2
  9
$DIMALTF
 40
25.399999999999999
  9
$DIMLFAC
 40
1.0
  9
$DIMTOFL
 70
     1
  9
$DIMTVP
 40
0.0
  9
$DIMTIX
 70
     0
  9
$DIMSOXD
 70
     0
  9
$DIMSAH
 70
     1
  9
$DIMBLK1
  1
OPEN30
  9
$DIMBLK2
  1
OPEN30
  9
$DIMSTYLE
  2
NEWX10
  9
$DIMCLRD
 70
   256
  9
$DIMCLRE
 70
   256
  9
$DIMCLRT
 70
   201
  9
$DIMTFAC
 40
0.7
  9
$DIMGAP
 40
0.7
  9
$LUNITS
 70
     2
  9
$LUPREC
 70
     4
  9
$SKETCHINC
 40
1.0
  9
$FILLETRAD
 40
0.0
  9
$AUNITS
 70
     0
  9
$AUPREC
 70
     2
  9
$MENU
  1
acad
  9
$ELEVATION
 40
0.0
  9
$PELEVATION
 40
0.0
  9
$THICKNESS
 40
0.0
  9
$LIMCHECK
 70
     0
  9
$BLIPMODE
 70
     0
  9
$CHAMFERA
 40
1.0
  9
$CHAMFERB
 40
1.0
  9
$SKPOLY
 70
     0
  9
$TDCREATE
 40
2453033.7326634838
  9
$TDUPDATE
 40
2457639.695365116
  9
$TDINDWG
 40
2.9287018287
  9
$TDUSRTIMER
 40
2.9287018287
  9
$USRTIMER
 70
     1
  9
$ANGBASE
 50
0.0
  9
$ANGDIR
 70
     0
  9
$PDMODE
 70
     0
  9
$PDSIZE
 40
0.0
  9
$PLINEWID
 40
0.0
  9
$COORDS
 70
     0
  9
$SPLFRAME
 70
     0
  9
$SPLINETYPE
 70
     6
  9
$SPLINESEGS
 70
     8
  9
$ATTDIA
 70
     0
  9
$ATTREQ
 70
     1
  9
$HANDLING
 70
     1
  9
$HANDSEED
  5
2E939
  9
$SURFTAB1
 70
     6
  9
$SURFTAB2
 70
     6
  9
$SURFTYPE
 70
     6
  9
$SURFU
 70
     6
  9
$SURFV
 70
     6
  9
$UCSNAME
  2

  9
$UCSORG
 10
0.0
 20
0.0
 30
0.0
  9
$UCSXDIR
 10
1.0
 20
0.0
 30
0.0
  9
$UCSYDIR
 10
0.0
 20
1.0
 30
0.0
  9
$PUCSNAME
  2

  9
$PUCSORG
 10
0.0
 20
0.0
 30
0.0
  9
$PUCSXDIR
 10
1.0
 20
0.0
 30
0.0
  9
$PUCSYDIR
 10
0.0
 20
1.0
 30
0.0
  9
$USERI1
 70
     0
  9
$USERI2
 70
     0
  9
$USERI3
 70
     0
  9
$USERI4
 70
     0
  9
$USERI5
 70
     0
  9
$USERR1
 40
0.0
  9
$USERR2
 40
0.0
  9
$USERR3
 40
0.0
  9
$USERR4
 40
0.0
  9
$USERR5
 40
0.0
  9
$WORLDVIEW
 70
     1
  9
$SHADEDGE
 70
     3
  9
$SHADEDIF
 70
    70
  9
$TILEMODE
 70
     1
  9
$MAXACTVP
 70
    48
  9
$PLIMCHECK
 70
     0
  9
$PEXTMIN
 10
1.0000000000000000E+020
 20
1.0000000000000000E+020
 30
1.0000000000000000E+020
  9
$PEXTMAX
 10
-1.0000000000000000E+020
 20
-1.0000000000000000E+020
 30
-1.0000000000000000E+020
  9
$PLIMMIN
 10
0.0
 20
0.0
  9
$PLIMMAX
 10
420.0
 20
297.0
  9
$UNITMODE
 70
     0
  9
$VISRETAIN
 70
     1
  9
$PLINEGEN
 70
     0
  9
$PSLTSCALE
 70
     1
  0
ENDSEC
  0
SECTION
  2
TABLES
  0
TABLE
  2
VPORT
 70
     1
  0
VPORT
  2
*ACTIVE
 70
     0
 10
0.0
 20
0.0
 11
1.0
 21
1.0
 12
4134.4787670338046
 22
-2047.590051571917
 13
0.0
 23
0.0
 14
10.0
 24
10.0
 15
10.0
 25
10.0
 16
0.0
 26
0.0
 36
1.0
 17
0.0
 27
0.0
 37
0.0
 40
489.9097112492575
 41
2.1885143570536818
 42
50.0
 43
0.0
 44
0.0
 50
0.0
 51
0.0
 71
     0
 72
   100
 73
     1
 74
     1
 75
     0
 76
     0
 77
     0
 78
     0
  0
ENDTAB
  0
TABLE
  2
LTYPE
 70
    17
  0
LTYPE
  2
CONTINUOUS
 70
     0
  3
Solid line
 72
    65
 73
     0
 40
0.0
  0
LTYPE
  2
CENTER2
 70
     0
  3
Center (.5x) ___ _ ___ _ ___ _ ___ _ ___ _ ___
 72
    65
 73
     4
 40
28.574999999999999
 49
19.050000000000001
 49
-3.1749999999999989
 49
3.1749999999999989
 49
-3.1749999999999989
  0
LTYPE
  2
PHANTOM2
 70
     0
  3
Phantom (.5x) ___ _ _ ___ _ _ ___ _ _ ___ _ _
 72
    65
 73
     6
 40
31.75
 49
15.875
 49
-3.1749999999999989
 49
3.1749999999999989
 49
-3.1749999999999989
 49
3.1749999999999989
 49
-3.1749999999999989
  0
ENDTAB
  0
TABLE
  2
LAYER
 70
    48
  0
LAYER
  2
0
 70
     0
 62
     7
  6
CONTINUOUS
  0
LAYER
  2
1CENTER
 70
     0
 62
     7
  6
CENTER2
  0
LAYER
  2
1TEXT
 70
     0
 62
     7
  6
CONTINUOUS
  0
LAYER
  2
1DIM
 70
     0
 62
     7
  6
CONTINUOUS
  0
LAYER
  2
1PHANTOM
 70
     0
 62
     7
  6
PHANTOM2
  0
LAYER
  2
01
 70
     0
 62
     1
  6
CONTINUOUS
  0
LAYER
  2
1HATCH
 70
     0
 62
     7
  6
CONTINUOUS
  0
ENDTAB
  0
TABLE
  2
STYLE
 70
    26
  0
STYLE
  2
STANDARD
 70
     0
 40
0.0
 41
1.0
 50
0.0
 71
     0
 42
4.0
  3
txt.shx
  4
extfont.shx
  0
ENDTAB
  0
TABLE
  2
VIEW
 70
     5
  0
ENDTAB
  0
TABLE
  2
UCS
 70
     0
  0
ENDTAB
  0
TABLE
  2
APPID
 70
    14
  0
APPID
  2
ACAD
 70
     0
  0
APPID
  2
DRAWINGVARIABLESXDATA
 70
     0
  0
APPID
  2
CONTENTTABDATA
 70
     0
  0
APPID
  2
CONTENTCURRENTTAB
 70
     0
  0
APPID
  2
CONTENTBLOCKDESCRIPTION
 70
     0
  0
APPID
  2
CONTENTBLOCKICON
 70
     0
  0
APPID
  2
CONTENTLONGBLOCKNAME
 70
     0
  0
APPID
  2
ACAD_PSEXT
 70
     0
  0
APPID
  2
ACAD_DSTYLE_DIMTEXT_FILL
 70
     0
  0
APPID
  2
ACAD_MLEADERVER
 70
     0
  0
APPID
  2
ACAD_DSTYLE_DIMRADIAL_EXTENSION
 70
     0
  0
APPID
  2
ACADANNOTATIVE
 70
     0
  0
APPID
  2
ACLAYERTOOLS
 70
     0
  0
APPID
  2
ACAD_EXEMPT_FROM_CAD_STANDARDS
 70
     0
  0
ENDTAB
  0
TABLE
  2
DIMSTYLE
 70
    10
  0
DIMSTYLE
  2
NEWX10
 70
     0
  3
 
  4

  5

  6
OPEN30
  7
OPEN30
 40
1.0
 41
2.0
 42
0.0
 43
7.0
 44
1.0
 45
0.0
 46
0.0
 47
0.0
 48
0.0
140
3.5
141
0.0
142
0.0
143
25.399999999999999
144
1.0
145
0.0
146
0.7
147
0.7
 71
     0
 72
     0
 73
     0
 74
     0
 75
     0
 76
     0
 77
     1
 78
     8
170
     0
171
     2
172
     1
173
     1
174
     0
175
     0
176
   256
177
   256
178
   201
  0
ENDTAB
  0
ENDSEC
  0
SECTION
  2
BLOCKS
  0
BLOCK
  8
0
  2
$MODEL_SPACE
 70
     0
 10
0.0
 20
0.0
 30
0.0
  3
$MODEL_SPACE
  1

  0
ENDBLK
  5
1A
  8
0
  0
BLOCK
 67
     1
  8
0
  2
$PAPER_SPACE
 70
     0
 10
0.0
 20
0.0
 30
0.0
  3
$PAPER_SPACE
  1

  0
ENDBLK
  5
17
 67
     1
  8
0
  0
BLOCK
  8
0
  2
_OPEN30
 70
     0
 10
0.0
 20
0.0
 30
0.0
  3
_OPEN30
  1

  0
LINE
  5
44
  8
0
  6
BYBLOCK
 62
     0
 10
-1.0
 20
0.26794919
 30
0.0
 11
0.0
 21
0.0
 31
0.0
  0
LINE
  5
45
  8
0
  6
BYBLOCK
 62
     0
 10
0.0
 20
0.0
 30
0.0
 11
-1.0
 21
-0.26794919
 31
0.0
  0
LINE
  5
46
  8
0
  6
BYBLOCK
 62
     0
 10
0.0
 20
0.0
 30
0.0
 11
-1.0
 21
0.0
 31
0.0
  0
ENDBLK
  5
47
  8
0
  0
ENDSEC
  0
SECTION
  2
ENTITIES
  0
LINE
  5
25395
  8
1DIM
 10
3880.559154391708
 20
-1851.0274510732261
 30
0.0
 11
4370.5591543917117
 21
-1851.027451073224
 31
0.0
  0
LINE
  5
25396
  8
1DIM
 10
3880.559154391708
 20
-1837.0274510732261
 30
0.0
 11
4370.5591543917117
 21
-1837.027451073224
 31
0.0
  0
TEXT
  5
25397
  8
1TEXT
 10
4111.7591543917079
 20
-1848.0274510732261
 30
0.0
 40
8.0
  1
コード
 72
     1
 11
4125.3591543917082
 21
-1848.0274510732261
 31
0.0
  0
LINE
  5
25399
  8
1DIM
 10
3880.559154391708
 20
-1865.027451073227
 30
0.0
 11
4160.5591543917089
 21
-1865.0274510732261
 31
0.0
  0
TEXT
  5
2539A
  8
1TEXT
 10
3890.079154391708
 20
-1862.4561650405251
 30
0.0
 40
8.0
  1
ヘアラインシルバー
 41
0.6
 72
     1
 11
3915.3591543917082
 21
-1862.4561650405251
 31
0.0
  0
LINE
  5
2539B
  8
1DIM
 10
3880.559154391708
 20
-1837.027451073227
 30
0.0
 11
3880.5591543917071
 21
-1879.027451073227
 31
0.0
  0
LINE
  5
2539C
  8
1DIM
 10
4090.5591543917089
 20
-1837.0274510732249
 30
0.0
 11
4090.559154391708
 21
-1879.027451073227
 31
0.0
  0
LINE
  5
2539D
  8
1DIM
 10
4160.5591543917099
 20
-1837.0274510732249
 30
0.0
 11
4160.559154391708
 21
-1879.027451073227
 31
0.0
  0
TEXT
  5
2539F
  8
1TEXT
 10
3879.1676772484138
 20
-1832.6428715564989
 30
0.0
 40
16.0
  1
GP-120-X-31
  0
LINE
  5
253A0
  8
1DIM
 10
3880.559154391708
 20
-1879.027451073227
 30
0.0
 11
4370.5591543917108
 21
-1879.027451073227
 31
0.0
  0
TEXT
  5
253A6
  8
1TEXT
 10
4177.2258210583768
 20
-1848.0274510732261
 30
0.0
 40
8.0
  1
対応子機
 72
     1
 11
4195.3591543917091
 21
-1848.0274510732261
 31
0.0
  0
TEXT
  5
253A9
  8
1TEXT
 10
4167.6258210583783
 20
-1862.4561650405251
 30
0.0
 40
8.0
  1
パナソニック
 72
     1
 11
4195.3591543917119
 21
-1862.4561650405251
 31
0.0
  0
LINE
  5
25587
  8
1DIM
 10
4020.5591543917071
 20
-1837.0274510732249
 30
0.0
 11
4020.559154391708
 21
-1879.027451073227
 31
0.0
  0
TEXT
  5
25588
  8
1TEXT
 10
4037.0124877250428
 20
-1862.456165040524
 30
0.0
 40
8.0
  1
ヘアライン
 41
0.8
 72
     1
 11
4055.35915439171
 21
-1862.456165040524
 31
0.0
  0
TEXT
  5
25591
  8
1TEXT
 10
4097.1924877250422
 20
-1862.456165040524
 30
0.0
 40
8.0
  1
GP-120-XT-31
 41
0.65
 72
     1
 11
4125.3591543917082
 21
-1862.456165040524
 31
0.0
  0
LINE
  5
29BB2
  8
1DIM
 10
3950.5591543917071
 20
-1837.0274510732261
 30
0.0
 11
3950.5591543917071
 21
-1879.027451073227
 31
0.0
  0
TEXT
  5
29BB3
  8
1TEXT
 10
3967.0124877250428
 20
-1862.456165040524
 30
0.0
 40
8.0
  1
ヘアライン
 41
0.8
 72
     1
 11
3985.3591543917091
 21
-1862.456165040524
 31
0.0
  0
LINE
  5
2CE48
  8
1PHANTOM
 10
3887.4826162613722
 20
-2093.6097676262448
 30
0.0
 11
3887.4826162613722
 21
-2102.6097676262439
 31
0.0
  0
LINE
  5
2CE49
  8
1PHANTOM
 10
3893.4826162613708
 20
-2093.6097676262448
 30
0.0
 11
3893.4826162613708
 21
-2102.6097676262439
 31
0.0
  0
ARC
  5
2CE4A
  8
1PHANTOM
 10
3890.4826162613722
 20
-2093.6097676262448
 30
0.0
 40
3.0
 50
0.0
 51
180.0
  0
ARC
  5
2CE4B
  8
1PHANTOM
 10
3890.4826162613722
 20
-2102.6097676262439
 30
0.0
 40
3.0
 50
180.0
 51
0.0
  0
LINE
  5
2CE4C
  8
1CENTER
 10
3890.4826162613722
 20
-2088.1992776072489
 30
0.0
 11
3890.4826162613722
 21
-2108.0202576452398
 31
0.0
  0
LINE
  5
2CE4D
  8
1CENTER
 10
3885.3010028476951
 20
-2098.1097676262439
 30
0.0
 11
3895.6642296750479
 21
-2098.1097676262439
 31
0.0
  0
LINE
  5
2CE4E
  8
1PHANTOM
 10
3887.4826162613722
 20
-2193.6097676262448
 30
0.0
 11
3887.4826162613722
 21
-2202.6097676262448
 31
0.0
  0
LINE
  5
2CE4F
  8
1PHANTOM
 10
3893.4826162613731
 20
-2193.6097676262448
 30
0.0
 11
3893.4826162613731
 21
-2202.6097676262448
 31
0.0
  0
ARC
  5
2CE50
  8
1PHANTOM
 10
3890.4826162613731
 20
-2193.6097676262448
 30
0.0
 40
3.0
 50
0.0
 51
180.0
  0
ARC
  5
2CE51
  8
1PHANTOM
 10
3890.4826162613731
 20
-2202.6097676262448
 30
0.0
 40
3.0
 50
180.0
 51
0.0
  0
LINE
  5
2CE52
  8
1CENTER
 10
3890.4826162613731
 20
-2188.1992776072489
 30
0.0
 11
3890.4826162613731
 21
-2208.0202576452389
 31
0.0
  0
LINE
  5
2CE53
  8
1CENTER
 10
3885.3010028476951
 20
-2198.1097676262439
 30
0.0
 11
3895.6642296750479
 21
-2198.1097676262439
 31
0.0
  0
LINE
  5
2CE54
  8
1PHANTOM
 10
3973.4826162613731
 20
-2093.6097676262448
 30
0.0
 11
3973.4826162613731
 21
-2102.6097676262439
 31
0.0
  0
LINE
  5
2CE55
  8
1PHANTOM
 10
3967.4826162613731
 20
-2093.6097676262448
 30
0.0
 11
3967.4826162613731
 21
-2102.6097676262439
 31
0.0
  0
ARC
  5
2CE56
  8
1PHANTOM
 10
3970.4826162613731
 20
-2093.6097676262448
 30
0.0
 40
3.0
 50
0.0
 51
180.0
  0
ARC
  5
2CE57
  8
1PHANTOM
 10
3970.4826162613731
 20
-2102.6097676262439
 30
0.0
 40
3.0
 50
180.0
 51
0.0
  0
LINE
  5
2CE58
  8
1CENTER
 10
3970.4826162613731
 20
-2088.1992776072489
 30
0.0
 11
3970.4826162613731
 21
-2108.0202576452398
 31
0.0
  0
LINE
  5
2CE59
  8
1CENTER
 10
3975.6642296750501
 20
-2098.1097676262439
 30
0.0
 11
3965.301002847697
 21
-2098.1097676262439
 31
0.0
  0
LINE
  5
2CE5A
  8
1PHANTOM
 10
3973.4826162613722
 20
-2193.6097676262448
 30
0.0
 11
3973.4826162613722
 21
-2202.6097676262448
 31
0.0
  0
LINE
  5
2CE5B
  8
1PHANTOM
 10
3967.4826162613722
 20
-2193.6097676262448
 30
0.0
 11
3967.4826162613722
 21
-2202.6097676262448
 31
0.0
  0
ARC
  5
2CE5C
  8
1PHANTOM
 10
3970.4826162613722
 20
-2193.6097676262448
 30
0.0
 40
3.0
 50
0.0
 51
180.0
  0
ARC
  5
2CE5D
  8
1PHANTOM
 10
3970.4826162613722
 20
-2202.6097676262448
 30
0.0
 40
3.0
 50
180.0
 51
0.0
  0
LINE
  5
2CE5E
  8
1CENTER
 10
3970.4826162613722
 20
-2188.1992776072489
 30
0.0
 11
3970.4826162613722
 21
-2208.0202576452389
 31
0.0
  0
LINE
  5
2CE5F
  8
1CENTER
 10
3975.6642296750488
 20
-2198.1097676262439
 30
0.0
 11
3965.301002847697
 21
-2198.1097676262439
 31
0.0
  0
LINE
  5
2CE60
  8
1PHANTOM
 10
4093.4826162613722
 20
-2193.6097676262448
 30
0.0
 11
4093.4826162613722
 21
-2202.6097676262448
 31
0.0
  0
LINE
  5
2CE61
  8
1PHANTOM
 10
4087.4826162613722
 20
-2193.6097676262448
 30
0.0
 11
4087.4826162613722
 21
-2202.6097676262448
 31
0.0
  0
ARC
  5
2CE62
  8
1PHANTOM
 10
4090.4826162613722
 20
-2193.6097676262448
 30
0.0
 40
3.0
 50
0.0
 51
180.0
  0
ARC
  5
2CE63
  8
1PHANTOM
 10
4090.4826162613722
 20
-2202.6097676262448
 30
0.0
 40
3.0
 50
180.0
 51
0.0
  0
LINE
  5
2CE64
  8
1CENTER
 10
4090.4826162613722
 20
-2188.1992776072502
 30
0.0
 11
4090.4826162613722
 21
-2208.0202576452389
 31
0.0
  0
LINE
  5
2CE65
  8
1CENTER
 10
4095.6642296750488
 20
-2198.1097676262439
 30
0.0
 11
4085.3010028476951
 21
-2198.1097676262439
 31
0.0
  0
LINE
  5
2CE66
  8
1PHANTOM
 10
4243.4826162613708
 20
-2193.6097676262448
 30
0.0
 11
4243.4826162613708
 21
-2202.6097676262448
 31
0.0
  0
LINE
  5
2CE67
  8
1PHANTOM
 10
4237.4826162613708
 20
-2193.6097676262448
 30
0.0
 11
4237.4826162613708
 21
-2202.6097676262448
 31
0.0
  0
ARC
  5
2CE68
  8
1PHANTOM
 10
4240.4826162613708
 20
-2193.6097676262448
 30
0.0
 40
3.0
 50
0.0
 51
180.0
  0
ARC
  5
2CE69
  8
1PHANTOM
 10
4240.4826162613708
 20
-2202.6097676262448
 30
0.0
 40
3.0
 50
180.0
 51
0.0
  0
LINE
  5
2CE6A
  8
1CENTER
 10
4240.4826162613708
 20
-2188.1992776072502
 30
0.0
 11
4240.4826162613708
 21
-2208.0202576452389
 31
0.0
  0
LINE
  5
2CE6B
  8
1CENTER
 10
4245.6642296750488
 20
-2198.1097676262439
 30
0.0
 11
4235.3010028476938
 21
-2198.1097676262439
 31
0.0
  0
LINE
  5
2CE6E
  8
01
 10
3881.9826162613231
 20
-2079.1097676262448
 30
0.0
 11
4272.9826162613217
 21
-2079.1097676262448
 31
0.0
  0
ARC
  5
2CE6F
  8
01
 10
4272.9826162613217
 20
-2084.1097676262448
 30
0.0
 40
5.0
 50
0.0
 51
90.0
  0
LINE
  5
2CE70
  8
01
 10
3881.9826162613231
 20
-2217.1097676262448
 30
0.0
 11
4272.9826162613217
 21
-2217.1097676262448
 31
0.0
  0
ARC
  5
2CE71
  8
01
 10
3881.9826162613231
 20
-2212.1097676262448
 30
0.0
 40
5.0
 50
180.0
 51
270.0
  0
LINE
  5
2CE72
  8
01
 10
3876.982616261324
 20
-2212.1097676262448
 30
0.0
 11
3876.9826162613222
 21
-2084.1097676262448
 31
0.0
  0
ARC
  5
2CE73
  8
01
 10
3881.9826162613231
 20
-2084.1097676262448
 30
0.0
 40
5.0
 50
90.0
 51
180.0
  0
LINE
  5
2CE74
  8
01
 10
4277.9826162613217
 20
-2212.1097676262448
 30
0.0
 11
4277.9826162613217
 21
-2084.1097676262448
 31
0.0
  0
ARC
  5
2CE75
  8
01
 10
4272.9826162613217
 20
-2212.1097676262448
 30
0.0
 40
5.0
 50
270.0
 51
0.0
  0
LINE
  5
2CE76
  8
01
 10
4247.4826162613217
 20
-2125.6097676262448
 30
0.0
 11
4247.4826162613217
 21
-2170.6097676262448
 31
0.0
  0
ARC
  5
2CE77
  8
01
 10
4242.4826162613217
 20
-2170.6097676262448
 30
0.0
 40
5.0
 50
270.0
 51
0.0
  0
LINE
  5
2CE78
  8
01
 10
4049.4826162614208
 20
-2170.6097676262448
 30
0.0
 11
4049.4826162614222
 21
-2125.6097676262448
 31
0.0
  0
ARC
  5
2CE79
  8
01
 10
4054.4826162614222
 20
-2125.6097676262448
 30
0.0
 40
5.0
 50
90.0
 51
180.0
  0
LINE
  5
2CE7A
  8
01
 10
4242.4826162613217
 20
-2175.6097676262448
 30
0.0
 11
4054.4826162614208
 21
-2175.6097676262448
 31
0.0
  0
ARC
  5
2CE7B
  8
01
 10
4054.4826162614208
 20
-2170.6097676262448
 30
0.0
 40
5.0
 50
180.0
 51
270.0
  0
LINE
  5
2CE7C
  8
01
 10
4242.4826162613217
 20
-2120.6097676262448
 30
0.0
 11
4054.4826162614222
 21
-2120.6097676262448
 31
0.0
  0
ARC
  5
2CE7D
  8
01
 10
4242.4826162613217
 20
-2125.6097676262448
 30
0.0
 40
5.0
 50
0.0
 51
90.0
  0
LINE
  5
2D037
  8
1PHANTOM
 10
4245.2326162613708
 20
-1969.159511311515
 30
0.0
 11
4245.2326162613708
 21
-1970.159511311515
 31
0.0
  0
ARC
  5
2D038
  8
1PHANTOM
 10
4240.4826162613708
 20
-1963.3886779781819
 30
0.0
 40
8.2708333333334387
 50
234.94886325253091
 51
305.05113674746917
  0
LINE
  5
2D039
  8
1PHANTOM
 10
4235.7326162613717
 20
-1969.159511311515
 30
0.0
 11
4235.7326162613717
 21
-1970.159511311515
 31
0.0
  0
LINE
  5
2D03A
  8
1CENTER
 10
4240.4826162613708
 20
-1927.5578363115151
 30
0.0
 11
4240.4826162613708
 21
-1973.001941885484
 31
0.0
  0
LINE
  5
2D03B
  8
1PHANTOM
 10
4245.0156794410377
 20
-1970.159511311515
 30
0.0
 11
4235.9772484765654
 21
-1970.159511311515
 31
0.0
  0
LINE
  5
2D03C
  8
1PHANTOM
 10
4237.9826162613717
 20
-1953.0416457254689
 30
0.0
 11
4242.9826162613708
 21
-1952.0416457254701
 31
0.0
  0
LINE
  5
2D03D
  8
1PHANTOM
 10
4238.7326162613717
 20
-1935.6906002247599
 30
0.0
 11
4238.7326162613717
 21
-1969.159511311515
 31
0.0
  0
LINE
  5
2D03E
  8
1PHANTOM
 10
4240.4826162613708
 20
-1929.159511311515
 30
0.0
 11
4238.7326162613717
 21
-1935.6906002247599
 31
0.0
  0
LINE
  5
2D03F
  8
1PHANTOM
 10
4240.4826162613708
 20
-1929.159511311515
 30
0.0
 11
4242.2326162613717
 21
-1935.6906002247599
 31
0.0
  0
LINE
  5
2D040
  8
1PHANTOM
 10
4242.2326162613717
 20
-1935.6906002247599
 30
0.0
 11
4242.2326162613717
 21
-1969.159511311515
 31
0.0
  0
LINE
  5
2D041
  8
1PHANTOM
 10
4238.1663493203359
 20
-1935.0048991136759
 30
0.0
 11
4238.9163493203359
 21
-1935.1548991136769
 31
0.0
  0
LINE
  5
2D042
  8
1PHANTOM
 10
4238.1663493203359
 20
-1935.0048991136759
 30
0.0
 11
4242.563253801427
 21
-1934.125518217458
 31
0.0
  0
LINE
  5
2D043
  8
1PHANTOM
 10
4240.7959729483146
 20
-1930.1789743880811
 30
0.0
 11
4241.5459729483146
 21
-1930.32897438808
 31
0.0
  0
LINE
  5
2D044
  8
1PHANTOM
 10
4239.2988358608536
 20
-1930.7784018055729
 30
0.0
 11
4240.0488358608554
 21
-1930.928401805573
 31
0.0
  0
LINE
  5
2D045
  8
1PHANTOM
 10
4239.2988358608536
 20
-1930.7784018055729
 30
0.0
 11
4241.5459729483146
 21
-1930.32897438808
 31
0.0
  0
LINE
  5
2D046
  8
1PHANTOM
 10
4241.813253801427
 20
-1933.9755182174581
 30
0.0
 11
4242.563253801427
 21
-1934.125518217458
 31
0.0
  0
LINE
  5
2D047
  8
1PHANTOM
 10
4241.3046133748721
 20
-1932.077246302769
 30
0.0
 11
4242.0546133748721
 21
-1932.22724630277
 31
0.0
  0
LINE
  5
2D048
  8
1PHANTOM
 10
4238.7325925905952
 20
-1932.891650459625
 30
0.0
 11
4239.4825925905952
 21
-1933.0416504596251
 31
0.0
  0
LINE
  5
2D049
  8
1PHANTOM
 10
4238.7325925905952
 20
-1932.891650459625
 30
0.0
 11
4242.0546133748721
 21
-1932.22724630277
 31
0.0
  0
LINE
  5
2D04A
  8
1PHANTOM
 10
4242.2326162613717
 20
-1943.89164572547
 30
0.0
 11
4242.9826162613708
 21
-1944.0416457254689
 31
0.0
  0
LINE
  5
2D04B
  8
1PHANTOM
 10
4237.9826162613717
 20
-1941.0416457254689
 30
0.0
 11
4238.7326162613717
 21
-1941.191645725469
 31
0.0
  0
LINE
  5
2D04C
  8
1PHANTOM
 10
4237.9826162613717
 20
-1943.0416457254701
 30
0.0
 11
4238.7326162613717
 21
-1943.191645725469
 31
0.0
  0
LINE
  5
2D04D
  8
1PHANTOM
 10
4237.9826162613717
 20
-1943.0416457254701
 30
0.0
 11
4242.9826162613708
 21
-1942.0416457254689
 31
0.0
  0
LINE
  5
2D04E
  8
1PHANTOM
 10
4237.9826162613717
 20
-1939.0416457254701
 30
0.0
 11
4238.7326162613717
 21
-1939.191645725469
 31
0.0
  0
LINE
  5
2D04F
  8
1PHANTOM
 10
4237.9826162613717
 20
-1937.0416457254689
 30
0.0
 11
4238.7326162613717
 21
-1937.191645725469
 31
0.0
  0
LINE
  5
2D050
  8
1PHANTOM
 10
4237.9826162613717
 20
-1937.0416457254689
 30
0.0
 11
4242.9826162613708
 21
-1936.0416457254701
 31
0.0
  0
LINE
  5
2D051
  8
1PHANTOM
 10
4237.9826162613717
 20
-1939.0416457254701
 30
0.0
 11
4242.9826162613708
 21
-1938.0416457254689
 31
0.0
  0
LINE
  5
2D052
  8
1PHANTOM
 10
4237.9826162613717
 20
-1941.0416457254689
 30
0.0
 11
4242.9826162613708
 21
-1940.0416457254689
 31
0.0
  0
LINE
  5
2D053
  8
1PHANTOM
 10
4242.2326162613717
 20
-1935.89164572547
 30
0.0
 11
4242.9826162613708
 21
-1936.0416457254701
 31
0.0
  0
LINE
  5
2D054
  8
1PHANTOM
 10
4242.2326162613717
 20
-1937.89164572547
 30
0.0
 11
4242.9826162613708
 21
-1938.0416457254689
 31
0.0
  0
LINE
  5
2D055
  8
1PHANTOM
 10
4242.2326162613717
 20
-1941.89164572547
 30
0.0
 11
4242.9826162613708
 21
-1942.0416457254689
 31
0.0
  0
LINE
  5
2D056
  8
1PHANTOM
 10
4242.2326162613717
 20
-1939.89164572547
 30
0.0
 11
4242.9826162613708
 21
-1940.0416457254689
 31
0.0
  0
LINE
  5
2D057
  8
1PHANTOM
 10
4237.9826162613717
 20
-1947.0416457254701
 30
0.0
 11
4238.7326162613717
 21
-1947.191645725469
 31
0.0
  0
LINE
  5
2D058
  8
1PHANTOM
 10
4237.9826162613717
 20
-1945.0416457254701
 30
0.0
 11
4238.7326162613717
 21
-1945.191645725469
 31
0.0
  0
LINE
  5
2D059
  8
1PHANTOM
 10
4237.9826162613717
 20
-1951.0416457254689
 30
0.0
 11
4238.7326162613717
 21
-1951.191645725469
 31
0.0
  0
LINE
  5
2D05A
  8
1PHANTOM
 10
4237.9826162613717
 20
-1949.0416457254689
 30
0.0
 11
4238.7326162613717
 21
-1949.191645725469
 31
0.0
  0
LINE
  5
2D05B
  8
1PHANTOM
 10
4237.9826162613717
 20
-1945.0416457254701
 30
0.0
 11
4242.9826162613708
 21
-1944.0416457254689
 31
0.0
  0
LINE
  5
2D05C
  8
1PHANTOM
 10
4237.9826162613717
 20
-1947.0416457254701
 30
0.0
 11
4242.9826162613708
 21
-1946.0416457254689
 31
0.0
  0
LINE
  5
2D05D
  8
1PHANTOM
 10
4237.9826162613717
 20
-1949.0416457254689
 30
0.0
 11
4242.9826162613708
 21
-1948.0416457254701
 31
0.0
  0
LINE
  5
2D05E
  8
1PHANTOM
 10
4237.9826162613717
 20
-1951.0416457254689
 30
0.0
 11
4242.9826162613708
 21
-1950.0416457254701
 31
0.0
  0
LINE
  5
2D05F
  8
1PHANTOM
 10
4242.2326162613717
 20
-1947.89164572547
 30
0.0
 11
4242.9826162613708
 21
-1948.0416457254701
 31
0.0
  0
LINE
  5
2D060
  8
1PHANTOM
 10
4242.2326162613717
 20
-1945.89164572547
 30
0.0
 11
4242.9826162613708
 21
-1946.0416457254689
 31
0.0
  0
LINE
  5
2D061
  8
1PHANTOM
 10
4242.2326162613717
 20
-1951.89164572547
 30
0.0
 11
4242.9826162613708
 21
-1952.0416457254701
 31
0.0
  0
LINE
  5
2D062
  8
1PHANTOM
 10
4242.2326162613717
 20
-1949.89164572547
 30
0.0
 11
4242.9826162613708
 21
-1950.0416457254701
 31
0.0
  0
LINE
  5
2D063
  8
1PHANTOM
 10
4237.9826162613717
 20
-1969.0416457254689
 30
0.0
 11
4242.9826162613708
 21
-1968.0416457254701
 31
0.0
  0
LINE
  5
2D064
  8
1PHANTOM
 10
4237.9826162613717
 20
-1961.0416457254701
 30
0.0
 11
4242.9826162613708
 21
-1960.0416457254689
 31
0.0
  0
LINE
  5
2D065
  8
1PHANTOM
 10
4237.9826162613717
 20
-1953.0416457254689
 30
0.0
 11
4238.7326162613717
 21
-1953.191645725469
 31
0.0
  0
LINE
  5
2D066
  8
1PHANTOM
 10
4237.9826162613717
 20
-1955.0416457254689
 30
0.0
 11
4238.7326162613717
 21
-1955.191645725469
 31
0.0
  0
LINE
  5
2D067
  8
1PHANTOM
 10
4237.9826162613717
 20
-1957.0416457254689
 30
0.0
 11
4238.7326162613717
 21
-1957.191645725469
 31
0.0
  0
LINE
  5
2D068
  8
1PHANTOM
 10
4237.9826162613717
 20
-1959.0416457254701
 30
0.0
 11
4238.7326162613717
 21
-1959.191645725469
 31
0.0
  0
LINE
  5
2D069
  8
1PHANTOM
 10
4237.9826162613717
 20
-1955.0416457254689
 30
0.0
 11
4242.9826162613708
 21
-1954.0416457254689
 31
0.0
  0
LINE
  5
2D06A
  8
1PHANTOM
 10
4237.9826162613717
 20
-1957.0416457254689
 30
0.0
 11
4242.9826162613708
 21
-1956.0416457254689
 31
0.0
  0
LINE
  5
2D06B
  8
1PHANTOM
 10
4237.9826162613717
 20
-1959.0416457254701
 30
0.0
 11
4242.9826162613708
 21
-1958.0416457254689
 31
0.0
  0
LINE
  5
2D06C
  8
1PHANTOM
 10
4242.2326162613717
 20
-1953.89164572547
 30
0.0
 11
4242.9826162613708
 21
-1954.0416457254689
 31
0.0
  0
LINE
  5
2D06D
  8
1PHANTOM
 10
4242.2326162613717
 20
-1955.89164572547
 30
0.0
 11
4242.9826162613708
 21
-1956.0416457254689
 31
0.0
  0
LINE
  5
2D06E
  8
1PHANTOM
 10
4242.2326162613717
 20
-1957.89164572547
 30
0.0
 11
4242.9826162613708
 21
-1958.0416457254689
 31
0.0
  0
LINE
  5
2D06F
  8
1PHANTOM
 10
4242.2326162613717
 20
-1959.89164572547
 30
0.0
 11
4242.9826162613708
 21
-1960.0416457254689
 31
0.0
  0
LINE
  5
2D070
  8
1PHANTOM
 10
4237.9826162613717
 20
-1965.0416457254689
 30
0.0
 11
4238.7326162613717
 21
-1965.191645725469
 31
0.0
  0
LINE
  5
2D071
  8
1PHANTOM
 10
4237.9826162613717
 20
-1963.0416457254701
 30
0.0
 11
4238.7326162613717
 21
-1963.191645725469
 31
0.0
  0
LINE
  5
2D072
  8
1PHANTOM
 10
4237.9826162613717
 20
-1961.0416457254701
 30
0.0
 11
4238.7326162613717
 21
-1961.191645725469
 31
0.0
  0
LINE
  5
2D073
  8
1PHANTOM
 10
4237.9826162613717
 20
-1967.0416457254689
 30
0.0
 11
4238.7326162613717
 21
-1967.191645725469
 31
0.0
  0
LINE
  5
2D074
  8
1PHANTOM
 10
4237.9826162613717
 20
-1963.0416457254701
 30
0.0
 11
4242.9826162613708
 21
-1962.0416457254689
 31
0.0
  0
LINE
  5
2D075
  8
1PHANTOM
 10
4237.9826162613717
 20
-1965.0416457254689
 30
0.0
 11
4242.9826162613708
 21
-1964.0416457254701
 31
0.0
  0
LINE
  5
2D076
  8
1PHANTOM
 10
4237.9826162613717
 20
-1967.0416457254689
 30
0.0
 11
4242.9826162613708
 21
-1966.0416457254701
 31
0.0
  0
LINE
  5
2D077
  8
1PHANTOM
 10
4242.2326162613717
 20
-1963.89164572547
 30
0.0
 11
4242.9826162613708
 21
-1964.0416457254701
 31
0.0
  0
LINE
  5
2D078
  8
1PHANTOM
 10
4242.2326162613717
 20
-1961.89164572547
 30
0.0
 11
4242.9826162613708
 21
-1962.0416457254689
 31
0.0
  0
LINE
  5
2D079
  8
1PHANTOM
 10
4242.2326162613717
 20
-1965.89164572547
 30
0.0
 11
4242.9826162613708
 21
-1966.0416457254701
 31
0.0
  0
LINE
  5
2D07A
  8
1PHANTOM
 10
4242.2326162613717
 20
-1967.89164572547
 30
0.0
 11
4242.9826162613708
 21
-1968.0416457254701
 31
0.0
  0
LINE
  5
2D07B
  8
1PHANTOM
 10
4237.9826162613717
 20
-1969.0416457254689
 30
0.0
 11
4238.7326162613717
 21
-1969.191645725469
 31
0.0
  0
LINE
  5
2D07C
  8
1PHANTOM
 10
4245.2326162613708
 20
-1969.159511311515
 30
0.0
 11
4235.7326162613717
 21
-1969.159511311515
 31
0.0
  0
ARC
  5
2D10A
  8
01
 10
4186.9826162613717
 20
-2210.338934292909
 30
0.0
 40
8.2708333333334387
 50
234.94886325254589
 51
305.05113674745411
  0
LINE
  5
2D10C
  8
01
 10
4191.5156794410377
 20
-2217.109767626242
 30
0.0
 11
4182.4772484765654
 21
-2217.109767626242
 31
0.0
  0
ARC
  5
2D10E
  8
01
 10
4106.9826162613717
 20
-2210.338934292909
 30
0.0
 40
8.2708333333334387
 50
234.94886325254589
 51
305.05113674745411
  0
LINE
  5
2D110
  8
01
 10
4111.5156794410368
 20
-2217.109767626242
 30
0.0
 11
4102.4772484765654
 21
-2217.109767626242
 31
0.0
  0
LINE
  5
2D241
  8
01
 10
4357.456659758931
 20
-2080.109767626243
 30
0.0
 11
4386.4566597589301
 21
-2080.1097676262448
 31
0.0
  0
LINE
  5
2D242
  8
01
 10
4345.456659758931
 20
-2080.1097676262411
 30
0.0
 11
4345.4566597589292
 21
-2216.109767626242
 31
0.0
  0
LINE
  5
2D243
  8
01
 10
4357.9566597589283
 20
-2091.609767626242
 30
0.0
 11
4357.9566597589283
 21
-2111.609767626242
 31
0.0
  0
LINE
  5
2D244
  8
01
 10
4358.9566597589292
 20
-2091.609767626242
 30
0.0
 11
4358.9566597589292
 21
-2111.609767626242
 31
0.0
  0
LINE
  5
2D245
  8
01
 10
4357.4566597589292
 20
-2180.109767626237
 30
0.0
 11
4357.4566597589292
 21
-2205.109767626233
 31
0.0
  0
LINE
  5
2D246
  8
01
 10
4386.4566597589301
 20
-2080.1097676262448
 30
0.0
 11
4386.4566597589301
 21
-2216.109767626222
 31
0.0
  0
LINE
  5
2D247
  8
01
 10
4345.4566597589292
 20
-2216.109767626242
 30
0.0
 11
4386.4566597589301
 21
-2216.109767626222
 31
0.0
  0
LINE
  5
2D248
  8
01
 10
4357.4566597589292
 20
-2180.109767626237
 30
0.0
 11
4386.4566597589128
 21
-2180.109767626222
 31
0.0
  0
LINE
  5
2D249
  8
01
 10
4357.4566597589292
 20
-2205.109767626233
 30
0.0
 11
4345.4566597589292
 21
-2205.109767626233
 31
0.0
  0
LINE
  5
2D24A
  8
01
 10
4357.456659758931
 20
-2091.609767626242
 30
0.0
 11
4358.9566597589292
 21
-2091.609767626242
 31
0.0
  0
LINE
  5
2D24B
  8
01
 10
4357.9566597589283
 20
-2111.609767626242
 30
0.0
 11
4360.9566597589292
 21
-2111.609767626242
 31
0.0
  0
LINE
  5
2D24D
  8
01
 10
4360.9566597589292
 20
-2111.609767626242
 30
0.0
 11
4360.9566597589292
 21
-2180.1097676262352
 31
0.0
  0
LINE
  5
2D24E
  8
01
 10
4345.456659758931
 20
-2203.109767626242
 30
0.0
 11
4357.4566597589292
 21
-2203.109767626242
 31
0.0
  0
LINE
  5
2D24F
  8
01
 10
4357.456659758931
 20
-2079.1097676262448
 30
0.0
 11
4357.456659758931
 21
-2204.109767626233
 31
0.0
  0
LINE
  5
2D250
  8
01
 10
4343.4566597589301
 20
-2079.1097676262448
 30
0.0
 11
4343.4566597589301
 21
-2217.1097676262461
 31
0.0
  0
LINE
  5
2D251
  8
01
 10
4343.4566597589301
 20
-2079.1097676262448
 30
0.0
 11
4345.456659758931
 21
-2079.1097676262448
 31
0.0
  0
LINE
  5
2D252
  8
01
 10
4343.4566597589301
 20
-2217.1097676262461
 30
0.0
 11
4345.456659758931
 21
-2217.1097676262461
 31
0.0
  0
LINE
  5
2D254
  8
01
 10
4345.456659758931
 20
-2217.1097676262461
 30
0.0
 11
4345.456659758931
 21
-2079.1097676262448
 31
0.0
  0
LINE
  5
2D255
  8
01
 10
4357.456659758931
 20
-2182.1097676262398
 30
0.0
 11
4357.456659758931
 21
-2198.1097676262398
 31
0.0
  0
LINE
  5
2D256
  8
01
 10
4345.456659758931
 20
-2204.109767626233
 30
0.0
 11
4357.456659758931
 21
-2204.109767626233
 31
0.0
  0
LINE
  5
2D257
  8
01
 10
4345.456659758931
 20
-2079.1097676262448
 30
0.0
 11
4357.456659758931
 21
-2079.1097676262448
 31
0.0
  0
LINE
  5
2D261
  8
01
 10
4365.9566597589283
 20
-2185.759767626234
 30
0.0
 11
4365.9566597589283
 21
-2180.1097676262339
 31
0.0
  0
LINE
  5
2D262
  8
01
 10
4365.9566597589283
 20
-2185.759767626234
 30
0.0
 11
4366.3066597589286
 21
-2186.1097676262339
 31
0.0
  0
LINE
  5
2D263
  8
01
 10
4363.2066597589292
 20
-2180.1097676262339
 30
0.0
 11
4365.9566597589283
 21
-2180.1097676262339
 31
0.0
  0
LINE
  5
2D264
  8
01
 10
4366.3066597589286
 20
-2186.1097676262339
 30
0.0
 11
4369.6066597589279
 21
-2186.1097676262339
 31
0.0
  0
LINE
  5
2D265
  8
01
 10
4363.2066597589292
 20
-2180.1097676262339
 30
0.0
 11
4363.2066597589292
 21
-2179.1097676262339
 31
0.0
  0
LINE
  5
2D266
  8
01
 10
4369.6066597589279
 20
-2186.1097676262339
 30
0.0
 11
4369.9566597589292
 21
-2185.759767626234
 31
0.0
  0
ARC
  5
2D267
  8
01
 10
4367.9566597589292
 20
-2185.8806009595669
 30
0.0
 40
8.2708333333334387
 50
54.948863252573027
 51
125.0511367474269
  0
LINE
  5
2D268
  8
01
 10
4369.9566597589292
 20
-2185.759767626234
 30
0.0
 11
4369.9566597589292
 21
-2180.1097676262339
 31
0.0
  0
LINE
  5
2D269
  8
01
 10
4372.7066597589292
 20
-2180.1097676262339
 30
0.0
 11
4372.7066597589292
 21
-2179.1097676262339
 31
0.0
  0
LINE
  5
2D26A
  8
01
 10
4369.9566597589292
 20
-2180.1097676262339
 30
0.0
 11
4372.7066597589292
 21
-2180.1097676262339
 31
0.0
  0
LINE
  5
2D26B
  8
1HATCH
 10
4369.6066597589279
 20
-2186.1097676262339
 30
0.0
 11
4369.6066597589279
 21
-2180.1097676262339
 31
0.0
  0
LINE
  5
2D26C
  8
1HATCH
 10
4366.3066597589286
 20
-2186.1097676262339
 30
0.0
 11
4366.3066597589286
 21
-2180.1097676262339
 31
0.0
  0
LINE
  5
2D26D
  8
1CENTER
 10
4367.9566597589292
 20
-2187.990024759978
 30
0.0
 11
4367.9566597589292
 21
-2176.0049946364852
 31
0.0
  0
LINE
  5
2D26E
  8
1HATCH
 10
4365.9566597589283
 20
-2185.759767626234
 30
0.0
 11
4369.9566597589292
 21
-2185.759767626234
 31
0.0
  0
LINE
  5
2D26F
  8
01
 10
4365.9566597589283
 20
-2180.1097676262339
 30
0.0
 11
4369.9566597589292
 21
-2180.1097676262339
 31
0.0
  0
LINE
  5
2D270
  8
01
 10
4363.4235965792632
 20
-2179.1097676262339
 30
0.0
 11
4372.4620275437346
 21
-2179.1097676262339
 31
0.0
  0
LINE
  5
2D271
  8
01
 10
4358.9566597589292
 20
-2109.609767626242
 30
0.0
 11
4360.956659758931
 21
-2109.609767626242
 31
0.0
  0
LINE
  5
2D272
  8
01
 10
4358.9566597589292
 20
-2093.609767626242
 30
0.0
 11
4360.956659758931
 21
-2093.609767626242
 31
0.0
  0
LINE
  5
2D273
  8
01
 10
4358.9566597589292
 20
-2093.609767626242
 30
0.0
 11
4358.9566597589292
 21
-2109.609767626242
 31
0.0
  0
LINE
  5
2D274
  8
01
 10
4360.9566597589292
 20
-2091.609767626242
 30
0.0
 11
4360.9566597589292
 21
-2111.609767626242
 31
0.0
  0
LINE
  5
2D275
  8
01
 10
4367.9566597589292
 20
-2092.109767626242
 30
0.0
 11
4367.9566597589292
 21
-2111.109767626242
 31
0.0
  0
LINE
  5
2D276
  8
01
 10
4360.9566597589292
 20
-2111.609767626242
 30
0.0
 11
4367.9566597589292
 21
-2111.109767626242
 31
0.0
  0
LINE
  5
2D277
  8
01
 10
4367.9566597589292
 20
-2092.109767626242
 30
0.0
 11
4360.9566597589292
 21
-2091.609767626242
 31
0.0
  0
ARC
  5
2D278
  8
01
 10
4338.6233264255961
 20
-2101.609767626242
 30
0.0
 40
30.833333333333911
 50
342.05474677020021
 51
17.945253229799739
  0
LINE
  5
2D279
  8
01
 10
4377.4566597589292
 20
-2210.4597676262269
 30
0.0
 11
4377.4566597589292
 21
-2216.1097676262279
 31
0.0
  0
LINE
  5
2D27A
  8
01
 10
4377.4566597589292
 20
-2210.4597676262269
 30
0.0
 11
4377.1066597589279
 21
-2210.1097676262279
 31
0.0
  0
LINE
  5
2D27B
  8
01
 10
4380.2066597589292
 20
-2216.1097676262279
 30
0.0
 11
4377.4566597589292
 21
-2216.1097676262279
 31
0.0
  0
LINE
  5
2D27C
  8
01
 10
4377.1066597589279
 20
-2210.1097676262279
 30
0.0
 11
4373.8066597589286
 21
-2210.1097676262279
 31
0.0
  0
LINE
  5
2D27D
  8
01
 10
4380.2066597589292
 20
-2216.1097676262279
 30
0.0
 11
4380.2066597589292
 21
-2217.1097676262279
 31
0.0
  0
LINE
  5
2D27E
  8
01
 10
4373.8066597589286
 20
-2210.1097676262279
 30
0.0
 11
4373.4566597589292
 21
-2210.4597676262269
 31
0.0
  0
ARC
  5
2D27F
  8
01
 10
4375.4566597589292
 20
-2210.338934292894
 30
0.0
 40
8.2708333333334387
 50
234.94886325254569
 51
305.05113674745388
  0
LINE
  5
2D280
  8
01
 10
4373.4566597589292
 20
-2210.4597676262269
 30
0.0
 11
4373.4566597589292
 21
-2216.1097676262279
 31
0.0
  0
LINE
  5
2D281
  8
01
 10
4370.7066597589292
 20
-2216.1097676262279
 30
0.0
 11
4370.7066597589292
 21
-2217.1097676262279
 31
0.0
  0
LINE
  5
2D282
  8
01
 10
4373.4566597589292
 20
-2216.1097676262279
 30
0.0
 11
4370.7066597589292
 21
-2216.1097676262279
 31
0.0
  0
LINE
  5
2D283
  8
1HATCH
 10
4373.8066597589286
 20
-2210.1097676262279
 30
0.0
 11
4373.8066597589286
 21
-2216.1097676262279
 31
0.0
  0
LINE
  5
2D284
  8
1HATCH
 10
4377.1066597589279
 20
-2210.1097676262279
 30
0.0
 11
4377.1066597589279
 21
-2216.1097676262279
 31
0.0
  0
LINE
  5
2D285
  8
1CENTER
 10
4375.4566597589292
 20
-2207.9671680767042
 30
0.0
 11
4375.4566597589292
 21
-2219.9521982001961
 31
0.0
  0
LINE
  5
2D286
  8
1HATCH
 10
4377.4566597589292
 20
-2210.4597676262269
 30
0.0
 11
4373.4566597589292
 21
-2210.4597676262269
 31
0.0
  0
LINE
  5
2D287
  8
01
 10
4377.4566597589292
 20
-2216.1097676262279
 30
0.0
 11
4373.4566597589292
 21
-2216.1097676262279
 31
0.0
  0
LINE
  5
2D288
  8
01
 10
4379.9897229385952
 20
-2217.1097676262279
 30
0.0
 11
4370.9512919741219
 21
-2217.1097676262279
 31
0.0
  0
LINE
  5
2D28A
  8
01
 10
4277.9826162613226
 20
-2011.159511311515
 30
0.0
 11
3876.9826162613231
 21
-2011.159511311515
 31
0.0
  0
LINE
  5
2D28B
  8
01
 10
4277.9826162613217
 20
-2009.1595113115141
 30
0.0
 11
3876.9826162613231
 21
-2009.1595113115141
 31
0.0
  0
LINE
  5
2D28C
  8
01
 10
3876.9826162613231
 20
-2011.159511311515
 30
0.0
 11
3876.9826162613231
 21
-2009.159511311515
 31
0.0
  0
LINE
  5
2D28D
  8
01
 10
4277.9826162613217
 20
-2011.159511311515
 30
0.0
 11
4277.9826162613217
 21
-2009.1595113115141
 31
0.0
  0
LINE
  5
2D28E
  8
01
 10
3877.9826162613231
 20
-1968.1595113115161
 30
0.0
 11
3877.9826162613222
 21
-2009.1595113115141
 31
0.0
  0
LINE
  5
2D28F
  8
01
 10
3982.9826162614231
 20
-1968.1595113115161
 30
0.0
 11
3982.9826162614231
 21
-2009.1595113115141
 31
0.0
  0
LINE
  5
2D290
  8
01
 10
4263.4826162613717
 20
-1968.159511311515
 30
0.0
 11
3877.9826162613222
 21
-1968.1595113115161
 31
0.0
  0
LINE
  5
2D292
  8
01
 10
4277.9826162613217
 20
-1997.1595113115141
 30
0.0
 11
3982.982616261424
 21
-1997.1595113115141
 31
0.0
  0
LINE
  5
2D293
  8
01
 10
4277.9826162613217
 20
-2009.1595113115141
 30
0.0
 11
4277.9826162613217
 21
-1997.1595113115141
 31
0.0
  0
LINE
  5
2D295
  8
01
 10
4263.4826162613726
 20
-1997.1595113115141
 30
0.0
 11
4263.4826162613717
 21
-1968.159511311515
 31
0.0
  0
LINE
  5
2D299
  8
1PHANTOM
 10
4385.4566597589283
 20
-2202.8597676262439
 30
0.0
 11
4384.4566597589292
 21
-2202.8597676262439
 31
0.0
  0
ARC
  5
2D29A
  8
1PHANTOM
 10
4391.2274930922613
 20
-2198.1097676262439
 30
0.0
 40
8.2708333333334387
 50
144.94886325254541
 51
215.05113674745451
  0
LINE
  5
2D29B
  8
1PHANTOM
 10
4385.4566597589283
 20
-2193.3597676262439
 30
0.0
 11
4384.4566597589292
 21
-2193.3597676262439
 31
0.0
  0
LINE
  5
2D29C
  8
1CENTER
 10
4427.058334758929
 20
-2198.1097676262439
 30
0.0
 11
4381.6142291849601
 21
-2198.1097676262439
 31
0.0
  0
LINE
  5
2D29D
  8
1PHANTOM
 10
4384.4566597589292
 20
-2202.6428308059099
 30
0.0
 11
4384.4566597589292
 21
-2193.604399841438
 31
0.0
  0
LINE
  5
2D29E
  8
1PHANTOM
 10
4401.574525344975
 20
-2195.6097676262439
 30
0.0
 11
4402.574525344975
 21
-2200.6097676262439
 31
0.0
  0
LINE
  5
2D29F
  8
1PHANTOM
 10
4418.925570845684
 20
-2196.3597676262439
 30
0.0
 11
4385.4566597589283
 21
-2196.3597676262439
 31
0.0
  0
LINE
  5
2D2A0
  8
1PHANTOM
 10
4425.4566597589292
 20
-2198.1097676262439
 30
0.0
 11
4418.925570845684
 21
-2196.3597676262439
 31
0.0
  0
LINE
  5
2D2A1
  8
1PHANTOM
 10
4425.4566597589292
 20
-2198.1097676262439
 30
0.0
 11
4418.925570845684
 21
-2199.8597676262448
 31
0.0
  0
LINE
  5
2D2A2
  8
1PHANTOM
 10
4418.925570845684
 20
-2199.8597676262448
 30
0.0
 11
4385.4566597589283
 21
-2199.8597676262448
 31
0.0
  0
LINE
  5
2D2A3
  8
1PHANTOM
 10
4419.6112719567673
 20
-2195.7935006852081
 30
0.0
 11
4419.4612719567676
 21
-2196.5435006852081
 31
0.0
  0
LINE
  5
2D2A4
  8
1PHANTOM
 10
4419.6112719567673
 20
-2195.7935006852081
 30
0.0
 11
4420.4906528529864
 21
-2200.1904051663
 31
0.0
  0
LINE
  5
2D2A5
  8
1PHANTOM
 10
4424.4371966823628
 20
-2198.4231243131881
 30
0.0
 11
4424.2871966823641
 21
-2199.1731243131881
 31
0.0
  0
LINE
  5
2D2A6
  8
1PHANTOM
 10
4423.8377692648719
 20
-2196.9259872257271
 30
0.0
 11
4423.6877692648713
 21
-2197.6759872257271
 31
0.0
  0
LINE
  5
2D2A7
  8
1PHANTOM
 10
4423.8377692648719
 20
-2196.9259872257271
 30
0.0
 11
4424.2871966823641
 21
-2199.1731243131881
 31
0.0
  0
LINE
  5
2D2A8
  8
1PHANTOM
 10
4420.640652852986
 20
-2199.4404051663
 30
0.0
 11
4420.4906528529864
 21
-2200.1904051663
 31
0.0
  0
LINE
  5
2D2A9
  8
1PHANTOM
 10
4422.5389247676749
 20
-2198.9317647397452
 30
0.0
 11
4422.3889247676743
 21
-2199.6817647397452
 31
0.0
  0
LINE
  5
2D2AA
  8
1PHANTOM
 10
4421.72452061082
 20
-2196.3597439554678
 30
0.0
 11
4421.5745206108186
 21
-2197.1097439554678
 31
0.0
  0
LINE
  5
2D2AB
  8
1PHANTOM
 10
4421.72452061082
 20
-2196.3597439554678
 30
0.0
 11
4422.3889247676743
 21
-2199.6817647397452
 31
0.0
  0
LINE
  5
2D2AC
  8
1PHANTOM
 10
4410.7245253449737
 20
-2199.8597676262448
 30
0.0
 11
4410.574525344975
 21
-2200.6097676262439
 31
0.0
  0
LINE
  5
2D2AD
  8
1PHANTOM
 10
4413.574525344975
 20
-2195.6097676262439
 30
0.0
 11
4413.4245253449753
 21
-2196.3597676262439
 31
0.0
  0
LINE
  5
2D2AE
  8
1PHANTOM
 10
4411.574525344975
 20
-2195.6097676262439
 30
0.0
 11
4411.4245253449753
 21
-2196.3597676262439
 31
0.0
  0
LINE
  5
2D2AF
  8
1PHANTOM
 10
4411.574525344975
 20
-2195.6097676262439
 30
0.0
 11
4412.5745253449741
 21
-2200.6097676262439
 31
0.0
  0
LINE
  5
2D2B0
  8
1PHANTOM
 10
4415.5745253449741
 20
-2195.6097676262439
 30
0.0
 11
4415.4245253449753
 21
-2196.3597676262439
 31
0.0
  0
LINE
  5
2D2B1
  8
1PHANTOM
 10
4417.5745253449741
 20
-2195.6097676262439
 30
0.0
 11
4417.4245253449753
 21
-2196.3597676262439
 31
0.0
  0
LINE
  5
2D2B2
  8
1PHANTOM
 10
4417.5745253449741
 20
-2195.6097676262439
 30
0.0
 11
4418.574525344975
 21
-2200.6097676262439
 31
0.0
  0
LINE
  5
2D2B3
  8
1PHANTOM
 10
4415.5745253449741
 20
-2195.6097676262439
 30
0.0
 11
4416.574525344975
 21
-2200.6097676262439
 31
0.0
  0
LINE
  5
2D2B4
  8
1PHANTOM
 10
4413.574525344975
 20
-2195.6097676262439
 30
0.0
 11
4414.574525344975
 21
-2200.6097676262439
 31
0.0
  0
LINE
  5
2D2B5
  8
1PHANTOM
 10
4418.7245253449737
 20
-2199.8597676262448
 30
0.0
 11
4418.574525344975
 21
-2200.6097676262439
 31
0.0
  0
LINE
  5
2D2B6
  8
1PHANTOM
 10
4416.7245253449737
 20
-2199.8597676262448
 30
0.0
 11
4416.574525344975
 21
-2200.6097676262439
 31
0.0
  0
LINE
  5
2D2B7
  8
1PHANTOM
 10
4412.7245253449746
 20
-2199.8597676262448
 30
0.0
 11
4412.5745253449741
 21
-2200.6097676262439
 31
0.0
  0
LINE
  5
2D2B8
  8
1PHANTOM
 10
4414.7245253449746
 20
-2199.8597676262448
 30
0.0
 11
4414.574525344975
 21
-2200.6097676262439
 31
0.0
  0
LINE
  5
2D2B9
  8
1PHANTOM
 10
4407.574525344975
 20
-2195.6097676262439
 30
0.0
 11
4407.4245253449753
 21
-2196.3597676262439
 31
0.0
  0
LINE
  5
2D2BA
  8
1PHANTOM
 10
4409.5745253449741
 20
-2195.6097676262439
 30
0.0
 11
4409.4245253449753
 21
-2196.3597676262439
 31
0.0
  0
LINE
  5
2D2BB
  8
1PHANTOM
 10
4403.574525344975
 20
-2195.6097676262439
 30
0.0
 11
4403.4245253449753
 21
-2196.3597676262439
 31
0.0
  0
LINE
  5
2D2BC
  8
1PHANTOM
 10
4405.574525344975
 20
-2195.6097676262439
 30
0.0
 11
4405.4245253449753
 21
-2196.3597676262439
 31
0.0
  0
LINE
  5
2D2BD
  8
1PHANTOM
 10
4409.5745253449741
 20
-2195.6097676262439
 30
0.0
 11
4410.574525344975
 21
-2200.6097676262439
 31
0.0
  0
LINE
  5
2D2BE
  8
1PHANTOM
 10
4407.574525344975
 20
-2195.6097676262439
 30
0.0
 11
4408.574525344975
 21
-2200.6097676262439
 31
0.0
  0
LINE
  5
2D2BF
  8
1PHANTOM
 10
4405.574525344975
 20
-2195.6097676262439
 30
0.0
 11
4406.5745253449741
 21
-2200.6097676262439
 31
0.0
  0
LINE
  5
2D2C0
  8
1PHANTOM
 10
4403.574525344975
 20
-2195.6097676262439
 30
0.0
 11
4404.574525344975
 21
-2200.6097676262439
 31
0.0
  0
LINE
  5
2D2C1
  8
1PHANTOM
 10
4406.7245253449746
 20
-2199.8597676262448
 30
0.0
 11
4406.5745253449741
 21
-2200.6097676262439
 31
0.0
  0
LINE
  5
2D2C2
  8
1PHANTOM
 10
4408.7245253449737
 20
-2199.8597676262448
 30
0.0
 11
4408.574525344975
 21
-2200.6097676262439
 31
0.0
  0
LINE
  5
2D2C3
  8
1PHANTOM
 10
4402.7245253449737
 20
-2199.8597676262448
 30
0.0
 11
4402.574525344975
 21
-2200.6097676262439
 31
0.0
  0
LINE
  5
2D2C4
  8
1PHANTOM
 10
4404.7245253449737
 20
-2199.8597676262448
 30
0.0
 11
4404.574525344975
 21
-2200.6097676262439
 31
0.0
  0
LINE
  5
2D2C5
  8
1PHANTOM
 10
4385.5745253449741
 20
-2195.6097676262439
 30
0.0
 11
4386.574525344975
 21
-2200.6097676262439
 31
0.0
  0
LINE
  5
2D2C6
  8
1PHANTOM
 10
4393.574525344975
 20
-2195.6097676262439
 30
0.0
 11
4394.574525344975
 21
-2200.6097676262439
 31
0.0
  0
LINE
  5
2D2C7
  8
1PHANTOM
 10
4401.574525344975
 20
-2195.6097676262439
 30
0.0
 11
4401.4245253449753
 21
-2196.3597676262439
 31
0.0
  0
LINE
  5
2D2C8
  8
1PHANTOM
 10
4399.5745253449741
 20
-2195.6097676262439
 30
0.0
 11
4399.4245253449753
 21
-2196.3597676262439
 31
0.0
  0
LINE
  5
2D2C9
  8
1PHANTOM
 10
4397.574525344975
 20
-2195.6097676262439
 30
0.0
 11
4397.4245253449753
 21
-2196.3597676262439
 31
0.0
  0
LINE
  5
2D2CA
  8
1PHANTOM
 10
4395.574525344975
 20
-2195.6097676262439
 30
0.0
 11
4395.4245253449753
 21
-2196.3597676262439
 31
0.0
  0
LINE
  5
2D2CB
  8
1PHANTOM
 10
4399.5745253449741
 20
-2195.6097676262439
 30
0.0
 11
4400.574525344975
 21
-2200.6097676262439
 31
0.0
  0
LINE
  5
2D2CC
  8
1PHANTOM
 10
4397.574525344975
 20
-2195.6097676262439
 30
0.0
 11
4398.574525344975
 21
-2200.6097676262439
 31
0.0
  0
LINE
  5
2D2CD
  8
1PHANTOM
 10
4395.574525344975
 20
-2195.6097676262439
 30
0.0
 11
4396.574525344975
 21
-2200.6097676262439
 31
0.0
  0
LINE
  5
2D2CE
  8
1PHANTOM
 10
4400.7245253449737
 20
-2199.8597676262448
 30
0.0
 11
4400.574525344975
 21
-2200.6097676262439
 31
0.0
  0
LINE
  5
2D2CF
  8
1PHANTOM
 10
4398.7245253449746
 20
-2199.8597676262448
 30
0.0
 11
4398.574525344975
 21
-2200.6097676262439
 31
0.0
  0
LINE
  5
2D2D0
  8
1PHANTOM
 10
4396.7245253449737
 20
-2199.8597676262448
 30
0.0
 11
4396.574525344975
 21
-2200.6097676262439
 31
0.0
  0
LINE
  5
2D2D1
  8
1PHANTOM
 10
4394.7245253449737
 20
-2199.8597676262448
 30
0.0
 11
4394.574525344975
 21
-2200.6097676262439
 31
0.0
  0
LINE
  5
2D2D2
  8
1PHANTOM
 10
4389.574525344975
 20
-2195.6097676262439
 30
0.0
 11
4389.4245253449753
 21
-2196.3597676262439
 31
0.0
  0
LINE
  5
2D2D3
  8
1PHANTOM
 10
4391.5745253449741
 20
-2195.6097676262439
 30
0.0
 11
4391.4245253449762
 21
-2196.3597676262439
 31
0.0
  0
LINE
  5
2D2D4
  8
1PHANTOM
 10
4393.574525344975
 20
-2195.6097676262439
 30
0.0
 11
4393.4245253449753
 21
-2196.3597676262439
 31
0.0
  0
LINE
  5
2D2D5
  8
1PHANTOM
 10
4387.574525344975
 20
-2195.6097676262439
 30
0.0
 11
4387.4245253449753
 21
-2196.3597676262439
 31
0.0
  0
LINE
  5
2D2D6
  8
1PHANTOM
 10
4391.5745253449741
 20
-2195.6097676262439
 30
0.0
 11
4392.574525344975
 21
-2200.6097676262439
 31
0.0
  0
LINE
  5
2D2D7
  8
1PHANTOM
 10
4389.574525344975
 20
-2195.6097676262439
 30
0.0
 11
4390.574525344975
 21
-2200.6097676262439
 31
0.0
  0
LINE
  5
2D2D8
  8
1PHANTOM
 10
4387.574525344975
 20
-2195.6097676262439
 30
0.0
 11
4388.5745253449741
 21
-2200.6097676262439
 31
0.0
  0
LINE
  5
2D2D9
  8
1PHANTOM
 10
4390.7245253449737
 20
-2199.8597676262448
 30
0.0
 11
4390.574525344975
 21
-2200.6097676262439
 31
0.0
  0
LINE
  5
2D2DA
  8
1PHANTOM
 10
4392.7245253449737
 20
-2199.8597676262448
 30
0.0
 11
4392.574525344975
 21
-2200.6097676262439
 31
0.0
  0
LINE
  5
2D2DB
  8
1PHANTOM
 10
4388.7245253449746
 20
-2199.8597676262448
 30
0.0
 11
4388.5745253449741
 21
-2200.6097676262439
 31
0.0
  0
LINE
  5
2D2DC
  8
1PHANTOM
 10
4386.7245253449737
 20
-2199.8597676262448
 30
0.0
 11
4386.574525344975
 21
-2200.6097676262439
 31
0.0
  0
LINE
  5
2D2DD
  8
1PHANTOM
 10
4385.5745253449741
 20
-2195.6097676262439
 30
0.0
 11
4385.4245253449753
 21
-2196.3597676262439
 31
0.0
  0
LINE
  5
2D2DE
  8
1PHANTOM
 10
4385.4566597589283
 20
-2202.8597676262439
 30
0.0
 11
4385.4566597589283
 21
-2193.3597676262439
 31
0.0
  0
LINE
  5
2D2E4
  8
1PHANTOM
 10
4385.4566597589283
 20
-2102.8597676262439
 30
0.0
 11
4384.4566597589292
 21
-2102.8597676262439
 31
0.0
  0
ARC
  5
2D2E5
  8
1PHANTOM
 10
4391.2274930922613
 20
-2098.1097676262439
 30
0.0
 40
8.2708333333334387
 50
144.94886325254529
 51
215.05113674745471
  0
LINE
  5
2D2E6
  8
1PHANTOM
 10
4385.4566597589283
 20
-2093.3597676262439
 30
0.0
 11
4384.4566597589292
 21
-2093.3597676262439
 31
0.0
  0
LINE
  5
2D2E7
  8
1CENTER
 10
4427.058334758929
 20
-2098.1097676262439
 30
0.0
 11
4381.6142291849601
 21
-2098.1097676262439
 31
0.0
  0
LINE
  5
2D2E8
  8
1PHANTOM
 10
4384.4566597589292
 20
-2102.6428308059099
 30
0.0
 11
4384.4566597589292
 21
-2093.604399841438
 31
0.0
  0
LINE
  5
2D2E9
  8
1PHANTOM
 10
4401.574525344975
 20
-2095.6097676262439
 30
0.0
 11
4402.574525344975
 21
-2100.6097676262439
 31
0.0
  0
LINE
  5
2D2EA
  8
1PHANTOM
 10
4418.925570845684
 20
-2096.3597676262439
 30
0.0
 11
4385.4566597589283
 21
-2096.3597676262439
 31
0.0
  0
LINE
  5
2D2EB
  8
1PHANTOM
 10
4425.4566597589292
 20
-2098.1097676262439
 30
0.0
 11
4418.925570845684
 21
-2096.3597676262439
 31
0.0
  0
LINE
  5
2D2EC
  8
1PHANTOM
 10
4425.4566597589292
 20
-2098.1097676262439
 30
0.0
 11
4418.925570845684
 21
-2099.8597676262448
 31
0.0
  0
LINE
  5
2D2ED
  8
1PHANTOM
 10
4418.925570845684
 20
-2099.8597676262448
 30
0.0
 11
4385.4566597589283
 21
-2099.8597676262448
 31
0.0
  0
LINE
  5
2D2EE
  8
1PHANTOM
 10
4419.6112719567673
 20
-2095.793500685209
 30
0.0
 11
4419.4612719567676
 21
-2096.543500685209
 31
0.0
  0
LINE
  5
2D2EF
  8
1PHANTOM
 10
4419.6112719567673
 20
-2095.793500685209
 30
0.0
 11
4420.4906528529864
 21
-2100.1904051663
 31
0.0
  0
LINE
  5
2D2F0
  8
1PHANTOM
 10
4424.4371966823628
 20
-2098.4231243131881
 30
0.0
 11
4424.2871966823641
 21
-2099.1731243131881
 31
0.0
  0
LINE
  5
2D2F1
  8
1PHANTOM
 10
4423.8377692648719
 20
-2096.9259872257271
 30
0.0
 11
4423.6877692648713
 21
-2097.6759872257271
 31
0.0
  0
LINE
  5
2D2F2
  8
1PHANTOM
 10
4423.8377692648719
 20
-2096.9259872257271
 30
0.0
 11
4424.2871966823641
 21
-2099.1731243131881
 31
0.0
  0
LINE
  5
2D2F3
  8
1PHANTOM
 10
4420.640652852986
 20
-2099.4404051663
 30
0.0
 11
4420.4906528529864
 21
-2100.1904051663
 31
0.0
  0
LINE
  5
2D2F4
  8
1PHANTOM
 10
4422.5389247676749
 20
-2098.9317647397452
 30
0.0
 11
4422.3889247676743
 21
-2099.6817647397452
 31
0.0
  0
LINE
  5
2D2F5
  8
1PHANTOM
 10
4421.72452061082
 20
-2096.3597439554678
 30
0.0
 11
4421.5745206108186
 21
-2097.1097439554678
 31
0.0
  0
LINE
  5
2D2F6
  8
1PHANTOM
 10
4421.72452061082
 20
-2096.3597439554678
 30
0.0
 11
4422.3889247676743
 21
-2099.6817647397452
 31
0.0
  0
LINE
  5
2D2F7
  8
1PHANTOM
 10
4410.7245253449737
 20
-2099.8597676262448
 30
0.0
 11
4410.574525344975
 21
-2100.6097676262439
 31
0.0
  0
LINE
  5
2D2F8
  8
1PHANTOM
 10
4413.574525344975
 20
-2095.6097676262439
 30
0.0
 11
4413.4245253449753
 21
-2096.3597676262439
 31
0.0
  0
LINE
  5
2D2F9
  8
1PHANTOM
 10
4411.574525344975
 20
-2095.6097676262439
 30
0.0
 11
4411.4245253449753
 21
-2096.3597676262439
 31
0.0
  0
LINE
  5
2D2FA
  8
1PHANTOM
 10
4411.574525344975
 20
-2095.6097676262439
 30
0.0
 11
4412.5745253449741
 21
-2100.6097676262439
 31
0.0
  0
LINE
  5
2D2FB
  8
1PHANTOM
 10
4415.5745253449741
 20
-2095.6097676262439
 30
0.0
 11
4415.4245253449753
 21
-2096.3597676262439
 31
0.0
  0
LINE
  5
2D2FC
  8
1PHANTOM
 10
4417.5745253449741
 20
-2095.6097676262439
 30
0.0
 11
4417.4245253449753
 21
-2096.3597676262439
 31
0.0
  0
LINE
  5
2D2FD
  8
1PHANTOM
 10
4417.5745253449741
 20
-2095.6097676262439
 30
0.0
 11
4418.574525344975
 21
-2100.6097676262439
 31
0.0
  0
LINE
  5
2D2FE
  8
1PHANTOM
 10
4415.5745253449741
 20
-2095.6097676262439
 30
0.0
 11
4416.574525344975
 21
-2100.6097676262439
 31
0.0
  0
LINE
  5
2D2FF
  8
1PHANTOM
 10
4413.574525344975
 20
-2095.6097676262439
 30
0.0
 11
4414.574525344975
 21
-2100.6097676262439
 31
0.0
  0
LINE
  5
2D300
  8
1PHANTOM
 10
4418.7245253449737
 20
-2099.8597676262448
 30
0.0
 11
4418.574525344975
 21
-2100.6097676262439
 31
0.0
  0
LINE
  5
2D301
  8
1PHANTOM
 10
4416.7245253449737
 20
-2099.8597676262448
 30
0.0
 11
4416.574525344975
 21
-2100.6097676262439
 31
0.0
  0
LINE
  5
2D302
  8
1PHANTOM
 10
4412.7245253449746
 20
-2099.8597676262448
 30
0.0
 11
4412.5745253449741
 21
-2100.6097676262439
 31
0.0
  0
LINE
  5
2D303
  8
1PHANTOM
 10
4414.7245253449746
 20
-2099.8597676262448
 30
0.0
 11
4414.574525344975
 21
-2100.6097676262439
 31
0.0
  0
LINE
  5
2D304
  8
1PHANTOM
 10
4407.574525344975
 20
-2095.6097676262439
 30
0.0
 11
4407.4245253449753
 21
-2096.3597676262439
 31
0.0
  0
LINE
  5
2D305
  8
1PHANTOM
 10
4409.5745253449741
 20
-2095.6097676262439
 30
0.0
 11
4409.4245253449753
 21
-2096.3597676262439
 31
0.0
  0
LINE
  5
2D306
  8
1PHANTOM
 10
4403.574525344975
 20
-2095.6097676262439
 30
0.0
 11
4403.4245253449753
 21
-2096.3597676262439
 31
0.0
  0
LINE
  5
2D307
  8
1PHANTOM
 10
4405.574525344975
 20
-2095.6097676262439
 30
0.0
 11
4405.4245253449753
 21
-2096.3597676262439
 31
0.0
  0
LINE
  5
2D308
  8
1PHANTOM
 10
4409.5745253449741
 20
-2095.6097676262439
 30
0.0
 11
4410.574525344975
 21
-2100.6097676262439
 31
0.0
  0
LINE
  5
2D309
  8
1PHANTOM
 10
4407.574525344975
 20
-2095.6097676262439
 30
0.0
 11
4408.574525344975
 21
-2100.6097676262439
 31
0.0
  0
LINE
  5
2D30A
  8
1PHANTOM
 10
4405.574525344975
 20
-2095.6097676262439
 30
0.0
 11
4406.5745253449741
 21
-2100.6097676262439
 31
0.0
  0
LINE
  5
2D30B
  8
1PHANTOM
 10
4403.574525344975
 20
-2095.6097676262439
 30
0.0
 11
4404.574525344975
 21
-2100.6097676262439
 31
0.0
  0
LINE
  5
2D30C
  8
1PHANTOM
 10
4406.7245253449746
 20
-2099.8597676262448
 30
0.0
 11
4406.5745253449741
 21
-2100.6097676262439
 31
0.0
  0
LINE
  5
2D30D
  8
1PHANTOM
 10
4408.7245253449737
 20
-2099.8597676262448
 30
0.0
 11
4408.574525344975
 21
-2100.6097676262439
 31
0.0
  0
LINE
  5
2D30E
  8
1PHANTOM
 10
4402.7245253449737
 20
-2099.8597676262448
 30
0.0
 11
4402.574525344975
 21
-2100.6097676262439
 31
0.0
  0
LINE
  5
2D30F
  8
1PHANTOM
 10
4404.7245253449737
 20
-2099.8597676262448
 30
0.0
 11
4404.574525344975
 21
-2100.6097676262439
 31
0.0
  0
LINE
  5
2D310
  8
1PHANTOM
 10
4385.5745253449741
 20
-2095.6097676262439
 30
0.0
 11
4386.574525344975
 21
-2100.6097676262439
 31
0.0
  0
LINE
  5
2D311
  8
1PHANTOM
 10
4393.574525344975
 20
-2095.6097676262439
 30
0.0
 11
4394.574525344975
 21
-2100.6097676262439
 31
0.0
  0
LINE
  5
2D312
  8
1PHANTOM
 10
4401.574525344975
 20
-2095.6097676262439
 30
0.0
 11
4401.4245253449753
 21
-2096.3597676262439
 31
0.0
  0
LINE
  5
2D313
  8
1PHANTOM
 10
4399.5745253449741
 20
-2095.6097676262439
 30
0.0
 11
4399.4245253449753
 21
-2096.3597676262439
 31
0.0
  0
LINE
  5
2D314
  8
1PHANTOM
 10
4397.574525344975
 20
-2095.6097676262439
 30
0.0
 11
4397.4245253449753
 21
-2096.3597676262439
 31
0.0
  0
LINE
  5
2D315
  8
1PHANTOM
 10
4395.574525344975
 20
-2095.6097676262439
 30
0.0
 11
4395.4245253449753
 21
-2096.3597676262439
 31
0.0
  0
LINE
  5
2D316
  8
1PHANTOM
 10
4399.5745253449741
 20
-2095.6097676262439
 30
0.0
 11
4400.574525344975
 21
-2100.6097676262439
 31
0.0
  0
LINE
  5
2D317
  8
1PHANTOM
 10
4397.574525344975
 20
-2095.6097676262439
 30
0.0
 11
4398.574525344975
 21
-2100.6097676262439
 31
0.0
  0
LINE
  5
2D318
  8
1PHANTOM
 10
4395.574525344975
 20
-2095.6097676262439
 30
0.0
 11
4396.574525344975
 21
-2100.6097676262439
 31
0.0
  0
LINE
  5
2D319
  8
1PHANTOM
 10
4400.7245253449737
 20
-2099.8597676262448
 30
0.0
 11
4400.574525344975
 21
-2100.6097676262439
 31
0.0
  0
LINE
  5
2D31A
  8
1PHANTOM
 10
4398.7245253449746
 20
-2099.8597676262448
 30
0.0
 11
4398.574525344975
 21
-2100.6097676262439
 31
0.0
  0
LINE
  5
2D31B
  8
1PHANTOM
 10
4396.7245253449737
 20
-2099.8597676262448
 30
0.0
 11
4396.574525344975
 21
-2100.6097676262439
 31
0.0
  0
LINE
  5
2D31C
  8
1PHANTOM
 10
4394.7245253449737
 20
-2099.8597676262448
 30
0.0
 11
4394.574525344975
 21
-2100.6097676262439
 31
0.0
  0
LINE
  5
2D31D
  8
1PHANTOM
 10
4389.574525344975
 20
-2095.6097676262439
 30
0.0
 11
4389.4245253449753
 21
-2096.3597676262439
 31
0.0
  0
LINE
  5
2D31E
  8
1PHANTOM
 10
4391.5745253449741
 20
-2095.6097676262439
 30
0.0
 11
4391.4245253449762
 21
-2096.3597676262439
 31
0.0
  0
LINE
  5
2D31F
  8
1PHANTOM
 10
4393.574525344975
 20
-2095.6097676262439
 30
0.0
 11
4393.4245253449753
 21
-2096.3597676262439
 31
0.0
  0
LINE
  5
2D320
  8
1PHANTOM
 10
4387.574525344975
 20
-2095.6097676262439
 30
0.0
 11
4387.4245253449753
 21
-2096.3597676262439
 31
0.0
  0
LINE
  5
2D321
  8
1PHANTOM
 10
4391.5745253449741
 20
-2095.6097676262439
 30
0.0
 11
4392.574525344975
 21
-2100.6097676262439
 31
0.0
  0
LINE
  5
2D322
  8
1PHANTOM
 10
4389.574525344975
 20
-2095.6097676262439
 30
0.0
 11
4390.574525344975
 21
-2100.6097676262439
 31
0.0
  0
LINE
  5
2D323
  8
1PHANTOM
 10
4387.574525344975
 20
-2095.6097676262439
 30
0.0
 11
4388.5745253449741
 21
-2100.6097676262439
 31
0.0
  0
LINE
  5
2D324
  8
1PHANTOM
 10
4390.7245253449737
 20
-2099.8597676262448
 30
0.0
 11
4390.574525344975
 21
-2100.6097676262439
 31
0.0
  0
LINE
  5
2D325
  8
1PHANTOM
 10
4392.7245253449737
 20
-2099.8597676262448
 30
0.0
 11
4392.574525344975
 21
-2100.6097676262439
 31
0.0
  0
LINE
  5
2D326
  8
1PHANTOM
 10
4388.7245253449746
 20
-2099.8597676262448
 30
0.0
 11
4388.5745253449741
 21
-2100.6097676262439
 31
0.0
  0
LINE
  5
2D327
  8
1PHANTOM
 10
4386.7245253449737
 20
-2099.8597676262448
 30
0.0
 11
4386.574525344975
 21
-2100.6097676262439
 31
0.0
  0
LINE
  5
2D328
  8
1PHANTOM
 10
4385.5745253449741
 20
-2095.6097676262439
 30
0.0
 11
4385.4245253449753
 21
-2096.3597676262439
 31
0.0
  0
LINE
  5
2D329
  8
1PHANTOM
 10
4385.4566597589283
 20
-2102.8597676262439
 30
0.0
 11
4385.4566597589283
 21
-2093.3597676262439
 31
0.0
  0
LINE
  5
2D32B
  8
1PHANTOM
 10
4095.2326162613722
 20
-1969.159511311515
 30
0.0
 11
4095.2326162613722
 21
-1970.159511311515
 31
0.0
  0
ARC
  5
2D32C
  8
1PHANTOM
 10
4090.4826162613722
 20
-1963.3886779781819
 30
0.0
 40
8.2708333333334387
 50
234.94886325253071
 51
305.05113674746917
  0
LINE
  5
2D32D
  8
1PHANTOM
 10
4085.7326162613722
 20
-1969.159511311515
 30
0.0
 11
4085.7326162613722
 21
-1970.159511311515
 31
0.0
  0
LINE
  5
2D32E
  8
1CENTER
 10
4090.4826162613722
 20
-1927.5578363115151
 30
0.0
 11
4090.4826162613722
 21
-1973.001941885484
 31
0.0
  0
LINE
  5
2D32F
  8
1PHANTOM
 10
4095.0156794410382
 20
-1970.159511311515
 30
0.0
 11
4085.9772484765658
 21
-1970.159511311515
 31
0.0
  0
LINE
  5
2D330
  8
1PHANTOM
 10
4087.9826162613722
 20
-1953.0416457254689
 30
0.0
 11
4092.9826162613722
 21
-1952.0416457254701
 31
0.0
  0
LINE
  5
2D331
  8
1PHANTOM
 10
4088.7326162613722
 20
-1935.6906002247599
 30
0.0
 11
4088.7326162613722
 21
-1969.159511311515
 31
0.0
  0
LINE
  5
2D332
  8
1PHANTOM
 10
4090.4826162613722
 20
-1929.159511311515
 30
0.0
 11
4088.7326162613722
 21
-1935.6906002247599
 31
0.0
  0
LINE
  5
2D333
  8
1PHANTOM
 10
4090.4826162613722
 20
-1929.159511311515
 30
0.0
 11
4092.2326162613722
 21
-1935.6906002247599
 31
0.0
  0
LINE
  5
2D334
  8
1PHANTOM
 10
4092.2326162613722
 20
-1935.6906002247599
 30
0.0
 11
4092.2326162613722
 21
-1969.159511311515
 31
0.0
  0
LINE
  5
2D335
  8
1PHANTOM
 10
4088.1663493203359
 20
-1935.0048991136759
 30
0.0
 11
4088.9163493203359
 21
-1935.1548991136769
 31
0.0
  0
LINE
  5
2D336
  8
1PHANTOM
 10
4088.1663493203359
 20
-1935.0048991136759
 30
0.0
 11
4092.5632538014279
 21
-1934.125518217458
 31
0.0
  0
LINE
  5
2D337
  8
1PHANTOM
 10
4090.7959729483159
 20
-1930.1789743880811
 30
0.0
 11
4091.5459729483159
 21
-1930.32897438808
 31
0.0
  0
LINE
  5
2D338
  8
1PHANTOM
 10
4089.2988358608541
 20
-1930.7784018055729
 30
0.0
 11
4090.0488358608541
 21
-1930.928401805573
 31
0.0
  0
LINE
  5
2D339
  8
1PHANTOM
 10
4089.2988358608541
 20
-1930.7784018055729
 30
0.0
 11
4091.5459729483159
 21
-1930.32897438808
 31
0.0
  0
LINE
  5
2D33A
  8
1PHANTOM
 10
4091.8132538014279
 20
-1933.9755182174581
 30
0.0
 11
4092.5632538014279
 21
-1934.125518217458
 31
0.0
  0
LINE
  5
2D33B
  8
1PHANTOM
 10
4091.3046133748721
 20
-1932.077246302769
 30
0.0
 11
4092.0546133748721
 21
-1932.22724630277
 31
0.0
  0
LINE
  5
2D33C
  8
1PHANTOM
 10
4088.7325925905948
 20
-1932.891650459625
 30
0.0
 11
4089.4825925905948
 21
-1933.0416504596251
 31
0.0
  0
LINE
  5
2D33D
  8
1PHANTOM
 10
4088.7325925905948
 20
-1932.891650459625
 30
0.0
 11
4092.0546133748721
 21
-1932.22724630277
 31
0.0
  0
LINE
  5
2D33E
  8
1PHANTOM
 10
4092.2326162613722
 20
-1943.89164572547
 30
0.0
 11
4092.9826162613722
 21
-1944.0416457254689
 31
0.0
  0
LINE
  5
2D33F
  8
1PHANTOM
 10
4087.9826162613722
 20
-1941.0416457254689
 30
0.0
 11
4088.7326162613722
 21
-1941.191645725469
 31
0.0
  0
LINE
  5
2D340
  8
1PHANTOM
 10
4087.9826162613722
 20
-1943.0416457254701
 30
0.0
 11
4088.7326162613722
 21
-1943.191645725469
 31
0.0
  0
LINE
  5
2D341
  8
1PHANTOM
 10
4087.9826162613722
 20
-1943.0416457254701
 30
0.0
 11
4092.9826162613722
 21
-1942.0416457254689
 31
0.0
  0
LINE
  5
2D342
  8
1PHANTOM
 10
4087.9826162613722
 20
-1939.0416457254701
 30
0.0
 11
4088.7326162613722
 21
-1939.191645725469
 31
0.0
  0
LINE
  5
2D343
  8
1PHANTOM
 10
4087.9826162613722
 20
-1937.0416457254689
 30
0.0
 11
4088.7326162613722
 21
-1937.191645725469
 31
0.0
  0
LINE
  5
2D344
  8
1PHANTOM
 10
4087.9826162613722
 20
-1937.0416457254689
 30
0.0
 11
4092.9826162613722
 21
-1936.0416457254701
 31
0.0
  0
LINE
  5
2D345
  8
1PHANTOM
 10
4087.9826162613722
 20
-1939.0416457254701
 30
0.0
 11
4092.9826162613722
 21
-1938.0416457254689
 31
0.0
  0
LINE
  5
2D346
  8
1PHANTOM
 10
4087.9826162613722
 20
-1941.0416457254689
 30
0.0
 11
4092.9826162613722
 21
-1940.0416457254689
 31
0.0
  0
LINE
  5
2D347
  8
1PHANTOM
 10
4092.2326162613722
 20
-1935.89164572547
 30
0.0
 11
4092.9826162613722
 21
-1936.0416457254701
 31
0.0
  0
LINE
  5
2D348
  8
1PHANTOM
 10
4092.2326162613722
 20
-1937.89164572547
 30
0.0
 11
4092.9826162613722
 21
-1938.0416457254689
 31
0.0
  0
LINE
  5
2D349
  8
1PHANTOM
 10
4092.2326162613722
 20
-1941.89164572547
 30
0.0
 11
4092.9826162613722
 21
-1942.0416457254689
 31
0.0
  0
LINE
  5
2D34A
  8
1PHANTOM
 10
4092.2326162613722
 20
-1939.89164572547
 30
0.0
 11
4092.9826162613722
 21
-1940.0416457254689
 31
0.0
  0
LINE
  5
2D34B
  8
1PHANTOM
 10
4087.9826162613722
 20
-1947.0416457254701
 30
0.0
 11
4088.7326162613722
 21
-1947.191645725469
 31
0.0
  0
LINE
  5
2D34C
  8
1PHANTOM
 10
4087.9826162613722
 20
-1945.0416457254701
 30
0.0
 11
4088.7326162613722
 21
-1945.191645725469
 31
0.0
  0
LINE
  5
2D34D
  8
1PHANTOM
 10
4087.9826162613722
 20
-1951.0416457254689
 30
0.0
 11
4088.7326162613722
 21
-1951.191645725469
 31
0.0
  0
LINE
  5
2D34E
  8
1PHANTOM
 10
4087.9826162613722
 20
-1949.0416457254689
 30
0.0
 11
4088.7326162613722
 21
-1949.191645725469
 31
0.0
  0
LINE
  5
2D34F
  8
1PHANTOM
 10
4087.9826162613722
 20
-1945.0416457254701
 30
0.0
 11
4092.9826162613722
 21
-1944.0416457254689
 31
0.0
  0
LINE
  5
2D350
  8
1PHANTOM
 10
4087.9826162613722
 20
-1947.0416457254701
 30
0.0
 11
4092.9826162613722
 21
-1946.0416457254689
 31
0.0
  0
LINE
  5
2D351
  8
1PHANTOM
 10
4087.9826162613722
 20
-1949.0416457254689
 30
0.0
 11
4092.9826162613722
 21
-1948.0416457254701
 31
0.0
  0
LINE
  5
2D352
  8
1PHANTOM
 10
4087.9826162613722
 20
-1951.0416457254689
 30
0.0
 11
4092.9826162613722
 21
-1950.0416457254701
 31
0.0
  0
LINE
  5
2D353
  8
1PHANTOM
 10
4092.2326162613722
 20
-1947.89164572547
 30
0.0
 11
4092.9826162613722
 21
-1948.0416457254701
 31
0.0
  0
LINE
  5
2D354
  8
1PHANTOM
 10
4092.2326162613722
 20
-1945.89164572547
 30
0.0
 11
4092.9826162613722
 21
-1946.0416457254689
 31
0.0
  0
LINE
  5
2D355
  8
1PHANTOM
 10
4092.2326162613722
 20
-1951.89164572547
 30
0.0
 11
4092.9826162613722
 21
-1952.0416457254701
 31
0.0
  0
LINE
  5
2D356
  8
1PHANTOM
 10
4092.2326162613722
 20
-1949.89164572547
 30
0.0
 11
4092.9826162613722
 21
-1950.0416457254701
 31
0.0
  0
LINE
  5
2D357
  8
1PHANTOM
 10
4087.9826162613722
 20
-1969.0416457254689
 30
0.0
 11
4092.9826162613722
 21
-1968.0416457254701
 31
0.0
  0
LINE
  5
2D358
  8
1PHANTOM
 10
4087.9826162613722
 20
-1961.0416457254701
 30
0.0
 11
4092.9826162613722
 21
-1960.0416457254689
 31
0.0
  0
LINE
  5
2D359
  8
1PHANTOM
 10
4087.9826162613722
 20
-1953.0416457254689
 30
0.0
 11
4088.7326162613722
 21
-1953.191645725469
 31
0.0
  0
LINE
  5
2D35A
  8
1PHANTOM
 10
4087.9826162613722
 20
-1955.0416457254689
 30
0.0
 11
4088.7326162613722
 21
-1955.191645725469
 31
0.0
  0
LINE
  5
2D35B
  8
1PHANTOM
 10
4087.9826162613722
 20
-1957.0416457254689
 30
0.0
 11
4088.7326162613722
 21
-1957.191645725469
 31
0.0
  0
LINE
  5
2D35C
  8
1PHANTOM
 10
4087.9826162613722
 20
-1959.0416457254701
 30
0.0
 11
4088.7326162613722
 21
-1959.191645725469
 31
0.0
  0
LINE
  5
2D35D
  8
1PHANTOM
 10
4087.9826162613722
 20
-1955.0416457254689
 30
0.0
 11
4092.9826162613722
 21
-1954.0416457254689
 31
0.0
  0
LINE
  5
2D35E
  8
1PHANTOM
 10
4087.9826162613722
 20
-1957.0416457254689
 30
0.0
 11
4092.9826162613722
 21
-1956.0416457254689
 31
0.0
  0
LINE
  5
2D35F
  8
1PHANTOM
 10
4087.9826162613722
 20
-1959.0416457254701
 30
0.0
 11
4092.9826162613722
 21
-1958.0416457254689
 31
0.0
  0
LINE
  5
2D360
  8
1PHANTOM
 10
4092.2326162613722
 20
-1953.89164572547
 30
0.0
 11
4092.9826162613722
 21
-1954.0416457254689
 31
0.0
  0
LINE
  5
2D361
  8
1PHANTOM
 10
4092.2326162613722
 20
-1955.89164572547
 30
0.0
 11
4092.9826162613722
 21
-1956.0416457254689
 31
0.0
  0
LINE
  5
2D362
  8
1PHANTOM
 10
4092.2326162613722
 20
-1957.89164572547
 30
0.0
 11
4092.9826162613722
 21
-1958.0416457254689
 31
0.0
  0
LINE
  5
2D363
  8
1PHANTOM
 10
4092.2326162613722
 20
-1959.89164572547
 30
0.0
 11
4092.9826162613722
 21
-1960.0416457254689
 31
0.0
  0
LINE
  5
2D364
  8
1PHANTOM
 10
4087.9826162613722
 20
-1965.0416457254689
 30
0.0
 11
4088.7326162613722
 21
-1965.191645725469
 31
0.0
  0
LINE
  5
2D365
  8
1PHANTOM
 10
4087.9826162613722
 20
-1963.0416457254701
 30
0.0
 11
4088.7326162613722
 21
-1963.191645725469
 31
0.0
  0
LINE
  5
2D366
  8
1PHANTOM
 10
4087.9826162613722
 20
-1961.0416457254701
 30
0.0
 11
4088.7326162613722
 21
-1961.191645725469
 31
0.0
  0
LINE
  5
2D367
  8
1PHANTOM
 10
4087.9826162613722
 20
-1967.0416457254689
 30
0.0
 11
4088.7326162613722
 21
-1967.191645725469
 31
0.0
  0
LINE
  5
2D368
  8
1PHANTOM
 10
4087.9826162613722
 20
-1963.0416457254701
 30
0.0
 11
4092.9826162613722
 21
-1962.0416457254689
 31
0.0
  0
LINE
  5
2D369
  8
1PHANTOM
 10
4087.9826162613722
 20
-1965.0416457254689
 30
0.0
 11
4092.9826162613722
 21
-1964.0416457254701
 31
0.0
  0
LINE
  5
2D36A
  8
1PHANTOM
 10
4087.9826162613722
 20
-1967.0416457254689
 30
0.0
 11
4092.9826162613722
 21
-1966.0416457254701
 31
0.0
  0
LINE
  5
2D36B
  8
1PHANTOM
 10
4092.2326162613722
 20
-1963.89164572547
 30
0.0
 11
4092.9826162613722
 21
-1964.0416457254701
 31
0.0
  0
LINE
  5
2D36C
  8
1PHANTOM
 10
4092.2326162613722
 20
-1961.89164572547
 30
0.0
 11
4092.9826162613722
 21
-1962.0416457254689
 31
0.0
  0
LINE
  5
2D36D
  8
1PHANTOM
 10
4092.2326162613722
 20
-1965.89164572547
 30
0.0
 11
4092.9826162613722
 21
-1966.0416457254701
 31
0.0
  0
LINE
  5
2D36E
  8
1PHANTOM
 10
4092.2326162613722
 20
-1967.89164572547
 30
0.0
 11
4092.9826162613722
 21
-1968.0416457254701
 31
0.0
  0
LINE
  5
2D36F
  8
1PHANTOM
 10
4087.9826162613722
 20
-1969.0416457254689
 30
0.0
 11
4088.7326162613722
 21
-1969.191645725469
 31
0.0
  0
LINE
  5
2D370
  8
1PHANTOM
 10
4095.2326162613722
 20
-1969.159511311515
 30
0.0
 11
4085.7326162613722
 21
-1969.159511311515
 31
0.0
  0
LINE
  5
2D372
  8
1PHANTOM
 10
3975.232616261374
 20
-1969.159511311515
 30
0.0
 11
3975.232616261374
 21
-1970.159511311515
 31
0.0
  0
ARC
  5
2D373
  8
1PHANTOM
 10
3970.4826162613731
 20
-1963.3886779781819
 30
0.0
 40
8.2708333333334387
 50
234.94886325253199
 51
305.05113674746792
  0
LINE
  5
2D374
  8
1PHANTOM
 10
3965.7326162613731
 20
-1969.159511311515
 30
0.0
 11
3965.7326162613731
 21
-1970.159511311515
 31
0.0
  0
LINE
  5
2D375
  8
1CENTER
 10
3970.4826162613731
 20
-1927.5578363115151
 30
0.0
 11
3970.4826162613731
 21
-1973.001941885484
 31
0.0
  0
LINE
  5
2D376
  8
1PHANTOM
 10
3975.0156794410391
 20
-1970.159511311515
 30
0.0
 11
3965.9772484765672
 21
-1970.159511311515
 31
0.0
  0
LINE
  5
2D377
  8
1PHANTOM
 10
3967.9826162613731
 20
-1953.0416457254689
 30
0.0
 11
3972.982616261374
 21
-1952.0416457254701
 31
0.0
  0
LINE
  5
2D378
  8
1PHANTOM
 10
3968.7326162613731
 20
-1935.6906002247599
 30
0.0
 11
3968.7326162613731
 21
-1969.159511311515
 31
0.0
  0
LINE
  5
2D379
  8
1PHANTOM
 10
3970.4826162613731
 20
-1929.159511311515
 30
0.0
 11
3968.7326162613731
 21
-1935.6906002247599
 31
0.0
  0
LINE
  5
2D37A
  8
1PHANTOM
 10
3970.4826162613731
 20
-1929.159511311515
 30
0.0
 11
3972.232616261374
 21
-1935.6906002247599
 31
0.0
  0
LINE
  5
2D37B
  8
1PHANTOM
 10
3972.232616261374
 20
-1935.6906002247599
 30
0.0
 11
3972.232616261374
 21
-1969.159511311515
 31
0.0
  0
LINE
  5
2D37C
  8
1PHANTOM
 10
3968.1663493203382
 20
-1935.0048991136759
 30
0.0
 11
3968.9163493203382
 21
-1935.1548991136769
 31
0.0
  0
LINE
  5
2D37D
  8
1PHANTOM
 10
3968.1663493203382
 20
-1935.0048991136759
 30
0.0
 11
3972.5632538014279
 21
-1934.125518217458
 31
0.0
  0
LINE
  5
2D37E
  8
1PHANTOM
 10
3970.7959729483168
 20
-1930.1789743880811
 30
0.0
 11
3971.5459729483168
 21
-1930.32897438808
 31
0.0
  0
LINE
  5
2D37F
  8
1PHANTOM
 10
3969.2988358608559
 20
-1930.7784018055729
 30
0.0
 11
3970.0488358608559
 21
-1930.928401805573
 31
0.0
  0
LINE
  5
2D380
  8
1PHANTOM
 10
3969.2988358608559
 20
-1930.7784018055729
 30
0.0
 11
3971.5459729483168
 21
-1930.32897438808
 31
0.0
  0
LINE
  5
2D381
  8
1PHANTOM
 10
3971.8132538014279
 20
-1933.9755182174581
 30
0.0
 11
3972.5632538014279
 21
-1934.125518217458
 31
0.0
  0
LINE
  5
2D382
  8
1PHANTOM
 10
3971.304613374874
 20
-1932.077246302769
 30
0.0
 11
3972.054613374874
 21
-1932.22724630277
 31
0.0
  0
LINE
  5
2D383
  8
1PHANTOM
 10
3968.7325925905971
 20
-1932.891650459625
 30
0.0
 11
3969.4825925905971
 21
-1933.0416504596251
 31
0.0
  0
LINE
  5
2D384
  8
1PHANTOM
 10
3968.7325925905971
 20
-1932.891650459625
 30
0.0
 11
3972.054613374874
 21
-1932.22724630277
 31
0.0
  0
LINE
  5
2D385
  8
1PHANTOM
 10
3972.232616261374
 20
-1943.89164572547
 30
0.0
 11
3972.982616261374
 21
-1944.0416457254689
 31
0.0
  0
LINE
  5
2D386
  8
1PHANTOM
 10
3967.9826162613731
 20
-1941.0416457254689
 30
0.0
 11
3968.7326162613731
 21
-1941.191645725469
 31
0.0
  0
LINE
  5
2D387
  8
1PHANTOM
 10
3967.9826162613731
 20
-1943.0416457254701
 30
0.0
 11
3968.7326162613731
 21
-1943.191645725469
 31
0.0
  0
LINE
  5
2D388
  8
1PHANTOM
 10
3967.9826162613731
 20
-1943.0416457254701
 30
0.0
 11
3972.982616261374
 21
-1942.0416457254689
 31
0.0
  0
LINE
  5
2D389
  8
1PHANTOM
 10
3967.9826162613731
 20
-1939.0416457254701
 30
0.0
 11
3968.7326162613731
 21
-1939.191645725469
 31
0.0
  0
LINE
  5
2D38A
  8
1PHANTOM
 10
3967.9826162613731
 20
-1937.0416457254689
 30
0.0
 11
3968.7326162613731
 21
-1937.191645725469
 31
0.0
  0
LINE
  5
2D38B
  8
1PHANTOM
 10
3967.9826162613731
 20
-1937.0416457254689
 30
0.0
 11
3972.982616261374
 21
-1936.0416457254701
 31
0.0
  0
LINE
  5
2D38C
  8
1PHANTOM
 10
3967.9826162613731
 20
-1939.0416457254701
 30
0.0
 11
3972.982616261374
 21
-1938.0416457254689
 31
0.0
  0
LINE
  5
2D38D
  8
1PHANTOM
 10
3967.9826162613731
 20
-1941.0416457254689
 30
0.0
 11
3972.982616261374
 21
-1940.0416457254689
 31
0.0
  0
LINE
  5
2D38E
  8
1PHANTOM
 10
3972.232616261374
 20
-1935.89164572547
 30
0.0
 11
3972.982616261374
 21
-1936.0416457254701
 31
0.0
  0
LINE
  5
2D38F
  8
1PHANTOM
 10
3972.232616261374
 20
-1937.89164572547
 30
0.0
 11
3972.982616261374
 21
-1938.0416457254689
 31
0.0
  0
LINE
  5
2D390
  8
1PHANTOM
 10
3972.232616261374
 20
-1941.89164572547
 30
0.0
 11
3972.982616261374
 21
-1942.0416457254689
 31
0.0
  0
LINE
  5
2D391
  8
1PHANTOM
 10
3972.232616261374
 20
-1939.89164572547
 30
0.0
 11
3972.982616261374
 21
-1940.0416457254689
 31
0.0
  0
LINE
  5
2D392
  8
1PHANTOM
 10
3967.9826162613731
 20
-1947.0416457254701
 30
0.0
 11
3968.7326162613731
 21
-1947.191645725469
 31
0.0
  0
LINE
  5
2D393
  8
1PHANTOM
 10
3967.9826162613731
 20
-1945.0416457254701
 30
0.0
 11
3968.7326162613731
 21
-1945.191645725469
 31
0.0
  0
LINE
  5
2D394
  8
1PHANTOM
 10
3967.9826162613731
 20
-1951.0416457254689
 30
0.0
 11
3968.7326162613731
 21
-1951.191645725469
 31
0.0
  0
LINE
  5
2D395
  8
1PHANTOM
 10
3967.9826162613731
 20
-1949.0416457254689
 30
0.0
 11
3968.7326162613731
 21
-1949.191645725469
 31
0.0
  0
LINE
  5
2D396
  8
1PHANTOM
 10
3967.9826162613731
 20
-1945.0416457254701
 30
0.0
 11
3972.982616261374
 21
-1944.0416457254689
 31
0.0
  0
LINE
  5
2D397
  8
1PHANTOM
 10
3967.9826162613731
 20
-1947.0416457254701
 30
0.0
 11
3972.982616261374
 21
-1946.0416457254689
 31
0.0
  0
LINE
  5
2D398
  8
1PHANTOM
 10
3967.9826162613731
 20
-1949.0416457254689
 30
0.0
 11
3972.982616261374
 21
-1948.0416457254701
 31
0.0
  0
LINE
  5
2D399
  8
1PHANTOM
 10
3967.9826162613731
 20
-1951.0416457254689
 30
0.0
 11
3972.982616261374
 21
-1950.0416457254701
 31
0.0
  0
LINE
  5
2D39A
  8
1PHANTOM
 10
3972.232616261374
 20
-1947.89164572547
 30
0.0
 11
3972.982616261374
 21
-1948.0416457254701
 31
0.0
  0
LINE
  5
2D39B
  8
1PHANTOM
 10
3972.232616261374
 20
-1945.89164572547
 30
0.0
 11
3972.982616261374
 21
-1946.0416457254689
 31
0.0
  0
LINE
  5
2D39C
  8
1PHANTOM
 10
3972.232616261374
 20
-1951.89164572547
 30
0.0
 11
3972.982616261374
 21
-1952.0416457254701
 31
0.0
  0
LINE
  5
2D39D
  8
1PHANTOM
 10
3972.232616261374
 20
-1949.89164572547
 30
0.0
 11
3972.982616261374
 21
-1950.0416457254701
 31
0.0
  0
LINE
  5
2D39E
  8
1PHANTOM
 10
3967.9826162613731
 20
-1969.0416457254689
 30
0.0
 11
3972.982616261374
 21
-1968.0416457254701
 31
0.0
  0
LINE
  5
2D39F
  8
1PHANTOM
 10
3967.9826162613731
 20
-1961.0416457254701
 30
0.0
 11
3972.982616261374
 21
-1960.0416457254689
 31
0.0
  0
LINE
  5
2D3A0
  8
1PHANTOM
 10
3967.9826162613731
 20
-1953.0416457254689
 30
0.0
 11
3968.7326162613731
 21
-1953.191645725469
 31
0.0
  0
LINE
  5
2D3A1
  8
1PHANTOM
 10
3967.9826162613731
 20
-1955.0416457254689
 30
0.0
 11
3968.7326162613731
 21
-1955.191645725469
 31
0.0
  0
LINE
  5
2D3A2
  8
1PHANTOM
 10
3967.9826162613731
 20
-1957.0416457254689
 30
0.0
 11
3968.7326162613731
 21
-1957.191645725469
 31
0.0
  0
LINE
  5
2D3A3
  8
1PHANTOM
 10
3967.9826162613731
 20
-1959.0416457254701
 30
0.0
 11
3968.7326162613731
 21
-1959.191645725469
 31
0.0
  0
LINE
  5
2D3A4
  8
1PHANTOM
 10
3967.9826162613731
 20
-1955.0416457254689
 30
0.0
 11
3972.982616261374
 21
-1954.0416457254689
 31
0.0
  0
LINE
  5
2D3A5
  8
1PHANTOM
 10
3967.9826162613731
 20
-1957.0416457254689
 30
0.0
 11
3972.982616261374
 21
-1956.0416457254689
 31
0.0
  0
LINE
  5
2D3A6
  8
1PHANTOM
 10
3967.9826162613731
 20
-1959.0416457254701
 30
0.0
 11
3972.982616261374
 21
-1958.0416457254689
 31
0.0
  0
LINE
  5
2D3A7
  8
1PHANTOM
 10
3972.232616261374
 20
-1953.89164572547
 30
0.0
 11
3972.982616261374
 21
-1954.0416457254689
 31
0.0
  0
LINE
  5
2D3A8
  8
1PHANTOM
 10
3972.232616261374
 20
-1955.89164572547
 30
0.0
 11
3972.982616261374
 21
-1956.0416457254689
 31
0.0
  0
LINE
  5
2D3A9
  8
1PHANTOM
 10
3972.232616261374
 20
-1957.89164572547
 30
0.0
 11
3972.982616261374
 21
-1958.0416457254689
 31
0.0
  0
LINE
  5
2D3AA
  8
1PHANTOM
 10
3972.232616261374
 20
-1959.89164572547
 30
0.0
 11
3972.982616261374
 21
-1960.0416457254689
 31
0.0
  0
LINE
  5
2D3AB
  8
1PHANTOM
 10
3967.9826162613731
 20
-1965.0416457254689
 30
0.0
 11
3968.7326162613731
 21
-1965.191645725469
 31
0.0
  0
LINE
  5
2D3AC
  8
1PHANTOM
 10
3967.9826162613731
 20
-1963.0416457254701
 30
0.0
 11
3968.7326162613731
 21
-1963.191645725469
 31
0.0
  0
LINE
  5
2D3AD
  8
1PHANTOM
 10
3967.9826162613731
 20
-1961.0416457254701
 30
0.0
 11
3968.7326162613731
 21
-1961.191645725469
 31
0.0
  0
LINE
  5
2D3AE
  8
1PHANTOM
 10
3967.9826162613731
 20
-1967.0416457254689
 30
0.0
 11
3968.7326162613731
 21
-1967.191645725469
 31
0.0
  0
LINE
  5
2D3AF
  8
1PHANTOM
 10
3967.9826162613731
 20
-1963.0416457254701
 30
0.0
 11
3972.982616261374
 21
-1962.0416457254689
 31
0.0
  0
LINE
  5
2D3B0
  8
1PHANTOM
 10
3967.9826162613731
 20
-1965.0416457254689
 30
0.0
 11
3972.982616261374
 21
-1964.0416457254701
 31
0.0
  0
LINE
  5
2D3B1
  8
1PHANTOM
 10
3967.9826162613731
 20
-1967.0416457254689
 30
0.0
 11
3972.982616261374
 21
-1966.0416457254701
 31
0.0
  0
LINE
  5
2D3B2
  8
1PHANTOM
 10
3972.232616261374
 20
-1963.89164572547
 30
0.0
 11
3972.982616261374
 21
-1964.0416457254701
 31
0.0
  0
LINE
  5
2D3B3
  8
1PHANTOM
 10
3972.232616261374
 20
-1961.89164572547
 30
0.0
 11
3972.982616261374
 21
-1962.0416457254689
 31
0.0
  0
LINE
  5
2D3B4
  8
1PHANTOM
 10
3972.232616261374
 20
-1965.89164572547
 30
0.0
 11
3972.982616261374
 21
-1966.0416457254701
 31
0.0
  0
LINE
  5
2D3B5
  8
1PHANTOM
 10
3972.232616261374
 20
-1967.89164572547
 30
0.0
 11
3972.982616261374
 21
-1968.0416457254701
 31
0.0
  0
LINE
  5
2D3B6
  8
1PHANTOM
 10
3967.9826162613731
 20
-1969.0416457254689
 30
0.0
 11
3968.7326162613731
 21
-1969.191645725469
 31
0.0
  0
LINE
  5
2D3B7
  8
1PHANTOM
 10
3975.232616261374
 20
-1969.159511311515
 30
0.0
 11
3965.7326162613731
 21
-1969.159511311515
 31
0.0
  0
LINE
  5
2D3B9
  8
1PHANTOM
 10
3895.2326162613722
 20
-1969.159511311515
 30
0.0
 11
3895.2326162613722
 21
-1970.159511311515
 31
0.0
  0
ARC
  5
2D3BA
  8
1PHANTOM
 10
3890.4826162613722
 20
-1963.3886779781819
 30
0.0
 40
8.2708333333334387
 50
234.94886325253199
 51
305.05113674746792
  0
LINE
  5
2D3BB
  8
1PHANTOM
 10
3885.7326162613722
 20
-1969.159511311515
 30
0.0
 11
3885.7326162613722
 21
-1970.159511311515
 31
0.0
  0
LINE
  5
2D3BC
  8
1CENTER
 10
3890.4826162613722
 20
-1927.5578363115151
 30
0.0
 11
3890.4826162613722
 21
-1973.001941885484
 31
0.0
  0
LINE
  5
2D3BD
  8
1PHANTOM
 10
3895.0156794410368
 20
-1970.159511311515
 30
0.0
 11
3885.9772484765649
 21
-1970.159511311515
 31
0.0
  0
LINE
  5
2D3BE
  8
1PHANTOM
 10
3887.9826162613708
 20
-1953.0416457254689
 30
0.0
 11
3892.9826162613722
 21
-1952.0416457254701
 31
0.0
  0
LINE
  5
2D3BF
  8
1PHANTOM
 10
3888.7326162613708
 20
-1935.6906002247599
 30
0.0
 11
3888.7326162613708
 21
-1969.159511311515
 31
0.0
  0
LINE
  5
2D3C0
  8
1PHANTOM
 10
3890.4826162613722
 20
-1929.159511311515
 30
0.0
 11
3888.7326162613708
 21
-1935.6906002247599
 31
0.0
  0
LINE
  5
2D3C1
  8
1PHANTOM
 10
3890.4826162613722
 20
-1929.159511311515
 30
0.0
 11
3892.2326162613722
 21
-1935.6906002247599
 31
0.0
  0
LINE
  5
2D3C2
  8
1PHANTOM
 10
3892.2326162613722
 20
-1935.6906002247599
 30
0.0
 11
3892.2326162613722
 21
-1969.159511311515
 31
0.0
  0
LINE
  5
2D3C3
  8
1PHANTOM
 10
3888.1663493203359
 20
-1935.0048991136759
 30
0.0
 11
3888.9163493203359
 21
-1935.1548991136769
 31
0.0
  0
LINE
  5
2D3C4
  8
1PHANTOM
 10
3888.1663493203359
 20
-1935.0048991136759
 30
0.0
 11
3892.5632538014261
 21
-1934.125518217458
 31
0.0
  0
LINE
  5
2D3C5
  8
1PHANTOM
 10
3890.7959729483159
 20
-1930.1789743880811
 30
0.0
 11
3891.5459729483159
 21
-1930.32897438808
 31
0.0
  0
LINE
  5
2D3C6
  8
1PHANTOM
 10
3889.2988358608541
 20
-1930.7784018055729
 30
0.0
 11
3890.0488358608541
 21
-1930.928401805573
 31
0.0
  0
LINE
  5
2D3C7
  8
1PHANTOM
 10
3889.2988358608541
 20
-1930.7784018055729
 30
0.0
 11
3891.5459729483159
 21
-1930.32897438808
 31
0.0
  0
LINE
  5
2D3C8
  8
1PHANTOM
 10
3891.813253801427
 20
-1933.9755182174581
 30
0.0
 11
3892.5632538014261
 21
-1934.125518217458
 31
0.0
  0
LINE
  5
2D3C9
  8
1PHANTOM
 10
3891.3046133748721
 20
-1932.077246302769
 30
0.0
 11
3892.0546133748721
 21
-1932.22724630277
 31
0.0
  0
LINE
  5
2D3CA
  8
1PHANTOM
 10
3888.7325925905948
 20
-1932.891650459625
 30
0.0
 11
3889.4825925905948
 21
-1933.0416504596251
 31
0.0
  0
LINE
  5
2D3CB
  8
1PHANTOM
 10
3888.7325925905948
 20
-1932.891650459625
 30
0.0
 11
3892.0546133748721
 21
-1932.22724630277
 31
0.0
  0
LINE
  5
2D3CC
  8
1PHANTOM
 10
3892.2326162613722
 20
-1943.89164572547
 30
0.0
 11
3892.9826162613722
 21
-1944.0416457254689
 31
0.0
  0
LINE
  5
2D3CD
  8
1PHANTOM
 10
3887.9826162613708
 20
-1941.0416457254689
 30
0.0
 11
3888.7326162613708
 21
-1941.191645725469
 31
0.0
  0
LINE
  5
2D3CE
  8
1PHANTOM
 10
3887.9826162613708
 20
-1943.0416457254701
 30
0.0
 11
3888.7326162613708
 21
-1943.191645725469
 31
0.0
  0
LINE
  5
2D3CF
  8
1PHANTOM
 10
3887.9826162613708
 20
-1943.0416457254701
 30
0.0
 11
3892.9826162613722
 21
-1942.0416457254689
 31
0.0
  0
LINE
  5
2D3D0
  8
1PHANTOM
 10
3887.9826162613708
 20
-1939.0416457254701
 30
0.0
 11
3888.7326162613708
 21
-1939.191645725469
 31
0.0
  0
LINE
  5
2D3D1
  8
1PHANTOM
 10
3887.9826162613708
 20
-1937.0416457254689
 30
0.0
 11
3888.7326162613708
 21
-1937.191645725469
 31
0.0
  0
LINE
  5
2D3D2
  8
1PHANTOM
 10
3887.9826162613708
 20
-1937.0416457254689
 30
0.0
 11
3892.9826162613722
 21
-1936.0416457254701
 31
0.0
  0
LINE
  5
2D3D3
  8
1PHANTOM
 10
3887.9826162613708
 20
-1939.0416457254701
 30
0.0
 11
3892.9826162613722
 21
-1938.0416457254689
 31
0.0
  0
LINE
  5
2D3D4
  8
1PHANTOM
 10
3887.9826162613708
 20
-1941.0416457254689
 30
0.0
 11
3892.9826162613722
 21
-1940.0416457254689
 31
0.0
  0
LINE
  5
2D3D5
  8
1PHANTOM
 10
3892.2326162613722
 20
-1935.89164572547
 30
0.0
 11
3892.9826162613722
 21
-1936.0416457254701
 31
0.0
  0
LINE
  5
2D3D6
  8
1PHANTOM
 10
3892.2326162613722
 20
-1937.89164572547
 30
0.0
 11
3892.9826162613722
 21
-1938.0416457254689
 31
0.0
  0
LINE
  5
2D3D7
  8
1PHANTOM
 10
3892.2326162613722
 20
-1941.89164572547
 30
0.0
 11
3892.9826162613722
 21
-1942.0416457254689
 31
0.0
  0
LINE
  5
2D3D8
  8
1PHANTOM
 10
3892.2326162613722
 20
-1939.89164572547
 30
0.0
 11
3892.9826162613722
 21
-1940.0416457254689
 31
0.0
  0
LINE
  5
2D3D9
  8
1PHANTOM
 10
3887.9826162613708
 20
-1947.0416457254701
 30
0.0
 11
3888.7326162613708
 21
-1947.191645725469
 31
0.0
  0
LINE
  5
2D3DA
  8
1PHANTOM
 10
3887.9826162613708
 20
-1945.0416457254701
 30
0.0
 11
3888.7326162613708
 21
-1945.191645725469
 31
0.0
  0
LINE
  5
2D3DB
  8
1PHANTOM
 10
3887.9826162613708
 20
-1951.0416457254689
 30
0.0
 11
3888.7326162613708
 21
-1951.191645725469
 31
0.0
  0
LINE
  5
2D3DC
  8
1PHANTOM
 10
3887.9826162613708
 20
-1949.0416457254689
 30
0.0
 11
3888.7326162613708
 21
-1949.191645725469
 31
0.0
  0
LINE
  5
2D3DD
  8
1PHANTOM
 10
3887.9826162613708
 20
-1945.0416457254701
 30
0.0
 11
3892.9826162613722
 21
-1944.0416457254689
 31
0.0
  0
LINE
  5
2D3DE
  8
1PHANTOM
 10
3887.9826162613708
 20
-1947.0416457254701
 30
0.0
 11
3892.9826162613722
 21
-1946.0416457254689
 31
0.0
  0
LINE
  5
2D3DF
  8
1PHANTOM
 10
3887.9826162613708
 20
-1949.0416457254689
 30
0.0
 11
3892.9826162613722
 21
-1948.0416457254701
 31
0.0
  0
LINE
  5
2D3E0
  8
1PHANTOM
 10
3887.9826162613708
 20
-1951.0416457254689
 30
0.0
 11
3892.9826162613722
 21
-1950.0416457254701
 31
0.0
  0
LINE
  5
2D3E1
  8
1PHANTOM
 10
3892.2326162613722
 20
-1947.89164572547
 30
0.0
 11
3892.9826162613722
 21
-1948.0416457254701
 31
0.0
  0
LINE
  5
2D3E2
  8
1PHANTOM
 10
3892.2326162613722
 20
-1945.89164572547
 30
0.0
 11
3892.9826162613722
 21
-1946.0416457254689
 31
0.0
  0
LINE
  5
2D3E3
  8
1PHANTOM
 10
3892.2326162613722
 20
-1951.89164572547
 30
0.0
 11
3892.9826162613722
 21
-1952.0416457254701
 31
0.0
  0
LINE
  5
2D3E4
  8
1PHANTOM
 10
3892.2326162613722
 20
-1949.89164572547
 30
0.0
 11
3892.9826162613722
 21
-1950.0416457254701
 31
0.0
  0
LINE
  5
2D3E5
  8
1PHANTOM
 10
3887.9826162613708
 20
-1969.0416457254689
 30
0.0
 11
3892.9826162613722
 21
-1968.0416457254701
 31
0.0
  0
LINE
  5
2D3E6
  8
1PHANTOM
 10
3887.9826162613708
 20
-1961.0416457254701
 30
0.0
 11
3892.9826162613722
 21
-1960.0416457254689
 31
0.0
  0
LINE
  5
2D3E7
  8
1PHANTOM
 10
3887.9826162613708
 20
-1953.0416457254689
 30
0.0
 11
3888.7326162613708
 21
-1953.191645725469
 31
0.0
  0
LINE
  5
2D3E8
  8
1PHANTOM
 10
3887.9826162613708
 20
-1955.0416457254689
 30
0.0
 11
3888.7326162613708
 21
-1955.191645725469
 31
0.0
  0
LINE
  5
2D3E9
  8
1PHANTOM
 10
3887.9826162613708
 20
-1957.0416457254689
 30
0.0
 11
3888.7326162613708
 21
-1957.191645725469
 31
0.0
  0
LINE
  5
2D3EA
  8
1PHANTOM
 10
3887.9826162613708
 20
-1959.0416457254701
 30
0.0
 11
3888.7326162613708
 21
-1959.191645725469
 31
0.0
  0
LINE
  5
2D3EB
  8
1PHANTOM
 10
3887.9826162613708
 20
-1955.0416457254689
 30
0.0
 11
3892.9826162613722
 21
-1954.0416457254689
 31
0.0
  0
LINE
  5
2D3EC
  8
1PHANTOM
 10
3887.9826162613708
 20
-1957.0416457254689
 30
0.0
 11
3892.9826162613722
 21
-1956.0416457254689
 31
0.0
  0
LINE
  5
2D3ED
  8
1PHANTOM
 10
3887.9826162613708
 20
-1959.0416457254701
 30
0.0
 11
3892.9826162613722
 21
-1958.0416457254689
 31
0.0
  0
LINE
  5
2D3EE
  8
1PHANTOM
 10
3892.2326162613722
 20
-1953.89164572547
 30
0.0
 11
3892.9826162613722
 21
-1954.0416457254689
 31
0.0
  0
LINE
  5
2D3EF
  8
1PHANTOM
 10
3892.2326162613722
 20
-1955.89164572547
 30
0.0
 11
3892.9826162613722
 21
-1956.0416457254689
 31
0.0
  0
LINE
  5
2D3F0
  8
1PHANTOM
 10
3892.2326162613722
 20
-1957.89164572547
 30
0.0
 11
3892.9826162613722
 21
-1958.0416457254689
 31
0.0
  0
LINE
  5
2D3F1
  8
1PHANTOM
 10
3892.2326162613722
 20
-1959.89164572547
 30
0.0
 11
3892.9826162613722
 21
-1960.0416457254689
 31
0.0
  0
LINE
  5
2D3F2
  8
1PHANTOM
 10
3887.9826162613708
 20
-1965.0416457254689
 30
0.0
 11
3888.7326162613708
 21
-1965.191645725469
 31
0.0
  0
LINE
  5
2D3F3
  8
1PHANTOM
 10
3887.9826162613708
 20
-1963.0416457254701
 30
0.0
 11
3888.7326162613708
 21
-1963.191645725469
 31
0.0
  0
LINE
  5
2D3F4
  8
1PHANTOM
 10
3887.9826162613708
 20
-1961.0416457254701
 30
0.0
 11
3888.7326162613708
 21
-1961.191645725469
 31
0.0
  0
LINE
  5
2D3F5
  8
1PHANTOM
 10
3887.9826162613708
 20
-1967.0416457254689
 30
0.0
 11
3888.7326162613708
 21
-1967.191645725469
 31
0.0
  0
LINE
  5
2D3F6
  8
1PHANTOM
 10
3887.9826162613708
 20
-1963.0416457254701
 30
0.0
 11
3892.9826162613722
 21
-1962.0416457254689
 31
0.0
  0
LINE
  5
2D3F7
  8
1PHANTOM
 10
3887.9826162613708
 20
-1965.0416457254689
 30
0.0
 11
3892.9826162613722
 21
-1964.0416457254701
 31
0.0
  0
LINE
  5
2D3F8
  8
1PHANTOM
 10
3887.9826162613708
 20
-1967.0416457254689
 30
0.0
 11
3892.9826162613722
 21
-1966.0416457254701
 31
0.0
  0
LINE
  5
2D3F9
  8
1PHANTOM
 10
3892.2326162613722
 20
-1963.89164572547
 30
0.0
 11
3892.9826162613722
 21
-1964.0416457254701
 31
0.0
  0
LINE
  5
2D3FA
  8
1PHANTOM
 10
3892.2326162613722
 20
-1961.89164572547
 30
0.0
 11
3892.9826162613722
 21
-1962.0416457254689
 31
0.0
  0
LINE
  5
2D3FB
  8
1PHANTOM
 10
3892.2326162613722
 20
-1965.89164572547
 30
0.0
 11
3892.9826162613722
 21
-1966.0416457254701
 31
0.0
  0
LINE
  5
2D3FC
  8
1PHANTOM
 10
3892.2326162613722
 20
-1967.89164572547
 30
0.0
 11
3892.9826162613722
 21
-1968.0416457254701
 31
0.0
  0
LINE
  5
2D3FD
  8
1PHANTOM
 10
3887.9826162613708
 20
-1969.0416457254689
 30
0.0
 11
3888.7326162613708
 21
-1969.191645725469
 31
0.0
  0
LINE
  5
2D3FE
  8
1PHANTOM
 10
3895.2326162613722
 20
-1969.159511311515
 30
0.0
 11
3885.7326162613722
 21
-1969.159511311515
 31
0.0
  0
LINE
  5
2D435
  8
01
 10
4231.6088161299012
 20
-1986.0323934783819
 30
0.0
 11
4230.1097797575721
 21
-1986.032383014531
 31
0.0
  0
LINE
  5
2D436
  8
01
 10
4230.1097692937828
 20
-1984.533355397281
 30
0.0
 11
4228.8555293980771
 21
-1984.5333466422039
 31
0.0
  0
LINE
  5
2D437
  8
01
 10
4230.1097692937828
 20
-1984.533355397281
 30
0.0
 11
4230.1097797575721
 21
-1986.032383014531
 31
0.0
  0
LINE
  5
2D438
  8
01
 10
4231.6088073748233
 20
-1987.2866333740881
 30
0.0
 11
4231.6088161299012
 21
-1986.0323934783819
 31
0.0
  0
LINE
  5
2D439
  8
01
 10
4231.6088073748233
 20
-1987.2866333740881
 30
0.0
 11
4230.1097885127956
 21
-1987.286643837816
 31
0.0
  0
LINE
  5
2D43A
  8
01
 10
4230.1097885127956
 20
-1987.286643837816
 30
0.0
 11
4230.1097989766467
 21
-1988.785680210412
 31
0.0
  0
LINE
  5
2D43B
  8
01
 10
4228.8555101789416
 20
-1987.286652593162
 30
0.0
 11
4227.3564825616922
 21
-1987.2866630569511
 31
0.0
  0
LINE
  5
2D43C
  8
01
 10
4228.8555101789416
 20
-1987.286652593162
 30
0.0
 11
4228.8554997152141
 21
-1988.78567145492
 31
0.0
  0
LINE
  5
2D43D
  8
01
 10
4228.8554997152141
 20
-1988.78567145492
 30
0.0
 11
4230.1097989766467
 21
-1988.785680210412
 31
0.0
  0
LINE
  5
2D43E
  8
01
 10
4228.8555189342869
 20
-1986.032374259308
 30
0.0
 11
4227.3564913171831
 21
-1986.0323637955189
 31
0.0
  0
LINE
  5
2D43F
  8
01
 10
4227.3564913171831
 20
-1986.0323637955189
 30
0.0
 11
4227.3564825616922
 21
-1987.2866630569511
 31
0.0
  0
LINE
  5
2D440
  8
01
 10
4228.8555293980771
 20
-1984.5333466422039
 30
0.0
 11
4228.8555189342869
 21
-1986.032374259308
 31
0.0
  0
CIRCLE
  5
2D443
  8
01
 10
4229.4826162613708
 20
-1986.6595113115161
 30
0.0
 40
4.75
  0
LINE
  5
2D445
  8
01
 10
4027.6088161299508
 20
-1986.032393478481
 30
0.0
 11
4026.1097797576231
 21
-1986.032383014631
 31
0.0
  0
LINE
  5
2D446
  8
01
 10
4026.1097692938338
 20
-1984.5333553973801
 30
0.0
 11
4024.8555293981271
 21
-1984.533346642304
 31
0.0
  0
LINE
  5
2D447
  8
01
 10
4026.1097692938338
 20
-1984.5333553973801
 30
0.0
 11
4026.1097797576231
 21
-1986.032383014631
 31
0.0
  0
LINE
  5
2D448
  8
01
 10
4027.6088073748738
 20
-1987.2866333741881
 30
0.0
 11
4027.6088161299508
 21
-1986.032393478481
 31
0.0
  0
LINE
  5
2D449
  8
01
 10
4027.6088073748738
 20
-1987.2866333741881
 30
0.0
 11
4026.1097885128461
 21
-1987.286643837916
 31
0.0
  0
LINE
  5
2D44A
  8
01
 10
4026.1097885128461
 20
-1987.286643837916
 30
0.0
 11
4026.1097989766972
 21
-1988.7856802105109
 31
0.0
  0
LINE
  5
2D44B
  8
01
 10
4024.855510178993
 20
-1987.2866525932609
 30
0.0
 11
4023.3564825617432
 21
-1987.28666305705
 31
0.0
  0
LINE
  5
2D44C
  8
01
 10
4024.855510178993
 20
-1987.2866525932609
 30
0.0
 11
4024.8554997152642
 21
-1988.7856714550201
 31
0.0
  0
LINE
  5
2D44D
  8
01
 10
4024.8554997152642
 20
-1988.7856714550201
 30
0.0
 11
4026.1097989766972
 21
-1988.7856802105109
 31
0.0
  0
LINE
  5
2D44E
  8
01
 10
4024.8555189343379
 20
-1986.032374259408
 30
0.0
 11
4023.356491317234
 21
-1986.032363795618
 31
0.0
  0
LINE
  5
2D44F
  8
01
 10
4023.356491317234
 20
-1986.032363795618
 30
0.0
 11
4023.3564825617432
 21
-1987.28666305705
 31
0.0
  0
LINE
  5
2D450
  8
01
 10
4024.8555293981271
 20
-1984.533346642304
 30
0.0
 11
4024.8555189343379
 21
-1986.032374259408
 31
0.0
  0
CIRCLE
  5
2D451
  8
01
 10
4025.4826162614222
 20
-1986.6595113116159
 30
0.0
 40
4.75
  0
LINE
  5
2D46F
  8
01
 10
4386.4566597589301
 20
-2042.815838487285
 30
0.0
 11
4386.4566597589301
 21
-2253.4036967651818
 31
0.0
  0
LINE
  5
2D470
  8
01
 10
4406.4566597589292
 20
-2042.815838487285
 30
0.0
 11
4406.4566597589292
 21
-2253.4036967651818
 31
0.0
  0
TEXT
  5
2E1CC
  8
1TEXT
 10
3890.0791543917089
 20
-1876.456165040526
 30
0.0
 40
8.0
  1
ヘアラインブラック
 41
0.6
 72
     1
 11
3915.35915439171
 21
-1876.456165040526
 31
0.0
  0
TEXT
  5
2E1CF
  8
1TEXT
 10
3955.4924877250442
 20
-1876.456165040526
 30
0.0
 40
8.0
  1
ブラストブラック
 41
0.8
 72
     1
 11
3985.35915439171
 21
-1876.456165040526
 31
0.0
  0
TEXT
  5
2E1D0
  8
1TEXT
 10
3881.9191543917091
 20
-1848.0274510732279
 30
0.0
 40
8.0
  1
表面処理：ガラスプレート
 41
0.6
 72
     1
 11
3915.3591543917082
 21
-1848.0274510732279
 31
0.0
  0
TEXT
  5
2E1D1
  8
1TEXT
 10
3951.9191543917082
 20
-1848.027451073227
 30
0.0
 40
8.0
  1
表面処理：カバープレート
 41
0.6
 72
     1
 11
3985.3591543917091
 21
-1848.027451073227
 31
0.0
  0
TEXT
  5
2E1D2
  8
1TEXT
 10
4026.079154391708
 20
-1848.027451073227
 30
0.0
 40
8.0
  1
表面処理：本体
 41
0.9
 72
     1
 11
4055.3591543917091
 21
-1848.027451073227
 31
0.0
  0
TEXT
  5
2E1D3
  8
1TEXT
 10
4025.4924877250442
 20
-1876.4561650405251
 30
0.0
 40
8.0
  1
ブラストブラック
 41
0.8
 72
     1
 11
4055.3591543917109
 21
-1876.4561650405251
 31
0.0
  0
LINE
  5
2E1D5
  8
1DIM
 10
4370.5591543917117
 20
-1837.0274510732261
 30
0.0
 11
4370.5591543917108
 21
-1879.0274510732279
 31
0.0
  0
TEXT
  5
2E1D6
  8
1TEXT
 10
4241.8924877250429
 20
-1862.456165040524
 30
0.0
 40
8.0
  1
VL-V565
 41
0.8
 72
     1
 11
4265.3591543917091
 21
-1862.456165040524
 31
0.0
  0
TEXT
  5
2E1DA
  8
1TEXT
 10
4095.0258210583738
 20
-1876.4561650405251
 30
0.0
 40
8.0
  1
GP-120-025-31
 41
0.65
 72
     1
 11
4125.3591543917082
 21
-1876.4561650405251
 31
0.0
  0
LINE
  5
2E4AF
  8
01
 10
3908.7326162614231
 20
-2197.8597676262448
 30
0.0
 11
3952.232616261424
 21
-2197.8597676262448
 31
0.0
  0
LINE
  5
2E4B0
  8
01
 10
3907.7326162614231
 20
-2196.8597676262448
 30
0.0
 11
3907.7326162614222
 21
-2097.8597676262448
 31
0.0
  0
ARC
  5
2E4B1
  8
01
 10
3908.7326162614231
 20
-2196.8597676262448
 30
0.0
 40
1.0
 50
180.0
 51
270.0
  0
LINE
  5
2E4B2
  8
01
 10
3953.2326162614231
 20
-2097.8597676262448
 30
0.0
 11
3953.2326162614231
 21
-2196.8597676262448
 31
0.0
  0
ARC
  5
2E4B3
  8
01
 10
3952.2326162614222
 20
-2097.8597676262448
 30
0.0
 40
1.0
 50
0.0
 51
90.0
  0
ARC
  5
2E4B4
  8
01
 10
3952.232616261424
 20
-2196.8597676262448
 30
0.0
 40
1.0
 50
270.0
 51
0.0
  0
LINE
  5
2E4B5
  8
01
 10
3908.7326162614208
 20
-2096.8597676262448
 30
0.0
 11
3952.2326162614222
 21
-2096.8597676262448
 31
0.0
  0
ARC
  5
2E4B6
  8
01
 10
3908.7326162614208
 20
-2097.8597676262448
 30
0.0
 40
1.0
 50
90.0
 51
180.0
  0
LINE
  5
2E4B7
  8
01
  6
BYBLOCK
 10
3963.9826162613722
 20
-2097.6097676262448
 30
0.0
 11
3961.9826162613722
 21
-2097.6097676262448
 31
0.0
  0
ARC
  5
2E4B8
  8
01
  6
BYBLOCK
 10
3963.9826162613722
 20
-2098.1097676262461
 30
0.0
 40
0.5
 50
0.0
 51
90.0
  0
LINE
  5
2E4B9
  8
01
  6
BYBLOCK
 10
3963.9826162613722
 20
-2115.6097676262448
 30
0.0
 11
3961.9826162613722
 21
-2115.6097676262448
 31
0.0
  0
ARC
  5
2E4BA
  8
01
  6
BYBLOCK
 10
3961.9826162613722
 20
-2115.1097676262448
 30
0.0
 40
0.5
 50
180.0
 51
270.0
  0
LINE
  5
2E4BC
  8
01
  6
BYBLOCK
 10
3964.4826162613731
 20
-2098.1097676262461
 30
0.0
 11
3964.4826162613731
 21
-2115.1097676262448
 31
0.0
  0
ARC
  5
2E4BD
  8
01
  6
BYBLOCK
 10
3963.9826162613722
 20
-2115.1097676262448
 30
0.0
 40
0.5
 50
270.0
 51
0.0
  0
LINE
  5
2E4BE
  8
01
  6
BYBLOCK
 10
3961.4826162613731
 20
-2098.1097676262448
 30
0.0
 11
3961.4826162613731
 21
-2115.1097676262448
 31
0.0
  0
ARC
  5
2E4BF
  8
01
  6
BYBLOCK
 10
3961.9826162613722
 20
-2098.1097676262448
 30
0.0
 40
0.5
 50
90.0
 51
180.0
  0
TEXT
  5
2E5BC
  8
1TEXT
 10
4241.8924877250429
 20
-1876.456165040524
 30
0.0
 40
8.0
  1
VL-V566
 41
0.8
 72
     1
 11
4265.3591543917091
 21
-1876.456165040524
 31
0.0
  0
CIRCLE
  5
2E640
  8
1PHANTOM
 10
4010.4826162613731
 20
-2198.1097676263071
 30
0.0
 40
10.0
  0
CIRCLE
  5
2E641
  8
1PHANTOM
 10
3930.4826162613722
 20
-2148.1097676262511
 30
0.0
 40
10.0
  0
LINE
  5
2E642
  8
1CENTER
 10
3917.4826162613699
 20
-2148.1097676262448
 30
0.0
 11
3943.4826162613699
 21
-2148.1097676262448
 31
0.0
  0
LINE
  5
2E643
  8
1CENTER
 10
3930.4826162613708
 20
-2161.1097676262448
 30
0.0
 11
3930.4826162613708
 21
-2135.1097676262448
 31
0.0
  0
LINE
  5
2E644
  8
1CENTER
 10
3997.4826162613699
 20
-2198.1097676263062
 30
0.0
 11
4023.4826162613708
 21
-2198.1097676263062
 31
0.0
  0
LINE
  5
2E645
  8
1CENTER
 10
4010.4826162613699
 20
-2211.1097676263062
 30
0.0
 11
4010.4826162613699
 21
-2185.1097676263062
 31
0.0
  0
LINE
  5
2E6ED
  8
1DIM
 10
3837.2100380172192
 20
-2152.1097676262511
 30
0.0
 11
3837.2100380172192
 21
-2278.4905495625239
 31
0.0
  0
LINE
  5
2E6F1
  8
1DIM
 10
3859.1400728040312
 20
-2148.1097676262448
 30
0.0
 11
3834.5271986050411
 21
-2148.1097676262448
 31
0.0
  0
TEXT
  5
2E7B9
  8
1TEXT
 10
4312.4258210583766
 20
-1862.456165040524
 30
0.0
 40
8.0
  1
VL-V570
 41
0.8
 72
     1
 11
4335.3591543917091
 21
-1862.456165040524
 31
0.0
  0
TEXT
  5
2E7BA
  8
1TEXT
 10
4311.8924877250429
 20
-1876.456165040524
 30
0.0
 40
8.0
  1
VL-V522
 41
0.8
 72
     1
 11
4335.3591543917091
 21
-1876.456165040524
 31
0.0
  0
LINE
  5
2E80F
  8
1DIM
 10
3997.4826162613699
 20
-2198.1097676263062
 30
0.0
 11
3859.1400728040312
 21
-2198.1097676263062
 31
0.0
  0
LINE
  5
2E812
  8
1DIM
 10
3917.4826162613699
 20
-2148.1097676262448
 30
0.0
 11
3859.1400728040312
 21
-2148.1097676262448
 31
0.0
  0
LINE
  5
2E813
  8
1DIM
 10
3861.1400728040321
 20
-2194.1097676263062
 30
0.0
 11
3861.1400728040321
 21
-2152.1097676262448
 31
0.0
  0
LINE
  5
2E817
  8
0
  6
BYBLOCK
 10
3836.1382412572189
 20
-2152.1097676262511
 30
0.0
 11
3837.2100380172192
 21
-2148.1097676262511
 31
0.0
  0
LINE
  5
2E818
  8
0
  6
BYBLOCK
 10
3837.2100380172192
 20
-2148.1097676262511
 30
0.0
 11
3838.28183477722
 21
-2152.1097676262511
 31
0.0
  0
LINE
  5
2E819
  8
0
  6
BYBLOCK
 10
3837.2100380172192
 20
-2148.1097676262511
 30
0.0
 11
3837.2100380172192
 21
-2152.1097676262511
 31
0.0
  0
TEXT
  5
2E81A
  8
1DIM
 10
3824.1433713505548
 20
-2255.133491927721
 30
0.0
 40
7.0
  1
地面からの推奨高さは
 50
90.0
  0
TEXT
  5
2E81B
  8
1DIM
 10
3835.81003801722
 20
-2246.2668252610538
 30
0.0
 40
7.0
  1
子機の推奨に従う
 50
90.0
  0
TEXT
  5
2E81C
  8
1DIM
 10
3998.9874936974861
 20
-2261.8458416972589
 30
0.0
 40
7.0
  1
配線穴
  0
SOLID
  5
2E81D
  8
1DIM
 10
4008.83301044676
 20
-2201.8142574833369
 30
0.0
 11
4010.4826162613699
 21
-2198.1097676263062
 31
0.0
 12
4010.1236344984791
 22
-2202.1490220795872
 32
0.0
 13
4010.1236344984791
 23
-2202.1490220795872
 33
0.0
1001
ACAD
1000
DSTYLE
1002
{
1070
    40
1040
2.0
1002
}
  0
TEXT
  5
2E81F
  8
1DIM
 10
3963.1969717334191
 20
-2261.8458416972589
 30
0.0
 40
7.0
  1
配線穴
  0
SOLID
  5
2E820
  8
1DIM
 10
3930.7574759594008
 20
-2152.1819247966
 30
0.0
 11
3930.4826162613708
 21
-2148.1360754925799
 31
0.0
 12
3932.054786020271
 22
-2151.8740865537789
 32
0.0
 13
3932.054786020271
 23
-2151.8740865537789
 33
0.0
1001
ACAD
1000
DSTYLE
1002
{
1070
    40
1040
2.0
1002
}
  0
LINE
  5
2E822
  8
1DIM
 10
3930.4826162613708
 20
-2135.1097676262448
 30
0.0
 11
3930.4826162613708
 21
-2057.6746954522018
 31
0.0
  0
LINE
  5
2E823
  8
1DIM
 10
4010.4826162613699
 20
-2185.1097676263062
 30
0.0
 11
4010.4826162613699
 21
-2057.6746954522018
 31
0.0
  0
LINE
  5
2E824
  8
1DIM
 10
3934.4826162613708
 20
-2059.6746954522009
 30
0.0
 11
4006.4826162613699
 21
-2059.6746954522009
 31
0.0
  0
LINE
  5
2E828
  8
1DIM
 10
3930.4826162613708
 20
-2135.1097676262448
 30
0.0
 11
3930.4826162613708
 21
-2057.6746954522018
 31
0.0
  0
LINE
  5
2E829
  8
1DIM
 10
3876.9826162613222
 20
-2084.1097676262498
 30
0.0
 11
3876.9826162613222
 21
-2057.6746954522018
 31
0.0
  0
LINE
  5
2E82A
  8
1DIM
 10
3926.4826162613699
 20
-2059.6746954522009
 30
0.0
 11
3880.9826162613222
 21
-2059.6746954522009
 31
0.0
  0
LINE
  5
2E82E
  8
1DIM
 10
3917.4826162613699
 20
-2148.1097676262448
 30
0.0
 11
3859.1400728040312
 21
-2148.1097676262448
 31
0.0
  0
LINE
  5
2E82F
  8
1DIM
 10
3881.9826162613231
 20
-2079.1097676262498
 30
0.0
 11
3859.1400728040312
 21
-2079.1097676262498
 31
0.0
  0
LINE
  5
2E830
  8
1DIM
 10
3861.1400728040321
 20
-2144.1097676262448
 30
0.0
 11
3861.1400728040321
 21
-2083.1097676262498
 31
0.0
  0
LINE
  5
2E834
  8
1DIM
 10
4240.4826162613708
 20
-2208.0202576452389
 30
0.0
 11
4240.4826162613708
 21
-2240.8823887861331
 31
0.0
  0
LINE
  5
2E835
  8
1DIM
 10
4277.9826162613217
 20
-2212.1097676262448
 30
0.0
 11
4277.9826162613217
 21
-2240.8823887861331
 31
0.0
  0
LINE
  5
2E836
  8
1DIM
 10
4244.4826162613708
 20
-2238.8823887861331
 30
0.0
 11
4273.9826162613226
 21
-2238.8823887861331
 31
0.0
  0
LINE
  5
2E83A
  8
1DIM
 10
3975.6642296750501
 20
-2098.1097676262439
 30
0.0
 11
4308.044559836344
 21
-2098.1097676262439
 31
0.0
  0
LINE
  5
2E83B
  8
1DIM
 10
4272.9826162613217
 20
-2079.1097676262448
 30
0.0
 11
4308.044559836344
 21
-2079.1097676262448
 31
0.0
  0
LINE
  5
2E83C
  8
1DIM
 10
4306.044559836344
 20
-2094.1097676262439
 30
0.0
 11
4306.044559836344
 21
-2083.1097676262448
 31
0.0
  0
TEXT
  5
2E840
  8
1DIM
 10
4141.6552712344819
 20
-1940.8741047684489
 30
0.0
 40
7.0
  1
材質：ステンレス
  0
TEXT
  5
2E841
  8
1DIM
 10
4141.6552712344819
 20
-1952.5407714351149
 30
0.0
 40
7.0
  1
仕上げ：各種仕上げ
  0
SOLID
  5
2E842
  8
1DIM
 10
4114.98036380352
 20
-1979.7282596332329
 30
0.0
 11
4111.8681081782934
 21
-1982.3279344913039
 31
0.0
 12
4113.968995977918
 22
-1978.859402395758
 32
0.0
 13
4113.968995977918
 23
-1978.859402395758
 33
0.0
1001
ACAD
1000
DSTYLE
1002
{
1070
    40
1040
2.0
1002
}
  0
TEXT
  5
2E844
  8
1DIM
 10
4186.3568664336426
 20
-2050.5463279928072
 30
0.0
 40
7.0
  1
材質：ガラス
  0
TEXT
  5
2E845
  8
1DIM
 10
4186.3568664336426
 20
-2062.2129946594732
 30
0.0
 40
7.0
  1
仕上げ：各種仕上げ
  0
SOLID
  5
2E846
  8
1DIM
 10
4119.3805389657182
 20
-2136.308505272536
 30
0.0
 11
4116.2682181611563
 21
-2138.9081020978028
 31
0.0
 12
4118.3691929248444
 22
-2135.4396226778281
 32
0.0
 13
4118.3691929248444
 23
-2135.4396226778281
 33
0.0
1001
ACAD
1000
DSTYLE
1002
{
1070
    40
1040
2.0
1002
}
  0
LINE
  5
2E848
  8
1DIM
 10
4245.6642296750488
 20
-2198.1097676262439
 30
0.0
 11
4308.044559836344
 21
-2198.1097676262439
 31
0.0
  0
LINE
  5
2E849
  8
1DIM
 10
3975.6642296750501
 20
-2098.1097676262439
 30
0.0
 11
4308.044559836344
 21
-2098.1097676262439
 31
0.0
  0
LINE
  5
2E84A
  8
1DIM
 10
4306.044559836344
 20
-2194.1097676262439
 30
0.0
 11
4306.044559836344
 21
-2102.1097676262439
 31
0.0
  0
LINE
  5
2E84E
  8
1DIM
 10
3970.4826162613722
 20
-2208.0202576452389
 30
0.0
 11
3970.4826162613722
 21
-2240.8823887861331
 31
0.0
  0
LINE
  5
2E84F
  8
1DIM
 10
3890.4826162613731
 20
-2208.0202576452389
 30
0.0
 11
3890.4826162613731
 21
-2240.8823887861331
 31
0.0
  0
LINE
  5
2E850
  8
1DIM
 10
3966.4826162613722
 20
-2238.8823887861331
 30
0.0
 11
3894.4826162613722
 21
-2238.8823887861331
 31
0.0
  0
LINE
  5
2E854
  8
1DIM
 10
4090.4826162613722
 20
-2208.0202576452389
 30
0.0
 11
4090.4826162613722
 21
-2240.8823887861331
 31
0.0
  0
LINE
  5
2E855
  8
1DIM
 10
3970.4826162613722
 20
-2208.0202576452389
 30
0.0
 11
3970.4826162613722
 21
-2240.8823887861331
 31
0.0
  0
LINE
  5
2E856
  8
1DIM
 10
4086.4826162613722
 20
-2238.8823887861331
 30
0.0
 11
3974.4826162613722
 21
-2238.8823887861331
 31
0.0
  0
LINE
  5
2E85A
  8
1DIM
 10
4240.4826162613708
 20
-2208.0202576452389
 30
0.0
 11
4240.4826162613708
 21
-2240.8823887861331
 31
0.0
  0
LINE
  5
2E85B
  8
1DIM
 10
4090.4826162613722
 20
-2208.0202576452389
 30
0.0
 11
4090.4826162613722
 21
-2240.8823887861331
 31
0.0
  0
LINE
  5
2E85C
  8
1DIM
 10
4236.4826162613717
 20
-2238.8823887861331
 30
0.0
 11
4094.4826162613722
 21
-2238.8823887861331
 31
0.0
  0
LINE
  5
2E860
  8
1DIM
 10
4277.9826162613217
 20
-2084.1097676262448
 30
0.0
 11
4277.9826162613217
 21
-2035.6743478675201
 31
0.0
  0
LINE
  5
2E861
  8
1DIM
 10
3876.9826162613222
 20
-2084.1097676262448
 30
0.0
 11
3876.9826162613222
 21
-2035.6743478675201
 31
0.0
  0
LINE
  5
2E862
  8
1DIM
 10
4273.9826162613226
 20
-2037.6743478675201
 30
0.0
 11
3880.9826162613222
 21
-2037.6743478675201
 31
0.0
  0
LINE
  5
2E866
  8
1DIM
 10
4272.9826162613217
 20
-2217.1097676262448
 30
0.0
 11
4326.9240564618049
 21
-2217.1097676262448
 31
0.0
  0
LINE
  5
2E867
  8
1DIM
 10
4272.9826162613217
 20
-2079.1097676262448
 30
0.0
 11
4326.9240564618049
 21
-2079.1097676262448
 31
0.0
  0
LINE
  5
2E868
  8
1DIM
 10
4324.9240564618049
 20
-2213.1097676262448
 30
0.0
 11
4324.9240564618049
 21
-2083.1097676262448
 31
0.0
  0
LINE
  5
2E86C
  8
1DIM
 10
4427.058334758929
 20
-2198.1097676262439
 30
0.0
 11
4451.7370209959799
 21
-2198.1097676262439
 31
0.0
  0
LINE
  5
2E86D
  8
1DIM
 10
4427.058334758929
 20
-2098.1097676262439
 30
0.0
 11
4451.7370209959799
 21
-2098.1097676262439
 31
0.0
  0
LINE
  5
2E86E
  8
1DIM
 10
4449.7370209959809
 20
-2194.1097676262439
 30
0.0
 11
4449.7370209959809
 21
-2102.1097676262439
 31
0.0
  0
LINE
  5
2E872
  8
1DIM
 10
4386.4566597589301
 20
-2042.815838487285
 30
0.0
 11
4386.4566597589301
 21
-2035.6743478675201
 31
0.0
  0
LINE
  5
2E873
  8
1DIM
 10
4343.4566597589301
 20
-2079.1097676262448
 30
0.0
 11
4343.4566597589301
 21
-2035.6743478675201
 31
0.0
  0
LINE
  5
2E874
  8
1DIM
 10
4382.4566597589283
 20
-2037.6743478675201
 30
0.0
 11
4347.456659758931
 21
-2037.6743478675201
 31
0.0
  0
TEXT
  5
2E878
  8
1DIM
 10
4069.1828273246629
 20
-2050.5463279928072
 30
0.0
 40
7.0
  1
材質：ステンレス
  0
TEXT
  5
2E879
  8
1DIM
 10
4069.1828273246629
 20
-2062.2129946594732
 30
0.0
 40
7.0
  1
仕上げ：各種仕上げ
  0
SOLID
  5
2E87A
  8
1DIM
 10
4042.507919893701
 20
-2089.4004828575912
 30
0.0
 11
4039.3956642684739
 21
-2092.0001577156622
 31
0.0
 12
4041.4965520680989
 22
-2088.5316256201158
 32
0.0
 13
4041.4965520680989
 23
-2088.5316256201158
 33
0.0
1001
ACAD
1000
DSTYLE
1002
{
1070
    40
1040
2.0
1002
}
  0
LINE
  5
2E87C
  8
1DIM
 10
4042.0022359809
 20
-2088.9660542388528
 30
0.0
 11
4063.7828273246641
 21
-2063.6129946594729
 31
0.0
1001
ACAD
1000
DSTYLE
1002
{
1070
    40
1040
2.0
1002
}
  0
LINE
  5
2E87D
  8
1DIM
 10
4063.7828273246641
 20
-2063.6129946594729
 30
0.0
 11
4069.1828273246629
 21
-2063.6129946594729
 31
0.0
1001
ACAD
1000
DSTYLE
1002
{
1070
    40
1040
2.0
1002
}
  0
TEXT
  5
2E87E
  8
1DIM
 10
4359.123326425597
 20
-2036.27434786752
 30
0.0
 40
7.0
  1
43
  0
LINE
  5
2E87F
  8
0
  6
BYBLOCK
 10
4347.456659758931
 20
-2038.7461446275199
 30
0.0
 11
4343.4566597589301
 21
-2037.6743478675201
 31
0.0
  0
LINE
  5
2E880
  8
0
  6
BYBLOCK
 10
4343.4566597589301
 20
-2037.6743478675201
 30
0.0
 11
4347.456659758931
 21
-2036.60255110752
 31
0.0
  0
LINE
  5
2E881
  8
0
  6
BYBLOCK
 10
4343.4566597589301
 20
-2037.6743478675201
 30
0.0
 11
4347.456659758931
 21
-2037.6743478675201
 31
0.0
  0
LINE
  5
2E882
  8
0
  6
BYBLOCK
 10
4382.4566597589283
 20
-2036.60255110752
 30
0.0
 11
4386.4566597589301
 21
-2037.6743478675201
 31
0.0
  0
LINE
  5
2E883
  8
0
  6
BYBLOCK
 10
4386.4566597589301
 20
-2037.6743478675201
 30
0.0
 11
4382.4566597589283
 21
-2038.7461446275199
 31
0.0
  0
LINE
  5
2E884
  8
0
  6
BYBLOCK
 10
4386.4566597589301
 20
-2037.6743478675201
 30
0.0
 11
4382.4566597589283
 21
-2037.6743478675201
 31
0.0
  0
TEXT
  5
2E885
  8
1DIM
 10
4448.3370209959821
 20
-2155.1097676262439
 30
0.0
 40
7.0
  1
100
 50
90.0
  0
LINE
  5
2E886
  8
0
  6
BYBLOCK
 10
4448.6652242359796
 20
-2102.1097676262439
 30
0.0
 11
4449.7370209959809
 21
-2098.1097676262439
 31
0.0
  0
LINE
  5
2E887
  8
0
  6
BYBLOCK
 10
4449.7370209959809
 20
-2098.1097676262439
 30
0.0
 11
4450.8088177559812
 21
-2102.1097676262439
 31
0.0
  0
LINE
  5
2E888
  8
0
  6
BYBLOCK
 10
4449.7370209959809
 20
-2098.1097676262439
 30
0.0
 11
4449.7370209959809
 21
-2102.1097676262439
 31
0.0
  0
LINE
  5
2E889
  8
0
  6
BYBLOCK
 10
4450.8088177559812
 20
-2194.1097676262439
 30
0.0
 11
4449.7370209959809
 21
-2198.1097676262439
 31
0.0
  0
LINE
  5
2E88A
  8
0
  6
BYBLOCK
 10
4449.7370209959809
 20
-2198.1097676262439
 30
0.0
 11
4448.6652242359796
 21
-2194.1097676262439
 31
0.0
  0
LINE
  5
2E88B
  8
0
  6
BYBLOCK
 10
4449.7370209959809
 20
-2198.1097676262439
 30
0.0
 11
4449.7370209959809
 21
-2194.1097676262439
 31
0.0
  0
TEXT
  5
2E88C
  8
1DIM
 10
4323.5240564618052
 20
-2156.2764342929108
 30
0.0
 40
7.0
  1
138
 50
90.0
  0
LINE
  5
2E88D
  8
0
  6
BYBLOCK
 10
4323.8522597018036
 20
-2083.1097676262448
 30
0.0
 11
4324.9240564618049
 21
-2079.1097676262448
 31
0.0
  0
LINE
  5
2E88E
  8
0
  6
BYBLOCK
 10
4324.9240564618049
 20
-2079.1097676262448
 30
0.0
 11
4325.9958532218052
 21
-2083.1097676262448
 31
0.0
  0
LINE
  5
2E88F
  8
0
  6
BYBLOCK
 10
4324.9240564618049
 20
-2079.1097676262448
 30
0.0
 11
4324.9240564618049
 21
-2083.1097676262448
 31
0.0
  0
LINE
  5
2E890
  8
0
  6
BYBLOCK
 10
4325.9958532218052
 20
-2213.1097676262448
 30
0.0
 11
4324.9240564618049
 21
-2217.1097676262448
 31
0.0
  0
LINE
  5
2E891
  8
0
  6
BYBLOCK
 10
4324.9240564618049
 20
-2217.1097676262448
 30
0.0
 11
4323.8522597018036
 21
-2213.1097676262448
 31
0.0
  0
LINE
  5
2E892
  8
0
  6
BYBLOCK
 10
4324.9240564618049
 20
-2217.1097676262448
 30
0.0
 11
4324.9240564618049
 21
-2213.1097676262448
 31
0.0
  0
TEXT
  5
2E893
  8
1DIM
 10
4069.8992829279891
 20
-2036.27434786752
 30
0.0
 40
7.0
  1
401
  0
LINE
  5
2E894
  8
0
  6
BYBLOCK
 10
3880.9826162613222
 20
-2038.7461446275199
 30
0.0
 11
3876.9826162613222
 21
-2037.6743478675201
 31
0.0
  0
LINE
  5
2E895
  8
0
  6
BYBLOCK
 10
3876.9826162613222
 20
-2037.6743478675201
 30
0.0
 11
3880.9826162613222
 21
-2036.60255110752
 31
0.0
  0
LINE
  5
2E896
  8
0
  6
BYBLOCK
 10
3876.9826162613222
 20
-2037.6743478675201
 30
0.0
 11
3880.9826162613222
 21
-2037.6743478675201
 31
0.0
  0
LINE
  5
2E897
  8
0
  6
BYBLOCK
 10
4273.9826162613226
 20
-2036.60255110752
 30
0.0
 11
4277.9826162613217
 21
-2037.6743478675201
 31
0.0
  0
LINE
  5
2E898
  8
0
  6
BYBLOCK
 10
4277.9826162613217
 20
-2037.6743478675201
 30
0.0
 11
4273.9826162613226
 21
-2038.7461446275199
 31
0.0
  0
LINE
  5
2E899
  8
0
  6
BYBLOCK
 10
4277.9826162613217
 20
-2037.6743478675201
 30
0.0
 11
4273.9826162613226
 21
-2037.6743478675201
 31
0.0
  0
TEXT
  5
2E89A
  8
1DIM
 10
4150.8992829280387
 20
-2237.482388786133
 30
0.0
 40
7.0
  1
P=150
  0
LINE
  5
2E89B
  8
0
  6
BYBLOCK
 10
4094.4826162613722
 20
-2239.954185546133
 30
0.0
 11
4090.4826162613722
 21
-2238.8823887861331
 31
0.0
  0
LINE
  5
2E89C
  8
0
  6
BYBLOCK
 10
4090.4826162613722
 20
-2238.8823887861331
 30
0.0
 11
4094.4826162613722
 21
-2237.8105920261328
 31
0.0
  0
LINE
  5
2E89D
  8
0
  6
BYBLOCK
 10
4090.4826162613722
 20
-2238.8823887861331
 30
0.0
 11
4094.4826162613722
 21
-2238.8823887861331
 31
0.0
  0
LINE
  5
2E89E
  8
0
  6
BYBLOCK
 10
4236.4826162613717
 20
-2237.8105920261328
 30
0.0
 11
4240.4826162613708
 21
-2238.8823887861331
 31
0.0
  0
LINE
  5
2E89F
  8
0
  6
BYBLOCK
 10
4240.4826162613708
 20
-2238.8823887861331
 30
0.0
 11
4236.4826162613717
 21
-2239.954185546133
 31
0.0
  0
LINE
  5
2E8A0
  8
0
  6
BYBLOCK
 10
4240.4826162613708
 20
-2238.8823887861331
 30
0.0
 11
4236.4826162613717
 21
-2238.8823887861331
 31
0.0
  0
TEXT
  5
2E8A1
  8
1DIM
 10
4015.8992829280378
 20
-2237.482388786133
 30
0.0
 40
7.0
  1
P=120
  0
LINE
  5
2E8A2
  8
0
  6
BYBLOCK
 10
3974.4826162613722
 20
-2239.954185546133
 30
0.0
 11
3970.4826162613722
 21
-2238.8823887861331
 31
0.0
  0
LINE
  5
2E8A3
  8
0
  6
BYBLOCK
 10
3970.4826162613722
 20
-2238.8823887861331
 30
0.0
 11
3974.4826162613722
 21
-2237.8105920261328
 31
0.0
  0
LINE
  5
2E8A4
  8
0
  6
BYBLOCK
 10
3970.4826162613722
 20
-2238.8823887861331
 30
0.0
 11
3974.4826162613722
 21
-2238.8823887861331
 31
0.0
  0
LINE
  5
2E8A5
  8
0
  6
BYBLOCK
 10
4086.4826162613722
 20
-2237.8105920261328
 30
0.0
 11
4090.4826162613722
 21
-2238.8823887861331
 31
0.0
  0
LINE
  5
2E8A6
  8
0
  6
BYBLOCK
 10
4090.4826162613722
 20
-2238.8823887861331
 30
0.0
 11
4086.4826162613722
 21
-2239.954185546133
 31
0.0
  0
LINE
  5
2E8A7
  8
0
  6
BYBLOCK
 10
4090.4826162613722
 20
-2238.8823887861331
 30
0.0
 11
4086.4826162613722
 21
-2238.8823887861331
 31
0.0
  0
TEXT
  5
2E8A8
  8
1DIM
 10
3918.2326162613722
 20
-2237.482388786133
 30
0.0
 40
7.0
  1
P=80
  0
LINE
  5
2E8A9
  8
0
  6
BYBLOCK
 10
3894.4826162613722
 20
-2239.954185546133
 30
0.0
 11
3890.4826162613731
 21
-2238.8823887861331
 31
0.0
  0
LINE
  5
2E8AA
  8
0
  6
BYBLOCK
 10
3890.4826162613731
 20
-2238.8823887861331
 30
0.0
 11
3894.4826162613722
 21
-2237.8105920261328
 31
0.0
  0
LINE
  5
2E8AB
  8
0
  6
BYBLOCK
 10
3890.4826162613731
 20
-2238.8823887861331
 30
0.0
 11
3894.4826162613722
 21
-2238.8823887861331
 31
0.0
  0
LINE
  5
2E8AC
  8
0
  6
BYBLOCK
 10
3966.4826162613722
 20
-2237.8105920261328
 30
0.0
 11
3970.4826162613722
 21
-2238.8823887861331
 31
0.0
  0
LINE
  5
2E8AD
  8
0
  6
BYBLOCK
 10
3970.4826162613722
 20
-2238.8823887861331
 30
0.0
 11
3966.4826162613722
 21
-2239.954185546133
 31
0.0
  0
LINE
  5
2E8AE
  8
0
  6
BYBLOCK
 10
3970.4826162613722
 20
-2238.8823887861331
 30
0.0
 11
3966.4826162613722
 21
-2238.8823887861331
 31
0.0
  0
TEXT
  5
2E8AF
  8
1DIM
 10
4304.6445598363453
 20
-2162.1097676262439
 30
0.0
 40
7.0
  1
P=100
 50
90.0
  0
LINE
  5
2E8B0
  8
0
  6
BYBLOCK
 10
4304.9727630763427
 20
-2102.1097676262439
 30
0.0
 11
4306.044559836344
 21
-2098.1097676262439
 31
0.0
  0
LINE
  5
2E8B1
  8
0
  6
BYBLOCK
 10
4306.044559836344
 20
-2098.1097676262439
 30
0.0
 11
4307.1163565963452
 21
-2102.1097676262439
 31
0.0
  0
LINE
  5
2E8B2
  8
0
  6
BYBLOCK
 10
4306.044559836344
 20
-2098.1097676262439
 30
0.0
 11
4306.044559836344
 21
-2102.1097676262439
 31
0.0
  0
LINE
  5
2E8B3
  8
0
  6
BYBLOCK
 10
4307.1163565963452
 20
-2194.1097676262439
 30
0.0
 11
4306.044559836344
 21
-2198.1097676262439
 31
0.0
  0
LINE
  5
2E8B4
  8
0
  6
BYBLOCK
 10
4306.044559836344
 20
-2198.1097676262439
 30
0.0
 11
4304.9727630763427
 21
-2194.1097676262439
 31
0.0
  0
LINE
  5
2E8B5
  8
0
  6
BYBLOCK
 10
4306.044559836344
 20
-2198.1097676262439
 30
0.0
 11
4306.044559836344
 21
-2194.1097676262439
 31
0.0
  0
LINE
  5
2E8B6
  8
1DIM
 10
4118.8748659452813
 20
-2135.8740639751818
 30
0.0
 11
4180.956866433643
 21
-2063.6129946594729
 31
0.0
1001
ACAD
1000
DSTYLE
1002
{
1070
    40
1040
2.0
1002
}
  0
LINE
  5
2E8B7
  8
1DIM
 10
4180.956866433643
 20
-2063.6129946594729
 30
0.0
 11
4186.3568664336426
 21
-2063.6129946594729
 31
0.0
1001
ACAD
1000
DSTYLE
1002
{
1070
    40
1040
2.0
1002
}
  0
LINE
  5
2E8B8
  8
1DIM
 10
4114.474679890719
 20
-1979.293831014495
 30
0.0
 11
4136.2552712344832
 21
-1953.9407714351159
 31
0.0
1001
ACAD
1000
DSTYLE
1002
{
1070
    40
1040
2.0
1002
}
  0
LINE
  5
2E8B9
  8
1DIM
 10
4136.2552712344832
 20
-1953.9407714351159
 30
0.0
 11
4141.6552712344819
 21
-1953.9407714351159
 31
0.0
1001
ACAD
1000
DSTYLE
1002
{
1070
    40
1040
2.0
1002
}
  0
TEXT
  5
2E8BA
  8
1DIM
 10
4304.6445598363453
 20
-2093.2764342929099
 30
0.0
 40
7.0
  1
19
 50
90.0
  0
LINE
  5
2E8BB
  8
0
  6
BYBLOCK
 10
4304.9727630763427
 20
-2083.1097676262448
 30
0.0
 11
4306.044559836344
 21
-2079.1097676262448
 31
0.0
  0
LINE
  5
2E8BC
  8
0
  6
BYBLOCK
 10
4306.044559836344
 20
-2079.1097676262448
 30
0.0
 11
4307.1163565963452
 21
-2083.1097676262448
 31
0.0
  0
LINE
  5
2E8BD
  8
0
  6
BYBLOCK
 10
4306.044559836344
 20
-2079.1097676262448
 30
0.0
 11
4306.044559836344
 21
-2083.1097676262448
 31
0.0
  0
LINE
  5
2E8BE
  8
0
  6
BYBLOCK
 10
4307.1163565963452
 20
-2094.1097676262439
 30
0.0
 11
4306.044559836344
 21
-2098.1097676262439
 31
0.0
  0
LINE
  5
2E8BF
  8
0
  6
BYBLOCK
 10
4306.044559836344
 20
-2098.1097676262439
 30
0.0
 11
4304.9727630763427
 21
-2094.1097676262439
 31
0.0
  0
LINE
  5
2E8C0
  8
0
  6
BYBLOCK
 10
4306.044559836344
 20
-2098.1097676262439
 30
0.0
 11
4306.044559836344
 21
-2094.1097676262439
 31
0.0
  0
TEXT
  5
2E8C1
  8
1DIM
 10
4248.7326162613472
 20
-2237.482388786133
 30
0.0
 40
7.0
  1
37.5
  0
LINE
  5
2E8C2
  8
0
  6
BYBLOCK
 10
4273.9826162613226
 20
-2237.8105920261328
 30
0.0
 11
4277.9826162613217
 21
-2238.8823887861331
 31
0.0
  0
LINE
  5
2E8C3
  8
0
  6
BYBLOCK
 10
4277.9826162613217
 20
-2238.8823887861331
 30
0.0
 11
4273.9826162613226
 21
-2239.954185546133
 31
0.0
  0
LINE
  5
2E8C4
  8
0
  6
BYBLOCK
 10
4277.9826162613217
 20
-2238.8823887861331
 30
0.0
 11
4273.9826162613226
 21
-2238.8823887861331
 31
0.0
  0
LINE
  5
2E8C5
  8
0
  6
BYBLOCK
 10
4244.4826162613708
 20
-2239.954185546133
 30
0.0
 11
4240.4826162613708
 21
-2238.8823887861331
 31
0.0
  0
LINE
  5
2E8C6
  8
0
  6
BYBLOCK
 10
4240.4826162613708
 20
-2238.8823887861331
 30
0.0
 11
4244.4826162613708
 21
-2237.8105920261328
 31
0.0
  0
LINE
  5
2E8C7
  8
0
  6
BYBLOCK
 10
4240.4826162613708
 20
-2238.8823887861331
 30
0.0
 11
4244.4826162613708
 21
-2238.8823887861331
 31
0.0
  0
TEXT
  5
2E8C8
  8
1DIM
 10
3859.740072804032
 20
-2119.443100959581
 30
0.0
 40
7.0
  1
69
 50
90.0
  0
LINE
  5
2E8C9
  8
0
  6
BYBLOCK
 10
3860.0682760440318
 20
-2083.1097676262498
 30
0.0
 11
3861.1400728040321
 21
-2079.1097676262498
 31
0.0
  0
LINE
  5
2E8CA
  8
0
  6
BYBLOCK
 10
3861.1400728040321
 20
-2079.1097676262498
 30
0.0
 11
3862.2118695640311
 21
-2083.1097676262498
 31
0.0
  0
LINE
  5
2E8CB
  8
0
  6
BYBLOCK
 10
3861.1400728040321
 20
-2079.1097676262498
 30
0.0
 11
3861.1400728040321
 21
-2083.1097676262498
 31
0.0
  0
LINE
  5
2E8CC
  8
0
  6
BYBLOCK
 10
3862.2118695640311
 20
-2144.1097676262448
 30
0.0
 11
3861.1400728040321
 21
-2148.1097676262448
 31
0.0
  0
LINE
  5
2E8CD
  8
0
  6
BYBLOCK
 10
3861.1400728040321
 20
-2148.1097676262448
 30
0.0
 11
3860.0682760440318
 21
-2144.1097676262448
 31
0.0
  0
LINE
  5
2E8CE
  8
0
  6
BYBLOCK
 10
3861.1400728040321
 20
-2148.1097676262448
 30
0.0
 11
3861.1400728040321
 21
-2144.1097676262448
 31
0.0
  0
TEXT
  5
2E8CF
  8
1DIM
 10
3893.2326162613472
 20
-2058.2746954522008
 30
0.0
 40
7.0
  1
53.5
  0
LINE
  5
2E8D0
  8
0
  6
BYBLOCK
 10
3880.9826162613222
 20
-2060.7464922122008
 30
0.0
 11
3876.9826162613222
 21
-2059.6746954522009
 31
0.0
  0
LINE
  5
2E8D1
  8
0
  6
BYBLOCK
 10
3876.9826162613222
 20
-2059.6746954522009
 30
0.0
 11
3880.9826162613222
 21
-2058.602898692202
 31
0.0
  0
LINE
  5
2E8D2
  8
0
  6
BYBLOCK
 10
3876.9826162613222
 20
-2059.6746954522009
 30
0.0
 11
3880.9826162613222
 21
-2059.6746954522009
 31
0.0
  0
LINE
  5
2E8D3
  8
0
  6
BYBLOCK
 10
3926.4826162613699
 20
-2058.602898692202
 30
0.0
 11
3930.4826162613708
 21
-2059.6746954522009
 31
0.0
  0
LINE
  5
2E8D4
  8
0
  6
BYBLOCK
 10
3930.4826162613708
 20
-2059.6746954522009
 30
0.0
 11
3926.4826162613699
 21
-2060.7464922122008
 31
0.0
  0
LINE
  5
2E8D5
  8
0
  6
BYBLOCK
 10
3930.4826162613708
 20
-2059.6746954522009
 30
0.0
 11
3926.4826162613699
 21
-2059.6746954522009
 31
0.0
  0
TEXT
  5
2E8D6
  8
1DIM
 10
3965.2326162613708
 20
-2058.2746954522008
 30
0.0
 40
7.0
  1
80
  0
LINE
  5
2E8D7
  8
0
  6
BYBLOCK
 10
4006.4826162613699
 20
-2058.602898692202
 30
0.0
 11
4010.4826162613699
 21
-2059.6746954522009
 31
0.0
  0
LINE
  5
2E8D8
  8
0
  6
BYBLOCK
 10
4010.4826162613699
 20
-2059.6746954522009
 30
0.0
 11
4006.4826162613699
 21
-2060.7464922122008
 31
0.0
  0
LINE
  5
2E8D9
  8
0
  6
BYBLOCK
 10
4010.4826162613699
 20
-2059.6746954522009
 30
0.0
 11
4006.4826162613699
 21
-2059.6746954522009
 31
0.0
  0
LINE
  5
2E8DA
  8
0
  6
BYBLOCK
 10
3934.4826162613708
 20
-2060.7464922122008
 30
0.0
 11
3930.4826162613708
 21
-2059.6746954522009
 31
0.0
  0
LINE
  5
2E8DB
  8
0
  6
BYBLOCK
 10
3930.4826162613708
 20
-2059.6746954522009
 30
0.0
 11
3934.4826162613708
 21
-2058.602898692202
 31
0.0
  0
LINE
  5
2E8DC
  8
0
  6
BYBLOCK
 10
3930.4826162613708
 20
-2059.6746954522009
 30
0.0
 11
3934.4826162613708
 21
-2059.6746954522009
 31
0.0
  0
LINE
  5
2E8DD
  8
1DIM
 10
3931.4061309898361
 20
-2152.028005675189
 30
0.0
 11
3957.796971733419
 21
-2263.245841697259
 31
0.0
1001
ACAD
1000
DSTYLE
1002
{
1070
    40
1040
2.0
1002
}
  0
LINE
  5
2E8DE
  8
1DIM
 10
3957.796971733419
 20
-2263.245841697259
 30
0.0
 11
3963.1969717334191
 21
-2263.245841697259
 31
0.0
1001
ACAD
1000
DSTYLE
1002
{
1070
    40
1040
2.0
1002
}
  0
LINE
  5
2E8DF
  8
1DIM
 10
4009.4783224726189
 20
-2201.9816397814629
 30
0.0
 11
3993.587493697486
 21
-2263.245841697259
 31
0.0
1001
ACAD
1000
DSTYLE
1002
{
1070
    40
1040
2.0
1002
}
  0
LINE
  5
2E8E0
  8
1DIM
 10
3993.587493697486
 20
-2263.245841697259
 30
0.0
 11
3998.9874936974861
 21
-2263.245841697259
 31
0.0
1001
ACAD
1000
DSTYLE
1002
{
1070
    40
1040
2.0
1002
}
  0
TEXT
  5
2E8E1
  8
1DIM
 10
3859.740072804032
 20
-2178.3597676262748
 30
0.0
 40
7.0
  1
50
 50
90.0
  0
LINE
  5
2E8E2
  8
0
  6
BYBLOCK
 10
3860.0682760440318
 20
-2152.1097676262448
 30
0.0
 11
3861.1400728040321
 21
-2148.1097676262448
 31
0.0
  0
LINE
  5
2E8E3
  8
0
  6
BYBLOCK
 10
3861.1400728040321
 20
-2148.1097676262448
 30
0.0
 11
3862.2118695640311
 21
-2152.1097676262448
 31
0.0
  0
LINE
  5
2E8E4
  8
0
  6
BYBLOCK
 10
3861.1400728040321
 20
-2148.1097676262448
 30
0.0
 11
3861.1400728040321
 21
-2152.1097676262448
 31
0.0
  0
LINE
  5
2E8E5
  8
0
  6
BYBLOCK
 10
3862.2118695640311
 20
-2194.1097676263062
 30
0.0
 11
3861.1400728040321
 21
-2198.1097676263062
 31
0.0
  0
LINE
  5
2E8E6
  8
0
  6
BYBLOCK
 10
3861.1400728040321
 20
-2198.1097676263062
 30
0.0
 11
3860.0682760440318
 21
-2194.1097676263062
 31
0.0
  0
LINE
  5
2E8E7
  8
0
  6
BYBLOCK
 10
3861.1400728040321
 20
-2198.1097676263062
 30
0.0
 11
3861.1400728040321
 21
-2194.1097676263062
 31
0.0
  0
VIEWPORT
  5
57
 67
     1
  8
0
 10
-12.71820606546885
 20
10.09248672500371
 30
0.0
 40
618.8972017416412
 41
282.79330210784627
 68
     1
 69
     1
1001
ACAD
1000
MVIEW
1002
{
1070
    16
1010
0.0
1020
0.0
1030
0.0
1010
0.0
1020
0.0
1030
1.0
1040
0.0
1040
282.79330210784627
1040
-12.71820606546885
1040
10.09248672500371
1040
50.0
1040
0.0
1040
0.0
1070
     0
1070
   100
1070
     1
1070
     1
1070
     0
1070
     0
1070
     0
1070
     0
1040
0.0
1040
0.0
1040
0.0
1040
10.0
1040
10.0
1040
10.0
1040
10.0
1070
     0
1002
{
1002
}
1002
}
  0
ENDSEC
  0
EOF
