  0
SECTION
  2
HEADER
  9
$ACADVER
  1
AC1009
  9
$INSBASE
 10
0.0
 20
0.0
 30
0.0
  9
$EXTMIN
 10
2556.4284138599469
 20
-2124.2947591327711
 30
0.0
  9
$EXTMAX
 10
2930.163365115216
 20
-1858.523951225277
 30
0.0
  9
$LIMMIN
 10
0.0
 20
0.0
  9
$LIMMAX
 10
420.0
 20
297.0
  9
$ORTHOMODE
 70
     0
  9
$REGENMODE
 70
     1
  9
$FILLMODE
 70
     1
  9
$QTEXTMODE
 70
     0
  9
$MIRRTEXT
 70
     0
  9
$DRAGMODE
 70
     2
  9
$LTSCALE
 40
0.5
  9
$OSMODE
 70
  2175
  9
$ATTMODE
 70
     1
  9
$TEXTSIZE
 40
4.0
  9
$TRACEWID
 40
1.0
  9
$TEXTSTYLE
  7
STANDARD
  9
$CLAYER
  8
1TEXT
  9
$CELTYPE
  6
BYLAYER
  9
$CECOLOR
 62
   256
  9
$DIMSCALE
 40
1.0
  9
$DIMASZ
 40
2.0
  9
$DIMEXO
 40
0.0
  9
$DIMDLI
 40
7.0
  9
$DIMRND
 40
0.0
  9
$DIMDLE
 40
0.0
  9
$DIMEXE
 40
1.0
  9
$DIMTP
 40
0.0
  9
$DIMTM
 40
0.0
  9
$DIMTXT
 40
3.5
  9
$DIMCEN
 40
0.0
  9
$DIMTSZ
 40
0.0
  9
$DIMTOL
 70
     0
  9
$DIMLIM
 70
     0
  9
$DIMTIH
 70
     0
  9
$DIMTOH
 70
     0
  9
$DIMSE1
 70
     0
  9
$DIMSE2
 70
     0
  9
$DIMTAD
 70
     1
  9
$DIMZIN
 70
     8
  9
$DIMBLK
  1

  9
$DIMASO
 70
     1
  9
$DIMSHO
 70
     1
  9
$DIMPOST
  1
 
  9
$DIMAPOST
  1

  9
$DIMALT
 70
     0
  9
$DIMALTD
 70
     2
  9
$DIMALTF
 40
25.399999999999999
  9
$DIMLFAC
 40
1.0
  9
$DIMTOFL
 70
     1
  9
$DIMTVP
 40
0.0
  9
$DIMTIX
 70
     0
  9
$DIMSOXD
 70
     0
  9
$DIMSAH
 70
     1
  9
$DIMBLK1
  1
OPEN30
  9
$DIMBLK2
  1
OPEN30
  9
$DIMSTYLE
  2
NEWX10
  9
$DIMCLRD
 70
   256
  9
$DIMCLRE
 70
   256
  9
$DIMCLRT
 70
   201
  9
$DIMTFAC
 40
0.7
  9
$DIMGAP
 40
0.7
  9
$LUNITS
 70
     2
  9
$LUPREC
 70
     4
  9
$SKETCHINC
 40
1.0
  9
$FILLETRAD
 40
0.0
  9
$AUNITS
 70
     0
  9
$AUPREC
 70
     2
  9
$MENU
  1
acad
  9
$ELEVATION
 40
0.0
  9
$PELEVATION
 40
0.0
  9
$THICKNESS
 40
0.0
  9
$LIMCHECK
 70
     0
  9
$BLIPMODE
 70
     0
  9
$CHAMFERA
 40
10.0
  9
$CHAMFERB
 40
10.0
  9
$SKPOLY
 70
     0
  9
$TDCREATE
 40
2453033.7326634838
  9
$TDUPDATE
 40
2456456.4458157872
  9
$TDINDWG
 40
1.967244456
  9
$TDUSRTIMER
 40
1.967244456
  9
$USRTIMER
 70
     1
  9
$ANGBASE
 50
0.0
  9
$ANGDIR
 70
     0
  9
$PDMODE
 70
     0
  9
$PDSIZE
 40
0.0
  9
$PLINEWID
 40
0.0
  9
$COORDS
 70
     0
  9
$SPLFRAME
 70
     0
  9
$SPLINETYPE
 70
     6
  9
$SPLINESEGS
 70
     8
  9
$ATTDIA
 70
     0
  9
$ATTREQ
 70
     1
  9
$HANDLING
 70
     1
  9
$HANDSEED
  5
17C9D
  9
$SURFTAB1
 70
     6
  9
$SURFTAB2
 70
     6
  9
$SURFTYPE
 70
     6
  9
$SURFU
 70
     6
  9
$SURFV
 70
     6
  9
$UCSNAME
  2

  9
$UCSORG
 10
0.0
 20
0.0
 30
0.0
  9
$UCSXDIR
 10
1.0
 20
0.0
 30
0.0
  9
$UCSYDIR
 10
0.0
 20
1.0
 30
0.0
  9
$PUCSNAME
  2

  9
$PUCSORG
 10
0.0
 20
0.0
 30
0.0
  9
$PUCSXDIR
 10
1.0
 20
0.0
 30
0.0
  9
$PUCSYDIR
 10
0.0
 20
1.0
 30
0.0
  9
$USERI1
 70
     0
  9
$USERI2
 70
     0
  9
$USERI3
 70
     0
  9
$USERI4
 70
     0
  9
$USERI5
 70
     0
  9
$USERR1
 40
0.0
  9
$USERR2
 40
0.0
  9
$USERR3
 40
0.0
  9
$USERR4
 40
0.0
  9
$USERR5
 40
0.0
  9
$WORLDVIEW
 70
     1
  9
$SHADEDGE
 70
     3
  9
$SHADEDIF
 70
    70
  9
$TILEMODE
 70
     1
  9
$MAXACTVP
 70
    48
  9
$PLIMCHECK
 70
     0
  9
$PEXTMIN
 10
1.0000000000000000E+020
 20
1.0000000000000000E+020
 30
1.0000000000000000E+020
  9
$PEXTMAX
 10
-1.0000000000000000E+020
 20
-1.0000000000000000E+020
 30
-1.0000000000000000E+020
  9
$PLIMMIN
 10
0.0
 20
0.0
  9
$PLIMMAX
 10
420.0
 20
297.0
  9
$UNITMODE
 70
     0
  9
$VISRETAIN
 70
     1
  9
$PLINEGEN
 70
     0
  9
$PSLTSCALE
 70
     1
  0
ENDSEC
  0
SECTION
  2
TABLES
  0
TABLE
  2
VPORT
 70
     1
  0
VPORT
  2
*ACTIVE
 70
     0
 10
0.0
 20
0.0
 11
1.0
 21
1.0
 12
2743.2501051780778
 22
-1991.362953245979
 13
0.0
 23
0.0
 14
10.0
 24
10.0
 15
10.0
 25
10.0
 16
0.0
 26
0.0
 36
1.0
 17
0.0
 27
0.0
 37
0.0
 40
282.07595418879231
 41
2.1771217712177111
 42
50.0
 43
0.0
 44
0.0
 50
0.0
 51
0.0
 71
     0
 72
   100
 73
     1
 74
     1
 75
     0
 76
     0
 77
     0
 78
     0
  0
ENDTAB
  0
TABLE
  2
LTYPE
 70
    16
  0
LTYPE
  2
CONTINUOUS
 70
     0
  3
Solid line
 72
    65
 73
     0
 40
0.0
  0
LTYPE
  2
CENTER2
 70
     0
  3
Center (.5x) ___ _ ___ _ ___ _ ___ _ ___ _ ___
 72
    65
 73
     4
 40
28.574999999999999
 49
19.050000000000001
 49
-3.1749999999999989
 49
3.1749999999999989
 49
-3.1749999999999989
  0
LTYPE
  2
HIDDEN
 70
     0
  3
Hidden __ __ __ __ __ __ __ __ __ __ __ __ __ _
 72
    65
 73
     2
 40
9.5249999999999986
 49
6.3499999999999988
 49
-3.1749999999999989
  0
LTYPE
  2
PHANTOM2
 70
     0
  3
Phantom (.5x) ___ _ _ ___ _ _ ___ _ _ ___ _ _
 72
    65
 73
     6
 40
31.75
 49
15.875
 49
-3.1749999999999989
 49
3.1749999999999989
 49
-3.1749999999999989
 49
3.1749999999999989
 49
-3.1749999999999989
  0
ENDTAB
  0
TABLE
  2
LAYER
 70
    44
  0
LAYER
  2
0
 70
     0
 62
     7
  6
CONTINUOUS
  0
LAYER
  2
1CENTER
 70
     0
 62
     7
  6
CENTER2
  0
LAYER
  2
1TEXT
 70
     0
 62
     7
  6
CONTINUOUS
  0
LAYER
  2
1DIM
 70
     0
 62
     7
  6
CONTINUOUS
  0
LAYER
  2
1HIDDEN
 70
     0
 62
     7
  6
HIDDEN
  0
LAYER
  2
1PHANTOM
 70
     0
 62
     7
  6
PHANTOM2
  0
LAYER
  2
01
 70
     0
 62
     1
  6
CONTINUOUS
  0
LAYER
  2
1HATCH
 70
     0
 62
     7
  6
CONTINUOUS
  0
ENDTAB
  0
TABLE
  2
STYLE
 70
    24
  0
STYLE
  2
STANDARD
 70
     0
 40
0.0
 41
1.0
 50
0.0
 71
     0
 42
4.0
  3
txt.shx
  4
extfont.shx
  0
ENDTAB
  0
TABLE
  2
VIEW
 70
     7
  0
ENDTAB
  0
TABLE
  2
UCS
 70
     0
  0
ENDTAB
  0
TABLE
  2
APPID
 70
    13
  0
APPID
  2
ACAD
 70
     0
  0
APPID
  2
DRAWINGVARIABLESXDATA
 70
     0
  0
APPID
  2
CONTENTTABDATA
 70
     0
  0
APPID
  2
CONTENTCURRENTTAB
 70
     0
  0
APPID
  2
CONTENTBLOCKDESCRIPTION
 70
     0
  0
APPID
  2
CONTENTBLOCKICON
 70
     0
  0
APPID
  2
CONTENTLONGBLOCKNAME
 70
     0
  0
APPID
  2
ACAD_PSEXT
 70
     0
  0
APPID
  2
ACAD_DSTYLE_DIMTEXT_FILL
 70
     0
  0
APPID
  2
ACAD_MLEADERVER
 70
     0
  0
APPID
  2
ACADANNOTATIVE
 70
     0
  0
APPID
  2
ACAD_EXEMPT_FROM_CAD_STANDARDS
 70
     0
  0
APPID
  2
ACLAYERTOOLS
 70
     0
  0
ENDTAB
  0
TABLE
  2
DIMSTYLE
 70
    10
  0
DIMSTYLE
  2
NEWX10
 70
     0
  3
 
  4

  5

  6
OPEN30
  7
OPEN30
 40
1.0
 41
2.0
 42
0.0
 43
7.0
 44
1.0
 45
0.0
 46
0.0
 47
0.0
 48
0.0
140
3.5
141
0.0
142
0.0
143
25.399999999999999
144
1.0
145
0.0
146
0.7
147
0.7
 71
     0
 72
     0
 73
     0
 74
     0
 75
     0
 76
     0
 77
     1
 78
     8
170
     0
171
     2
172
     1
173
     1
174
     0
175
     0
176
   256
177
   256
178
   201
  0
ENDTAB
  0
ENDSEC
  0
SECTION
  2
BLOCKS
  0
BLOCK
  8
0
  2
$MODEL_SPACE
 70
     0
 10
0.0
 20
0.0
 30
0.0
  3
$MODEL_SPACE
  1

  0
ENDBLK
  5
1A
  8
0
  0
BLOCK
 67
     1
  8
0
  2
$PAPER_SPACE
 70
     0
 10
0.0
 20
0.0
 30
0.0
  3
$PAPER_SPACE
  1

  0
ENDBLK
  5
17
 67
     1
  8
0
  0
BLOCK
  8
0
  2
_OPEN30
 70
     0
 10
0.0
 20
0.0
 30
0.0
  3
_OPEN30
  1

  0
LINE
  5
44
  8
0
  6
BYBLOCK
 62
     0
 10
-1.0
 20
0.26794919
 30
0.0
 11
0.0
 21
0.0
 31
0.0
  0
LINE
  5
45
  8
0
  6
BYBLOCK
 62
     0
 10
0.0
 20
0.0
 30
0.0
 11
-1.0
 21
-0.26794919
 31
0.0
  0
LINE
  5
46
  8
0
  6
BYBLOCK
 62
     0
 10
0.0
 20
0.0
 30
0.0
 11
-1.0
 21
0.0
 31
0.0
  0
ENDBLK
  5
47
  8
0
  0
BLOCK
  8
0
  2
*U28
 70
     1
 10
0.0
 20
0.0
 30
0.0
  3
*U28
  1

  0
TEXT
  5
17C8E
  8
1DIM
 62
   201
 10
3335.6240078955389
 20
-1023.389244864757
 30
0.0
 40
3.5
  1
10
 50
90.0
  0
ENDBLK
  5
17C90
  8
0
  0
BLOCK
  8
0
  2
*U29
 70
     1
 10
0.0
 20
0.0
 30
0.0
  3
*U29
  1

  0
TEXT
  5
17C92
  8
1DIM
 62
   201
 10
3478.1672359403929
 20
-1040.680911531425
 30
0.0
 40
3.5
  1
12
 50
90.0
  0
ENDBLK
  5
17C94
  8
0
  0
BLOCK
  8
0
  2
*U30
 70
     1
 10
0.0
 20
0.0
 30
0.0
  3
*U30
  1

  0
TEXT
  5
17C96
  8
1DIM
 62
   201
 10
3028.1702771794749
 20
-2015.523875117517
 30
0.0
 40
3.5
  1
10
 50
90.0
  0
ENDBLK
  5
17C98
  8
0
  0
BLOCK
  8
0
  2
*U31
 70
     1
 10
0.0
 20
0.0
 30
0.0
  3
*U31
  1

  0
TEXT
  5
17C9A
  8
1DIM
 62
   201
 10
3170.7135052243279
 20
-2032.8155417841849
 30
0.0
 40
3.5
  1
12
 50
90.0
  0
ENDBLK
  5
17C9C
  8
0
  0
ENDSEC
  0
SECTION
  2
ENTITIES
  0
LINE
  5
1720C
  8
1DIM
 10
2786.8545238578031
 20
-1882.523951225277
 30
0.0
 11
2926.8545238578049
 21
-1882.5239512252761
 31
0.0
  0
LINE
  5
1720D
  8
1DIM
 10
2786.8545238578031
 20
-1875.523951225277
 30
0.0
 11
2926.8545238578058
 21
-1875.5239512252749
 31
0.0
  0
TEXT
  5
1720E
  8
1TEXT
 10
2822.5345238578029
 20
-1881.023951225277
 30
0.0
 40
4.0
  1
表面処理：カバープレート
 41
0.6
 72
     1
 11
2839.2545238578041
 21
-1881.023951225277
 31
0.0
  0
TEXT
  5
1720F
  8
1TEXT
 10
2787.5345238578038
 20
-1881.023951225277
 30
0.0
 40
4.0
  1
表面処理：ガラスプレート
 41
0.6
 72
     1
 11
2804.2545238578032
 21
-1881.023951225277
 31
0.0
  0
LINE
  5
17210
  8
1DIM
 10
2786.8545238578031
 20
-1889.523951225277
 30
0.0
 11
2926.8545238578049
 21
-1889.523951225277
 31
0.0
  0
TEXT
  5
17211
  8
1TEXT
 10
2787.4011905244711
 20
-1888.2383082089259
 30
0.0
 40
4.0
  1
ヘアラインシルバー
 41
0.8
 72
     1
 11
2804.254523857805
 21
-1888.2383082089259
 31
0.0
  0
LINE
  5
17212
  8
1DIM
 10
2786.8545238578031
 20
-1875.523951225277
 30
0.0
 11
2786.8545238578031
 21
-1896.523951225277
 31
0.0
  0
LINE
  5
17213
  8
1DIM
 10
2821.8545238578031
 20
-1875.5239512252761
 30
0.0
 11
2821.8545238578031
 21
-1896.523951225277
 31
0.0
  0
LINE
  5
17214
  8
1DIM
 10
2856.8545238578031
 20
-1875.5239512252761
 30
0.0
 11
2856.8545238578031
 21
-1896.523951225277
 31
0.0
  0
TEXT
  5
17216
  8
1TEXT
 10
2785.6532343747431
 20
-1866.523951225277
 30
0.0
 40
8.0
  1
GP-125-X
  0
LINE
  5
17217
  8
1DIM
 10
2786.8545238578031
 20
-1896.523951225277
 30
0.0
 11
2926.8545238578049
 21
-1896.523951225277
 31
0.0
  0
TEXT
  5
17218
  8
1TEXT
 10
2787.4011905244702
 20
-1895.2383082089259
 30
0.0
 40
4.0
  1
ヘアラインブラック
 41
0.8
 72
     1
 11
2804.2545238578032
 21
-1895.2383082089259
 31
0.0
  0
LINE
  5
17522
  8
01
 10
2564.7631878934321
 20
-2000.4822084508471
 30
0.0
 11
2564.7631878934321
 21
-2060.4822084508469
 31
0.0
  0
ARC
  5
17523
  8
01
 10
2569.7631878934312
 20
-2060.4822084508469
 30
0.0
 40
5.0
 50
180.0
 51
270.0
  0
LINE
  5
17524
  8
01
 10
2804.7631878934312
 20
-2000.4822084508471
 30
0.0
 11
2804.7631878934312
 21
-2060.4822084508469
 31
0.0
  0
LINE
  5
17525
  8
01
 10
2754.7631878934312
 20
-2018.4822084508471
 30
0.0
 11
2754.7631878934312
 21
-2042.4822084508471
 31
0.0
  0
ARC
  5
17526
  8
01
 10
2749.7631878934321
 20
-2042.4822084508471
 30
0.0
 40
5.0
 50
270.0
 51
0.0
  0
ARC
  5
17527
  8
01
 10
2799.7631878934312
 20
-2000.4822084508471
 30
0.0
 40
5.0
 50
0.0
 51
90.0
  0
LINE
  5
17528
  8
01
 10
2569.7631878934312
 20
-2065.4822084508469
 30
0.0
 11
2799.7631878934312
 21
-2065.4822084508469
 31
0.0
  0
LINE
  5
17529
  8
01
 10
2619.7631878934312
 20
-2047.4822084508471
 30
0.0
 11
2749.7631878934321
 21
-2047.4822084508471
 31
0.0
  0
ARC
  5
1752A
  8
01
 10
2619.7631878934312
 20
-2042.4822084508471
 30
0.0
 40
5.0
 50
180.0
 51
270.0
  0
ARC
  5
1752B
  8
01
 10
2799.7631878934312
 20
-2060.4822084508469
 30
0.0
 40
5.0
 50
270.0
 51
0.0
  0
LINE
  5
1752C
  8
01
 10
2569.7631878934312
 20
-1995.4822084508471
 30
0.0
 11
2799.7631878934312
 21
-1995.4822084508471
 31
0.0
  0
LINE
  5
1752D
  8
01
 10
2619.7631878934312
 20
-2013.4822084508471
 30
0.0
 11
2749.7631878934321
 21
-2013.4822084508471
 31
0.0
  0
ARC
  5
1752E
  8
01
 10
2749.7631878934321
 20
-2018.4822084508471
 30
0.0
 40
5.0
 50
0.0
 51
90.0
  0
ARC
  5
1752F
  8
01
 10
2569.7631878934312
 20
-2000.4822084508471
 30
0.0
 40
5.0
 50
90.0
 51
180.0
  0
LINE
  5
17530
  8
01
 10
2614.7631878934312
 20
-2018.4822084508471
 30
0.0
 11
2614.7631878934312
 21
-2042.4822084508471
 31
0.0
  0
ARC
  5
17531
  8
01
 10
2619.7631878934312
 20
-2018.4822084508471
 30
0.0
 40
5.0
 50
90.0
 51
180.0
  0
LINE
  5
17569
  8
1HIDDEN
 10
2569.7631878934312
 20
-2064.4822084508469
 30
0.0
 11
2570.7631878934312
 21
-2065.4822084508469
 31
0.0
  0
LINE
  5
17700
  8
01
 10
2853.7820309308208
 20
-1995.9822084508489
 30
0.0
 11
2853.7820309308208
 21
-2064.982208450846
 31
0.0
  0
LINE
  5
17701
  8
01
 10
2879.7820309308199
 20
-1995.982208450848
 30
0.0
 11
2879.7820309308208
 21
-2064.9822084508501
 31
0.0
  0
LINE
  5
17702
  8
01
 10
2853.7820309308208
 20
-1995.9822084508489
 30
0.0
 11
2879.7820309308208
 21
-1995.982208450848
 31
0.0
  0
LINE
  5
17704
  8
01
 10
2853.7820309308208
 20
-2064.982208450846
 30
0.0
 11
2879.7820309308208
 21
-2064.9822084508501
 31
0.0
  0
LINE
  5
17705
  8
01
 10
2851.7820309308199
 20
-1995.4822084508471
 30
0.0
 11
2853.7820309308208
 21
-1995.4822084508471
 31
0.0
  0
LINE
  5
17706
  8
01
 10
2851.7820309308199
 20
-1995.482208450848
 30
0.0
 11
2851.7820309308199
 21
-2065.4822084508469
 31
0.0
  0
LINE
  5
17707
  8
01
 10
2853.7820309308208
 20
-1995.482208450848
 30
0.0
 11
2853.7820309308208
 21
-2065.4822084508469
 31
0.0
  0
LINE
  5
17708
  8
01
 10
2851.7820309308199
 20
-2065.4822084508469
 30
0.0
 11
2853.7820309308208
 21
-2065.4822084508469
 31
0.0
  0
LINE
  5
1770A
  8
1PHANTOM
 10
2878.7820309308199
 20
-2035.2322084508489
 30
0.0
 11
2877.7820309308199
 21
-2035.2322084508489
 31
0.0
  0
ARC
  5
1770B
  8
1PHANTOM
 10
2884.5528642641539
 20
-2030.4822084508489
 30
0.0
 40
8.2708333333334387
 50
144.94886325254171
 51
215.05113674745829
  0
LINE
  5
1770C
  8
1PHANTOM
 10
2878.7820309308199
 20
-2025.7322084508489
 30
0.0
 11
2877.7820309308199
 21
-2025.7322084508489
 31
0.0
  0
LINE
  5
1770D
  8
1CENTER
 10
2920.3837059308198
 20
-2030.4822084508489
 30
0.0
 11
2874.9396003568522
 21
-2030.4822084508489
 31
0.0
  0
LINE
  5
1770E
  8
1PHANTOM
 10
2877.7820309308199
 20
-2035.0152716305149
 30
0.0
 11
2877.7820309308199
 21
-2025.976840666043
 31
0.0
  0
LINE
  5
1770F
  8
1PHANTOM
 10
2894.8998965168662
 20
-2027.9822084508489
 30
0.0
 11
2895.8998965168662
 21
-2032.9822084508489
 31
0.0
  0
LINE
  5
17710
  8
1PHANTOM
 10
2912.2509420175752
 20
-2028.7322084508489
 30
0.0
 11
2878.7820309308199
 21
-2028.7322084508489
 31
0.0
  0
LINE
  5
17711
  8
1PHANTOM
 10
2918.7820309308199
 20
-2030.4822084508489
 30
0.0
 11
2912.2509420175752
 21
-2028.7322084508489
 31
0.0
  0
LINE
  5
17712
  8
1PHANTOM
 10
2918.7820309308199
 20
-2030.4822084508489
 30
0.0
 11
2912.2509420175752
 21
-2032.2322084508489
 31
0.0
  0
LINE
  5
17713
  8
1PHANTOM
 10
2912.2509420175752
 20
-2032.2322084508489
 30
0.0
 11
2878.7820309308199
 21
-2032.2322084508489
 31
0.0
  0
LINE
  5
17714
  8
1PHANTOM
 10
2912.9366431286589
 20
-2028.1659415098129
 30
0.0
 11
2912.7866431286589
 21
-2028.9159415098129
 31
0.0
  0
LINE
  5
17715
  8
1PHANTOM
 10
2912.9366431286589
 20
-2028.1659415098129
 30
0.0
 11
2913.8160240248772
 21
-2032.562845990904
 31
0.0
  0
LINE
  5
17716
  8
1PHANTOM
 10
2917.7625678542549
 20
-2030.795565137792
 30
0.0
 11
2917.6125678542548
 21
-2031.545565137792
 31
0.0
  0
LINE
  5
17717
  8
1PHANTOM
 10
2917.1631404367631
 20
-2029.298428050331
 30
0.0
 11
2917.013140436763
 21
-2030.048428050331
 31
0.0
  0
LINE
  5
17718
  8
1PHANTOM
 10
2917.1631404367631
 20
-2029.298428050331
 30
0.0
 11
2917.6125678542548
 21
-2031.545565137792
 31
0.0
  0
LINE
  5
17719
  8
1PHANTOM
 10
2913.9660240248768
 20
-2031.812845990904
 30
0.0
 11
2913.8160240248772
 21
-2032.562845990904
 31
0.0
  0
LINE
  5
1771A
  8
1PHANTOM
 10
2915.8642959395661
 20
-2031.304205564348
 30
0.0
 11
2915.714295939566
 21
-2032.054205564348
 31
0.0
  0
LINE
  5
1771B
  8
1PHANTOM
 10
2915.0498917827108
 20
-2028.732184780072
 30
0.0
 11
2914.8998917827112
 21
-2029.482184780072
 31
0.0
  0
LINE
  5
1771C
  8
1PHANTOM
 10
2915.0498917827108
 20
-2028.732184780072
 30
0.0
 11
2915.714295939566
 21
-2032.054205564348
 31
0.0
  0
LINE
  5
1771D
  8
1PHANTOM
 10
2904.0498965168658
 20
-2032.2322084508489
 30
0.0
 11
2903.8998965168662
 21
-2032.9822084508489
 31
0.0
  0
LINE
  5
1771E
  8
1PHANTOM
 10
2906.8998965168671
 20
-2027.9822084508489
 30
0.0
 11
2906.7498965168661
 21
-2028.7322084508489
 31
0.0
  0
LINE
  5
1771F
  8
1PHANTOM
 10
2904.8998965168662
 20
-2027.9822084508489
 30
0.0
 11
2904.7498965168661
 21
-2028.7322084508489
 31
0.0
  0
LINE
  5
17720
  8
1PHANTOM
 10
2904.8998965168662
 20
-2027.9822084508489
 30
0.0
 11
2905.8998965168662
 21
-2032.9822084508489
 31
0.0
  0
LINE
  5
17721
  8
1PHANTOM
 10
2908.8998965168662
 20
-2027.9822084508489
 30
0.0
 11
2908.7498965168661
 21
-2028.7322084508489
 31
0.0
  0
LINE
  5
17722
  8
1PHANTOM
 10
2910.8998965168671
 20
-2027.9822084508489
 30
0.0
 11
2910.7498965168661
 21
-2028.7322084508489
 31
0.0
  0
LINE
  5
17723
  8
1PHANTOM
 10
2910.8998965168671
 20
-2027.9822084508489
 30
0.0
 11
2911.8998965168662
 21
-2032.9822084508489
 31
0.0
  0
LINE
  5
17724
  8
1PHANTOM
 10
2908.8998965168662
 20
-2027.9822084508489
 30
0.0
 11
2909.8998965168662
 21
-2032.9822084508489
 31
0.0
  0
LINE
  5
17725
  8
1PHANTOM
 10
2906.8998965168671
 20
-2027.9822084508489
 30
0.0
 11
2907.8998965168662
 21
-2032.9822084508489
 31
0.0
  0
LINE
  5
17726
  8
1PHANTOM
 10
2912.0498965168658
 20
-2032.2322084508489
 30
0.0
 11
2911.8998965168662
 21
-2032.9822084508489
 31
0.0
  0
LINE
  5
17727
  8
1PHANTOM
 10
2910.0498965168658
 20
-2032.2322084508489
 30
0.0
 11
2909.8998965168662
 21
-2032.9822084508489
 31
0.0
  0
LINE
  5
17728
  8
1PHANTOM
 10
2906.0498965168658
 20
-2032.2322084508489
 30
0.0
 11
2905.8998965168662
 21
-2032.9822084508489
 31
0.0
  0
LINE
  5
17729
  8
1PHANTOM
 10
2908.0498965168658
 20
-2032.2322084508489
 30
0.0
 11
2907.8998965168662
 21
-2032.9822084508489
 31
0.0
  0
LINE
  5
1772A
  8
1PHANTOM
 10
2900.8998965168662
 20
-2027.9822084508489
 30
0.0
 11
2900.7498965168661
 21
-2028.7322084508489
 31
0.0
  0
LINE
  5
1772B
  8
1PHANTOM
 10
2902.8998965168662
 20
-2027.9822084508489
 30
0.0
 11
2902.7498965168661
 21
-2028.7322084508489
 31
0.0
  0
LINE
  5
1772C
  8
1PHANTOM
 10
2896.8998965168662
 20
-2027.9822084508489
 30
0.0
 11
2896.7498965168661
 21
-2028.7322084508489
 31
0.0
  0
LINE
  5
1772D
  8
1PHANTOM
 10
2898.8998965168662
 20
-2027.9822084508489
 30
0.0
 11
2898.7498965168661
 21
-2028.7322084508489
 31
0.0
  0
LINE
  5
1772E
  8
1PHANTOM
 10
2902.8998965168662
 20
-2027.9822084508489
 30
0.0
 11
2903.8998965168662
 21
-2032.9822084508489
 31
0.0
  0
LINE
  5
1772F
  8
1PHANTOM
 10
2900.8998965168662
 20
-2027.9822084508489
 30
0.0
 11
2901.8998965168662
 21
-2032.9822084508489
 31
0.0
  0
LINE
  5
17730
  8
1PHANTOM
 10
2898.8998965168662
 20
-2027.9822084508489
 30
0.0
 11
2899.8998965168671
 21
-2032.9822084508489
 31
0.0
  0
LINE
  5
17731
  8
1PHANTOM
 10
2896.8998965168662
 20
-2027.9822084508489
 30
0.0
 11
2897.8998965168671
 21
-2032.9822084508489
 31
0.0
  0
LINE
  5
17732
  8
1PHANTOM
 10
2900.0498965168658
 20
-2032.2322084508489
 30
0.0
 11
2899.8998965168671
 21
-2032.9822084508489
 31
0.0
  0
LINE
  5
17733
  8
1PHANTOM
 10
2902.0498965168658
 20
-2032.2322084508489
 30
0.0
 11
2901.8998965168662
 21
-2032.9822084508489
 31
0.0
  0
LINE
  5
17734
  8
1PHANTOM
 10
2896.0498965168658
 20
-2032.2322084508489
 30
0.0
 11
2895.8998965168662
 21
-2032.9822084508489
 31
0.0
  0
LINE
  5
17735
  8
1PHANTOM
 10
2898.0498965168658
 20
-2032.2322084508489
 30
0.0
 11
2897.8998965168671
 21
-2032.9822084508489
 31
0.0
  0
LINE
  5
17736
  8
1PHANTOM
 10
2878.8998965168662
 20
-2027.9822084508489
 30
0.0
 11
2879.8998965168662
 21
-2032.9822084508489
 31
0.0
  0
LINE
  5
17737
  8
1PHANTOM
 10
2886.8998965168662
 20
-2027.9822084508489
 30
0.0
 11
2887.8998965168662
 21
-2032.9822084508489
 31
0.0
  0
LINE
  5
17738
  8
1PHANTOM
 10
2894.8998965168662
 20
-2027.9822084508489
 30
0.0
 11
2894.7498965168661
 21
-2028.7322084508489
 31
0.0
  0
LINE
  5
17739
  8
1PHANTOM
 10
2892.8998965168662
 20
-2027.9822084508489
 30
0.0
 11
2892.7498965168661
 21
-2028.7322084508489
 31
0.0
  0
LINE
  5
1773A
  8
1PHANTOM
 10
2890.8998965168671
 20
-2027.9822084508489
 30
0.0
 11
2890.7498965168661
 21
-2028.7322084508489
 31
0.0
  0
LINE
  5
1773B
  8
1PHANTOM
 10
2888.8998965168662
 20
-2027.9822084508489
 30
0.0
 11
2888.7498965168661
 21
-2028.7322084508489
 31
0.0
  0
LINE
  5
1773C
  8
1PHANTOM
 10
2892.8998965168662
 20
-2027.9822084508489
 30
0.0
 11
2893.8998965168662
 21
-2032.9822084508489
 31
0.0
  0
LINE
  5
1773D
  8
1PHANTOM
 10
2890.8998965168671
 20
-2027.9822084508489
 30
0.0
 11
2891.8998965168662
 21
-2032.9822084508489
 31
0.0
  0
LINE
  5
1773E
  8
1PHANTOM
 10
2888.8998965168662
 20
-2027.9822084508489
 30
0.0
 11
2889.8998965168662
 21
-2032.9822084508489
 31
0.0
  0
LINE
  5
1773F
  8
1PHANTOM
 10
2894.0498965168658
 20
-2032.2322084508489
 30
0.0
 11
2893.8998965168662
 21
-2032.9822084508489
 31
0.0
  0
LINE
  5
17740
  8
1PHANTOM
 10
2892.0498965168658
 20
-2032.2322084508489
 30
0.0
 11
2891.8998965168662
 21
-2032.9822084508489
 31
0.0
  0
LINE
  5
17741
  8
1PHANTOM
 10
2890.0498965168658
 20
-2032.2322084508489
 30
0.0
 11
2889.8998965168662
 21
-2032.9822084508489
 31
0.0
  0
LINE
  5
17742
  8
1PHANTOM
 10
2888.0498965168658
 20
-2032.2322084508489
 30
0.0
 11
2887.8998965168662
 21
-2032.9822084508489
 31
0.0
  0
LINE
  5
17743
  8
1PHANTOM
 10
2882.8998965168662
 20
-2027.9822084508489
 30
0.0
 11
2882.7498965168661
 21
-2028.7322084508489
 31
0.0
  0
LINE
  5
17744
  8
1PHANTOM
 10
2884.8998965168662
 20
-2027.9822084508489
 30
0.0
 11
2884.7498965168661
 21
-2028.7322084508489
 31
0.0
  0
LINE
  5
17745
  8
1PHANTOM
 10
2886.8998965168662
 20
-2027.9822084508489
 30
0.0
 11
2886.7498965168661
 21
-2028.7322084508489
 31
0.0
  0
LINE
  5
17746
  8
1PHANTOM
 10
2880.8998965168662
 20
-2027.9822084508489
 30
0.0
 11
2880.7498965168661
 21
-2028.7322084508489
 31
0.0
  0
LINE
  5
17747
  8
1PHANTOM
 10
2884.8998965168662
 20
-2027.9822084508489
 30
0.0
 11
2885.8998965168662
 21
-2032.9822084508489
 31
0.0
  0
LINE
  5
17748
  8
1PHANTOM
 10
2882.8998965168662
 20
-2027.9822084508489
 30
0.0
 11
2883.8998965168671
 21
-2032.9822084508489
 31
0.0
  0
LINE
  5
17749
  8
1PHANTOM
 10
2880.8998965168662
 20
-2027.9822084508489
 30
0.0
 11
2881.8998965168671
 21
-2032.9822084508489
 31
0.0
  0
LINE
  5
1774A
  8
1PHANTOM
 10
2884.0498965168658
 20
-2032.2322084508489
 30
0.0
 11
2883.8998965168671
 21
-2032.9822084508489
 31
0.0
  0
LINE
  5
1774B
  8
1PHANTOM
 10
2886.0498965168658
 20
-2032.2322084508489
 30
0.0
 11
2885.8998965168662
 21
-2032.9822084508489
 31
0.0
  0
LINE
  5
1774C
  8
1PHANTOM
 10
2882.0498965168658
 20
-2032.2322084508489
 30
0.0
 11
2881.8998965168671
 21
-2032.9822084508489
 31
0.0
  0
LINE
  5
1774D
  8
1PHANTOM
 10
2880.0498965168658
 20
-2032.2322084508489
 30
0.0
 11
2879.8998965168662
 21
-2032.9822084508489
 31
0.0
  0
LINE
  5
1774E
  8
1PHANTOM
 10
2878.8998965168662
 20
-2027.9822084508489
 30
0.0
 11
2878.7498965168661
 21
-2028.7322084508489
 31
0.0
  0
LINE
  5
1774F
  8
1PHANTOM
 10
2878.7820309308199
 20
-2035.2322084508489
 30
0.0
 11
2878.7820309308199
 21
-2025.7322084508489
 31
0.0
  0
LINE
  5
17751
  8
01
 10
2804.7631878934321
 20
-1937.7347340640879
 30
0.0
 11
2564.7631878934321
 21
-1937.7347340640879
 31
0.0
  0
LINE
  5
17752
  8
01
 10
2804.7631878934312
 20
-1935.734734064087
 30
0.0
 11
2564.7631878934312
 21
-1935.734734064087
 31
0.0
  0
LINE
  5
17753
  8
01
 10
2564.7631878934321
 20
-1937.7347340640879
 30
0.0
 11
2564.7631878934321
 21
-1935.7347340640879
 31
0.0
  0
LINE
  5
17754
  8
01
 10
2804.7631878934321
 20
-1937.7347340640879
 30
0.0
 11
2804.7631878934321
 21
-1935.7347340640879
 31
0.0
  0
LINE
  5
17755
  8
01
 10
2804.2631878934312
 20
-1909.7347340640879
 30
0.0
 11
2565.2631878934312
 21
-1909.7347340640879
 31
0.0
  0
LINE
  5
17756
  8
01
 10
2565.2631878934312
 20
-1935.734734064087
 30
0.0
 11
2565.2631878934312
 21
-1909.7347340640879
 31
0.0
  0
LINE
  5
17757
  8
01
 10
2804.2631878934312
 20
-1909.7347340640879
 30
0.0
 11
2804.2631878934312
 21
-1935.734734064087
 31
0.0
  0
LINE
  5
17758
  8
1PHANTOM
 10
2614.7631878934312
 20
-2034.382208450847
 30
0.0
 11
2614.7631878934312
 21
-2026.582208450847
 31
0.0
  0
LINE
  5
17759
  8
1PHANTOM
 10
2611.7631878934312
 20
-2027.482208450848
 30
0.0
 11
2611.7631878934312
 21
-2033.482208450848
 31
0.0
  0
LINE
  5
1775A
  8
1PHANTOM
 10
2617.7631878934312
 20
-2027.482208450848
 30
0.0
 11
2617.7631878934312
 21
-2033.482208450848
 31
0.0
  0
ARC
  5
1775B
  8
1PHANTOM
 10
2614.7631878934312
 20
-2027.482208450848
 30
0.0
 40
3.0
 50
0.0
 51
180.0
  0
ARC
  5
1775C
  8
1PHANTOM
 10
2614.7631878934312
 20
-2033.482208450848
 30
0.0
 40
3.0
 50
180.0
 51
0.0
  0
LINE
  5
1775D
  8
1CENTER
 10
2604.8526978744371
 20
-2030.4822084508471
 30
0.0
 11
2624.6736779124271
 21
-2030.4822084508471
 31
0.0
  0
LINE
  5
1775E
  8
1PHANTOM
 10
2754.7631878934312
 20
-2034.382208450847
 30
0.0
 11
2754.7631878934312
 21
-2026.582208450847
 31
0.0
  0
LINE
  5
1775F
  8
1PHANTOM
 10
2757.7631878934312
 20
-2027.482208450848
 30
0.0
 11
2757.7631878934312
 21
-2033.482208450848
 31
0.0
  0
LINE
  5
17760
  8
1PHANTOM
 10
2751.7631878934312
 20
-2027.482208450848
 30
0.0
 11
2751.7631878934312
 21
-2033.482208450848
 31
0.0
  0
ARC
  5
17761
  8
1PHANTOM
 10
2754.7631878934312
 20
-2027.482208450848
 30
0.0
 40
3.0
 50
0.0
 51
180.0
  0
ARC
  5
17762
  8
1PHANTOM
 10
2754.7631878934312
 20
-2033.482208450848
 30
0.0
 40
3.0
 50
180.0
 51
0.0
  0
LINE
  5
17763
  8
1CENTER
 10
2744.8526978744362
 20
-2030.4822084508471
 30
0.0
 11
2764.6736779124271
 21
-2030.4822084508471
 31
0.0
  0
LINE
  5
17764
  8
1CENTER
 10
2614.7631878934312
 20
-2020.571718431853
 30
0.0
 11
2614.7631878934312
 21
-2040.392698469843
 31
0.0
  0
LINE
  5
17765
  8
1CENTER
 10
2754.7631878934312
 20
-2020.571718431853
 30
0.0
 11
2754.7631878934312
 21
-2040.392698469843
 31
0.0
  0
LINE
  5
17768
  8
1PHANTOM
 10
2759.5131878934321
 20
-1910.7347340640879
 30
0.0
 11
2759.5131878934321
 21
-1911.7347340640879
 31
0.0
  0
ARC
  5
17769
  8
1PHANTOM
 10
2754.7631878934312
 20
-1904.9639007307551
 30
0.0
 40
8.2708333333334387
 50
234.9488632525306
 51
305.0511367474694
  0
LINE
  5
1776A
  8
1PHANTOM
 10
2750.0131878934312
 20
-1910.7347340640879
 30
0.0
 11
2750.0131878934312
 21
-1911.7347340640879
 31
0.0
  0
LINE
  5
1776B
  8
1CENTER
 10
2754.7631878934312
 20
-1869.133059064088
 30
0.0
 11
2754.7631878934312
 21
-1914.577164638057
 31
0.0
  0
LINE
  5
1776C
  8
1PHANTOM
 10
2759.2962510730981
 20
-1911.7347340640879
 30
0.0
 11
2750.2578201086262
 21
-1911.7347340640879
 31
0.0
  0
LINE
  5
1776D
  8
1PHANTOM
 10
2752.2631878934321
 20
-1894.6168684780421
 30
0.0
 11
2757.2631878934312
 21
-1893.6168684780421
 31
0.0
  0
LINE
  5
1776E
  8
1PHANTOM
 10
2753.0131878934321
 20
-1877.2658229773331
 30
0.0
 11
2753.0131878934321
 21
-1910.7347340640879
 31
0.0
  0
LINE
  5
1776F
  8
1PHANTOM
 10
2754.7631878934312
 20
-1870.7347340640879
 30
0.0
 11
2753.0131878934321
 21
-1877.2658229773331
 31
0.0
  0
LINE
  5
17770
  8
1PHANTOM
 10
2754.7631878934312
 20
-1870.7347340640879
 30
0.0
 11
2756.5131878934312
 21
-1877.2658229773331
 31
0.0
  0
LINE
  5
17771
  8
1PHANTOM
 10
2756.5131878934312
 20
-1877.2658229773331
 30
0.0
 11
2756.5131878934312
 21
-1910.7347340640879
 31
0.0
  0
LINE
  5
17772
  8
1PHANTOM
 10
2752.4469209523959
 20
-1876.5801218662491
 30
0.0
 11
2753.1969209523959
 21
-1876.730121866249
 31
0.0
  0
LINE
  5
17773
  8
1PHANTOM
 10
2752.4469209523959
 20
-1876.5801218662491
 30
0.0
 11
2756.843825433486
 21
-1875.7007409700309
 31
0.0
  0
LINE
  5
17774
  8
1PHANTOM
 10
2755.076544580375
 20
-1871.7541971406531
 30
0.0
 11
2755.826544580375
 21
-1871.904197140653
 31
0.0
  0
LINE
  5
17775
  8
1PHANTOM
 10
2753.579407492914
 20
-1872.3536245581461
 30
0.0
 11
2754.329407492914
 21
-1872.503624558145
 31
0.0
  0
LINE
  5
17776
  8
1PHANTOM
 10
2753.579407492914
 20
-1872.3536245581461
 30
0.0
 11
2755.826544580375
 21
-1871.904197140653
 31
0.0
  0
LINE
  5
17777
  8
1PHANTOM
 10
2756.093825433486
 20
-1875.550740970031
 30
0.0
 11
2756.843825433486
 21
-1875.7007409700309
 31
0.0
  0
LINE
  5
17778
  8
1PHANTOM
 10
2755.5851850069312
 20
-1873.652469055342
 30
0.0
 11
2756.3351850069312
 21
-1873.802469055342
 31
0.0
  0
LINE
  5
17779
  8
1PHANTOM
 10
2753.0131642226552
 20
-1874.466873212197
 30
0.0
 11
2753.7631642226552
 21
-1874.6168732121971
 31
0.0
  0
LINE
  5
1777A
  8
1PHANTOM
 10
2753.0131642226552
 20
-1874.466873212197
 30
0.0
 11
2756.3351850069312
 21
-1873.802469055342
 31
0.0
  0
LINE
  5
1777B
  8
1PHANTOM
 10
2756.5131878934312
 20
-1885.466868478042
 30
0.0
 11
2757.2631878934312
 21
-1885.6168684780421
 31
0.0
  0
LINE
  5
1777C
  8
1PHANTOM
 10
2752.2631878934321
 20
-1882.6168684780421
 30
0.0
 11
2753.0131878934321
 21
-1882.7668684780419
 31
0.0
  0
LINE
  5
1777D
  8
1PHANTOM
 10
2752.2631878934321
 20
-1884.6168684780421
 30
0.0
 11
2753.0131878934321
 21
-1884.7668684780419
 31
0.0
  0
LINE
  5
1777E
  8
1PHANTOM
 10
2752.2631878934321
 20
-1884.6168684780421
 30
0.0
 11
2757.2631878934312
 21
-1883.6168684780421
 31
0.0
  0
LINE
  5
1777F
  8
1PHANTOM
 10
2752.2631878934321
 20
-1880.6168684780421
 30
0.0
 11
2753.0131878934321
 21
-1880.7668684780419
 31
0.0
  0
LINE
  5
17780
  8
1PHANTOM
 10
2752.2631878934321
 20
-1878.6168684780421
 30
0.0
 11
2753.0131878934321
 21
-1878.7668684780419
 31
0.0
  0
LINE
  5
17781
  8
1PHANTOM
 10
2752.2631878934321
 20
-1878.6168684780421
 30
0.0
 11
2757.2631878934312
 21
-1877.6168684780421
 31
0.0
  0
LINE
  5
17782
  8
1PHANTOM
 10
2752.2631878934321
 20
-1880.6168684780421
 30
0.0
 11
2757.2631878934312
 21
-1879.6168684780421
 31
0.0
  0
LINE
  5
17783
  8
1PHANTOM
 10
2752.2631878934321
 20
-1882.6168684780421
 30
0.0
 11
2757.2631878934312
 21
-1881.6168684780421
 31
0.0
  0
LINE
  5
17784
  8
1PHANTOM
 10
2756.5131878934312
 20
-1877.466868478042
 30
0.0
 11
2757.2631878934312
 21
-1877.6168684780421
 31
0.0
  0
LINE
  5
17785
  8
1PHANTOM
 10
2756.5131878934312
 20
-1879.466868478042
 30
0.0
 11
2757.2631878934312
 21
-1879.6168684780421
 31
0.0
  0
LINE
  5
17786
  8
1PHANTOM
 10
2756.5131878934312
 20
-1883.466868478042
 30
0.0
 11
2757.2631878934312
 21
-1883.6168684780421
 31
0.0
  0
LINE
  5
17787
  8
1PHANTOM
 10
2756.5131878934312
 20
-1881.466868478042
 30
0.0
 11
2757.2631878934312
 21
-1881.6168684780421
 31
0.0
  0
LINE
  5
17788
  8
1PHANTOM
 10
2752.2631878934321
 20
-1888.6168684780421
 30
0.0
 11
2753.0131878934321
 21
-1888.7668684780419
 31
0.0
  0
LINE
  5
17789
  8
1PHANTOM
 10
2752.2631878934321
 20
-1886.6168684780421
 30
0.0
 11
2753.0131878934321
 21
-1886.7668684780419
 31
0.0
  0
LINE
  5
1778A
  8
1PHANTOM
 10
2752.2631878934321
 20
-1892.6168684780421
 30
0.0
 11
2753.0131878934321
 21
-1892.7668684780419
 31
0.0
  0
LINE
  5
1778B
  8
1PHANTOM
 10
2752.2631878934321
 20
-1890.6168684780421
 30
0.0
 11
2753.0131878934321
 21
-1890.7668684780419
 31
0.0
  0
LINE
  5
1778C
  8
1PHANTOM
 10
2752.2631878934321
 20
-1886.6168684780421
 30
0.0
 11
2757.2631878934312
 21
-1885.6168684780421
 31
0.0
  0
LINE
  5
1778D
  8
1PHANTOM
 10
2752.2631878934321
 20
-1888.6168684780421
 30
0.0
 11
2757.2631878934312
 21
-1887.6168684780421
 31
0.0
  0
LINE
  5
1778E
  8
1PHANTOM
 10
2752.2631878934321
 20
-1890.6168684780421
 30
0.0
 11
2757.2631878934312
 21
-1889.6168684780421
 31
0.0
  0
LINE
  5
1778F
  8
1PHANTOM
 10
2752.2631878934321
 20
-1892.6168684780421
 30
0.0
 11
2757.2631878934312
 21
-1891.6168684780421
 31
0.0
  0
LINE
  5
17790
  8
1PHANTOM
 10
2756.5131878934312
 20
-1889.466868478042
 30
0.0
 11
2757.2631878934312
 21
-1889.6168684780421
 31
0.0
  0
LINE
  5
17791
  8
1PHANTOM
 10
2756.5131878934312
 20
-1887.466868478042
 30
0.0
 11
2757.2631878934312
 21
-1887.6168684780421
 31
0.0
  0
LINE
  5
17792
  8
1PHANTOM
 10
2756.5131878934312
 20
-1893.466868478042
 30
0.0
 11
2757.2631878934312
 21
-1893.6168684780421
 31
0.0
  0
LINE
  5
17793
  8
1PHANTOM
 10
2756.5131878934312
 20
-1891.466868478042
 30
0.0
 11
2757.2631878934312
 21
-1891.6168684780421
 31
0.0
  0
LINE
  5
17794
  8
1PHANTOM
 10
2752.2631878934321
 20
-1910.6168684780421
 30
0.0
 11
2757.2631878934312
 21
-1909.6168684780421
 31
0.0
  0
LINE
  5
17795
  8
1PHANTOM
 10
2752.2631878934321
 20
-1902.6168684780421
 30
0.0
 11
2757.2631878934312
 21
-1901.6168684780421
 31
0.0
  0
LINE
  5
17796
  8
1PHANTOM
 10
2752.2631878934321
 20
-1894.6168684780421
 30
0.0
 11
2753.0131878934321
 21
-1894.7668684780419
 31
0.0
  0
LINE
  5
17797
  8
1PHANTOM
 10
2752.2631878934321
 20
-1896.6168684780421
 30
0.0
 11
2753.0131878934321
 21
-1896.7668684780419
 31
0.0
  0
LINE
  5
17798
  8
1PHANTOM
 10
2752.2631878934321
 20
-1898.6168684780421
 30
0.0
 11
2753.0131878934321
 21
-1898.7668684780419
 31
0.0
  0
LINE
  5
17799
  8
1PHANTOM
 10
2752.2631878934321
 20
-1900.6168684780421
 30
0.0
 11
2753.0131878934321
 21
-1900.7668684780419
 31
0.0
  0
LINE
  5
1779A
  8
1PHANTOM
 10
2752.2631878934321
 20
-1896.6168684780421
 30
0.0
 11
2757.2631878934312
 21
-1895.6168684780421
 31
0.0
  0
LINE
  5
1779B
  8
1PHANTOM
 10
2752.2631878934321
 20
-1898.6168684780421
 30
0.0
 11
2757.2631878934312
 21
-1897.6168684780421
 31
0.0
  0
LINE
  5
1779C
  8
1PHANTOM
 10
2752.2631878934321
 20
-1900.6168684780421
 30
0.0
 11
2757.2631878934312
 21
-1899.6168684780421
 31
0.0
  0
LINE
  5
1779D
  8
1PHANTOM
 10
2756.5131878934312
 20
-1895.466868478042
 30
0.0
 11
2757.2631878934312
 21
-1895.6168684780421
 31
0.0
  0
LINE
  5
1779E
  8
1PHANTOM
 10
2756.5131878934312
 20
-1897.466868478042
 30
0.0
 11
2757.2631878934312
 21
-1897.6168684780421
 31
0.0
  0
LINE
  5
1779F
  8
1PHANTOM
 10
2756.5131878934312
 20
-1899.466868478042
 30
0.0
 11
2757.2631878934312
 21
-1899.6168684780421
 31
0.0
  0
LINE
  5
177A0
  8
1PHANTOM
 10
2756.5131878934312
 20
-1901.466868478042
 30
0.0
 11
2757.2631878934312
 21
-1901.6168684780421
 31
0.0
  0
LINE
  5
177A1
  8
1PHANTOM
 10
2752.2631878934321
 20
-1906.6168684780421
 30
0.0
 11
2753.0131878934321
 21
-1906.7668684780419
 31
0.0
  0
LINE
  5
177A2
  8
1PHANTOM
 10
2752.2631878934321
 20
-1904.6168684780421
 30
0.0
 11
2753.0131878934321
 21
-1904.7668684780419
 31
0.0
  0
LINE
  5
177A3
  8
1PHANTOM
 10
2752.2631878934321
 20
-1902.6168684780421
 30
0.0
 11
2753.0131878934321
 21
-1902.7668684780419
 31
0.0
  0
LINE
  5
177A4
  8
1PHANTOM
 10
2752.2631878934321
 20
-1908.6168684780421
 30
0.0
 11
2753.0131878934321
 21
-1908.7668684780419
 31
0.0
  0
LINE
  5
177A5
  8
1PHANTOM
 10
2752.2631878934321
 20
-1904.6168684780421
 30
0.0
 11
2757.2631878934312
 21
-1903.6168684780421
 31
0.0
  0
LINE
  5
177A6
  8
1PHANTOM
 10
2752.2631878934321
 20
-1906.6168684780421
 30
0.0
 11
2757.2631878934312
 21
-1905.6168684780421
 31
0.0
  0
LINE
  5
177A7
  8
1PHANTOM
 10
2752.2631878934321
 20
-1908.6168684780421
 30
0.0
 11
2757.2631878934312
 21
-1907.6168684780421
 31
0.0
  0
LINE
  5
177A8
  8
1PHANTOM
 10
2756.5131878934312
 20
-1905.466868478042
 30
0.0
 11
2757.2631878934312
 21
-1905.6168684780421
 31
0.0
  0
LINE
  5
177A9
  8
1PHANTOM
 10
2756.5131878934312
 20
-1903.466868478042
 30
0.0
 11
2757.2631878934312
 21
-1903.6168684780421
 31
0.0
  0
LINE
  5
177AA
  8
1PHANTOM
 10
2756.5131878934312
 20
-1907.466868478042
 30
0.0
 11
2757.2631878934312
 21
-1907.6168684780421
 31
0.0
  0
LINE
  5
177AB
  8
1PHANTOM
 10
2756.5131878934312
 20
-1909.4668684780429
 30
0.0
 11
2757.2631878934312
 21
-1909.6168684780421
 31
0.0
  0
LINE
  5
177AC
  8
1PHANTOM
 10
2752.2631878934321
 20
-1910.6168684780421
 30
0.0
 11
2753.0131878934321
 21
-1910.7668684780419
 31
0.0
  0
LINE
  5
177AD
  8
1PHANTOM
 10
2759.5131878934321
 20
-1910.7347340640879
 30
0.0
 11
2750.0131878934312
 21
-1910.7347340640879
 31
0.0
  0
LINE
  5
177AF
  8
1PHANTOM
 10
2619.5131878934312
 20
-1910.7347340640879
 30
0.0
 11
2619.5131878934312
 21
-1911.7347340640879
 31
0.0
  0
ARC
  5
177B0
  8
1PHANTOM
 10
2614.7631878934312
 20
-1904.9639007307551
 30
0.0
 40
8.2708333333334387
 50
234.94886325252929
 51
305.05113674747059
  0
LINE
  5
177B1
  8
1PHANTOM
 10
2610.0131878934312
 20
-1910.7347340640879
 30
0.0
 11
2610.0131878934312
 21
-1911.7347340640879
 31
0.0
  0
LINE
  5
177B2
  8
1CENTER
 10
2614.7631878934312
 20
-1869.133059064088
 30
0.0
 11
2614.7631878934312
 21
-1914.577164638057
 31
0.0
  0
LINE
  5
177B3
  8
1PHANTOM
 10
2619.2962510730981
 20
-1911.7347340640879
 30
0.0
 11
2610.2578201086249
 21
-1911.7347340640879
 31
0.0
  0
LINE
  5
177B4
  8
1PHANTOM
 10
2612.2631878934312
 20
-1894.6168684780421
 30
0.0
 11
2617.2631878934312
 21
-1893.6168684780421
 31
0.0
  0
LINE
  5
177B5
  8
1PHANTOM
 10
2613.0131878934312
 20
-1877.2658229773331
 30
0.0
 11
2613.0131878934312
 21
-1910.7347340640879
 31
0.0
  0
LINE
  5
177B6
  8
1PHANTOM
 10
2614.7631878934312
 20
-1870.7347340640879
 30
0.0
 11
2613.0131878934312
 21
-1877.2658229773331
 31
0.0
  0
LINE
  5
177B7
  8
1PHANTOM
 10
2614.7631878934312
 20
-1870.7347340640879
 30
0.0
 11
2616.5131878934321
 21
-1877.2658229773331
 31
0.0
  0
LINE
  5
177B8
  8
1PHANTOM
 10
2616.5131878934321
 20
-1877.2658229773331
 30
0.0
 11
2616.5131878934321
 21
-1910.7347340640879
 31
0.0
  0
LINE
  5
177B9
  8
1PHANTOM
 10
2612.446920952395
 20
-1876.5801218662491
 30
0.0
 11
2613.196920952395
 21
-1876.730121866249
 31
0.0
  0
LINE
  5
177BA
  8
1PHANTOM
 10
2612.446920952395
 20
-1876.5801218662491
 30
0.0
 11
2616.843825433486
 21
-1875.7007409700309
 31
0.0
  0
LINE
  5
177BB
  8
1PHANTOM
 10
2615.076544580375
 20
-1871.7541971406531
 30
0.0
 11
2615.826544580375
 21
-1871.904197140653
 31
0.0
  0
LINE
  5
177BC
  8
1PHANTOM
 10
2613.579407492914
 20
-1872.3536245581461
 30
0.0
 11
2614.329407492914
 21
-1872.503624558145
 31
0.0
  0
LINE
  5
177BD
  8
1PHANTOM
 10
2613.579407492914
 20
-1872.3536245581461
 30
0.0
 11
2615.826544580375
 21
-1871.904197140653
 31
0.0
  0
LINE
  5
177BE
  8
1PHANTOM
 10
2616.093825433486
 20
-1875.550740970031
 30
0.0
 11
2616.843825433486
 21
-1875.7007409700309
 31
0.0
  0
LINE
  5
177BF
  8
1PHANTOM
 10
2615.5851850069312
 20
-1873.652469055342
 30
0.0
 11
2616.3351850069312
 21
-1873.802469055342
 31
0.0
  0
LINE
  5
177C0
  8
1PHANTOM
 10
2613.0131642226552
 20
-1874.466873212197
 30
0.0
 11
2613.7631642226552
 21
-1874.6168732121971
 31
0.0
  0
LINE
  5
177C1
  8
1PHANTOM
 10
2613.0131642226552
 20
-1874.466873212197
 30
0.0
 11
2616.3351850069312
 21
-1873.802469055342
 31
0.0
  0
LINE
  5
177C2
  8
1PHANTOM
 10
2616.5131878934321
 20
-1885.466868478042
 30
0.0
 11
2617.2631878934312
 21
-1885.6168684780421
 31
0.0
  0
LINE
  5
177C3
  8
1PHANTOM
 10
2612.2631878934312
 20
-1882.6168684780421
 30
0.0
 11
2613.0131878934312
 21
-1882.7668684780419
 31
0.0
  0
LINE
  5
177C4
  8
1PHANTOM
 10
2612.2631878934312
 20
-1884.6168684780421
 30
0.0
 11
2613.0131878934312
 21
-1884.7668684780419
 31
0.0
  0
LINE
  5
177C5
  8
1PHANTOM
 10
2612.2631878934312
 20
-1884.6168684780421
 30
0.0
 11
2617.2631878934312
 21
-1883.6168684780421
 31
0.0
  0
LINE
  5
177C6
  8
1PHANTOM
 10
2612.2631878934312
 20
-1880.6168684780421
 30
0.0
 11
2613.0131878934312
 21
-1880.7668684780419
 31
0.0
  0
LINE
  5
177C7
  8
1PHANTOM
 10
2612.2631878934312
 20
-1878.6168684780421
 30
0.0
 11
2613.0131878934312
 21
-1878.7668684780419
 31
0.0
  0
LINE
  5
177C8
  8
1PHANTOM
 10
2612.2631878934312
 20
-1878.6168684780421
 30
0.0
 11
2617.2631878934312
 21
-1877.6168684780421
 31
0.0
  0
LINE
  5
177C9
  8
1PHANTOM
 10
2612.2631878934312
 20
-1880.6168684780421
 30
0.0
 11
2617.2631878934312
 21
-1879.6168684780421
 31
0.0
  0
LINE
  5
177CA
  8
1PHANTOM
 10
2612.2631878934312
 20
-1882.6168684780421
 30
0.0
 11
2617.2631878934312
 21
-1881.6168684780421
 31
0.0
  0
LINE
  5
177CB
  8
1PHANTOM
 10
2616.5131878934321
 20
-1877.466868478042
 30
0.0
 11
2617.2631878934312
 21
-1877.6168684780421
 31
0.0
  0
LINE
  5
177CC
  8
1PHANTOM
 10
2616.5131878934321
 20
-1879.466868478042
 30
0.0
 11
2617.2631878934312
 21
-1879.6168684780421
 31
0.0
  0
LINE
  5
177CD
  8
1PHANTOM
 10
2616.5131878934321
 20
-1883.466868478042
 30
0.0
 11
2617.2631878934312
 21
-1883.6168684780421
 31
0.0
  0
LINE
  5
177CE
  8
1PHANTOM
 10
2616.5131878934321
 20
-1881.466868478042
 30
0.0
 11
2617.2631878934312
 21
-1881.6168684780421
 31
0.0
  0
LINE
  5
177CF
  8
1PHANTOM
 10
2612.2631878934312
 20
-1888.6168684780421
 30
0.0
 11
2613.0131878934312
 21
-1888.7668684780419
 31
0.0
  0
LINE
  5
177D0
  8
1PHANTOM
 10
2612.2631878934312
 20
-1886.6168684780421
 30
0.0
 11
2613.0131878934312
 21
-1886.7668684780419
 31
0.0
  0
LINE
  5
177D1
  8
1PHANTOM
 10
2612.2631878934312
 20
-1892.6168684780421
 30
0.0
 11
2613.0131878934312
 21
-1892.7668684780419
 31
0.0
  0
LINE
  5
177D2
  8
1PHANTOM
 10
2612.2631878934312
 20
-1890.6168684780421
 30
0.0
 11
2613.0131878934312
 21
-1890.7668684780419
 31
0.0
  0
LINE
  5
177D3
  8
1PHANTOM
 10
2612.2631878934312
 20
-1886.6168684780421
 30
0.0
 11
2617.2631878934312
 21
-1885.6168684780421
 31
0.0
  0
LINE
  5
177D4
  8
1PHANTOM
 10
2612.2631878934312
 20
-1888.6168684780421
 30
0.0
 11
2617.2631878934312
 21
-1887.6168684780421
 31
0.0
  0
LINE
  5
177D5
  8
1PHANTOM
 10
2612.2631878934312
 20
-1890.6168684780421
 30
0.0
 11
2617.2631878934312
 21
-1889.6168684780421
 31
0.0
  0
LINE
  5
177D6
  8
1PHANTOM
 10
2612.2631878934312
 20
-1892.6168684780421
 30
0.0
 11
2617.2631878934312
 21
-1891.6168684780421
 31
0.0
  0
LINE
  5
177D7
  8
1PHANTOM
 10
2616.5131878934321
 20
-1889.466868478042
 30
0.0
 11
2617.2631878934312
 21
-1889.6168684780421
 31
0.0
  0
LINE
  5
177D8
  8
1PHANTOM
 10
2616.5131878934321
 20
-1887.466868478042
 30
0.0
 11
2617.2631878934312
 21
-1887.6168684780421
 31
0.0
  0
LINE
  5
177D9
  8
1PHANTOM
 10
2616.5131878934321
 20
-1893.466868478042
 30
0.0
 11
2617.2631878934312
 21
-1893.6168684780421
 31
0.0
  0
LINE
  5
177DA
  8
1PHANTOM
 10
2616.5131878934321
 20
-1891.466868478042
 30
0.0
 11
2617.2631878934312
 21
-1891.6168684780421
 31
0.0
  0
LINE
  5
177DB
  8
1PHANTOM
 10
2612.2631878934312
 20
-1910.6168684780421
 30
0.0
 11
2617.2631878934312
 21
-1909.6168684780421
 31
0.0
  0
LINE
  5
177DC
  8
1PHANTOM
 10
2612.2631878934312
 20
-1902.6168684780421
 30
0.0
 11
2617.2631878934312
 21
-1901.6168684780421
 31
0.0
  0
LINE
  5
177DD
  8
1PHANTOM
 10
2612.2631878934312
 20
-1894.6168684780421
 30
0.0
 11
2613.0131878934312
 21
-1894.7668684780419
 31
0.0
  0
LINE
  5
177DE
  8
1PHANTOM
 10
2612.2631878934312
 20
-1896.6168684780421
 30
0.0
 11
2613.0131878934312
 21
-1896.7668684780419
 31
0.0
  0
LINE
  5
177DF
  8
1PHANTOM
 10
2612.2631878934312
 20
-1898.6168684780421
 30
0.0
 11
2613.0131878934312
 21
-1898.7668684780419
 31
0.0
  0
LINE
  5
177E0
  8
1PHANTOM
 10
2612.2631878934312
 20
-1900.6168684780421
 30
0.0
 11
2613.0131878934312
 21
-1900.7668684780419
 31
0.0
  0
LINE
  5
177E1
  8
1PHANTOM
 10
2612.2631878934312
 20
-1896.6168684780421
 30
0.0
 11
2617.2631878934312
 21
-1895.6168684780421
 31
0.0
  0
LINE
  5
177E2
  8
1PHANTOM
 10
2612.2631878934312
 20
-1898.6168684780421
 30
0.0
 11
2617.2631878934312
 21
-1897.6168684780421
 31
0.0
  0
LINE
  5
177E3
  8
1PHANTOM
 10
2612.2631878934312
 20
-1900.6168684780421
 30
0.0
 11
2617.2631878934312
 21
-1899.6168684780421
 31
0.0
  0
LINE
  5
177E4
  8
1PHANTOM
 10
2616.5131878934321
 20
-1895.466868478042
 30
0.0
 11
2617.2631878934312
 21
-1895.6168684780421
 31
0.0
  0
LINE
  5
177E5
  8
1PHANTOM
 10
2616.5131878934321
 20
-1897.466868478042
 30
0.0
 11
2617.2631878934312
 21
-1897.6168684780421
 31
0.0
  0
LINE
  5
177E6
  8
1PHANTOM
 10
2616.5131878934321
 20
-1899.466868478042
 30
0.0
 11
2617.2631878934312
 21
-1899.6168684780421
 31
0.0
  0
LINE
  5
177E7
  8
1PHANTOM
 10
2616.5131878934321
 20
-1901.466868478042
 30
0.0
 11
2617.2631878934312
 21
-1901.6168684780421
 31
0.0
  0
LINE
  5
177E8
  8
1PHANTOM
 10
2612.2631878934312
 20
-1906.6168684780421
 30
0.0
 11
2613.0131878934312
 21
-1906.7668684780419
 31
0.0
  0
LINE
  5
177E9
  8
1PHANTOM
 10
2612.2631878934312
 20
-1904.6168684780421
 30
0.0
 11
2613.0131878934312
 21
-1904.7668684780419
 31
0.0
  0
LINE
  5
177EA
  8
1PHANTOM
 10
2612.2631878934312
 20
-1902.6168684780421
 30
0.0
 11
2613.0131878934312
 21
-1902.7668684780419
 31
0.0
  0
LINE
  5
177EB
  8
1PHANTOM
 10
2612.2631878934312
 20
-1908.6168684780421
 30
0.0
 11
2613.0131878934312
 21
-1908.7668684780419
 31
0.0
  0
LINE
  5
177EC
  8
1PHANTOM
 10
2612.2631878934312
 20
-1904.6168684780421
 30
0.0
 11
2617.2631878934312
 21
-1903.6168684780421
 31
0.0
  0
LINE
  5
177ED
  8
1PHANTOM
 10
2612.2631878934312
 20
-1906.6168684780421
 30
0.0
 11
2617.2631878934312
 21
-1905.6168684780421
 31
0.0
  0
LINE
  5
177EE
  8
1PHANTOM
 10
2612.2631878934312
 20
-1908.6168684780421
 30
0.0
 11
2617.2631878934312
 21
-1907.6168684780421
 31
0.0
  0
LINE
  5
177EF
  8
1PHANTOM
 10
2616.5131878934321
 20
-1905.466868478042
 30
0.0
 11
2617.2631878934312
 21
-1905.6168684780421
 31
0.0
  0
LINE
  5
177F0
  8
1PHANTOM
 10
2616.5131878934321
 20
-1903.466868478042
 30
0.0
 11
2617.2631878934312
 21
-1903.6168684780421
 31
0.0
  0
LINE
  5
177F1
  8
1PHANTOM
 10
2616.5131878934321
 20
-1907.466868478042
 30
0.0
 11
2617.2631878934312
 21
-1907.6168684780421
 31
0.0
  0
LINE
  5
177F2
  8
1PHANTOM
 10
2616.5131878934321
 20
-1909.4668684780429
 30
0.0
 11
2617.2631878934312
 21
-1909.6168684780421
 31
0.0
  0
LINE
  5
177F3
  8
1PHANTOM
 10
2612.2631878934312
 20
-1910.6168684780421
 30
0.0
 11
2613.0131878934312
 21
-1910.7668684780419
 31
0.0
  0
LINE
  5
177F4
  8
1PHANTOM
 10
2619.5131878934312
 20
-1910.7347340640879
 30
0.0
 11
2610.0131878934312
 21
-1910.7347340640879
 31
0.0
  0
LINE
  5
17803
  8
01
 10
2894.8254024240059
 20
-1977.713105740175
 30
0.0
 11
2894.8254024240059
 21
-2083.2513111615231
 31
0.0
  0
LINE
  5
17804
  8
01
 10
2879.8254024240059
 20
-1977.713105740175
 30
0.0
 11
2879.8254024240068
 21
-2083.2513111615231
 31
0.0
  0
TEXT
  5
17886
  8
1TEXT
 10
2857.9878571911372
 20
-1881.023951225277
 30
0.0
 40
4.0
  1
表面処理：本体
 72
     1
 11
2874.2545238578041
 21
-1881.023951225277
 31
0.0
  0
LINE
  5
17887
  8
1DIM
 10
2891.854523857804
 20
-1875.5239512252761
 30
0.0
 11
2891.854523857804
 21
-1896.523951225277
 31
0.0
  0
TEXT
  5
1788F
  8
1TEXT
 10
2902.4545238578039
 20
-1881.023951225277
 30
0.0
 40
4.0
  1
コード
 72
     1
 11
2909.254523857805
 21
-1881.023951225277
 31
0.0
  0
LINE
  5
17890
  8
1DIM
 10
2926.8545238578049
 20
-1875.5239512252749
 30
0.0
 11
2926.8545238578049
 21
-1896.523951225277
 31
0.0
  0
TEXT
  5
17891
  8
1TEXT
 10
2896.5878571911389
 20
-1888.2383082089259
 30
0.0
 40
4.0
  1
GP125XT
 72
     1
 11
2909.2545238578059
 21
-1888.2383082089259
 31
0.0
  0
TEXT
  5
17892
  8
1TEXT
 10
2894.921190524472
 20
-1895.2383082089259
 30
0.0
 40
4.0
  1
GP125025
 72
     1
 11
2909.254523857805
 21
-1895.2383082089259
 31
0.0
  0
TEXT
  5
17893
  8
1TEXT
 10
2830.0811905244709
 20
-1888.2383082089259
 30
0.0
 40
4.0
  1
ヘアライン
 41
0.8
 72
     1
 11
2839.2545238578041
 21
-1888.2383082089259
 31
0.0
  0
TEXT
  5
17894
  8
1TEXT
 10
2824.3211905244698
 20
-1895.2383082089259
 30
0.0
 40
4.0
  1
ブラストブラック
 41
0.8
 72
     1
 11
2839.2545238578041
 21
-1895.2383082089259
 31
0.0
  0
TEXT
  5
17897
  8
1TEXT
 10
2865.0811905244718
 20
-1888.2383082089259
 30
0.0
 40
4.0
  1
ヘアライン
 41
0.8
 72
     1
 11
2874.254523857805
 21
-1888.2383082089259
 31
0.0
  0
TEXT
  5
17898
  8
1TEXT
 10
2859.3211905244711
 20
-1895.2383082089259
 30
0.0
 40
4.0
  1
ブラストブラック
 41
0.8
 72
     1
 11
2874.2545238578041
 21
-1895.2383082089259
 31
0.0
  0
LINE
  5
17AEB
  8
1DIM
 10
2684.7631878934312
 20
-1995.4822084508471
 30
0.0
 11
2684.7631878934312
 21
-2124.2947591327711
 31
0.0
  0
CIRCLE
  5
17AEC
  8
1PHANTOM
 10
2584.7631878934312
 20
-2030.4822084508501
 30
0.0
 40
10.0
  0
LINE
  5
17AED
  8
1CENTER
 10
2571.7631878934299
 20
-2030.4822084508501
 30
0.0
 11
2597.7631878934312
 21
-2030.4822084508501
 31
0.0
  0
LINE
  5
17AEE
  8
1CENTER
 10
2584.7631878934312
 20
-2043.4822084508501
 30
0.0
 11
2584.7631878934312
 21
-2017.4822084508501
 31
0.0
  0
LINE
  5
17BAC
  8
1CENTER
 10
2871.7820309308208
 20
-2057.3805334508488
 30
0.0
 11
2871.7820309308208
 21
-2066.5409773508482
 31
0.0
  0
LINE
  5
17BAD
  8
1HATCH
 10
2873.4320309308209
 20
-2058.9822084508478
 30
0.0
 11
2873.4320309308209
 21
-2063.3322084508482
 31
0.0
  0
LINE
  5
17BAE
  8
1HATCH
 10
2870.1320309308198
 20
-2058.9822084508478
 30
0.0
 11
2870.1320309308198
 21
-2063.3322084508482
 31
0.0
  0
LINE
  5
17BAF
  8
1HATCH
 10
2873.7820309308208
 20
-2059.3322084508482
 30
0.0
 11
2869.7820309308208
 21
-2059.3322084508482
 31
0.0
  0
LINE
  5
17BB0
  8
1HATCH
 10
2874.7820309308199
 20
-2064.6822084408482
 30
0.0
 11
2868.7820309308199
 21
-2064.6822084408482
 31
0.0
  0
LINE
  5
17BB1
  8
1HATCH
 10
2873.4320309308209
 20
-2063.3322084508482
 30
0.0
 11
2873.7820309308208
 21
-2063.682208276774
 31
0.0
  0
LINE
  5
17BB2
  8
1HATCH
 10
2869.7820309308208
 20
-2063.682208276774
 30
0.0
 11
2870.1320309308198
 21
-2063.3322084508482
 31
0.0
  0
LINE
  5
17BB3
  8
01
 10
2869.7820309308208
 20
-2059.3322084508482
 30
0.0
 11
2869.7820309308208
 21
-2063.682208276774
 31
0.0
  0
LINE
  5
17BB4
  8
01
 10
2869.7820309308208
 20
-2063.682208276774
 30
0.0
 11
2868.7820309308199
 21
-2064.6822083508482
 31
0.0
  0
LINE
  5
17BB5
  8
01
 10
2870.1320309308212
 20
-2058.9822084508478
 30
0.0
 11
2869.7820309308208
 21
-2059.3322084508482
 31
0.0
  0
LINE
  5
17BB6
  8
01
 10
2868.7820309308199
 20
-2064.6822083508482
 30
0.0
 11
2868.7820309308199
 21
-2064.9822084508478
 31
0.0
  0
LINE
  5
17BB7
  8
01
 10
2873.4320309308209
 20
-2058.9822084508478
 30
0.0
 11
2870.1320309308212
 21
-2058.9822084508478
 31
0.0
  0
LINE
  5
17BB8
  8
01
 10
2874.7820309308199
 20
-2064.9822084508478
 30
0.0
 11
2868.7820309308199
 21
-2064.9822084508478
 31
0.0
  0
LINE
  5
17BB9
  8
01
 10
2873.7820309308208
 20
-2059.3322084508482
 30
0.0
 11
2873.4320309308209
 21
-2058.9822084508478
 31
0.0
  0
LINE
  5
17BBA
  8
01
 10
2874.7820309308199
 20
-2064.6822084408482
 30
0.0
 11
2874.7820309308199
 21
-2064.9822084508478
 31
0.0
  0
LINE
  5
17BBB
  8
01
 10
2873.7820309308208
 20
-2059.3322084508482
 30
0.0
 11
2873.7820309308208
 21
-2063.682208276774
 31
0.0
  0
LINE
  5
17BBC
  8
01
 10
2873.7820309308208
 20
-2063.682208276774
 30
0.0
 11
2874.7820309308199
 21
-2064.6822084408482
 31
0.0
  0
LINE
  5
17BBD
  8
1DIM
 10
2571.7631878934299
 20
-2030.4822084508501
 30
0.0
 11
2559.6284138599458
 21
-2030.4822084508501
 31
0.0
  0
LINE
  5
17BBE
  8
1DIM
 10
2569.7631878934312
 20
-1995.4822084508471
 30
0.0
 11
2559.6284138599458
 21
-1995.482208450846
 31
0.0
  0
LINE
  5
17BBF
  8
1DIM
 10
2560.6284138599458
 20
-2028.4822084508501
 30
0.0
 11
2560.6284138599458
 21
-1997.4822084508471
 31
0.0
  0
LINE
  5
17BC3
  8
1DIM
 10
2584.7631878934312
 20
-2017.4822084508501
 30
0.0
 11
2584.7631878934312
 21
-1983.0512844301729
 31
0.0
  0
LINE
  5
17BC4
  8
1DIM
 10
2564.7631878934321
 20
-2000.4822084508471
 30
0.0
 11
2564.7631878934321
 21
-1983.0512844301729
 31
0.0
  0
LINE
  5
17BC5
  8
1DIM
 10
2582.7631878934299
 20
-1984.0512844301729
 30
0.0
 11
2566.7631878934312
 21
-1984.0512844301729
 31
0.0
  0
TEXT
  5
17BC9
  8
1CENTER
 10
2602.5478734686922
 20
-1980.1466933319391
 30
0.0
 40
3.5
  1
配線穴
  0
SOLID
  5
17BCA
  8
1DIM
 10
2585.7142560435041
 20
-2028.626323394574
 30
0.0
 11
2584.8151198983792
 21
-2030.443647059649
 31
0.0
 12
2585.0762518199599
 22
-2028.4329453834571
 32
0.0
 13
2585.0762518199599
 23
-2028.4329453834571
 33
0.0
  0
LINE
  5
17BCC
  8
1DIM
 10
2749.7631878934321
 20
-2047.4822084508471
 30
0.0
 11
2826.204264635845
 21
-2047.4822084508471
 31
0.0
  0
LINE
  5
17BCD
  8
1DIM
 10
2749.7631878934321
 20
-2013.4822084508471
 30
0.0
 11
2826.204264635845
 21
-2013.4822084508471
 31
0.0
  0
LINE
  5
17BCE
  8
1DIM
 10
2825.204264635845
 20
-2045.4822084508471
 30
0.0
 11
2825.204264635845
 21
-2015.4822084508471
 31
0.0
  0
TEXT
  5
17BD2
  8
1DIM
 10
2812.359523054226
 20
-2071.9538065645511
 30
0.0
 40
3.5
  1
材質：ステンレス
  0
TEXT
  5
17BD3
  8
1DIM
 10
2807.692856387559
 20
-2077.787139897885
 30
0.0
 40
3.5
  1
仕上げ：各種仕上げ
  0
SOLID
  5
17BD4
  8
1DIM
 10
2859.163330312927
 20
-2065.2746493999221
 30
0.0
 11
2860.7730778330902
 21
-2064.041837965663
 31
0.0
 12
2859.6501744278298
 22
-2065.7300912208261
 32
0.0
 13
2859.6501744278298
 23
-2065.7300912208261
 33
0.0
  0
TEXT
  5
17BD6
  8
1DIM
 10
2655.92221947286
 20
-2071.9538065645511
 30
0.0
 40
3.5
  1
材質：ガラス
  0
TEXT
  5
17BD7
  8
1DIM
 10
2642.8555528061938
 20
-2077.787139897885
 30
0.0
 40
3.5
  1
仕上げ：各種仕上げ
  0
SOLID
  5
17BD8
  8
1DIM
 10
2709.6890345267871
 20
-2039.19682328977
 30
0.0
 11
2711.113257071052
 21
-2037.7536665915841
 31
0.0
 12
2710.2340703502132
 22
-2039.580724833954
 32
0.0
 13
2710.2340703502132
 23
-2039.580724833954
 33
0.0
  0
LINE
  5
17BDA
  8
1DIM
 10
2920.3837059308198
 20
-2030.4822084508489
 30
0.0
 11
2930.163365115216
 21
-2030.4822084508489
 31
0.0
  0
LINE
  5
17BDB
  8
1DIM
 10
2853.7820309308208
 20
-1995.4822084508471
 30
0.0
 11
2930.163365115216
 21
-1995.4822084508471
 31
0.0
  0
LINE
  5
17BDC
  8
1DIM
 10
2929.163365115216
 20
-2028.4822084508489
 30
0.0
 11
2929.163365115216
 21
-1997.4822084508471
 31
0.0
  0
TEXT
  5
17BE0
  8
1DIM
 10
2586.3207373633031
 20
-2071.9538065645511
 30
0.0
 40
3.5
  1
材質：ステンレス
  0
TEXT
  5
17BE1
  8
1DIM
 10
2581.6540706966348
 20
-2077.787139897885
 30
0.0
 40
3.5
  1
仕上げ：各種仕上げ
  0
SOLID
  5
17BE2
  8
1DIM
 10
2633.1245446220032
 20
-2065.2746493999221
 30
0.0
 11
2634.7342921421659
 21
-2064.041837965663
 31
0.0
 12
2633.611388736907
 22
-2065.7300912208261
 32
0.0
 13
2633.611388736907
 23
-2065.7300912208261
 33
0.0
  0
LINE
  5
17BE4
  8
1DIM
 10
2614.7631878934312
 20
-2020.571718431853
 30
0.0
 11
2614.7631878934312
 21
-1983.0512844301729
 31
0.0
  0
LINE
  5
17BE5
  8
1DIM
 10
2754.7631878934312
 20
-2020.571718431853
 30
0.0
 11
2754.7631878934312
 21
-1983.0512844301729
 31
0.0
  0
LINE
  5
17BE6
  8
1DIM
 10
2616.7631878934312
 20
-1984.0512844301729
 30
0.0
 11
2752.7631878934312
 21
-1984.0512844301729
 31
0.0
  0
LINE
  5
17BEA
  8
1DIM
 10
2879.7820309308199
 20
-1995.982208450848
 30
0.0
 11
2879.7820309308199
 21
-1986.1989272368569
 31
0.0
  0
LINE
  5
17BEB
  8
1DIM
 10
2851.7820309308199
 20
-1995.482208450848
 30
0.0
 11
2851.7820309308199
 21
-1986.1989272368569
 31
0.0
  0
LINE
  5
17BEC
  8
1DIM
 10
2877.7820309308199
 20
-1987.1989272368569
 30
0.0
 11
2853.7820309308199
 21
-1987.1989272368569
 31
0.0
  0
LINE
  5
17BF0
  8
1DIM
 10
2804.7631878934312
 20
-2000.4822084508471
 30
0.0
 11
2804.7631878934312
 21
-1971.7994045615881
 31
0.0
  0
LINE
  5
17BF1
  8
1DIM
 10
2564.7631878934321
 20
-2000.4822084508471
 30
0.0
 11
2564.7631878934321
 21
-1971.7994045615881
 31
0.0
  0
LINE
  5
17BF2
  8
1DIM
 10
2802.7631878934312
 20
-1972.7994045615881
 30
0.0
 11
2566.7631878934312
 21
-1972.7994045615881
 31
0.0
  0
LINE
  5
17BF6
  8
1DIM
 10
2799.7631878934312
 20
-2065.4822084508469
 30
0.0
 11
2836.6030553510268
 21
-2065.4822084508469
 31
0.0
  0
LINE
  5
17BF7
  8
1DIM
 10
2799.7631878934312
 20
-1995.4822084508471
 30
0.0
 11
2836.6030553510268
 21
-1995.4822084508471
 31
0.0
  0
LINE
  5
17BF8
  8
1DIM
 10
2835.6030553510268
 20
-2063.4822084508469
 30
0.0
 11
2835.6030553510268
 21
-1997.4822084508471
 31
0.0
  0
TEXT
  5
17BFC
  8
1DIM
 10
2834.903055351027
 20
-2033.1072084508471
 30
0.0
 40
3.5
  1
70
 50
90.0
  0
LINE
  5
17BFD
  8
0
  6
BYBLOCK
 10
2835.0671569710271
 20
-1997.4822084508471
 30
0.0
 11
2835.6030553510268
 21
-1995.4822084508471
 31
0.0
  0
LINE
  5
17BFE
  8
0
  6
BYBLOCK
 10
2835.6030553510268
 20
-1995.4822084508471
 30
0.0
 11
2836.138953731027
 21
-1997.4822084508471
 31
0.0
  0
LINE
  5
17BFF
  8
0
  6
BYBLOCK
 10
2835.6030553510268
 20
-1995.4822084508471
 30
0.0
 11
2835.6030553510268
 21
-1997.4822084508471
 31
0.0
  0
LINE
  5
17C00
  8
0
  6
BYBLOCK
 10
2836.138953731027
 20
-2063.4822084508469
 30
0.0
 11
2835.6030553510268
 21
-2065.4822084508469
 31
0.0
  0
LINE
  5
17C01
  8
0
  6
BYBLOCK
 10
2835.6030553510268
 20
-2065.4822084508469
 30
0.0
 11
2835.0671569710271
 21
-2063.4822084508469
 31
0.0
  0
LINE
  5
17C02
  8
0
  6
BYBLOCK
 10
2835.6030553510268
 20
-2065.4822084508469
 30
0.0
 11
2835.6030553510268
 21
-2063.4822084508469
 31
0.0
  0
TEXT
  5
17C03
  8
1DIM
 10
2680.3881878934312
 20
-1972.099404561588
 30
0.0
 40
3.5
  1
240
  0
LINE
  5
17C04
  8
0
  6
BYBLOCK
 10
2566.7631878934312
 20
-1973.335302941588
 30
0.0
 11
2564.7631878934321
 21
-1972.7994045615881
 31
0.0
  0
LINE
  5
17C05
  8
0
  6
BYBLOCK
 10
2564.7631878934321
 20
-1972.7994045615881
 30
0.0
 11
2566.7631878934312
 21
-1972.2635061815879
 31
0.0
  0
LINE
  5
17C06
  8
0
  6
BYBLOCK
 10
2564.7631878934321
 20
-1972.7994045615881
 30
0.0
 11
2566.7631878934312
 21
-1972.7994045615881
 31
0.0
  0
LINE
  5
17C07
  8
0
  6
BYBLOCK
 10
2802.7631878934312
 20
-1972.2635061815879
 30
0.0
 11
2804.7631878934312
 21
-1972.7994045615881
 31
0.0
  0
LINE
  5
17C08
  8
0
  6
BYBLOCK
 10
2804.7631878934312
 20
-1972.7994045615881
 30
0.0
 11
2802.7631878934312
 21
-1973.335302941588
 31
0.0
  0
LINE
  5
17C09
  8
0
  6
BYBLOCK
 10
2804.7631878934312
 20
-1972.7994045615881
 30
0.0
 11
2802.7631878934312
 21
-1972.7994045615881
 31
0.0
  0
TEXT
  5
17C0A
  8
1DIM
 10
2862.8653642641539
 20
-1986.4989272368571
 30
0.0
 40
3.5
  1
28
  0
LINE
  5
17C0B
  8
0
  6
BYBLOCK
 10
2853.7820309308199
 20
-1987.7348256168571
 30
0.0
 11
2851.7820309308199
 21
-1987.1989272368569
 31
0.0
  0
LINE
  5
17C0C
  8
0
  6
BYBLOCK
 10
2851.7820309308199
 20
-1987.1989272368569
 30
0.0
 11
2853.7820309308199
 21
-1986.663028856857
 31
0.0
  0
LINE
  5
17C0D
  8
0
  6
BYBLOCK
 10
2851.7820309308199
 20
-1987.1989272368569
 30
0.0
 11
2853.7820309308199
 21
-1987.1989272368569
 31
0.0
  0
LINE
  5
17C0E
  8
0
  6
BYBLOCK
 10
2877.7820309308199
 20
-1986.663028856857
 30
0.0
 11
2879.7820309308199
 21
-1987.1989272368569
 31
0.0
  0
LINE
  5
17C0F
  8
0
  6
BYBLOCK
 10
2879.7820309308199
 20
-1987.1989272368569
 30
0.0
 11
2877.7820309308199
 21
-1987.7348256168571
 31
0.0
  0
LINE
  5
17C10
  8
0
  6
BYBLOCK
 10
2879.7820309308199
 20
-1987.1989272368569
 30
0.0
 11
2877.7820309308199
 21
-1987.1989272368569
 31
0.0
  0
TEXT
  5
17C11
  8
1DIM
 10
2677.4715212267652
 20
-1983.3512844301731
 30
0.0
 40
3.5
  1
P=140
  0
LINE
  5
17C12
  8
0
  6
BYBLOCK
 10
2752.7631878934312
 20
-1983.515386050173
 30
0.0
 11
2754.7631878934312
 21
-1984.0512844301729
 31
0.0
  0
LINE
  5
17C13
  8
0
  6
BYBLOCK
 10
2754.7631878934312
 20
-1984.0512844301729
 30
0.0
 11
2752.7631878934312
 21
-1984.5871828101731
 31
0.0
  0
LINE
  5
17C14
  8
0
  6
BYBLOCK
 10
2754.7631878934312
 20
-1984.0512844301729
 30
0.0
 11
2752.7631878934312
 21
-1984.0512844301729
 31
0.0
  0
LINE
  5
17C15
  8
0
  6
BYBLOCK
 10
2616.7631878934312
 20
-1984.5871828101731
 30
0.0
 11
2614.7631878934312
 21
-1984.0512844301729
 31
0.0
  0
LINE
  5
17C16
  8
0
  6
BYBLOCK
 10
2614.7631878934312
 20
-1984.0512844301729
 30
0.0
 11
2616.7631878934312
 21
-1983.515386050173
 31
0.0
  0
LINE
  5
17C17
  8
0
  6
BYBLOCK
 10
2614.7631878934312
 20
-1984.0512844301729
 30
0.0
 11
2616.7631878934312
 21
-1984.0512844301729
 31
0.0
  0
LINE
  5
17C18
  8
1DIM
 10
2633.3679666794551
 20
-2065.5023703103739
 30
0.0
 11
2621.2207373633019
 21
-2078.4871398978839
 31
0.0
  0
LINE
  5
17C19
  8
1DIM
 10
2621.2207373633019
 20
-2078.4871398978839
 30
0.0
 11
2618.520737363302
 21
-2078.4871398978839
 31
0.0
  0
TEXT
  5
17C1A
  8
1DIM
 10
2928.4633651152171
 20
-2015.8988751175141
 30
0.0
 40
3.5
  1
35
 50
90.0
  0
LINE
  5
17C1B
  8
0
  6
BYBLOCK
 10
2928.6274667352159
 20
-1997.4822084508471
 30
0.0
 11
2929.163365115216
 21
-1995.4822084508471
 31
0.0
  0
LINE
  5
17C1C
  8
0
  6
BYBLOCK
 10
2929.163365115216
 20
-1995.4822084508471
 30
0.0
 11
2929.6992634952162
 21
-1997.4822084508471
 31
0.0
  0
LINE
  5
17C1D
  8
0
  6
BYBLOCK
 10
2929.163365115216
 20
-1995.4822084508471
 30
0.0
 11
2929.163365115216
 21
-1997.4822084508471
 31
0.0
  0
LINE
  5
17C1E
  8
0
  6
BYBLOCK
 10
2929.6992634952162
 20
-2028.4822084508489
 30
0.0
 11
2929.163365115216
 21
-2030.4822084508489
 31
0.0
  0
LINE
  5
17C1F
  8
0
  6
BYBLOCK
 10
2929.163365115216
 20
-2030.4822084508489
 30
0.0
 11
2928.6274667352159
 21
-2028.4822084508489
 31
0.0
  0
LINE
  5
17C20
  8
0
  6
BYBLOCK
 10
2929.163365115216
 20
-2030.4822084508489
 30
0.0
 11
2929.163365115216
 21
-2028.4822084508489
 31
0.0
  0
LINE
  5
17C21
  8
1DIM
 10
2709.9615524384999
 20
-2039.388774061862
 30
0.0
 11
2682.42221947286
 21
-2078.4871398978839
 31
0.0
  0
LINE
  5
17C22
  8
1DIM
 10
2682.42221947286
 20
-2078.4871398978839
 30
0.0
 11
2679.7222194728602
 21
-2078.4871398978839
 31
0.0
  0
LINE
  5
17C23
  8
1DIM
 10
2859.4067523703779
 20
-2065.5023703103739
 30
0.0
 11
2847.2595230542252
 21
-2078.4871398978839
 31
0.0
  0
LINE
  5
17C24
  8
1DIM
 10
2847.2595230542252
 20
-2078.4871398978839
 30
0.0
 11
2844.5595230542249
 21
-2078.4871398978839
 31
0.0
  0
TEXT
  5
17C25
  8
1DIM
 10
2824.5042646358461
 20
-2033.3988751175141
 30
0.0
 40
3.5
  1
34
 50
90.0
  0
LINE
  5
17C26
  8
0
  6
BYBLOCK
 10
2824.6683662558448
 20
-2015.4822084508471
 30
0.0
 11
2825.204264635845
 21
-2013.4822084508471
 31
0.0
  0
LINE
  5
17C27
  8
0
  6
BYBLOCK
 10
2825.204264635845
 20
-2013.4822084508471
 30
0.0
 11
2825.7401630158452
 21
-2015.4822084508471
 31
0.0
  0
LINE
  5
17C28
  8
0
  6
BYBLOCK
 10
2825.204264635845
 20
-2013.4822084508471
 30
0.0
 11
2825.204264635845
 21
-2015.4822084508471
 31
0.0
  0
LINE
  5
17C29
  8
0
  6
BYBLOCK
 10
2825.7401630158452
 20
-2045.4822084508471
 30
0.0
 11
2825.204264635845
 21
-2047.4822084508471
 31
0.0
  0
LINE
  5
17C2A
  8
0
  6
BYBLOCK
 10
2825.204264635845
 20
-2047.4822084508471
 30
0.0
 11
2824.6683662558448
 21
-2045.4822084508471
 31
0.0
  0
LINE
  5
17C2B
  8
0
  6
BYBLOCK
 10
2825.204264635845
 20
-2047.4822084508471
 30
0.0
 11
2825.204264635845
 21
-2045.4822084508471
 31
0.0
  0
LINE
  5
17C2C
  8
1DIM
 10
2585.395253931732
 20
-2028.5296343890161
 30
0.0
 11
2599.8478734686919
 21
-1980.8466933319389
 31
0.0
  0
LINE
  5
17C2D
  8
1DIM
 10
2599.8478734686919
 20
-1980.8466933319389
 30
0.0
 11
2602.5478734686922
 21
-1980.8466933319389
 31
0.0
  0
TEXT
  5
17C2E
  8
1DIM
 10
2572.1381878934312
 20
-1983.3512844301731
 30
0.0
 40
3.5
  1
20
  0
LINE
  5
17C2F
  8
0
  6
BYBLOCK
 10
2566.7631878934312
 20
-1984.5871828101731
 30
0.0
 11
2564.7631878934321
 21
-1984.0512844301729
 31
0.0
  0
LINE
  5
17C30
  8
0
  6
BYBLOCK
 10
2564.7631878934321
 20
-1984.0512844301729
 30
0.0
 11
2566.7631878934312
 21
-1983.515386050173
 31
0.0
  0
LINE
  5
17C31
  8
0
  6
BYBLOCK
 10
2564.7631878934321
 20
-1984.0512844301729
 30
0.0
 11
2566.7631878934312
 21
-1984.0512844301729
 31
0.0
  0
LINE
  5
17C32
  8
0
  6
BYBLOCK
 10
2582.7631878934299
 20
-1983.515386050173
 30
0.0
 11
2584.7631878934312
 21
-1984.0512844301729
 31
0.0
  0
LINE
  5
17C33
  8
0
  6
BYBLOCK
 10
2584.7631878934312
 20
-1984.0512844301729
 30
0.0
 11
2582.7631878934299
 21
-1984.5871828101731
 31
0.0
  0
LINE
  5
17C34
  8
0
  6
BYBLOCK
 10
2584.7631878934312
 20
-1984.0512844301729
 30
0.0
 11
2582.7631878934299
 21
-1984.0512844301729
 31
0.0
  0
TEXT
  5
17C35
  8
1DIM
 10
2559.928413859946
 20
-2015.898875117515
 30
0.0
 40
3.5
  1
35
 50
90.0
  0
LINE
  5
17C36
  8
0
  6
BYBLOCK
 10
2560.0925154799461
 20
-1997.4822084508471
 30
0.0
 11
2560.6284138599458
 21
-1995.4822084508471
 31
0.0
  0
LINE
  5
17C37
  8
0
  6
BYBLOCK
 10
2560.6284138599458
 20
-1995.4822084508471
 30
0.0
 11
2561.164312239946
 21
-1997.4822084508471
 31
0.0
  0
LINE
  5
17C38
  8
0
  6
BYBLOCK
 10
2560.6284138599458
 20
-1995.4822084508471
 30
0.0
 11
2560.6284138599458
 21
-1997.4822084508471
 31
0.0
  0
LINE
  5
17C39
  8
0
  6
BYBLOCK
 10
2561.164312239946
 20
-2028.4822084508501
 30
0.0
 11
2560.6284138599458
 21
-2030.4822084508501
 31
0.0
  0
LINE
  5
17C3A
  8
0
  6
BYBLOCK
 10
2560.6284138599458
 20
-2030.4822084508501
 30
0.0
 11
2560.0925154799461
 21
-2028.4822084508501
 31
0.0
  0
LINE
  5
17C3B
  8
0
  6
BYBLOCK
 10
2560.6284138599458
 20
-2030.4822084508501
 30
0.0
 11
2560.6284138599458
 21
-2028.4822084508501
 31
0.0
  0
VIEWPORT
  5
57
 67
     1
  8
0
 10
84.044523980262596
 20
10.09248672500371
 30
0.0
 40
615.6287481527786
 41
282.77184872780168
 68
     1
 69
     1
1001
ACAD
1000
MVIEW
1002
{
1070
    16
1010
0.0
1020
0.0
1030
0.0
1010
0.0
1020
0.0
1030
1.0
1040
0.0
1040
282.77184872780168
1040
84.044523980262596
1040
10.09248672500371
1040
50.0
1040
0.0
1040
0.0
1070
     0
1070
   100
1070
     1
1070
     1
1070
     0
1070
     0
1070
     0
1070
     0
1040
0.0
1040
0.0
1040
0.0
1040
10.0
1040
10.0
1040
10.0
1040
10.0
1070
     0
1002
{
1002
}
1002
}
  0
ENDSEC
  0
EOF
