  0
SECTION
  2
HEADER
  9
$ACADVER
  1
AC1012
  9
$DWGCODEPAGE
  3
ansi_932
  9
$INSBASE
 10
0.0
 20
0.0
 30
0.0
  9
$EXTMIN
 10
937.110437433441
 20
-411.9960020925309
 30
0.0
  9
$EXTMAX
 10
1321.897740820349
 20
-185.7920131260516
 30
0.0
  9
$LIMMIN
 10
0.0
 20
0.0
  9
$LIMMAX
 10
420.0
 20
297.0
  9
$ORTHOMODE
 70
     0
  9
$REGENMODE
 70
     1
  9
$FILLMODE
 70
     1
  9
$QTEXTMODE
 70
     0
  9
$MIRRTEXT
 70
     0
  9
$DRAGMODE
 70
     2
  9
$LTSCALE
 40
0.5
  9
$OSMODE
 70
  2399
  9
$ATTMODE
 70
     1
  9
$TEXTSIZE
 40
4.0
  9
$TRACEWID
 40
1.0
  9
$TEXTSTYLE
  7
STANDARD
  9
$CLAYER
  8
1TEXT
  9
$CELTYPE
  6
BYLAYER
  9
$CECOLOR
 62
   256
  9
$CELTSCALE
 40
1.0
  9
$DELOBJ
 70
     1
  9
$DISPSILH
 70
     0
  9
$DIMSCALE
 40
1.0
  9
$DIMASZ
 40
2.0
  9
$DIMEXO
 40
0.0
  9
$DIMDLI
 40
7.0
  9
$DIMRND
 40
0.0
  9
$DIMDLE
 40
0.0
  9
$DIMEXE
 40
1.0
  9
$DIMTP
 40
0.0
  9
$DIMTM
 40
0.0
  9
$DIMTXT
 40
3.5
  9
$DIMCEN
 40
0.0
  9
$DIMTSZ
 40
0.0
  9
$DIMTOL
 70
     0
  9
$DIMLIM
 70
     0
  9
$DIMTIH
 70
     0
  9
$DIMTOH
 70
     0
  9
$DIMSE1
 70
     0
  9
$DIMSE2
 70
     0
  9
$DIMTAD
 70
     1
  9
$DIMZIN
 70
     8
  9
$DIMBLK
  1

  9
$DIMASO
 70
     1
  9
$DIMSHO
 70
     1
  9
$DIMPOST
  1
 
  9
$DIMAPOST
  1

  9
$DIMALT
 70
     0
  9
$DIMALTD
 70
     2
  9
$DIMALTF
 40
25.4
  9
$DIMLFAC
 40
1.0
  9
$DIMTOFL
 70
     1
  9
$DIMTVP
 40
0.0
  9
$DIMTIX
 70
     0
  9
$DIMSOXD
 70
     0
  9
$DIMSAH
 70
     1
  9
$DIMBLK1
  1
OPEN30
  9
$DIMBLK2
  1
OPEN30
  9
$DIMSTYLE
  2
NEWX10
  9
$DIMCLRD
 70
   256
  9
$DIMCLRE
 70
   256
  9
$DIMCLRT
 70
   201
  9
$DIMTFAC
 40
0.7
  9
$DIMGAP
 40
0.7
  9
$DIMJUST
 70
     0
  9
$DIMSD1
 70
     0
  9
$DIMSD2
 70
     0
  9
$DIMTOLJ
 70
     1
  9
$DIMTZIN
 70
     8
  9
$DIMALTZ
 70
     0
  9
$DIMALTTZ
 70
     0
  9
$DIMFIT
 70
     2
  9
$DIMUPT
 70
     0
  9
$DIMUNIT
 70
     2
  9
$DIMDEC
 70
     2
  9
$DIMTDEC
 70
     4
  9
$DIMALTU
 70
     2
  9
$DIMALTTD
 70
     2
  9
$DIMTXSTY
  7
STANDARD
  9
$DIMAUNIT
 70
     0
  9
$LUNITS
 70
     2
  9
$LUPREC
 70
     4
  9
$SKETCHINC
 40
1.0
  9
$FILLETRAD
 40
0.0
  9
$AUNITS
 70
     0
  9
$AUPREC
 70
     2
  9
$MENU
  1
acad
  9
$ELEVATION
 40
0.0
  9
$PELEVATION
 40
0.0
  9
$THICKNESS
 40
0.0
  9
$LIMCHECK
 70
     0
  9
$CHAMFERA
 40
1.0
  9
$CHAMFERB
 40
1.0
  9
$CHAMFERC
 40
20.0
  9
$CHAMFERD
 40
0.0
  9
$SKPOLY
 70
     0
  9
$TDCREATE
 40
2453033.732663484
  9
$TDUPDATE
 40
2459255.377490544
  9
$TDINDWG
 40
2.6183397569
  9
$TDUSRTIMER
 40
2.6183397569
  9
$USRTIMER
 70
     1
  9
$ANGBASE
 50
0.0
  9
$ANGDIR
 70
     0
  9
$PDMODE
 70
     0
  9
$PDSIZE
 40
0.0
  9
$PLINEWID
 40
0.0
  9
$COORDS
 70
     2
  9
$SPLFRAME
 70
     0
  9
$SPLINETYPE
 70
     6
  9
$SPLINESEGS
 70
     8
  9
$ATTDIA
 70
     0
  9
$ATTREQ
 70
     1
  9
$HANDLING
 70
     1
  9
$HANDSEED
  5
21E73
  9
$SURFTAB1
 70
     6
  9
$SURFTAB2
 70
     6
  9
$SURFTYPE
 70
     6
  9
$SURFU
 70
     6
  9
$SURFV
 70
     6
  9
$UCSNAME
  2

  9
$UCSORG
 10
0.0
 20
0.0
 30
0.0
  9
$UCSXDIR
 10
1.0
 20
0.0
 30
0.0
  9
$UCSYDIR
 10
0.0
 20
1.0
 30
0.0
  9
$PUCSNAME
  2

  9
$PUCSORG
 10
0.0
 20
0.0
 30
0.0
  9
$PUCSXDIR
 10
1.0
 20
0.0
 30
0.0
  9
$PUCSYDIR
 10
0.0
 20
1.0
 30
0.0
  9
$USERI1
 70
     0
  9
$USERI2
 70
     0
  9
$USERI3
 70
     0
  9
$USERI4
 70
     0
  9
$USERI5
 70
     0
  9
$USERR1
 40
0.0
  9
$USERR2
 40
0.0
  9
$USERR3
 40
0.0
  9
$USERR4
 40
0.0
  9
$USERR5
 40
0.0
  9
$WORLDVIEW
 70
     1
  9
$SHADEDGE
 70
     3
  9
$SHADEDIF
 70
    70
  9
$TILEMODE
 70
     1
  9
$MAXACTVP
 70
    48
  9
$PINSBASE
 10
0.0
 20
0.0
 30
0.0
  9
$PLIMCHECK
 70
     0
  9
$PEXTMIN
 10
1.000000000000000E+20
 20
1.000000000000000E+20
 30
1.000000000000000E+20
  9
$PEXTMAX
 10
-1.000000000000000E+20
 20
-1.000000000000000E+20
 30
-1.000000000000000E+20
  9
$PLIMMIN
 10
0.0
 20
0.0
  9
$PLIMMAX
 10
420.0
 20
297.0
  9
$UNITMODE
 70
     0
  9
$VISRETAIN
 70
     1
  9
$PLINEGEN
 70
     0
  9
$PSLTSCALE
 70
     1
  9
$TREEDEPTH
 70
  3020
  9
$PICKSTYLE
 70
     0
  9
$CMLSTYLE
  2
STANDARD
  9
$CMLJUST
 70
     0
  9
$CMLSCALE
 40
20.0
  9
$SAVEIMAGES
 70
     1
  0
ENDSEC
  0
SECTION
  2
CLASSES
  0
CLASS
  1
DICTIONARYVAR
  2
AcDbDictionaryVar
  3
ObjectDBX Classes
 90
        0
280
     0
281
     0
  0
CLASS
  1
IDBUFFER
  2
AcDbIdBuffer
  3
ObjectDBX Classes
 90
    32768
280
     0
281
     0
  0
CLASS
  1
LWPOLYLINE
  2
AcDbPolyline
  3
ObjectDBX Classes
 90
    32768
280
     0
281
     1
  0
CLASS
  1
ACDBDICTIONARYWDFLT
  2
AcDbDictionaryWithDefault
  3
ObjectDBX Classes
 90
    32768
280
     0
281
     0
  0
CLASS
  1
ACDBPLACEHOLDER
  2
AcDbPlaceHolder
  3
ObjectDBX Classes
 90
        0
280
     0
281
     0
  0
CLASS
  1
LAYOUT
  2
AcDbLayout
  3
ObjectDBX Classes
 90
        0
280
     0
281
     0
  0
CLASS
  1
TABLESTYLE
  2
AcDbTableStyle
  3
ObjectDBX Classes
 90
     4095
280
     0
281
     0
  0
CLASS
  1
SORTENTSTABLE
  2
AcDbSortentsTable
  3
ObjectDBX Classes
 90
    32768
280
     0
281
     0
  0
CLASS
  1
DIMASSOC
  2
AcDbDimAssoc
  3
"AcDbDimAssoc|Product Desc:     AcDim ARX App For Dimension|Company:          Autodesk, Inc.|WEB Address:      www.autodesk.com"
 90
        0
280
     0
281
     0
  0
CLASS
  1
MATERIAL
  2
AcDbMaterial
  3
ObjectDBX Classes
 90
     1153
280
     0
281
     0
  0
CLASS
  1
VISUALSTYLE
  2
AcDbVisualStyle
  3
ObjectDBX Classes
 90
     4095
280
     0
281
     0
  0
CLASS
  1
SCALE
  2
AcDbScale
  3
ObjectDBX Classes
 90
     1153
280
     0
281
     0
  0
CLASS
  1
MLEADERSTYLE
  2
AcDbMLeaderStyle
  3
ACDB_MLEADERSTYLE_CLASS
 90
     4095
280
     0
281
     0
  0
CLASS
  1
CELLSTYLEMAP
  2
AcDbCellStyleMap
  3
ObjectDBX Classes
 90
     1152
280
     0
281
     0
  0
CLASS
  1
EXACXREFPANELOBJECT
  2
ExAcXREFPanelObject
  3
EXAC_ESW
 90
     1025
280
     1
281
     0
  0
CLASS
  1
NPOCOLLECTION
  2
AcDbImpNonPersistentObjectsCollection
  3
ObjectDBX Classes
 90
     1153
280
     1
281
     0
  0
CLASS
  1
SUN
  2
AcDbSun
  3
SCENEOE
 90
     1153
280
     0
281
     0
  0
CLASS
  1
XRECORD
  2
AcDbXrecord
  3
ObjectDBX Classes
 90
    32768
280
     0
281
     0
  0
CLASS
  1
HATCH
  2
AcDbHatch
  3
ObjectDBX Classes
 90
    32768
280
     0
281
     1
  0
ENDSEC
  0
SECTION
  2
TABLES
  0
TABLE
  2
VPORT
  5
8
330
0
100
AcDbSymbolTable
 70
     1
  0
VPORT
  5
19DC2
330
8
100
AcDbSymbolTableRecord
100
AcDbViewportTableRecord
  2
*ACTIVE
 70
     0
 10
0.0
 20
0.0
 11
1.0
 21
1.0
 12
1129.504089126895
 22
-298.8940076092913
 13
0.0
 23
0.0
 14
10.0
 24
10.0
 15
10.0
 25
10.0
 16
0.0
 26
0.0
 36
1.0
 17
0.0
 27
0.0
 37
0.0
 40
242.8716513113778
 41
1.858156028368794
 42
50.0
 43
0.0
 44
0.0
 50
0.0
 51
0.0
 71
    16
 72
   100
 73
     1
 74
     1
 75
     0
 76
     0
 77
     0
 78
     0
  0
ENDTAB
  0
TABLE
  2
LTYPE
  5
5
330
0
100
AcDbSymbolTable
 70
     3
  0
LTYPE
  5
12
330
5
100
AcDbSymbolTableRecord
100
AcDbLinetypeTableRecord
  2
BYBLOCK
 70
     0
  3

 72
    65
 73
     0
 40
0.0
  0
LTYPE
  5
13
330
5
100
AcDbSymbolTableRecord
100
AcDbLinetypeTableRecord
  2
BYLAYER
 70
     0
  3

 72
    65
 73
     0
 40
0.0
  0
LTYPE
  5
14
330
5
100
AcDbSymbolTableRecord
100
AcDbLinetypeTableRecord
  2
CONTINUOUS
 70
     0
  3
Solid line
 72
    65
 73
     0
 40
0.0
  0
LTYPE
  5
26
330
5
100
AcDbSymbolTableRecord
100
AcDbLinetypeTableRecord
  2
CENTER2
 70
     0
  3
Center (.5x) ___ _ ___ _ ___ _ ___ _ ___ _ ___
 72
    65
 73
     4
 40
28.575
 49
19.05
 74
     0
 49
-3.175
 74
     0
 49
3.175
 74
     0
 49
-3.175
 74
     0
  0
LTYPE
  5
100
330
5
100
AcDbSymbolTableRecord
100
AcDbLinetypeTableRecord
  2
PHANTOM2
 70
     0
  3
Phantom (0.5x) ___ _ _ ___ _ _ ___ _ _ ___ _ _
 72
    65
 73
     6
 40
31.75
 49
15.875
 74
     0
 49
-3.175
 74
     0
 49
3.175
 74
     0
 49
-3.175
 74
     0
 49
3.175
 74
     0
 49
-3.175
 74
     0
  0
ENDTAB
  0
TABLE
  2
LAYER
  5
2
102
{ACAD_XDICTIONARY
360
18FE8
102
}
330
0
100
AcDbSymbolTable
 70
     6
  0
LAYER
  5
E
102
{ACAD_XDICTIONARY
360
1A20A
102
}
330
2
100
AcDbSymbolTableRecord
100
AcDbLayerTableRecord
  2
0
 70
     0
 62
     7
  6
CONTINUOUS
  0
LAYER
  5
29
102
{ACAD_XDICTIONARY
360
1A20C
102
}
330
2
100
AcDbSymbolTableRecord
100
AcDbLayerTableRecord
  2
1CENTER
 70
     0
 62
     7
  6
CENTER2
  0
LAYER
  5
31
102
{ACAD_XDICTIONARY
360
1A20E
102
}
330
2
100
AcDbSymbolTableRecord
100
AcDbLayerTableRecord
  2
1TEXT
 70
     0
 62
     7
  6
CONTINUOUS
  0
LAYER
  5
101
102
{ACAD_XDICTIONARY
360
1A218
102
}
330
2
100
AcDbSymbolTableRecord
100
AcDbLayerTableRecord
  2
1DIM
 70
     0
 62
     7
  6
CONTINUOUS
  0
LAYER
  5
103
102
{ACAD_XDICTIONARY
360
1A21C
102
}
330
2
100
AcDbSymbolTableRecord
100
AcDbLayerTableRecord
  2
1PHANTOM
 70
     0
 62
     7
  6
PHANTOM2
  0
LAYER
  5
25F
102
{ACAD_XDICTIONARY
360
1A220
102
}
330
2
100
AcDbSymbolTableRecord
100
AcDbLayerTableRecord
  2
01
 70
     0
 62
     1
  6
CONTINUOUS
  0
ENDTAB
  0
TABLE
  2
STYLE
  5
3
330
0
100
AcDbSymbolTable
 70
     1
  0
STYLE
  5
F
330
3
100
AcDbSymbolTableRecord
100
AcDbTextStyleTableRecord
  2
STANDARD
 70
     0
 40
0.0
 41
1.0
 50
0.0
 71
     0
 42
4.0
  3
txt.shx
  4
extfont.shx
  0
ENDTAB
  0
TABLE
  2
VIEW
  5
6
330
0
100
AcDbSymbolTable
 70
     0
  0
ENDTAB
  0
TABLE
  2
UCS
  5
7
330
0
100
AcDbSymbolTable
 70
     0
  0
ENDTAB
  0
TABLE
  2
APPID
  5
9
330
0
100
AcDbSymbolTable
 70
    15
  0
APPID
  5
10
330
9
100
AcDbSymbolTableRecord
100
AcDbRegAppTableRecord
  2
ACAD
 70
     0
  0
APPID
  5
21
330
9
100
AcDbSymbolTableRecord
100
AcDbRegAppTableRecord
  2
DRAWINGVARIABLESXDATA
 70
     0
  0
APPID
  5
64
330
9
100
AcDbSymbolTableRecord
100
AcDbRegAppTableRecord
  2
CONTENTTABDATA
 70
     0
  0
APPID
  5
65
330
9
100
AcDbSymbolTableRecord
100
AcDbRegAppTableRecord
  2
CONTENTCURRENTTAB
 70
     0
  0
APPID
  5
66
330
9
100
AcDbSymbolTableRecord
100
AcDbRegAppTableRecord
  2
CONTENTBLOCKDESCRIPTION
 70
     0
  0
APPID
  5
67
330
9
100
AcDbSymbolTableRecord
100
AcDbRegAppTableRecord
  2
CONTENTBLOCKICON
 70
     0
  0
APPID
  5
68
330
9
100
AcDbSymbolTableRecord
100
AcDbRegAppTableRecord
  2
CONTENTLONGBLOCKNAME
 70
     0
  0
APPID
  5
5A9
330
9
100
AcDbSymbolTableRecord
100
AcDbRegAppTableRecord
  2
ACAD_PSEXT
 70
     0
  0
APPID
  5
18AC
330
9
100
AcDbSymbolTableRecord
100
AcDbRegAppTableRecord
  2
ACAD_DSTYLE_DIMTEXT_FILL
 70
     0
  0
APPID
  5
19E1A
330
9
100
AcDbSymbolTableRecord
100
AcDbRegAppTableRecord
  2
ACAD_MLEADERVER
 70
     0
  0
APPID
  5
1A2FA
330
9
100
AcDbSymbolTableRecord
100
AcDbRegAppTableRecord
  2
ACAD_DSTYLE_DIMRADIAL_EXTE
 70
     0
  0
APPID
  5
1DBC1
330
9
100
AcDbSymbolTableRecord
100
AcDbRegAppTableRecord
  2
ACADANNOTATIVE
 70
     0
  0
APPID
  5
1E991
330
9
100
AcDbSymbolTableRecord
100
AcDbRegAppTableRecord
  2
ACAD_EXEMPT_FROM_CAD_STAND
 70
     0
  0
APPID
  5
1FE7A
330
9
100
AcDbSymbolTableRecord
100
AcDbRegAppTableRecord
  2
ACDBBLOCKREPETAG
 70
     0
  0
APPID
  5
20672
330
9
100
AcDbSymbolTableRecord
100
AcDbRegAppTableRecord
  2
ACAD_OBJECT_CHANGE_GUID
 70
     0
  0
ENDTAB
  0
TABLE
  2
DIMSTYLE
  5
A
330
0
100
AcDbSymbolTable
 70
     1
  0
DIMSTYLE
105
48
330
A
100
AcDbSymbolTableRecord
100
AcDbDimStyleTableRecord
  2
NEWX10
 70
     0
  3
 
  4

  5

  6
OPEN30
  7
OPEN30
 40
1.0
 41
2.0
 42
0.0
 43
7.0
 44
1.0
 45
0.0
 46
0.0
 47
0.0
 48
0.0
140
3.5
141
0.0
142
0.0
143
25.4
144
1.0
145
0.0
146
0.7
147
0.7
 71
     0
 72
     0
 73
     0
 74
     0
 75
     0
 76
     0
 77
     1
 78
     8
170
     0
171
     2
172
     1
173
     1
174
     0
175
     0
176
   256
177
   256
178
   201
179
     2
270
     2
271
     2
272
     4
273
     2
274
     2
340
F
275
     0
280
     0
281
     0
282
     0
283
     1
284
     8
285
     0
286
     0
287
     2
288
     0
  0
ENDTAB
  0
TABLE
  2
BLOCK_RECORD
  5
1
330
0
100
AcDbSymbolTable
 70
     8
  0
BLOCK_RECORD
  5
18
102
{ACAD_XDICTIONARY
360
6E9
102
}
330
1
100
AcDbSymbolTableRecord
100
AcDbBlockTableRecord
  2
*MODEL_SPACE
  0
BLOCK_RECORD
  5
15
102
{ACAD_XDICTIONARY
360
59B
102
}
330
1
100
AcDbSymbolTableRecord
100
AcDbBlockTableRecord
  2
*PAPER_SPACE
  0
BLOCK_RECORD
  5
42
330
1
100
AcDbSymbolTableRecord
100
AcDbBlockTableRecord
  2
_OPEN30
  0
BLOCK_RECORD
  5
1FEC9
330
1
100
AcDbSymbolTableRecord
100
AcDbBlockTableRecord
  2
A3WAKUKAWAJUN2017_HYOUDAI_
  0
BLOCK_RECORD
  5
21CD3
330
1
100
AcDbSymbolTableRecord
100
AcDbBlockTableRecord
  2
*X157
  0
BLOCK_RECORD
  5
21D21
330
1
100
AcDbSymbolTableRecord
100
AcDbBlockTableRecord
  2
*X158
  0
BLOCK_RECORD
  5
21D73
330
1
100
AcDbSymbolTableRecord
100
AcDbBlockTableRecord
  2
*X159
  0
BLOCK_RECORD
  5
21DC4
330
1
100
AcDbSymbolTableRecord
100
AcDbBlockTableRecord
  2
*X160
  0
BLOCK_RECORD
  5
21E01
330
1
100
AcDbSymbolTableRecord
100
AcDbBlockTableRecord
  2
*X161
  0
BLOCK_RECORD
  5
21E41
330
1
100
AcDbSymbolTableRecord
100
AcDbBlockTableRecord
  2
*X162
  0
ENDTAB
  0
ENDSEC
  0
SECTION
  2
BLOCKS
  0
BLOCK
  5
19
330
18
100
AcDbEntity
  8
0
100
AcDbBlockBegin
  2
*MODEL_SPACE
 70
     0
 10
0.0
 20
0.0
 30
0.0
  3
*MODEL_SPACE
  1

  0
ENDBLK
  5
1A
330
18
100
AcDbEntity
  8
0
100
AcDbBlockEnd
  0
BLOCK
  5
16
330
15
100
AcDbEntity
 67
     1
  8
0
100
AcDbBlockBegin
  2
*PAPER_SPACE
 70
     0
 10
0.0
 20
0.0
 30
0.0
  3
*PAPER_SPACE
  1

  0
ENDBLK
  5
17
330
15
100
AcDbEntity
 67
     1
  8
0
100
AcDbBlockEnd
  0
BLOCK
  5
43
330
42
100
AcDbEntity
  8
0
100
AcDbBlockBegin
  2
_OPEN30
 70
     0
 10
0.0
 20
0.0
 30
0.0
  3
_OPEN30
  1

  0
LINE
  5
44
330
42
100
AcDbEntity
  8
0
  6
BYBLOCK
 62
     0
100
AcDbLine
 10
-1.0
 20
0.26794919
 30
0.0
 11
0.0
 21
0.0
 31
0.0
  0
LINE
  5
45
330
42
100
AcDbEntity
  8
0
  6
BYBLOCK
 62
     0
100
AcDbLine
 10
0.0
 20
0.0
 30
0.0
 11
-1.0
 21
-0.26794919
 31
0.0
  0
LINE
  5
46
330
42
100
AcDbEntity
  8
0
  6
BYBLOCK
 62
     0
100
AcDbLine
 10
0.0
 20
0.0
 30
0.0
 11
-1.0
 21
0.0
 31
0.0
  0
ENDBLK
  5
47
330
42
100
AcDbEntity
  8
0
100
AcDbBlockEnd
  0
BLOCK
  5
205D5
330
1FEC9
100
AcDbEntity
  8
0
100
AcDbBlockBegin
  2
A3WAKUKAWAJUN2017_HYOUDAI_
 70
     0
 10
0.0
 20
0.0
 30
0.0
  3
A3WAKUKAWAJUN2017_HYOUDAI_
  1

  0
LINE
  5
1FECB
330
1FEC9
100
AcDbEntity
  8
0
100
AcDbLine
 10
13.26299999998673
 20
-0.0001000000000317
 30
0.0
 11
9.236999999990758
 21
8.999899999990987
 31
0.0
1001
ACAD
1000
ASC_BOUNDS
1002
{
1070
    19
1005
1FF0C
1002
}
  0
LINE
  5
1FECC
330
1FEC9
100
AcDbEntity
  8
0
100
AcDbLine
 10
5.657999999994331
 20
0.9999999999989768
 30
0.0
 11
9.236999999990758
 21
8.999999999991019
 31
0.0
1001
ACAD
1000
ASC_BOUNDS
1002
{
1070
    19
1005
1FF0C
1002
}
  0
LINE
  5
1FECD
330
1FEC9
100
AcDbEntity
  8
0
100
AcDbLine
 10
18.59199999998134
 20
-0.2368999999997641
 30
0.0
 11
16.46099999998353
 21
5.432899999994561
 31
0.0
1001
ACAD
1000
ASC_BOUNDS
1002
{
1070
    19
1005
1FF0D
1002
}
  0
LINE
  5
1FECE
330
1FEC9
100
AcDbEntity
  8
0
100
AcDbLine
 10
18.59199999998134
 20
-0.2368999999997641
 30
0.0
 11
22.38199999997767
 21
8.763099999991255
 31
0.0
1001
ACAD
1000
ASC_BOUNDS
1002
{
1070
    19
1005
1FF0D
1002
}
  0
LINE
  5
1FECF
330
1FEC9
100
AcDbEntity
  8
0
100
AcDbLine
 10
14.32899999998563
 20
-0.2368999999997641
 30
0.0
 11
16.46099999998353
 21
5.432899999994561
 31
0.0
1001
ACAD
1000
ASC_BOUNDS
1002
{
1070
    19
1005
1FF0D
1002
}
  0
LINE
  5
1FED0
330
1FEC9
100
AcDbEntity
  8
0
100
AcDbLine
 10
14.32899999998563
 20
-0.2368999999997641
 30
0.0
 11
10.53899999998941
 21
8.763099999991255
 31
0.0
1001
ACAD
1000
ASC_BOUNDS
1002
{
1070
    19
1005
1FF0D
1002
}
  0
LINE
  5
1FED1
330
1FEC9
100
AcDbEntity
  8
0
100
AcDbLine
 10
19.53899999998043
 20
-0.0001000000000317
 30
0.0
 11
23.56599999997638
 21
8.999899999990987
 31
0.0
1001
ACAD
1000
ASC_BOUNDS
1002
{
1070
    19
1005
1FF0E
1002
}
  0
LINE
  5
1FED2
330
1FEC9
100
AcDbEntity
  8
0
100
AcDbLine
 10
26.97358892824991
 20
1.383099999991202
 30
0.0
 11
23.56599999997638
 21
8.999899999990987
 31
0.0
1001
ACAD
1000
ASC_BOUNDS
1002
{
1070
    19
1005
1FF0E
1002
}
  0
LINE
  5
1FED3
330
1FEC9
100
AcDbEntity
  8
0
100
AcDbLine
 10
5.657999999994331
 20
0.9999999999989768
 30
0.0
 11
3.181999999996833
 21
4.668599999995308
 31
0.0
1001
ACAD
1000
ASC_BOUNDS
1002
{
1070
    19
1005
1FF0C
1002
}
  0
LINE
  5
1FED4
330
1FEC9
100
AcDbEntity
  8
0
100
AcDbLine
 10
4.617999999995391
 20
-0.0001000000000317
 30
0.0
 11
1.420999999998571
 21
4.736799999995242
 31
0.0
1001
ACAD
1000
ASC_BOUNDS
1002
{
1070
    19
1005
1FF0C
1002
}
  0
LINE
  5
1FED5
330
1FEC9
100
AcDbEntity
  8
0
100
AcDbLine
 10
1.420999999998571
 20
8.763099999991255
 30
0.0
 11
1.420999999998571
 21
0.0
 31
0.0
1001
ACAD
1000
ASC_BOUNDS
1002
{
1070
    19
1005
1FF11
1002
}
  0
LINE
  5
1FED6
330
1FEC9
100
AcDbEntity
  8
0
100
AcDbLine
 10
0.0
 20
8.763099999991255
 30
0.0
 11
0.0
 21
0.0
 31
0.0
1001
ACAD
1000
ASC_BOUNDS
1002
{
1070
    19
1005
1FF11
1002
}
  0
LINE
  5
1FED7
330
1FEC9
100
AcDbEntity
  8
0
100
AcDbLine
 10
6.766999999993232
 20
-0.0001000000000317
 30
0.0
 11
7.826999999992154
 21
2.368399999997621
 31
0.0
1001
ACAD
1000
ASC_BOUNDS
1002
{
1070
    19
1005
1FF0C
1002
}
  0
LINE
  5
1FED8
330
1FEC9
100
AcDbEntity
  8
0
100
AcDbLine
 10
0.0
 20
0.0
 30
0.0
 11
1.420999999998571
 21
0.0
 31
0.0
1001
ACAD
1000
ASC_BOUNDS
1002
{
1070
    19
1005
1FF11
1002
}
  0
LINE
  5
1FED9
330
1FEC9
100
AcDbEntity
  8
0
100
AcDbLine
 10
4.617999999995391
 20
0.0
 30
0.0
 11
6.766999999993232
 21
0.0
 31
0.0
1001
ACAD
1000
ASC_BOUNDS
1002
{
1070
    19
1005
1FF0C
1002
}
  0
LINE
  5
1FEDA
330
1FEC9
100
AcDbEntity
  8
0
100
AcDbLine
 10
11.70599999998831
 20
-0.0001000000000317
 30
0.0
 11
10.64699999998936
 21
2.368399999997621
 31
0.0
1001
ACAD
1000
ASC_BOUNDS
1002
{
1070
    19
1005
1FF0C
1002
}
  0
LINE
  5
1FEDB
330
1FEC9
100
AcDbEntity
  8
0
100
AcDbLine
 10
7.826999999992154
 20
2.368399999997621
 30
0.0
 11
10.64699999998936
 21
2.368399999997621
 31
0.0
1001
ACAD
1000
ASC_BOUNDS
1002
{
1070
    19
1005
1FF0C
1002
}
  0
LINE
  5
1FEDC
330
1FEC9
100
AcDbEntity
  8
0
100
AcDbLine
 10
11.70599999998831
 20
0.0
 30
0.0
 11
13.26299999998673
 21
0.0
 31
0.0
1001
ACAD
1000
ASC_BOUNDS
1002
{
1070
    19
1005
1FF0C
1002
}
  0
LINE
  5
1FEDD
330
1FEC9
100
AcDbEntity
  8
0
100
AcDbLine
 10
22.15599999997789
 20
2.368399999997621
 30
0.0
 11
24.97599999997499
 21
2.368399999997621
 31
0.0
1001
ACAD
1000
ASC_BOUNDS
1002
{
1070
    19
1005
1FF0E
1002
}
  0
LINE
  5
1FEDE
330
1FEC9
100
AcDbEntity
  8
0
100
AcDbLine
 10
19.53899999998043
 20
0.0
 30
0.0
 11
21.09599999997886
 21
0.0
 31
0.0
1001
ACAD
1000
ASC_BOUNDS
1002
{
1070
    19
1005
1FF0E
1002
}
  0
LINE
  5
1FEDF
330
1FEC9
100
AcDbEntity
  8
0
100
AcDbLine
 10
21.09599999997886
 20
-0.0001000000000317
 30
0.0
 11
22.15599999997789
 21
2.368399999997621
 31
0.0
1001
ACAD
1000
ASC_BOUNDS
1002
{
1070
    19
1005
1FF0E
1002
}
  0
LINE
  5
1FEE0
330
1FEC9
100
AcDbEntity
  8
0
100
AcDbLine
 10
26.02015566812236
 20
0.0330999999912365
 30
0.0
 11
24.97599999997499
 21
2.368399999997621
 31
0.0
1001
ACAD
1000
ASC_BOUNDS
1002
{
1070
    19
1005
1FF0E
1002
}
  0
LINE
  5
1FEE1
330
1FEC9
100
AcDbEntity
  8
0
100
AcDbLine
 10
14.32399999998563
 20
3.315799999996671
 30
0.0
 11
16.46099999998353
 21
8.999899999990987
 31
0.0
1001
ACAD
1000
ASC_BOUNDS
1002
{
1070
    19
1005
1FF0D
1002
}
  0
LINE
  5
1FEE2
330
1FEC9
100
AcDbEntity
  8
0
100
AcDbLine
 10
6.432999999993513
 20
8.763099999991255
 30
0.0
 11
3.181999999996833
 21
4.668599999995308
 31
0.0
1001
ACAD
1000
ASC_BOUNDS
1002
{
1070
    19
1005
1FF0C
1002
}
  0
LINE
  5
1FEE3
330
1FEC9
100
AcDbEntity
  8
0
100
AcDbLine
 10
4.617999999995391
 20
8.763099999991255
 30
0.0
 11
1.420999999998571
 21
4.736799999995242
 31
0.0
1001
ACAD
1000
ASC_BOUNDS
1002
{
1070
    19
1005
1FF0C
1002
}
  0
LINE
  5
1FEE4
330
1FEC9
100
AcDbEntity
  8
0
100
AcDbLine
 10
0.0
 20
8.763099999991255
 30
0.0
 11
1.420999999998571
 21
8.763099999991255
 31
0.0
1001
ACAD
1000
ASC_BOUNDS
1002
{
1070
    19
1005
1FF11
1002
}
  0
LINE
  5
1FEE5
330
1FEC9
100
AcDbEntity
  8
0
100
AcDbLine
 10
4.617999999995391
 20
8.763099999991255
 30
0.0
 11
6.432999999993513
 21
8.763099999991255
 31
0.0
1001
ACAD
1000
ASC_BOUNDS
1002
{
1070
    19
1005
1FF0C
1002
}
  0
LINE
  5
1FEE6
330
1FEC9
100
AcDbEntity
  8
0
100
AcDbLine
 10
14.32399999998563
 20
3.315799999996671
 30
0.0
 11
12.02999999998792
 21
8.763099999991255
 31
0.0
1001
ACAD
1000
ASC_BOUNDS
1002
{
1070
    19
1005
1FF0D
1002
}
  0
LINE
  5
1FEE7
330
1FEC9
100
AcDbEntity
  8
0
100
AcDbLine
 10
10.06399999998996
 20
3.670999999996297
 30
0.0
 11
9.236999999990758
 21
5.5200999999945
 31
0.0
1001
ACAD
1000
ASC_BOUNDS
1002
{
1070
    19
1005
1FF0C
1002
}
  0
LINE
  5
1FEE8
330
1FEC9
100
AcDbEntity
  8
0
100
AcDbLine
 10
8.409999999991555
 20
3.670999999996297
 30
0.0
 11
9.236999999990758
 21
5.5200999999945
 31
0.0
1001
ACAD
1000
ASC_BOUNDS
1002
{
1070
    19
1005
1FF0C
1002
}
  0
LINE
  5
1FEE9
330
1FEC9
100
AcDbEntity
  8
0
100
AcDbLine
 10
8.409999999991555
 20
3.670999999996297
 30
0.0
 11
10.06399999998996
 21
3.670999999996297
 31
0.0
1001
ACAD
1000
ASC_BOUNDS
1002
{
1070
    19
1005
1FF0C
1002
}
  0
LINE
  5
1FEEA
330
1FEC9
100
AcDbEntity
  8
0
100
AcDbLine
 10
10.53899999998941
 20
8.763099999991255
 30
0.0
 11
12.02999999998792
 21
8.763099999991255
 31
0.0
1001
ACAD
1000
ASC_BOUNDS
1002
{
1070
    19
1005
1FF0D
1002
}
  0
LINE
  5
1FEEB
330
1FEC9
100
AcDbEntity
  8
0
100
AcDbLine
 10
22.7389999999773
 20
3.670999999996297
 30
0.0
 11
23.56599999997638
 21
5.5200999999945
 31
0.0
1001
ACAD
1000
ASC_BOUNDS
1002
{
1070
    19
1005
1FF0E
1002
}
  0
LINE
  5
1FEEC
330
1FEC9
100
AcDbEntity
  8
0
100
AcDbLine
 10
22.7389999999773
 20
3.670999999996297
 30
0.0
 11
24.39299999997559
 21
3.670999999996297
 31
0.0
1001
ACAD
1000
ASC_BOUNDS
1002
{
1070
    19
1005
1FF0E
1002
}
  0
LINE
  5
1FEED
330
1FEC9
100
AcDbEntity
  8
0
100
AcDbLine
 10
18.59799999998143
 20
3.315799999996671
 30
0.0
 11
20.89099999997916
 21
8.763099999991255
 31
0.0
1001
ACAD
1000
ASC_BOUNDS
1002
{
1070
    19
1005
1FF0D
1002
}
  0
LINE
  5
1FEEE
330
1FEC9
100
AcDbEntity
  8
0
100
AcDbLine
 10
18.59799999998143
 20
3.315799999996671
 30
0.0
 11
16.46099999998353
 21
8.999899999990987
 31
0.0
1001
ACAD
1000
ASC_BOUNDS
1002
{
1070
    19
1005
1FF0D
1002
}
  0
LINE
  5
1FEEF
330
1FEC9
100
AcDbEntity
  8
0
100
AcDbLine
 10
20.89099999997916
 20
8.763099999991255
 30
0.0
 11
22.38199999997767
 21
8.763099999991255
 31
0.0
1001
ACAD
1000
ASC_BOUNDS
1002
{
1070
    19
1005
1FF0D
1002
}
  0
LINE
  5
1FEF0
330
1FEC9
100
AcDbEntity
  8
0
100
AcDbLine
 10
24.39299999997559
 20
3.670999999996297
 30
0.0
 11
23.56599999997638
 21
5.5200999999945
 31
0.0
1001
ACAD
1000
ASC_BOUNDS
1002
{
1070
    19
1005
1FF0E
1002
}
  0
LINE
  5
1FEF1
330
1FEC9
100
AcDbEntity
  8
0
100
AcDbLine
 10
44.99999999995498
 20
-0.2368999999997641
 30
0.0
 11
40.02599999995994
 21
5.341799999994635
 31
0.0
1001
ACAD
1000
ASC_BOUNDS
1002
{
1070
    19
1005
1FF10
1002
}
  0
LINE
  5
1FEF2
330
1FEC9
100
AcDbEntity
  8
0
100
AcDbLine
 10
40.02599999995994
 20
5.341799999994635
 30
0.0
 11
40.02599999995994
 21
0.0
 31
0.0
1001
ACAD
1000
ASC_BOUNDS
1002
{
1070
    19
1005
1FF10
1002
}
  0
LINE
  5
1FEF3
330
1FEC9
100
AcDbEntity
  8
0
100
AcDbLine
 10
38.60499999996136
 20
8.999999999991019
 30
0.0
 11
38.60499999996136
 21
0.0
 31
0.0
1001
ACAD
1000
ASC_BOUNDS
1002
{
1070
    19
1005
1FF10
1002
}
  0
LINE
  5
1FEF4
330
1FEC9
100
AcDbEntity
  8
0
100
AcDbLine
 10
44.99999999995498
 20
8.763099999991255
 30
0.0
 11
44.99999999995498
 21
-0.2368999999997641
 31
0.0
1001
ACAD
1000
ASC_BOUNDS
1002
{
1070
    19
1005
1FF10
1002
}
  0
LINE
  5
1FEF5
330
1FEC9
100
AcDbEntity
  8
0
100
AcDbLine
 10
38.60499999996136
 20
0.0
 30
0.0
 11
40.02599999995994
 21
0.0
 31
0.0
1001
ACAD
1000
ASC_BOUNDS
1002
{
1070
    19
1005
1FF10
1002
}
  0
LINE
  5
1FEF6
330
1FEC9
100
AcDbEntity
  8
0
100
AcDbLine
 10
43.57899999995641
 20
3.421199999996588
 30
0.0
 11
38.60499999996136
 21
8.999899999990987
 31
0.0
1001
ACAD
1000
ASC_BOUNDS
1002
{
1070
    19
1005
1FF10
1002
}
  0
LINE
  5
1FEF7
330
1FEC9
100
AcDbEntity
  8
0
100
AcDbLine
 10
43.57899999995641
 20
8.763099999991255
 30
0.0
 11
43.57899999995641
 21
3.421199999996588
 31
0.0
1001
ACAD
1000
ASC_BOUNDS
1002
{
1070
    19
1005
1FF10
1002
}
  0
LINE
  5
1FEF8
330
1FEC9
100
AcDbEntity
  8
0
100
AcDbLine
 10
43.57899999995641
 20
8.763099999991255
 30
0.0
 11
44.99999999995498
 21
8.763099999991255
 31
0.0
1001
ACAD
1000
ASC_BOUNDS
1002
{
1070
    19
1005
1FF10
1002
}
  0
LINE
  5
1FEF9
330
1FEC9
100
AcDbEntity
  8
0
100
AcDbLine
 10
37.67199999996831
 20
8.763099999991255
 30
0.0
 11
36.23199999996837
 21
8.763099999991255
 31
0.0
  0
LINE
  5
1FEFA
330
1FEC9
100
AcDbEntity
  8
0
100
AcDbLine
 10
31.64199999996833
 20
8.763099999991255
 30
0.0
 11
31.64199999996833
 21
2.481619422925121
 31
0.0
  0
LINE
  5
1FEFB
330
1FEC9
100
AcDbEntity
  8
0
100
AcDbLine
 10
37.67199999996831
 20
8.763099999991255
 30
0.0
 11
37.67199999996831
 21
2.481619422925121
 31
0.0
  0
LINE
  5
1FEFC
330
1FEC9
100
AcDbEntity
  8
0
100
AcDbLine
 10
36.23199999996837
 20
8.763099999991255
 30
0.0
 11
36.23199999996837
 21
2.481619422925064
 31
0.0
  0
LINE
  5
1FEFD
330
1FEC9
100
AcDbEntity
  8
0
100
AcDbLine
 10
33.08199999996839
 20
8.763099999991255
 30
0.0
 11
33.08199999996839
 21
2.481619422925121
 31
0.0
  0
ARC
  5
1FEFE
330
1FEC9
100
AcDbEntity
  8
0
100
AcDbCircle
 10
34.65699999996832
 20
3.183099999991214
 30
0.0
 40
3.420000000000007
100
AcDbArc
 50
240.0000000000255
 51
299.9999999999766
  0
ARC
  5
1FEFF
330
1FEC9
100
AcDbEntity
  8
0
100
AcDbCircle
 10
34.65699999996832
 20
3.183099999991214
 30
0.0
 40
1.97999999999999
100
AcDbArc
 50
240.000000000026
 51
299.9999999999703
  0
LINE
  5
1FF00
330
1FEC9
100
AcDbEntity
  8
0
100
AcDbLine
 10
33.08199999996828
 20
8.763099999991255
 30
0.0
 11
31.64199999996833
 21
8.763099999991255
 31
0.0
  0
ARC
  5
1FF01
330
1FEC9
100
AcDbEntity
  8
0
100
AcDbCircle
 10
35.06199999996829
 20
2.481619422925064
 30
0.0
 40
1.17
100
AcDbArc
 50
299.9999999999699
 51
0.0
  0
ARC
  5
1FF02
330
1FEC9
100
AcDbEntity
  8
0
100
AcDbCircle
 10
34.25199999996835
 20
2.481619422925121
 30
0.0
 40
1.17
100
AcDbArc
 50
180.0
 51
240.0000000000238
  0
ARC
  5
1FF03
330
1FEC9
100
AcDbEntity
  8
0
100
AcDbCircle
 10
35.06199999996841
 20
2.481619422925121
 30
0.0
 40
2.61
100
AcDbArc
 50
299.9999999999756
 51
0.0
  0
ARC
  5
1FF04
330
1FEC9
100
AcDbEntity
  8
0
100
AcDbCircle
 10
34.25199999996835
 20
2.481619422925121
 30
0.0
 40
2.61
100
AcDbArc
 50
180.0
 51
240.0000000000244
  0
LINE
  5
1FF05
330
1FEC9
100
AcDbEntity
  8
0
100
AcDbLine
 10
29.30199999996933
 20
8.763099999991255
 30
0.0
 11
30.74199999996927
 21
8.763099999991255
 31
0.0
1001
ACAD
1000
ASC_BOUNDS
1002
{
1070
    19
1005
1FF0E
1002
}
  0
LINE
  5
1FF06
330
1FEC9
100
AcDbEntity
  8
0
100
AcDbLine
 10
30.74199999996927
 20
8.763099999991255
 30
0.0
 11
30.74199999996927
 21
2.373099999991211
 31
0.0
1001
ACAD
1000
ASC_BOUNDS
1002
{
1070
    19
1005
1FF0E
1002
}
  0
LINE
  5
1FF07
330
1FEC9
100
AcDbEntity
  8
0
100
AcDbLine
 10
26.02015566812236
 20
0.0330999999912365
 30
0.0
 11
28.40199999996923
 21
0.0330999999912365
 31
0.0
1001
ACAD
1000
ASC_BOUNDS
1002
{
1070
    19
1005
1FF0E
1002
}
  0
LINE
  5
1FF08
330
1FEC9
100
AcDbEntity
  8
0
100
AcDbLine
 10
29.30199999996933
 20
8.763099999991255
 30
0.0
 11
29.30199999996933
 21
2.283099999991236
 31
0.0
1001
ACAD
1000
ASC_BOUNDS
1002
{
1070
    19
1005
1FF0E
1002
}
  0
LINE
  5
1FF09
330
1FEC9
100
AcDbEntity
  8
0
100
AcDbLine
 10
26.97358892824991
 20
1.383099999991202
 30
0.0
 11
28.40199999996923
 21
1.383099999991202
 31
0.0
1001
ACAD
1000
ASC_BOUNDS
1002
{
1070
    19
1005
1FF0E
1002
}
  0
ARC
  5
1FF0A
330
1FEC9
100
AcDbEntity
  8
0
100
AcDbCircle
 10
28.40199999996923
 20
2.283099999991236
 30
0.0
 40
0.9
100
AcDbArc
 50
270.0
 51
0.0
1001
ACAD
1000
ASC_BOUNDS
1002
{
1070
    19
1005
1FF0E
1002
}
  0
ARC
  5
1FF0B
330
1FEC9
100
AcDbEntity
  8
0
100
AcDbCircle
 10
28.40199999996923
 20
2.373099999991211
 30
0.0
 40
2.34
100
AcDbArc
 50
270.0
 51
0.0
1001
ACAD
1000
ASC_BOUNDS
1002
{
1070
    19
1005
1FF0E
1002
}
  0
INSERT
  5
1FF0C
330
1FEC9
100
AcDbEntity
  8
0
100
AcDbBlockReference
  2
*X157
 10
0.0
 20
0.0
 30
0.0
1001
ACAD
1000
HATCH
1002
{
1070
    19
1000
ANSI37
1040
0.15
1040
0.0
1000
ASC_BOUNDS
1070
     2
1070
     2
1070
    12
1005
1FECB
1005
1FECC
1005
1FED3
1005
1FEE2
1005
1FEE5
1005
1FEE3
1005
1FED4
1005
1FED9
1005
1FED7
1005
1FEDB
1005
1FEDA
1005
1FEDC
1070
     2
1070
     3
1005
1FEE7
1005
1FEE9
1005
1FEE8
1000
ASC_SEEDPOINT
1011
3.614004224891801
1021
2.996669441146025
1031
0.0
1000
R14_HATCH_DATA
1000
1FF0C
1011
1.0
1021
0.0
1031
0.0
1011
0.0
1021
1.0
1031
0.0
1011
0.0
1021
0.0
1031
1.0
1040
0.0
1010
0.0
1020
0.0
1030
1.0
1000
ANSI37
1070
     0
1070
     1
1071
        2
1071
        7
1070
     0
1070
     1
1071
       17
1040
13.26299999998673
1040
-0.0001000000000317
1040
9.236999999990758
1040
8.999899999990987
1040
9.236999999990758
1040
8.999999999991019
1040
5.657999999994331
1040
0.9999999999989768
1040
3.181999999996833
1040
4.668599999995308
1040
6.432999999993513
1040
8.763099999991255
1040
4.617999999995391
1040
8.763099999991255
1040
1.420999999998571
1040
4.736799999995242
1040
4.617999999995391
1040
-0.0001000000000317
1040
4.617999999995391
1040
0.0
1040
6.766999999993232
1040
0.0
1040
6.766999999993232
1040
-0.0001000000000317
1040
7.826999999992154
1040
2.368399999997621
1040
10.64699999998936
1040
2.368399999997621
1040
11.70599999998831
1040
-0.0001000000000317
1040
11.70599999998831
1040
0.0
1040
13.26299999998673
1040
0.0
1071
       12
1005
1FECB
1005
1FECC
1005
1FED3
1005
1FEE2
1005
1FEE5
1005
1FEE3
1005
1FED4
1005
1FED9
1005
1FED7
1005
1FEDB
1005
1FEDA
1005
1FEDC
1071
       22
1070
     0
1070
     1
1071
        3
1040
9.236999999990758
1040
5.5200999999945
1040
10.06399999998996
1040
3.670999999996297
1040
8.409999999991555
1040
3.670999999996297
1071
        3
1005
1FEE7
1005
1FEE9
1005
1FEE8
1070
     0
1070
     1
1040
0.0
1040
0.15
1070
     0
1070
     2
1040
0.7853981633974483
1040
49.29960901727088
1040
-10.17736998311392
1040
-0.3367596045400932
1040
0.3367596045400932
1070
     0
1040
2.356194490192345
1040
49.29960901727088
1040
-10.17736998311392
1040
-0.3367596045400932
1040
-0.3367596045400932
1070
     0
1040
0.0110235143455945
1071
        2
1040
3.614004224891801
1040
2.996669441146025
1040
0.0
1040
3.614004224891801
1040
2.996669441146025
1040
0.0
1002
}
  0
INSERT
  5
1FF0D
330
1FEC9
100
AcDbEntity
  8
0
100
AcDbBlockReference
  2
*X158
 10
0.0
 20
0.0
 30
0.0
1001
ACAD
1000
HATCH
1002
{
1070
    19
1000
ANSI37
1040
0.15
1040
0.0
1000
ASC_BOUNDS
1070
     1
1070
     2
1070
    10
1005
1FECD
1005
1FECE
1005
1FEEF
1005
1FEED
1005
1FEEE
1005
1FEE1
1005
1FEE6
1005
1FEEA
1005
1FED0
1005
1FECF
1000
ASC_SEEDPOINT
1011
14.73245321214324
1021
2.798246178283421
1031
0.0
1000
R14_HATCH_DATA
1000
1FF0D
1011
1.0
1021
0.0
1031
0.0
1011
0.0
1021
1.0
1031
0.0
1011
0.0
1021
0.0
1031
1.0
1040
0.0
1010
0.0
1020
0.0
1030
1.0
1000
ANSI37
1070
     0
1070
     1
1071
        1
1071
        7
1070
     0
1070
     1
1071
       10
1040
16.46099999998353
1040
5.432899999994561
1040
18.59199999998134
1040
-0.2368999999997641
1040
22.38199999997767
1040
8.763099999991255
1040
20.89099999997916
1040
8.763099999991255
1040
18.59799999998143
1040
3.315799999996671
1040
16.46099999998353
1040
8.999899999990987
1040
14.32399999998563
1040
3.315799999996671
1040
12.02999999998792
1040
8.763099999991255
1040
10.53899999998941
1040
8.763099999991255
1040
14.32899999998563
1040
-0.2368999999997641
1071
       10
1005
1FECD
1005
1FECE
1005
1FEEF
1005
1FEED
1005
1FEEE
1005
1FEE1
1005
1FEE6
1005
1FEEA
1005
1FED0
1005
1FECF
1070
     0
1070
     1
1040
0.0
1040
0.15
1070
     0
1070
     2
1040
0.7853981633974483
1040
49.29960901727088
1040
-10.17736998311392
1040
-0.3367596045400932
1040
0.3367596045400932
1070
     0
1040
2.356194490192345
1040
49.29960901727088
1040
-10.17736998311392
1040
-0.3367596045400932
1040
-0.3367596045400932
1070
     0
1040
0.0110235143455945
1071
        1
1040
14.73245321214324
1040
2.798246178283421
1040
0.0
1002
}
  0
INSERT
  5
1FF0E
330
1FEC9
100
AcDbEntity
  8
0
100
AcDbBlockReference
  2
*X159
 10
0.0
 20
0.0
 30
0.0
1001
ACAD
1000
HATCH
1002
{
1070
    19
1000
ANSI37
1040
0.15
1040
0.0
1000
ASC_BOUNDS
1070
     2
1070
     2
1070
    13
1005
1FED1
1005
1FEDE
1005
1FEDF
1005
1FEDD
1005
1FEE0
1005
1FF07
1005
1FF0B
1005
1FF06
1005
1FF05
1005
1FF08
1005
1FF0A
1005
1FF09
1005
1FED2
1070
     2
1070
     3
1005
1FEEB
1005
1FEF0
1005
1FEEC
1000
ASC_SEEDPOINT
1011
21.97929957367762
1021
3.294304244259308
1031
0.0
1000
R14_HATCH_DATA
1000
1FF0E
1011
1.0
1021
0.0
1031
0.0
1011
0.0
1021
1.0
1031
0.0
1011
0.0
1021
0.0
1031
1.0
1040
0.0
1010
0.0
1020
0.0
1030
1.0
1000
ANSI37
1070
     0
1070
     1
1071
        2
1071
        7
1070
     1
1070
     1
1071
       15
1040
23.56599999997638
1040
8.999899999990987
1040
0.0
1040
19.53899999998043
1040
-0.0001000000000317
1040
0.0
1040
19.53899999998043
1040
0.0
1040
0.0
1040
21.09599999997886
1040
0.0
1040
0.0
1040
21.09599999997886
1040
-0.0001000000000317
1040
0.0
1040
22.15599999997789
1040
2.368399999997621
1040
0.0
1040
24.97599999997499
1040
2.368399999997621
1040
0.0
1040
26.02015566812236
1040
0.0330999999912365
1040
0.0
1040
28.40199999996923
1040
0.0330999999912365
1040
0.414213562373095
1040
30.74199999996923
1040
2.373099999991211
1040
0.0
1040
30.74199999996927
1040
8.763099999991255
1040
0.0
1040
29.30199999996933
1040
8.763099999991255
1040
0.0
1040
29.30199999996933
1040
2.283099999991236
1040
-0.414213562373095
1040
28.40199999996923
1040
1.383099999991237
1040
0.0
1040
26.97358892824991
1040
1.383099999991202
1040
0.0
1071
       13
1005
1FED1
1005
1FEDE
1005
1FEDF
1005
1FEDD
1005
1FEE0
1005
1FF07
1005
1FF0B
1005
1FF06
1005
1FF05
1005
1FF08
1005
1FF0A
1005
1FF09
1005
1FED2
1071
       22
1070
     0
1070
     1
1071
        3
1040
22.7389999999773
1040
3.670999999996297
1040
23.56599999997638
1040
5.5200999999945
1040
24.39299999997559
1040
3.670999999996297
1071
        3
1005
1FEEB
1005
1FEF0
1005
1FEEC
1070
     0
1070
     1
1040
0.0
1040
0.15
1070
     0
1070
     2
1040
0.7853981633974483
1040
49.29960901727088
1040
-10.17736998311392
1040
-0.3367596045400932
1040
0.3367596045400932
1070
     0
1040
2.356194490192345
1040
49.29960901727088
1040
-10.17736998311392
1040
-0.3367596045400932
1040
-0.3367596045400932
1070
     0
1040
0.0110235143455945
1071
        2
1040
21.97929957367762
1040
3.294304244259308
1040
0.0
1040
21.97929957367762
1040
3.294304244259308
1040
0.0
1002
}
  0
INSERT
  5
1FF0F
330
1FEC9
100
AcDbEntity
  8
0
100
AcDbBlockReference
  2
*X160
 10
0.0
 20
0.0
 30
0.0
1001
ACAD
1000
HATCH
1002
{
1070
    19
1000
ANSI37
1040
0.15
1040
0.0
1000
R14_HATCH_DATA
1000
1FF0F
1011
1.0
1021
0.0
1031
0.0
1011
0.0
1021
1.0
1031
0.0
1011
0.0
1021
0.0
1031
1.0
1040
0.0
1010
0.0
1020
0.0
1030
1.0
1000
ANSI37
1070
     0
1070
     1
1071
        1
1071
        7
1070
     1
1070
     1
1071
       12
1040
31.64199999996833
1040
2.481619422925121
1040
0.2679491924310942
1040
32.94699999997067
1040
0.2212931190493919
1040
0.2679491924301353
1040
36.36699999995983
1040
0.2212931190459813
1040
0.2679491924321411
1040
37.67199999996831
1040
2.481619422928361
1040
0.0
1040
37.67199999996831
1040
8.763099999991255
1040
0.0
1040
36.23199999996837
1040
8.763099999991255
1040
0.0
1040
36.23199999996837
1040
2.481619422925064
1040
-0.2679491924310291
1040
35.64699999996708
1040
1.468369700498386
1040
-0.267949192430519
1040
33.66699999997093
1040
1.468369700497703
1040
-0.267949192431809
1040
33.08199999996839
1040
2.481619422926997
1040
0.0
1040
33.08199999996839
1040
8.763099999991255
1040
0.0
1040
31.64199999996833
1040
8.763099999991255
1040
0.0
1071
        0
1070
     0
1070
     1
1040
0.0
1040
0.15
1070
     0
1070
     2
1040
0.7853981633974483
1040
49.29960901727088
1040
-10.17736998311392
1040
-0.3367596045400932
1040
0.3367596045400932
1070
     0
1040
2.356194490192345
1040
49.29960901727088
1040
-10.17736998311392
1040
-0.3367596045400932
1040
-0.3367596045400932
1070
     0
1040
0.0110235143455945
1071
        1
1040
32.30357378967278
1040
3.988785755459219
1040
0.0
1002
}
  0
INSERT
  5
1FF10
330
1FEC9
100
AcDbEntity
  8
0
100
AcDbBlockReference
  2
*X161
 10
0.0
 20
0.0
 30
0.0
1001
ACAD
1000
HATCH
1002
{
1070
    19
1000
ANSI37
1040
0.15
1040
0.0
1000
ASC_BOUNDS
1070
     1
1070
     2
1070
     8
1005
1FEF1
1005
1FEF4
1005
1FEF8
1005
1FEF7
1005
1FEF6
1005
1FEF3
1005
1FEF5
1005
1FEF2
1000
ASC_SEEDPOINT
1011
39.74896370716704
1021
4.484843821435049
1031
0.0
1000
R14_HATCH_DATA
1000
1FF10
1011
1.0
1021
0.0
1031
0.0
1011
0.0
1021
1.0
1031
0.0
1011
0.0
1021
0.0
1031
1.0
1040
0.0
1010
0.0
1020
0.0
1030
1.0
1000
ANSI37
1070
     0
1070
     1
1071
        1
1071
        7
1070
     0
1070
     1
1071
        9
1040
40.02599999995994
1040
5.341799999994635
1040
44.99999999995498
1040
-0.2368999999997641
1040
44.99999999995498
1040
8.763099999991255
1040
43.57899999995641
1040
8.763099999991255
1040
43.57899999995641
1040
3.421199999996588
1040
38.60499999996136
1040
8.999899999990987
1040
38.60499999996136
1040
8.999999999991019
1040
38.60499999996136
1040
0.0
1040
40.02599999995994
1040
0.0
1071
        8
1005
1FEF1
1005
1FEF4
1005
1FEF8
1005
1FEF7
1005
1FEF6
1005
1FEF3
1005
1FEF5
1005
1FEF2
1070
     0
1070
     1
1040
0.0
1040
0.15
1070
     0
1070
     2
1040
0.7853981633974483
1040
49.29960901727088
1040
-10.17736998311392
1040
-0.3367596045400932
1040
0.3367596045400932
1070
     0
1040
2.356194490192345
1040
49.29960901727088
1040
-10.17736998311392
1040
-0.3367596045400932
1040
-0.3367596045400932
1070
     0
1040
0.0110235143455945
1071
        1
1040
39.74896370716704
1040
4.484843821435049
1040
0.0
1002
}
  0
INSERT
  5
1FF11
330
1FEC9
100
AcDbEntity
  8
0
100
AcDbBlockReference
  2
*X162
 10
0.0
 20
0.0
 30
0.0
1001
ACAD
1000
HATCH
1002
{
1070
    19
1000
ANSI37
1040
0.15
1040
0.0
1000
ASC_BOUNDS
1070
     1
1070
     2
1070
     4
1005
1FED5
1005
1FEE4
1005
1FED6
1005
1FED8
1000
ASC_SEEDPOINT
1011
1.079051535452663
1021
4.148538732891836
1031
0.0
1000
R14_HATCH_DATA
1000
1FF11
1011
1.0
1021
0.0
1031
0.0
1011
0.0
1021
1.0
1031
0.0
1011
0.0
1021
0.0
1031
1.0
1040
0.0
1010
0.0
1020
0.0
1030
1.0
1000
ANSI37
1070
     0
1070
     1
1071
        1
1071
        7
1070
     0
1070
     1
1071
        4
1040
1.420999999998571
1040
0.0
1040
1.420999999998571
1040
8.763099999991255
1040
0.0
1040
8.763099999991255
1040
0.0
1040
0.0
1071
        4
1005
1FED5
1005
1FEE4
1005
1FED6
1005
1FED8
1070
     0
1070
     1
1040
0.0
1040
0.15
1070
     0
1070
     2
1040
0.7853981633974483
1040
49.29960901727088
1040
-10.17736998311392
1040
-0.3367596045400932
1040
0.3367596045400932
1070
     0
1040
2.356194490192345
1040
49.29960901727088
1040
-10.17736998311392
1040
-0.3367596045400932
1040
-0.3367596045400932
1070
     0
1040
0.0053004257112761
1071
        1
1040
1.079051535452663
1040
4.148538732891836
1040
0.0
1002
}
  0
ENDBLK
  5
205D6
330
1FEC9
100
AcDbEntity
  8
0
100
AcDbBlockEnd
  0
BLOCK
  5
21E61
330
21CD3
100
AcDbEntity
  8
0
100
AcDbBlockBegin
  2
*X157
 70
     1
 10
0.0
 20
0.0
 30
0.0
  3
*X157
  1

  0
LINE
  5
21CD4
330
21CD3
100
AcDbEntity
  8
0
  6
CONTINUOUS
100
AcDbLine
 10
3.418023043697893
 20
7.251849696850613
 30
0.0
 11
4.929273346838536
 21
8.763099999991255
 31
0.0
  0
LINE
  5
21CD5
330
21CD3
100
AcDbEntity
  8
0
  6
CONTINUOUS
100
AcDbLine
 10
1.483656411257782
 20
4.643963855330318
 30
0.0
 11
5.60279255591872
 21
8.763099999991255
 31
0.0
  0
LINE
  5
21CD6
330
21CD3
100
AcDbEntity
  8
0
  6
CONTINUOUS
100
AcDbLine
 10
1.755053947328235
 20
4.241842182320584
 30
0.0
 11
6.276311764998907
 21
8.763099999991255
 31
0.0
  0
LINE
  5
21CD7
330
21CD3
100
AcDbEntity
  8
0
  6
CONTINUOUS
100
AcDbLine
 10
2.026451483398688
 20
3.839720509310849
 30
0.0
 11
4.441040904851878
 21
6.254309930764039
 31
0.0
  0
LINE
  5
21CD8
330
21CD3
100
AcDbEntity
  8
0
  6
CONTINUOUS
100
AcDbLine
 10
2.297849019469139
 20
3.437598836301114
 30
0.0
 11
3.321765168359338
 21
4.461514985191313
 31
0.0
  0
LINE
  5
21CD9
330
21CD3
100
AcDbEntity
  8
0
  6
CONTINUOUS
100
AcDbLine
 10
2.569246555539591
 20
3.03547716329138
 30
0.0
 11
3.593163397972743
 21
4.059394005724531
 31
0.0
  0
LINE
  5
21CDA
330
21CD3
100
AcDbEntity
  8
0
  6
CONTINUOUS
100
AcDbLine
 10
2.840644091610043
 20
2.633355490281646
 30
0.0
 11
3.864561627586149
 21
3.657273026257751
 31
0.0
  0
LINE
  5
21CDB
330
21CD3
100
AcDbEntity
  8
0
  6
CONTINUOUS
100
AcDbLine
 10
3.112041627680496
 20
2.231233817271911
 30
0.0
 11
4.135959857199554
 21
3.25515204679097
 31
0.0
  0
LINE
  5
21CDC
330
21CD3
100
AcDbEntity
  8
0
  6
CONTINUOUS
100
AcDbLine
 10
3.383439163750948
 20
1.829112144262177
 30
0.0
 11
4.40735808681296
 21
2.853031067324189
 31
0.0
  0
LINE
  5
21CDD
330
21CD3
100
AcDbEntity
  8
0
  6
CONTINUOUS
100
AcDbLine
 10
3.654836699821399
 20
1.426990471252442
 30
0.0
 11
4.678756316426365
 21
2.450910087857407
 31
0.0
  0
LINE
  5
21CDE
330
21CD3
100
AcDbEntity
  8
0
  6
CONTINUOUS
100
AcDbLine
 10
3.926234235891853
 20
1.024868798242709
 30
0.0
 11
4.95015454603977
 21
2.048789108390626
 31
0.0
  0
LINE
  5
21CDF
330
21CD3
100
AcDbEntity
  8
0
  6
CONTINUOUS
100
AcDbLine
 10
4.197631771962304
 20
0.6227471252329737
 30
0.0
 11
5.221552775653176
 21
1.646668128923846
 31
0.0
  0
LINE
  5
21CE0
330
21CD3
100
AcDbEntity
  8
0
  6
CONTINUOUS
100
AcDbLine
 10
8.715877546767851
 20
7.835069736359266
 30
0.0
 11
9.435953450375058
 21
8.555145639966472
 31
0.0
  0
LINE
  5
21CE1
330
21CD3
100
AcDbEntity
  8
0
  6
CONTINUOUS
100
AcDbLine
 10
8.170620868422267
 20
6.616293848933497
 30
0.0
 11
9.644120833743461
 21
8.08979381425469
 31
0.0
  0
LINE
  5
21CE2
330
21CD3
100
AcDbEntity
  8
0
  6
CONTINUOUS
100
AcDbLine
 10
7.625364190076684
 20
5.397517961507727
 30
0.0
 11
9.852288217111864
 21
7.624441988542907
 31
0.0
  0
LINE
  5
21CE3
330
21CD3
100
AcDbEntity
  8
0
  6
CONTINUOUS
100
AcDbLine
 10
7.080107511731101
 20
4.178742074081957
 30
0.0
 11
10.06045560048027
 21
7.159090162831124
 31
0.0
  0
LINE
  5
21CE4
330
21CD3
100
AcDbEntity
  8
0
  6
CONTINUOUS
100
AcDbLine
 10
6.534850833385518
 20
2.959966186656187
 30
0.0
 11
10.26862298384867
 21
6.693738337119342
 31
0.0
  0
LINE
  5
21CE5
330
21CD3
100
AcDbEntity
  8
0
  6
CONTINUOUS
100
AcDbLine
 10
4.469029308032756
 20
0.2206254522232385
 30
0.0
 11
5.492951005266582
 21
1.244547149457064
 31
0.0
  0
LINE
  5
21CE6
330
21CD3
100
AcDbEntity
  8
0
  6
CONTINUOUS
100
AcDbLine
 10
5.989594155039935
 20
1.741190299230417
 30
0.0
 11
8.806950407233131
 21
4.558546551423613
 31
0.0
  0
LINE
  5
21CE7
330
21CD3
100
AcDbEntity
  8
0
  6
CONTINUOUS
100
AcDbLine
 10
9.401251593263643
 20
5.152847737454126
 30
0.0
 11
10.47679036721708
 21
6.228386511407559
 31
0.0
  0
LINE
  5
21CE8
330
21CD3
100
AcDbEntity
  8
0
  6
CONTINUOUS
100
AcDbLine
 10
4.921837203428691
 20
-0.0000858614610131
 30
0.0
 11
8.592923064886001
 21
3.670999999996297
 31
0.0
  0
LINE
  5
21CE9
330
21CD3
100
AcDbEntity
  8
0
  6
CONTINUOUS
100
AcDbLine
 10
9.609390446785305
 20
4.6874673818956
 30
0.0
 11
10.68495775058548
 21
5.763034685695775
 31
0.0
  0
LINE
  5
21CEA
330
21CD3
100
AcDbEntity
  8
0
  6
CONTINUOUS
100
AcDbLine
 10
5.595387755019432
 20
-0.0000545189504582
 30
0.0
 11
7.716137258923768
 21
2.120694984953879
 31
0.0
  0
LINE
  5
21CEB
330
21CD3
100
AcDbEntity
  8
0
  6
CONTINUOUS
100
AcDbLine
 10
6.268938306610172
 20
-0.000023176439905
 30
0.0
 11
7.170485805526503
 21
0.9015243224764267
 31
0.0
  0
LINE
  5
21CEC
330
21CD3
100
AcDbEntity
  8
0
  6
CONTINUOUS
100
AcDbLine
 10
7.963842273967511
 20
2.368399999997621
 30
0.0
 11
9.266442273966188
 21
3.670999999996297
 31
0.0
  0
LINE
  5
21CED
330
21CD3
100
AcDbEntity
  8
0
  6
CONTINUOUS
100
AcDbLine
 10
8.637361483047696
 20
2.368399999997621
 30
0.0
 11
9.939961483046375
 21
3.670999999996297
 31
0.0
  0
LINE
  5
21CEE
330
21CD3
100
AcDbEntity
  8
0
  6
CONTINUOUS
100
AcDbLine
 10
9.817529300306965
 20
4.222087026337075
 30
0.0
 11
10.89312513395388
 21
5.297682859983993
 31
0.0
  0
LINE
  5
21CEF
330
21CD3
100
AcDbEntity
  8
0
  6
CONTINUOUS
100
AcDbLine
 10
10.02566815382863
 20
3.756706670778549
 30
0.0
 11
11.10129251732229
 21
4.832331034272211
 31
0.0
  0
LINE
  5
21CF0
330
21CD3
100
AcDbEntity
  8
0
  6
CONTINUOUS
100
AcDbLine
 10
9.310880692127883
 20
2.368399999997621
 30
0.0
 11
11.30945990069069
 21
4.366979208560428
 31
0.0
  0
LINE
  5
21CF1
330
21CD3
100
AcDbEntity
  8
0
  6
CONTINUOUS
100
AcDbLine
 10
9.98439990120807
 20
2.36839999999762
 30
0.0
 11
11.5176272840591
 21
3.901627382848645
 31
0.0
  0
LINE
  5
21CF2
330
21CD3
100
AcDbEntity
  8
0
  6
CONTINUOUS
100
AcDbLine
 10
10.65037369446246
 20
2.36085458417182
 30
0.0
 11
11.7257946674275
 21
3.436275557136862
 31
0.0
  0
LINE
  5
21CF3
330
21CD3
100
AcDbEntity
  8
0
  6
CONTINUOUS
100
AcDbLine
 10
10.85847197087848
 20
1.895433651507656
 30
0.0
 11
11.9339620507959
 21
2.97092373142508
 31
0.0
  0
LINE
  5
21CF4
330
21CD3
100
AcDbEntity
  8
0
  6
CONTINUOUS
100
AcDbLine
 10
11.0665702472945
 20
1.430012718843491
 30
0.0
 11
12.14212943416431
 21
2.505571905713296
 31
0.0
  0
LINE
  5
21CF5
330
21CD3
100
AcDbEntity
  8
0
  6
CONTINUOUS
100
AcDbLine
 10
11.27466852371052
 20
0.9645917861793256
 30
0.0
 11
12.35029681753271
 21
2.040220080001513
 31
0.0
  0
LINE
  5
21CF6
330
21CD3
100
AcDbEntity
  8
0
  6
CONTINUOUS
100
AcDbLine
 10
11.48276680012654
 20
0.4991708535151611
 30
0.0
 11
12.55846420090111
 21
1.57486825428973
 31
0.0
  0
LINE
  5
21CF7
330
21CD3
100
AcDbEntity
  8
0
  6
CONTINUOUS
100
AcDbLine
 10
11.69086507654257
 20
0.0337499208509957
 30
0.0
 11
12.76663158426952
 21
1.109516428577947
 31
0.0
  0
LINE
  5
21CF8
330
21CD3
100
AcDbEntity
  8
0
  6
CONTINUOUS
100
AcDbLine
 10
12.33057447873954
 20
-0.0000598860322123
 30
0.0
 11
12.97479896763792
 21
0.6441646028661663
 31
0.0
  0
LINE
  5
21CF9
330
21CD3
100
AcDbEntity
  8
0
  6
CONTINUOUS
100
AcDbLine
 10
13.00413694809395
 20
-0.0000166257579952
 30
0.0
 11
13.18296635100632
 21
0.1788127771543824
 31
0.0
  0
LINE
  5
21CFA
330
21CD3
100
AcDbEntity
  8
0
  6
CONTINUOUS
100
AcDbLine
 10
4.772852165289667
 20
-0.000092794222212
 30
0.0
 11
4.296495091028902
 21
0.4762642800385528
 31
0.0
  0
LINE
  5
21CFB
330
21CD3
100
AcDbEntity
  8
0
  6
CONTINUOUS
100
AcDbLine
 10
5.446340034776103
 20
-0.0000614546284616
 30
0.0
 11
2.898195908335625
 21
2.548082671812017
 31
0.0
  0
LINE
  5
21CFC
330
21CD3
100
AcDbEntity
  8
0
  6
CONTINUOUS
100
AcDbLine
 10
6.119827904262539
 20
-0.0000301150347113
 30
0.0
 11
1.499896725642348
 21
4.61990106358548
 31
0.0
  0
LINE
  5
21CFD
330
21CD3
100
AcDbEntity
  8
0
  6
CONTINUOUS
100
AcDbLine
 10
6.775136745476159
 20
0.0181802528318542
 30
0.0
 11
5.699826040202669
 21
1.093490958105344
 31
0.0
  0
LINE
  5
21CFE
330
21CD3
100
AcDbEntity
  8
0
  6
CONTINUOUS
100
AcDbLine
 10
6.983376846288489
 20
0.4834593610997118
 30
0.0
 11
5.908008617934405
 21
1.558827589453796
 31
0.0
  0
LINE
  5
21CFF
330
21CD3
100
AcDbEntity
  8
0
  6
CONTINUOUS
100
AcDbLine
 10
5.377063484962296
 20
1.416253513345719
 30
0.0
 11
1.702276957014131
 21
5.091040041293883
 31
0.0
  0
LINE
  5
21D00
330
21CD3
100
AcDbEntity
  8
0
  6
CONTINUOUS
100
AcDbLine
 10
3.978745891735324
 20
3.488090315652877
 30
0.0
 11
2.000373521109399
 21
5.466462686278803
 31
0.0
  0
LINE
  5
21D01
330
21CD3
100
AcDbEntity
  8
0
  6
CONTINUOUS
100
AcDbLine
 10
7.191616947100819
 20
0.948738469367568
 30
0.0
 11
6.11619119566614
 21
2.024164220802247
 31
0.0
  0
LINE
  5
21D02
330
21CD3
100
AcDbEntity
  8
0
  6
CONTINUOUS
100
AcDbLine
 10
7.399857047913149
 20
1.414017577635424
 30
0.0
 11
6.324373773397875
 21
2.489500852150698
 31
0.0
  0
LINE
  5
21D03
330
21CD3
100
AcDbEntity
  8
0
  6
CONTINUOUS
100
AcDbLine
 10
7.608097148725479
 20
1.879296685903281
 30
0.0
 11
6.53255635112961
 21
2.95483748349915
 31
0.0
  0
LINE
  5
21D04
330
21CD3
100
AcDbEntity
  8
0
  6
CONTINUOUS
100
AcDbLine
 10
7.816337249537808
 20
2.344575794171138
 30
0.0
 11
6.740738928861345
 21
3.420174114847601
 31
0.0
  0
LINE
  5
21D05
330
21CD3
100
AcDbEntity
  8
0
  6
CONTINUOUS
100
AcDbLine
 10
3.310241080789734
 20
4.830114335678653
 30
0.0
 11
2.298470085204666
 21
5.84188533126372
 31
0.0
  0
LINE
  5
21D06
330
21CD3
100
AcDbEntity
  8
0
  6
CONTINUOUS
100
AcDbLine
 10
3.60832983563551
 20
5.205544789913063
 30
0.0
 11
2.596566649299935
 21
6.217307976248638
 31
0.0
  0
LINE
  5
21D07
330
21CD3
100
AcDbEntity
  8
0
  6
CONTINUOUS
100
AcDbLine
 10
3.906418590481286
 20
5.580975244147473
 30
0.0
 11
2.894663213395203
 21
6.592730621233557
 31
0.0
  0
LINE
  5
21D08
330
21CD3
100
AcDbEntity
  8
0
  6
CONTINUOUS
100
AcDbLine
 10
4.204507345327062
 20
5.956405698381884
 30
0.0
 11
3.192759777490472
 21
6.968153266218474
 31
0.0
  0
LINE
  5
21D09
330
21CD3
100
AcDbEntity
  8
0
  6
CONTINUOUS
100
AcDbLine
 10
8.466032252791512
 20
2.368399999997621
 30
0.0
 11
6.948921506593081
 21
3.885510746196053
 31
0.0
  0
LINE
  5
21D0A
330
21CD3
100
AcDbEntity
  8
0
  6
CONTINUOUS
100
AcDbLine
 10
9.139551461871699
 20
2.36839999999762
 30
0.0
 11
7.157104084324816
 21
4.350847377544504
 31
0.0
  0
LINE
  5
21D0B
330
21CD3
100
AcDbEntity
  8
0
  6
CONTINUOUS
100
AcDbLine
 10
4.502596100172839
 20
6.331836152616295
 30
0.0
 11
3.49085634158574
 21
7.343575911203393
 31
0.0
  0
LINE
  5
21D0C
330
21CD3
100
AcDbEntity
  8
0
  6
CONTINUOUS
100
AcDbLine
 10
4.800684855018615
 20
6.707266606850705
 30
0.0
 11
3.788952905681008
 21
7.718998556188312
 31
0.0
  0
LINE
  5
21D0D
330
21CD3
100
AcDbEntity
  8
0
  6
CONTINUOUS
100
AcDbLine
 10
12.18154012887317
 20
-0.0000694579236642
 30
0.0
 11
11.32140332908496
 21
0.8600673418645499
 31
0.0
  0
LINE
  5
21D0E
330
21CD3
100
AcDbEntity
  8
0
  6
CONTINUOUS
100
AcDbLine
 10
12.85501608323566
 20
-0.0000262032059659
 30
0.0
 11
10.77672456435345
 21
2.078265315676246
 31
0.0
  0
LINE
  5
21D0F
330
21CD3
100
AcDbEntity
  8
0
  6
CONTINUOUS
100
AcDbLine
 10
9.813070670951886
 20
2.36839999999762
 30
0.0
 11
8.51047067095321
 21
3.670999999996297
 31
0.0
  0
LINE
  5
21D10
330
21CD3
100
AcDbEntity
  8
0
  6
CONTINUOUS
100
AcDbLine
 10
10.48658988003207
 20
2.36839999999762
 30
0.0
 11
9.183989880033396
 21
3.670999999996297
 31
0.0
  0
LINE
  5
21D11
330
21CD3
100
AcDbEntity
  8
0
  6
CONTINUOUS
100
AcDbLine
 10
8.441048632286794
 20
3.740422038662712
 30
0.0
 11
7.365286662056551
 21
4.816184008892956
 31
0.0
  0
LINE
  5
21D12
330
21CD3
100
AcDbEntity
  8
0
  6
CONTINUOUS
100
AcDbLine
 10
8.649187485808454
 20
4.205802394221237
 30
0.0
 11
7.573469239788285
 21
5.281520640241407
 31
0.0
  0
LINE
  5
21D13
330
21CD3
100
AcDbEntity
  8
0
  6
CONTINUOUS
100
AcDbLine
 10
5.098773609864391
 20
7.082697061085115
 30
0.0
 11
4.087049469776277
 21
8.09442120117323
 31
0.0
  0
LINE
  5
21D14
330
21CD3
100
AcDbEntity
  8
0
  6
CONTINUOUS
100
AcDbLine
 10
5.396862364710167
 20
7.458127515319526
 30
0.0
 11
4.385146033871544
 21
8.469843846158149
 31
0.0
  0
LINE
  5
21D15
330
21CD3
100
AcDbEntity
  8
0
  6
CONTINUOUS
100
AcDbLine
 10
13.04801363231285
 20
0.4804954567970334
 30
0.0
 11
9.85750908911358
 21
3.670999999996297
 31
0.0
  0
LINE
  5
21D16
330
21CD3
100
AcDbEntity
  8
0
  6
CONTINUOUS
100
AcDbLine
 10
8.857326339330116
 20
4.671182749779763
 30
0.0
 11
7.781651817520021
 21
5.746857271589858
 31
0.0
  0
LINE
  5
21D17
330
21CD3
100
AcDbEntity
  8
0
  6
CONTINUOUS
100
AcDbLine
 10
5.694951119555943
 20
7.833557969553937
 30
0.0
 11
4.765409089118624
 21
8.763099999991255
 31
0.0
  0
LINE
  5
21D18
330
21CD3
100
AcDbEntity
  8
0
  6
CONTINUOUS
100
AcDbLine
 10
12.50286117236978
 20
1.699167125820288
 30
0.0
 11
9.68611877250287
 21
4.515909525687196
 31
0.0
  0
LINE
  5
21D19
330
21CD3
100
AcDbEntity
  8
0
  6
CONTINUOUS
100
AcDbLine
 10
9.065465192851777
 20
5.136563105338288
 30
0.0
 11
7.989834395251757
 21
6.21219390293831
 31
0.0
  0
LINE
  5
21D1A
330
21CD3
100
AcDbEntity
  8
0
  6
CONTINUOUS
100
AcDbLine
 10
5.993039874401719
 20
8.208988423788346
 30
0.0
 11
5.43892829819881
 21
8.763099999991255
 31
0.0
  0
LINE
  5
21D1B
330
21CD3
100
AcDbEntity
  8
0
  6
CONTINUOUS
100
AcDbLine
 10
11.95770871242671
 20
2.917838794843543
 30
0.0
 11
8.19801697298349
 21
6.677530534286761
 31
0.0
  0
LINE
  5
21D1C
330
21CD3
100
AcDbEntity
  8
0
  6
CONTINUOUS
100
AcDbLine
 10
6.291128629247495
 20
8.584418878022756
 30
0.0
 11
6.112447507278997
 21
8.763099999991255
 31
0.0
  0
LINE
  5
21D1D
330
21CD3
100
AcDbEntity
  8
0
  6
CONTINUOUS
100
AcDbLine
 10
11.41255625248364
 20
4.136510463866797
 30
0.0
 11
8.406199550715227
 21
7.142867165635211
 31
0.0
  0
LINE
  5
21D1E
330
21CD3
100
AcDbEntity
  8
0
  6
CONTINUOUS
100
AcDbLine
 10
10.86740379254057
 20
5.355182132890051
 30
0.0
 11
8.614382128446962
 21
7.608203796983664
 31
0.0
  0
LINE
  5
21D1F
330
21CD3
100
AcDbEntity
  8
0
  6
CONTINUOUS
100
AcDbLine
 10
10.3222513325975
 20
6.573853801913305
 30
0.0
 11
8.822564706178696
 21
8.073540428332114
 31
0.0
  0
LINE
  5
21D20
330
21CD3
100
AcDbEntity
  8
0
  6
CONTINUOUS
100
AcDbLine
 10
9.777098872654436
 20
7.792525470936562
 30
0.0
 11
9.030747283910433
 21
8.538877059680566
 31
0.0
  0
ENDBLK
  5
21E62
330
21CD3
100
AcDbEntity
  8
0
100
AcDbBlockEnd
  0
BLOCK
  5
21E63
330
21D21
100
AcDbEntity
  8
0
100
AcDbBlockBegin
  2
*X158
 70
     1
 10
0.0
 20
0.0
 30
0.0
  3
*X158
  1

  0
LINE
  5
21D22
330
21D21
100
AcDbEntity
  8
0
  6
CONTINUOUS
100
AcDbLine
 10
10.67292308101235
 20
8.445076852443387
 30
0.0
 11
10.99094622856022
 21
8.763099999991255
 31
0.0
  0
LINE
  5
21D23
330
21D21
100
AcDbEntity
  8
0
  6
CONTINUOUS
100
AcDbLine
 10
10.87250383178748
 20
7.971138394138331
 30
0.0
 11
11.6644654376404
 21
8.763099999991255
 31
0.0
  0
LINE
  5
21D24
330
21D21
100
AcDbEntity
  8
0
  6
CONTINUOUS
100
AcDbLine
 10
11.07208458256261
 20
7.497199935833273
 30
0.0
 11
12.12126590876355
 21
8.546381262034211
 31
0.0
  0
LINE
  5
21D25
330
21D21
100
AcDbEntity
  8
0
  6
CONTINUOUS
100
AcDbLine
 10
11.27166533333774
 20
7.023261477528216
 30
0.0
 11
12.32085164573666
 21
8.072447789927136
 31
0.0
  0
LINE
  5
21D26
330
21D21
100
AcDbEntity
  8
0
  6
CONTINUOUS
100
AcDbLine
 10
11.47124608411287
 20
6.549323019223158
 30
0.0
 11
12.52043738270977
 21
7.59851431782006
 31
0.0
  0
LINE
  5
21D27
330
21D21
100
AcDbEntity
  8
0
  6
CONTINUOUS
100
AcDbLine
 10
11.670826834888
 20
6.075384560918101
 30
0.0
 11
12.72002311968288
 21
7.124580845712984
 31
0.0
  0
LINE
  5
21D28
330
21D21
100
AcDbEntity
  8
0
  6
CONTINUOUS
100
AcDbLine
 10
11.87040758566313
 20
5.601446102613043
 30
0.0
 11
12.91960885665599
 21
6.650647373605907
 31
0.0
  0
LINE
  5
21D29
330
21D21
100
AcDbEntity
  8
0
  6
CONTINUOUS
100
AcDbLine
 10
12.06998833643825
 20
5.127507644307986
 30
0.0
 11
13.1191945936291
 21
6.176713901498832
 31
0.0
  0
LINE
  5
21D2A
330
21D21
100
AcDbEntity
  8
0
  6
CONTINUOUS
100
AcDbLine
 10
12.26956908721338
 20
4.65356918600293
 30
0.0
 11
13.31878033060221
 21
5.702780429391757
 31
0.0
  0
LINE
  5
21D2B
330
21D21
100
AcDbEntity
  8
0
  6
CONTINUOUS
100
AcDbLine
 10
12.46914983798851
 20
4.179630727697873
 30
0.0
 11
13.51836606757532
 21
5.228846957284683
 31
0.0
  0
LINE
  5
21D2C
330
21D21
100
AcDbEntity
  8
0
  6
CONTINUOUS
100
AcDbLine
 10
12.66873058876364
 20
3.705692269392816
 30
0.0
 11
13.71795180454843
 21
4.754913485177607
 31
0.0
  0
LINE
  5
21D2D
330
21D21
100
AcDbEntity
  8
0
  6
CONTINUOUS
100
AcDbLine
 10
12.86831133953877
 20
3.231753811087759
 30
0.0
 11
13.91753754152154
 21
4.280980013070531
 31
0.0
  0
LINE
  5
21D2E
330
21D21
100
AcDbEntity
  8
0
  6
CONTINUOUS
100
AcDbLine
 10
13.0678920903139
 20
2.757815352782702
 30
0.0
 11
14.11712327849465
 21
3.807046540963456
 31
0.0
  0
LINE
  5
21D2F
330
21D21
100
AcDbEntity
  8
0
  6
CONTINUOUS
100
AcDbLine
 10
13.26747284108903
 20
2.283876894477644
 30
0.0
 11
14.31670901546777
 21
3.333113068856379
 31
0.0
  0
LINE
  5
21D30
330
21D21
100
AcDbEntity
  8
0
  6
CONTINUOUS
100
AcDbLine
 10
16.36767838827179
 20
8.751678487061342
 30
0.0
 11
16.50332410898388
 21
8.887324207773432
 31
0.0
  0
LINE
  5
21D31
330
21D21
100
AcDbEntity
  8
0
  6
CONTINUOUS
100
AcDbLine
 10
15.96190732182191
 20
7.67238821153127
 30
0.0
 11
16.68735328004734
 21
8.397834169756699
 31
0.0
  0
LINE
  5
21D32
330
21D21
100
AcDbEntity
  8
0
  6
CONTINUOUS
100
AcDbLine
 10
15.55613625537202
 20
6.593097936001196
 30
0.0
 11
16.87138245111079
 21
7.908344131739965
 31
0.0
  0
LINE
  5
21D33
330
21D21
100
AcDbEntity
  8
0
  6
CONTINUOUS
100
AcDbLine
 10
15.15036518892213
 20
5.513807660471122
 30
0.0
 11
17.05541162217424
 21
7.418854093723231
 31
0.0
  0
LINE
  5
21D34
330
21D21
100
AcDbEntity
  8
0
  6
CONTINUOUS
100
AcDbLine
 10
14.74459412247225
 20
4.434517384941048
 30
0.0
 11
17.2394407932377
 21
6.929364055706499
 31
0.0
  0
LINE
  5
21D35
330
21D21
100
AcDbEntity
  8
0
  6
CONTINUOUS
100
AcDbLine
 10
14.33882305602236
 20
3.355227109410975
 30
0.0
 11
17.42346996430115
 21
6.439874017689766
 31
0.0
  0
LINE
  5
21D36
330
21D21
100
AcDbEntity
  8
0
  6
CONTINUOUS
100
AcDbLine
 10
13.46705359186416
 20
1.809938436172586
 30
0.0
 11
16.0819338255367
 21
4.424818669845129
 31
0.0
  0
LINE
  5
21D37
330
21D21
100
AcDbEntity
  8
0
  6
CONTINUOUS
100
AcDbLine
 10
16.63283254238972
 20
4.975717386698149
 30
0.0
 11
17.60749913536461
 21
5.950383979673033
 31
0.0
  0
LINE
  5
21D38
330
21D21
100
AcDbEntity
  8
0
  6
CONTINUOUS
100
AcDbLine
 10
13.66663434263929
 20
1.335999977867529
 30
0.0
 11
15.67604797733754
 21
3.345413612565779
 31
0.0
  0
LINE
  5
21D39
330
21D21
100
AcDbEntity
  8
0
  6
CONTINUOUS
100
AcDbLine
 10
13.86621509341442
 20
0.8620615195624723
 30
0.0
 11
15.27016212913838
 21
2.26600855528643
 31
0.0
  0
LINE
  5
21D3A
330
21D21
100
AcDbEntity
  8
0
  6
CONTINUOUS
100
AcDbLine
 10
16.81682257348267
 20
4.486188208710908
 30
0.0
 11
17.79152830642806
 21
5.460893941656299
 31
0.0
  0
LINE
  5
21D3B
330
21D21
100
AcDbEntity
  8
0
  6
CONTINUOUS
100
AcDbLine
 10
17.00081260457561
 20
3.996659030723667
 30
0.0
 11
17.97555747749151
 21
4.971403903639565
 31
0.0
  0
LINE
  5
21D3C
330
21D21
100
AcDbEntity
  8
0
  6
CONTINUOUS
100
AcDbLine
 10
20.74362343514722
 20
8.412989070375462
 30
0.0
 11
21.09373436476302
 21
8.763099999991256
 31
0.0
  0
LINE
  5
21D3D
330
21D21
100
AcDbEntity
  8
0
  6
CONTINUOUS
100
AcDbLine
 10
20.25401257174777
 20
7.249858997895826
 30
0.0
 11
21.7672535738432
 21
8.763099999991255
 31
0.0
  0
LINE
  5
21D3E
330
21D21
100
AcDbEntity
  8
0
  6
CONTINUOUS
100
AcDbLine
 10
14.06579584418955
 20
0.3881230612574149
 30
0.0
 11
14.86427628093921
 21
1.186603498007082
 31
0.0
  0
LINE
  5
21D3F
330
21D21
100
AcDbEntity
  8
0
  6
CONTINUOUS
100
AcDbLine
 10
14.26537659496467
 20
-0.0858153970476412
 30
0.0
 11
14.45839043274005
 21
0.1071984407277329
 31
0.0
  0
LINE
  5
21D40
330
21D21
100
AcDbEntity
  8
0
  6
CONTINUOUS
100
AcDbLine
 10
17.18480263566856
 20
3.507129852736426
 30
0.0
 11
18.15958664855496
 21
4.481913865622833
 31
0.0
  0
LINE
  5
21D41
330
21D21
100
AcDbEntity
  8
0
  6
CONTINUOUS
100
AcDbLine
 10
17.3687926667615
 20
3.017600674749186
 30
0.0
 11
18.34361581961842
 21
3.9924238276061
 31
0.0
  0
LINE
  5
21D42
330
21D21
100
AcDbEntity
  8
0
  6
CONTINUOUS
100
AcDbLine
 10
19.76440170834832
 20
6.086728925416191
 30
0.0
 11
22.33924590259489
 21
8.661573119662755
 31
0.0
  0
LINE
  5
21D43
330
21D21
100
AcDbEntity
  8
0
  6
CONTINUOUS
100
AcDbLine
 10
19.27479084494887
 20
4.923598852936555
 30
0.0
 11
21.84929622842713
 21
7.498104236414807
 31
0.0
  0
LINE
  5
21D44
330
21D21
100
AcDbEntity
  8
0
  6
CONTINUOUS
100
AcDbLine
 10
17.55278269785445
 20
2.528071496761945
 30
0.0
 11
18.52764499068187
 21
3.502933789589366
 31
0.0
  0
LINE
  5
21D45
330
21D21
100
AcDbEntity
  8
0
  6
CONTINUOUS
100
AcDbLine
 10
18.78517998154942
 20
3.760468780456919
 30
0.0
 11
21.35934655425936
 21
6.33463535316686
 31
0.0
  0
LINE
  5
21D46
330
21D21
100
AcDbEntity
  8
0
  6
CONTINUOUS
100
AcDbLine
 10
17.73677272894739
 20
2.038542318774704
 30
0.0
 11
20.8693968800916
 21
5.171166469918914
 31
0.0
  0
LINE
  5
21D47
330
21D21
100
AcDbEntity
  8
0
  6
CONTINUOUS
100
AcDbLine
 10
17.92076276004034
 20
1.549013140787464
 30
0.0
 11
20.37944720592384
 21
4.007697586670968
 31
0.0
  0
LINE
  5
21D48
330
21D21
100
AcDbEntity
  8
0
  6
CONTINUOUS
100
AcDbLine
 10
18.10475279113329
 20
1.059483962800223
 30
0.0
 11
19.88949753175608
 21
2.84422870342302
 31
0.0
  0
LINE
  5
21D49
330
21D21
100
AcDbEntity
  8
0
  6
CONTINUOUS
100
AcDbLine
 10
18.28874282222623
 20
0.5699547848129822
 30
0.0
 11
19.39954785758832
 21
1.680759820175074
 31
0.0
  0
LINE
  5
21D4A
330
21D21
100
AcDbEntity
  8
0
  6
CONTINUOUS
100
AcDbLine
 10
18.47273285331918
 20
0.0804256068257416
 30
0.0
 11
18.90959818342056
 21
0.517290936927127
 31
0.0
  0
LINE
  5
21D4B
330
21D21
100
AcDbEntity
  8
0
  6
CONTINUOUS
100
AcDbLine
 10
14.3590401358224
 20
-0.1570118376323384
 30
0.0
 11
14.24903296539946
 21
-0.0470046672093929
 31
0.0
  0
LINE
  5
21D4C
330
21D21
100
AcDbEntity
  8
0
  6
CONTINUOUS
100
AcDbLine
 10
14.54309291258661
 20
0.332454594683643
 30
0.0
 11
13.75908329123172
 21
1.116464216038529
 31
0.0
  0
LINE
  5
21D4D
330
21D21
100
AcDbEntity
  8
0
  6
CONTINUOUS
100
AcDbLine
 10
14.72714568935081
 20
0.8219210269996244
 30
0.0
 11
13.26913361706399
 21
2.27993309928645
 31
0.0
  0
LINE
  5
21D4E
330
21D21
100
AcDbEntity
  8
0
  6
CONTINUOUS
100
AcDbLine
 10
14.91119846611502
 20
1.311387459315606
 30
0.0
 11
12.77918394289625
 21
3.443401982534371
 31
0.0
  0
LINE
  5
21D4F
330
21D21
100
AcDbEntity
  8
0
  6
CONTINUOUS
100
AcDbLine
 10
15.09525124287922
 20
1.800853891631587
 30
0.0
 11
12.28923426872852
 21
4.606870865782293
 31
0.0
  0
LINE
  5
21D50
330
21D21
100
AcDbEntity
  8
0
  6
CONTINUOUS
100
AcDbLine
 10
15.27930401964343
 20
2.290320323947569
 30
0.0
 11
11.79928459456078
 21
5.770339749030213
 31
0.0
  0
LINE
  5
21D51
330
21D21
100
AcDbEntity
  8
0
  6
CONTINUOUS
100
AcDbLine
 10
15.46335679640763
 20
2.77978675626355
 30
0.0
 11
14.48885470994921
 21
3.754288842721972
 31
0.0
  0
LINE
  5
21D52
330
21D21
100
AcDbEntity
  8
0
  6
CONTINUOUS
100
AcDbLine
 10
13.88507249233704
 20
4.358071060334137
 30
0.0
 11
11.30933492039305
 21
6.933808632278135
 31
0.0
  0
LINE
  5
21D53
330
21D21
100
AcDbEntity
  8
0
  6
CONTINUOUS
100
AcDbLine
 10
18.75840522805855
 20
0.1582575336928151
 30
0.0
 11
18.25383727664818
 21
0.6628254851031863
 31
0.0
  0
LINE
  5
21D54
330
21D21
100
AcDbEntity
  8
0
  6
CONTINUOUS
100
AcDbLine
 10
15.64740957317184
 20
3.269253188579531
 30
0.0
 11
14.67288388101266
 21
4.243778880738705
 31
0.0
  0
LINE
  5
21D55
330
21D21
100
AcDbEntity
  8
0
  6
CONTINUOUS
100
AcDbLine
 10
13.39509276772158
 20
5.521569994029786
 30
0.0
 11
10.81938524622531
 21
8.097277515526056
 31
0.0
  0
LINE
  5
21D56
330
21D21
100
AcDbEntity
  8
0
  6
CONTINUOUS
100
AcDbLine
 10
18.95798597883369
 20
0.6321959919978686
 30
0.0
 11
17.84825644852853
 21
1.741925522303024
 31
0.0
  0
LINE
  5
21D57
330
21D21
100
AcDbEntity
  8
0
  6
CONTINUOUS
100
AcDbLine
 10
19.15756672960882
 20
1.106134450302922
 30
0.0
 11
17.44267562040888
 21
2.821025559502861
 31
0.0
  0
LINE
  5
21D58
330
21D21
100
AcDbEntity
  8
0
  6
CONTINUOUS
100
AcDbLine
 10
15.83146234993604
 20
3.758719620895513
 30
0.0
 11
14.85691305207612
 21
4.733268918755439
 31
0.0
  0
LINE
  5
21D59
330
21D21
100
AcDbEntity
  8
0
  6
CONTINUOUS
100
AcDbLine
 10
16.01551512670025
 20
4.248186053211494
 30
0.0
 11
15.04094222313957
 21
5.222758956772172
 31
0.0
  0
LINE
  5
21D5A
330
21D21
100
AcDbEntity
  8
0
  6
CONTINUOUS
100
AcDbLine
 10
12.90511304310612
 20
6.685068927725435
 30
0.0
 11
10.8270819708403
 21
8.763099999991255
 31
0.0
  0
LINE
  5
21D5B
330
21D21
100
AcDbEntity
  8
0
  6
CONTINUOUS
100
AcDbLine
 10
12.41513331849066
 20
7.848567861421083
 30
0.0
 11
11.50060117992049
 21
8.763099999991255
 31
0.0
  0
LINE
  5
21D5C
330
21D21
100
AcDbEntity
  8
0
  6
CONTINUOUS
100
AcDbLine
 10
19.35714748038395
 20
1.580072908607975
 30
0.0
 11
17.03709479228923
 21
3.900125596702697
 31
0.0
  0
LINE
  5
21D5D
330
21D21
100
AcDbEntity
  8
0
  6
CONTINUOUS
100
AcDbLine
 10
19.55672823115909
 20
2.054011366913028
 30
0.0
 11
16.63151396416958
 21
4.979225633902534
 31
0.0
  0
LINE
  5
21D5E
330
21D21
100
AcDbEntity
  8
0
  6
CONTINUOUS
100
AcDbLine
 10
16.19956790346445
 20
4.737652485527476
 30
0.0
 11
15.22497139420302
 21
5.712248994788904
 31
0.0
  0
LINE
  5
21D5F
330
21D21
100
AcDbEntity
  8
0
  6
CONTINUOUS
100
AcDbLine
 10
16.38362068022866
 20
5.227118917843457
 30
0.0
 11
15.40900056526648
 21
6.201739032805637
 31
0.0
  0
LINE
  5
21D60
330
21D21
100
AcDbEntity
  8
0
  6
CONTINUOUS
100
AcDbLine
 10
19.75630898193422
 20
2.527949825218081
 30
0.0
 11
18.70774536448286
 21
3.576513442669441
 31
0.0
  0
LINE
  5
21D61
330
21D21
100
AcDbEntity
  8
0
  6
CONTINUOUS
100
AcDbLine
 10
19.95588973270936
 20
3.001888283523134
 30
0.0
 11
18.90726987211446
 21
4.050508144118028
 31
0.0
  0
LINE
  5
21D62
330
21D21
100
AcDbEntity
  8
0
  6
CONTINUOUS
100
AcDbLine
 10
20.15547048348449
 20
3.475826741828186
 30
0.0
 11
19.10679437974606
 21
4.524502845566614
 31
0.0
  0
LINE
  5
21D63
330
21D21
100
AcDbEntity
  8
0
  6
CONTINUOUS
100
AcDbLine
 10
20.35505123425962
 20
3.94976520013324
 30
0.0
 11
19.30631888737766
 21
4.998497547015201
 31
0.0
  0
LINE
  5
21D64
330
21D21
100
AcDbEntity
  8
0
  6
CONTINUOUS
100
AcDbLine
 10
20.55463198503475
 20
4.423703658438292
 30
0.0
 11
19.50584339500926
 21
5.472492248463787
 31
0.0
  0
LINE
  5
21D65
330
21D21
100
AcDbEntity
  8
0
  6
CONTINUOUS
100
AcDbLine
 10
18.37481191085755
 20
3.909446896294752
 30
0.0
 11
15.59302973632993
 21
6.691229070822371
 31
0.0
  0
LINE
  5
21D66
330
21D21
100
AcDbEntity
  8
0
  6
CONTINUOUS
100
AcDbLine
 10
17.96904084440766
 20
4.988737171824825
 30
0.0
 11
15.77705890739338
 21
7.180719108839104
 31
0.0
  0
LINE
  5
21D67
330
21D21
100
AcDbEntity
  8
0
  6
CONTINUOUS
100
AcDbLine
 10
17.56326977795777
 20
6.068027447354899
 30
0.0
 11
15.96108807845684
 21
7.670209146855838
 31
0.0
  0
LINE
  5
21D68
330
21D21
100
AcDbEntity
  8
0
  6
CONTINUOUS
100
AcDbLine
 10
17.15749871150789
 20
7.147317722884972
 30
0.0
 11
16.14511724952029
 21
8.15969918487257
 31
0.0
  0
LINE
  5
21D69
330
21D21
100
AcDbEntity
  8
0
  6
CONTINUOUS
100
AcDbLine
 10
16.751727645058
 20
8.226607998415046
 30
0.0
 11
16.32914642058374
 21
8.649189222889303
 31
0.0
  0
LINE
  5
21D6A
330
21D21
100
AcDbEntity
  8
0
  6
CONTINUOUS
100
AcDbLine
 10
20.75421273580989
 20
4.897642116743345
 30
0.0
 11
19.70536790264086
 21
5.946486949912374
 31
0.0
  0
LINE
  5
21D6B
330
21D21
100
AcDbEntity
  8
0
  6
CONTINUOUS
100
AcDbLine
 10
20.95379348658502
 20
5.371580575048398
 30
0.0
 11
19.90489241027246
 21
6.42048165136096
 31
0.0
  0
LINE
  5
21D6C
330
21D21
100
AcDbEntity
  8
0
  6
CONTINUOUS
100
AcDbLine
 10
21.15337423736015
 20
5.845519033353452
 30
0.0
 11
20.10441691790406
 21
6.894476352809547
 31
0.0
  0
LINE
  5
21D6D
330
21D21
100
AcDbEntity
  8
0
  6
CONTINUOUS
100
AcDbLine
 10
21.35295498813529
 20
6.319457491658505
 30
0.0
 11
20.30394142553566
 21
7.368471054258134
 31
0.0
  0
LINE
  5
21D6E
330
21D21
100
AcDbEntity
  8
0
  6
CONTINUOUS
100
AcDbLine
 10
21.55253573891042
 20
6.793395949963558
 30
0.0
 11
20.50346593316726
 21
7.842465755706721
 31
0.0
  0
LINE
  5
21D6F
330
21D21
100
AcDbEntity
  8
0
  6
CONTINUOUS
100
AcDbLine
 10
21.75211648968556
 20
7.267334408268612
 30
0.0
 11
20.70299044079886
 21
8.316460457155308
 31
0.0
  0
LINE
  5
21D70
330
21D21
100
AcDbEntity
  8
0
  6
CONTINUOUS
100
AcDbLine
 10
21.95169724046069
 20
7.741272866573663
 30
0.0
 11
20.9298701070431
 21
8.763099999991256
 31
0.0
  0
LINE
  5
21D71
330
21D21
100
AcDbEntity
  8
0
  6
CONTINUOUS
100
AcDbLine
 10
22.15127799123582
 20
8.215211324878716
 30
0.0
 11
21.60338931612328
 21
8.763099999991256
 31
0.0
  0
LINE
  5
21D72
330
21D21
100
AcDbEntity
  8
0
  6
CONTINUOUS
100
AcDbLine
 10
22.35085874201096
 20
8.689149783183769
 30
0.0
 11
22.27690852520347
 21
8.763099999991255
 31
0.0
  0
ENDBLK
  5
21E64
330
21D21
100
AcDbEntity
  8
0
100
AcDbBlockEnd
  0
BLOCK
  5
21E65
330
21D73
100
AcDbEntity
  8
0
100
AcDbBlockBegin
  2
*X159
 70
     1
 10
0.0
 20
0.0
 30
0.0
  3
*X159
  1

  0
LINE
  5
21D74
330
21D73
100
AcDbEntity
  8
0
  6
CONTINUOUS
100
AcDbLine
 10
23.19462913593892
 20
8.169917934846424
 30
0.0
 11
23.70775465517246
 21
8.683043454079957
 31
0.0
  0
LINE
  5
21D75
330
21D73
100
AcDbEntity
  8
0
  6
CONTINUOUS
100
AcDbLine
 10
22.64923161835078
 20
6.951001208178088
 30
0.0
 11
23.9159364069932
 21
8.217705996820516
 31
0.0
  0
LINE
  5
21D76
330
21D73
100
AcDbEntity
  8
0
  6
CONTINUOUS
100
AcDbLine
 10
22.10383410076263
 20
5.732084481509751
 30
0.0
 11
24.12411815881395
 21
7.752368539561078
 31
0.0
  0
LINE
  5
21D77
330
21D73
100
AcDbEntity
  8
0
  6
CONTINUOUS
100
AcDbLine
 10
21.55843658317447
 20
4.513167754841414
 30
0.0
 11
24.3322999106347
 21
7.287031082301639
 31
0.0
  0
LINE
  5
21D78
330
21D73
100
AcDbEntity
  8
0
  6
CONTINUOUS
100
AcDbLine
 10
21.01303906558632
 20
3.294251028173077
 30
0.0
 11
24.54048166245544
 21
6.821693625042199
 31
0.0
  0
LINE
  5
21D79
330
21D73
100
AcDbEntity
  8
0
  6
CONTINUOUS
100
AcDbLine
 10
20.46764154799817
 20
2.075334301504738
 30
0.0
 11
23.28571549467848
 21
4.89340824818505
 31
0.0
  0
LINE
  5
21D7A
330
21D73
100
AcDbEntity
  8
0
  6
CONTINUOUS
100
AcDbLine
 10
19.92224403041002
 20
0.8564175748364002
 30
0.0
 11
22.74075865492779
 21
3.674932199354171
 31
0.0
  0
LINE
  5
21D7B
330
21D73
100
AcDbEntity
  8
0
  6
CONTINUOUS
100
AcDbLine
 10
23.67305085490148
 20
5.280743608408048
 30
0.0
 11
24.74866341427619
 21
6.356356167782759
 31
0.0
  0
LINE
  5
21D7C
330
21D73
100
AcDbEntity
  8
0
  6
CONTINUOUS
100
AcDbLine
 10
23.88118970842314
 20
4.815363252849522
 30
0.0
 11
24.95684516609694
 21
5.89101871052332
 31
0.0
  0
LINE
  5
21D7D
330
21D73
100
AcDbEntity
  8
0
  6
CONTINUOUS
100
AcDbLine
 10
19.73925852647308
 20
-0.0000871381807288
 30
0.0
 11
23.4103456646501
 21
3.670999999996297
 31
0.0
  0
LINE
  5
21D7E
330
21D73
100
AcDbEntity
  8
0
  6
CONTINUOUS
100
AcDbLine
 10
24.0893285619448
 20
4.349982897290997
 30
0.0
 11
25.16502691791769
 21
5.42568125326388
 31
0.0
  0
LINE
  5
21D7F
330
21D73
100
AcDbEntity
  8
0
  6
CONTINUOUS
100
AcDbLine
 10
20.41282099582748
 20
-0.0000438779065108
 30
0.0
 11
21.64944178675636
 21
1.236576913022366
 31
0.0
  0
LINE
  5
21D80
330
21D73
100
AcDbEntity
  8
0
  6
CONTINUOUS
100
AcDbLine
 10
22.78126487373161
 20
2.36839999999762
 30
0.0
 11
24.08386487373029
 21
3.670999999996297
 31
0.0
  0
LINE
  5
21D81
330
21D73
100
AcDbEntity
  8
0
  6
CONTINUOUS
100
AcDbLine
 10
24.29746741546646
 20
3.884602541732471
 30
0.0
 11
25.37320866973843
 21
4.960343796004441
 31
0.0
  0
LINE
  5
21D82
330
21D73
100
AcDbEntity
  8
0
  6
CONTINUOUS
100
AcDbLine
 10
21.08638346518189
 20
-0.0000006176322938
 30
0.0
 11
21.10379033335899
 21
0.0174062505448083
 31
0.0
  0
LINE
  5
21D83
330
21D73
100
AcDbEntity
  8
0
  6
CONTINUOUS
100
AcDbLine
 10
23.4547840828118
 20
2.36839999999762
 30
0.0
 11
25.58139042155918
 21
4.495006338745002
 31
0.0
  0
LINE
  5
21D84
330
21D73
100
AcDbEntity
  8
0
  6
CONTINUOUS
100
AcDbLine
 10
29.30199999996933
 20
8.215615917155148
 30
0.0
 11
29.84948408280543
 21
8.763099999991255
 31
0.0
  0
LINE
  5
21D85
330
21D73
100
AcDbEntity
  8
0
  6
CONTINUOUS
100
AcDbLine
 10
24.12830329189199
 20
2.36839999999762
 30
0.0
 11
25.78957217337993
 21
4.029668881485562
 31
0.0
  0
LINE
  5
21D86
330
21D73
100
AcDbEntity
  8
0
  6
CONTINUOUS
100
AcDbLine
 10
29.30199999996933
 20
7.54209670807496
 30
0.0
 11
30.52300329188562
 21
8.763099999991255
 31
0.0
  0
LINE
  5
21D87
330
21D73
100
AcDbEntity
  8
0
  6
CONTINUOUS
100
AcDbLine
 10
24.80182250097217
 20
2.36839999999762
 30
0.0
 11
25.99775392520067
 21
3.564331424226122
 31
0.0
  0
LINE
  5
21D88
330
21D73
100
AcDbEntity
  8
0
  6
CONTINUOUS
100
AcDbLine
 10
29.30199999996933
 20
6.868577498994774
 30
0.0
 11
30.74199999996926
 21
8.308577498994712
 31
0.0
  0
LINE
  5
21D89
330
21D73
100
AcDbEntity
  8
0
  6
CONTINUOUS
100
AcDbLine
 10
25.13028238392013
 20
2.023340673865392
 30
0.0
 11
26.20593567702142
 21
3.098993966966683
 31
0.0
  0
LINE
  5
21D8A
330
21D73
100
AcDbEntity
  8
0
  6
CONTINUOUS
100
AcDbLine
 10
25.33838066033617
 20
1.557919741201244
 30
0.0
 11
26.41411742884217
 21
2.633656509707244
 31
0.0
  0
LINE
  5
21D8B
330
21D73
100
AcDbEntity
  8
0
  6
CONTINUOUS
100
AcDbLine
 10
25.54647893675221
 20
1.092498808537098
 30
0.0
 11
26.62229918066291
 21
2.168319052447804
 31
0.0
  0
LINE
  5
21D8C
330
21D73
100
AcDbEntity
  8
0
  6
CONTINUOUS
100
AcDbLine
 10
25.75457721316825
 20
0.62707787587295
 30
0.0
 11
26.83048093248366
 21
1.702981595188365
 31
0.0
  0
LINE
  5
21D8D
330
21D73
100
AcDbEntity
  8
0
  6
CONTINUOUS
100
AcDbLine
 10
29.30199999996933
 20
6.195058289914587
 30
0.0
 11
30.74199999996926
 21
7.635058289914522
 31
0.0
  0
LINE
  5
21D8E
330
21D73
100
AcDbEntity
  8
0
  6
CONTINUOUS
100
AcDbLine
 10
29.30199999996933
 20
5.521539080834401
 30
0.0
 11
30.74199999996926
 21
6.961539080834331
 31
0.0
  0
LINE
  5
21D8F
330
21D73
100
AcDbEntity
  8
0
  6
CONTINUOUS
100
AcDbLine
 10
29.30199999996933
 20
4.848019871754214
 30
0.0
 11
30.74199999996925
 21
6.288019871754143
 31
0.0
  0
LINE
  5
21D90
330
21D73
100
AcDbEntity
  8
0
  6
CONTINUOUS
100
AcDbLine
 10
29.30199999996933
 20
4.174500662674028
 30
0.0
 11
30.74199999996925
 21
5.614500662673953
 31
0.0
  0
LINE
  5
21D91
330
21D73
100
AcDbEntity
  8
0
  6
CONTINUOUS
100
AcDbLine
 10
25.96267548958429
 20
0.1616569432088024
 30
0.0
 11
27.18411854636669
 21
1.383099999991207
 31
0.0
  0
LINE
  5
21D92
330
21D73
100
AcDbEntity
  8
0
  6
CONTINUOUS
100
AcDbLine
 10
29.30199999996933
 20
3.500981453593841
 30
0.0
 11
30.74199999996925
 21
4.940981453593762
 31
0.0
  0
LINE
  5
21D93
330
21D73
100
AcDbEntity
  8
0
  6
CONTINUOUS
100
AcDbLine
 10
26.50763775544691
 20
0.0330999999912356
 30
0.0
 11
27.85763775544689
 21
1.383099999991223
 31
0.0
  0
LINE
  5
21D94
330
21D73
100
AcDbEntity
  8
0
  6
CONTINUOUS
100
AcDbLine
 10
29.30199999996933
 20
2.827462244513656
 30
0.0
 11
30.74199999996925
 21
4.267462244513574
 31
0.0
  0
LINE
  5
21D95
330
21D73
100
AcDbEntity
  8
0
  6
CONTINUOUS
100
AcDbLine
 10
27.18115696452709
 20
0.0330999999912356
 30
0.0
 11
28.6224847300034
 21
1.474427765467545
 31
0.0
  0
LINE
  5
21D96
330
21D73
100
AcDbEntity
  8
0
  6
CONTINUOUS
100
AcDbLine
 10
29.21067223449293
 20
2.062615269957069
 30
0.0
 11
30.74199999996924
 21
3.593943035433383
 31
0.0
  0
LINE
  5
21D97
330
21D73
100
AcDbEntity
  8
0
  6
CONTINUOUS
100
AcDbLine
 10
27.85467617360728
 20
0.0330999999912356
 30
0.0
 11
30.74199999996924
 21
2.920423826353195
 31
0.0
  0
LINE
  5
21D98
330
21D73
100
AcDbEntity
  8
0
  6
CONTINUOUS
100
AcDbLine
 10
28.57438609860264
 20
0.0792907159064073
 30
0.0
 11
30.69580928405405
 21
2.200713901357819
 31
0.0
  0
LINE
  5
21D99
330
21D73
100
AcDbEntity
  8
0
  6
CONTINUOUS
100
AcDbLine
 10
29.49443044814297
 20
0.3258158563665496
 30
0.0
 11
30.44928414359389
 21
1.280669551817477
 31
0.0
  0
LINE
  5
21D9A
330
21D73
100
AcDbEntity
  8
0
  6
CONTINUOUS
100
AcDbLine
 10
19.59027867740337
 20
-0.0000967065718083
 30
0.0
 11
19.55485265190471
 21
0.035329318926844
 31
0.0
  0
LINE
  5
21D9B
330
21D73
100
AcDbEntity
  8
0
  6
CONTINUOUS
100
AcDbLine
 10
20.26375463176586
 20
-0.0000534518541091
 30
0.0
 11
19.76305575737534
 21
0.5006454225364014
 31
0.0
  0
LINE
  5
21D9C
330
21D73
100
AcDbEntity
  8
0
  6
CONTINUOUS
100
AcDbLine
 10
20.93723058612834
 20
-0.0000101971364099
 30
0.0
 11
19.97125886284597
 21
0.965961526145958
 31
0.0
  0
LINE
  5
21D9D
330
21D73
100
AcDbEntity
  8
0
  6
CONTINUOUS
100
AcDbLine
 10
21.25514828313686
 20
0.355591314935257
 30
0.0
 11
20.1794619683166
 21
1.431277629755512
 31
0.0
  0
LINE
  5
21D9E
330
21D73
100
AcDbEntity
  8
0
  6
CONTINUOUS
100
AcDbLine
 10
21.46338838394921
 20
0.8208704232030986
 30
0.0
 11
20.38766507378723
 21
1.896593733365069
 31
0.0
  0
LINE
  5
21D9F
330
21D73
100
AcDbEntity
  8
0
  6
CONTINUOUS
100
AcDbLine
 10
21.67162848476155
 20
1.28614953147094
 30
0.0
 11
20.59586817925786
 21
2.361909836974626
 31
0.0
  0
LINE
  5
21DA0
330
21D73
100
AcDbEntity
  8
0
  6
CONTINUOUS
100
AcDbLine
 10
21.8798685855739
 20
1.751428639738782
 30
0.0
 11
20.80407128472849
 21
2.827225940584183
 31
0.0
  0
LINE
  5
21DA1
330
21D73
100
AcDbEntity
  8
0
  6
CONTINUOUS
100
AcDbLine
 10
22.08810868638624
 20
2.216707748006623
 30
0.0
 11
21.01227439019912
 21
3.292542044193739
 31
0.0
  0
LINE
  5
21DA2
330
21D73
100
AcDbEntity
  8
0
  6
CONTINUOUS
100
AcDbLine
 10
22.60993564347543
 20
2.36839999999762
 30
0.0
 11
21.22047749566975
 21
3.757858147803296
 31
0.0
  0
LINE
  5
21DA3
330
21D73
100
AcDbEntity
  8
0
  6
CONTINUOUS
100
AcDbLine
 10
23.28345485255561
 20
2.36839999999762
 30
0.0
 11
21.42868060114038
 21
4.223174251412853
 31
0.0
  0
LINE
  5
21DA4
330
21D73
100
AcDbEntity
  8
0
  6
CONTINUOUS
100
AcDbLine
 10
26.29227406164219
 20
0.0330999999912356
 30
0.0
 11
25.80009199592872
 21
0.5252820657046957
 31
0.0
  0
LINE
  5
21DA5
330
21D73
100
AcDbEntity
  8
0
  6
CONTINUOUS
100
AcDbLine
 10
23.9569740616358
 20
2.36839999999762
 30
0.0
 11
21.63688370661101
 21
4.688490355022409
 31
0.0
  0
LINE
  5
21DA6
330
21D73
100
AcDbEntity
  8
0
  6
CONTINUOUS
100
AcDbLine
 10
26.96579327072237
 20
0.0330999999912356
 30
0.0
 11
25.2554132311971
 21
1.743480039516508
 31
0.0
  0
LINE
  5
21DA7
330
21D73
100
AcDbEntity
  8
0
  6
CONTINUOUS
100
AcDbLine
 10
24.63049327071599
 20
2.36839999999762
 30
0.0
 11
23.32789327071731
 21
3.670999999996297
 31
0.0
  0
LINE
  5
21DA8
330
21D73
100
AcDbEntity
  8
0
  6
CONTINUOUS
100
AcDbLine
 10
22.92098674744635
 20
4.077906523267254
 30
0.0
 11
21.84508681208164
 21
5.153806458631966
 31
0.0
  0
LINE
  5
21DA9
330
21D73
100
AcDbEntity
  8
0
  6
CONTINUOUS
100
AcDbLine
 10
27.63931247980256
 20
0.0330999999912356
 30
0.0
 11
24.0014124797975
 21
3.670999999996297
 31
0.0
  0
LINE
  5
21DAA
330
21D73
100
AcDbEntity
  8
0
  6
CONTINUOUS
100
AcDbLine
 10
23.129125600968
 20
4.5432868788258
 30
0.0
 11
22.05328991755227
 21
5.619122562241522
 31
0.0
  0
LINE
  5
21DAB
330
21D73
100
AcDbEntity
  8
0
  6
CONTINUOUS
100
AcDbLine
 10
28.31283168888275
 20
0.0330999999912356
 30
0.0
 11
24.16488385994816
 21
4.181047828925828
 31
0.0
  0
LINE
  5
21DAC
330
21D73
100
AcDbEntity
  8
0
  6
CONTINUOUS
100
AcDbLine
 10
23.33726445448964
 20
5.008667234384345
 30
0.0
 11
22.2614930230229
 21
6.084438665851079
 31
0.0
  0
LINE
  5
21DAD
330
21D73
100
AcDbEntity
  8
0
  6
CONTINUOUS
100
AcDbLine
 10
28.86286302309502
 20
0.1565878748591523
 30
0.0
 11
27.63635089796295
 21
1.383099999991217
 31
0.0
  0
LINE
  5
21DAE
330
21D73
100
AcDbEntity
  8
0
  6
CONTINUOUS
100
AcDbLine
 10
26.43704649509776
 20
2.582404402856405
 30
0.0
 11
23.61992702019732
 21
5.399523877756844
 31
0.0
  0
LINE
  5
21DAF
330
21D73
100
AcDbEntity
  8
0
  6
CONTINUOUS
100
AcDbLine
 10
23.54540330801128
 20
5.47404758994289
 30
0.0
 11
22.46969612849353
 21
6.549754769460635
 31
0.0
  0
LINE
  5
21DB0
330
21D73
100
AcDbEntity
  8
0
  6
CONTINUOUS
100
AcDbLine
 10
29.39405087596853
 20
0.2989192310658284
 30
0.0
 11
28.30987010704312
 21
1.383099999991234
 31
0.0
  0
LINE
  5
21DB1
330
21D73
100
AcDbEntity
  8
0
  6
CONTINUOUS
100
AcDbLine
 10
25.89179548232307
 20
3.801174624711282
 30
0.0
 11
22.67789923396416
 21
7.015070873070191
 31
0.0
  0
LINE
  5
21DB2
330
21D73
100
AcDbEntity
  8
0
  6
CONTINUOUS
100
AcDbLine
 10
29.79594438047407
 20
0.570544935640473
 30
0.0
 11
28.81310432793121
 21
1.553384988183336
 31
0.0
  0
LINE
  5
21DB3
330
21D73
100
AcDbEntity
  8
0
  6
CONTINUOUS
100
AcDbLine
 10
25.34654446954838
 20
5.01994484656616
 30
0.0
 11
22.88610233943479
 21
7.480386976679748
 31
0.0
  0
LINE
  5
21DB4
330
21D73
100
AcDbEntity
  8
0
  6
CONTINUOUS
100
AcDbLine
 10
30.13270398501416
 20
0.9073045401805646
 30
0.0
 11
29.14234640337737
 21
1.897662121817355
 31
0.0
  0
LINE
  5
21DB5
330
21D73
100
AcDbEntity
  8
0
  6
CONTINUOUS
100
AcDbLine
 10
24.80129345677369
 20
6.238715068421037
 30
0.0
 11
23.09430544490542
 21
7.945703080289305
 31
0.0
  0
LINE
  5
21DB6
330
21D73
100
AcDbEntity
  8
0
  6
CONTINUOUS
100
AcDbLine
 10
30.44581292956759
 20
1.26771480470732
 30
0.0
 11
29.30199999996933
 21
2.411527734305588
 31
0.0
  0
LINE
  5
21DB7
330
21D73
100
AcDbEntity
  8
0
  6
CONTINUOUS
100
AcDbLine
 10
30.58814428577427
 20
1.798902657580827
 30
0.0
 11
29.30199999996933
 21
3.085046943385775
 31
0.0
  0
LINE
  5
21DB8
330
21D73
100
AcDbEntity
  8
0
  6
CONTINUOUS
100
AcDbLine
 10
24.256042443999
 20
7.457485290275915
 30
0.0
 11
23.30250855037605
 21
8.411019183898862
 31
0.0
  0
LINE
  5
21DB9
330
21D73
100
AcDbEntity
  8
0
  6
CONTINUOUS
100
AcDbLine
 10
23.71079143122431
 20
8.676255512130794
 30
0.0
 11
23.51071165584668
 21
8.876335287508418
 31
0.0
  0
LINE
  5
21DBA
330
21D73
100
AcDbEntity
  8
0
  6
CONTINUOUS
100
AcDbLine
 10
30.73047564198095
 20
2.330090510454333
 30
0.0
 11
29.30199999996933
 21
3.758566152465961
 31
0.0
  0
LINE
  5
21DBB
330
21D73
100
AcDbEntity
  8
0
  6
CONTINUOUS
100
AcDbLine
 10
30.74199999996924
 20
2.992085361546236
 30
0.0
 11
29.30199999996933
 21
4.432085361546148
 31
0.0
  0
LINE
  5
21DBC
330
21D73
100
AcDbEntity
  8
0
  6
CONTINUOUS
100
AcDbLine
 10
30.74199999996924
 20
3.665604570626419
 30
0.0
 11
29.30199999996933
 21
5.105604570626333
 31
0.0
  0
LINE
  5
21DBD
330
21D73
100
AcDbEntity
  8
0
  6
CONTINUOUS
100
AcDbLine
 10
30.74199999996925
 20
4.339123779706602
 30
0.0
 11
29.30199999996933
 21
5.77912377970652
 31
0.0
  0
LINE
  5
21DBE
330
21D73
100
AcDbEntity
  8
0
  6
CONTINUOUS
100
AcDbLine
 10
30.74199999996925
 20
5.012642988786785
 30
0.0
 11
29.30199999996933
 21
6.452642988786707
 31
0.0
  0
LINE
  5
21DBF
330
21D73
100
AcDbEntity
  8
0
  6
CONTINUOUS
100
AcDbLine
 10
30.74199999996925
 20
5.68616219786697
 30
0.0
 11
29.30199999996933
 21
7.126162197866894
 31
0.0
  0
LINE
  5
21DC0
330
21D73
100
AcDbEntity
  8
0
  6
CONTINUOUS
100
AcDbLine
 10
30.74199999996925
 20
6.359681406947153
 30
0.0
 11
29.30199999996933
 21
7.799681406947081
 31
0.0
  0
LINE
  5
21DC1
330
21D73
100
AcDbEntity
  8
0
  6
CONTINUOUS
100
AcDbLine
 10
30.74199999996926
 20
7.033200616027337
 30
0.0
 11
29.30199999996933
 21
8.473200616027269
 31
0.0
  0
LINE
  5
21DC2
330
21D73
100
AcDbEntity
  8
0
  6
CONTINUOUS
100
AcDbLine
 10
30.74199999996926
 20
7.706719825107518
 30
0.0
 11
29.68561982508552
 21
8.763099999991255
 31
0.0
  0
LINE
  5
21DC3
330
21D73
100
AcDbEntity
  8
0
  6
CONTINUOUS
100
AcDbLine
 10
30.74199999996926
 20
8.380239034187703
 30
0.0
 11
30.35913903416571
 21
8.763099999991255
 31
0.0
  0
ENDBLK
  5
21E66
330
21D73
100
AcDbEntity
  8
0
100
AcDbBlockEnd
  0
BLOCK
  5
21E67
330
21DC4
100
AcDbEntity
  8
0
100
AcDbBlockBegin
  2
*X160
 70
     1
 10
0.0
 20
0.0
 30
0.0
  3
*X160
  1

  0
LINE
  5
21DC5
330
21DC4
100
AcDbEntity
  8
0
  6
CONTINUOUS
100
AcDbLine
 10
31.64199999996833
 20
8.5350582899136
 30
0.0
 11
31.87004171004599
 21
8.763099999991255
 31
0.0
  0
LINE
  5
21DC6
330
21DC4
100
AcDbEntity
  8
0
  6
CONTINUOUS
100
AcDbLine
 10
31.64199999996833
 20
7.861539080833413
 30
0.0
 11
32.54356091912618
 21
8.763099999991255
 31
0.0
  0
LINE
  5
21DC7
330
21DC4
100
AcDbEntity
  8
0
  6
CONTINUOUS
100
AcDbLine
 10
31.64199999996833
 20
7.188019871753227
 30
0.0
 11
33.08199999996839
 21
8.628019871753281
 31
0.0
  0
LINE
  5
21DC8
330
21DC4
100
AcDbEntity
  8
0
  6
CONTINUOUS
100
AcDbLine
 10
31.64199999996833
 20
6.514500662673041
 30
0.0
 11
33.08199999996839
 21
7.954500662673095
 31
0.0
  0
LINE
  5
21DC9
330
21DC4
100
AcDbEntity
  8
0
  6
CONTINUOUS
100
AcDbLine
 10
31.64199999996833
 20
5.840981453592855
 30
0.0
 11
33.08199999996839
 21
7.28098145359291
 31
0.0
  0
LINE
  5
21DCA
330
21DC4
100
AcDbEntity
  8
0
  6
CONTINUOUS
100
AcDbLine
 10
31.64199999996833
 20
5.167462244512668
 30
0.0
 11
33.08199999996839
 21
6.607462244512723
 31
0.0
  0
LINE
  5
21DCB
330
21DC4
100
AcDbEntity
  8
0
  6
CONTINUOUS
100
AcDbLine
 10
31.64199999996833
 20
4.493943035432482
 30
0.0
 11
33.08199999996839
 21
5.933943035432536
 31
0.0
  0
LINE
  5
21DCC
330
21DC4
100
AcDbEntity
  8
0
  6
CONTINUOUS
100
AcDbLine
 10
31.64199999996833
 20
3.820423826352294
 30
0.0
 11
33.08199999996839
 21
5.260423826352349
 31
0.0
  0
LINE
  5
21DCD
330
21DC4
100
AcDbEntity
  8
0
  6
CONTINUOUS
100
AcDbLine
 10
31.64199999996833
 20
3.146904617272108
 30
0.0
 11
33.08199999996839
 21
4.586904617272163
 31
0.0
  0
LINE
  5
21DCE
330
21DC4
100
AcDbEntity
  8
0
  6
CONTINUOUS
100
AcDbLine
 10
36.23199999996837
 20
8.410423826352327
 30
0.0
 11
36.58467617360729
 21
8.763099999991255
 31
0.0
  0
LINE
  5
21DCF
330
21DC4
100
AcDbEntity
  8
0
  6
CONTINUOUS
100
AcDbLine
 10
36.23199999996837
 20
7.73690461727214
 30
0.0
 11
37.25819538268748
 21
8.763099999991255
 31
0.0
  0
LINE
  5
21DD0
330
21DC4
100
AcDbEntity
  8
0
  6
CONTINUOUS
100
AcDbLine
 10
31.64323424774199
 20
2.474619655965573
 30
0.0
 11
33.08199999996839
 21
3.913385408191976
 31
0.0
  0
LINE
  5
21DD1
330
21DC4
100
AcDbEntity
  8
0
  6
CONTINUOUS
100
AcDbLine
 10
31.74419223861915
 20
1.902058437762552
 30
0.0
 11
33.08199999996839
 21
3.239866199111789
 31
0.0
  0
LINE
  5
21DD2
330
21DC4
100
AcDbEntity
  8
0
  6
CONTINUOUS
100
AcDbLine
 10
36.23199999996837
 20
7.063385408191953
 30
0.0
 11
37.67199999996831
 21
8.503385408191894
 31
0.0
  0
LINE
  5
21DD3
330
21DC4
100
AcDbEntity
  8
0
  6
CONTINUOUS
100
AcDbLine
 10
36.23199999996837
 20
6.389866199111767
 30
0.0
 11
37.67199999996831
 21
7.829866199111708
 31
0.0
  0
LINE
  5
21DD4
330
21DC4
100
AcDbEntity
  8
0
  6
CONTINUOUS
100
AcDbLine
 10
31.91111233414976
 20
1.39545932421297
 30
0.0
 11
33.08199999996839
 21
2.566346990031603
 31
0.0
  0
LINE
  5
21DD5
330
21DC4
100
AcDbEntity
  8
0
  6
CONTINUOUS
100
AcDbLine
 10
36.23199999996837
 20
5.71634699003158
 30
0.0
 11
37.67199999996831
 21
7.156346990031522
 31
0.0
  0
LINE
  5
21DD6
330
21DC4
100
AcDbEntity
  8
0
  6
CONTINUOUS
100
AcDbLine
 10
32.1576374746103
 20
0.9684652555933289
 30
0.0
 11
33.20642631446081
 21
2.017254095443838
 31
0.0
  0
LINE
  5
21DD7
330
21DC4
100
AcDbEntity
  8
0
  6
CONTINUOUS
100
AcDbLine
 10
36.23199999996837
 20
5.042827780951393
 30
0.0
 11
37.67199999996831
 21
6.482827780951334
 31
0.0
  0
LINE
  5
21DD8
330
21DC4
100
AcDbEntity
  8
0
  6
CONTINUOUS
100
AcDbLine
 10
32.47774023927325
 20
0.6150488111760914
 30
0.0
 11
33.49903056428258
 21
1.636339136185419
 31
0.0
  0
LINE
  5
21DD9
330
21DC4
100
AcDbEntity
  8
0
  6
CONTINUOUS
100
AcDbLine
 10
36.23199999996837
 20
4.369308571871207
 30
0.0
 11
37.67199999996831
 21
5.809308571871148
 31
0.0
  0
LINE
  5
21DDA
330
21DC4
100
AcDbEntity
  8
0
  6
CONTINUOUS
100
AcDbLine
 10
32.84396249154443
 20
0.3077518543670883
 30
0.0
 11
33.93324121824649
 21
1.397030581069146
 31
0.0
  0
LINE
  5
21DDB
330
21DC4
100
AcDbEntity
  8
0
  6
CONTINUOUS
100
AcDbLine
 10
36.23199999996837
 20
3.695789362791021
 30
0.0
 11
37.67199999996831
 21
5.135789362790963
 31
0.0
  0
LINE
  5
21DDC
330
21DC4
100
AcDbEntity
  8
0
  6
CONTINUOUS
100
AcDbLine
 10
33.30186329036846
 20
0.0921334441109263
 30
0.0
 11
34.46442907112041
 21
1.254699224862875
 31
0.0
  0
LINE
  5
21DDD
330
21DC4
100
AcDbEntity
  8
0
  6
CONTINUOUS
100
AcDbLine
 10
36.23199999996837
 20
3.022270153710834
 30
0.0
 11
37.67199999996831
 21
4.462270153710776
 31
0.0
  0
LINE
  5
21DDE
330
21DC4
100
AcDbEntity
  8
0
  6
CONTINUOUS
100
AcDbLine
 10
33.79565647746294
 20
-0.0875925778747773
 30
0.0
 11
35.24350171668284
 21
1.360252661345124
 31
0.0
  0
LINE
  5
21DDF
330
21DC4
100
AcDbEntity
  8
0
  6
CONTINUOUS
100
AcDbLine
 10
36.18336676155003
 20
2.300117706212308
 30
0.0
 11
37.67199999996831
 21
3.788750944630589
 31
0.0
  0
LINE
  5
21DE0
330
21DC4
100
AcDbEntity
  8
0
  6
CONTINUOUS
100
AcDbLine
 10
34.37182574910968
 20
-0.184942515308224
 30
0.0
 11
37.67199999996831
 21
3.115231735550402
 31
0.0
  0
LINE
  5
21DE1
330
21DC4
100
AcDbEntity
  8
0
  6
CONTINUOUS
100
AcDbLine
 10
35.0453449581892
 20
-0.1849425153088955
 30
0.0
 11
37.66345697088136
 21
2.433169497383271
 31
0.0
  0
LINE
  5
21DE2
330
21DC4
100
AcDbEntity
  8
0
  6
CONTINUOUS
100
AcDbLine
 10
35.98667157609191
 20
0.0828648935136398
 30
0.0
 11
37.51927401744566
 21
1.615467334867382
 31
0.0
  0
LINE
  5
21DE3
330
21DC4
100
AcDbEntity
  8
0
  6
CONTINUOUS
100
AcDbLine
 10
32.27747408544484
 20
0.7830920669904482
 30
0.0
 11
32.24716210471949
 21
0.8134040477157893
 31
0.0
  0
LINE
  5
21DE4
330
21DC4
100
AcDbEntity
  8
0
  6
CONTINUOUS
100
AcDbLine
 10
33.83656881101902
 20
-0.1024834495035494
 30
0.0
 11
31.72538911593758
 21
2.008696245577891
 31
0.0
  0
LINE
  5
21DE5
330
21DC4
100
AcDbEntity
  8
0
  6
CONTINUOUS
100
AcDbLine
 10
34.5925470859041
 20
-0.1849425153084434
 30
0.0
 11
31.64199999996833
 21
2.765604570627322
 31
0.0
  0
LINE
  5
21DE6
330
21DC4
100
AcDbEntity
  8
0
  6
CONTINUOUS
100
AcDbLine
 10
35.26201302775981
 20
-0.1808892480839752
 30
0.0
 11
31.64199999996833
 21
3.439123779707508
 31
0.0
  0
LINE
  5
21DE7
330
21DC4
100
AcDbEntity
  8
0
  6
CONTINUOUS
100
AcDbLine
 10
35.75580621485512
 20
-0.0011632260990879
 30
0.0
 11
34.51294304365551
 21
1.241699945100514
 31
0.0
  0
LINE
  5
21DE8
330
21DC4
100
AcDbEntity
  8
0
  6
CONTINUOUS
100
AcDbLine
 10
33.08199999996839
 20
2.672642988787641
 30
0.0
 11
31.64199999996833
 21
4.112642988787695
 31
0.0
  0
LINE
  5
21DE9
330
21DC4
100
AcDbEntity
  8
0
  6
CONTINUOUS
100
AcDbLine
 10
36.24959940195042
 20
0.1785627958857976
 30
0.0
 11
35.10501653033629
 21
1.323145667499924
 31
0.0
  0
LINE
  5
21DEA
330
21DC4
100
AcDbEntity
  8
0
  6
CONTINUOUS
100
AcDbLine
 10
33.08199999996839
 20
3.346162197867827
 30
0.0
 11
31.64199999996833
 21
4.786162197867881
 31
0.0
  0
LINE
  5
21DEB
330
21DC4
100
AcDbEntity
  8
0
  6
CONTINUOUS
100
AcDbLine
 10
36.64615197150552
 20
0.4555294354108876
 30
0.0
 11
35.6362043832099
 21
1.465477023706505
 31
0.0
  0
LINE
  5
21DEC
330
21DC4
100
AcDbEntity
  8
0
  6
CONTINUOUS
100
AcDbLine
 10
33.08199999996839
 20
4.019681406948013
 30
0.0
 11
31.64199999996833
 21
5.459681406948068
 31
0.0
  0
LINE
  5
21DED
330
21DC4
100
AcDbEntity
  8
0
  6
CONTINUOUS
100
AcDbLine
 10
37.0123742237774
 20
0.7628263922191891
 30
0.0
 11
35.97691545773309
 21
1.798285158263504
 31
0.0
  0
LINE
  5
21DEE
330
21DC4
100
AcDbEntity
  8
0
  6
CONTINUOUS
100
AcDbLine
 10
33.08199999996839
 20
4.6932006160282
 30
0.0
 11
31.64199999996833
 21
6.133200616028255
 31
0.0
  0
LINE
  5
21DEF
330
21DC4
100
AcDbEntity
  8
0
  6
CONTINUOUS
100
AcDbLine
 10
37.27491524157143
 20
1.173804583505349
 30
0.0
 11
36.17602012811361
 21
2.272699696963169
 31
0.0
  0
LINE
  5
21DF0
330
21DC4
100
AcDbEntity
  8
0
  6
CONTINUOUS
100
AcDbLine
 10
33.08199999996839
 20
5.366719825108387
 30
0.0
 11
31.64199999996833
 21
6.806719825108441
 31
0.0
  0
LINE
  5
21DF1
330
21DC4
100
AcDbEntity
  8
0
  6
CONTINUOUS
100
AcDbLine
 10
37.51739996707661
 20
1.604839067080355
 30
0.0
 11
36.23199999996837
 21
2.890239034188595
 31
0.0
  0
LINE
  5
21DF2
330
21DC4
100
AcDbEntity
  8
0
  6
CONTINUOUS
100
AcDbLine
 10
37.6183579579535
 20
2.177400285283649
 30
0.0
 11
36.23199999996837
 21
3.563758243268782
 31
0.0
  0
LINE
  5
21DF3
330
21DC4
100
AcDbEntity
  8
0
  6
CONTINUOUS
100
AcDbLine
 10
33.08199999996839
 20
6.040239034188573
 30
0.0
 11
31.64199999996833
 21
7.480239034188628
 31
0.0
  0
LINE
  5
21DF4
330
21DC4
100
AcDbEntity
  8
0
  6
CONTINUOUS
100
AcDbLine
 10
33.08199999996839
 20
6.713758243268759
 30
0.0
 11
31.64199999996833
 21
8.153758243268815
 31
0.0
  0
LINE
  5
21DF5
330
21DC4
100
AcDbEntity
  8
0
  6
CONTINUOUS
100
AcDbLine
 10
37.67199999996831
 20
2.797277452349027
 30
0.0
 11
36.23199999996837
 21
4.237277452348969
 31
0.0
  0
LINE
  5
21DF6
330
21DC4
100
AcDbEntity
  8
0
  6
CONTINUOUS
100
AcDbLine
 10
37.67199999996831
 20
3.470796661429214
 30
0.0
 11
36.23199999996837
 21
4.910796661429155
 31
0.0
  0
LINE
  5
21DF7
330
21DC4
100
AcDbEntity
  8
0
  6
CONTINUOUS
100
AcDbLine
 10
37.67199999996831
 20
4.1443158705094
 30
0.0
 11
36.23199999996837
 21
5.584315870509341
 31
0.0
  0
LINE
  5
21DF8
330
21DC4
100
AcDbEntity
  8
0
  6
CONTINUOUS
100
AcDbLine
 10
33.08199999996839
 20
7.387277452348946
 30
0.0
 11
31.70617745232608
 21
8.763099999991255
 31
0.0
  0
LINE
  5
21DF9
330
21DC4
100
AcDbEntity
  8
0
  6
CONTINUOUS
100
AcDbLine
 10
33.08199999996839
 20
8.060796661429134
 30
0.0
 11
32.37969666140626
 21
8.763099999991255
 31
0.0
  0
LINE
  5
21DFA
330
21DC4
100
AcDbEntity
  8
0
  6
CONTINUOUS
100
AcDbLine
 10
33.08199999996839
 20
8.734315870509318
 30
0.0
 11
33.05321587048645
 21
8.763099999991255
 31
0.0
  0
LINE
  5
21DFB
330
21DC4
100
AcDbEntity
  8
0
  6
CONTINUOUS
100
AcDbLine
 10
37.67199999996831
 20
4.817835079589586
 30
0.0
 11
36.23199999996837
 21
6.257835079589528
 31
0.0
  0
LINE
  5
21DFC
330
21DC4
100
AcDbEntity
  8
0
  6
CONTINUOUS
100
AcDbLine
 10
37.67199999996831
 20
5.491354288669772
 30
0.0
 11
36.23199999996837
 21
6.931354288669715
 31
0.0
  0
LINE
  5
21DFD
330
21DC4
100
AcDbEntity
  8
0
  6
CONTINUOUS
100
AcDbLine
 10
37.67199999996831
 20
6.164873497749959
 30
0.0
 11
36.23199999996837
 21
7.6048734977499
 31
0.0
  0
LINE
  5
21DFE
330
21DC4
100
AcDbEntity
  8
0
  6
CONTINUOUS
100
AcDbLine
 10
37.67199999996831
 20
6.838392706830145
 30
0.0
 11
36.23199999996837
 21
8.278392706830086
 31
0.0
  0
LINE
  5
21DFF
330
21DC4
100
AcDbEntity
  8
0
  6
CONTINUOUS
100
AcDbLine
 10
37.67199999996831
 20
7.511911915910333
 30
0.0
 11
36.42081191588738
 21
8.763099999991255
 31
0.0
  0
LINE
  5
21E00
330
21DC4
100
AcDbEntity
  8
0
  6
CONTINUOUS
100
AcDbLine
 10
37.67199999996831
 20
8.185431124990519
 30
0.0
 11
37.09433112496757
 21
8.763099999991255
 31
0.0
  0
ENDBLK
  5
21E68
330
21DC4
100
AcDbEntity
  8
0
100
AcDbBlockEnd
  0
BLOCK
  5
21E69
330
21E01
100
AcDbEntity
  8
0
100
AcDbBlockBegin
  2
*X161
 70
     1
 10
0.0
 20
0.0
 30
0.0
  3
*X161
  1

  0
LINE
  5
21E02
330
21E01
100
AcDbEntity
  8
0
  6
CONTINUOUS
100
AcDbLine
 10
38.60499999996136
 20
8.762866199104765
 30
0.0
 11
38.71672554182345
 21
8.874591740966855
 31
0.0
  0
LINE
  5
21E03
330
21E01
100
AcDbEntity
  8
0
  6
CONTINUOUS
100
AcDbLine
 10
38.60499999996136
 20
8.089346990024577
 30
0.0
 11
39.03418785440363
 21
8.518534844466847
 31
0.0
  0
LINE
  5
21E04
330
21E01
100
AcDbEntity
  8
0
  6
CONTINUOUS
100
AcDbLine
 10
38.60499999996136
 20
7.41582778094439
 30
0.0
 11
39.35165016698382
 21
8.16247794796684
 31
0.0
  0
LINE
  5
21E05
330
21E01
100
AcDbEntity
  8
0
  6
CONTINUOUS
100
AcDbLine
 10
38.60499999996136
 20
6.742308571864204
 30
0.0
 11
39.66911247956399
 21
7.806421051466834
 31
0.0
  0
LINE
  5
21E06
330
21E01
100
AcDbEntity
  8
0
  6
CONTINUOUS
100
AcDbLine
 10
38.60499999996136
 20
6.068789362784018
 30
0.0
 11
39.98657479214418
 21
7.450364154966827
 31
0.0
  0
LINE
  5
21E07
330
21E01
100
AcDbEntity
  8
0
  6
CONTINUOUS
100
AcDbLine
 10
38.60499999996136
 20
5.395270153703832
 30
0.0
 11
40.30403710472435
 21
7.09430725846682
 31
0.0
  0
LINE
  5
21E08
330
21E01
100
AcDbEntity
  8
0
  6
CONTINUOUS
100
AcDbLine
 10
38.60499999996136
 20
4.721750944623645
 30
0.0
 11
40.62149941730453
 21
6.738250361966813
 31
0.0
  0
LINE
  5
21E09
330
21E01
100
AcDbEntity
  8
0
  6
CONTINUOUS
100
AcDbLine
 10
38.60499999996136
 20
4.048231735543458
 30
0.0
 11
40.93896172988471
 21
6.382193465466806
 31
0.0
  0
LINE
  5
21E0A
330
21E01
100
AcDbEntity
  8
0
  6
CONTINUOUS
100
AcDbLine
 10
38.60499999996136
 20
3.374712526463272
 30
0.0
 11
40.02599999995994
 21
4.795712526461843
 31
0.0
  0
LINE
  5
21E0B
330
21E01
100
AcDbEntity
  8
0
  6
CONTINUOUS
100
AcDbLine
 10
38.60499999996136
 20
2.701193317383085
 30
0.0
 11
40.02599999995994
 21
4.122193317381657
 31
0.0
  0
LINE
  5
21E0C
330
21E01
100
AcDbEntity
  8
0
  6
CONTINUOUS
100
AcDbLine
 10
40.28339754687704
 20
5.053110073378947
 30
0.0
 11
41.25642404246489
 21
6.026136568966799
 31
0.0
  0
LINE
  5
21E0D
330
21E01
100
AcDbEntity
  8
0
  6
CONTINUOUS
100
AcDbLine
 10
40.60085985945722
 20
4.697053176878939
 30
0.0
 11
41.57388635504507
 21
5.670079672466793
 31
0.0
  0
LINE
  5
21E0E
330
21E01
100
AcDbEntity
  8
0
  6
CONTINUOUS
100
AcDbLine
 10
43.57899999995641
 20
8.348712526458318
 30
0.0
 11
43.99338747348935
 21
8.763099999991255
 31
0.0
  0
LINE
  5
21E0F
330
21E01
100
AcDbEntity
  8
0
  6
CONTINUOUS
100
AcDbLine
 10
43.57899999995641
 20
7.675193317378131
 30
0.0
 11
44.66690668256953
 21
8.763099999991255
 31
0.0
  0
LINE
  5
21E10
330
21E01
100
AcDbEntity
  8
0
  6
CONTINUOUS
100
AcDbLine
 10
38.60499999996136
 20
2.027674108302898
 30
0.0
 11
40.02599999995994
 21
3.44867410830147
 31
0.0
  0
LINE
  5
21E11
330
21E01
100
AcDbEntity
  8
0
  6
CONTINUOUS
100
AcDbLine
 10
38.60499999996136
 20
1.354154899222712
 30
0.0
 11
40.02599999995994
 21
2.775154899221284
 31
0.0
  0
LINE
  5
21E12
330
21E01
100
AcDbEntity
  8
0
  6
CONTINUOUS
100
AcDbLine
 10
38.60499999996136
 20
0.6806356901425255
 30
0.0
 11
40.02599999995994
 21
2.101635690141098
 31
0.0
  0
LINE
  5
21E13
330
21E01
100
AcDbEntity
  8
0
  6
CONTINUOUS
100
AcDbLine
 10
38.60499999996136
 20
0.0071164810623383
 30
0.0
 11
40.02599999995994
 21
1.428116481060911
 31
0.0
  0
LINE
  5
21E14
330
21E01
100
AcDbEntity
  8
0
  6
CONTINUOUS
100
AcDbLine
 10
40.9183221720374
 20
4.340996280378933
 30
0.0
 11
41.89134866762525
 21
5.314022775966786
 31
0.0
  0
LINE
  5
21E15
330
21E01
100
AcDbEntity
  8
0
  6
CONTINUOUS
100
AcDbLine
 10
41.23578448461758
 20
3.984939383878926
 30
0.0
 11
42.20881098020543
 21
4.957965879466778
 31
0.0
  0
LINE
  5
21E16
330
21E01
100
AcDbEntity
  8
0
  6
CONTINUOUS
100
AcDbLine
 10
41.55324679719776
 20
3.628882487378919
 30
0.0
 11
42.52627329278561
 21
4.601908982966772
 31
0.0
  0
LINE
  5
21E17
330
21E01
100
AcDbEntity
  8
0
  6
CONTINUOUS
100
AcDbLine
 10
41.87070910977793
 20
3.272825590878912
 30
0.0
 11
42.84373560536579
 21
4.245852086466765
 31
0.0
  0
LINE
  5
21E18
330
21E01
100
AcDbEntity
  8
0
  6
CONTINUOUS
100
AcDbLine
 10
43.57899999995641
 20
7.001674108297943
 30
0.0
 11
44.99999999995498
 21
8.422674108296516
 31
0.0
  0
LINE
  5
21E19
330
21E01
100
AcDbEntity
  8
0
  6
CONTINUOUS
100
AcDbLine
 10
43.57899999995641
 20
6.328154899217758
 30
0.0
 11
44.99999999995498
 21
7.749154899216329
 31
0.0
  0
LINE
  5
21E1A
330
21E01
100
AcDbEntity
  8
0
  6
CONTINUOUS
100
AcDbLine
 10
43.57899999995641
 20
5.654635690137571
 30
0.0
 11
44.99999999995498
 21
7.075635690136142
 31
0.0
  0
LINE
  5
21E1B
330
21E01
100
AcDbEntity
  8
0
  6
CONTINUOUS
100
AcDbLine
 10
43.57899999995641
 20
4.981116481057384
 30
0.0
 11
44.99999999995498
 21
6.402116481055955
 31
0.0
  0
LINE
  5
21E1C
330
21E01
100
AcDbEntity
  8
0
  6
CONTINUOUS
100
AcDbLine
 10
39.27140272797921
 20
-0.0000000000000009
 30
0.0
 11
40.02599999995994
 21
0.7545972719807246
 31
0.0
  0
LINE
  5
21E1D
330
21E01
100
AcDbEntity
  8
0
  6
CONTINUOUS
100
AcDbLine
 10
39.9449219370594
 20
-0.0000000000000009
 30
0.0
 11
40.02599999995994
 21
0.0810780629005379
 31
0.0
  0
LINE
  5
21E1E
330
21E01
100
AcDbEntity
  8
0
  6
CONTINUOUS
100
AcDbLine
 10
42.18817142235812
 20
2.916768694378905
 30
0.0
 11
43.16119791794597
 21
3.889795189966758
 31
0.0
  0
LINE
  5
21E1F
330
21E01
100
AcDbEntity
  8
0
  6
CONTINUOUS
100
AcDbLine
 10
42.50563373493829
 20
2.560711797878898
 30
0.0
 11
43.47866023052615
 21
3.533738293466751
 31
0.0
  0
LINE
  5
21E20
330
21E01
100
AcDbEntity
  8
0
  6
CONTINUOUS
100
AcDbLine
 10
43.57899999995641
 20
4.307597271977198
 30
0.0
 11
44.99999999995498
 21
5.728597271975769
 31
0.0
  0
LINE
  5
21E21
330
21E01
100
AcDbEntity
  8
0
  6
CONTINUOUS
100
AcDbLine
 10
43.57899999995641
 20
3.634078062897011
 30
0.0
 11
44.99999999995498
 21
5.055078062895582
 31
0.0
  0
LINE
  5
21E22
330
21E01
100
AcDbEntity
  8
0
  6
CONTINUOUS
100
AcDbLine
 10
42.82309604751848
 20
2.204654901378891
 30
0.0
 11
44.99999999995498
 21
4.381558853815395
 31
0.0
  0
LINE
  5
21E23
330
21E01
100
AcDbEntity
  8
0
  6
CONTINUOUS
100
AcDbLine
 10
43.14055836009865
 20
1.848598004878885
 30
0.0
 11
44.99999999995498
 21
3.70803964473521
 31
0.0
  0
LINE
  5
21E24
330
21E01
100
AcDbEntity
  8
0
  6
CONTINUOUS
100
AcDbLine
 10
43.45802067267883
 20
1.492541108378878
 30
0.0
 11
44.99999999995498
 21
3.034520435655023
 31
0.0
  0
LINE
  5
21E25
330
21E01
100
AcDbEntity
  8
0
  6
CONTINUOUS
100
AcDbLine
 10
43.77548298525902
 20
1.136484211878871
 30
0.0
 11
44.99999999995498
 21
2.361001226574837
 31
0.0
  0
LINE
  5
21E26
330
21E01
100
AcDbEntity
  8
0
  6
CONTINUOUS
100
AcDbLine
 10
44.09294529783919
 20
0.7804273153788639
 30
0.0
 11
44.99999999995498
 21
1.687482017494649
 31
0.0
  0
LINE
  5
21E27
330
21E01
100
AcDbEntity
  8
0
  6
CONTINUOUS
100
AcDbLine
 10
44.41040761041938
 20
0.4243704188788566
 30
0.0
 11
44.99999999995498
 21
1.013962808414463
 31
0.0
  0
LINE
  5
21E28
330
21E01
100
AcDbEntity
  8
0
  6
CONTINUOUS
100
AcDbLine
 10
44.72786992299955
 20
0.0683135223788494
 30
0.0
 11
44.99999999995498
 21
0.340443599334276
 31
0.0
  0
LINE
  5
21E29
330
21E01
100
AcDbEntity
  8
0
  6
CONTINUOUS
100
AcDbLine
 10
39.12223903415696
 20
-0.0000000000000009
 30
0.0
 11
38.60499999996136
 21
0.5172390341955961
 31
0.0
  0
LINE
  5
21E2A
330
21E01
100
AcDbEntity
  8
0
  6
CONTINUOUS
100
AcDbLine
 10
39.79575824323715
 20
-0.0000000000000009
 30
0.0
 11
38.60499999996136
 21
1.190758243275783
 31
0.0
  0
LINE
  5
21E2B
330
21E01
100
AcDbEntity
  8
0
  6
CONTINUOUS
100
AcDbLine
 10
40.02599999995994
 20
0.443277452357397
 30
0.0
 11
38.60499999996136
 21
1.864277452355969
 31
0.0
  0
LINE
  5
21E2C
330
21E01
100
AcDbEntity
  8
0
  6
CONTINUOUS
100
AcDbLine
 10
40.02599999995994
 20
1.116796661437583
 30
0.0
 11
38.60499999996136
 21
2.537796661436155
 31
0.0
  0
LINE
  5
21E2D
330
21E01
100
AcDbEntity
  8
0
  6
CONTINUOUS
100
AcDbLine
 10
40.02599999995994
 20
1.79031587051777
 30
0.0
 11
38.60499999996136
 21
3.211315870516341
 31
0.0
  0
LINE
  5
21E2E
330
21E01
100
AcDbEntity
  8
0
  6
CONTINUOUS
100
AcDbLine
 10
40.02599999995994
 20
2.463835079597956
 30
0.0
 11
38.60499999996136
 21
3.884835079596527
 31
0.0
  0
LINE
  5
21E2F
330
21E01
100
AcDbEntity
  8
0
  6
CONTINUOUS
100
AcDbLine
 10
40.02599999995994
 20
3.137354288678143
 30
0.0
 11
38.60499999996136
 21
4.558354288676714
 31
0.0
  0
LINE
  5
21E30
330
21E01
100
AcDbEntity
  8
0
  6
CONTINUOUS
100
AcDbLine
 10
40.02599999995994
 20
3.810873497758329
 30
0.0
 11
38.60499999996136
 21
5.2318734977569
 31
0.0
  0
LINE
  5
21E31
330
21E01
100
AcDbEntity
  8
0
  6
CONTINUOUS
100
AcDbLine
 10
40.02599999995994
 20
4.484392706838515
 30
0.0
 11
38.60499999996136
 21
5.905392706837086
 31
0.0
  0
LINE
  5
21E32
330
21E01
100
AcDbEntity
  8
0
  6
CONTINUOUS
100
AcDbLine
 10
44.99999999995498
 20
0.183911915923658
 30
0.0
 11
41.53858364506288
 21
3.64532827081576
 31
0.0
  0
LINE
  5
21E33
330
21E01
100
AcDbEntity
  8
0
  6
CONTINUOUS
100
AcDbLine
 10
40.02599999995994
 20
5.157911915918703
 30
0.0
 11
38.60499999996136
 21
6.578911915917274
 31
0.0
  0
LINE
  5
21E34
330
21E01
100
AcDbEntity
  8
0
  6
CONTINUOUS
100
AcDbLine
 10
44.99999999995498
 20
0.8574311250038447
 30
0.0
 11
38.60499999996136
 21
7.25243112499746
 31
0.0
  0
LINE
  5
21E35
330
21E01
100
AcDbEntity
  8
0
  6
CONTINUOUS
100
AcDbLine
 10
44.99999999995498
 20
1.530950334084031
 30
0.0
 11
38.60499999996136
 21
7.925950334077647
 31
0.0
  0
LINE
  5
21E36
330
21E01
100
AcDbEntity
  8
0
  6
CONTINUOUS
100
AcDbLine
 10
44.99999999995498
 20
2.204469543164218
 30
0.0
 11
43.57899999995641
 21
3.625469543162789
 31
0.0
  0
LINE
  5
21E37
330
21E01
100
AcDbEntity
  8
0
  6
CONTINUOUS
100
AcDbLine
 10
41.89876730984767
 20
5.305702233271528
 30
0.0
 11
38.60499999996136
 21
8.599469543157834
 31
0.0
  0
LINE
  5
21E38
330
21E01
100
AcDbEntity
  8
0
  6
CONTINUOUS
100
AcDbLine
 10
44.99999999995498
 20
2.877988752244405
 30
0.0
 11
43.57899999995641
 21
4.298988752242975
 31
0.0
  0
LINE
  5
21E39
330
21E01
100
AcDbEntity
  8
0
  6
CONTINUOUS
100
AcDbLine
 10
44.99999999995498
 20
3.551507961324591
 30
0.0
 11
43.57899999995641
 21
4.972507961323163
 31
0.0
  0
LINE
  5
21E3A
330
21E01
100
AcDbEntity
  8
0
  6
CONTINUOUS
100
AcDbLine
 10
44.99999999995498
 20
4.225027170404777
 30
0.0
 11
43.57899999995641
 21
5.646027170403348
 31
0.0
  0
LINE
  5
21E3B
330
21E01
100
AcDbEntity
  8
0
  6
CONTINUOUS
100
AcDbLine
 10
44.99999999995498
 20
4.898546379484964
 30
0.0
 11
43.57899999995641
 21
6.319546379483535
 31
0.0
  0
LINE
  5
21E3C
330
21E01
100
AcDbEntity
  8
0
  6
CONTINUOUS
100
AcDbLine
 10
44.99999999995498
 20
5.572065588565151
 30
0.0
 11
43.57899999995641
 21
6.993065588563722
 31
0.0
  0
LINE
  5
21E3D
330
21E01
100
AcDbEntity
  8
0
  6
CONTINUOUS
100
AcDbLine
 10
44.99999999995498
 20
6.245584797645336
 30
0.0
 11
43.57899999995641
 21
7.666584797643908
 31
0.0
  0
LINE
  5
21E3E
330
21E01
100
AcDbEntity
  8
0
  6
CONTINUOUS
100
AcDbLine
 10
44.99999999995498
 20
6.919104006725522
 30
0.0
 11
43.57899999995641
 21
8.340104006724093
 31
0.0
  0
LINE
  5
21E3F
330
21E01
100
AcDbEntity
  8
0
  6
CONTINUOUS
100
AcDbLine
 10
44.99999999995498
 20
7.592623215805709
 30
0.0
 11
43.82952321576943
 21
8.763099999991255
 31
0.0
  0
LINE
  5
21E40
330
21E01
100
AcDbEntity
  8
0
  6
CONTINUOUS
100
AcDbLine
 10
44.99999999995498
 20
8.266142424885896
 30
0.0
 11
44.50304242484962
 21
8.763099999991255
 31
0.0
  0
ENDBLK
  5
21E6A
330
21E01
100
AcDbEntity
  8
0
100
AcDbBlockEnd
  0
BLOCK
  5
21E6B
330
21E41
100
AcDbEntity
  8
0
100
AcDbBlockBegin
  2
*X162
 70
     1
 10
0.0
 20
0.0
 30
0.0
  3
*X162
  1

  0
LINE
  5
21E42
330
21E41
100
AcDbEntity
  8
0
  6
CONTINUOUS
100
AcDbLine
 10
0.0
 20
8.548461116714023
 30
0.0
 11
0.2146388832772324
 21
8.763099999991255
 31
0.0
  0
LINE
  5
21E43
330
21E41
100
AcDbEntity
  8
0
  6
CONTINUOUS
100
AcDbLine
 10
-0.0000000000000002
 20
7.874941907633837
 30
0.0
 11
0.8881580923574184
 21
8.763099999991255
 31
0.0
  0
LINE
  5
21E44
330
21E41
100
AcDbEntity
  8
0
  6
CONTINUOUS
100
AcDbLine
 10
0.0
 20
7.20142269855365
 30
0.0
 11
1.420999999998572
 21
8.622422698552223
 31
0.0
  0
LINE
  5
21E45
330
21E41
100
AcDbEntity
  8
0
  6
CONTINUOUS
100
AcDbLine
 10
-0.0000000000000001
 20
6.527903489473465
 30
0.0
 11
1.420999999998571
 21
7.948903489472036
 31
0.0
  0
LINE
  5
21E46
330
21E41
100
AcDbEntity
  8
0
  6
CONTINUOUS
100
AcDbLine
 10
-0.0000000000000002
 20
5.854384280393278
 30
0.0
 11
1.420999999998571
 21
7.275384280391849
 31
0.0
  0
LINE
  5
21E47
330
21E41
100
AcDbEntity
  8
0
  6
CONTINUOUS
100
AcDbLine
 10
-0.0000000000000002
 20
5.180865071313091
 30
0.0
 11
1.420999999998571
 21
6.601865071311663
 31
0.0
  0
LINE
  5
21E48
330
21E41
100
AcDbEntity
  8
0
  6
CONTINUOUS
100
AcDbLine
 10
0.0
 20
4.507345862232905
 30
0.0
 11
1.420999999998571
 21
5.928345862231477
 31
0.0
  0
LINE
  5
21E49
330
21E41
100
AcDbEntity
  8
0
  6
CONTINUOUS
100
AcDbLine
 10
-0.0000000000000003
 20
3.833826653152718
 30
0.0
 11
1.420999999998571
 21
5.25482665315129
 31
0.0
  0
LINE
  5
21E4A
330
21E41
100
AcDbEntity
  8
0
  6
CONTINUOUS
100
AcDbLine
 10
-0.0000000000000002
 20
3.160307444072532
 30
0.0
 11
1.420999999998571
 21
4.581307444071103
 31
0.0
  0
LINE
  5
21E4B
330
21E41
100
AcDbEntity
  8
0
  6
CONTINUOUS
100
AcDbLine
 10
-0.0000000000000001
 20
2.486788234992345
 30
0.0
 11
1.420999999998571
 21
3.907788234990917
 31
0.0
  0
LINE
  5
21E4C
330
21E41
100
AcDbEntity
  8
0
  6
CONTINUOUS
100
AcDbLine
 10
-0.0000000000000006
 20
1.813269025912159
 30
0.0
 11
1.420999999998571
 21
3.234269025910731
 31
0.0
  0
LINE
  5
21E4D
330
21E41
100
AcDbEntity
  8
0
  6
CONTINUOUS
100
AcDbLine
 10
0.0
 20
1.139749816831973
 30
0.0
 11
1.420999999998571
 21
2.560749816830544
 31
0.0
  0
LINE
  5
21E4E
330
21E41
100
AcDbEntity
  8
0
  6
CONTINUOUS
100
AcDbLine
 10
0.0000000000000002
 20
0.466230607751787
 30
0.0
 11
1.420999999998571
 21
1.887230607750358
 31
0.0
  0
LINE
  5
21E4F
330
21E41
100
AcDbEntity
  8
0
  6
CONTINUOUS
100
AcDbLine
 10
0.2072886013284003
 20
-0.0000000000000009
 30
0.0
 11
1.420999999998571
 21
1.213711398670171
 31
0.0
  0
LINE
  5
21E50
330
21E41
100
AcDbEntity
  8
0
  6
CONTINUOUS
100
AcDbLine
 10
0.8808078104085864
 20
-0.0000000000000009
 30
0.0
 11
1.420999999998571
 21
0.5401921895899839
 31
0.0
  0
LINE
  5
21E51
330
21E41
100
AcDbEntity
  8
0
  6
CONTINUOUS
100
AcDbLine
 10
0.0581249075061505
 20
-0.0000000000000009
 30
0.0
 11
-0.0000000000000002
 21
0.0581249075061496
 31
0.0
  0
LINE
  5
21E52
330
21E41
100
AcDbEntity
  8
0
  6
CONTINUOUS
100
AcDbLine
 10
0.7316441165863372
 20
-0.0000000000000009
 30
0.0
 11
-0.0000000000000002
 21
0.7316441165863363
 31
0.0
  0
LINE
  5
21E53
330
21E41
100
AcDbEntity
  8
0
  6
CONTINUOUS
100
AcDbLine
 10
1.405163325666523
 20
-0.0000000000000009
 30
0.0
 11
-0.0000000000000002
 21
1.405163325666523
 31
0.0
  0
LINE
  5
21E54
330
21E41
100
AcDbEntity
  8
0
  6
CONTINUOUS
100
AcDbLine
 10
1.420999999998572
 20
0.6576825347481381
 30
0.0
 11
-0.0000000000000001
 21
2.07868253474671
 31
0.0
  0
LINE
  5
21E55
330
21E41
100
AcDbEntity
  8
0
  6
CONTINUOUS
100
AcDbLine
 10
1.420999999998571
 20
1.331201743828324
 30
0.0
 11
-0.0000000000000001
 21
2.752201743826896
 31
0.0
  0
LINE
  5
21E56
330
21E41
100
AcDbEntity
  8
0
  6
CONTINUOUS
100
AcDbLine
 10
1.420999999998571
 20
2.004720952908511
 30
0.0
 11
-0.0000000000000002
 21
3.425720952907082
 31
0.0
  0
LINE
  5
21E57
330
21E41
100
AcDbEntity
  8
0
  6
CONTINUOUS
100
AcDbLine
 10
1.420999999998571
 20
2.678240161988697
 30
0.0
 11
-0.0000000000000001
 21
4.099240161987269
 31
0.0
  0
LINE
  5
21E58
330
21E41
100
AcDbEntity
  8
0
  6
CONTINUOUS
100
AcDbLine
 10
1.420999999998572
 20
3.351759371068884
 30
0.0
 11
0.0
 21
4.772759371067455
 31
0.0
  0
LINE
  5
21E59
330
21E41
100
AcDbEntity
  8
0
  6
CONTINUOUS
100
AcDbLine
 10
1.420999999998571
 20
4.02527858014907
 30
0.0
 11
-0.0000000000000003
 21
5.446278580147642
 31
0.0
  0
LINE
  5
21E5A
330
21E41
100
AcDbEntity
  8
0
  6
CONTINUOUS
100
AcDbLine
 10
1.420999999998571
 20
4.698797789229257
 30
0.0
 11
0.0
 21
6.119797789227828
 31
0.0
  0
LINE
  5
21E5B
330
21E41
100
AcDbEntity
  8
0
  6
CONTINUOUS
100
AcDbLine
 10
1.420999999998571
 20
5.372316998309444
 30
0.0
 11
-0.0000000000000001
 21
6.793316998308015
 31
0.0
  0
LINE
  5
21E5C
330
21E41
100
AcDbEntity
  8
0
  6
CONTINUOUS
100
AcDbLine
 10
1.420999999998572
 20
6.045836207389629
 30
0.0
 11
-0.0000000000000004
 21
7.466836207388202
 31
0.0
  0
LINE
  5
21E5D
330
21E41
100
AcDbEntity
  8
0
  6
CONTINUOUS
100
AcDbLine
 10
1.420999999998571
 20
6.719355416469816
 30
0.0
 11
0.0
 21
8.140355416468388
 31
0.0
  0
LINE
  5
21E5E
330
21E41
100
AcDbEntity
  8
0
  6
CONTINUOUS
100
AcDbLine
 10
1.420999999998571
 20
7.392874625550003
 30
0.0
 11
0.0507746255573185
 21
8.763099999991255
 31
0.0
  0
LINE
  5
21E5F
330
21E41
100
AcDbEntity
  8
0
  6
CONTINUOUS
100
AcDbLine
 10
1.420999999998571
 20
8.06639383463019
 30
0.0
 11
0.7242938346375052
 21
8.763099999991255
 31
0.0
  0
LINE
  5
21E60
330
21E41
100
AcDbEntity
  8
0
  6
CONTINUOUS
100
AcDbLine
 10
1.420999999998571
 20
8.739913043710375
 30
0.0
 11
1.397813043717691
 21
8.763099999991255
 31
0.0
  0
ENDBLK
  5
21E6C
330
21E41
100
AcDbEntity
  8
0
100
AcDbBlockEnd
  0
ENDSEC
  0
SECTION
  2
ENTITIES
  0
LINE
  5
208FE
330
18
100
AcDbEntity
  8
1DIM
100
AcDbLine
 10
1226.285061251964
 20
-254.1141881913509
 30
0.0
 11
1296.285061251965
 21
-254.1141881913505
 31
0.0
  0
LINE
  5
208FF
330
18
100
AcDbEntity
  8
1DIM
100
AcDbLine
 10
1226.285061251964
 20
-247.1141881913509
 30
0.0
 11
1296.285061251965
 21
-247.1141881913505
 31
0.0
  0
TEXT
  5
20900
330
18
100
AcDbEntity
  8
1TEXT
100
AcDbText
 10
1271.818394585298
 20
-252.6141881913514
 30
0.0
 40
4.0
  1
コード
 72
     1
 11
1278.685061251964
 21
-252.6141881913514
 31
0.0
100
AcDbText
  0
TEXT
  5
20901
330
18
100
AcDbEntity
  8
1TEXT
100
AcDbText
 10
1235.345061251965
 20
-252.6141881913514
 30
0.0
 40
4.0
  1
表面処理
 41
0.9
 72
     1
 11
1243.685061251964
 21
-252.6141881913514
 31
0.0
100
AcDbText
  0
LINE
  5
20902
330
18
100
AcDbEntity
  8
1DIM
100
AcDbLine
 10
1226.285061251964
 20
-261.1141881913514
 30
0.0
 11
1296.285061251965
 21
-261.1141881913514
 31
0.0
  0
TEXT
  5
20903
330
18
100
AcDbEntity
  8
1TEXT
100
AcDbText
 10
1234.458394585299
 20
-259.8285451750003
 30
0.0
 40
4.0
  1
ヘアライン
 41
0.8
 72
     1
 11
1243.685061251965
 21
-259.8285451750003
 31
0.0
100
AcDbText
  0
LINE
  5
20904
330
18
100
AcDbEntity
  8
1DIM
100
AcDbLine
 10
1226.285061251964
 20
-247.1141881913514
 30
0.0
 11
1226.285061251964
 21
-268.1141881913514
 31
0.0
  0
LINE
  5
20905
330
18
100
AcDbEntity
  8
1DIM
100
AcDbLine
 10
1261.285061251964
 20
-247.1141881913505
 30
0.0
 11
1261.285061251964
 21
-268.1141881913514
 31
0.0
  0
LINE
  5
20906
330
18
100
AcDbEntity
  8
1DIM
100
AcDbLine
 10
1296.285061251965
 20
-247.1141881913505
 30
0.0
 11
1296.285061251964
 21
-268.1141881913514
 31
0.0
  0
TEXT
  5
20907
330
18
100
AcDbEntity
  8
1TEXT
100
AcDbText
 10
1265.32950569641
 20
-259.8285451750003
 30
0.0
 40
4.0
  1
GP-126-XT
 41
0.8
 72
     1
 11
1278.685061251965
 21
-259.8285451750003
 31
0.0
100
AcDbText
  0
TEXT
  5
20908
330
18
100
AcDbEntity
  8
1TEXT
100
AcDbText
 10
1225.083771768905
 20
-238.1141881913514
 30
0.0
 40
8.0
  1
GP-126-X
100
AcDbText
  0
LINE
  5
20909
330
18
100
AcDbEntity
  8
1DIM
100
AcDbLine
 10
1226.285061251964
 20
-268.1141881913514
 30
0.0
 11
1296.285061251964
 21
-268.1141881913514
 31
0.0
  0
TEXT
  5
2090A
330
18
100
AcDbEntity
  8
1TEXT
100
AcDbText
 10
1228.805061251965
 20
-266.8285451750008
 30
0.0
 40
4.0
  1
ブラストブラック
 41
0.8
 72
     1
 11
1243.685061251965
 21
-266.8285451750008
 31
0.0
100
AcDbText
  0
TEXT
  5
2090B
330
18
100
AcDbEntity
  8
1TEXT
100
AcDbText
 10
1263.996172363076
 20
-266.8285451750008
 30
0.0
 40
4.0
  1
GP-126-025
 41
0.8
 72
     1
 11
1278.685061251965
 21
-266.8285451750008
 31
0.0
100
AcDbText
  0
LINE
  5
21087
330
18
100
AcDbEntity
  8
01
100
AcDbLine
 10
1189.776780852436
 20
-356.7799509857574
 30
0.0
 11
1189.776780852436
 21
-359.7799509857574
 31
0.0
  0
LINE
  5
21088
330
18
100
AcDbEntity
  8
01
100
AcDbLine
 10
1189.776780852436
 20
-359.7799509857574
 30
0.0
 11
949.7767808524359
 21
-359.7799509857565
 31
0.0
  0
LINE
  5
21089
330
18
100
AcDbEntity
  8
01
100
AcDbLine
 10
1104.776780852436
 20
-384.7799509857565
 30
0.0
 11
954.7767808524359
 21
-384.7799509857565
 31
0.0
  0
ARC
  5
2108A
330
18
100
AcDbEntity
  8
01
100
AcDbCircle
 10
1104.776780852436
 20
-379.7799509857574
 30
0.0
 40
5.0
100
AcDbArc
 50
270.0
 51
0.0
  0
LINE
  5
2108B
330
18
100
AcDbEntity
  8
01
100
AcDbLine
 10
1189.776780852436
 20
-356.7799509857574
 30
0.0
 11
949.7767808524359
 21
-356.7799509857565
 31
0.0
  0
LINE
  5
2108C
330
18
100
AcDbEntity
  8
01
100
AcDbLine
 10
949.7767808524359
 20
-356.7799509857574
 30
0.0
 11
949.7767808524359
 21
-359.7799509857565
 31
0.0
  0
LINE
  5
2108D
330
18
100
AcDbEntity
  8
01
100
AcDbLine
 10
1109.776780852436
 20
-359.7799509857574
 30
0.0
 11
1109.776780852436
 21
-379.7799509857574
 31
0.0
  0
LINE
  5
2108E
330
18
100
AcDbEntity
  8
01
100
AcDbLine
 10
949.7767808524359
 20
-359.7799509857565
 30
0.0
 11
949.7767808524359
 21
-379.7799509857556
 31
0.0
  0
ARC
  5
2108F
330
18
100
AcDbEntity
  8
01
100
AcDbCircle
 10
954.7767808524359
 20
-379.7799509857556
 30
0.0
 40
5.0
100
AcDbArc
 50
180.0
 51
270.0
  0
LINE
  5
21090
330
18
100
AcDbEntity
  8
01
100
AcDbLine
 10
1279.451387589801
 20
-359.7799509857556
 30
0.0
 11
1198.451387589801
 21
-359.7799509857565
 31
0.0
  0
ARC
  5
21092
330
18
100
AcDbEntity
  8
01
100
AcDbCircle
 10
1279.451387589801
 20
-360.7799509857574
 30
0.0
 40
4.0
100
AcDbArc
 50
0.0
 51
90.0
  0
LINE
  5
21093
330
18
100
AcDbEntity
  8
01
100
AcDbLine
 10
1279.451387589801
 20
-356.7799509857565
 30
0.0
 11
1198.451387589801
 21
-356.7799509857565
 31
0.0
  0
LINE
  5
21095
330
18
100
AcDbEntity
  8
1PHANTOM
100
AcDbLine
 10
1198.451387589801
 20
-356.7799509857574
 30
0.0
 11
1198.451387589801
 21
-359.7799509857565
 31
0.0
  0
LINE
  5
21098
330
18
100
AcDbEntity
  8
01
100
AcDbLine
 10
1278.451387589801
 20
-356.7799509857574
 30
0.0
 11
1278.451387589801
 21
-359.7799509857556
 31
0.0
  0
LINE
  5
2109D
330
18
100
AcDbEntity
  8
01
100
AcDbLine
 10
1280.451387589801
 20
-360.7799509857601
 30
0.0
 11
1280.451387589801
 21
-384.7799509857583
 31
0.0
  0
LINE
  5
2109E
330
18
100
AcDbEntity
  8
01
100
AcDbLine
 10
1280.451387589801
 20
-384.7799509857583
 30
0.0
 11
1283.451387589801
 21
-384.7799509857583
 31
0.0
  0
ARC
  5
2109F
330
18
100
AcDbEntity
  8
01
100
AcDbCircle
 10
1279.451387589801
 20
-360.7799509857601
 30
0.0
 40
1.0
100
AcDbArc
 50
0.0
 51
90.0
  0
LINE
  5
210F2
330
18
100
AcDbEntity
  8
01
100
AcDbLine
 10
1283.451387589801
 20
-384.7799509857583
 30
0.0
 11
1283.451387589801
 21
-360.7799509857574
 31
0.0
  0
LINE
  5
216BB
330
18
100
AcDbEntity
  8
01
100
AcDbLine
 10
949.7767808524359
 20
-224.2383663565996
 30
0.0
 11
949.7767808524359
 21
-273.7383663565996
 31
0.0
  0
LINE
  5
216BC
330
18
100
AcDbEntity
  8
01
100
AcDbLine
 10
949.7767808524359
 20
-289.7383663565996
 30
0.0
 11
949.7767808524359
 21
-304.2383663565996
 31
0.0
  0
ARC
  5
216BD
330
18
100
AcDbEntity
  8
01
100
AcDbCircle
 10
954.7767808524359
 20
-304.2383663565996
 30
0.0
 40
5.0
100
AcDbArc
 50
180.0
 51
270.0
  0
LINE
  5
216BE
330
18
100
AcDbEntity
  8
01
100
AcDbLine
 10
1189.776780852436
 20
-234.2383663565996
 30
0.0
 11
1189.776780852436
 21
-304.2383663565996
 31
0.0
  0
ARC
  5
216BF
330
18
100
AcDbEntity
  8
01
100
AcDbCircle
 10
1184.776780852436
 20
-234.2383663565996
 30
0.0
 40
5.0
100
AcDbArc
 50
0.0
 51
90.0
  0
LINE
  5
216C0
330
18
100
AcDbEntity
  8
01
100
AcDbLine
 10
1164.776780852436
 20
-249.2383663565996
 30
0.0
 11
1164.776780852436
 21
-289.2383663565996
 31
0.0
  0
LINE
  5
216C1
330
18
100
AcDbEntity
  8
01
100
AcDbLine
 10
954.7767808524359
 20
-309.2383663565996
 30
0.0
 11
1184.776780852436
 21
-309.2383663565996
 31
0.0
  0
ARC
  5
216C2
330
18
100
AcDbEntity
  8
01
100
AcDbCircle
 10
1184.776780852436
 20
-304.2383663565996
 30
0.0
 40
5.0
100
AcDbArc
 50
270.0
 51
0.0
  0
LINE
  5
216C3
330
18
100
AcDbEntity
  8
01
100
AcDbLine
 10
1039.776780852436
 20
-294.2383663566023
 30
0.0
 11
1159.776780852436
 21
-294.2383663566014
 31
0.0
  0
ARC
  5
216C4
330
18
100
AcDbEntity
  8
01
100
AcDbCircle
 10
1159.776780852436
 20
-289.2383663565996
 30
0.0
 40
5.0
100
AcDbArc
 50
270.0
 51
0.0
  0
LINE
  5
216C5
330
18
100
AcDbEntity
  8
01
100
AcDbLine
 10
1109.776780852436
 20
-229.2383663565996
 30
0.0
 11
1184.776780852436
 21
-229.2383663565996
 31
0.0
  0
LINE
  5
216C6
330
18
100
AcDbEntity
  8
01
100
AcDbLine
 10
1039.776780852436
 20
-244.2383663565996
 30
0.0
 11
1159.776780852436
 21
-244.2383663565996
 31
0.0
  0
ARC
  5
216C7
330
18
100
AcDbEntity
  8
01
100
AcDbCircle
 10
1159.776780852436
 20
-249.2383663565996
 30
0.0
 40
5.0
100
AcDbArc
 50
0.0
 51
90.0
  0
LINE
  5
216C8
330
18
100
AcDbEntity
  8
01
100
AcDbLine
 10
1034.776780852436
 20
-249.2383663565996
 30
0.0
 11
1034.776780852436
 21
-289.2383663565996
 31
0.0
  0
ARC
  5
216C9
330
18
100
AcDbEntity
  8
01
100
AcDbCircle
 10
1039.776780852436
 20
-289.2383663565996
 30
0.0
 40
5.0
100
AcDbArc
 50
180.0
 51
270.0
  0
ARC
  5
216CA
330
18
100
AcDbEntity
  8
01
100
AcDbCircle
 10
1039.776780852436
 20
-249.2383663565996
 30
0.0
 40
5.0
100
AcDbArc
 50
90.0
 51
180.0
  0
ARC
  5
216CB
330
18
100
AcDbEntity
  8
01
100
AcDbCircle
 10
952.7767808524363
 20
-273.7383663565996
 30
0.0
 40
3.000000000000001
100
AcDbArc
 50
180.0
 51
270.0
  0
LINE
  5
216CC
330
18
100
AcDbEntity
  8
01
100
AcDbLine
 10
985.7767808524354
 20
-294.2383663566005
 30
0.0
 11
967.7767808524354
 21
-294.2383663565996
 31
0.0
  0
ARC
  5
216CD
330
18
100
AcDbEntity
  8
01
100
AcDbCircle
 10
985.7767808524354
 20
-291.2383663566005
 30
0.0
 40
3.000000000000001
100
AcDbArc
 50
270.0
 51
0.0
  0
LINE
  5
216CE
330
18
100
AcDbEntity
  8
01
100
AcDbLine
 10
985.7767808524354
 20
-269.2383663566005
 30
0.0
 11
967.7767808524354
 21
-269.2383663565996
 31
0.0
  0
ARC
  5
216CF
330
18
100
AcDbEntity
  8
01
100
AcDbCircle
 10
967.7767808524354
 20
-272.2383663565996
 30
0.0
 40
3.000000000000001
100
AcDbArc
 50
90.0
 51
180.0
  0
LINE
  5
216D0
330
18
100
AcDbEntity
  8
01
100
AcDbLine
 10
964.7767808524354
 20
-291.2383663565996
 30
0.0
 11
964.7767808524354
 21
-289.7383663565996
 31
0.0
  0
ARC
  5
216D1
330
18
100
AcDbEntity
  8
01
100
AcDbCircle
 10
961.7767808524354
 20
-289.7383663565996
 30
0.0
 40
3.000000000000001
100
AcDbArc
 50
0.0
 51
90.0
  0
LINE
  5
216D2
330
18
100
AcDbEntity
  8
01
100
AcDbLine
 10
964.7767808524354
 20
-273.7383663565996
 30
0.0
 11
964.7767808524354
 21
-272.2383663565996
 31
0.0
  0
ARC
  5
216D3
330
18
100
AcDbEntity
  8
01
100
AcDbCircle
 10
967.7767808524354
 20
-291.2383663565996
 30
0.0
 40
3.000000000000001
100
AcDbArc
 50
180.0
 51
270.0
  0
LINE
  5
216D4
330
18
100
AcDbEntity
  8
01
100
AcDbLine
 10
988.7767808524354
 20
-291.2383663566005
 30
0.0
 11
988.7767808524354
 21
-272.2383663566005
 31
0.0
  0
ARC
  5
216D5
330
18
100
AcDbEntity
  8
01
100
AcDbCircle
 10
985.7767808524354
 20
-272.2383663566005
 30
0.0
 40
3.000000000000001
100
AcDbArc
 50
0.0
 51
90.0
  0
LINE
  5
216D6
330
18
100
AcDbEntity
  8
01
100
AcDbLine
 10
961.7767808524354
 20
-276.7383663565996
 30
0.0
 11
952.7767808524363
 21
-276.7383663565996
 31
0.0
  0
ARC
  5
216D7
330
18
100
AcDbEntity
  8
01
100
AcDbCircle
 10
961.7767808524354
 20
-273.7383663565996
 30
0.0
 40
3.000000000000001
100
AcDbArc
 50
270.0
 51
0.0
  0
LINE
  5
216D8
330
18
100
AcDbEntity
  8
01
100
AcDbLine
 10
961.7767808524354
 20
-286.7383663565996
 30
0.0
 11
952.7767808524363
 21
-286.7383663565996
 31
0.0
  0
ARC
  5
216D9
330
18
100
AcDbEntity
  8
01
100
AcDbCircle
 10
952.7767808524363
 20
-289.7383663565996
 30
0.0
 40
3.000000000000001
100
AcDbArc
 50
90.0
 51
180.0
  0
LINE
  5
216DA
330
18
100
AcDbEntity
  8
01
100
AcDbLine
 10
1109.776780852436
 20
-224.2383663565996
 30
0.0
 11
1109.776780852436
 21
-229.2383663565996
 31
0.0
  0
LINE
  5
216DD
330
18
100
AcDbEntity
  8
01
100
AcDbLine
 10
949.7767808524359
 20
-224.2383663565996
 30
0.0
 11
1109.776780852436
 21
-224.2383663565996
 31
0.0
  0
LINE
  5
216E0
330
18
100
AcDbEntity
  8
01
100
AcDbLine
 10
1298.451387589801
 20
-319.7358482750816
 30
0.0
 11
1298.451387589801
 21
-411.9960020925309
 31
0.0
  0
LINE
  5
216E1
330
18
100
AcDbEntity
  8
01
100
AcDbLine
 10
1283.451387589801
 20
-319.7358482750816
 30
0.0
 11
1283.451387589801
 21
-411.9960020925309
 31
0.0
  0
CIRCLE
  5
21B18
330
18
100
AcDbEntity
  8
01
100
AcDbCircle
 10
1089.776780852439
 20
-370.7799509857574
 30
0.0
 40
2.25
  0
CIRCLE
  5
21B19
330
18
100
AcDbEntity
  8
01
100
AcDbCircle
 10
1089.776780852439
 20
-370.7799509857574
 30
0.0
 40
4.25
  0
LINE
  5
21B1A
330
18
100
AcDbEntity
  8
1CENTER
100
AcDbLine
 10
1094.776780852439
 20
-370.7799509857574
 30
0.0
 11
1084.776780852439
 21
-370.7799509857574
 31
0.0
  0
LINE
  5
21B1B
330
18
100
AcDbEntity
  8
1CENTER
100
AcDbLine
 10
1089.776780852439
 20
-365.7799509857574
 30
0.0
 11
1089.776780852439
 21
-375.7799509857574
 31
0.0
  0
CIRCLE
  5
21B20
330
18
100
AcDbEntity
  8
01
100
AcDbCircle
 10
989.7767808524327
 20
-370.7799509857574
 30
0.0
 40
2.25
  0
CIRCLE
  5
21B21
330
18
100
AcDbEntity
  8
01
100
AcDbCircle
 10
989.7767808524327
 20
-370.7799509857574
 30
0.0
 40
4.25
  0
LINE
  5
21B22
330
18
100
AcDbEntity
  8
1CENTER
100
AcDbLine
 10
984.7767808524327
 20
-370.7799509857574
 30
0.0
 11
994.7767808524327
 21
-370.7799509857574
 31
0.0
  0
LINE
  5
21B23
330
18
100
AcDbEntity
  8
1CENTER
100
AcDbLine
 10
989.7767808524327
 20
-365.7799509857574
 30
0.0
 11
989.7767808524327
 21
-375.7799509857574
 31
0.0
  0
TEXT
  5
21B24
330
18
100
AcDbEntity
  8
1DIM
  6
CONTINUOUS
100
AcDbText
 10
1190.145930802951
 20
-331.1676814486436
 30
0.0
 40
3.5
  1
材質：ステンレス
100
AcDbText
  0
TEXT
  5
21B25
330
18
100
AcDbEntity
  8
1DIM
  6
CONTINUOUS
100
AcDbText
 10
1185.595930802951
 20
-337.0010147819769
 30
0.0
 40
3.5
  1
仕上げ：各種仕上げ
100
AcDbText
  0
SOLID
  5
21B26
330
18
100
AcDbEntity
  8
1DIM
100
AcDbTrace
 10
1238.046560639848
 20
-355.4183702224718
 30
0.0
 11
1238.909485581815
 21
-357.2531649400469
 31
0.0
 12
1237.498136674254
 22
-355.7974158640599
 32
0.0
 13
1237.498136674254
 23
-355.7974158640599
 33
0.0
  0
LINE
  5
21B27
330
18
100
AcDbEntity
  8
1DIM
100
AcDbLine
 10
1237.772348657051
 20
-355.6078930432658
 30
0.0
 11
1225.395930802951
 21
-337.7010147819769
 31
0.0
  0
LINE
  5
21B28
330
18
100
AcDbEntity
  8
1DIM
100
AcDbLine
 10
1225.395930802951
 20
-337.7010147819769
 30
0.0
 11
1185.712597469618
 21
-337.7010147819769
 31
0.0
  0
LINE
  5
21B29
330
18
100
AcDbEntity
  8
1DIM
100
AcDbLine
 10
989.7767808524327
 20
-375.7799509857574
 30
0.0
 11
989.7767808524327
 21
-396.9197916638874
 31
0.0
  0
LINE
  5
21B2A
330
18
100
AcDbEntity
  8
1DIM
100
AcDbLine
 10
1089.776780852439
 20
-375.7799509857574
 30
0.0
 11
1089.776780852439
 21
-396.9197916638874
 31
0.0
  0
LINE
  5
21B2B
330
18
100
AcDbEntity
  8
1DIM
100
AcDbLine
 10
991.7767808524327
 20
-395.9197916638874
 30
0.0
 11
1087.776780852439
 21
-395.9197916638874
 31
0.0
  0
LINE
  5
21B2F
330
18
100
AcDbEntity
  8
1DIM
100
AcDbLine
 10
949.7767808524359
 20
-356.7799509857574
 30
0.0
 11
949.7767808524359
 21
-341.2132891404591
 31
0.0
  0
LINE
  5
21B30
330
18
100
AcDbEntity
  8
1DIM
100
AcDbLine
 10
1189.776780852436
 20
-356.7799509857583
 30
0.0
 11
1189.776780852436
 21
-341.2132891404591
 31
0.0
  0
LINE
  5
21B31
330
18
100
AcDbEntity
  8
1DIM
100
AcDbLine
 10
951.7767808524359
 20
-342.2132891404591
 30
0.0
 11
1187.776780852436
 21
-342.2132891404591
 31
0.0
  0
LINE
  5
21B35
330
18
100
AcDbEntity
  8
1DIM
100
AcDbLine
 10
989.7767808524327
 20
-375.7799509857574
 30
0.0
 11
989.7767808524327
 21
-396.9197916638874
 31
0.0
  0
LINE
  5
21B36
330
18
100
AcDbEntity
  8
1DIM
100
AcDbLine
 10
949.7767808524359
 20
-379.7799509857556
 30
0.0
 11
949.7767808524359
 21
-396.9197916638874
 31
0.0
  0
LINE
  5
21B37
330
18
100
AcDbEntity
  8
1DIM
100
AcDbLine
 10
987.7767808524327
 20
-395.9197916638874
 30
0.0
 11
951.7767808524359
 21
-395.9197916638874
 31
0.0
  0
LINE
  5
21B3C
330
18
100
AcDbEntity
  8
1CENTER
100
AcDbLine
 10
1321.897740820349
 20
-370.7799509857565
 30
0.0
 11
1278.393978952578
 21
-370.7799509857565
 31
0.0
  0
LINE
  5
21B3D
330
18
100
AcDbEntity
  8
0
100
AcDbLine
 10
1310.569253175847
 20
-368.2799509857565
 30
0.0
 11
1310.419253175847
 21
-369.0299509857565
 31
0.0
  0
LINE
  5
21B3E
330
18
100
AcDbEntity
  8
0
100
AcDbLine
 10
1318.832497095743
 20
-369.5961705852393
 30
0.0
 11
1318.682497095743
 21
-370.3461705852393
 31
0.0
  0
LINE
  5
21B3F
330
18
100
AcDbEntity
  8
0
100
AcDbLine
 10
1316.719248441691
 20
-369.0299273149799
 30
0.0
 11
1317.383652598547
 21
-372.3519480992558
 31
0.0
  0
LINE
  5
21B40
330
18
100
AcDbEntity
  8
0
100
AcDbLine
 10
1318.832497095743
 20
-369.5961705852393
 30
0.0
 11
1319.281924513235
 21
-371.8433076727002
 31
0.0
  0
LINE
  5
21B41
330
18
100
AcDbEntity
  8
0
100
AcDbLine
 10
1316.719248441691
 20
-369.02992731498
 30
0.0
 11
1316.569248441692
 21
-369.77992731498
 31
0.0
  0
LINE
  5
21B42
330
18
100
AcDbEntity
  8
0
100
AcDbLine
 10
1319.431924513236
 20
-371.0933076727002
 30
0.0
 11
1319.281924513235
 21
-371.8433076727002
 31
0.0
  0
LINE
  5
21B43
330
18
100
AcDbEntity
  8
0
100
AcDbLine
 10
1315.635380683858
 20
-372.1105885258114
 30
0.0
 11
1315.485380683858
 21
-372.8605885258114
 31
0.0
  0
LINE
  5
21B44
330
18
100
AcDbEntity
  8
0
100
AcDbLine
 10
1317.533652598547
 20
-371.6019480992558
 30
0.0
 11
1317.383652598547
 21
-372.3519480992558
 31
0.0
  0
LINE
  5
21B45
330
18
100
AcDbEntity
  8
0
100
AcDbLine
 10
1313.719253175847
 20
-372.5299509857565
 30
0.0
 11
1313.569253175847
 21
-373.2799509857565
 31
0.0
  0
LINE
  5
21B46
330
18
100
AcDbEntity
  8
0
100
AcDbLine
 10
1311.719253175847
 20
-372.5299509857565
 30
0.0
 11
1311.569253175847
 21
-373.2799509857565
 31
0.0
  0
LINE
  5
21B47
330
18
100
AcDbEntity
  8
0
100
AcDbLine
 10
1314.60599978764
 20
-368.4636840447206
 30
0.0
 11
1315.485380683858
 21
-372.8605885258114
 31
0.0
  0
LINE
  5
21B48
330
18
100
AcDbEntity
  8
0
100
AcDbLine
 10
1314.60599978764
 20
-368.4636840447207
 30
0.0
 11
1314.45599978764
 21
-369.2136840447207
 31
0.0
  0
LINE
  5
21B49
330
18
100
AcDbEntity
  8
0
100
AcDbLine
 10
1312.569253175847
 20
-368.2799509857565
 30
0.0
 11
1313.569253175847
 21
-373.2799509857565
 31
0.0
  0
LINE
  5
21B4A
330
18
100
AcDbEntity
  8
0
100
AcDbLine
 10
1310.569253175847
 20
-368.2799509857565
 30
0.0
 11
1311.569253175847
 21
-373.2799509857565
 31
0.0
  0
LINE
  5
21B4B
330
18
100
AcDbEntity
  8
0
100
AcDbLine
 10
1312.569253175847
 20
-368.2799509857565
 30
0.0
 11
1312.419253175847
 21
-369.0299509857565
 31
0.0
  0
LINE
  5
21B4C
330
18
100
AcDbEntity
  8
0
100
AcDbLine
 10
1284.569253175847
 20
-368.2799509857565
 30
0.0
 11
1284.419253175847
 21
-369.0299509857565
 31
0.0
  0
LINE
  5
21B4D
330
18
100
AcDbEntity
  8
0
100
AcDbLine
 10
1286.569253175847
 20
-368.2799509857565
 30
0.0
 11
1286.419253175847
 21
-369.0299509857565
 31
0.0
  0
LINE
  5
21B4E
330
18
100
AcDbEntity
  8
0
100
AcDbLine
 10
1284.569253175847
 20
-368.2799509857565
 30
0.0
 11
1285.569253175847
 21
-373.2799509857565
 31
0.0
  0
LINE
  5
21B4F
330
18
100
AcDbEntity
  8
0
100
AcDbLine
 10
1288.569253175847
 20
-368.2799509857565
 30
0.0
 11
1288.419253175847
 21
-369.0299509857565
 31
0.0
  0
LINE
  5
21B50
330
18
100
AcDbEntity
  8
0
100
AcDbLine
 10
1288.569253175847
 20
-368.2799509857565
 30
0.0
 11
1289.569253175847
 21
-373.2799509857565
 31
0.0
  0
LINE
  5
21B51
330
18
100
AcDbEntity
  8
0
100
AcDbLine
 10
1286.569253175847
 20
-368.2799509857565
 30
0.0
 11
1287.569253175847
 21
-373.2799509857565
 31
0.0
  0
LINE
  5
21B52
330
18
100
AcDbEntity
  8
0
100
AcDbLine
 10
1292.569253175847
 20
-368.2799509857565
 30
0.0
 11
1293.569253175847
 21
-373.2799509857565
 31
0.0
  0
LINE
  5
21B53
330
18
100
AcDbEntity
  8
0
100
AcDbLine
 10
1290.569253175847
 20
-368.2799509857565
 30
0.0
 11
1290.419253175847
 21
-369.0299509857565
 31
0.0
  0
LINE
  5
21B54
330
18
100
AcDbEntity
  8
0
100
AcDbLine
 10
1292.569253175847
 20
-368.2799509857565
 30
0.0
 11
1292.419253175847
 21
-369.0299509857565
 31
0.0
  0
LINE
  5
21B55
330
18
100
AcDbEntity
  8
0
100
AcDbLine
 10
1290.569253175847
 20
-368.2799509857565
 30
0.0
 11
1291.569253175847
 21
-373.2799509857565
 31
0.0
  0
LINE
  5
21B56
330
18
100
AcDbEntity
  8
0
100
AcDbLine
 10
1293.719253175847
 20
-372.5299509857565
 30
0.0
 11
1293.569253175847
 21
-373.2799509857565
 31
0.0
  0
LINE
  5
21B57
330
18
100
AcDbEntity
  8
0
100
AcDbLine
 10
1291.719253175847
 20
-372.5299509857565
 30
0.0
 11
1291.569253175847
 21
-373.2799509857565
 31
0.0
  0
LINE
  5
21B58
330
18
100
AcDbEntity
  8
0
100
AcDbLine
 10
1285.719253175847
 20
-372.5299509857565
 30
0.0
 11
1285.569253175847
 21
-373.2799509857565
 31
0.0
  0
LINE
  5
21B59
330
18
100
AcDbEntity
  8
0
100
AcDbLine
 10
1289.719253175847
 20
-372.5299509857565
 30
0.0
 11
1289.569253175847
 21
-373.2799509857565
 31
0.0
  0
LINE
  5
21B5A
330
18
100
AcDbEntity
  8
0
100
AcDbLine
 10
1287.719253175847
 20
-372.5299509857565
 30
0.0
 11
1287.569253175847
 21
-373.2799509857565
 31
0.0
  0
LINE
  5
21B5B
330
18
100
AcDbEntity
  8
0
100
AcDbLine
 10
1280.801387589801
 20
-375.7799509857565
 30
0.0
 11
1280.801387589801
 21
-365.7799509857565
 31
0.0
  0
LINE
  5
21B5C
330
18
100
AcDbEntity
  8
0
100
AcDbLine
 10
1297.719253175847
 20
-372.5299509857565
 30
0.0
 11
1297.569253175847
 21
-373.2799509857565
 31
0.0
  0
LINE
  5
21B5D
330
18
100
AcDbEntity
  8
0
100
AcDbLine
 10
1299.719253175847
 20
-372.5299509857565
 30
0.0
 11
1299.569253175847
 21
-373.2799509857565
 31
0.0
  0
LINE
  5
21B5E
330
18
100
AcDbEntity
  8
0
100
AcDbLine
 10
1295.719253175847
 20
-372.5299509857565
 30
0.0
 11
1295.569253175847
 21
-373.2799509857565
 31
0.0
  0
LINE
  5
21B5F
330
18
100
AcDbEntity
  8
0
100
AcDbLine
 10
1301.719253175847
 20
-372.5299509857565
 30
0.0
 11
1301.569253175847
 21
-373.2799509857565
 31
0.0
  0
LINE
  5
21B60
330
18
100
AcDbEntity
  8
0
100
AcDbLine
 10
1305.719253175847
 20
-372.5299509857565
 30
0.0
 11
1305.569253175847
 21
-373.2799509857565
 31
0.0
  0
LINE
  5
21B61
330
18
100
AcDbEntity
  8
0
100
AcDbLine
 10
1307.719253175847
 20
-372.5299509857565
 30
0.0
 11
1307.569253175847
 21
-373.2799509857565
 31
0.0
  0
LINE
  5
21B62
330
18
100
AcDbEntity
  8
0
100
AcDbLine
 10
1309.719253175847
 20
-372.5299509857565
 30
0.0
 11
1309.569253175847
 21
-373.2799509857565
 31
0.0
  0
LINE
  5
21B63
330
18
100
AcDbEntity
  8
0
100
AcDbLine
 10
1303.719253175847
 20
-372.5299509857565
 30
0.0
 11
1303.569253175847
 21
-373.2799509857565
 31
0.0
  0
LINE
  5
21B64
330
18
100
AcDbEntity
  8
0
100
AcDbLine
 10
1300.569253175847
 20
-368.2799509857565
 30
0.0
 11
1301.569253175847
 21
-373.2799509857565
 31
0.0
  0
LINE
  5
21B65
330
18
100
AcDbEntity
  8
0
100
AcDbLine
 10
1302.569253175847
 20
-368.2799509857565
 30
0.0
 11
1302.419253175847
 21
-369.0299509857565
 31
0.0
  0
LINE
  5
21B66
330
18
100
AcDbEntity
  8
0
100
AcDbLine
 10
1300.569253175847
 20
-368.2799509857565
 30
0.0
 11
1300.419253175847
 21
-369.0299509857565
 31
0.0
  0
LINE
  5
21B67
330
18
100
AcDbEntity
  8
0
100
AcDbLine
 10
1306.569253175847
 20
-368.2799509857565
 30
0.0
 11
1307.569253175847
 21
-373.2799509857565
 31
0.0
  0
LINE
  5
21B68
330
18
100
AcDbEntity
  8
0
100
AcDbLine
 10
1308.569253175847
 20
-368.2799509857565
 30
0.0
 11
1309.569253175847
 21
-373.2799509857565
 31
0.0
  0
LINE
  5
21B69
330
18
100
AcDbEntity
  8
0
100
AcDbLine
 10
1308.569253175847
 20
-368.2799509857565
 30
0.0
 11
1308.419253175847
 21
-369.0299509857565
 31
0.0
  0
LINE
  5
21B6A
330
18
100
AcDbEntity
  8
0
100
AcDbLine
 10
1306.569253175847
 20
-368.2799509857565
 30
0.0
 11
1306.419253175847
 21
-369.0299509857565
 31
0.0
  0
LINE
  5
21B6B
330
18
100
AcDbEntity
  8
0
100
AcDbLine
 10
1304.569253175847
 20
-368.2799509857565
 30
0.0
 11
1305.569253175847
 21
-373.2799509857565
 31
0.0
  0
LINE
  5
21B6C
330
18
100
AcDbEntity
  8
0
100
AcDbLine
 10
1304.569253175847
 20
-368.2799509857565
 30
0.0
 11
1304.419253175847
 21
-369.0299509857565
 31
0.0
  0
LINE
  5
21B6D
330
18
100
AcDbEntity
  8
0
100
AcDbLine
 10
1302.569253175847
 20
-368.2799509857565
 30
0.0
 11
1303.569253175847
 21
-373.2799509857565
 31
0.0
  0
LINE
  5
21B6E
330
18
100
AcDbEntity
  8
0
100
AcDbLine
 10
1296.569253175847
 20
-368.2799509857565
 30
0.0
 11
1297.569253175847
 21
-373.2799509857565
 31
0.0
  0
LINE
  5
21B6F
330
18
100
AcDbEntity
  8
0
100
AcDbLine
 10
1298.569253175847
 20
-368.2799509857565
 30
0.0
 11
1299.569253175847
 21
-373.2799509857565
 31
0.0
  0
LINE
  5
21B70
330
18
100
AcDbEntity
  8
0
100
AcDbLine
 10
1298.569253175847
 20
-368.2799509857565
 30
0.0
 11
1298.419253175847
 21
-369.0299509857565
 31
0.0
  0
LINE
  5
21B71
330
18
100
AcDbEntity
  8
0
100
AcDbLine
 10
1294.569253175847
 20
-368.2799509857565
 30
0.0
 11
1295.569253175847
 21
-373.2799509857565
 31
0.0
  0
LINE
  5
21B72
330
18
100
AcDbEntity
  8
0
100
AcDbLine
 10
1296.569253175847
 20
-368.2799509857565
 30
0.0
 11
1296.419253175847
 21
-369.0299509857565
 31
0.0
  0
LINE
  5
21B73
330
18
100
AcDbEntity
  8
0
100
AcDbLine
 10
1294.569253175847
 20
-368.2799509857565
 30
0.0
 11
1294.419253175847
 21
-369.0299509857565
 31
0.0
  0
LINE
  5
21B75
330
18
100
AcDbEntity
  8
1CENTER
100
AcDbLine
 10
1089.776780852439
 20
-185.7920131260516
 30
0.0
 11
1089.776780852439
 21
-229.2957749938228
 31
0.0
  0
LINE
  5
21B76
330
18
100
AcDbEntity
  8
0
100
AcDbLine
 10
1087.276780852439
 20
-197.1205007705538
 30
0.0
 11
1088.026780852439
 21
-197.2705007705538
 31
0.0
  0
LINE
  5
21B77
330
18
100
AcDbEntity
  8
0
100
AcDbLine
 10
1088.593000451922
 20
-188.8572568506573
 30
0.0
 11
1089.343000451922
 21
-189.0072568506573
 31
0.0
  0
LINE
  5
21B78
330
18
100
AcDbEntity
  8
0
100
AcDbLine
 10
1088.026757181663
 20
-190.9705055047091
 30
0.0
 11
1091.348777965938
 21
-190.3061013478539
 31
0.0
  0
LINE
  5
21B79
330
18
100
AcDbEntity
  8
0
100
AcDbLine
 10
1088.593000451922
 20
-188.8572568506573
 30
0.0
 11
1090.840137539383
 21
-188.407829433165
 31
0.0
  0
LINE
  5
21B7A
330
18
100
AcDbEntity
  8
0
100
AcDbLine
 10
1088.026757181663
 20
-190.9705055047091
 30
0.0
 11
1088.776757181663
 21
-191.1205055047091
 31
0.0
  0
LINE
  5
21B7B
330
18
100
AcDbEntity
  8
0
100
AcDbLine
 10
1090.090137539383
 20
-188.2578294331651
 30
0.0
 11
1090.840137539383
 21
-188.4078294331651
 31
0.0
  0
LINE
  5
21B7C
330
18
100
AcDbEntity
  8
0
100
AcDbLine
 10
1091.107418392494
 20
-192.0543732625428
 30
0.0
 11
1091.857418392494
 21
-192.2043732625428
 31
0.0
  0
LINE
  5
21B7D
330
18
100
AcDbEntity
  8
0
100
AcDbLine
 10
1090.598777965938
 20
-190.1561013478539
 30
0.0
 11
1091.348777965938
 21
-190.3061013478539
 31
0.0
  0
LINE
  5
21B7E
330
18
100
AcDbEntity
  8
0
100
AcDbLine
 10
1091.526780852439
 20
-193.9705007705538
 30
0.0
 11
1092.276780852439
 21
-194.1205007705538
 31
0.0
  0
LINE
  5
21B7F
330
18
100
AcDbEntity
  8
0
100
AcDbLine
 10
1091.526780852439
 20
-195.9705007705538
 30
0.0
 11
1092.276780852439
 21
-196.1205007705538
 31
0.0
  0
LINE
  5
21B80
330
18
100
AcDbEntity
  8
0
100
AcDbLine
 10
1087.460513911403
 20
-193.083754158761
 30
0.0
 11
1091.857418392494
 21
-192.2043732625428
 31
0.0
  0
LINE
  5
21B81
330
18
100
AcDbEntity
  8
0
100
AcDbLine
 10
1087.460513911403
 20
-193.083754158761
 30
0.0
 11
1088.210513911403
 21
-193.233754158761
 31
0.0
  0
LINE
  5
21B82
330
18
100
AcDbEntity
  8
0
100
AcDbLine
 10
1087.276780852439
 20
-195.1205007705538
 30
0.0
 11
1092.276780852439
 21
-194.1205007705538
 31
0.0
  0
LINE
  5
21B83
330
18
100
AcDbEntity
  8
0
100
AcDbLine
 10
1087.276780852439
 20
-197.1205007705538
 30
0.0
 11
1092.276780852439
 21
-196.1205007705538
 31
0.0
  0
LINE
  5
21B84
330
18
100
AcDbEntity
  8
0
100
AcDbLine
 10
1087.276780852439
 20
-195.1205007705538
 30
0.0
 11
1088.026780852439
 21
-195.2705007705538
 31
0.0
  0
LINE
  5
21B85
330
18
100
AcDbEntity
  8
0
100
AcDbLine
 10
1087.276780852439
 20
-223.1205007705538
 30
0.0
 11
1088.026780852439
 21
-223.2705007705538
 31
0.0
  0
LINE
  5
21B86
330
18
100
AcDbEntity
  8
0
100
AcDbLine
 10
1087.276780852439
 20
-221.1205007705538
 30
0.0
 11
1088.026780852439
 21
-221.2705007705538
 31
0.0
  0
LINE
  5
21B87
330
18
100
AcDbEntity
  8
0
100
AcDbLine
 10
1087.276780852439
 20
-223.1205007705538
 30
0.0
 11
1092.276780852439
 21
-222.1205007705538
 31
0.0
  0
LINE
  5
21B88
330
18
100
AcDbEntity
  8
0
100
AcDbLine
 10
1087.276780852439
 20
-219.1205007705538
 30
0.0
 11
1088.026780852439
 21
-219.2705007705538
 31
0.0
  0
LINE
  5
21B89
330
18
100
AcDbEntity
  8
0
100
AcDbLine
 10
1087.276780852439
 20
-219.1205007705538
 30
0.0
 11
1092.276780852439
 21
-218.1205007705538
 31
0.0
  0
LINE
  5
21B8A
330
18
100
AcDbEntity
  8
0
100
AcDbLine
 10
1087.276780852439
 20
-221.1205007705538
 30
0.0
 11
1092.276780852439
 21
-220.1205007705538
 31
0.0
  0
LINE
  5
21B8B
330
18
100
AcDbEntity
  8
0
100
AcDbLine
 10
1087.276780852439
 20
-215.1205007705538
 30
0.0
 11
1092.276780852439
 21
-214.1205007705538
 31
0.0
  0
LINE
  5
21B8C
330
18
100
AcDbEntity
  8
0
100
AcDbLine
 10
1087.276780852439
 20
-217.1205007705538
 30
0.0
 11
1088.026780852439
 21
-217.2705007705538
 31
0.0
  0
LINE
  5
21B8D
330
18
100
AcDbEntity
  8
0
100
AcDbLine
 10
1087.276780852439
 20
-215.1205007705538
 30
0.0
 11
1088.026780852439
 21
-215.2705007705538
 31
0.0
  0
LINE
  5
21B8E
330
18
100
AcDbEntity
  8
0
100
AcDbLine
 10
1087.276780852439
 20
-217.1205007705538
 30
0.0
 11
1092.276780852439
 21
-216.1205007705538
 31
0.0
  0
LINE
  5
21B8F
330
18
100
AcDbEntity
  8
0
100
AcDbLine
 10
1091.526780852439
 20
-213.9705007705538
 30
0.0
 11
1092.276780852439
 21
-214.1205007705538
 31
0.0
  0
LINE
  5
21B90
330
18
100
AcDbEntity
  8
0
100
AcDbLine
 10
1091.526780852439
 20
-215.9705007705538
 30
0.0
 11
1092.276780852439
 21
-216.1205007705538
 31
0.0
  0
LINE
  5
21B91
330
18
100
AcDbEntity
  8
0
100
AcDbLine
 10
1091.526780852439
 20
-221.9705007705538
 30
0.0
 11
1092.276780852439
 21
-222.1205007705538
 31
0.0
  0
LINE
  5
21B92
330
18
100
AcDbEntity
  8
0
100
AcDbLine
 10
1091.526780852439
 20
-217.9705007705538
 30
0.0
 11
1092.276780852439
 21
-218.1205007705538
 31
0.0
  0
LINE
  5
21B93
330
18
100
AcDbEntity
  8
0
100
AcDbLine
 10
1091.526780852439
 20
-219.9705007705538
 30
0.0
 11
1092.276780852439
 21
-220.1205007705538
 31
0.0
  0
LINE
  5
21B94
330
18
100
AcDbEntity
  8
0
100
AcDbLine
 10
1094.776780852439
 20
-226.8883663565997
 30
0.0
 11
1084.776780852439
 21
-226.8883663565997
 31
0.0
  0
LINE
  5
21B95
330
18
100
AcDbEntity
  8
0
100
AcDbLine
 10
1091.526780852439
 20
-209.9705007705538
 30
0.0
 11
1092.276780852439
 21
-210.1205007705538
 31
0.0
  0
LINE
  5
21B96
330
18
100
AcDbEntity
  8
0
100
AcDbLine
 10
1091.526780852439
 20
-207.9705007705538
 30
0.0
 11
1092.276780852439
 21
-208.1205007705538
 31
0.0
  0
LINE
  5
21B97
330
18
100
AcDbEntity
  8
0
100
AcDbLine
 10
1091.526780852439
 20
-211.9705007705538
 30
0.0
 11
1092.276780852439
 21
-212.1205007705538
 31
0.0
  0
LINE
  5
21B98
330
18
100
AcDbEntity
  8
0
100
AcDbLine
 10
1091.526780852439
 20
-205.9705007705538
 30
0.0
 11
1092.276780852439
 21
-206.1205007705538
 31
0.0
  0
LINE
  5
21B99
330
18
100
AcDbEntity
  8
0
100
AcDbLine
 10
1091.526780852439
 20
-201.9705007705538
 30
0.0
 11
1092.276780852439
 21
-202.1205007705538
 31
0.0
  0
LINE
  5
21B9A
330
18
100
AcDbEntity
  8
0
100
AcDbLine
 10
1091.526780852439
 20
-199.9705007705538
 30
0.0
 11
1092.276780852439
 21
-200.1205007705538
 31
0.0
  0
LINE
  5
21B9B
330
18
100
AcDbEntity
  8
0
100
AcDbLine
 10
1091.526780852439
 20
-197.9705007705538
 30
0.0
 11
1092.276780852439
 21
-198.1205007705538
 31
0.0
  0
LINE
  5
21B9C
330
18
100
AcDbEntity
  8
0
100
AcDbLine
 10
1091.526780852439
 20
-203.9705007705538
 30
0.0
 11
1092.276780852439
 21
-204.1205007705538
 31
0.0
  0
LINE
  5
21B9D
330
18
100
AcDbEntity
  8
0
100
AcDbLine
 10
1087.276780852439
 20
-207.1205007705538
 30
0.0
 11
1092.276780852439
 21
-206.1205007705538
 31
0.0
  0
LINE
  5
21B9E
330
18
100
AcDbEntity
  8
0
100
AcDbLine
 10
1087.276780852439
 20
-205.1205007705538
 30
0.0
 11
1088.026780852439
 21
-205.2705007705538
 31
0.0
  0
LINE
  5
21B9F
330
18
100
AcDbEntity
  8
0
100
AcDbLine
 10
1087.276780852439
 20
-207.1205007705538
 30
0.0
 11
1088.026780852439
 21
-207.2705007705538
 31
0.0
  0
LINE
  5
21BA0
330
18
100
AcDbEntity
  8
0
100
AcDbLine
 10
1087.276780852439
 20
-201.1205007705538
 30
0.0
 11
1092.276780852439
 21
-200.1205007705538
 31
0.0
  0
LINE
  5
21BA1
330
18
100
AcDbEntity
  8
0
100
AcDbLine
 10
1087.276780852439
 20
-199.1205007705538
 30
0.0
 11
1092.276780852439
 21
-198.1205007705538
 31
0.0
  0
LINE
  5
21BA2
330
18
100
AcDbEntity
  8
0
100
AcDbLine
 10
1087.276780852439
 20
-199.1205007705538
 30
0.0
 11
1088.026780852439
 21
-199.2705007705538
 31
0.0
  0
LINE
  5
21BA3
330
18
100
AcDbEntity
  8
0
100
AcDbLine
 10
1087.276780852439
 20
-201.1205007705538
 30
0.0
 11
1088.026780852439
 21
-201.2705007705538
 31
0.0
  0
LINE
  5
21BA4
330
18
100
AcDbEntity
  8
0
100
AcDbLine
 10
1087.276780852439
 20
-203.1205007705538
 30
0.0
 11
1092.276780852439
 21
-202.1205007705538
 31
0.0
  0
LINE
  5
21BA5
330
18
100
AcDbEntity
  8
0
100
AcDbLine
 10
1087.276780852439
 20
-203.1205007705538
 30
0.0
 11
1088.026780852439
 21
-203.2705007705538
 31
0.0
  0
LINE
  5
21BA6
330
18
100
AcDbEntity
  8
0
100
AcDbLine
 10
1087.276780852439
 20
-205.1205007705538
 30
0.0
 11
1092.276780852439
 21
-204.1205007705538
 31
0.0
  0
LINE
  5
21BA7
330
18
100
AcDbEntity
  8
0
100
AcDbLine
 10
1087.276780852439
 20
-211.1205007705538
 30
0.0
 11
1092.276780852439
 21
-210.1205007705538
 31
0.0
  0
LINE
  5
21BA8
330
18
100
AcDbEntity
  8
0
100
AcDbLine
 10
1087.276780852439
 20
-209.1205007705538
 30
0.0
 11
1092.276780852439
 21
-208.1205007705538
 31
0.0
  0
LINE
  5
21BA9
330
18
100
AcDbEntity
  8
0
100
AcDbLine
 10
1087.276780852439
 20
-209.1205007705538
 30
0.0
 11
1088.026780852439
 21
-209.2705007705538
 31
0.0
  0
LINE
  5
21BAA
330
18
100
AcDbEntity
  8
0
100
AcDbLine
 10
1087.276780852439
 20
-213.1205007705538
 30
0.0
 11
1092.276780852439
 21
-212.1205007705538
 31
0.0
  0
LINE
  5
21BAB
330
18
100
AcDbEntity
  8
0
100
AcDbLine
 10
1087.276780852439
 20
-211.1205007705538
 30
0.0
 11
1088.026780852439
 21
-211.2705007705538
 31
0.0
  0
LINE
  5
21BAC
330
18
100
AcDbEntity
  8
0
100
AcDbLine
 10
1087.276780852439
 20
-213.1205007705538
 30
0.0
 11
1088.026780852439
 21
-213.2705007705538
 31
0.0
  0
LINE
  5
21BAE
330
18
100
AcDbEntity
  8
1CENTER
100
AcDbLine
 10
989.7767808524391
 20
-185.7920131260516
 30
0.0
 11
989.7767808524391
 21
-229.2957749938228
 31
0.0
  0
LINE
  5
21BAF
330
18
100
AcDbEntity
  8
0
100
AcDbLine
 10
987.2767808524391
 20
-197.1205007705538
 30
0.0
 11
988.0267808524391
 21
-197.2705007705538
 31
0.0
  0
LINE
  5
21BB0
330
18
100
AcDbEntity
  8
0
100
AcDbLine
 10
988.593000451922
 20
-188.8572568506573
 30
0.0
 11
989.343000451922
 21
-189.0072568506573
 31
0.0
  0
LINE
  5
21BB1
330
18
100
AcDbEntity
  8
0
100
AcDbLine
 10
988.0267571816626
 20
-190.9705055047091
 30
0.0
 11
991.3487779659384
 21
-190.3061013478539
 31
0.0
  0
LINE
  5
21BB2
330
18
100
AcDbEntity
  8
0
100
AcDbLine
 10
988.593000451922
 20
-188.8572568506573
 30
0.0
 11
990.8401375393828
 21
-188.407829433165
 31
0.0
  0
LINE
  5
21BB3
330
18
100
AcDbEntity
  8
0
100
AcDbLine
 10
988.0267571816626
 20
-190.9705055047091
 30
0.0
 11
988.7767571816626
 21
-191.1205055047091
 31
0.0
  0
LINE
  5
21BB4
330
18
100
AcDbEntity
  8
0
100
AcDbLine
 10
990.0901375393828
 20
-188.2578294331651
 30
0.0
 11
990.8401375393828
 21
-188.4078294331651
 31
0.0
  0
LINE
  5
21BB5
330
18
100
AcDbEntity
  8
0
100
AcDbLine
 10
991.107418392494
 20
-192.0543732625428
 30
0.0
 11
991.857418392494
 21
-192.2043732625428
 31
0.0
  0
LINE
  5
21BB6
330
18
100
AcDbEntity
  8
0
100
AcDbLine
 10
990.5987779659383
 20
-190.1561013478539
 30
0.0
 11
991.3487779659383
 21
-190.3061013478539
 31
0.0
  0
LINE
  5
21BB7
330
18
100
AcDbEntity
  8
0
100
AcDbLine
 10
991.5267808524391
 20
-193.9705007705538
 30
0.0
 11
992.2767808524391
 21
-194.1205007705538
 31
0.0
  0
LINE
  5
21BB8
330
18
100
AcDbEntity
  8
0
100
AcDbLine
 10
991.5267808524391
 20
-195.9705007705538
 30
0.0
 11
992.2767808524391
 21
-196.1205007705538
 31
0.0
  0
LINE
  5
21BB9
330
18
100
AcDbEntity
  8
0
100
AcDbLine
 10
987.4605139114032
 20
-193.083754158761
 30
0.0
 11
991.857418392494
 21
-192.2043732625428
 31
0.0
  0
LINE
  5
21BBA
330
18
100
AcDbEntity
  8
0
100
AcDbLine
 10
987.4605139114033
 20
-193.083754158761
 30
0.0
 11
988.2105139114033
 21
-193.233754158761
 31
0.0
  0
LINE
  5
21BBB
330
18
100
AcDbEntity
  8
0
100
AcDbLine
 10
987.2767808524391
 20
-195.1205007705538
 30
0.0
 11
992.2767808524391
 21
-194.1205007705538
 31
0.0
  0
LINE
  5
21BBC
330
18
100
AcDbEntity
  8
0
100
AcDbLine
 10
987.2767808524391
 20
-197.1205007705538
 30
0.0
 11
992.2767808524391
 21
-196.1205007705538
 31
0.0
  0
LINE
  5
21BBD
330
18
100
AcDbEntity
  8
0
100
AcDbLine
 10
987.2767808524391
 20
-195.1205007705538
 30
0.0
 11
988.0267808524391
 21
-195.2705007705538
 31
0.0
  0
LINE
  5
21BBE
330
18
100
AcDbEntity
  8
0
100
AcDbLine
 10
987.2767808524391
 20
-223.1205007705538
 30
0.0
 11
988.0267808524391
 21
-223.2705007705538
 31
0.0
  0
LINE
  5
21BBF
330
18
100
AcDbEntity
  8
0
100
AcDbLine
 10
987.2767808524391
 20
-221.1205007705538
 30
0.0
 11
988.0267808524391
 21
-221.2705007705538
 31
0.0
  0
LINE
  5
21BC0
330
18
100
AcDbEntity
  8
0
100
AcDbLine
 10
987.2767808524391
 20
-223.1205007705538
 30
0.0
 11
992.2767808524391
 21
-222.1205007705538
 31
0.0
  0
LINE
  5
21BC1
330
18
100
AcDbEntity
  8
0
100
AcDbLine
 10
987.2767808524391
 20
-219.1205007705538
 30
0.0
 11
988.0267808524391
 21
-219.2705007705538
 31
0.0
  0
LINE
  5
21BC2
330
18
100
AcDbEntity
  8
0
100
AcDbLine
 10
987.2767808524391
 20
-219.1205007705538
 30
0.0
 11
992.2767808524391
 21
-218.1205007705538
 31
0.0
  0
LINE
  5
21BC3
330
18
100
AcDbEntity
  8
0
100
AcDbLine
 10
987.2767808524391
 20
-221.1205007705538
 30
0.0
 11
992.2767808524391
 21
-220.1205007705538
 31
0.0
  0
LINE
  5
21BC4
330
18
100
AcDbEntity
  8
0
100
AcDbLine
 10
987.2767808524391
 20
-215.1205007705538
 30
0.0
 11
992.2767808524391
 21
-214.1205007705538
 31
0.0
  0
LINE
  5
21BC5
330
18
100
AcDbEntity
  8
0
100
AcDbLine
 10
987.2767808524391
 20
-217.1205007705538
 30
0.0
 11
988.0267808524391
 21
-217.2705007705538
 31
0.0
  0
LINE
  5
21BC6
330
18
100
AcDbEntity
  8
0
100
AcDbLine
 10
987.2767808524391
 20
-215.1205007705538
 30
0.0
 11
988.0267808524391
 21
-215.2705007705538
 31
0.0
  0
LINE
  5
21BC7
330
18
100
AcDbEntity
  8
0
100
AcDbLine
 10
987.2767808524391
 20
-217.1205007705538
 30
0.0
 11
992.2767808524391
 21
-216.1205007705538
 31
0.0
  0
LINE
  5
21BC8
330
18
100
AcDbEntity
  8
0
100
AcDbLine
 10
991.5267808524391
 20
-213.9705007705538
 30
0.0
 11
992.2767808524391
 21
-214.1205007705538
 31
0.0
  0
LINE
  5
21BC9
330
18
100
AcDbEntity
  8
0
100
AcDbLine
 10
991.5267808524391
 20
-215.9705007705538
 30
0.0
 11
992.2767808524391
 21
-216.1205007705538
 31
0.0
  0
LINE
  5
21BCA
330
18
100
AcDbEntity
  8
0
100
AcDbLine
 10
991.5267808524391
 20
-221.9705007705538
 30
0.0
 11
992.2767808524391
 21
-222.1205007705538
 31
0.0
  0
LINE
  5
21BCB
330
18
100
AcDbEntity
  8
0
100
AcDbLine
 10
991.5267808524391
 20
-217.9705007705538
 30
0.0
 11
992.2767808524391
 21
-218.1205007705538
 31
0.0
  0
LINE
  5
21BCC
330
18
100
AcDbEntity
  8
0
100
AcDbLine
 10
991.5267808524391
 20
-219.9705007705538
 30
0.0
 11
992.2767808524391
 21
-220.1205007705538
 31
0.0
  0
LINE
  5
21BCD
330
18
100
AcDbEntity
  8
0
100
AcDbLine
 10
994.7767808524391
 20
-226.8883663565997
 30
0.0
 11
984.7767808524391
 21
-226.8883663565997
 31
0.0
  0
LINE
  5
21BCE
330
18
100
AcDbEntity
  8
0
100
AcDbLine
 10
991.5267808524391
 20
-209.9705007705538
 30
0.0
 11
992.2767808524391
 21
-210.1205007705538
 31
0.0
  0
LINE
  5
21BCF
330
18
100
AcDbEntity
  8
0
100
AcDbLine
 10
991.5267808524391
 20
-207.9705007705538
 30
0.0
 11
992.2767808524391
 21
-208.1205007705538
 31
0.0
  0
LINE
  5
21BD0
330
18
100
AcDbEntity
  8
0
100
AcDbLine
 10
991.5267808524391
 20
-211.9705007705538
 30
0.0
 11
992.2767808524391
 21
-212.1205007705538
 31
0.0
  0
LINE
  5
21BD1
330
18
100
AcDbEntity
  8
0
100
AcDbLine
 10
991.5267808524391
 20
-205.9705007705538
 30
0.0
 11
992.2767808524391
 21
-206.1205007705538
 31
0.0
  0
LINE
  5
21BD2
330
18
100
AcDbEntity
  8
0
100
AcDbLine
 10
991.5267808524391
 20
-201.9705007705538
 30
0.0
 11
992.2767808524391
 21
-202.1205007705538
 31
0.0
  0
LINE
  5
21BD3
330
18
100
AcDbEntity
  8
0
100
AcDbLine
 10
991.5267808524391
 20
-199.9705007705538
 30
0.0
 11
992.2767808524391
 21
-200.1205007705538
 31
0.0
  0
LINE
  5
21BD4
330
18
100
AcDbEntity
  8
0
100
AcDbLine
 10
991.5267808524391
 20
-197.9705007705538
 30
0.0
 11
992.2767808524391
 21
-198.1205007705538
 31
0.0
  0
LINE
  5
21BD5
330
18
100
AcDbEntity
  8
0
100
AcDbLine
 10
991.5267808524391
 20
-203.9705007705538
 30
0.0
 11
992.2767808524391
 21
-204.1205007705538
 31
0.0
  0
LINE
  5
21BD6
330
18
100
AcDbEntity
  8
0
100
AcDbLine
 10
987.2767808524391
 20
-207.1205007705538
 30
0.0
 11
992.2767808524391
 21
-206.1205007705538
 31
0.0
  0
LINE
  5
21BD7
330
18
100
AcDbEntity
  8
0
100
AcDbLine
 10
987.2767808524391
 20
-205.1205007705538
 30
0.0
 11
988.0267808524391
 21
-205.2705007705538
 31
0.0
  0
LINE
  5
21BD8
330
18
100
AcDbEntity
  8
0
100
AcDbLine
 10
987.2767808524391
 20
-207.1205007705538
 30
0.0
 11
988.0267808524391
 21
-207.2705007705538
 31
0.0
  0
LINE
  5
21BD9
330
18
100
AcDbEntity
  8
0
100
AcDbLine
 10
987.2767808524391
 20
-201.1205007705538
 30
0.0
 11
992.2767808524391
 21
-200.1205007705538
 31
0.0
  0
LINE
  5
21BDA
330
18
100
AcDbEntity
  8
0
100
AcDbLine
 10
987.2767808524391
 20
-199.1205007705538
 30
0.0
 11
992.2767808524391
 21
-198.1205007705538
 31
0.0
  0
LINE
  5
21BDB
330
18
100
AcDbEntity
  8
0
100
AcDbLine
 10
987.2767808524391
 20
-199.1205007705538
 30
0.0
 11
988.0267808524391
 21
-199.2705007705538
 31
0.0
  0
LINE
  5
21BDC
330
18
100
AcDbEntity
  8
0
100
AcDbLine
 10
987.2767808524391
 20
-201.1205007705538
 30
0.0
 11
988.0267808524391
 21
-201.2705007705538
 31
0.0
  0
LINE
  5
21BDD
330
18
100
AcDbEntity
  8
0
100
AcDbLine
 10
987.2767808524391
 20
-203.1205007705538
 30
0.0
 11
992.2767808524391
 21
-202.1205007705538
 31
0.0
  0
LINE
  5
21BDE
330
18
100
AcDbEntity
  8
0
100
AcDbLine
 10
987.2767808524391
 20
-203.1205007705538
 30
0.0
 11
988.0267808524391
 21
-203.2705007705538
 31
0.0
  0
LINE
  5
21BDF
330
18
100
AcDbEntity
  8
0
100
AcDbLine
 10
987.2767808524391
 20
-205.1205007705538
 30
0.0
 11
992.2767808524391
 21
-204.1205007705538
 31
0.0
  0
LINE
  5
21BE0
330
18
100
AcDbEntity
  8
0
100
AcDbLine
 10
987.2767808524391
 20
-211.1205007705538
 30
0.0
 11
992.2767808524391
 21
-210.1205007705538
 31
0.0
  0
LINE
  5
21BE1
330
18
100
AcDbEntity
  8
0
100
AcDbLine
 10
987.2767808524391
 20
-209.1205007705538
 30
0.0
 11
992.2767808524391
 21
-208.1205007705538
 31
0.0
  0
LINE
  5
21BE2
330
18
100
AcDbEntity
  8
0
100
AcDbLine
 10
987.2767808524391
 20
-209.1205007705538
 30
0.0
 11
988.0267808524391
 21
-209.2705007705538
 31
0.0
  0
LINE
  5
21BE3
330
18
100
AcDbEntity
  8
0
100
AcDbLine
 10
987.2767808524391
 20
-213.1205007705538
 30
0.0
 11
992.2767808524391
 21
-212.1205007705538
 31
0.0
  0
LINE
  5
21BE4
330
18
100
AcDbEntity
  8
0
100
AcDbLine
 10
987.2767808524391
 20
-211.1205007705538
 30
0.0
 11
988.0267808524391
 21
-211.2705007705538
 31
0.0
  0
LINE
  5
21BE5
330
18
100
AcDbEntity
  8
0
100
AcDbLine
 10
987.2767808524391
 20
-213.1205007705538
 30
0.0
 11
988.0267808524391
 21
-213.2705007705538
 31
0.0
  0
LINE
  5
21BE6
330
18
100
AcDbEntity
  8
1DIM
100
AcDbLine
 10
1189.776780852436
 20
-356.7799509857574
 30
0.0
 11
1195.379028902244
 21
-356.7799509857574
 31
0.0
  0
LINE
  5
21BE7
330
18
100
AcDbEntity
  8
1DIM
100
AcDbLine
 10
1189.776780852436
 20
-359.7799509857574
 30
0.0
 11
1195.379028902244
 21
-359.7799509857574
 31
0.0
  0
LINE
  5
21BE8
330
18
100
AcDbEntity
  8
1DIM
100
AcDbLine
 10
1194.379028902244
 20
-361.7799509857574
 30
0.0
 11
1194.379028902244
 21
-367.513284319091
 31
0.0
  0
LINE
  5
21BE9
330
18
100
AcDbEntity
  8
1DIM
100
AcDbLine
 10
1194.379028902244
 20
-356.7799509857574
 30
0.0
 11
1194.379028902244
 21
-359.7799509857574
 31
0.0
  0
LINE
  5
21BEA
330
18
100
AcDbEntity
  8
1DIM
100
AcDbLine
 10
1194.379028902244
 20
-354.7799509857574
 30
0.0
 11
1194.379028902244
 21
-352.7799509857574
 31
0.0
  0
LINE
  5
21BEE
330
18
100
AcDbEntity
  8
1DIM
100
AcDbLine
 10
1198.451387589801
 20
-356.7799509857574
 30
0.0
 11
1198.451387589801
 21
-341.2132891404591
 31
0.0
  0
LINE
  5
21BEF
330
18
100
AcDbEntity
  8
1DIM
100
AcDbLine
 10
1283.451387589801
 20
-356.7799509857574
 30
0.0
 11
1283.451387589801
 21
-341.2132891404591
 31
0.0
  0
LINE
  5
21BF0
330
18
100
AcDbEntity
  8
1DIM
100
AcDbLine
 10
1200.451387589801
 20
-342.2132891404591
 30
0.0
 11
1281.451387589801
 21
-342.2132891404591
 31
0.0
  0
LINE
  5
21BF4
330
18
100
AcDbEntity
  8
1DIM
100
AcDbLine
 10
1283.451387589801
 20
-384.7799509857583
 30
0.0
 11
1311.552244318269
 21
-384.7799509857583
 31
0.0
  0
LINE
  5
21BF5
330
18
100
AcDbEntity
  8
1DIM
100
AcDbLine
 10
1279.451387589801
 20
-356.7799509857565
 30
0.0
 11
1311.552244318269
 21
-356.7799509857565
 31
0.0
  0
LINE
  5
21BF6
330
18
100
AcDbEntity
  8
1DIM
100
AcDbLine
 10
1310.552244318269
 20
-382.7799509857583
 30
0.0
 11
1310.552244318269
 21
-358.7799509857565
 31
0.0
  0
LINE
  5
21BFA
330
18
100
AcDbEntity
  8
1DIM
100
AcDbLine
 10
1279.451387589801
 20
-356.7799509857565
 30
0.0
 11
1305.634690263551
 21
-356.7799509857565
 31
0.0
  0
LINE
  5
21BFB
330
18
100
AcDbEntity
  8
1DIM
100
AcDbLine
 10
1321.897740820349
 20
-370.7799509857565
 30
0.0
 11
1303.634690263551
 21
-370.7799509857565
 31
0.0
  0
LINE
  5
21BFC
330
18
100
AcDbEntity
  8
1DIM
100
AcDbLine
 10
1304.634690263551
 20
-358.7799509857565
 30
0.0
 11
1304.634690263551
 21
-368.7799509857565
 31
0.0
  0
LINE
  5
21C00
330
18
100
AcDbEntity
  8
1DIM
100
AcDbLine
 10
949.7767808524359
 20
-224.2383663565996
 30
0.0
 11
949.7767808524359
 21
-211.8409970729918
 31
0.0
  0
LINE
  5
21C01
330
18
100
AcDbEntity
  8
1DIM
100
AcDbLine
 10
1109.776780852436
 20
-224.2383663565996
 30
0.0
 11
1109.776780852436
 21
-211.8409970729918
 31
0.0
  0
LINE
  5
21C02
330
18
100
AcDbEntity
  8
1DIM
100
AcDbLine
 10
951.7767808524359
 20
-212.8409970729918
 30
0.0
 11
1107.776780852436
 21
-212.8409970729918
 31
0.0
  0
LINE
  5
21C06
330
18
100
AcDbEntity
  8
1DIM
100
AcDbLine
 10
1159.776780852436
 20
-244.2383663565996
 30
0.0
 11
1205.498004255575
 21
-244.2383663565996
 31
0.0
  0
LINE
  5
21C07
330
18
100
AcDbEntity
  8
1DIM
100
AcDbLine
 10
1159.776780852436
 20
-294.2383663565996
 30
0.0
 11
1205.498004255575
 21
-294.2383663565996
 31
0.0
  0
LINE
  5
21C08
330
18
100
AcDbEntity
  8
1DIM
100
AcDbLine
 10
1204.498004255575
 20
-246.2383663565996
 30
0.0
 11
1204.498004255575
 21
-292.2383663565996
 31
0.0
  0
LINE
  5
21C0C
330
18
100
AcDbEntity
  8
1DIM
100
AcDbLine
 10
1184.776780852436
 20
-309.2383663565996
 30
0.0
 11
1217.32387337207
 21
-309.2383663565996
 31
0.0
  0
LINE
  5
21C0D
330
18
100
AcDbEntity
  8
1DIM
100
AcDbLine
 10
1184.776780852436
 20
-229.2383663565996
 30
0.0
 11
1217.32387337207
 21
-229.2383663565996
 31
0.0
  0
LINE
  5
21C0E
330
18
100
AcDbEntity
  8
1DIM
100
AcDbLine
 10
1216.32387337207
 20
-307.2383663565996
 30
0.0
 11
1216.32387337207
 21
-231.2383663565996
 31
0.0
  0
LINE
  5
21C12
330
18
100
AcDbEntity
  8
1DIM
100
AcDbLine
 10
1034.776780852436
 20
-289.2383663565996
 30
0.0
 11
1034.776780852436
 21
-319.456958926009
 31
0.0
  0
LINE
  5
21C13
330
18
100
AcDbEntity
  8
1DIM
100
AcDbLine
 10
1164.776780852436
 20
-289.2383663565996
 30
0.0
 11
1164.776780852436
 21
-319.456958926009
 31
0.0
  0
LINE
  5
21C14
330
18
100
AcDbEntity
  8
1DIM
100
AcDbLine
 10
1036.776780852436
 20
-318.456958926009
 30
0.0
 11
1162.776780852436
 21
-318.456958926009
 31
0.0
  0
LINE
  5
21C18
330
18
100
AcDbEntity
  8
1DIM
100
AcDbLine
 10
1164.776780852436
 20
-289.2383663565996
 30
0.0
 11
1164.776780852436
 21
-319.456958926009
 31
0.0
  0
LINE
  5
21C19
330
18
100
AcDbEntity
  8
1DIM
100
AcDbLine
 10
1189.776780852436
 20
-304.2383663565996
 30
0.0
 11
1189.776780852436
 21
-319.456958926009
 31
0.0
  0
LINE
  5
21C1A
330
18
100
AcDbEntity
  8
1DIM
100
AcDbLine
 10
1166.776780852436
 20
-318.456958926009
 30
0.0
 11
1187.776780852436
 21
-318.456958926009
 31
0.0
  0
LINE
  5
21C1E
330
18
100
AcDbEntity
  8
1DIM
100
AcDbLine
 10
967.7767808524354
 20
-294.2383663565996
 30
0.0
 11
940.3152985445523
 21
-294.2383663565996
 31
0.0
  0
LINE
  5
21C1F
330
18
100
AcDbEntity
  8
1DIM
100
AcDbLine
 10
967.7767808524354
 20
-269.2383663565996
 30
0.0
 11
940.3152985445523
 21
-269.2383663565996
 31
0.0
  0
LINE
  5
21C20
330
18
100
AcDbEntity
  8
1DIM
100
AcDbLine
 10
941.3152985445523
 20
-292.2383663565996
 30
0.0
 11
941.3152985445523
 21
-271.2383663565996
 31
0.0
  0
LINE
  5
21C24
330
18
100
AcDbEntity
  8
1DIM
100
AcDbLine
 10
952.7767808524363
 20
-286.7383663565996
 30
0.0
 11
946.6668161936024
 21
-286.7383663565996
 31
0.0
  0
LINE
  5
21C25
330
18
100
AcDbEntity
  8
1DIM
100
AcDbLine
 10
952.7767808524363
 20
-276.7383663565996
 30
0.0
 11
946.6668161936024
 21
-276.7383663565996
 31
0.0
  0
LINE
  5
21C26
330
18
100
AcDbEntity
  8
1DIM
100
AcDbLine
 10
947.6668161936024
 20
-284.7383663565996
 30
0.0
 11
947.6668161936024
 21
-278.7383663565996
 31
0.0
  0
LINE
  5
21C2A
330
18
100
AcDbEntity
  8
1DIM
100
AcDbLine
 10
967.7767808524354
 20
-294.2383663565996
 30
0.0
 11
940.3152985445523
 21
-294.2383663565996
 31
0.0
  0
LINE
  5
21C2B
330
18
100
AcDbEntity
  8
1DIM
100
AcDbLine
 10
954.7767808524359
 20
-309.2383663565996
 30
0.0
 11
940.3152985445523
 21
-309.2383663565996
 31
0.0
  0
LINE
  5
21C2C
330
18
100
AcDbEntity
  8
1DIM
100
AcDbLine
 10
941.3152985445523
 20
-296.2383663565996
 30
0.0
 11
941.3152985445523
 21
-307.2383663565996
 31
0.0
  0
LINE
  5
21C30
330
18
100
AcDbEntity
  8
1DIM
100
AcDbLine
 10
964.7767808524354
 20
-291.2383663565996
 30
0.0
 11
964.7767808524354
 21
-319.456958926009
 31
0.0
  0
LINE
  5
21C31
330
18
100
AcDbEntity
  8
1DIM
100
AcDbLine
 10
949.7767808524359
 20
-304.2383663565996
 30
0.0
 11
949.7767808524359
 21
-319.456958926009
 31
0.0
  0
LINE
  5
21C32
330
18
100
AcDbEntity
  8
1DIM
100
AcDbLine
 10
962.7767808524354
 20
-318.456958926009
 30
0.0
 11
951.7767808524359
 21
-318.456958926009
 31
0.0
  0
LINE
  5
21C36
330
18
100
AcDbEntity
  8
1DIM
100
AcDbLine
 10
964.7767808524354
 20
-291.2383663565996
 30
0.0
 11
964.7767808524354
 21
-319.456958926009
 31
0.0
  0
LINE
  5
21C37
330
18
100
AcDbEntity
  8
1DIM
100
AcDbLine
 10
988.7767808524354
 20
-291.2383663566005
 30
0.0
 11
988.7767808524354
 21
-319.456958926009
 31
0.0
  0
LINE
  5
21C38
330
18
100
AcDbEntity
  8
1DIM
100
AcDbLine
 10
966.7767808524354
 20
-318.456958926009
 30
0.0
 11
986.7767808524354
 21
-318.456958926009
 31
0.0
  0
LINE
  5
21C3C
330
18
100
AcDbEntity
  8
0
  6
BYBLOCK
100
AcDbLine
 10
991.7767808524327
 20
-396.4556900438874
 30
0.0
 11
989.7767808524327
 21
-395.9197916638874
 31
0.0
  0
LINE
  5
21C3D
330
18
100
AcDbEntity
  8
0
  6
BYBLOCK
100
AcDbLine
 10
989.7767808524327
 20
-395.9197916638874
 30
0.0
 11
991.7767808524327
 21
-395.3838932838874
 31
0.0
  0
LINE
  5
21C3E
330
18
100
AcDbEntity
  8
0
  6
BYBLOCK
100
AcDbLine
 10
989.7767808524327
 20
-395.9197916638874
 30
0.0
 11
991.7767808524327
 21
-395.9197916638874
 31
0.0
  0
LINE
  5
21C3F
330
18
100
AcDbEntity
  8
0
  6
BYBLOCK
100
AcDbLine
 10
1087.776780852439
 20
-395.3838932838874
 30
0.0
 11
1089.776780852439
 21
-395.9197916638874
 31
0.0
  0
LINE
  5
21C40
330
18
100
AcDbEntity
  8
0
  6
BYBLOCK
100
AcDbLine
 10
1089.776780852439
 20
-395.9197916638874
 30
0.0
 11
1087.776780852439
 21
-396.4556900438874
 31
0.0
  0
LINE
  5
21C41
330
18
100
AcDbEntity
  8
0
  6
BYBLOCK
100
AcDbLine
 10
1089.776780852439
 20
-395.9197916638874
 30
0.0
 11
1087.776780852439
 21
-395.9197916638874
 31
0.0
  0
TEXT
  5
21C42
330
18
100
AcDbEntity
  8
1DIM
  6
CONTINUOUS
100
AcDbText
 10
1034.453864185769
 20
-395.2197916638874
 30
0.0
 40
3.5
  1
P
100
AcDbText
  0
TEXT
  5
21C43
330
18
100
AcDbEntity
  8
1DIM
  6
CONTINUOUS
100
AcDbText
 10
1037.953864185769
 20
-395.2197916638874
 30
0.0
 40
3.5
  1
100
100
AcDbText
  0
LINE
  5
21C44
330
18
100
AcDbEntity
  8
0
  6
BYBLOCK
100
AcDbLine
 10
951.7767808524359
 20
-342.7491875204591
 30
0.0
 11
949.7767808524359
 21
-342.2132891404591
 31
0.0
  0
LINE
  5
21C45
330
18
100
AcDbEntity
  8
0
  6
BYBLOCK
100
AcDbLine
 10
949.7767808524359
 20
-342.2132891404591
 30
0.0
 11
951.7767808524359
 21
-341.6773907604591
 31
0.0
  0
LINE
  5
21C46
330
18
100
AcDbEntity
  8
0
  6
BYBLOCK
100
AcDbLine
 10
949.7767808524359
 20
-342.2132891404591
 30
0.0
 11
951.7767808524359
 21
-342.2132891404591
 31
0.0
  0
LINE
  5
21C47
330
18
100
AcDbEntity
  8
0
  6
BYBLOCK
100
AcDbLine
 10
1187.776780852436
 20
-341.6773907604591
 30
0.0
 11
1189.776780852436
 21
-342.2132891404591
 31
0.0
  0
LINE
  5
21C48
330
18
100
AcDbEntity
  8
0
  6
BYBLOCK
100
AcDbLine
 10
1189.776780852436
 20
-342.2132891404591
 30
0.0
 11
1187.776780852436
 21
-342.7491875204591
 31
0.0
  0
LINE
  5
21C49
330
18
100
AcDbEntity
  8
0
  6
BYBLOCK
100
AcDbLine
 10
1189.776780852436
 20
-342.2132891404591
 30
0.0
 11
1187.776780852436
 21
-342.2132891404591
 31
0.0
  0
TEXT
  5
21C4A
330
18
100
AcDbEntity
  8
1DIM
  6
CONTINUOUS
100
AcDbText
 10
1065.328864185769
 20
-341.5132891404591
 30
0.0
 40
3.5
  1
240
100
AcDbText
  0
LINE
  5
21C4B
330
18
100
AcDbEntity
  8
0
  6
BYBLOCK
100
AcDbLine
 10
987.7767808524327
 20
-395.3838932838874
 30
0.0
 11
989.7767808524327
 21
-395.9197916638874
 31
0.0
  0
LINE
  5
21C4C
330
18
100
AcDbEntity
  8
0
  6
BYBLOCK
100
AcDbLine
 10
989.7767808524327
 20
-395.9197916638874
 30
0.0
 11
987.7767808524327
 21
-396.4556900438874
 31
0.0
  0
LINE
  5
21C4D
330
18
100
AcDbEntity
  8
0
  6
BYBLOCK
100
AcDbLine
 10
989.7767808524327
 20
-395.9197916638874
 30
0.0
 11
987.7767808524327
 21
-395.9197916638874
 31
0.0
  0
LINE
  5
21C4E
330
18
100
AcDbEntity
  8
0
  6
BYBLOCK
100
AcDbLine
 10
951.7767808524359
 20
-396.4556900438874
 30
0.0
 11
949.7767808524359
 21
-395.9197916638874
 31
0.0
  0
LINE
  5
21C4F
330
18
100
AcDbEntity
  8
0
  6
BYBLOCK
100
AcDbLine
 10
949.7767808524359
 20
-395.9197916638874
 30
0.0
 11
951.7767808524359
 21
-395.3838932838874
 31
0.0
  0
LINE
  5
21C50
330
18
100
AcDbEntity
  8
0
  6
BYBLOCK
100
AcDbLine
 10
949.7767808524359
 20
-395.9197916638874
 30
0.0
 11
951.7767808524359
 21
-395.9197916638874
 31
0.0
  0
TEXT
  5
21C51
330
18
100
AcDbEntity
  8
1DIM
  6
CONTINUOUS
100
AcDbText
 10
967.0788641857677
 20
-395.2197916638874
 30
0.0
 40
3.5
  1
40
100
AcDbText
  0
LINE
  5
21C52
330
18
100
AcDbEntity
  8
0
100
AcDbLine
 10
1313.920298676556
 20
-369.0299509857565
 30
0.0
 11
1284.051387589801
 21
-369.0299509857565
 31
0.0
  0
LINE
  5
21C53
330
18
100
AcDbEntity
  8
0
100
AcDbLine
 10
1284.051387589801
 20
-369.0299509857565
 30
0.0
 11
1280.801387589801
 21
-365.7799509857565
 31
0.0
  0
LINE
  5
21C54
330
18
100
AcDbEntity
  8
0
100
AcDbLine
 10
1280.801387589801
 20
-365.7799509857565
 30
0.0
 11
1280.451387589801
 21
-365.7799509857565
 31
0.0
  0
LINE
  5
21C55
330
18
100
AcDbEntity
  8
0
100
AcDbLine
 10
1280.451387589801
 20
-365.7799509857565
 30
0.0
 11
1280.451387589801
 21
-375.7799509857565
 31
0.0
  0
LINE
  5
21C56
330
18
100
AcDbEntity
  8
0
100
AcDbLine
 10
1280.451387589801
 20
-375.7799509857565
 30
0.0
 11
1280.801387589801
 21
-375.7799509857565
 31
0.0
  0
LINE
  5
21C57
330
18
100
AcDbEntity
  8
0
100
AcDbLine
 10
1280.801387589801
 20
-375.7799509857565
 30
0.0
 11
1284.051387589801
 21
-372.5299509857565
 31
0.0
  0
LINE
  5
21C58
330
18
100
AcDbEntity
  8
0
100
AcDbLine
 10
1284.051387589801
 20
-372.5299509857565
 30
0.0
 11
1313.920298676555
 21
-372.5299509857565
 31
0.0
  0
LINE
  5
21C59
330
18
100
AcDbEntity
  8
0
100
AcDbLine
 10
1313.920298676555
 20
-372.5299509857565
 30
0.0
 11
1320.451387589801
 21
-370.7799509857565
 31
0.0
  0
LINE
  5
21C5A
330
18
100
AcDbEntity
  8
0
100
AcDbLine
 10
1320.451387589801
 20
-370.7799509857565
 30
0.0
 11
1313.920298676556
 21
-369.0299509857565
 31
0.0
  0
LINE
  5
21C5B
330
18
100
AcDbEntity
  8
0
100
AcDbLine
 10
1088.026780852439
 20
-193.7694552698451
 30
0.0
 11
1088.026780852439
 21
-223.6383663565996
 31
0.0
  0
LINE
  5
21C5C
330
18
100
AcDbEntity
  8
0
100
AcDbLine
 10
1088.026780852439
 20
-223.6383663565996
 30
0.0
 11
1084.776780852439
 21
-226.8883663565997
 31
0.0
  0
LINE
  5
21C5D
330
18
100
AcDbEntity
  8
0
100
AcDbLine
 10
1084.776780852439
 20
-226.8883663565997
 30
0.0
 11
1084.776780852439
 21
-227.2383663565996
 31
0.0
  0
LINE
  5
21C5E
330
18
100
AcDbEntity
  8
0
100
AcDbLine
 10
1084.776780852439
 20
-227.2383663565996
 30
0.0
 11
1094.776780852439
 21
-227.2383663565996
 31
0.0
  0
LINE
  5
21C5F
330
18
100
AcDbEntity
  8
0
100
AcDbLine
 10
1094.776780852439
 20
-227.2383663565996
 30
0.0
 11
1094.776780852439
 21
-226.8883663565997
 31
0.0
  0
LINE
  5
21C60
330
18
100
AcDbEntity
  8
0
100
AcDbLine
 10
1094.776780852439
 20
-226.8883663565997
 30
0.0
 11
1091.526780852439
 21
-223.6383663565997
 31
0.0
  0
LINE
  5
21C61
330
18
100
AcDbEntity
  8
0
100
AcDbLine
 10
1091.526780852439
 20
-223.6383663565997
 30
0.0
 11
1091.526780852439
 21
-193.7694552698451
 31
0.0
  0
LINE
  5
21C62
330
18
100
AcDbEntity
  8
0
100
AcDbLine
 10
1091.526780852439
 20
-193.7694552698451
 30
0.0
 11
1089.776780852439
 21
-187.2383663565997
 31
0.0
  0
LINE
  5
21C63
330
18
100
AcDbEntity
  8
0
100
AcDbLine
 10
1089.776780852439
 20
-187.2383663565997
 30
0.0
 11
1088.026780852439
 21
-193.7694552698451
 31
0.0
  0
LINE
  5
21C64
330
18
100
AcDbEntity
  8
0
100
AcDbLine
 10
988.0267808524391
 20
-193.7694552698451
 30
0.0
 11
988.0267808524391
 21
-223.6383663565996
 31
0.0
  0
LINE
  5
21C65
330
18
100
AcDbEntity
  8
0
100
AcDbLine
 10
988.0267808524391
 20
-223.6383663565996
 30
0.0
 11
984.7767808524391
 21
-226.8883663565997
 31
0.0
  0
LINE
  5
21C66
330
18
100
AcDbEntity
  8
0
100
AcDbLine
 10
984.7767808524391
 20
-226.8883663565997
 30
0.0
 11
984.7767808524391
 21
-227.2383663565996
 31
0.0
  0
LINE
  5
21C67
330
18
100
AcDbEntity
  8
0
100
AcDbLine
 10
984.7767808524391
 20
-227.2383663565996
 30
0.0
 11
994.7767808524391
 21
-227.2383663565996
 31
0.0
  0
LINE
  5
21C68
330
18
100
AcDbEntity
  8
0
100
AcDbLine
 10
994.7767808524391
 20
-227.2383663565996
 30
0.0
 11
994.7767808524391
 21
-226.8883663565997
 31
0.0
  0
LINE
  5
21C69
330
18
100
AcDbEntity
  8
0
100
AcDbLine
 10
994.7767808524391
 20
-226.8883663565997
 30
0.0
 11
991.5267808524391
 21
-223.6383663565997
 31
0.0
  0
LINE
  5
21C6A
330
18
100
AcDbEntity
  8
0
100
AcDbLine
 10
991.5267808524391
 20
-223.6383663565997
 30
0.0
 11
991.5267808524391
 21
-193.7694552698451
 31
0.0
  0
LINE
  5
21C6B
330
18
100
AcDbEntity
  8
0
100
AcDbLine
 10
991.5267808524391
 20
-193.7694552698451
 30
0.0
 11
989.7767808524391
 21
-187.2383663565997
 31
0.0
  0
LINE
  5
21C6C
330
18
100
AcDbEntity
  8
0
100
AcDbLine
 10
989.7767808524391
 20
-187.2383663565997
 30
0.0
 11
988.0267808524391
 21
-193.7694552698451
 31
0.0
  0
LINE
  5
21C6D
330
18
100
AcDbEntity
  8
0
  6
BYBLOCK
100
AcDbLine
 10
1194.914927282244
 20
-354.7799509857574
 30
0.0
 11
1194.379028902244
 21
-356.7799509857574
 31
0.0
  0
LINE
  5
21C6E
330
18
100
AcDbEntity
  8
0
  6
BYBLOCK
100
AcDbLine
 10
1194.379028902244
 20
-356.7799509857574
 30
0.0
 11
1193.843130522245
 21
-354.7799509857574
 31
0.0
  0
LINE
  5
21C6F
330
18
100
AcDbEntity
  8
0
  6
BYBLOCK
100
AcDbLine
 10
1194.379028902244
 20
-356.7799509857574
 30
0.0
 11
1194.379028902244
 21
-354.7799509857574
 31
0.0
  0
LINE
  5
21C70
330
18
100
AcDbEntity
  8
0
  6
BYBLOCK
100
AcDbLine
 10
1193.843130522245
 20
-361.7799509857574
 30
0.0
 11
1194.379028902244
 21
-359.7799509857574
 31
0.0
  0
LINE
  5
21C71
330
18
100
AcDbEntity
  8
0
  6
BYBLOCK
100
AcDbLine
 10
1194.379028902244
 20
-359.7799509857574
 30
0.0
 11
1194.914927282244
 21
-361.7799509857574
 31
0.0
  0
LINE
  5
21C72
330
18
100
AcDbEntity
  8
0
  6
BYBLOCK
100
AcDbLine
 10
1194.379028902244
 20
-359.7799509857574
 30
0.0
 11
1194.379028902244
 21
-361.7799509857574
 31
0.0
  0
TEXT
  5
21C73
330
18
100
AcDbEntity
  8
1DIM
  6
CONTINUOUS
100
AcDbText
 10
1193.679028902244
 20
-366.8132843190911
 30
0.0
 40
3.5
  1
3
 50
90.0
100
AcDbText
  0
LINE
  5
21C74
330
18
100
AcDbEntity
  8
0
  6
BYBLOCK
100
AcDbLine
 10
1200.451387589801
 20
-342.7491875204591
 30
0.0
 11
1198.451387589801
 21
-342.2132891404591
 31
0.0
  0
LINE
  5
21C75
330
18
100
AcDbEntity
  8
0
  6
BYBLOCK
100
AcDbLine
 10
1198.451387589801
 20
-342.2132891404591
 30
0.0
 11
1200.451387589801
 21
-341.6773907604591
 31
0.0
  0
LINE
  5
21C76
330
18
100
AcDbEntity
  8
0
  6
BYBLOCK
100
AcDbLine
 10
1198.451387589801
 20
-342.2132891404591
 30
0.0
 11
1200.451387589801
 21
-342.2132891404591
 31
0.0
  0
LINE
  5
21C77
330
18
100
AcDbEntity
  8
0
  6
BYBLOCK
100
AcDbLine
 10
1281.451387589801
 20
-341.6773907604591
 30
0.0
 11
1283.451387589801
 21
-342.2132891404591
 31
0.0
  0
LINE
  5
21C78
330
18
100
AcDbEntity
  8
0
  6
BYBLOCK
100
AcDbLine
 10
1283.451387589801
 20
-342.2132891404591
 30
0.0
 11
1281.451387589801
 21
-342.7491875204591
 31
0.0
  0
LINE
  5
21C79
330
18
100
AcDbEntity
  8
0
  6
BYBLOCK
100
AcDbLine
 10
1283.451387589801
 20
-342.2132891404591
 30
0.0
 11
1281.451387589801
 21
-342.2132891404591
 31
0.0
  0
TEXT
  5
21C7A
330
18
100
AcDbEntity
  8
1DIM
  6
CONTINUOUS
100
AcDbText
 10
1238.034720923134
 20
-341.5132891404591
 30
0.0
 40
3.5
  1
85
100
AcDbText
  0
LINE
  5
21C7B
330
18
100
AcDbEntity
  8
0
  6
BYBLOCK
100
AcDbLine
 10
1311.088142698269
 20
-382.7799509857583
 30
0.0
 11
1310.552244318269
 21
-384.7799509857583
 31
0.0
  0
LINE
  5
21C7C
330
18
100
AcDbEntity
  8
0
  6
BYBLOCK
100
AcDbLine
 10
1310.552244318269
 20
-384.7799509857583
 30
0.0
 11
1310.016345938269
 21
-382.7799509857583
 31
0.0
  0
LINE
  5
21C7D
330
18
100
AcDbEntity
  8
0
  6
BYBLOCK
100
AcDbLine
 10
1310.552244318269
 20
-384.7799509857583
 30
0.0
 11
1310.552244318269
 21
-382.7799509857583
 31
0.0
  0
LINE
  5
21C7E
330
18
100
AcDbEntity
  8
0
  6
BYBLOCK
100
AcDbLine
 10
1310.016345938269
 20
-358.7799509857565
 30
0.0
 11
1310.552244318269
 21
-356.7799509857565
 31
0.0
  0
LINE
  5
21C7F
330
18
100
AcDbEntity
  8
0
  6
BYBLOCK
100
AcDbLine
 10
1310.552244318269
 20
-356.7799509857565
 30
0.0
 11
1311.088142698269
 21
-358.7799509857565
 31
0.0
  0
LINE
  5
21C80
330
18
100
AcDbEntity
  8
0
  6
BYBLOCK
100
AcDbLine
 10
1310.552244318269
 20
-356.7799509857565
 30
0.0
 11
1310.552244318269
 21
-358.7799509857565
 31
0.0
  0
TEXT
  5
21C81
330
18
100
AcDbEntity
  8
1DIM
  6
CONTINUOUS
100
AcDbText
 10
1309.852244318269
 20
-366.6393036664988
 30
0.0
 40
3.5
  1
28
 50
90.0
100
AcDbText
  0
LINE
  5
21C82
330
18
100
AcDbEntity
  8
0
  6
BYBLOCK
100
AcDbLine
 10
1304.098791883551
 20
-358.7799509857565
 30
0.0
 11
1304.634690263551
 21
-356.7799509857565
 31
0.0
  0
LINE
  5
21C83
330
18
100
AcDbEntity
  8
0
  6
BYBLOCK
100
AcDbLine
 10
1304.634690263551
 20
-356.7799509857565
 30
0.0
 11
1305.170588643551
 21
-358.7799509857565
 31
0.0
  0
LINE
  5
21C84
330
18
100
AcDbEntity
  8
0
  6
BYBLOCK
100
AcDbLine
 10
1304.634690263551
 20
-356.7799509857565
 30
0.0
 11
1304.634690263551
 21
-358.7799509857565
 31
0.0
  0
LINE
  5
21C85
330
18
100
AcDbEntity
  8
0
  6
BYBLOCK
100
AcDbLine
 10
1305.170588643551
 20
-368.7799509857565
 30
0.0
 11
1304.634690263551
 21
-370.7799509857565
 31
0.0
  0
LINE
  5
21C86
330
18
100
AcDbEntity
  8
0
  6
BYBLOCK
100
AcDbLine
 10
1304.634690263551
 20
-370.7799509857565
 30
0.0
 11
1304.098791883551
 21
-368.7799509857565
 31
0.0
  0
LINE
  5
21C87
330
18
100
AcDbEntity
  8
0
  6
BYBLOCK
100
AcDbLine
 10
1304.634690263551
 20
-370.7799509857565
 30
0.0
 11
1304.634690263551
 21
-368.7799509857565
 31
0.0
  0
TEXT
  5
21C88
330
18
100
AcDbEntity
  8
1DIM
  6
CONTINUOUS
100
AcDbText
 10
1303.934690263551
 20
-366.1132843190896
 30
0.0
 40
3.5
  1
14
 50
90.0
100
AcDbText
  0
LINE
  5
21C89
330
18
100
AcDbEntity
  8
0
  6
BYBLOCK
100
AcDbLine
 10
951.7767808524359
 20
-213.3768954529918
 30
0.0
 11
949.7767808524359
 21
-212.8409970729918
 31
0.0
  0
LINE
  5
21C8A
330
18
100
AcDbEntity
  8
0
  6
BYBLOCK
100
AcDbLine
 10
949.7767808524359
 20
-212.8409970729918
 30
0.0
 11
951.7767808524359
 21
-212.3050986929918
 31
0.0
  0
LINE
  5
21C8B
330
18
100
AcDbEntity
  8
0
  6
BYBLOCK
100
AcDbLine
 10
949.7767808524359
 20
-212.8409970729918
 30
0.0
 11
951.7767808524359
 21
-212.8409970729918
 31
0.0
  0
LINE
  5
21C8C
330
18
100
AcDbEntity
  8
0
  6
BYBLOCK
100
AcDbLine
 10
1107.776780852436
 20
-212.3050986929918
 30
0.0
 11
1109.776780852436
 21
-212.8409970729918
 31
0.0
  0
LINE
  5
21C8D
330
18
100
AcDbEntity
  8
0
  6
BYBLOCK
100
AcDbLine
 10
1109.776780852436
 20
-212.8409970729918
 30
0.0
 11
1107.776780852436
 21
-213.3768954529918
 31
0.0
  0
LINE
  5
21C8E
330
18
100
AcDbEntity
  8
0
  6
BYBLOCK
100
AcDbLine
 10
1109.776780852436
 20
-212.8409970729918
 30
0.0
 11
1107.776780852436
 21
-212.8409970729918
 31
0.0
  0
TEXT
  5
21C8F
330
18
100
AcDbEntity
  8
1DIM
  6
CONTINUOUS
100
AcDbText
 10
1025.900044741325
 20
-212.1409970729918
 30
0.0
 40
3.5
  1
160
100
AcDbText
  0
LINE
  5
21C90
330
18
100
AcDbEntity
  8
0
  6
BYBLOCK
100
AcDbLine
 10
1203.962105875575
 20
-246.2383663565996
 30
0.0
 11
1204.498004255575
 21
-244.2383663565996
 31
0.0
  0
LINE
  5
21C91
330
18
100
AcDbEntity
  8
0
  6
BYBLOCK
100
AcDbLine
 10
1204.498004255575
 20
-244.2383663565996
 30
0.0
 11
1205.033902635575
 21
-246.2383663565996
 31
0.0
  0
LINE
  5
21C92
330
18
100
AcDbEntity
  8
0
  6
BYBLOCK
100
AcDbLine
 10
1204.498004255575
 20
-244.2383663565996
 30
0.0
 11
1204.498004255575
 21
-246.2383663565996
 31
0.0
  0
LINE
  5
21C93
330
18
100
AcDbEntity
  8
0
  6
BYBLOCK
100
AcDbLine
 10
1205.033902635575
 20
-292.2383663565996
 30
0.0
 11
1204.498004255575
 21
-294.2383663565996
 31
0.0
  0
LINE
  5
21C94
330
18
100
AcDbEntity
  8
0
  6
BYBLOCK
100
AcDbLine
 10
1204.498004255575
 20
-294.2383663565996
 30
0.0
 11
1203.962105875575
 21
-292.2383663565996
 31
0.0
  0
LINE
  5
21C95
330
18
100
AcDbEntity
  8
0
  6
BYBLOCK
100
AcDbLine
 10
1204.498004255575
 20
-294.2383663565996
 30
0.0
 11
1204.498004255575
 21
-292.2383663565996
 31
0.0
  0
TEXT
  5
21C96
330
18
100
AcDbEntity
  8
1DIM
  6
CONTINUOUS
100
AcDbText
 10
1203.798004255575
 20
-271.9484358010441
 30
0.0
 40
3.5
  1
50
 50
90.0
100
AcDbText
  0
LINE
  5
21C97
330
18
100
AcDbEntity
  8
0
  6
BYBLOCK
100
AcDbLine
 10
1216.85977175207
 20
-307.2383663565996
 30
0.0
 11
1216.32387337207
 21
-309.2383663565996
 31
0.0
  0
LINE
  5
21C98
330
18
100
AcDbEntity
  8
0
  6
BYBLOCK
100
AcDbLine
 10
1216.32387337207
 20
-309.2383663565996
 30
0.0
 11
1215.787974992071
 21
-307.2383663565996
 31
0.0
  0
LINE
  5
21C99
330
18
100
AcDbEntity
  8
0
  6
BYBLOCK
100
AcDbLine
 10
1216.32387337207
 20
-309.2383663565996
 30
0.0
 11
1216.32387337207
 21
-307.2383663565996
 31
0.0
  0
LINE
  5
21C9A
330
18
100
AcDbEntity
  8
0
  6
BYBLOCK
100
AcDbLine
 10
1215.787974992071
 20
-231.2383663565996
 30
0.0
 11
1216.32387337207
 21
-229.2383663565996
 31
0.0
  0
LINE
  5
21C9B
330
18
100
AcDbEntity
  8
0
  6
BYBLOCK
100
AcDbLine
 10
1216.32387337207
 20
-229.2383663565996
 30
0.0
 11
1216.85977175207
 21
-231.2383663565996
 31
0.0
  0
LINE
  5
21C9C
330
18
100
AcDbEntity
  8
0
  6
BYBLOCK
100
AcDbLine
 10
1216.32387337207
 20
-229.2383663565996
 30
0.0
 11
1216.32387337207
 21
-231.2383663565996
 31
0.0
  0
TEXT
  5
21C9D
330
18
100
AcDbEntity
  8
1DIM
  6
CONTINUOUS
100
AcDbText
 10
1215.62387337207
 20
-271.9362830232662
 30
0.0
 40
3.5
  1
80
 50
90.0
100
AcDbText
  0
LINE
  5
21C9E
330
18
100
AcDbEntity
  8
0
  6
BYBLOCK
100
AcDbLine
 10
1036.776780852436
 20
-318.9928573060089
 30
0.0
 11
1034.776780852436
 21
-318.456958926009
 31
0.0
  0
LINE
  5
21C9F
330
18
100
AcDbEntity
  8
0
  6
BYBLOCK
100
AcDbLine
 10
1034.776780852436
 20
-318.456958926009
 30
0.0
 11
1036.776780852436
 21
-317.921060546009
 31
0.0
  0
LINE
  5
21CA0
330
18
100
AcDbEntity
  8
0
  6
BYBLOCK
100
AcDbLine
 10
1034.776780852436
 20
-318.456958926009
 30
0.0
 11
1036.776780852436
 21
-318.456958926009
 31
0.0
  0
LINE
  5
21CA1
330
18
100
AcDbEntity
  8
0
  6
BYBLOCK
100
AcDbLine
 10
1162.776780852436
 20
-317.921060546009
 30
0.0
 11
1164.776780852436
 21
-318.456958926009
 31
0.0
  0
LINE
  5
21CA2
330
18
100
AcDbEntity
  8
0
  6
BYBLOCK
100
AcDbLine
 10
1164.776780852436
 20
-318.456958926009
 30
0.0
 11
1162.776780852436
 21
-318.9928573060089
 31
0.0
  0
LINE
  5
21CA3
330
18
100
AcDbEntity
  8
0
  6
BYBLOCK
100
AcDbLine
 10
1164.776780852436
 20
-318.456958926009
 30
0.0
 11
1162.776780852436
 21
-318.456958926009
 31
0.0
  0
TEXT
  5
21CA4
330
18
100
AcDbEntity
  8
1DIM
  6
CONTINUOUS
100
AcDbText
 10
1095.912197519103
 20
-317.756958926009
 30
0.0
 40
3.5
  1
130
100
AcDbText
  0
LINE
  5
21CA5
330
18
100
AcDbEntity
  8
0
  6
BYBLOCK
100
AcDbLine
 10
1166.776780852436
 20
-318.9928573060089
 30
0.0
 11
1164.776780852436
 21
-318.456958926009
 31
0.0
  0
LINE
  5
21CA6
330
18
100
AcDbEntity
  8
0
  6
BYBLOCK
100
AcDbLine
 10
1164.776780852436
 20
-318.456958926009
 30
0.0
 11
1166.776780852436
 21
-317.921060546009
 31
0.0
  0
LINE
  5
21CA7
330
18
100
AcDbEntity
  8
0
  6
BYBLOCK
100
AcDbLine
 10
1164.776780852436
 20
-318.456958926009
 30
0.0
 11
1166.776780852436
 21
-318.456958926009
 31
0.0
  0
LINE
  5
21CA8
330
18
100
AcDbEntity
  8
0
  6
BYBLOCK
100
AcDbLine
 10
1187.776780852436
 20
-317.921060546009
 30
0.0
 11
1189.776780852436
 21
-318.456958926009
 31
0.0
  0
LINE
  5
21CA9
330
18
100
AcDbEntity
  8
0
  6
BYBLOCK
100
AcDbLine
 10
1189.776780852436
 20
-318.456958926009
 30
0.0
 11
1187.776780852436
 21
-318.9928573060089
 31
0.0
  0
LINE
  5
21CAA
330
18
100
AcDbEntity
  8
0
  6
BYBLOCK
100
AcDbLine
 10
1189.776780852436
 20
-318.456958926009
 30
0.0
 11
1187.776780852436
 21
-318.456958926009
 31
0.0
  0
TEXT
  5
21CAB
330
18
100
AcDbEntity
  8
1DIM
  6
CONTINUOUS
100
AcDbText
 10
1174.360114185769
 20
-317.7569589260089
 30
0.0
 40
3.5
  1
25
100
AcDbText
  0
LINE
  5
21CAC
330
18
100
AcDbEntity
  8
0
  6
BYBLOCK
100
AcDbLine
 10
941.8511969245524
 20
-292.2383663565996
 30
0.0
 11
941.3152985445523
 21
-294.2383663565996
 31
0.0
  0
LINE
  5
21CAD
330
18
100
AcDbEntity
  8
0
  6
BYBLOCK
100
AcDbLine
 10
941.3152985445523
 20
-294.2383663565996
 30
0.0
 11
940.7794001645523
 21
-292.2383663565996
 31
0.0
  0
LINE
  5
21CAE
330
18
100
AcDbEntity
  8
0
  6
BYBLOCK
100
AcDbLine
 10
941.3152985445523
 20
-294.2383663565996
 30
0.0
 11
941.3152985445523
 21
-292.2383663565996
 31
0.0
  0
LINE
  5
21CAF
330
18
100
AcDbEntity
  8
0
  6
BYBLOCK
100
AcDbLine
 10
940.7794001645523
 20
-271.2383663565996
 30
0.0
 11
941.3152985445523
 21
-269.2383663565996
 31
0.0
  0
LINE
  5
21CB0
330
18
100
AcDbEntity
  8
0
  6
BYBLOCK
100
AcDbLine
 10
941.3152985445523
 20
-269.2383663565996
 30
0.0
 11
941.8511969245524
 21
-271.2383663565996
 31
0.0
  0
LINE
  5
21CB1
330
18
100
AcDbEntity
  8
0
  6
BYBLOCK
100
AcDbLine
 10
941.3152985445523
 20
-269.2383663565996
 30
0.0
 11
941.3152985445523
 21
-271.2383663565996
 31
0.0
  0
TEXT
  5
21CB2
330
18
100
AcDbEntity
  8
1DIM
  6
CONTINUOUS
100
AcDbText
 10
940.6152985445522
 20
-284.6550330232662
 30
0.0
 40
3.5
  1
25
 50
90.0
100
AcDbText
  0
LINE
  5
21CB3
330
18
100
AcDbEntity
  8
0
  6
BYBLOCK
100
AcDbLine
 10
948.2027145736024
 20
-284.7383663565996
 30
0.0
 11
947.6668161936024
 21
-286.7383663565996
 31
0.0
  0
LINE
  5
21CB4
330
18
100
AcDbEntity
  8
0
  6
BYBLOCK
100
AcDbLine
 10
947.6668161936024
 20
-286.7383663565996
 30
0.0
 11
947.1309178136023
 21
-284.7383663565996
 31
0.0
  0
LINE
  5
21CB5
330
18
100
AcDbEntity
  8
0
  6
BYBLOCK
100
AcDbLine
 10
947.6668161936024
 20
-286.7383663565996
 30
0.0
 11
947.6668161936024
 21
-284.7383663565996
 31
0.0
  0
LINE
  5
21CB6
330
18
100
AcDbEntity
  8
0
  6
BYBLOCK
100
AcDbLine
 10
947.1309178136023
 20
-278.7383663565996
 30
0.0
 11
947.6668161936024
 21
-276.7383663565996
 31
0.0
  0
LINE
  5
21CB7
330
18
100
AcDbEntity
  8
0
  6
BYBLOCK
100
AcDbLine
 10
947.6668161936024
 20
-276.7383663565996
 30
0.0
 11
948.2027145736024
 21
-278.7383663565996
 31
0.0
  0
LINE
  5
21CB8
330
18
100
AcDbEntity
  8
0
  6
BYBLOCK
100
AcDbLine
 10
947.6668161936024
 20
-276.7383663565996
 30
0.0
 11
947.6668161936024
 21
-278.7383663565996
 31
0.0
  0
TEXT
  5
21CB9
330
18
100
AcDbEntity
  8
1DIM
  6
CONTINUOUS
100
AcDbText
 10
946.9668161936023
 20
-283.852949689933
 30
0.0
 40
3.5
  1
10
 50
90.0
100
AcDbText
  0
LINE
  5
21CBA
330
18
100
AcDbEntity
  8
0
  6
BYBLOCK
100
AcDbLine
 10
940.7794001645523
 20
-296.2383663565996
 30
0.0
 11
941.3152985445523
 21
-294.2383663565996
 31
0.0
  0
LINE
  5
21CBB
330
18
100
AcDbEntity
  8
0
  6
BYBLOCK
100
AcDbLine
 10
941.3152985445523
 20
-294.2383663565996
 30
0.0
 11
941.8511969245524
 21
-296.2383663565996
 31
0.0
  0
LINE
  5
21CBC
330
18
100
AcDbEntity
  8
0
  6
BYBLOCK
100
AcDbLine
 10
941.3152985445523
 20
-294.2383663565996
 30
0.0
 11
941.3152985445523
 21
-296.2383663565996
 31
0.0
  0
LINE
  5
21CBD
330
18
100
AcDbEntity
  8
0
  6
BYBLOCK
100
AcDbLine
 10
941.8511969245524
 20
-307.2383663565996
 30
0.0
 11
941.3152985445523
 21
-309.2383663565996
 31
0.0
  0
LINE
  5
21CBE
330
18
100
AcDbEntity
  8
0
  6
BYBLOCK
100
AcDbLine
 10
941.3152985445523
 20
-309.2383663565996
 30
0.0
 11
940.7794001645523
 21
-307.2383663565996
 31
0.0
  0
LINE
  5
21CBF
330
18
100
AcDbEntity
  8
0
  6
BYBLOCK
100
AcDbLine
 10
941.3152985445523
 20
-309.2383663565996
 30
0.0
 11
941.3152985445523
 21
-307.2383663565996
 31
0.0
  0
TEXT
  5
21CC0
330
18
100
AcDbEntity
  8
1DIM
  6
CONTINUOUS
100
AcDbText
 10
940.6152985445522
 20
-304.071699689933
 30
0.0
 40
3.5
  1
15
 50
90.0
100
AcDbText
  0
LINE
  5
21CC1
330
18
100
AcDbEntity
  8
0
  6
BYBLOCK
100
AcDbLine
 10
962.7767808524354
 20
-317.921060546009
 30
0.0
 11
964.7767808524354
 21
-318.456958926009
 31
0.0
  0
LINE
  5
21CC2
330
18
100
AcDbEntity
  8
0
  6
BYBLOCK
100
AcDbLine
 10
964.7767808524354
 20
-318.456958926009
 30
0.0
 11
962.7767808524354
 21
-318.9928573060089
 31
0.0
  0
LINE
  5
21CC3
330
18
100
AcDbEntity
  8
0
  6
BYBLOCK
100
AcDbLine
 10
964.7767808524354
 20
-318.456958926009
 30
0.0
 11
962.7767808524354
 21
-318.456958926009
 31
0.0
  0
LINE
  5
21CC4
330
18
100
AcDbEntity
  8
0
  6
BYBLOCK
100
AcDbLine
 10
951.7767808524359
 20
-318.9928573060089
 30
0.0
 11
949.7767808524359
 21
-318.456958926009
 31
0.0
  0
LINE
  5
21CC5
330
18
100
AcDbEntity
  8
0
  6
BYBLOCK
100
AcDbLine
 10
949.7767808524359
 20
-318.456958926009
 30
0.0
 11
951.7767808524359
 21
-317.921060546009
 31
0.0
  0
LINE
  5
21CC6
330
18
100
AcDbEntity
  8
0
  6
BYBLOCK
100
AcDbLine
 10
949.7767808524359
 20
-318.456958926009
 30
0.0
 11
951.7767808524359
 21
-318.456958926009
 31
0.0
  0
TEXT
  5
21CC7
330
18
100
AcDbEntity
  8
1DIM
  6
CONTINUOUS
100
AcDbText
 10
954.9434475191023
 20
-317.7569589260089
 30
0.0
 40
3.5
  1
15
100
AcDbText
  0
LINE
  5
21CC8
330
18
100
AcDbEntity
  8
0
  6
BYBLOCK
100
AcDbLine
 10
966.7767808524354
 20
-318.9928573060089
 30
0.0
 11
964.7767808524354
 21
-318.456958926009
 31
0.0
  0
LINE
  5
21CC9
330
18
100
AcDbEntity
  8
0
  6
BYBLOCK
100
AcDbLine
 10
964.7767808524354
 20
-318.456958926009
 30
0.0
 11
966.7767808524354
 21
-317.921060546009
 31
0.0
  0
LINE
  5
21CCA
330
18
100
AcDbEntity
  8
0
  6
BYBLOCK
100
AcDbLine
 10
964.7767808524354
 20
-318.456958926009
 30
0.0
 11
966.7767808524354
 21
-318.456958926009
 31
0.0
  0
LINE
  5
21CCB
330
18
100
AcDbEntity
  8
0
  6
BYBLOCK
100
AcDbLine
 10
986.7767808524354
 20
-317.921060546009
 30
0.0
 11
988.7767808524354
 21
-318.456958926009
 31
0.0
  0
LINE
  5
21CCC
330
18
100
AcDbEntity
  8
0
  6
BYBLOCK
100
AcDbLine
 10
988.7767808524354
 20
-318.456958926009
 30
0.0
 11
986.7767808524354
 21
-318.9928573060089
 31
0.0
  0
LINE
  5
21CCD
330
18
100
AcDbEntity
  8
0
  6
BYBLOCK
100
AcDbLine
 10
988.7767808524354
 20
-318.456958926009
 30
0.0
 11
986.7767808524354
 21
-318.456958926009
 31
0.0
  0
TEXT
  5
21CCE
330
18
100
AcDbEntity
  8
1DIM
  6
CONTINUOUS
100
AcDbText
 10
973.8601141857688
 20
-317.756958926009
 30
0.0
 40
3.5
  1
24
100
AcDbText
  0
VIEWPORT
  5
57
330
15
100
AcDbEntity
 67
     1
  8
0
100
AcDbViewport
 68
     1
 10
0.0
 20
0.0
 30
0.0
 40
551.8723404255319
 41
297.0
 68
     1
 69
     1
1001
ACAD
1000
MVIEW
1002
{
1070
    16
1010
0.0
1020
0.0
1030
0.0
1010
0.0
1020
0.0
1030
1.0
1040
0.0
1040
297.0
1040
-4.171999999925333
1040
12.83903210976956
1040
50.0
1040
0.0
1040
0.0
1070
    16
1070
   100
1070
     0
1070
     1
1070
     0
1070
     0
1070
     0
1070
     0
1040
0.0
1040
0.0
1040
0.0
1040
10.0
1040
10.0
1040
10.0
1040
10.0
1070
     0
1002
{
1002
}
1002
}
  0
ENDSEC
  0
SECTION
  2
OBJECTS
  0
DICTIONARY
  5
C
330
0
100
AcDbDictionary
  3
ACAD_COLOR
350
2D0
  3
ACAD_GROUP
350
D
  3
ACAD_LAYOUT
350
2D1
  3
ACAD_MATERIAL
350
2CF
  3
ACAD_MLEADERSTYLE
350
19E18
  3
ACAD_MLINESTYLE
350
1B
  3
ACAD_PLOTSETTINGS
350
2D2
  3
ACAD_SCALELIST
350
19DF6
  3
ACAD_VISUALSTYLE
350
19DE5
  3
ACDBHEADERROUNDTRIPXREC
350
21CCF
  3
ACDBVARIABLEDICTIONARY
350
37
  3
CONTENTDICTIONARY
350
D8
  3
DRAWINGVARIABLESDICT
350
20
  3
DWGPROPS
350
21CD2
1001
ACAD
1000
TREAT_AS_HARD
1070
     0
  0
DICTIONARY
  5
18FE8
330
2
100
AcDbDictionary
  3
ACAD_LAYERSTATES
360
18FE9
1001
ACAD
1000
TREAT_AS_HARD
1070
     1
  0
DICTIONARY
  5
1A20A
330
E
100
AcDbDictionary
  3
ADSK_XREC_LAYER_RECONCILED
360
1A20B
1001
ACAD
1000
TREAT_AS_HARD
1070
     1
  0
DICTIONARY
  5
1A20C
330
29
100
AcDbDictionary
  3
ADSK_XREC_LAYER_RECONCILED
360
1A20D
1001
ACAD
1000
TREAT_AS_HARD
1070
     1
  0
DICTIONARY
  5
1A20E
330
31
100
AcDbDictionary
  3
ADSK_XREC_LAYER_RECONCILED
360
1A20F
1001
ACAD
1000
TREAT_AS_HARD
1070
     1
  0
DICTIONARY
  5
1A218
330
101
100
AcDbDictionary
  3
ADSK_XREC_LAYER_RECONCILED
360
1A219
1001
ACAD
1000
TREAT_AS_HARD
1070
     1
  0
DICTIONARY
  5
1A21C
330
103
100
AcDbDictionary
  3
ADSK_XREC_LAYER_RECONCILED
360
1A21D
1001
ACAD
1000
TREAT_AS_HARD
1070
     1
  0
DICTIONARY
  5
1A220
330
25F
100
AcDbDictionary
  3
ADSK_XREC_LAYER_RECONCILED
360
1A221
1001
ACAD
1000
TREAT_AS_HARD
1070
     1
  0
DICTIONARY
  5
6E9
330
18
100
AcDbDictionary
  3
ACAD_SORTENTS
360
6EA
1001
ACAD
1000
TREAT_AS_HARD
1070
     1
  0
DICTIONARY
  5
59B
330
15
100
AcDbDictionary
  3
ACAD_SORTENTS
360
59C
1001
ACAD
1000
TREAT_AS_HARD
1070
     1
  0
DICTIONARY
  5
2D0
102
{ACAD_REACTORS
330
C
102
}
330
C
100
AcDbDictionary
1001
ACAD
1000
TREAT_AS_HARD
1070
     0
  0
DICTIONARY
  5
D
102
{ACAD_REACTORS
330
C
102
}
330
C
100
AcDbDictionary
1001
ACAD
1000
TREAT_AS_HARD
1070
     0
  0
DICTIONARY
  5
2D1
102
{ACAD_REACTORS
330
C
102
}
330
C
100
AcDbDictionary
1001
ACAD
1000
TREAT_AS_HARD
1070
     0
  0
DICTIONARY
  5
2CF
102
{ACAD_REACTORS
330
C
102
}
330
C
100
AcDbDictionary
  3
BYBLOCK
350
19DD5
  3
BYLAYER
350
19DCD
  3
GLOBAL
350
19DDD
1001
ACAD
1000
TREAT_AS_HARD
1070
     0
  0
DICTIONARY
  5
19E18
102
{ACAD_REACTORS
330
C
102
}
330
C
100
AcDbDictionary
  3
STANDARD
350
19E19
1001
ACAD
1000
TREAT_AS_HARD
1070
     0
  0
DICTIONARY
  5
1B
102
{ACAD_REACTORS
330
C
102
}
330
C
100
AcDbDictionary
  3
STANDARD
350
1C
1001
ACAD
1000
TREAT_AS_HARD
1070
     0
  0
DICTIONARY
  5
2D2
102
{ACAD_REACTORS
330
C
102
}
330
C
100
AcDbDictionary
1001
ACAD
1000
TREAT_AS_HARD
1070
     0
  0
DICTIONARY
  5
19DF6
102
{ACAD_REACTORS
330
C
102
}
330
C
100
AcDbDictionary
  3
A0
350
19DF7
  3
A1
350
19DF8
  3
A2
350
19DF9
  3
A3
350
19DFA
  3
A4
350
19DFB
  3
A5
350
19DFC
  3
A6
350
19DFD
  3
A7
350
19DFE
  3
A8
350
19DFF
  3
A9
350
19E00
  3
B0
350
19E01
  3
B1
350
19E02
  3
B2
350
19E03
  3
B3
350
19E04
  3
B4
350
19E05
  3
B5
350
19E06
  3
B6
350
19E07
  3
B7
350
19E08
  3
B8
350
19E09
  3
B9
350
19E0A
  3
C0
350
19E0B
  3
C1
350
19E0C
  3
C2
350
19E0D
  3
C3
350
19E0E
  3
C4
350
19E0F
  3
C5
350
19E10
  3
C6
350
19E11
  3
C7
350
19E12
  3
C8
350
19E13
  3
C9
350
19E14
  3
D0
350
19E15
  3
D1
350
19E16
  3
D2
350
19E17
1001
ACAD
1000
TREAT_AS_HARD
1070
     0
  0
DICTIONARY
  5
19DE5
102
{ACAD_REACTORS
330
C
102
}
330
C
100
AcDbDictionary
  3
2DWIREFRAME
350
19DEB
  3
3D_HIDDEN
350
19DED
  3
3DWIREFRAME
350
19DEC
  3
BASIC
350
19DEA
  3
BRIGHTEN
350
19DF1
  3
COLORCHANGE
350
19DF5
  3
CONCEPTUAL
350
19DEE
  3
DIM
350
19DF0
  3
EDGECOLOROFF
350
1E02A
  3
FACEPATTERN
350
19DF4
  3
FLAT
350
19DE6
  3
FLATWITHEDGES
350
19DE7
  3
GOURAUD
350
19DE8
  3
GOURAUDWITHEDGES
350
19DE9
  3
HIDDEN
350
1FE4A
  3
JITTEROFF
350
1E028
  3
LINEPATTERN
350
19DF3
  3
MODELING
350
1FE50
  3
OVERHANGOFF
350
1E029
  3
REALISTIC
350
19DEF
  3
SHADED
350
1FE4F
  3
SHADED_WITH_EDGES
350
1FE4E
  3
SHADES_OF_GRAY
350
1FE4B
  3
SKETCHY
350
1FE4C
  3
THICKEN
350
19DF2
  3
WIREFRAME
350
1FE49
  3
X-RAY
350
1FE4D
1001
ACAD
1000
TREAT_AS_HARD
1070
     0
  0
DICTIONARY
  5
21CCF
102
{ACAD_REACTORS
330
C
102
}
330
C
100
AcDbDictionary
  3
COLORDICT
350
21CD0
  3
MATERIALDICT
350
21CD1
1001
ACAD
1000
TREAT_AS_HARD
1070
     0
  0
DICTIONARY
  5
37
102
{ACAD_REACTORS
330
C
102
}
330
C
100
AcDbDictionary
  3
CANNOSCALE
350
20611
  3
CMLEADERSTYLE
350
1AC19
  3
CTABLESTYLE
350
4F1
  3
DIMADEC
350
38
  3
DIMASSOC
350
408
  3
HIDETEXT
350
1891
  3
INDEXCTL
350
1AC1C
  3
INTERSECTIONCOLOR
350
1895
  3
INTERSECTIONDISPLAY
350
1894
  3
MSLTSCALE
350
20667
  3
OBSCOLOR
350
1892
  3
OBSLTYPE
350
1893
  3
PROJECTNAME
350
409
  3
SORTENTS
350
1AC1B
  3
XCLIPFRAME
350
1FE48
1001
ACAD
1000
TREAT_AS_HARD
1070
     0
  0
DICTIONARY
  5
D8
102
{ACAD_REACTORS
330
C
102
}
330
C
100
AcDbDictionary
1001
CONTENTTABDATA
1070
    11
1000
Child
1000
D:\ACLT\TABset\CHILDREN.dwg
1070
     0
1070
     0
1070
     1
1000
PK
1000
D:\ACLT\TABset\PK.dwg
1070
     0
1070
     0
1070
     1
1000
Lev1
1000
D:\ACLT\TABset\Lever01.dwg
1070
     0
1070
     0
1070
     1
1000
Lev2
1000
D:\ACLT\TABset\Lever02.dwg
1070
     0
1070
     0
1070
     1
1000
L3
1000
D:\Aclt\TABset\Lever03.dwg
1070
     0
1070
     0
1070
     1
1000
Form
1000
D:\ACLT\FORMAT
1070
     1
1070
     0
1070
     1
1000
Jnt
1000
D:\ACLT\TABset\JOINTPARTS.dwg
1070
     0
1070
     0
1070
     1
1000
ISO
1000
D:\ACLT\TABset\Isome01.dwg
1070
     0
1070
     0
1070
     1
1000
R
1000
D:\ACLT\TABset\REGION.dwg
1070
     0
1070
     0
1070
     1
1000
std
1000
D:\ACLT\TABset\std_sym_all.dwg
1070
     0
1070
     0
1070
     1
1000
丸
1000
D:\Aclt\TABset\MARU.dwg
1070
     0
1070
     0
1070
     1
1001
CONTENTCURRENTTAB
1070
     0
1001
ACAD
1000
TREAT_AS_HARD
1070
     0
  0
DICTIONARY
  5
20
102
{ACAD_REACTORS
330
C
102
}
330
C
100
AcDbDictionary
1001
DRAWINGVARIABLESXDATA
1000
POLARANG
1000
0.261799387799149410000000
1000
POLARMODE
1000
1
1000
POLARSTYLE
1000
1
1001
ACAD
1000
TREAT_AS_HARD
1070
     0
  0
XRECORD
  5
21CD2
102
{ACAD_REACTORS
330
C
102
}
330
C
100
AcDbXrecord
  1
DWGPROPS COOKIE
  2

  3

  4

  6

  7

  8
3684
  9

300
=
301
=
302
=
303
=
304
=
305
=
306
=
307
=
308
=
309
=
 40
0.0
 41
2453033.357663484
 42
2459255.002490544
  1

 90
        0
  0
DICTIONARY
  5
18FE9
102
{ACAD_REACTORS
330
18FE8
102
}
330
18FE8
100
AcDbDictionary
1001
ACAD
1000
TREAT_AS_HARD
1070
     0
  0
ACAD_PROXY_OBJECT
  5
1A20B
102
{ACAD_REACTORS
330
1A20A
102
}
330
1A20A
100
AcDbZombieObject
 90
      499
 91
      517
 93
       34
310
40C8804040
  0
ACAD_PROXY_OBJECT
  5
1A20D
102
{ACAD_REACTORS
330
1A20C
102
}
330
1A20C
100
AcDbZombieObject
 90
      499
 91
      517
 93
       34
310
40C8804040
  0
ACAD_PROXY_OBJECT
  5
1A20F
102
{ACAD_REACTORS
330
1A20E
102
}
330
1A20E
100
AcDbZombieObject
 90
      499
 91
      517
 93
       34
310
40C8804040
  0
ACAD_PROXY_OBJECT
  5
1A219
102
{ACAD_REACTORS
330
1A218
102
}
330
1A218
100
AcDbZombieObject
 90
      499
 91
      517
 93
       34
310
40C8804040
  0
ACAD_PROXY_OBJECT
  5
1A21D
102
{ACAD_REACTORS
330
1A21C
102
}
330
1A21C
100
AcDbZombieObject
 90
      499
 91
      517
 93
       34
310
40C8804040
  0
ACAD_PROXY_OBJECT
  5
1A221
102
{ACAD_REACTORS
330
1A220
102
}
330
1A220
100
AcDbZombieObject
 90
      499
 91
      517
 93
       34
310
40C8804040
  0
SORTENTSTABLE
  5
6EA
102
{ACAD_REACTORS
330
6E9
102
}
330
6E9
100
AcDbSortentsTable
330
18
331
0
  5
99AB
331
0
  5
AB53
331
0
  5
AB54
331
0
  5
ECB5
331
208FE
  5
216BB
331
208FF
  5
216BC
331
20900
  5
216C0
331
20901
  5
216C1
331
20902
  5
216C2
331
20903
  5
216C3
331
20904
  5
216C4
331
20905
  5
216C5
331
20906
  5
216C6
331
20907
  5
216C7
331
20908
  5
216C8
331
20909
  5
216C9
331
2090A
  5
216CA
331
2090B
  5
216CB
331
21087
  5
216D6
331
21088
  5
216D7
331
21089
  5
216D8
331
2108A
  5
216D9
331
2108B
  5
216DA
331
2108C
  5
216DD
331
2108D
  5
216E0
331
2108E
  5
216E1
331
2108F
  5
216E2
331
21090
  5
216E3
331
21092
  5
216E4
331
21093
  5
216E7
331
21095
  5
21710
331
21098
  5
2171D
331
2109D
  5
2172A
331
2109E
  5
21737
331
2109F
  5
21B24
331
210F2
  5
21B2D
331
216BB
  5
21B2E
331
216BC
  5
21B2F
331
216BD
  5
21B30
331
216BE
  5
21B31
331
216BF
  5
21B32
331
216C0
  5
21B33
331
216C1
  5
21B34
331
216C2
  5
21B35
331
216C3
  5
21B36
331
216C4
  5
21B37
331
216C5
  5
21B38
331
216C6
  5
21B39
331
216C7
  5
21B3A
331
216C8
  5
21B3C
331
216C9
  5
21B3D
331
216CA
  5
21B3E
331
216CB
  5
21B3F
331
216CC
  5
21B40
331
216CD
  5
21B41
331
216CE
  5
21B42
331
216CF
  5
21B43
331
216D0
  5
21B44
331
216D1
  5
21B45
331
216D2
  5
21B46
331
216D3
  5
21B47
331
216D4
  5
21B48
331
216D5
  5
21B49
331
216D6
  5
21B4A
331
216D7
  5
21B4B
331
216D8
  5
21B4C
331
216D9
  5
21B4D
331
216DA
  5
21B4E
331
216DD
  5
21B4F
331
216E0
  5
21B50
331
216E1
  5
21B51
331
0
  5
21744
331
0
  5
21751
331
0
  5
2175E
331
0
  5
2176B
331
0
  5
21778
331
0
  5
21785
331
0
  5
21792
331
0
  5
2179F
331
0
  5
217AC
331
0
  5
21B18
331
0
  5
21B19
331
0
  5
21B1A
331
0
  5
21B1B
331
0
  5
21B20
331
0
  5
21B21
331
0
  5
21B22
331
0
  5
21B23
331
21B18
  5
21B25
331
21B19
  5
21B26
331
21B1A
  5
21B27
331
21B1B
  5
21B28
331
21B20
  5
21B29
331
21B21
  5
21B2A
331
21B22
  5
21B2B
331
21B23
  5
21B2C
331
21B24
  5
208FE
331
21B25
  5
208FF
331
21B26
  5
20900
331
21B27
  5
20901
331
21B28
  5
20902
331
21B29
  5
20903
331
21B2A
  5
20904
331
21B2B
  5
20905
331
0
  5
20906
331
0
  5
20907
331
0
  5
20908
331
21B2F
  5
2108F
331
21B30
  5
21090
331
21B31
  5
21092
331
0
  5
21087
331
0
  5
21088
331
0
  5
21089
331
21B35
  5
216CC
331
21B36
  5
216CD
331
21B37
  5
216CE
331
0
  5
216BD
331
0
  5
216BE
331
0
  5
216BF
331
21B3C
  5
21B5B
331
21B3D
  5
21B5C
331
21B3E
  5
21B5D
331
21B3F
  5
21B5E
331
21B40
  5
21B5F
331
21B41
  5
21B60
331
21B42
  5
21B61
331
21B43
  5
21B62
331
21B44
  5
21B63
331
21B45
  5
21B64
331
21B46
  5
21B65
331
21B47
  5
21B66
331
21B48
  5
21B67
331
21B49
  5
21B68
331
21B4A
  5
21B69
331
21B4B
  5
21B6A
331
21B4C
  5
21B6B
331
21B4D
  5
21B6C
331
21B4E
  5
21B6D
331
21B4F
  5
21B6E
331
21B50
  5
21B6F
331
21B51
  5
21B70
331
21B52
  5
21B71
331
21B53
  5
21B72
331
21B54
  5
21B73
331
21B55
  5
21B75
331
21B56
  5
21B76
331
21B57
  5
21B77
331
21B58
  5
21B78
331
21B59
  5
21B79
331
21B5A
  5
21B7A
331
21B5B
  5
21B7B
331
21B5C
  5
21B7C
331
21B5D
  5
21B7D
331
21B5E
  5
21B7E
331
21B5F
  5
21B7F
331
21B60
  5
21B80
331
21B61
  5
21B81
331
21B62
  5
21B82
331
21B63
  5
21B83
331
21B64
  5
21B84
331
21B65
  5
21B85
331
21B66
  5
21B86
331
21B67
  5
21B87
331
21B68
  5
21B88
331
21B69
  5
21B89
331
21B6A
  5
21B8A
331
21B6B
  5
21B8B
331
21B6C
  5
21B8C
331
21B6D
  5
21B8D
331
21B6E
  5
21B8E
331
21B6F
  5
21B8F
331
21B70
  5
21B90
331
21B71
  5
21B91
331
21B72
  5
21B92
331
21B73
  5
21B93
331
21B75
  5
21B9D
331
21B76
  5
21B9E
331
21B77
  5
21B9F
331
21B78
  5
21BA0
331
21B79
  5
21BA1
331
21B7A
  5
21BA2
331
21B7B
  5
21BA3
331
21B7C
  5
21BA4
331
21B7D
  5
21BA5
331
21B7E
  5
21BA6
331
21B7F
  5
21BA7
331
21B80
  5
21BA8
331
21B81
  5
21BA9
331
21B82
  5
21BAA
331
21B83
  5
21BAB
331
21B84
  5
21BAC
331
21B85
  5
21BAE
331
21B86
  5
21BAF
331
21B87
  5
21BB0
331
21B88
  5
21BB1
331
21B89
  5
21BB2
331
21B8A
  5
21BB3
331
21B8B
  5
21BB4
331
21B8C
  5
21BB5
331
21B8D
  5
21BB6
331
21B8E
  5
21BB7
331
21B8F
  5
21BB8
331
21B90
  5
21BB9
331
21B91
  5
21BBA
331
21B92
  5
21BBB
331
21B93
  5
21BBC
331
21B94
  5
21BBD
331
21B95
  5
21BBE
331
21B96
  5
21BBF
331
21B97
  5
21BC0
331
21B98
  5
21BC1
331
21B99
  5
21BC2
331
21B9A
  5
21BC3
331
21B9B
  5
21BC4
331
21B9C
  5
21BC5
331
21B9D
  5
21BC6
331
21B9E
  5
21BC7
331
21B9F
  5
21BC8
331
21BA0
  5
21BC9
331
21BA1
  5
21BCA
331
21BA2
  5
21BCB
331
21BA3
  5
21BCC
331
21BA4
  5
21BCD
331
21BA5
  5
21BCE
331
21BA6
  5
21BCF
331
21BA7
  5
21BD0
331
21BA8
  5
21BD1
331
21BA9
  5
21BD2
331
21BAA
  5
21BD3
331
21BAB
  5
21BD4
331
21BAC
  5
21BD5
331
21BAE
  5
21BDF
331
21BAF
  5
21BE0
331
21BB0
  5
21BE1
331
21BB1
  5
21BE2
331
21BB2
  5
21BE3
331
21BB3
  5
21BE4
331
21BB4
  5
21BE5
331
21BB5
  5
21BE6
331
21BB6
  5
21BE7
331
21BB7
  5
21BE8
331
21BB8
  5
21BE9
331
21BB9
  5
21BEA
331
21BBA
  5
21BEE
331
21BBB
  5
21BEF
331
21BBC
  5
21BF0
331
21BBD
  5
21BF4
331
21BBE
  5
21BF5
331
21BBF
  5
21BF6
331
21BC0
  5
21BFA
331
21BC1
  5
21BFB
331
21BC2
  5
21BFC
331
21BC3
  5
21C00
331
21BC4
  5
21C01
331
21BC5
  5
21C02
331
21BC6
  5
21C06
331
21BC7
  5
21C07
331
21BC8
  5
21C08
331
21BC9
  5
21C0C
331
21BCA
  5
21C0D
331
21BCB
  5
21C0E
331
21BCC
  5
21C12
331
21BCD
  5
21C13
331
21BCE
  5
21C14
331
21BCF
  5
21C18
331
21BD0
  5
21C19
331
21BD1
  5
21C1A
331
21BD2
  5
21C1E
331
21BD3
  5
21C1F
331
21BD4
  5
21C20
331
21BD5
  5
21C24
331
21BD6
  5
21C25
331
21BD7
  5
21C26
331
21BD8
  5
21C2A
331
21BD9
  5
21C2B
331
21BDA
  5
21C2C
331
21BDB
  5
21C30
331
21BDC
  5
21C31
331
21BDD
  5
21C32
331
21BDE
  5
21C36
331
21BDF
  5
21C37
331
21BE0
  5
21C38
331
21BE1
  5
21C3C
331
21BE2
  5
21C3D
331
21BE3
  5
21C3E
331
21BE4
  5
21C3F
331
21BE5
  5
21C40
331
21BE6
  5
21C41
331
21BE7
  5
21C42
331
21BE8
  5
21C43
331
21BE9
  5
21C44
331
21BEA
  5
21C45
331
21BEE
  5
21C4D
331
21BEF
  5
21C4E
331
21BF0
  5
21C4F
331
21BF4
  5
21C57
331
21BF5
  5
21C58
331
21BF6
  5
21C59
331
21BFA
  5
21C61
331
21BFB
  5
21C62
331
21BFC
  5
21C63
331
21C00
  5
21C6B
331
21C01
  5
21C6C
331
21C02
  5
21C6D
331
21C06
  5
21C75
331
21C07
  5
21C76
331
21C08
  5
21C77
331
21C0C
  5
21C7F
331
21C0D
  5
21C80
331
21C0E
  5
21C81
331
21C12
  5
21C89
331
21C13
  5
21C8A
331
21C14
  5
21C8B
331
21C18
  5
21C93
331
21C19
  5
21C94
331
21C1A
  5
21C95
331
21C1E
  5
21C9D
331
21C1F
  5
21C9E
331
21C20
  5
21C9F
331
21C24
  5
21CA7
331
21C25
  5
21CA8
331
21C26
  5
21CA9
331
21C2A
  5
21CB1
331
21C2B
  5
21CB2
331
21C2C
  5
21CB3
331
21C30
  5
21CBB
331
21C31
  5
21CBC
331
21C32
  5
21CBD
331
21C36
  5
21CC5
331
21C37
  5
21CC6
331
21C38
  5
21CC7
331
21C3C
  5
20909
331
21C3D
  5
2090A
331
21C3E
  5
2090B
331
21C3F
  5
2108A
331
21C40
  5
2108B
331
21C41
  5
2108C
331
21C42
  5
2108D
331
21C43
  5
2108E
331
21C44
  5
21093
331
21C45
  5
21095
331
21C46
  5
21098
331
21C47
  5
2109D
331
21C48
  5
2109E
331
21C49
  5
2109F
331
21C4A
  5
210F2
331
21C4B
  5
216CF
331
21C4C
  5
216D0
331
21C4D
  5
216D1
331
21C4E
  5
216D2
331
21C4F
  5
216D3
331
21C50
  5
216D4
331
21C51
  5
216D5
331
21C52
  5
21B52
331
21C53
  5
21B53
331
21C54
  5
21B54
331
21C55
  5
21B55
331
21C56
  5
21B56
331
21C57
  5
21B57
331
21C58
  5
21B58
331
21C59
  5
21B59
331
21C5A
  5
21B5A
331
21C5B
  5
21B94
331
21C5C
  5
21B95
331
21C5D
  5
21B96
331
21C5E
  5
21B97
331
21C5F
  5
21B98
331
21C60
  5
21B99
331
21C61
  5
21B9A
331
21C62
  5
21B9B
331
21C63
  5
21B9C
331
21C64
  5
21BD6
331
21C65
  5
21BD7
331
21C66
  5
21BD8
331
21C67
  5
21BD9
331
21C68
  5
21BDA
331
21C69
  5
21BDB
331
21C6A
  5
21BDC
331
21C6B
  5
21BDD
331
21C6C
  5
21BDE
331
21C6D
  5
21C46
331
21C6E
  5
21C47
331
21C6F
  5
21C48
331
21C70
  5
21C49
331
21C71
  5
21C4A
331
21C72
  5
21C4B
331
21C73
  5
21C4C
331
21C74
  5
21C50
331
21C75
  5
21C51
331
21C76
  5
21C52
331
21C77
  5
21C53
331
21C78
  5
21C54
331
21C79
  5
21C55
331
21C7A
  5
21C56
331
21C7B
  5
21C5A
331
21C7C
  5
21C5B
331
21C7D
  5
21C5C
331
21C7E
  5
21C5D
331
21C7F
  5
21C5E
331
21C80
  5
21C5F
331
21C81
  5
21C60
331
21C82
  5
21C64
331
21C83
  5
21C65
331
21C84
  5
21C66
331
21C85
  5
21C67
331
21C86
  5
21C68
331
21C87
  5
21C69
331
21C88
  5
21C6A
331
21C89
  5
21C6E
331
21C8A
  5
21C6F
331
21C8B
  5
21C70
331
21C8C
  5
21C71
331
21C8D
  5
21C72
331
21C8E
  5
21C73
331
21C8F
  5
21C74
331
21C90
  5
21C78
331
21C91
  5
21C79
331
21C92
  5
21C7A
331
21C93
  5
21C7B
331
21C94
  5
21C7C
331
21C95
  5
21C7D
331
21C96
  5
21C7E
331
21C97
  5
21C82
331
21C98
  5
21C83
331
21C99
  5
21C84
331
21C9A
  5
21C85
331
21C9B
  5
21C86
331
21C9C
  5
21C87
331
21C9D
  5
21C88
331
21C9E
  5
21C8C
331
21C9F
  5
21C8D
331
21CA0
  5
21C8E
331
21CA1
  5
21C8F
331
21CA2
  5
21C90
331
21CA3
  5
21C91
331
21CA4
  5
21C92
331
21CA5
  5
21C96
331
21CA6
  5
21C97
331
21CA7
  5
21C98
331
21CA8
  5
21C99
331
21CA9
  5
21C9A
331
21CAA
  5
21C9B
331
21CAB
  5
21C9C
331
21CAC
  5
21CA0
331
21CAD
  5
21CA1
331
21CAE
  5
21CA2
331
21CAF
  5
21CA3
331
21CB0
  5
21CA4
331
21CB1
  5
21CA5
331
21CB2
  5
21CA6
331
21CB3
  5
21CAA
331
21CB4
  5
21CAB
331
21CB5
  5
21CAC
331
21CB6
  5
21CAD
331
21CB7
  5
21CAE
331
21CB8
  5
21CAF
331
21CB9
  5
21CB0
331
21CBA
  5
21CB4
331
21CBB
  5
21CB5
331
21CBC
  5
21CB6
331
21CBD
  5
21CB7
331
21CBE
  5
21CB8
331
21CBF
  5
21CB9
331
21CC0
  5
21CBA
331
21CC1
  5
21CBE
331
21CC2
  5
21CBF
331
21CC3
  5
21CC0
331
21CC4
  5
21CC1
331
21CC5
  5
21CC2
331
21CC6
  5
21CC3
331
21CC7
  5
21CC4
  0
SORTENTSTABLE
  5
59C
102
{ACAD_REACTORS
330
59B
102
}
330
59B
100
AcDbSortentsTable
330
15
  0
MATERIAL
  5
19DD5
102
{ACAD_REACTORS
330
2CF
102
}
102
{ACAD_XDICTIONARY
360
21E6D
102
}
330
2CF
100
AcDbMaterial
  1
BYBLOCK
 72
     0
 73
     2
 43
0.0208333333333333
 43
0.0
 43
0.0
 43
0.0
 43
0.0
 43
0.0208333333333333
 43
0.0
 43
0.0
 43
0.0
 43
0.0
 43
1.0
 43
0.0
 43
0.0
 43
0.0
 43
0.0
 43
1.0
 77
     0
 78
     2
 47
0.0208333333333333
 47
0.0
 47
0.0
 47
0.0
 47
0.0
 47
0.0208333333333333
 47
0.0
 47
0.0
 47
0.0
 47
0.0
 47
1.0
 47
0.0
 47
0.0
 47
0.0
 47
0.0
 47
1.0
171
     0
172
     2
 49
0.0208333333333333
 49
0.0
 49
0.0
 49
0.0
 49
0.0
 49
0.0208333333333333
 49
0.0
 49
0.0
 49
0.0
 49
0.0
 49
1.0
 49
0.0
 49
0.0
 49
0.0
 49
0.0
 49
1.0
175
     0
176
     2
142
0.0208333333333333
142
0.0
142
0.0
142
0.0
142
0.0
142
0.0208333333333333
142
0.0
142
0.0
142
0.0
142
0.0
142
1.0
142
0.0
142
0.0
142
0.0
142
0.0
142
1.0
179
     0
270
     2
144
0.0208333333333333
144
0.0
144
0.0
144
0.0
144
0.0
144
0.0208333333333333
144
0.0
144
0.0
144
0.0
144
0.0
144
1.0
144
0.0
144
0.0
144
0.0
144
0.0
144
1.0
274
     2
147
0.0208333333333333
147
0.0
147
0.0
147
0.0
147
0.0
147
0.0208333333333333
147
0.0
147
0.0
147
0.0
147
0.0
147
1.0
147
0.0
147
0.0
147
0.0
147
0.0
147
1.0
  0
MATERIAL
  5
19DCD
102
{ACAD_REACTORS
330
2CF
102
}
102
{ACAD_XDICTIONARY
360
21E6F
102
}
330
2CF
100
AcDbMaterial
  1
BYLAYER
 72
     0
 73
     2
 43
0.0208333333333333
 43
0.0
 43
0.0
 43
0.0
 43
0.0
 43
0.0208333333333333
 43
0.0
 43
0.0
 43
0.0
 43
0.0
 43
1.0
 43
0.0
 43
0.0
 43
0.0
 43
0.0
 43
1.0
 77
     0
 78
     2
 47
0.0208333333333333
 47
0.0
 47
0.0
 47
0.0
 47
0.0
 47
0.0208333333333333
 47
0.0
 47
0.0
 47
0.0
 47
0.0
 47
1.0
 47
0.0
 47
0.0
 47
0.0
 47
0.0
 47
1.0
171
     0
172
     2
 49
0.0208333333333333
 49
0.0
 49
0.0
 49
0.0
 49
0.0
 49
0.0208333333333333
 49
0.0
 49
0.0
 49
0.0
 49
0.0
 49
1.0
 49
0.0
 49
0.0
 49
0.0
 49
0.0
 49
1.0
175
     0
176
     2
142
0.0208333333333333
142
0.0
142
0.0
142
0.0
142
0.0
142
0.0208333333333333
142
0.0
142
0.0
142
0.0
142
0.0
142
1.0
142
0.0
142
0.0
142
0.0
142
0.0
142
1.0
179
     0
270
     2
144
0.0208333333333333
144
0.0
144
0.0
144
0.0
144
0.0
144
0.0208333333333333
144
0.0
144
0.0
144
0.0
144
0.0
144
1.0
144
0.0
144
0.0
144
0.0
144
0.0
144
1.0
274
     2
147
0.0208333333333333
147
0.0
147
0.0
147
0.0
147
0.0
147
0.0208333333333333
147
0.0
147
0.0
147
0.0
147
0.0
147
1.0
147
0.0
147
0.0
147
0.0
147
0.0
147
1.0
  0
MATERIAL
  5
19DDD
102
{ACAD_REACTORS
330
2CF
102
}
102
{ACAD_XDICTIONARY
360
21E71
102
}
330
2CF
100
AcDbMaterial
  1
GLOBAL
 72
     0
 73
     2
 43
0.0208333333333333
 43
0.0
 43
0.0
 43
0.0
 43
0.0
 43
0.0208333333333333
 43
0.0
 43
0.0
 43
0.0
 43
0.0
 43
1.0
 43
0.0
 43
0.0
 43
0.0
 43
0.0
 43
1.0
 77
     0
 78
     2
 47
0.0208333333333333
 47
0.0
 47
0.0
 47
0.0
 47
0.0
 47
0.0208333333333333
 47
0.0
 47
0.0
 47
0.0
 47
0.0
 47
1.0
 47
0.0
 47
0.0
 47
0.0
 47
0.0
 47
1.0
171
     0
172
     2
 49
0.0208333333333333
 49
0.0
 49
0.0
 49
0.0
 49
0.0
 49
0.0208333333333333
 49
0.0
 49
0.0
 49
0.0
 49
0.0
 49
1.0
 49
0.0
 49
0.0
 49
0.0
 49
0.0
 49
1.0
175
     0
176
     2
142
0.0208333333333333
142
0.0
142
0.0
142
0.0
142
0.0
142
0.0208333333333333
142
0.0
142
0.0
142
0.0
142
0.0
142
1.0
142
0.0
142
0.0
142
0.0
142
0.0
142
1.0
179
     0
270
     2
144
0.0208333333333333
144
0.0
144
0.0
144
0.0
144
0.0
144
0.0208333333333333
144
0.0
144
0.0
144
0.0
144
0.0
144
1.0
144
0.0
144
0.0
144
0.0
144
0.0
144
1.0
274
     2
147
0.0208333333333333
147
0.0
147
0.0
147
0.0
147
0.0
147
0.0208333333333333
147
0.0
147
0.0
147
0.0
147
0.0
147
1.0
147
0.0
147
0.0
147
0.0
147
0.0
147
1.0
  0
ACAD_PROXY_OBJECT
  5
19E19
102
{ACAD_REACTORS
330
19E18
102
}
330
19E18
100
AcDbZombieObject
 90
      499
 91
      512
 93
      610
310
40901902A4063FBFFFFFE000000000000002040AD7A3703D0AD73F4214DD185B99185C990000000000000104090141901A00000000000004100000000000000041025764000000000000300FC0
340
12
340
0
340
F
340
0
 94
        0
1001
ACAD_MLEADERVER
1070
     2
  0
MLINESTYLE
  5
1C
102
{ACAD_REACTORS
330
1B
102
}
330
1B
100
AcDbMlineStyle
  2
STANDARD
 70
     0
  3

 62
   256
 51
90.0
 52
90.0
 71
     2
 49
0.5
 62
   256
  6
BYLAYER
 49
-0.5
 62
   256
  6
BYLAYER
  0
ACAD_PROXY_OBJECT
  5
19DF7
102
{ACAD_REACTORS
330
19DF6
102
}
330
19DF6
100
AcDbZombieObject
 90
      499
 91
      511
 93
       41
310
903313A31580
  0
ACAD_PROXY_OBJECT
  5
19DF8
102
{ACAD_REACTORS
330
19DF6
102
}
330
19DF6
100
AcDbZombieObject
 90
      499
 91
      511
 93
      105
310
903313A324000000000000004000
  0
ACAD_PROXY_OBJECT
  5
19DF9
102
{ACAD_REACTORS
330
19DF6
102
}
330
19DF6
100
AcDbZombieObject
 90
      499
 91
      511
 93
      105
310
903313A344000000000000104000
  0
ACAD_PROXY_OBJECT
  5
19DFA
102
{ACAD_REACTORS
330
19DF6
102
}
330
19DF6
100
AcDbZombieObject
 90
      499
 91
      511
 93
      105
310
903313A354000000000000144000
  0
ACAD_PROXY_OBJECT
  5
19DFB
102
{ACAD_REACTORS
330
19DF6
102
}
330
19DF6
100
AcDbZombieObject
 90
      499
 91
      511
 93
      105
310
903313A384000000000000204000
  0
ACAD_PROXY_OBJECT
  5
19DFC
102
{ACAD_REACTORS
330
19DF6
102
}
330
19DF6
100
AcDbZombieObject
 90
      499
 91
      511
 93
      113
310
904313A31304000000000000244000
  0
ACAD_PROXY_OBJECT
  5
19DFD
102
{ACAD_REACTORS
330
19DF6
102
}
330
19DF6
100
AcDbZombieObject
 90
      499
 91
      511
 93
      113
310
904313A31364000000000000304000
  0
ACAD_PROXY_OBJECT
  5
19DFE
102
{ACAD_REACTORS
330
19DF6
102
}
330
19DF6
100
AcDbZombieObject
 90
      499
 91
      511
 93
      113
310
904313A32304000000000000344000
  0
ACAD_PROXY_OBJECT
  5
19DFF
102
{ACAD_REACTORS
330
19DF6
102
}
330
19DF6
100
AcDbZombieObject
 90
      499
 91
      511
 93
      113
310
904313A333040000000000003E4000
  0
ACAD_PROXY_OBJECT
  5
19E00
102
{ACAD_REACTORS
330
19DF6
102
}
330
19DF6
100
AcDbZombieObject
 90
      499
 91
      511
 93
      113
310
904313A34304000000000000444000
  0
ACAD_PROXY_OBJECT
  5
19E01
102
{ACAD_REACTORS
330
19DF6
102
}
330
19DF6
100
AcDbZombieObject
 90
      499
 91
      511
 93
      113
310
904313A35304000000000000494000
  0
ACAD_PROXY_OBJECT
  5
19E02
102
{ACAD_REACTORS
330
19DF6
102
}
330
19DF6
100
AcDbZombieObject
 90
      499
 91
      511
 93
      121
310
905313A3130304000000000000594000
  0
ACAD_PROXY_OBJECT
  5
19E03
102
{ACAD_REACTORS
330
19DF6
102
}
330
19DF6
100
AcDbZombieObject
 90
      499
 91
      511
 93
      105
310
903323A310000000000000010100
  0
ACAD_PROXY_OBJECT
  5
19E04
102
{ACAD_REACTORS
330
19DF6
102
}
330
19DF6
100
AcDbZombieObject
 90
      499
 91
      511
 93
      105
310
903343A310000000000000410100
  0
ACAD_PROXY_OBJECT
  5
19E05
102
{ACAD_REACTORS
330
19DF6
102
}
330
19DF6
100
AcDbZombieObject
 90
      499
 91
      511
 93
      105
310
903383A310000000000000810100
  0
ACAD_PROXY_OBJECT
  5
19E06
102
{ACAD_REACTORS
330
19DF6
102
}
330
19DF6
100
AcDbZombieObject
 90
      499
 91
      511
 93
      113
310
90431303A310000000000000910100
  0
ACAD_PROXY_OBJECT
  5
19E07
102
{ACAD_REACTORS
330
19DF6
102
}
330
19DF6
100
AcDbZombieObject
 90
      499
 91
      511
 93
      121
310
9053130303A310000000000001650100
  0
ACAD_PROXY_OBJECT
  5
19E08
102
{ACAD_REACTORS
330
19DF6
102
}
330
19DF6
100
AcDbZombieObject
 90
      499
 91
      511
 93
      257
310
90E312F31323822203D2031272D3022000000000000200FC000000000000284000
  0
ACAD_PROXY_OBJECT
  5
19E09
102
{ACAD_REACTORS
330
19DF6
102
}
330
19DF6
100
AcDbZombieObject
 90
      499
 91
      511
 93
      249
310
90D312F363422203D2031272D3022000000000000240FC000000000000284000
  0
ACAD_PROXY_OBJECT
  5
19E0A
102
{ACAD_REACTORS
330
19DF6
102
}
330
19DF6
100
AcDbZombieObject
 90
      499
 91
      511
 93
      249
310
90D312F333222203D2031272D3022000000000000280FC000000000000284000
  0
ACAD_PROXY_OBJECT
  5
19E0B
102
{ACAD_REACTORS
330
19DF6
102
}
330
19DF6
100
AcDbZombieObject
 90
      499
 91
      511
 93
      249
310
90D312F313622203D2031272D30220000000000002C0FC000000000000284000
  0
ACAD_PROXY_OBJECT
  5
19E0C
102
{ACAD_REACTORS
330
19DF6
102
}
330
19DF6
100
AcDbZombieObject
 90
      499
 91
      511
 93
      249
310
90D332F333222203D2031272D30220000000000002E0FC000000000000284000
  0
ACAD_PROXY_OBJECT
  5
19E0D
102
{ACAD_REACTORS
330
19DF6
102
}
330
19DF6
100
AcDbZombieObject
 90
      499
 91
      511
 93
      241
310
90C312F3822203D2031272D3022000000000000300FC000000000000284000
  0
ACAD_PROXY_OBJECT
  5
19E0E
102
{ACAD_REACTORS
330
19DF6
102
}
330
19DF6
100
AcDbZombieObject
 90
      499
 91
      511
 93
      249
310
90D332F313622203D2031272D3022000000000000320FC000000000000284000
  0
ACAD_PROXY_OBJECT
  5
19E0F
102
{ACAD_REACTORS
330
19DF6
102
}
330
19DF6
100
AcDbZombieObject
 90
      499
 91
      511
 93
      241
310
90C312F3422203D2031272D3022000000000000340FC000000000000284000
  0
ACAD_PROXY_OBJECT
  5
19E10
102
{ACAD_REACTORS
330
19DF6
102
}
330
19DF6
100
AcDbZombieObject
 90
      499
 91
      511
 93
      241
310
90C332F3822203D2031272D3022000000000000360FC000000000000284000
  0
ACAD_PROXY_OBJECT
  5
19E11
102
{ACAD_REACTORS
330
19DF6
102
}
330
19DF6
100
AcDbZombieObject
 90
      499
 91
      511
 93
      241
310
90C312F3222203D2031272D3022000000000000380FC000000000000284000
  0
ACAD_PROXY_OBJECT
  5
19E12
102
{ACAD_REACTORS
330
19DF6
102
}
330
19DF6
100
AcDbZombieObject
 90
      499
 91
      511
 93
      241
310
90C332F3422203D2031272D30220000000000003A0FC000000000000284000
  0
ACAD_PROXY_OBJECT
  5
19E13
102
{ACAD_REACTORS
330
19DF6
102
}
330
19DF6
100
AcDbZombieObject
 90
      499
 91
      511
 93
      161
310
90A3122203D2031272D30224000000000000284000
  0
ACAD_PROXY_OBJECT
  5
19E14
102
{ACAD_REACTORS
330
19DF6
102
}
330
19DF6
100
AcDbZombieObject
 90
      499
 91
      511
 93
      257
310
90E312D312F3222203D2031272D30220000000000003E0FC000000000000284000
  0
ACAD_PROXY_OBJECT
  5
19E15
102
{ACAD_REACTORS
330
19DF6
102
}
330
19DF6
100
AcDbZombieObject
 90
      499
 91
      511
 93
      225
310
90A3322203D2031272D302200000000000002100000000000000284000
  0
ACAD_PROXY_OBJECT
  5
19E16
102
{ACAD_REACTORS
330
19DF6
102
}
330
19DF6
100
AcDbZombieObject
 90
      499
 91
      511
 93
      225
310
90A3622203D2031272D302200000000000006100000000000000284000
  0
ACAD_PROXY_OBJECT
  5
19E17
102
{ACAD_REACTORS
330
19DF6
102
}
330
19DF6
100
AcDbZombieObject
 90
      499
 91
      511
 93
      249
310
90D31272D3022203D2031272D30220000000000000A100000000000000284000
  0
ACAD_PROXY_OBJECT
  5
19DEB
102
{ACAD_REACTORS
330
19DE5
102
}
330
19DE5
100
AcDbZombieObject
 90
      499
 91
      510
 93
      436
310
42CC9915DA5C99599C985B595049028333333333333E3BF0000000000000FB0107901411070040501600405405064090741402480A0340
1001
ACAD
1000
AcDbSavedByObjectVersion
1070
     0
  0
ACAD_PROXY_OBJECT
  5
19DED
102
{ACAD_REACTORS
330
19DE5
102
}
330
19DE5
100
AcDbZombieObject
 90
      499
 91
      510
 93
      500
310
424CD108121A5919195B90640502408333333333333E3BF0000000000000FB01079024090700405020000000000001110200405405064090740C02480A0340
1001
ACAD
1000
AcDbSavedByObjectVersion
1070
     0
  0
ACAD_PROXY_OBJECT
  5
19DEC
102
{ACAD_REACTORS
330
19DE5
102
}
330
19DE5
100
AcDbZombieObject
 90
      499
 91
      510
 93
      436
310
42CCD915DA5C99599C985B595059028333333333333E3BF0000000000000FB0107901411070040501600405405064090741402480A0340
1001
ACAD
1000
AcDbSavedByObjectVersion
1070
     0
  0
ACAD_PROXY_OBJECT
  5
19DEA
102
{ACAD_REACTORS
330
19DE5
102
}
330
19DE5
100
AcDbZombieObject
 90
      499
 91
      510
 93
      388
310
4150985CDA58D07406404333333333333E3BF0000000000000FB0107A41107004050150841D405064090741402480A0350
1001
ACAD
1000
AcDbSavedByObjectVersion
1070
     0
  0
ACAD_PROXY_OBJECT
  5
19DF1
102
{ACAD_REACTORS
330
19DE5
102
}
330
19DE5
100
AcDbZombieObject
 90
      499
 91
      510
 93
      428
310
42109C9A59DA1D195B90C409028333333333333E3BF0000000000000FB010790141107004050150841D405064090741402480A029950
1001
ACAD
1000
AcDbSavedByObjectVersion
1070
     0
  0
ACAD_PROXY_OBJECT
  5
19DF5
102
{ACAD_REACTORS
330
19DE5
102
}
330
19DE5
100
AcDbZombieObject
 90
      499
 91
      510
 93
      452
310
42D0DBDB1BDC90DA185B99D95104090240C333333333333E3BF0000000000000FB0108901411070040501508421405064090741402480A0350
1001
ACAD
1000
AcDbSavedByObjectVersion
1070
     0
  0
ACAD_PROXY_OBJECT
  5
19DEE
102
{ACAD_REACTORS
330
19DE5
102
}
330
19DE5
100
AcDbZombieObject
 90
      499
 91
      510
 93
      500
310
4290DBDB98D95C1D1D585B10940D028333333333333E3BF0000000000000FB0107902409070040501000000000000111010841D405064090740C02480A0340
1001
ACAD
1000
AcDbSavedByObjectVersion
1070
     0
  0
ACAD_PROXY_OBJECT
  5
19DF0
102
{ACAD_REACTORS
330
19DE5
102
}
330
19DE5
100
AcDbZombieObject
 90
      499
 91
      510
 93
      412
310
40D11A5B50B409028333333333333E3BF0000000000000FB010790141107004050150841D405064090741402480A02677FFFFFD0
1001
ACAD
1000
AcDbSavedByObjectVersion
1070
     0
  0
ACAD_PROXY_OBJECT
  5
1E02A
102
{ACAD_REACTORS
330
19DE5
102
}
330
19DE5
100
AcDbZombieObject
 90
      499
 91
      510
 93
      452
310
43115919D950DBDB1BDC93D999916409028333333333333E3BF0000000000000FB010790141107004050150841D405064090741402480A0350
1001
ACAD
1000
AcDbSavedByObjectVersion
1070
     0
  0
ACAD_PROXY_OBJECT
  5
19DF4
102
{ACAD_REACTORS
330
19DE5
102
}
330
19DE5
100
AcDbZombieObject
 90
      499
 91
      510
 93
      444
310
42D19858D95C185D1D195C9B90F409028333333333333E3BF0000000000000FB010790141107004050150841D405064090741402480A0350
1001
ACAD
1000
AcDbSavedByObjectVersion
1070
     0
  0
ACAD_PROXY_OBJECT
  5
19DE6
102
{ACAD_REACTORS
330
19DE5
102
}
330
19DE5
100
AcDbZombieObject
 90
      499
 91
      510
 93
      388
310
41119B185D240901404333333333333E3BF0000000000000F9010740A41107004050150841D405064090741402480A1B50
1001
ACAD
1000
AcDbSavedByObjectVersion
1070
     0
  0
ACAD_PROXY_OBJECT
  5
19DE7
102
{ACAD_REACTORS
330
19DE5
102
}
330
19DE5
100
AcDbZombieObject
 90
      499
 91
      510
 93
      476
310
43519B185D15DA5D1A115919D95CD0140901404333333333333E3BF0000000000000F9010740901411070040501600405405064090741402480A1B50
1001
ACAD
1000
AcDbSavedByObjectVersion
1070
     0
  0
ACAD_PROXY_OBJECT
  5
19DE8
102
{ACAD_REACTORS
330
19DE5
102
}
330
19DE5
100
AcDbZombieObject
 90
      499
 91
      510
 93
      412
310
41D1DBDD5C985D5910240902404333333333333E3BF0000000000000F9010740A411070040501641D405064090741402480A1B50
1001
ACAD
1000
AcDbSavedByObjectVersion
1070
     0
  0
ACAD_PROXY_OBJECT
  5
19DE9
102
{ACAD_REACTORS
330
19DE5
102
}
330
19DE5
100
AcDbZombieObject
 90
      499
 91
      510
 93
      500
310
4411DBDD5C985D5915DA5D1A115919D95CD0340902404333333333333E3BF0000000000000F9010740901411070040501600405405064090741402480A1B50
1001
ACAD
1000
AcDbSavedByObjectVersion
1070
     0
  0
ACAD_PROXY_OBJECT
  5
1FE4A
102
{ACAD_REACTORS
330
19DE5
102
}
330
19DE5
100
AcDbZombieObject
 90
      499
 91
      510
 93
      476
310
41921A5919195B90640502408333333333333E33F0000000000000F901079024090700405020000000000001110200405405064090740C02480A0340
1001
ACAD
1000
AcDbSavedByObjectVersion
1070
     0
  0
ACAD_PROXY_OBJECT
  5
1E028
102
{ACAD_REACTORS
330
19DE5
102
}
330
19DE5
100
AcDbZombieObject
 90
      499
 91
      510
 93
      428
310
42529A5D1D195C93D999914409028333333333333E3BF0000000000000FB010790141107004050150A41D405064090741402480A0350
1001
ACAD
1000
AcDbSavedByObjectVersion
1070
     0
  0
ACAD_PROXY_OBJECT
  5
19DF3
102
{ACAD_REACTORS
330
19DE5
102
}
330
19DE5
100
AcDbZombieObject
 90
      499
 91
      510
 93
      444
310
42D31A5B995C185D1D195C9B90E409028333333333333E3BF0000000000000FB010790141107004050750841D405064090741402483A0350
1001
ACAD
1000
AcDbSavedByObjectVersion
1070
     0
  0
ACAD_PROXY_OBJECT
  5
1FE50
102
{ACAD_REACTORS
330
19DE5
102
}
330
19DE5
100
AcDbZombieObject
 90
      499
 91
      510
 93
      484
310
42135BD9195B1A5B99D0A409038333333333333E33F0000000000000F901074090290700405010000000000201990108421405064090741402480A1B40
1001
ACAD
1000
AcDbSavedByObjectVersion
1070
     0
  0
ACAD_PROXY_OBJECT
  5
1E029
102
{ACAD_REACTORS
330
19DE5
102
}
330
19DE5
100
AcDbZombieObject
 90
      499
 91
      510
 93
      444
310
42D3DD995C9A185B99D3D999915409028333333333333E3BF0000000000000FB010790141107004050150941D405064090741402480A0350
1001
ACAD
1000
AcDbSavedByObjectVersion
1070
     0
  0
ACAD_PROXY_OBJECT
  5
19DEF
102
{ACAD_REACTORS
330
19DE5
102
}
330
19DE5
100
AcDbZombieObject
 90
      499
 91
      510
 93
      420
310
425499585B1A5CDD1A58D08409028333333333333E3BF0000000000000FB01079019070040501508421405064090741402480A1B40
1001
ACAD
1000
AcDbSavedByObjectVersion
1070
     0
  0
ACAD_PROXY_OBJECT
  5
1FE4F
102
{ACAD_REACTORS
330
19DE5
102
}
330
19DE5
100
AcDbZombieObject
 90
      499
 91
      510
 93
      420
310
4194DA1859195911B40902404333333333333E33F0000000000000F9010740A41107004050150800405405064090840C02480A0B40
1001
ACAD
1000
AcDbSavedByObjectVersion
1070
     0
  0
ACAD_PROXY_OBJECT
  5
1FE4E
102
{ACAD_REACTORS
330
19DE5
102
}
330
19DE5
100
AcDbZombieObject
 90
      499
 91
      510
 93
      516
310
4454DA18591959081DDA5D1A08195919D95CD1A40902404333333333333E33F0000000000000F901074090142907004050250800405405064090740C02480A0B40
1001
ACAD
1000
AcDbSavedByObjectVersion
1070
     0
  0
ACAD_PROXY_OBJECT
  5
1FE4B
102
{ACAD_REACTORS
330
19DE5
102
}
330
19DE5
100
AcDbZombieObject
 90
      499
 91
      510
 93
      532
310
4394DA1859195CC81BD98811DC985E5174090240C333333333333E33F0000000000000F901079024090741D01000000000000111010841D405064090740C02480A0340
1001
ACAD
1000
AcDbSavedByObjectVersion
1070
     0
  0
ACAD_PROXY_OBJECT
  5
1FE4C
102
{ACAD_REACTORS
330
19DE5
102
}
330
19DE5
100
AcDbZombieObject
 90
      499
 91
      510
 93
      476
310
41D4DAD95D18DA1E51840502408333333333333E33F0000000000000F901079024090741D01000000000000111010B41D405064090741802480A0340
1001
ACAD
1000
AcDbSavedByObjectVersion
1070
     0
  0
ACAD_PROXY_OBJECT
  5
19DF2
102
{ACAD_REACTORS
330
19DE5
102
}
330
19DE5
100
AcDbZombieObject
 90
      499
 91
      510
 93
      412
310
41D51A1A58DAD95B90D409028333333333333E3BF0000000000000FB010790141107004050150C41D405064090741402480A0350
1001
ACAD
1000
AcDbSavedByObjectVersion
1070
     0
  0
ACAD_PROXY_OBJECT
  5
1FE49
102
{ACAD_REACTORS
330
19DE5
102
}
330
19DE5
100
AcDbZombieObject
 90
      499
 91
      510
 93
      420
310
4255DA5C99599C985B595059028333333333333E33F0000000000000F90107901411070040501600405405064090740C02480A0340
1001
ACAD
1000
AcDbSavedByObjectVersion
1070
     0
  0
ACAD_PROXY_OBJECT
  5
1FE4D
102
{ACAD_REACTORS
330
19DE5
102
}
330
19DE5
100
AcDbZombieObject
 90
      499
 91
      510
 93
      404
310
41560B54985E51940902404000000000000E03F0000000000000F9010740501907004050150841D405064090740C02480A1B40
1001
ACAD
1000
AcDbSavedByObjectVersion
1070
     0
  0
XRECORD
  5
21CD0
102
{ACAD_REACTORS
330
21CCF
102
}
330
21CCF
100
AcDbXrecord
340
2D0
  0
XRECORD
  5
21CD1
102
{ACAD_REACTORS
330
21CCF
102
}
330
21CCF
100
AcDbXrecord
340
2CF
  0
DICTIONARYVAR
  5
20611
102
{ACAD_REACTORS
330
37
102
}
330
37
100
DictionaryVariables
280
     0
  1
1:1
  0
DICTIONARYVAR
  5
1AC19
102
{ACAD_REACTORS
330
37
102
}
330
37
100
DictionaryVariables
280
     0
  1
Standard
  0
DICTIONARYVAR
  5
4F1
102
{ACAD_REACTORS
330
37
102
}
330
37
100
DictionaryVariables
280
     0
  1
Standard
  0
DICTIONARYVAR
  5
38
102
{ACAD_REACTORS
330
37
102
}
330
37
100
DictionaryVariables
280
     0
  1
-1
  0
DICTIONARYVAR
  5
408
102
{ACAD_REACTORS
330
37
102
}
330
37
100
DictionaryVariables
280
     0
  1
2
  0
DICTIONARYVAR
  5
1891
102
{ACAD_REACTORS
330
37
102
}
330
37
100
DictionaryVariables
280
     0
  1
1
  0
DICTIONARYVAR
  5
1AC1C
102
{ACAD_REACTORS
330
37
102
}
330
37
100
DictionaryVariables
280
     0
  1
0
  0
DICTIONARYVAR
  5
1895
102
{ACAD_REACTORS
330
37
102
}
330
37
100
DictionaryVariables
280
     0
  1
8
  0
DICTIONARYVAR
  5
1894
102
{ACAD_REACTORS
330
37
102
}
330
37
100
DictionaryVariables
280
     0
  1
1
  0
DICTIONARYVAR
  5
20667
102
{ACAD_REACTORS
330
37
102
}
330
37
100
DictionaryVariables
280
     0
  1
0
  0
DICTIONARYVAR
  5
1892
102
{ACAD_REACTORS
330
37
102
}
330
37
100
DictionaryVariables
280
     0
  1
8
  0
DICTIONARYVAR
  5
1893
102
{ACAD_REACTORS
330
37
102
}
330
37
100
DictionaryVariables
280
     0
  1
2
  0
DICTIONARYVAR
  5
409
102
{ACAD_REACTORS
330
37
102
}
330
37
100
DictionaryVariables
280
     0
  1

  0
DICTIONARYVAR
  5
1AC1B
102
{ACAD_REACTORS
330
37
102
}
330
37
100
DictionaryVariables
280
     0
  1
127
  0
DICTIONARYVAR
  5
1FE48
102
{ACAD_REACTORS
330
37
102
}
330
37
100
DictionaryVariables
280
     0
  1
2
  0
DICTIONARY
  5
21E6D
330
19DD5
100
AcDbDictionary
  3
ACAD_XREC_ROUNDTRIP
360
21E6E
1001
ACAD
1000
TREAT_AS_HARD
1070
     1
  0
DICTIONARY
  5
21E6F
330
19DCD
100
AcDbDictionary
  3
ACAD_XREC_ROUNDTRIP
360
21E70
1001
ACAD
1000
TREAT_AS_HARD
1070
     1
  0
DICTIONARY
  5
21E71
330
19DDD
100
AcDbDictionary
  3
ACAD_XREC_ROUNDTRIP
360
21E72
1001
ACAD
1000
TREAT_AS_HARD
1070
     1
  0
XRECORD
  5
21E6E
102
{ACAD_REACTORS
330
21E6D
102
}
330
21E6D
100
AcDbXrecord
102
MATERIAL
148
0.0
149
0.0
149
0.0
 93
        0
 94
      127
282
     0
 72
     0
 77
     0
171
     0
175
     0
179
     0
273
     0
  0
XRECORD
  5
21E70
102
{ACAD_REACTORS
330
21E6F
102
}
330
21E6F
100
AcDbXrecord
102
MATERIAL
148
0.0
149
0.0
149
0.0
 93
        0
 94
      127
282
     0
 72
     0
 77
     0
171
     0
175
     0
179
     0
273
     0
  0
XRECORD
  5
21E72
102
{ACAD_REACTORS
330
21E71
102
}
330
21E71
100
AcDbXrecord
102
MATERIAL
148
0.0
149
0.0
149
0.0
 93
        0
 94
      127
282
     0
 72
     0
 77
     0
171
     0
175
     0
179
     0
273
     0
  0
ENDSEC
  0
EOF
