  0
SECTION
  2
HEADER
  9
$ACADVER
  1
AC1009
  9
$INSBASE
 10
0.0
 20
0.0
 30
0.0
  9
$EXTMIN
 10
1006.8565321938499
 20
-581.71345115860674
 30
0.0
  9
$EXTMAX
 10
1298.283903640749
 20
-393.07381585768542
 30
0.0
  9
$LIMMIN
 10
0.0
 20
0.0
  9
$LIMMAX
 10
420.0
 20
297.0
  9
$ORTHOMODE
 70
     0
  9
$REGENMODE
 70
     1
  9
$FILLMODE
 70
     1
  9
$QTEXTMODE
 70
     0
  9
$MIRRTEXT
 70
     0
  9
$DRAGMODE
 70
     2
  9
$LTSCALE
 40
0.5
  9
$OSMODE
 70
  2175
  9
$ATTMODE
 70
     1
  9
$TEXTSIZE
 40
4.0
  9
$TRACEWID
 40
1.0
  9
$TEXTSTYLE
  7
STANDARD
  9
$CLAYER
  8
1TEXT
  9
$CELTYPE
  6
BYLAYER
  9
$CECOLOR
 62
   256
  9
$DIMSCALE
 40
1.0
  9
$DIMASZ
 40
2.0
  9
$DIMEXO
 40
0.0
  9
$DIMDLI
 40
7.0
  9
$DIMRND
 40
0.0
  9
$DIMDLE
 40
0.0
  9
$DIMEXE
 40
1.0
  9
$DIMTP
 40
0.0
  9
$DIMTM
 40
0.0
  9
$DIMTXT
 40
3.5
  9
$DIMCEN
 40
0.0
  9
$DIMTSZ
 40
0.0
  9
$DIMTOL
 70
     0
  9
$DIMLIM
 70
     0
  9
$DIMTIH
 70
     0
  9
$DIMTOH
 70
     0
  9
$DIMSE1
 70
     0
  9
$DIMSE2
 70
     0
  9
$DIMTAD
 70
     1
  9
$DIMZIN
 70
     8
  9
$DIMBLK
  1

  9
$DIMASO
 70
     1
  9
$DIMSHO
 70
     1
  9
$DIMPOST
  1
 
  9
$DIMAPOST
  1

  9
$DIMALT
 70
     0
  9
$DIMALTD
 70
     2
  9
$DIMALTF
 40
25.399999999999999
  9
$DIMLFAC
 40
1.0
  9
$DIMTOFL
 70
     1
  9
$DIMTVP
 40
0.0
  9
$DIMTIX
 70
     0
  9
$DIMSOXD
 70
     0
  9
$DIMSAH
 70
     1
  9
$DIMBLK1
  1
OPEN30
  9
$DIMBLK2
  1
OPEN30
  9
$DIMSTYLE
  2
NEWX10
  9
$DIMCLRD
 70
   256
  9
$DIMCLRE
 70
   256
  9
$DIMCLRT
 70
   201
  9
$DIMTFAC
 40
0.7
  9
$DIMGAP
 40
0.7
  9
$LUNITS
 70
     2
  9
$LUPREC
 70
     4
  9
$SKETCHINC
 40
1.0
  9
$FILLETRAD
 40
0.5
  9
$AUNITS
 70
     0
  9
$AUPREC
 70
     2
  9
$MENU
  1
acad
  9
$ELEVATION
 40
0.0
  9
$PELEVATION
 40
0.0
  9
$THICKNESS
 40
0.0
  9
$LIMCHECK
 70
     0
  9
$BLIPMODE
 70
     0
  9
$CHAMFERA
 40
1.0
  9
$CHAMFERB
 40
1.0
  9
$SKPOLY
 70
     0
  9
$TDCREATE
 40
2453033.7326634838
  9
$TDUPDATE
 40
2456415.7887040628
  9
$TDINDWG
 40
2.5928573147999998
  9
$TDUSRTIMER
 40
2.5928573147999998
  9
$USRTIMER
 70
     1
  9
$ANGBASE
 50
0.0
  9
$ANGDIR
 70
     0
  9
$PDMODE
 70
     0
  9
$PDSIZE
 40
0.0
  9
$PLINEWID
 40
0.0
  9
$COORDS
 70
     0
  9
$SPLFRAME
 70
     0
  9
$SPLINETYPE
 70
     6
  9
$SPLINESEGS
 70
     8
  9
$ATTDIA
 70
     0
  9
$ATTREQ
 70
     1
  9
$HANDLING
 70
     1
  9
$HANDSEED
  5
205A8
  9
$SURFTAB1
 70
     6
  9
$SURFTAB2
 70
     6
  9
$SURFTYPE
 70
     6
  9
$SURFU
 70
     6
  9
$SURFV
 70
     6
  9
$UCSNAME
  2

  9
$UCSORG
 10
0.0
 20
0.0
 30
0.0
  9
$UCSXDIR
 10
1.0
 20
0.0
 30
0.0
  9
$UCSYDIR
 10
0.0
 20
1.0
 30
0.0
  9
$PUCSNAME
  2

  9
$PUCSORG
 10
0.0
 20
0.0
 30
0.0
  9
$PUCSXDIR
 10
1.0
 20
0.0
 30
0.0
  9
$PUCSYDIR
 10
0.0
 20
1.0
 30
0.0
  9
$USERI1
 70
     0
  9
$USERI2
 70
     0
  9
$USERI3
 70
     0
  9
$USERI4
 70
     0
  9
$USERI5
 70
     0
  9
$USERR1
 40
0.0
  9
$USERR2
 40
0.0
  9
$USERR3
 40
0.0
  9
$USERR4
 40
0.0
  9
$USERR5
 40
0.0
  9
$WORLDVIEW
 70
     1
  9
$SHADEDGE
 70
     3
  9
$SHADEDIF
 70
    70
  9
$TILEMODE
 70
     1
  9
$MAXACTVP
 70
    48
  9
$PLIMCHECK
 70
     0
  9
$PEXTMIN
 10
1.0000000000000000E+020
 20
1.0000000000000000E+020
 30
1.0000000000000000E+020
  9
$PEXTMAX
 10
-1.0000000000000000E+020
 20
-1.0000000000000000E+020
 30
-1.0000000000000000E+020
  9
$PLIMMIN
 10
0.0
 20
0.0
  9
$PLIMMAX
 10
420.0
 20
297.0
  9
$UNITMODE
 70
     0
  9
$VISRETAIN
 70
     1
  9
$PLINEGEN
 70
     0
  9
$PSLTSCALE
 70
     1
  0
ENDSEC
  0
SECTION
  2
TABLES
  0
TABLE
  2
VPORT
 70
     1
  0
VPORT
  2
*ACTIVE
 70
     0
 10
0.0
 20
0.0
 11
1.0
 21
1.0
 12
1152.5696852459939
 22
-487.3807394675639
 13
0.0
 23
0.0
 14
10.0
 24
10.0
 15
10.0
 25
10.0
 16
0.0
 26
0.0
 36
1.0
 17
0.0
 27
0.0
 37
0.0
 40
206.65251695693061
 41
1.492734478203434
 42
50.0
 43
0.0
 44
0.0
 50
0.0
 51
0.0
 71
     0
 72
   100
 73
     1
 74
     1
 75
     0
 76
     0
 77
     0
 78
     0
  0
ENDTAB
  0
TABLE
  2
LTYPE
 70
    19
  0
LTYPE
  2
CONTINUOUS
 70
     0
  3
Solid line
 72
    65
 73
     0
 40
0.0
  0
LTYPE
  2
CENTER2
 70
     0
  3
Center (.5x) ___ _ ___ _ ___ _ ___ _ ___ _ ___
 72
    65
 73
     4
 40
28.574999999999999
 49
19.050000000000001
 49
-3.1749999999999989
 49
3.1749999999999989
 49
-3.1749999999999989
  0
LTYPE
  2
PHANTOM2
 70
     0
  3
Phantom (.5x) ___ _ _ ___ _ _ ___ _ _ ___ _ _
 72
    65
 73
     6
 40
31.75
 49
15.875
 49
-3.1749999999999989
 49
3.1749999999999989
 49
-3.1749999999999989
 49
3.1749999999999989
 49
-3.1749999999999989
  0
ENDTAB
  0
TABLE
  2
LAYER
 70
    44
  0
LAYER
  2
0
 70
     0
 62
     7
  6
CONTINUOUS
  0
LAYER
  2
1CENTER
 70
     0
 62
     7
  6
CENTER2
  0
LAYER
  2
1TEXT
 70
     0
 62
     7
  6
CONTINUOUS
  0
LAYER
  2
1DIM
 70
     0
 62
     7
  6
CONTINUOUS
  0
LAYER
  2
1PHANTOM
 70
     0
 62
     7
  6
PHANTOM2
  0
LAYER
  2
01
 70
     0
 62
     1
  6
CONTINUOUS
  0
ENDTAB
  0
TABLE
  2
STYLE
 70
    24
  0
STYLE
  2
STANDARD
 70
     0
 40
0.0
 41
1.0
 50
0.0
 71
     0
 42
4.0
  3
txt.shx
  4
extfont.shx
  0
ENDTAB
  0
TABLE
  2
VIEW
 70
     5
  0
ENDTAB
  0
TABLE
  2
UCS
 70
     0
  0
ENDTAB
  0
TABLE
  2
APPID
 70
    14
  0
APPID
  2
ACAD
 70
     0
  0
APPID
  2
DRAWINGVARIABLESXDATA
 70
     0
  0
APPID
  2
CONTENTTABDATA
 70
     0
  0
APPID
  2
CONTENTCURRENTTAB
 70
     0
  0
APPID
  2
CONTENTBLOCKDESCRIPTION
 70
     0
  0
APPID
  2
CONTENTBLOCKICON
 70
     0
  0
APPID
  2
CONTENTLONGBLOCKNAME
 70
     0
  0
APPID
  2
ACAD_PSEXT
 70
     0
  0
APPID
  2
ACAD_DSTYLE_DIMTEXT_FILL
 70
     0
  0
APPID
  2
ACAD_MLEADERVER
 70
     0
  0
APPID
  2
ACAD_DSTYLE_DIMRADIAL_EXTENSION
 70
     0
  0
APPID
  2
ACADANNOTATIVE
 70
     0
  0
APPID
  2
ACAD_EXEMPT_FROM_CAD_STANDARDS
 70
     0
  0
APPID
  2
ACLAYERTOOLS
 70
     0
  0
ENDTAB
  0
TABLE
  2
DIMSTYLE
 70
    10
  0
DIMSTYLE
  2
NEWX10
 70
     0
  3
 
  4

  5

  6
OPEN30
  7
OPEN30
 40
1.0
 41
2.0
 42
0.0
 43
7.0
 44
1.0
 45
0.0
 46
0.0
 47
0.0
 48
0.0
140
3.5
141
0.0
142
0.0
143
25.399999999999999
144
1.0
145
0.0
146
0.7
147
0.7
 71
     0
 72
     0
 73
     0
 74
     0
 75
     0
 76
     0
 77
     1
 78
     8
170
     0
171
     2
172
     1
173
     1
174
     0
175
     0
176
   256
177
   256
178
   201
  0
ENDTAB
  0
ENDSEC
  0
SECTION
  2
BLOCKS
  0
BLOCK
  8
0
  2
$MODEL_SPACE
 70
     0
 10
0.0
 20
0.0
 30
0.0
  3
$MODEL_SPACE
  1

  0
ENDBLK
  5
1A
  8
0
  0
BLOCK
 67
     1
  8
0
  2
$PAPER_SPACE
 70
     0
 10
0.0
 20
0.0
 30
0.0
  3
$PAPER_SPACE
  1

  0
ENDBLK
  5
17
 67
     1
  8
0
  0
BLOCK
  8
0
  2
_OPEN30
 70
     0
 10
0.0
 20
0.0
 30
0.0
  3
_OPEN30
  1

  0
LINE
  5
44
  8
0
  6
BYBLOCK
 62
     0
 10
-1.0
 20
0.26794919
 30
0.0
 11
0.0
 21
0.0
 31
0.0
  0
LINE
  5
45
  8
0
  6
BYBLOCK
 62
     0
 10
0.0
 20
0.0
 30
0.0
 11
-1.0
 21
-0.26794919
 31
0.0
  0
LINE
  5
46
  8
0
  6
BYBLOCK
 62
     0
 10
0.0
 20
0.0
 30
0.0
 11
-1.0
 21
0.0
 31
0.0
  0
ENDBLK
  5
47
  8
0
  0
BLOCK
  8
0
  2
*U36
 70
     1
 10
0.0
 20
0.0
 30
0.0
  3
*U36
  1

  0
TEXT
  5
20599
  8
1DIM
 62
   201
 10
4664.1510673956973
 20
1136.231828311609
 30
0.0
 40
3.5
  1
R19
 50
24.386896377475491
  0
ENDBLK
  5
2059B
  8
0
  0
BLOCK
  8
0
  2
*U37
 70
     1
 10
0.0
 20
0.0
 30
0.0
  3
*U37
  1

  0
TEXT
  5
2059D
  8
1DIM
 62
   201
 10
4678.433816651419
 20
1172.365970939821
 30
0.0
 40
3.5
  1
12
  0
ENDBLK
  5
2059F
  8
0
  0
BLOCK
  8
0
  2
*U38
 70
     1
 10
0.0
 20
0.0
 30
0.0
  3
*U38
  1

  0
TEXT
  5
205A1
  8
1DIM
 62
   201
 10
1216.847229655604
 20
-619.46296098831431
 30
0.0
 40
3.5
  1
R19
 50
24.386896377475971
  0
ENDBLK
  5
205A3
  8
0
  0
BLOCK
  8
0
  2
*U39
 70
     1
 10
0.0
 20
0.0
 30
0.0
  3
*U39
  1

  0
TEXT
  5
205A5
  8
1DIM
 62
   201
 10
1213.2635482312451
 20
-591.42846439341156
 30
0.0
 40
3.5
  1
12
  0
ENDBLK
  5
205A7
  8
0
  0
ENDSEC
  0
SECTION
  2
ENTITIES
  0
LINE
  5
1FF99
  8
01
 10
1032.7822286407491
 20
-560.12903340238063
 30
0.0
 11
1201.78222864075
 21
-560.12903340238063
 31
0.0
  0
LINE
  5
1FF9A
  8
01
 10
1032.7822286407491
 20
-520.1290334023804
 30
0.0
 11
1201.78222864075
 21
-520.1290334023804
 31
0.0
  0
LINE
  5
1FF9C
  8
01
 10
1201.7822286407491
 20
-560.12903340238063
 30
0.0
 11
1201.7822286407491
 21
-557.79255513503665
 31
0.0
  0
LINE
  5
1FF9D
  8
01
 10
1201.78222864075
 20
-470.12903340238051
 30
0.0
 11
1032.7822286407491
 21
-470.12903340238017
 31
0.0
  0
LINE
  5
1FF9E
  8
01
 10
1201.78222864075
 20
-464.62903340238012
 30
0.0
 11
1032.78222864075
 21
-464.62903340238012
 31
0.0
  0
LINE
  5
1FF9F
  8
01
 10
1032.78222864075
 20
-464.62903340238012
 30
0.0
 11
1032.78222864075
 21
-470.12903340238051
 31
0.0
  0
LINE
  5
1FFA0
  8
01
 10
1201.78222864075
 20
-464.62903340238012
 30
0.0
 11
1201.78222864075
 21
-470.12903340238051
 31
0.0
  0
LINE
  5
1FFA1
  8
01
 10
1032.5322286407461
 20
-558.87903340238063
 30
0.0
 11
1032.532228640747
 21
-521.37903340238063
 31
0.0
  0
ARC
  5
1FFA2
  8
01
 10
1033.032228640747
 20
-521.37903340238063
 30
0.0
 40
0.5
 50
119.9999999997614
 51
180.0
  0
ARC
  5
1FFA3
  8
01
 10
1033.0322286407461
 20
-558.87903340238063
 30
0.0
 40
0.5
 50
180.0
 51
240.00000000048101
  0
LINE
  5
1FFA4
  8
01
 10
1202.0322286407479
 20
-558.87903340238063
 30
0.0
 11
1202.032228640747
 21
-521.37903340238063
 31
0.0
  0
ARC
  5
1FFA5
  8
01
 10
1201.5322286407479
 20
-558.87903340238063
 30
0.0
 40
0.5
 50
300.00000000012011
 51
0.0
  0
ARC
  5
1FFA6
  8
01
 10
1201.532228640747
 20
-521.37903340238063
 30
0.0
 40
0.5
 50
0.0
 51
59.999999999879883
  0
LINE
  5
1FFA7
  8
01
 10
1253.1822286407471
 20
-520.87903340238063
 30
0.0
 11
1257.032228640747
 21
-520.87903340238154
 31
0.0
  0
ARC
  5
1FFA8
  8
01
 10
1256.032228640747
 20
-521.37903340238097
 30
0.0
 40
0.5
 50
0.0
 51
90.0
  0
LINE
  5
1FFA9
  8
01
 10
1256.532228640747
 20
-521.37903340238097
 30
0.0
 11
1256.532228640747
 21
-523.87903340238063
 31
0.0
  0
LINE
  5
1FFAA
  8
01
 10
1256.532228640747
 20
-556.37903340238051
 30
0.0
 11
1256.532228640747
 21
-558.87903340238063
 31
0.0
  0
ARC
  5
1FFAB
  8
01
 10
1256.032228640747
 20
-558.87903340238063
 30
0.0
 40
0.5
 50
270.0
 51
0.0
  0
LINE
  5
1FFAC
  8
01
 10
1252.6822286407471
 20
-521.37903340238063
 30
0.0
 11
1252.6822286407489
 21
-558.87903340238063
 31
0.0
  0
ARC
  5
1FFAD
  8
01
 10
1253.1822286407489
 20
-558.87903340238063
 30
0.0
 40
0.5
 50
180.0
 51
270.0
  0
ARC
  5
1FFAE
  8
01
 10
1253.1822286407471
 20
-521.37903340238063
 30
0.0
 40
0.5
 50
90.0
 51
180.0
  0
LINE
  5
1FFB0
  8
01
 10
1257.732228640748
 20
-521.37903340238131
 30
0.0
 11
1257.732228640748
 21
-523.47903340238054
 31
0.0
  0
ARC
  5
1FFB1
  8
01
 10
1257.232228640748
 20
-521.37903340238131
 30
0.0
 40
0.5
 50
0.0
 51
53.130102354260202
  0
LINE
  5
1FFB2
  8
01
 10
1257.732228640748
 20
-556.77903340238095
 30
0.0
 11
1257.732228640748
 21
-558.87903340238063
 31
0.0
  0
LINE
  5
1FFB3
  8
01
 10
1253.1822286407489
 20
-559.37903340238063
 30
0.0
 11
1257.032228640747
 21
-559.3790334023804
 31
0.0
  0
ARC
  5
1FFB4
  8
01
 10
1257.232228640748
 20
-558.87903340238063
 30
0.0
 40
0.5
 50
306.8698976457398
 51
0.0
  0
LINE
  5
1FFB5
  8
01
 10
1256.532228640747
 20
-556.3790334023804
 30
0.0
 11
1260.6822286407489
 21
-556.37903340238051
 31
0.0
  0
LINE
  5
1FFB6
  8
01
 10
1256.532228640747
 20
-523.8790334023804
 30
0.0
 11
1260.6822286407471
 21
-523.87903340238063
 31
0.0
  0
LINE
  5
1FFB7
  8
01
 10
1252.532228640747
 20
-554.37903340238063
 30
0.0
 11
1252.6822286407471
 21
-554.37903340238063
 31
0.0
  0
LINE
  5
1FFB8
  8
01
 10
1252.532228640747
 20
-556.37903340238051
 30
0.0
 11
1252.6822286407471
 21
-556.37903340238051
 31
0.0
  0
LINE
  5
1FFB9
  8
01
 10
1252.532228640747
 20
-556.37903340238051
 30
0.0
 11
1252.532228640747
 21
-554.37903340238063
 31
0.0
  0
LINE
  5
1FFBA
  8
01
 10
1260.6822286407471
 20
-523.47903340238031
 30
0.0
 11
1257.532228640747
 21
-523.47903340238054
 31
0.0
  0
LINE
  5
1FFBB
  8
01
 10
1257.032228640747
 20
-523.47903340238054
 30
0.0
 11
1256.532228640747
 21
-523.47903340238054
 31
0.0
  0
LINE
  5
1FFBC
  8
01
 10
1260.6822286407489
 20
-556.77903340238095
 30
0.0
 11
1257.532228640747
 21
-556.77903340238095
 31
0.0
  0
LINE
  5
1FFBD
  8
01
 10
1257.032228640747
 20
-556.77903340238095
 30
0.0
 11
1256.532228640747
 21
-556.77903340238095
 31
0.0
  0
LINE
  5
1FFBE
  8
01
 10
1252.532228640747
 20
-525.87903340238063
 30
0.0
 11
1252.6822286407471
 21
-525.87903340238063
 31
0.0
  0
LINE
  5
1FFBF
  8
01
 10
1252.532228640747
 20
-523.87903340238063
 30
0.0
 11
1252.6822286407471
 21
-523.87903340238063
 31
0.0
  0
LINE
  5
1FFC0
  8
01
 10
1252.532228640747
 20
-523.87903340238063
 30
0.0
 11
1252.532228640747
 21
-525.87903340238063
 31
0.0
  0
LINE
  5
1FFC2
  8
01
 10
1257.532228640747
 20
-556.62903340238063
 30
0.0
 11
1257.532228640747
 21
-559.62903340238063
 31
0.0
  0
ARC
  5
1FFC3
  8
01
 10
1257.032228640747
 20
-559.62903340238063
 30
0.0
 40
0.5
 50
270.0
 51
359.99999999998698
  0
LINE
  5
1FFC4
  8
01
 10
1257.032228640747
 20
-556.62903340238063
 30
0.0
 11
1257.032228640747
 21
-559.62903340238063
 31
0.0
  0
LINE
  5
1FFC5
  8
01
 10
1252.532228640747
 20
-560.12903340238086
 30
0.0
 11
1257.032228640747
 21
-560.12903340238063
 31
0.0
  0
ARC
  5
1FFC6
  8
01
 10
1252.532228640747
 20
-559.62903340238086
 30
0.0
 40
0.5
 50
180.0
 51
270.0
  0
LINE
  5
1FFC7
  8
01
 10
1252.532228640747
 20
-559.62903340238086
 30
0.0
 11
1257.032228640747
 21
-559.62903340238029
 31
0.0
  0
LINE
  5
1FFC8
  8
01
 10
1257.032228640747
 20
-556.62903340238063
 30
0.0
 11
1257.532228640747
 21
-556.62903340238063
 31
0.0
  0
LINE
  5
1FFC9
  8
01
 10
1252.532228640747
 20
-520.1290334023804
 30
0.0
 11
1257.032228640747
 21
-520.1290334023804
 31
0.0
  0
LINE
  5
1FFCA
  8
01
 10
1252.532228640747
 20
-520.6290334023804
 30
0.0
 11
1257.032228640747
 21
-520.6290334023804
 31
0.0
  0
LINE
  5
1FFCB
  8
01
 10
1257.032228640747
 20
-523.6290334023804
 30
0.0
 11
1257.532228640747
 21
-523.6290334023804
 31
0.0
  0
LINE
  5
1FFCC
  8
01
 10
1257.532228640747
 20
-520.6290334023804
 30
0.0
 11
1257.532228640747
 21
-523.6290334023804
 31
0.0
  0
ARC
  5
1FFCD
  8
01
 10
1257.032228640747
 20
-520.6290334023804
 30
0.0
 40
0.5
 50
0.0000000000130276
 51
90.0
  0
LINE
  5
1FFCE
  8
01
 10
1257.032228640747
 20
-520.6290334023804
 30
0.0
 11
1257.032228640747
 21
-523.6290334023804
 31
0.0
  0
LINE
  5
1FFCF
  8
01
 10
1252.032228640747
 20
-520.6290334023804
 30
0.0
 11
1252.032228640747
 21
-559.62903340238086
 31
0.0
  0
ARC
  5
1FFD0
  8
01
 10
1252.532228640747
 20
-520.6290334023804
 30
0.0
 40
0.5
 50
90.0
 51
180.0
  0
LINE
  5
1FFD1
  8
01
 10
1252.532228640747
 20
-520.6290334023804
 30
0.0
 11
1252.532228640747
 21
-559.62903340238086
 31
0.0
  0
LINE
  5
1FFD2
  8
01
 10
1202.0322286407511
 20
-461.47903340237878
 30
0.0
 11
1194.532228640755
 21
-461.47903340237878
 31
0.0
  0
LINE
  5
1FFD3
  8
01
 10
1193.5322286407529
 20
-461.97903340237878
 30
0.0
 11
1188.0322286407511
 21
-461.979033402379
 31
0.0
  0
LINE
  5
1FFD4
  8
01
 10
1187.0322286407479
 20
-461.47903340237912
 30
0.0
 11
1047.532228640752
 21
-461.47903340237912
 31
0.0
  0
LINE
  5
1FFD5
  8
01
 10
1046.5322286407479
 20
-461.979033402379
 30
0.0
 11
1041.032228640747
 21
-461.979033402379
 31
0.0
  0
LINE
  5
1FFD6
  8
01
 10
1040.032228640745
 20
-461.47903340237912
 30
0.0
 11
1032.5322286407529
 21
-461.47903340237912
 31
0.0
  0
LINE
  5
1FFD7
  8
01
 10
1041.128928808467
 20
-464.62903340238012
 30
0.0
 11
1041.1289288084679
 21
-461.979033402379
 31
0.0
  0
LINE
  5
1FFD8
  8
01
 10
1046.4355284730379
 20
-464.62903340238012
 30
0.0
 11
1046.4355284730379
 21
-461.979033402379
 31
0.0
  0
LINE
  5
1FFD9
  8
01
 10
1193.4355284730359
 20
-464.62903340238012
 30
0.0
 11
1193.4355284730359
 21
-461.979033402379
 31
0.0
  0
LINE
  5
1FFDA
  8
01
 10
1188.1289288084649
 20
-464.62903340238012
 30
0.0
 11
1188.1289288084649
 21
-461.97903340237917
 31
0.0
  0
LINE
  5
1FFDB
  8
01
 10
1188.032228640752
 20
-464.62903340238017
 30
0.0
 11
1188.0322286407511
 21
-461.97903340237917
 31
0.0
  0
LINE
  5
1FFDC
  8
01
 10
1193.532228640752
 20
-464.62903340238012
 30
0.0
 11
1193.5322286407529
 21
-461.97903340237878
 31
0.0
  0
LINE
  5
1FFDD
  8
01
 10
1046.5322286407479
 20
-464.62903340238012
 30
0.0
 11
1046.5322286407491
 21
-461.979033402379
 31
0.0
  0
LINE
  5
1FFDE
  8
01
 10
1041.0322286407479
 20
-464.62903340238012
 30
0.0
 11
1041.032228640747
 21
-461.979033402379
 31
0.0
  0
ARC
  5
1FFDF
  8
01
 10
1033.0322286407529
 20
-468.97903340238059
 30
0.0
 40
0.5
 50
180.0
 51
239.99999999964069
  0
LINE
  5
1FFE0
  8
01
 10
1032.5322286407529
 20
-468.97903340238059
 30
0.0
 11
1032.5322286407529
 21
-461.47903340237878
 31
0.0
  0
ARC
  5
1FFE1
  8
01
 10
1033.0322286407529
 20
-466.12903340238017
 30
0.0
 40
0.5
 50
120.00000000035929
 51
180.0
  0
LINE
  5
1FFE2
  8
01
 10
1040.032228640745
 20
-461.47903340237912
 30
0.0
 11
1040.032228640745
 21
-464.62903340238012
 31
0.0
  0
LINE
  5
1FFE3
  8
01
 10
1047.532228640752
 20
-461.47903340237912
 30
0.0
 11
1047.532228640752
 21
-464.62903340238012
 31
0.0
  0
ARC
  5
1FFE4
  8
01
 10
1201.532228640747
 20
-468.97903340238059
 30
0.0
 40
0.5
 50
300.00000000035942
 51
0.0
  0
LINE
  5
1FFE5
  8
01
 10
1202.032228640747
 20
-468.97903340238059
 30
0.0
 11
1202.032228640747
 21
-461.47903340237878
 31
0.0
  0
ARC
  5
1FFE6
  8
01
 10
1201.532228640747
 20
-466.12903340238017
 30
0.0
 40
0.5
 50
0.0
 51
59.999999999640657
  0
LINE
  5
1FFE7
  8
01
 10
1194.532228640755
 20
-461.47903340237912
 30
0.0
 11
1194.532228640755
 21
-464.62903340238012
 31
0.0
  0
LINE
  5
1FFE8
  8
01
 10
1187.0322286407479
 20
-461.47903340237912
 30
0.0
 11
1187.0322286407479
 21
-464.62903340238012
 31
0.0
  0
LINE
  5
2003D
  8
1PHANTOM
 10
1162.03222864075
 20
-465.47903340237912
 30
0.0
 11
1162.03222864075
 21
-466.479033402379
 31
0.0
  0
ARC
  5
2003E
  8
1PHANTOM
 10
1157.28222864075
 20
-459.70820006904557
 30
0.0
 40
8.2708333333334387
 50
234.94886325253771
 51
305.05113674746229
  0
LINE
  5
2003F
  8
1PHANTOM
 10
1152.53222864075
 20
-465.47903340237912
 30
0.0
 11
1152.53222864075
 21
-466.479033402379
 31
0.0
  0
LINE
  5
20040
  8
1CENTER
 10
1157.28222864075
 20
-423.87735840237917
 30
0.0
 11
1157.28222864075
 21
-469.32146397634767
 31
0.0
  0
LINE
  5
20041
  8
1PHANTOM
 10
1161.815291820416
 20
-466.479033402379
 30
0.0
 11
1152.7768608559441
 21
-466.479033402379
 31
0.0
  0
LINE
  5
20042
  8
1PHANTOM
 10
1154.78222864075
 20
-449.36116781633319
 30
0.0
 11
1159.78222864075
 21
-448.36116781633319
 31
0.0
  0
LINE
  5
20043
  8
1PHANTOM
 10
1155.53222864075
 20
-432.01012231562419
 30
0.0
 11
1155.53222864075
 21
-465.47903340237912
 31
0.0
  0
LINE
  5
20044
  8
1PHANTOM
 10
1157.28222864075
 20
-425.479033402379
 30
0.0
 11
1155.53222864075
 21
-432.01012231562419
 31
0.0
  0
LINE
  5
20045
  8
1PHANTOM
 10
1157.28222864075
 20
-425.479033402379
 30
0.0
 11
1159.03222864075
 21
-432.0101223156247
 31
0.0
  0
LINE
  5
20046
  8
1PHANTOM
 10
1159.03222864075
 20
-432.0101223156247
 30
0.0
 11
1159.03222864075
 21
-465.47903340237912
 31
0.0
  0
LINE
  5
20047
  8
1PHANTOM
 10
1154.9659616997151
 20
-431.3244212045405
 30
0.0
 11
1155.7159616997151
 21
-431.47442120454059
 31
0.0
  0
LINE
  5
20048
  8
1PHANTOM
 10
1154.9659616997151
 20
-431.3244212045405
 30
0.0
 11
1159.3628661808059
 21
-430.44504030832218
 31
0.0
  0
LINE
  5
20049
  8
1PHANTOM
 10
1157.5955853276939
 20
-426.49849647894439
 30
0.0
 11
1158.3455853276939
 21
-426.64849647894448
 31
0.0
  0
LINE
  5
2004A
  8
1PHANTOM
 10
1156.098448240233
 20
-427.09792389643673
 30
0.0
 11
1156.848448240233
 21
-427.24792389643642
 31
0.0
  0
LINE
  5
2004B
  8
1PHANTOM
 10
1156.098448240233
 20
-427.09792389643673
 30
0.0
 11
1158.3455853276939
 21
-426.64849647894448
 31
0.0
  0
LINE
  5
2004C
  8
1PHANTOM
 10
1158.6128661808059
 20
-430.29504030832209
 30
0.0
 11
1159.3628661808059
 21
-430.44504030832218
 31
0.0
  0
LINE
  5
2004D
  8
1PHANTOM
 10
1158.1042257542499
 20
-428.39676839363329
 30
0.0
 11
1158.8542257542499
 21
-428.54676839363339
 31
0.0
  0
LINE
  5
2004E
  8
1PHANTOM
 10
1155.5322049699739
 20
-429.21117255048858
 30
0.0
 11
1156.2822049699739
 21
-429.36117255048828
 31
0.0
  0
LINE
  5
2004F
  8
1PHANTOM
 10
1155.5322049699739
 20
-429.21117255048858
 30
0.0
 11
1158.8542257542499
 21
-428.54676839363339
 31
0.0
  0
LINE
  5
20050
  8
1PHANTOM
 10
1159.03222864075
 20
-440.2111678163331
 30
0.0
 11
1159.78222864075
 21
-440.36116781633319
 31
0.0
  0
LINE
  5
20051
  8
1PHANTOM
 10
1154.78222864075
 20
-437.36116781633319
 30
0.0
 11
1155.53222864075
 21
-437.51116781633328
 31
0.0
  0
LINE
  5
20052
  8
1PHANTOM
 10
1154.78222864075
 20
-439.36116781633319
 30
0.0
 11
1155.53222864075
 21
-439.51116781633328
 31
0.0
  0
LINE
  5
20053
  8
1PHANTOM
 10
1154.78222864075
 20
-439.36116781633319
 30
0.0
 11
1159.78222864075
 21
-438.36116781633319
 31
0.0
  0
LINE
  5
20054
  8
1PHANTOM
 10
1154.78222864075
 20
-435.36116781633319
 30
0.0
 11
1155.53222864075
 21
-435.51116781633328
 31
0.0
  0
LINE
  5
20055
  8
1PHANTOM
 10
1154.78222864075
 20
-433.36116781633319
 30
0.0
 11
1155.53222864075
 21
-433.51116781633328
 31
0.0
  0
LINE
  5
20056
  8
1PHANTOM
 10
1154.78222864075
 20
-433.36116781633319
 30
0.0
 11
1159.78222864075
 21
-432.36116781633319
 31
0.0
  0
LINE
  5
20057
  8
1PHANTOM
 10
1154.78222864075
 20
-435.36116781633319
 30
0.0
 11
1159.78222864075
 21
-434.36116781633319
 31
0.0
  0
LINE
  5
20058
  8
1PHANTOM
 10
1154.78222864075
 20
-437.36116781633319
 30
0.0
 11
1159.78222864075
 21
-436.36116781633319
 31
0.0
  0
LINE
  5
20059
  8
1PHANTOM
 10
1159.03222864075
 20
-432.2111678163331
 30
0.0
 11
1159.78222864075
 21
-432.36116781633319
 31
0.0
  0
LINE
  5
2005A
  8
1PHANTOM
 10
1159.03222864075
 20
-434.2111678163331
 30
0.0
 11
1159.78222864075
 21
-434.36116781633319
 31
0.0
  0
LINE
  5
2005B
  8
1PHANTOM
 10
1159.03222864075
 20
-438.2111678163331
 30
0.0
 11
1159.78222864075
 21
-438.36116781633319
 31
0.0
  0
LINE
  5
2005C
  8
1PHANTOM
 10
1159.03222864075
 20
-436.2111678163331
 30
0.0
 11
1159.78222864075
 21
-436.36116781633319
 31
0.0
  0
LINE
  5
2005D
  8
1PHANTOM
 10
1154.78222864075
 20
-443.36116781633319
 30
0.0
 11
1155.53222864075
 21
-443.51116781633328
 31
0.0
  0
LINE
  5
2005E
  8
1PHANTOM
 10
1154.78222864075
 20
-441.36116781633319
 30
0.0
 11
1155.53222864075
 21
-441.51116781633328
 31
0.0
  0
LINE
  5
2005F
  8
1PHANTOM
 10
1154.78222864075
 20
-447.36116781633319
 30
0.0
 11
1155.53222864075
 21
-447.51116781633328
 31
0.0
  0
LINE
  5
20060
  8
1PHANTOM
 10
1154.78222864075
 20
-445.36116781633331
 30
0.0
 11
1155.53222864075
 21
-445.51116781633328
 31
0.0
  0
LINE
  5
20061
  8
1PHANTOM
 10
1154.78222864075
 20
-441.36116781633319
 30
0.0
 11
1159.78222864075
 21
-440.36116781633319
 31
0.0
  0
LINE
  5
20062
  8
1PHANTOM
 10
1154.78222864075
 20
-443.36116781633319
 30
0.0
 11
1159.78222864075
 21
-442.36116781633319
 31
0.0
  0
LINE
  5
20063
  8
1PHANTOM
 10
1154.78222864075
 20
-445.36116781633331
 30
0.0
 11
1159.78222864075
 21
-444.36116781633319
 31
0.0
  0
LINE
  5
20064
  8
1PHANTOM
 10
1154.78222864075
 20
-447.36116781633319
 30
0.0
 11
1159.78222864075
 21
-446.36116781633319
 31
0.0
  0
LINE
  5
20065
  8
1PHANTOM
 10
1159.03222864075
 20
-444.2111678163331
 30
0.0
 11
1159.78222864075
 21
-444.36116781633319
 31
0.0
  0
LINE
  5
20066
  8
1PHANTOM
 10
1159.03222864075
 20
-442.2111678163331
 30
0.0
 11
1159.78222864075
 21
-442.36116781633319
 31
0.0
  0
LINE
  5
20067
  8
1PHANTOM
 10
1159.03222864075
 20
-448.2111678163331
 30
0.0
 11
1159.78222864075
 21
-448.36116781633319
 31
0.0
  0
LINE
  5
20068
  8
1PHANTOM
 10
1159.03222864075
 20
-446.2111678163331
 30
0.0
 11
1159.78222864075
 21
-446.36116781633319
 31
0.0
  0
LINE
  5
20069
  8
1PHANTOM
 10
1154.78222864075
 20
-465.36116781633319
 30
0.0
 11
1159.78222864075
 21
-464.36116781633319
 31
0.0
  0
LINE
  5
2006A
  8
1PHANTOM
 10
1154.78222864075
 20
-457.36116781633319
 30
0.0
 11
1159.78222864075
 21
-456.36116781633319
 31
0.0
  0
LINE
  5
2006B
  8
1PHANTOM
 10
1154.78222864075
 20
-449.36116781633319
 30
0.0
 11
1155.53222864075
 21
-449.51116781633328
 31
0.0
  0
LINE
  5
2006C
  8
1PHANTOM
 10
1154.78222864075
 20
-451.36116781633319
 30
0.0
 11
1155.53222864075
 21
-451.51116781633328
 31
0.0
  0
LINE
  5
2006D
  8
1PHANTOM
 10
1154.78222864075
 20
-453.36116781633319
 30
0.0
 11
1155.53222864075
 21
-453.51116781633328
 31
0.0
  0
LINE
  5
2006E
  8
1PHANTOM
 10
1154.78222864075
 20
-455.36116781633319
 30
0.0
 11
1155.53222864075
 21
-455.51116781633328
 31
0.0
  0
LINE
  5
2006F
  8
1PHANTOM
 10
1154.78222864075
 20
-451.36116781633319
 30
0.0
 11
1159.78222864075
 21
-450.36116781633319
 31
0.0
  0
LINE
  5
20070
  8
1PHANTOM
 10
1154.78222864075
 20
-453.36116781633319
 30
0.0
 11
1159.78222864075
 21
-452.36116781633319
 31
0.0
  0
LINE
  5
20071
  8
1PHANTOM
 10
1154.78222864075
 20
-455.36116781633319
 30
0.0
 11
1159.78222864075
 21
-454.36116781633319
 31
0.0
  0
LINE
  5
20072
  8
1PHANTOM
 10
1159.03222864075
 20
-450.2111678163331
 30
0.0
 11
1159.78222864075
 21
-450.36116781633319
 31
0.0
  0
LINE
  5
20073
  8
1PHANTOM
 10
1159.03222864075
 20
-452.2111678163331
 30
0.0
 11
1159.78222864075
 21
-452.36116781633319
 31
0.0
  0
LINE
  5
20074
  8
1PHANTOM
 10
1159.03222864075
 20
-454.2111678163331
 30
0.0
 11
1159.78222864075
 21
-454.36116781633319
 31
0.0
  0
LINE
  5
20075
  8
1PHANTOM
 10
1159.03222864075
 20
-456.2111678163331
 30
0.0
 11
1159.78222864075
 21
-456.36116781633319
 31
0.0
  0
LINE
  5
20076
  8
1PHANTOM
 10
1154.78222864075
 20
-461.36116781633319
 30
0.0
 11
1155.53222864075
 21
-461.51116781633328
 31
0.0
  0
LINE
  5
20077
  8
1PHANTOM
 10
1154.78222864075
 20
-459.36116781633319
 30
0.0
 11
1155.53222864075
 21
-459.51116781633328
 31
0.0
  0
LINE
  5
20078
  8
1PHANTOM
 10
1154.78222864075
 20
-457.36116781633319
 30
0.0
 11
1155.53222864075
 21
-457.51116781633328
 31
0.0
  0
LINE
  5
20079
  8
1PHANTOM
 10
1154.78222864075
 20
-463.36116781633319
 30
0.0
 11
1155.53222864075
 21
-463.51116781633328
 31
0.0
  0
LINE
  5
2007A
  8
1PHANTOM
 10
1154.78222864075
 20
-459.36116781633319
 30
0.0
 11
1159.78222864075
 21
-458.36116781633319
 31
0.0
  0
LINE
  5
2007B
  8
1PHANTOM
 10
1154.78222864075
 20
-461.36116781633319
 30
0.0
 11
1159.78222864075
 21
-460.36116781633319
 31
0.0
  0
LINE
  5
2007C
  8
1PHANTOM
 10
1154.78222864075
 20
-463.36116781633319
 30
0.0
 11
1159.78222864075
 21
-462.36116781633319
 31
0.0
  0
LINE
  5
2007D
  8
1PHANTOM
 10
1159.03222864075
 20
-460.2111678163331
 30
0.0
 11
1159.78222864075
 21
-460.36116781633319
 31
0.0
  0
LINE
  5
2007E
  8
1PHANTOM
 10
1159.03222864075
 20
-458.2111678163331
 30
0.0
 11
1159.78222864075
 21
-458.36116781633319
 31
0.0
  0
LINE
  5
2007F
  8
1PHANTOM
 10
1159.03222864075
 20
-462.21116781633322
 30
0.0
 11
1159.78222864075
 21
-462.36116781633319
 31
0.0
  0
LINE
  5
20080
  8
1PHANTOM
 10
1159.03222864075
 20
-464.2111678163331
 30
0.0
 11
1159.78222864075
 21
-464.36116781633319
 31
0.0
  0
LINE
  5
20081
  8
1PHANTOM
 10
1154.78222864075
 20
-465.36116781633319
 30
0.0
 11
1155.53222864075
 21
-465.51116781633328
 31
0.0
  0
LINE
  5
20082
  8
1PHANTOM
 10
1162.2822286407511
 20
-465.47903340237912
 30
0.0
 11
1152.2822286407511
 21
-465.47903340237912
 31
0.0
  0
LINE
  5
201B8
  8
1CENTER
 10
1152.0822286407499
 20
-540.12903340238086
 30
0.0
 11
1162.48222864075
 21
-540.12903340238086
 31
0.0
  0
LINE
  5
201B9
  8
1CENTER
 10
1157.28222864075
 20
-545.32903340238101
 30
0.0
 11
1157.28222864075
 21
-534.92903340238001
 31
0.0
  0
LINE
  5
201BD
  8
1CENTER
 10
1082.4822286407491
 20
-540.12903340238086
 30
0.0
 11
1072.082228640749
 21
-540.12903340238086
 31
0.0
  0
LINE
  5
201BE
  8
1CENTER
 10
1077.2822286407491
 20
-545.32903340238101
 30
0.0
 11
1077.2822286407491
 21
-534.92903340238001
 31
0.0
  0
LINE
  5
201C0
  8
1PHANTOM
 10
1162.2822286407511
 20
-464.479033402379
 30
0.0
 11
1152.2822286407511
 21
-464.479033402379
 31
0.0
  0
LINE
  5
201C1
  8
1PHANTOM
 10
1152.2822286407511
 20
-464.479033402379
 30
0.0
 11
1152.2822286407511
 21
-465.47903340237912
 31
0.0
  0
LINE
  5
201C2
  8
1PHANTOM
 10
1162.2822286407511
 20
-464.479033402379
 30
0.0
 11
1162.2822286407511
 21
-465.47903340237912
 31
0.0
  0
LINE
  5
201C3
  8
1PHANTOM
 10
1157.28222864075
 20
-465.47903340237912
 30
0.0
 11
1156.7048783715611
 21
-464.479033402379
 31
0.0
  0
LINE
  5
201C5
  8
01
 10
1260.6822286407489
 20
-523.47903340238031
 30
0.0
 11
1260.6822286407489
 21
-556.77903340238095
 31
0.0
  0
LINE
  5
201C6
  8
1PHANTOM
 10
1256.6822286407489
 20
-544.87903340238063
 30
0.0
 11
1255.6822286407489
 21
-544.87903340238063
 31
0.0
  0
ARC
  5
201C7
  8
1PHANTOM
 10
1262.4530619740819
 20
-540.12903340238063
 30
0.0
 40
8.2708333333334387
 50
144.94886325254009
 51
215.05113674745991
  0
LINE
  5
201C8
  8
1PHANTOM
 10
1256.6822286407489
 20
-535.37903340238051
 30
0.0
 11
1255.6822286407489
 21
-535.37903340238051
 31
0.0
  0
LINE
  5
201C9
  8
1CENTER
 10
1298.283903640749
 20
-540.12903340238063
 30
0.0
 11
1252.8397980667801
 21
-540.12903340238063
 31
0.0
  0
LINE
  5
201CA
  8
1PHANTOM
 10
1257.6822286407489
 20
-545.12903340238063
 30
0.0
 11
1256.6822286407489
 21
-545.12903340238063
 31
0.0
  0
LINE
  5
201CB
  8
1PHANTOM
 10
1257.6822286407489
 20
-535.12903340238063
 30
0.0
 11
1256.6822286407489
 21
-535.12903340238063
 31
0.0
  0
LINE
  5
201CC
  8
1PHANTOM
 10
1255.6822286407489
 20
-544.66209658204662
 30
0.0
 11
1255.6822286407489
 21
-535.62366561757426
 31
0.0
  0
LINE
  5
201CD
  8
1PHANTOM
 10
1272.800094226794
 20
-537.62903340238051
 30
0.0
 11
1273.800094226795
 21
-542.62903340238063
 31
0.0
  0
LINE
  5
201CE
  8
1PHANTOM
 10
1290.151139727504
 20
-538.37903340238063
 30
0.0
 11
1256.6822286407489
 21
-538.37903340238063
 31
0.0
  0
LINE
  5
201CF
  8
1PHANTOM
 10
1296.6822286407489
 20
-540.12903340238063
 30
0.0
 11
1290.151139727504
 21
-538.37903340238063
 31
0.0
  0
LINE
  5
201D0
  8
1PHANTOM
 10
1296.6822286407489
 20
-540.12903340238063
 30
0.0
 11
1290.1511397275031
 21
-541.87903340238063
 31
0.0
  0
LINE
  5
201D1
  8
1PHANTOM
 10
1290.1511397275031
 20
-541.87903340238063
 30
0.0
 11
1256.6822286407489
 21
-541.87903340238063
 31
0.0
  0
LINE
  5
201D2
  8
1PHANTOM
 10
1290.836840838587
 20
-537.81276646134484
 30
0.0
 11
1290.6868408385869
 21
-538.56276646134484
 31
0.0
  0
LINE
  5
201D3
  8
1PHANTOM
 10
1290.836840838587
 20
-537.81276646134484
 30
0.0
 11
1291.716221734805
 21
-542.20967094243588
 31
0.0
  0
LINE
  5
201D4
  8
1PHANTOM
 10
1295.662765564183
 20
-540.44239008932425
 30
0.0
 11
1295.5127655641829
 21
-541.19239008932425
 31
0.0
  0
LINE
  5
201D5
  8
1PHANTOM
 10
1295.063338146691
 20
-538.94525300186342
 30
0.0
 11
1294.9133381466911
 21
-539.69525300186342
 31
0.0
  0
LINE
  5
201D6
  8
1PHANTOM
 10
1295.063338146691
 20
-538.94525300186342
 30
0.0
 11
1295.5127655641829
 21
-541.19239008932425
 31
0.0
  0
LINE
  5
201D7
  8
1PHANTOM
 10
1291.866221734806
 20
-541.45967094243576
 30
0.0
 11
1291.716221734805
 21
-542.20967094243588
 31
0.0
  0
LINE
  5
201D8
  8
1PHANTOM
 10
1293.7644936494939
 20
-540.95103051588012
 30
0.0
 11
1293.6144936494941
 21
-541.70103051588012
 31
0.0
  0
LINE
  5
201D9
  8
1PHANTOM
 10
1292.9500894926391
 20
-538.37900973160413
 30
0.0
 11
1292.800089492639
 21
-539.12900973160413
 31
0.0
  0
LINE
  5
201DA
  8
1PHANTOM
 10
1292.9500894926391
 20
-538.37900973160413
 30
0.0
 11
1293.6144936494941
 21
-541.70103051588012
 31
0.0
  0
LINE
  5
201DB
  8
1PHANTOM
 10
1281.950094226795
 20
-541.87903340238063
 30
0.0
 11
1281.800094226795
 21
-542.62903340238063
 31
0.0
  0
LINE
  5
201DC
  8
1PHANTOM
 10
1284.800094226795
 20
-537.62903340238051
 30
0.0
 11
1284.650094226794
 21
-538.37903340238063
 31
0.0
  0
LINE
  5
201DD
  8
1PHANTOM
 10
1282.800094226795
 20
-537.62903340238051
 30
0.0
 11
1282.650094226794
 21
-538.37903340238063
 31
0.0
  0
LINE
  5
201DE
  8
1PHANTOM
 10
1282.800094226795
 20
-537.62903340238051
 30
0.0
 11
1283.800094226795
 21
-542.62903340238063
 31
0.0
  0
LINE
  5
201DF
  8
1PHANTOM
 10
1286.800094226794
 20
-537.62903340238051
 30
0.0
 11
1286.6500942267951
 21
-538.37903340238063
 31
0.0
  0
LINE
  5
201E0
  8
1PHANTOM
 10
1288.800094226794
 20
-537.62903340238051
 30
0.0
 11
1288.6500942267951
 21
-538.37903340238063
 31
0.0
  0
LINE
  5
201E1
  8
1PHANTOM
 10
1288.800094226794
 20
-537.62903340238051
 30
0.0
 11
1289.800094226795
 21
-542.62903340238063
 31
0.0
  0
LINE
  5
201E2
  8
1PHANTOM
 10
1286.800094226794
 20
-537.62903340238051
 30
0.0
 11
1287.800094226795
 21
-542.62903340238063
 31
0.0
  0
LINE
  5
201E3
  8
1PHANTOM
 10
1284.800094226795
 20
-537.62903340238051
 30
0.0
 11
1285.800094226795
 21
-542.62903340238063
 31
0.0
  0
LINE
  5
201E4
  8
1PHANTOM
 10
1289.950094226795
 20
-541.87903340238063
 30
0.0
 11
1289.800094226795
 21
-542.62903340238063
 31
0.0
  0
LINE
  5
201E5
  8
1PHANTOM
 10
1287.950094226795
 20
-541.87903340238063
 30
0.0
 11
1287.800094226795
 21
-542.62903340238063
 31
0.0
  0
LINE
  5
201E6
  8
1PHANTOM
 10
1283.950094226795
 20
-541.87903340238063
 30
0.0
 11
1283.800094226795
 21
-542.62903340238063
 31
0.0
  0
LINE
  5
201E7
  8
1PHANTOM
 10
1285.950094226795
 20
-541.87903340238063
 30
0.0
 11
1285.800094226795
 21
-542.62903340238063
 31
0.0
  0
LINE
  5
201E8
  8
1PHANTOM
 10
1278.800094226794
 20
-537.62903340238051
 30
0.0
 11
1278.6500942267951
 21
-538.37903340238063
 31
0.0
  0
LINE
  5
201E9
  8
1PHANTOM
 10
1280.800094226794
 20
-537.62903340238051
 30
0.0
 11
1280.6500942267951
 21
-538.37903340238063
 31
0.0
  0
LINE
  5
201EA
  8
1PHANTOM
 10
1274.800094226795
 20
-537.62903340238051
 30
0.0
 11
1274.650094226794
 21
-538.37903340238063
 31
0.0
  0
LINE
  5
201EB
  8
1PHANTOM
 10
1276.800094226795
 20
-537.62903340238051
 30
0.0
 11
1276.650094226794
 21
-538.37903340238063
 31
0.0
  0
LINE
  5
201EC
  8
1PHANTOM
 10
1280.800094226794
 20
-537.62903340238051
 30
0.0
 11
1281.800094226795
 21
-542.62903340238063
 31
0.0
  0
LINE
  5
201ED
  8
1PHANTOM
 10
1278.800094226794
 20
-537.62903340238051
 30
0.0
 11
1279.800094226795
 21
-542.62903340238063
 31
0.0
  0
LINE
  5
201EE
  8
1PHANTOM
 10
1276.800094226795
 20
-537.62903340238051
 30
0.0
 11
1277.800094226795
 21
-542.62903340238063
 31
0.0
  0
LINE
  5
201EF
  8
1PHANTOM
 10
1274.800094226795
 20
-537.62903340238051
 30
0.0
 11
1275.800094226795
 21
-542.62903340238063
 31
0.0
  0
LINE
  5
201F0
  8
1PHANTOM
 10
1277.950094226795
 20
-541.87903340238063
 30
0.0
 11
1277.800094226795
 21
-542.62903340238063
 31
0.0
  0
LINE
  5
201F1
  8
1PHANTOM
 10
1279.950094226795
 20
-541.87903340238063
 30
0.0
 11
1279.800094226795
 21
-542.62903340238063
 31
0.0
  0
LINE
  5
201F2
  8
1PHANTOM
 10
1273.950094226795
 20
-541.87903340238063
 30
0.0
 11
1273.800094226795
 21
-542.62903340238063
 31
0.0
  0
LINE
  5
201F3
  8
1PHANTOM
 10
1275.950094226795
 20
-541.87903340238063
 30
0.0
 11
1275.800094226795
 21
-542.62903340238063
 31
0.0
  0
LINE
  5
201F4
  8
1PHANTOM
 10
1256.800094226794
 20
-537.62903340238051
 30
0.0
 11
1257.800094226795
 21
-542.62903340238063
 31
0.0
  0
LINE
  5
201F5
  8
1PHANTOM
 10
1264.800094226794
 20
-537.62903340238051
 30
0.0
 11
1265.800094226795
 21
-542.62903340238063
 31
0.0
  0
LINE
  5
201F6
  8
1PHANTOM
 10
1272.800094226794
 20
-537.62903340238051
 30
0.0
 11
1272.6500942267951
 21
-538.37903340238063
 31
0.0
  0
LINE
  5
201F7
  8
1PHANTOM
 10
1270.800094226794
 20
-537.62903340238051
 30
0.0
 11
1270.6500942267951
 21
-538.37903340238063
 31
0.0
  0
LINE
  5
201F8
  8
1PHANTOM
 10
1268.800094226795
 20
-537.62903340238051
 30
0.0
 11
1268.650094226794
 21
-538.37903340238063
 31
0.0
  0
LINE
  5
201F9
  8
1PHANTOM
 10
1266.800094226795
 20
-537.62903340238051
 30
0.0
 11
1266.650094226794
 21
-538.37903340238063
 31
0.0
  0
LINE
  5
201FA
  8
1PHANTOM
 10
1270.800094226794
 20
-537.62903340238051
 30
0.0
 11
1271.800094226795
 21
-542.62903340238063
 31
0.0
  0
LINE
  5
201FB
  8
1PHANTOM
 10
1268.800094226795
 20
-537.62903340238051
 30
0.0
 11
1269.800094226795
 21
-542.62903340238063
 31
0.0
  0
LINE
  5
201FC
  8
1PHANTOM
 10
1266.800094226795
 20
-537.62903340238051
 30
0.0
 11
1267.800094226795
 21
-542.62903340238063
 31
0.0
  0
LINE
  5
201FD
  8
1PHANTOM
 10
1271.950094226795
 20
-541.87903340238063
 30
0.0
 11
1271.800094226795
 21
-542.62903340238063
 31
0.0
  0
LINE
  5
201FE
  8
1PHANTOM
 10
1269.950094226795
 20
-541.87903340238063
 30
0.0
 11
1269.800094226795
 21
-542.62903340238063
 31
0.0
  0
LINE
  5
201FF
  8
1PHANTOM
 10
1267.950094226795
 20
-541.87903340238063
 30
0.0
 11
1267.800094226795
 21
-542.62903340238063
 31
0.0
  0
LINE
  5
20200
  8
1PHANTOM
 10
1265.950094226795
 20
-541.87903340238063
 30
0.0
 11
1265.800094226795
 21
-542.62903340238063
 31
0.0
  0
LINE
  5
20201
  8
1PHANTOM
 10
1260.800094226795
 20
-537.62903340238051
 30
0.0
 11
1260.650094226794
 21
-538.37903340238063
 31
0.0
  0
LINE
  5
20202
  8
1PHANTOM
 10
1262.800094226794
 20
-537.62903340238051
 30
0.0
 11
1262.6500942267951
 21
-538.37903340238063
 31
0.0
  0
LINE
  5
20203
  8
1PHANTOM
 10
1264.800094226794
 20
-537.62903340238051
 30
0.0
 11
1264.6500942267951
 21
-538.37903340238063
 31
0.0
  0
LINE
  5
20204
  8
1PHANTOM
 10
1258.800094226795
 20
-537.62903340238051
 30
0.0
 11
1258.650094226794
 21
-538.37903340238063
 31
0.0
  0
LINE
  5
20205
  8
1PHANTOM
 10
1262.800094226794
 20
-537.62903340238051
 30
0.0
 11
1263.800094226795
 21
-542.62903340238063
 31
0.0
  0
LINE
  5
20206
  8
1PHANTOM
 10
1260.800094226795
 20
-537.62903340238051
 30
0.0
 11
1261.800094226795
 21
-542.62903340238063
 31
0.0
  0
LINE
  5
20207
  8
1PHANTOM
 10
1258.800094226795
 20
-537.62903340238051
 30
0.0
 11
1259.800094226795
 21
-542.62903340238063
 31
0.0
  0
LINE
  5
20208
  8
1PHANTOM
 10
1261.950094226795
 20
-541.87903340238063
 30
0.0
 11
1261.800094226795
 21
-542.62903340238063
 31
0.0
  0
LINE
  5
20209
  8
1PHANTOM
 10
1263.950094226795
 20
-541.87903340238063
 30
0.0
 11
1263.800094226795
 21
-542.62903340238063
 31
0.0
  0
LINE
  5
2020A
  8
1PHANTOM
 10
1259.950094226795
 20
-541.87903340238063
 30
0.0
 11
1259.800094226795
 21
-542.62903340238063
 31
0.0
  0
LINE
  5
2020B
  8
1PHANTOM
 10
1257.950094226795
 20
-541.87903340238063
 30
0.0
 11
1257.800094226795
 21
-542.62903340238063
 31
0.0
  0
LINE
  5
2020C
  8
1PHANTOM
 10
1256.800094226794
 20
-537.62903340238051
 30
0.0
 11
1256.6500942267951
 21
-538.37903340238063
 31
0.0
  0
LINE
  5
2020D
  8
1PHANTOM
 10
1256.6822286407489
 20
-545.12903340238063
 30
0.0
 11
1256.6822286407489
 21
-535.12903340238063
 31
0.0
  0
LINE
  5
2020E
  8
1PHANTOM
 10
1257.6822286407489
 20
-545.12903340238063
 30
0.0
 11
1257.6822286407489
 21
-535.12903340238063
 31
0.0
  0
LINE
  5
2020F
  8
1PHANTOM
 10
1256.6822286407489
 20
-540.12903340238063
 30
0.0
 11
1257.6822286407489
 21
-539.55168313319086
 31
0.0
  0
LINE
  5
20212
  8
1PHANTOM
 10
1082.03222864075
 20
-465.47903340237912
 30
0.0
 11
1082.03222864075
 21
-466.479033402379
 31
0.0
  0
ARC
  5
20213
  8
1PHANTOM
 10
1077.2822286407511
 20
-459.70820006904557
 30
0.0
 40
8.2708333333334387
 50
234.94886325253771
 51
305.05113674746229
  0
LINE
  5
20214
  8
1PHANTOM
 10
1072.53222864075
 20
-465.47903340237912
 30
0.0
 11
1072.53222864075
 21
-466.479033402379
 31
0.0
  0
LINE
  5
20215
  8
1CENTER
 10
1077.2822286407511
 20
-423.87735840237917
 30
0.0
 11
1077.2822286407511
 21
-469.32146397634767
 31
0.0
  0
LINE
  5
20216
  8
1PHANTOM
 10
1082.28222864075
 20
-464.479033402379
 30
0.0
 11
1082.28222864075
 21
-465.47903340237912
 31
0.0
  0
LINE
  5
20217
  8
1PHANTOM
 10
1072.28222864075
 20
-464.479033402379
 30
0.0
 11
1072.28222864075
 21
-465.47903340237912
 31
0.0
  0
LINE
  5
20218
  8
1PHANTOM
 10
1081.815291820416
 20
-466.479033402379
 30
0.0
 11
1072.7768608559441
 21
-466.479033402379
 31
0.0
  0
LINE
  5
20219
  8
1PHANTOM
 10
1074.78222864075
 20
-449.36116781633319
 30
0.0
 11
1079.7822286407511
 21
-448.36116781633319
 31
0.0
  0
LINE
  5
2021A
  8
1PHANTOM
 10
1075.53222864075
 20
-432.01012231562419
 30
0.0
 11
1075.53222864075
 21
-465.47903340237912
 31
0.0
  0
LINE
  5
2021B
  8
1PHANTOM
 10
1077.2822286407511
 20
-425.479033402379
 30
0.0
 11
1075.53222864075
 21
-432.01012231562419
 31
0.0
  0
LINE
  5
2021C
  8
1PHANTOM
 10
1077.2822286407511
 20
-425.479033402379
 30
0.0
 11
1079.03222864075
 21
-432.0101223156247
 31
0.0
  0
LINE
  5
2021D
  8
1PHANTOM
 10
1079.03222864075
 20
-432.0101223156247
 30
0.0
 11
1079.03222864075
 21
-465.47903340237912
 31
0.0
  0
LINE
  5
2021E
  8
1PHANTOM
 10
1074.9659616997151
 20
-431.3244212045405
 30
0.0
 11
1075.7159616997151
 21
-431.47442120454059
 31
0.0
  0
LINE
  5
2021F
  8
1PHANTOM
 10
1074.9659616997151
 20
-431.3244212045405
 30
0.0
 11
1079.3628661808059
 21
-430.44504030832218
 31
0.0
  0
LINE
  5
20220
  8
1PHANTOM
 10
1077.5955853276939
 20
-426.49849647894439
 30
0.0
 11
1078.3455853276939
 21
-426.64849647894448
 31
0.0
  0
LINE
  5
20221
  8
1PHANTOM
 10
1076.098448240233
 20
-427.09792389643673
 30
0.0
 11
1076.848448240233
 21
-427.24792389643642
 31
0.0
  0
LINE
  5
20222
  8
1PHANTOM
 10
1076.098448240233
 20
-427.09792389643673
 30
0.0
 11
1078.3455853276939
 21
-426.64849647894448
 31
0.0
  0
LINE
  5
20223
  8
1PHANTOM
 10
1078.6128661808059
 20
-430.29504030832209
 30
0.0
 11
1079.3628661808059
 21
-430.44504030832218
 31
0.0
  0
LINE
  5
20224
  8
1PHANTOM
 10
1078.1042257542499
 20
-428.39676839363329
 30
0.0
 11
1078.8542257542499
 21
-428.54676839363339
 31
0.0
  0
LINE
  5
20225
  8
1PHANTOM
 10
1075.5322049699739
 20
-429.21117255048858
 30
0.0
 11
1076.2822049699739
 21
-429.36117255048828
 31
0.0
  0
LINE
  5
20226
  8
1PHANTOM
 10
1075.5322049699739
 20
-429.21117255048858
 30
0.0
 11
1078.8542257542499
 21
-428.54676839363339
 31
0.0
  0
LINE
  5
20227
  8
1PHANTOM
 10
1079.03222864075
 20
-440.2111678163331
 30
0.0
 11
1079.7822286407511
 21
-440.36116781633319
 31
0.0
  0
LINE
  5
20228
  8
1PHANTOM
 10
1074.78222864075
 20
-437.36116781633319
 30
0.0
 11
1075.53222864075
 21
-437.51116781633328
 31
0.0
  0
LINE
  5
20229
  8
1PHANTOM
 10
1074.78222864075
 20
-439.36116781633319
 30
0.0
 11
1075.53222864075
 21
-439.51116781633328
 31
0.0
  0
LINE
  5
2022A
  8
1PHANTOM
 10
1074.78222864075
 20
-439.36116781633319
 30
0.0
 11
1079.7822286407511
 21
-438.36116781633319
 31
0.0
  0
LINE
  5
2022B
  8
1PHANTOM
 10
1074.78222864075
 20
-435.36116781633319
 30
0.0
 11
1075.53222864075
 21
-435.51116781633328
 31
0.0
  0
LINE
  5
2022C
  8
1PHANTOM
 10
1074.78222864075
 20
-433.36116781633319
 30
0.0
 11
1075.53222864075
 21
-433.51116781633328
 31
0.0
  0
LINE
  5
2022D
  8
1PHANTOM
 10
1074.78222864075
 20
-433.36116781633319
 30
0.0
 11
1079.7822286407511
 21
-432.36116781633319
 31
0.0
  0
LINE
  5
2022E
  8
1PHANTOM
 10
1074.78222864075
 20
-435.36116781633319
 30
0.0
 11
1079.7822286407511
 21
-434.36116781633319
 31
0.0
  0
LINE
  5
2022F
  8
1PHANTOM
 10
1074.78222864075
 20
-437.36116781633319
 30
0.0
 11
1079.7822286407511
 21
-436.36116781633319
 31
0.0
  0
LINE
  5
20230
  8
1PHANTOM
 10
1079.03222864075
 20
-432.2111678163331
 30
0.0
 11
1079.7822286407511
 21
-432.36116781633319
 31
0.0
  0
LINE
  5
20231
  8
1PHANTOM
 10
1079.03222864075
 20
-434.2111678163331
 30
0.0
 11
1079.7822286407511
 21
-434.36116781633319
 31
0.0
  0
LINE
  5
20232
  8
1PHANTOM
 10
1079.03222864075
 20
-438.2111678163331
 30
0.0
 11
1079.7822286407511
 21
-438.36116781633319
 31
0.0
  0
LINE
  5
20233
  8
1PHANTOM
 10
1079.03222864075
 20
-436.2111678163331
 30
0.0
 11
1079.7822286407511
 21
-436.36116781633319
 31
0.0
  0
LINE
  5
20234
  8
1PHANTOM
 10
1074.78222864075
 20
-443.36116781633319
 30
0.0
 11
1075.53222864075
 21
-443.51116781633328
 31
0.0
  0
LINE
  5
20235
  8
1PHANTOM
 10
1074.78222864075
 20
-441.36116781633319
 30
0.0
 11
1075.53222864075
 21
-441.51116781633328
 31
0.0
  0
LINE
  5
20236
  8
1PHANTOM
 10
1074.78222864075
 20
-447.36116781633319
 30
0.0
 11
1075.53222864075
 21
-447.51116781633328
 31
0.0
  0
LINE
  5
20237
  8
1PHANTOM
 10
1074.78222864075
 20
-445.36116781633331
 30
0.0
 11
1075.53222864075
 21
-445.51116781633328
 31
0.0
  0
LINE
  5
20238
  8
1PHANTOM
 10
1074.78222864075
 20
-441.36116781633319
 30
0.0
 11
1079.7822286407511
 21
-440.36116781633319
 31
0.0
  0
LINE
  5
20239
  8
1PHANTOM
 10
1074.78222864075
 20
-443.36116781633319
 30
0.0
 11
1079.7822286407511
 21
-442.36116781633319
 31
0.0
  0
LINE
  5
2023A
  8
1PHANTOM
 10
1074.78222864075
 20
-445.36116781633331
 30
0.0
 11
1079.7822286407511
 21
-444.36116781633319
 31
0.0
  0
LINE
  5
2023B
  8
1PHANTOM
 10
1074.78222864075
 20
-447.36116781633319
 30
0.0
 11
1079.7822286407511
 21
-446.36116781633319
 31
0.0
  0
LINE
  5
2023C
  8
1PHANTOM
 10
1079.03222864075
 20
-444.2111678163331
 30
0.0
 11
1079.7822286407511
 21
-444.36116781633319
 31
0.0
  0
LINE
  5
2023D
  8
1PHANTOM
 10
1079.03222864075
 20
-442.2111678163331
 30
0.0
 11
1079.7822286407511
 21
-442.36116781633319
 31
0.0
  0
LINE
  5
2023E
  8
1PHANTOM
 10
1079.03222864075
 20
-448.2111678163331
 30
0.0
 11
1079.7822286407511
 21
-448.36116781633319
 31
0.0
  0
LINE
  5
2023F
  8
1PHANTOM
 10
1079.03222864075
 20
-446.2111678163331
 30
0.0
 11
1079.7822286407511
 21
-446.36116781633319
 31
0.0
  0
LINE
  5
20240
  8
1PHANTOM
 10
1074.78222864075
 20
-465.36116781633319
 30
0.0
 11
1079.7822286407511
 21
-464.36116781633319
 31
0.0
  0
LINE
  5
20241
  8
1PHANTOM
 10
1074.78222864075
 20
-457.36116781633319
 30
0.0
 11
1079.7822286407511
 21
-456.36116781633319
 31
0.0
  0
LINE
  5
20242
  8
1PHANTOM
 10
1074.78222864075
 20
-449.36116781633319
 30
0.0
 11
1075.53222864075
 21
-449.51116781633328
 31
0.0
  0
LINE
  5
20243
  8
1PHANTOM
 10
1074.78222864075
 20
-451.36116781633319
 30
0.0
 11
1075.53222864075
 21
-451.51116781633328
 31
0.0
  0
LINE
  5
20244
  8
1PHANTOM
 10
1074.78222864075
 20
-453.36116781633319
 30
0.0
 11
1075.53222864075
 21
-453.51116781633328
 31
0.0
  0
LINE
  5
20245
  8
1PHANTOM
 10
1074.78222864075
 20
-455.36116781633319
 30
0.0
 11
1075.53222864075
 21
-455.51116781633328
 31
0.0
  0
LINE
  5
20246
  8
1PHANTOM
 10
1074.78222864075
 20
-451.36116781633319
 30
0.0
 11
1079.7822286407511
 21
-450.36116781633319
 31
0.0
  0
LINE
  5
20247
  8
1PHANTOM
 10
1074.78222864075
 20
-453.36116781633319
 30
0.0
 11
1079.7822286407511
 21
-452.36116781633319
 31
0.0
  0
LINE
  5
20248
  8
1PHANTOM
 10
1074.78222864075
 20
-455.36116781633319
 30
0.0
 11
1079.7822286407511
 21
-454.36116781633319
 31
0.0
  0
LINE
  5
20249
  8
1PHANTOM
 10
1079.03222864075
 20
-450.2111678163331
 30
0.0
 11
1079.7822286407511
 21
-450.36116781633319
 31
0.0
  0
LINE
  5
2024A
  8
1PHANTOM
 10
1079.03222864075
 20
-452.2111678163331
 30
0.0
 11
1079.7822286407511
 21
-452.36116781633319
 31
0.0
  0
LINE
  5
2024B
  8
1PHANTOM
 10
1079.03222864075
 20
-454.2111678163331
 30
0.0
 11
1079.7822286407511
 21
-454.36116781633319
 31
0.0
  0
LINE
  5
2024C
  8
1PHANTOM
 10
1079.03222864075
 20
-456.2111678163331
 30
0.0
 11
1079.7822286407511
 21
-456.36116781633319
 31
0.0
  0
LINE
  5
2024D
  8
1PHANTOM
 10
1074.78222864075
 20
-461.36116781633319
 30
0.0
 11
1075.53222864075
 21
-461.51116781633328
 31
0.0
  0
LINE
  5
2024E
  8
1PHANTOM
 10
1074.78222864075
 20
-459.36116781633319
 30
0.0
 11
1075.53222864075
 21
-459.51116781633328
 31
0.0
  0
LINE
  5
2024F
  8
1PHANTOM
 10
1074.78222864075
 20
-457.36116781633319
 30
0.0
 11
1075.53222864075
 21
-457.51116781633328
 31
0.0
  0
LINE
  5
20250
  8
1PHANTOM
 10
1074.78222864075
 20
-463.36116781633319
 30
0.0
 11
1075.53222864075
 21
-463.51116781633328
 31
0.0
  0
LINE
  5
20251
  8
1PHANTOM
 10
1074.78222864075
 20
-459.36116781633319
 30
0.0
 11
1079.7822286407511
 21
-458.36116781633319
 31
0.0
  0
LINE
  5
20252
  8
1PHANTOM
 10
1074.78222864075
 20
-461.36116781633319
 30
0.0
 11
1079.7822286407511
 21
-460.36116781633319
 31
0.0
  0
LINE
  5
20253
  8
1PHANTOM
 10
1074.78222864075
 20
-463.36116781633319
 30
0.0
 11
1079.7822286407511
 21
-462.36116781633319
 31
0.0
  0
LINE
  5
20254
  8
1PHANTOM
 10
1079.03222864075
 20
-460.2111678163331
 30
0.0
 11
1079.7822286407511
 21
-460.36116781633319
 31
0.0
  0
LINE
  5
20255
  8
1PHANTOM
 10
1079.03222864075
 20
-458.2111678163331
 30
0.0
 11
1079.7822286407511
 21
-458.36116781633319
 31
0.0
  0
LINE
  5
20256
  8
1PHANTOM
 10
1079.03222864075
 20
-462.21116781633322
 30
0.0
 11
1079.7822286407511
 21
-462.36116781633319
 31
0.0
  0
LINE
  5
20257
  8
1PHANTOM
 10
1079.03222864075
 20
-464.2111678163331
 30
0.0
 11
1079.7822286407511
 21
-464.36116781633319
 31
0.0
  0
LINE
  5
20258
  8
1PHANTOM
 10
1074.78222864075
 20
-465.36116781633319
 30
0.0
 11
1075.53222864075
 21
-465.51116781633328
 31
0.0
  0
LINE
  5
20259
  8
1PHANTOM
 10
1082.28222864075
 20
-465.47903340237912
 30
0.0
 11
1072.28222864075
 21
-465.47903340237912
 31
0.0
  0
LINE
  5
2025A
  8
1PHANTOM
 10
1082.28222864075
 20
-464.479033402379
 30
0.0
 11
1072.28222864075
 21
-464.479033402379
 31
0.0
  0
LINE
  5
2025B
  8
1PHANTOM
 10
1077.2822286407511
 20
-465.47903340237912
 30
0.0
 11
1076.7048783715611
 21
-464.479033402379
 31
0.0
  0
LINE
  5
20288
  8
01
 10
1260.6822286407489
 20
-581.71345115860674
 30
0.0
 11
1260.6822286407489
 21
-498.54461564615451
 31
0.0
  0
LINE
  5
20289
  8
01
 10
1269.6822286407489
 20
-581.71345115860674
 30
0.0
 11
1269.6822286407489
 21
-498.54461564615451
 31
0.0
  0
TEXT
  5
2028A
  8
1TEXT
 10
1217.1395601274701
 20
-410.49273542439232
 30
0.0
 40
4.0
  1
表面処理：プレート
 41
0.8
 72
     1
 11
1233.6728934608029
 21
-410.49273542439232
 31
0.0
  0
LINE
  5
2028C
  8
1DIM
 10
1181.2728934608031
 20
-404.99273542439238
 30
0.0
 11
1286.2728934608031
 21
-404.99273542439238
 31
0.0
  0
LINE
  5
2028D
  8
1DIM
 10
1181.2728934608031
 20
-418.99273542439232
 30
0.0
 11
1286.2728934608031
 21
-418.99273542439232
 31
0.0
  0
LINE
  5
2028E
  8
1DIM
 10
1181.2728934608031
 20
-411.99273542439232
 30
0.0
 11
1286.2728934608031
 21
-411.99273542439232
 31
0.0
  0
LINE
  5
2028F
  8
1DIM
 10
1181.2728934608031
 20
-425.99273542439238
 30
0.0
 11
1286.2728934608031
 21
-425.99273542439238
 31
0.0
  0
LINE
  5
20290
  8
1DIM
 10
1181.2728934608031
 20
-425.99273542439238
 30
0.0
 11
1286.2728934608031
 21
-425.99273542439238
 31
0.0
  0
LINE
  5
20291
  8
1DIM
 10
1251.2728934608031
 20
-404.99273542439238
 30
0.0
 11
1251.2728934608031
 21
-432.99273542439232
 31
0.0
  0
TEXT
  5
20292
  8
1TEXT
 10
1261.872893460803
 20
-410.49273542439232
 30
0.0
 40
4.0
  1
コード
 72
     1
 11
1268.6728934608029
 21
-410.49273542439232
 31
0.0
  0
LINE
  5
20293
  8
1DIM
 10
1216.2728934608031
 20
-432.99273542439232
 30
0.0
 11
1216.2728934608031
 21
-404.99273542439238
 31
0.0
  0
LINE
  5
20294
  8
1DIM
 10
1286.2728934608031
 20
-432.99273542439232
 30
0.0
 11
1286.2728934608031
 21
-404.99273542439238
 31
0.0
  0
TEXT
  5
20295
  8
1TEXT
 10
1222.206226794136
 20
-424.32802408391672
 30
0.0
 40
4.0
  1
ヘアライン
 72
     1
 11
1233.6728934608029
 21
-424.32802408391672
 31
0.0
  0
TEXT
  5
20296
  8
1TEXT
 10
1182.406226794136
 20
-410.49273542439232
 30
0.0
 40
4.0
  1
表面処理：本体
 72
     1
 11
1198.6728934608029
 21
-410.49273542439232
 31
0.0
  0
TEXT
  5
20297
  8
1TEXT
 10
1182.406226794136
 20
-417.32802408391672
 30
0.0
 40
4.0
  1
ソフトニッケル
 72
     1
 11
1198.6728934608029
 21
-417.32802408391672
 31
0.0
  0
TEXT
  5
20298
  8
1TEXT
 10
1182.2728934608031
 20
-424.32802408391672
 30
0.0
 40
4.0
  1
ピアノブラック
 72
     1
 11
1198.6728934608029
 21
-424.32802408391672
 31
0.0
  0
LINE
  5
20299
  8
1DIM
 10
1181.2728934608031
 20
-432.99273542439232
 30
0.0
 11
1181.2728934608031
 21
-404.99273542439238
 31
0.0
  0
TEXT
  5
2029A
  8
1TEXT
 10
1254.2062267941369
 20
-417.7070924080416
 30
0.0
 40
4.0
  1
GP-131-01502
 41
0.7
 72
     1
 11
1268.6728934608041
 21
-417.7070924080416
 31
0.0
  0
LINE
  5
2029C
  8
1DIM
 10
1181.2728934608031
 20
-432.99273542439232
 30
0.0
 11
1286.2728934608031
 21
-432.99273542439232
 31
0.0
  0
TEXT
  5
2029D
  8
1TEXT
 10
1222.206226794136
 20
-431.32802408391672
 30
0.0
 40
4.0
  1
ヘアライン
 72
     1
 11
1233.6728934608029
 21
-431.32802408391672
 31
0.0
  0
TEXT
  5
2029E
  8
1TEXT
 10
1182.2728934608031
 20
-431.32802408391672
 30
0.0
 40
4.0
  1
ビターブラウン
 72
     1
 11
1198.6728934608029
 21
-431.32802408391672
 31
0.0
  0
TEXT
  5
20346
  8
1TEXT
 10
1222.206226794136
 20
-417.32802408391672
 30
0.0
 40
4.0
  1
ヘアライン
 72
     1
 11
1233.6728934608029
 21
-417.32802408391672
 31
0.0
  0
TEXT
  5
20347
  8
1TEXT
 10
1253.972893460804
 20
-424.7070924080416
 30
0.0
 40
4.0
  1
GP-131-00202
 41
0.7
 72
     1
 11
1268.6728934608041
 21
-424.7070924080416
 31
0.0
  0
TEXT
  5
20348
  8
1TEXT
 10
1253.7395601274709
 20
-431.7070924080416
 30
0.0
 40
4.0
  1
GP-131-02702
 41
0.7
 72
     1
 11
1268.6728934608041
 21
-431.7070924080416
 31
0.0
  0
LINE
  5
2035B
  8
01
 10
1201.7822286407479
 20
-522.46551166972483
 30
0.0
 11
1201.7822286407479
 21
-520.1290334023804
 31
0.0
  0
TEXT
  5
203C8
  8
1TEXT
 10
1181.2728934608031
 20
-401.07381585768542
 30
0.0
 40
8.0
  1
GP-131-XXX02
  0
ARC
  5
2046F
  8
01
 10
1208.7822286407479
 20
-540.12903340238063
 30
0.0
 40
19.0
 50
111.61827242216449
 51
248.38172757783551
  0
LINE
  5
20470
  8
01
 10
1032.78222864075
 20
-560.12903340238063
 30
0.0
 11
1032.78222864075
 21
-557.79255513503665
 31
0.0
  0
LINE
  5
20471
  8
01
 10
1032.7822286407511
 20
-522.46551166972483
 30
0.0
 11
1032.7822286407511
 21
-520.1290334023804
 31
0.0
  0
ARC
  5
20472
  8
01
 10
1025.7822286407511
 20
-540.12903340238063
 30
0.0
 40
19.0
 50
291.61827242216413
 51
68.381727577835903
  0
TEXT
  5
20507
  8
1DIM
 10
1011.523198860516
 20
-573.20833725917521
 30
0.0
 40
3.5
  1
材質：ステンレス
  0
TEXT
  5
20508
  8
1DIM
 10
1007.323198860516
 20
-579.04167059250847
 30
0.0
 40
3.5
  1
仕上げ：ヘアライン
  0
SOLID
  5
20509
  8
1DIM
 10
1065.9226103945759
 20
-559.08315174217171
 30
0.0
 11
1067.552107420026
 21
-557.8765654190438
 31
0.0
 12
1066.402016608858
 22
-559.5464163816082
 32
0.0
 13
1066.402016608858
 23
-559.5464163816082
 33
0.0
1001
ACAD
1000
DSTYLE
1002
{
1070
    45
1040
0.5
1002
}
  0
TEXT
  5
2050B
  8
1DIM
 10
1013.15653219385
 20
-425.7543293168556
 30
0.0
 40
3.5
  1
材質：ABS樹脂
  0
TEXT
  5
2050C
  8
1DIM
 10
1006.8565321938499
 20
-431.5876626501888
 30
0.0
 40
3.5
  1
仕上げ：各種仕上げ
  0
SOLID
  5
2050D
  8
1DIM
 10
1066.691603481921
 20
-461.1085721071924
 30
0.0
 11
1067.552107420026
 21
-462.94450350123088
 31
0.0
 12
1066.1426799994269
 22
-461.48689400030992
 32
0.0
 13
1066.1426799994269
 23
-461.48689400030992
 33
0.0
1001
ACAD
1000
DSTYLE
1002
{
1070
    45
1040
0.5
1002
}
  0
LINE
  5
2050F
  8
1DIM
 10
1252.032228640747
 20
-520.6290334023804
 30
0.0
 11
1252.032228640747
 21
-499.1290334023804
 31
0.0
  0
LINE
  5
20510
  8
1DIM
 10
1260.6822286407471
 20
-523.47903340238031
 30
0.0
 11
1260.6822286407471
 21
-499.1290334023804
 31
0.0
  0
LINE
  5
20511
  8
1DIM
 10
1254.032228640747
 20
-500.1290334023804
 30
0.0
 11
1258.6822286407471
 21
-500.1290334023804
 31
0.0
  0
LINE
  5
20515
  8
1DIM
 10
1032.532228640747
 20
-521.37903340238063
 30
0.0
 11
1032.532228640747
 21
-499.1290334023804
 31
0.0
  0
LINE
  5
20516
  8
1DIM
 10
1202.032228640747
 20
-521.37903340238063
 30
0.0
 11
1202.032228640747
 21
-499.1290334023804
 31
0.0
  0
LINE
  5
20517
  8
1DIM
 10
1034.532228640747
 20
-500.1290334023804
 30
0.0
 11
1200.032228640747
 21
-500.1290334023804
 31
0.0
  0
LINE
  5
2051B
  8
1DIM
 10
1077.2822286407491
 20
-545.32903340238113
 30
0.0
 11
1077.2822286407491
 21
-581.12903340238063
 31
0.0
  0
LINE
  5
2051C
  8
1DIM
 10
1157.28222864075
 20
-545.32903340238113
 30
0.0
 11
1157.28222864075
 21
-581.12903340238063
 31
0.0
  0
LINE
  5
2051D
  8
1DIM
 10
1079.2822286407491
 20
-580.12903340238063
 30
0.0
 11
1155.28222864075
 21
-580.12903340238063
 31
0.0
  0
LINE
  5
20521
  8
1DIM
 10
1201.78222864075
 20
-560.12903340238063
 30
0.0
 11
1223.032228640747
 21
-560.12903340238063
 31
0.0
  0
LINE
  5
20522
  8
1DIM
 10
1201.78222864075
 20
-520.1290334023804
 30
0.0
 11
1223.032228640747
 21
-520.1290334023804
 31
0.0
  0
LINE
  5
20523
  8
1DIM
 10
1222.032228640747
 20
-558.12903340238063
 30
0.0
 11
1222.032228640747
 21
-522.12903340238029
 31
0.0
  0
TEXT
  5
20527
  8
1DIM
 10
1221.332228640747
 20
-542.75403340238029
 30
0.0
 40
3.5
  1
40
 50
90.0
  0
LINE
  5
20528
  8
0
  6
BYBLOCK
 10
1221.4963302607471
 20
-522.12903340238029
 30
0.0
 11
1222.032228640747
 21
-520.1290334023804
 31
0.0
  0
LINE
  5
20529
  8
0
  6
BYBLOCK
 10
1222.032228640747
 20
-520.1290334023804
 30
0.0
 11
1222.5681270207469
 21
-522.12903340238029
 31
0.0
  0
LINE
  5
2052A
  8
0
  6
BYBLOCK
 10
1222.032228640747
 20
-520.1290334023804
 30
0.0
 11
1222.032228640747
 21
-522.12903340238029
 31
0.0
  0
LINE
  5
2052B
  8
0
  6
BYBLOCK
 10
1222.5681270207469
 20
-558.12903340238063
 30
0.0
 11
1222.032228640747
 21
-560.12903340238063
 31
0.0
  0
LINE
  5
2052C
  8
0
  6
BYBLOCK
 10
1222.032228640747
 20
-560.12903340238063
 30
0.0
 11
1221.4963302607471
 21
-558.12903340238063
 31
0.0
  0
LINE
  5
2052D
  8
0
  6
BYBLOCK
 10
1222.032228640747
 20
-560.12903340238063
 30
0.0
 11
1222.032228640747
 21
-558.12903340238063
 31
0.0
  0
TEXT
  5
2052E
  8
1DIM
 10
1112.9072286407491
 20
-579.42903340238058
 30
0.0
 40
3.5
  1
P80
  0
LINE
  5
2052F
  8
0
  6
BYBLOCK
 10
1155.28222864075
 20
-579.59313502238047
 30
0.0
 11
1157.28222864075
 21
-580.12903340238063
 31
0.0
  0
LINE
  5
20530
  8
0
  6
BYBLOCK
 10
1157.28222864075
 20
-580.12903340238063
 30
0.0
 11
1155.28222864075
 21
-580.66493178238056
 31
0.0
  0
LINE
  5
20531
  8
0
  6
BYBLOCK
 10
1157.28222864075
 20
-580.12903340238063
 30
0.0
 11
1155.28222864075
 21
-580.12903340238063
 31
0.0
  0
LINE
  5
20532
  8
0
  6
BYBLOCK
 10
1079.2822286407491
 20
-580.66493178238056
 30
0.0
 11
1077.2822286407491
 21
-580.12903340238063
 31
0.0
  0
LINE
  5
20533
  8
0
  6
BYBLOCK
 10
1077.2822286407491
 20
-580.12903340238063
 30
0.0
 11
1079.2822286407491
 21
-579.59313502238047
 31
0.0
  0
LINE
  5
20534
  8
0
  6
BYBLOCK
 10
1077.2822286407491
 20
-580.12903340238063
 30
0.0
 11
1079.2822286407491
 21
-580.12903340238063
 31
0.0
  0
TEXT
  5
20535
  8
1DIM
 10
1110.86556197408
 20
-499.42903340238041
 30
0.0
 40
3.5
  1
169.5
  0
LINE
  5
20536
  8
0
  6
BYBLOCK
 10
1200.032228640747
 20
-499.59313502238041
 30
0.0
 11
1202.032228640747
 21
-500.1290334023804
 31
0.0
  0
LINE
  5
20537
  8
0
  6
BYBLOCK
 10
1202.032228640747
 20
-500.1290334023804
 30
0.0
 11
1200.032228640747
 21
-500.66493178238039
 31
0.0
  0
LINE
  5
20538
  8
0
  6
BYBLOCK
 10
1202.032228640747
 20
-500.1290334023804
 30
0.0
 11
1200.032228640747
 21
-500.1290334023804
 31
0.0
  0
LINE
  5
20539
  8
0
  6
BYBLOCK
 10
1034.532228640747
 20
-500.66493178238039
 30
0.0
 11
1032.532228640747
 21
-500.1290334023804
 31
0.0
  0
LINE
  5
2053A
  8
0
  6
BYBLOCK
 10
1032.532228640747
 20
-500.1290334023804
 30
0.0
 11
1034.532228640747
 21
-499.59313502238041
 31
0.0
  0
LINE
  5
2053B
  8
0
  6
BYBLOCK
 10
1032.532228640747
 20
-500.1290334023804
 30
0.0
 11
1034.532228640747
 21
-500.1290334023804
 31
0.0
  0
TEXT
  5
2053C
  8
1DIM
 10
1252.8572286407471
 20
-499.42903340238041
 30
0.0
 40
3.5
  1
8.5
  0
LINE
  5
2053D
  8
0
  6
BYBLOCK
 10
1258.6822286407471
 20
-499.59313502238041
 30
0.0
 11
1260.6822286407471
 21
-500.1290334023804
 31
0.0
  0
LINE
  5
2053E
  8
0
  6
BYBLOCK
 10
1260.6822286407471
 20
-500.1290334023804
 30
0.0
 11
1258.6822286407471
 21
-500.66493178238039
 31
0.0
  0
LINE
  5
2053F
  8
0
  6
BYBLOCK
 10
1260.6822286407471
 20
-500.1290334023804
 30
0.0
 11
1258.6822286407471
 21
-500.1290334023804
 31
0.0
  0
LINE
  5
20540
  8
0
  6
BYBLOCK
 10
1254.032228640747
 20
-500.66493178238039
 30
0.0
 11
1252.032228640747
 21
-500.1290334023804
 31
0.0
  0
LINE
  5
20541
  8
0
  6
BYBLOCK
 10
1252.032228640747
 20
-500.1290334023804
 30
0.0
 11
1254.032228640747
 21
-499.59313502238041
 31
0.0
  0
LINE
  5
20542
  8
0
  6
BYBLOCK
 10
1252.032228640747
 20
-500.1290334023804
 30
0.0
 11
1254.032228640747
 21
-500.1290334023804
 31
0.0
  0
LINE
  5
20543
  8
1DIM
 10
1066.417141740674
 20
-461.29773305375119
 30
0.0
 11
1046.423198860517
 21
-432.28766265018891
 31
0.0
1001
ACAD
1000
DSTYLE
1002
{
1070
    45
1040
0.5
1002
}
  0
LINE
  5
20544
  8
1DIM
 10
1046.423198860517
 20
-432.28766265018891
 30
0.0
 11
1043.723198860517
 21
-432.28766265018891
 31
0.0
1001
ACAD
1000
DSTYLE
1002
{
1070
    45
1040
0.5
1002
}
  0
LINE
  5
20545
  8
1DIM
 10
1066.1623135017171
 20
-559.3147840618899
 30
0.0
 11
1046.423198860517
 21
-579.74167059250863
 31
0.0
1001
ACAD
1000
DSTYLE
1002
{
1070
    45
1040
0.5
1002
}
  0
LINE
  5
20546
  8
1DIM
 10
1046.423198860517
 20
-579.74167059250863
 30
0.0
 11
1043.723198860517
 21
-579.74167059250863
 31
0.0
1001
ACAD
1000
DSTYLE
1002
{
1070
    45
1040
0.5
1002
}
  0
VIEWPORT
  5
57
 67
     1
  8
0
 10
-12.71820606546885
 20
10.09248672500371
 30
0.0
 40
422.17420698274952
 41
282.81935812915168
 68
     1
 69
     1
1001
ACAD
1000
MVIEW
1002
{
1070
    16
1010
0.0
1020
0.0
1030
0.0
1010
0.0
1020
0.0
1030
1.0
1040
0.0
1040
282.81935812915168
1040
-12.71820606546885
1040
10.09248672500371
1040
50.0
1040
0.0
1040
0.0
1070
     0
1070
   100
1070
     1
1070
     1
1070
     0
1070
     0
1070
     0
1070
     0
1040
0.0
1040
0.0
1040
0.0
1040
10.0
1040
10.0
1040
10.0
1040
10.0
1070
     0
1002
{
1002
}
1002
}
  0
ENDSEC
  0
EOF
