  0
SECTION
  2
HEADER
  9
$ACADVER
  1
AC1012
  9
$DWGCODEPAGE
  3
ansi_932
  9
$INSBASE
 10
0.0
 20
0.0
 30
0.0
  9
$EXTMIN
 10
5451.11
 20
-405.0
 30
0.0
  9
$EXTMAX
 10
5751.544038113565
 20
-216.3603646990787
 30
0.0
  9
$LIMMIN
 10
0.0
 20
0.0
  9
$LIMMAX
 10
420.0
 20
297.0
  9
$ORTHOMODE
 70
     0
  9
$REGENMODE
 70
     1
  9
$FILLMODE
 70
     1
  9
$QTEXTMODE
 70
     0
  9
$MIRRTEXT
 70
     0
  9
$DRAGMODE
 70
     2
  9
$LTSCALE
 40
0.5
  9
$OSMODE
 70
 14463
  9
$ATTMODE
 70
     1
  9
$TEXTSIZE
 40
4.0
  9
$TRACEWID
 40
1.0
  9
$TEXTSTYLE
  7
STANDARD
  9
$CLAYER
  8
1TEXT
  9
$CELTYPE
  6
BYLAYER
  9
$CECOLOR
 62
   256
  9
$CELTSCALE
 40
1.0
  9
$DELOBJ
 70
     1
  9
$DISPSILH
 70
     0
  9
$DIMSCALE
 40
1.0
  9
$DIMASZ
 40
2.0
  9
$DIMEXO
 40
0.0
  9
$DIMDLI
 40
7.0
  9
$DIMRND
 40
0.5
  9
$DIMDLE
 40
0.0
  9
$DIMEXE
 40
1.0
  9
$DIMTP
 40
0.0
  9
$DIMTM
 40
0.0
  9
$DIMTXT
 40
3.5
  9
$DIMCEN
 40
0.0
  9
$DIMTSZ
 40
0.0
  9
$DIMTOL
 70
     0
  9
$DIMLIM
 70
     0
  9
$DIMTIH
 70
     0
  9
$DIMTOH
 70
     0
  9
$DIMSE1
 70
     0
  9
$DIMSE2
 70
     0
  9
$DIMTAD
 70
     1
  9
$DIMZIN
 70
     8
  9
$DIMBLK
  1

  9
$DIMASO
 70
     1
  9
$DIMSHO
 70
     1
  9
$DIMPOST
  1
 
  9
$DIMAPOST
  1

  9
$DIMALT
 70
     0
  9
$DIMALTD
 70
     2
  9
$DIMALTF
 40
25.4
  9
$DIMLFAC
 40
1.0
  9
$DIMTOFL
 70
     1
  9
$DIMTVP
 40
0.0
  9
$DIMTIX
 70
     0
  9
$DIMSOXD
 70
     0
  9
$DIMSAH
 70
     1
  9
$DIMBLK1
  1
OPEN30
  9
$DIMBLK2
  1
OPEN30
  9
$DIMSTYLE
  2
NEWX10
  9
$DIMCLRD
 70
   256
  9
$DIMCLRE
 70
   256
  9
$DIMCLRT
 70
   201
  9
$DIMTFAC
 40
0.7
  9
$DIMGAP
 40
0.7
  9
$DIMJUST
 70
     0
  9
$DIMSD1
 70
     0
  9
$DIMSD2
 70
     0
  9
$DIMTOLJ
 70
     1
  9
$DIMTZIN
 70
     8
  9
$DIMALTZ
 70
     0
  9
$DIMALTTZ
 70
     0
  9
$DIMFIT
 70
     2
  9
$DIMUPT
 70
     0
  9
$DIMUNIT
 70
     2
  9
$DIMDEC
 70
     2
  9
$DIMTDEC
 70
     2
  9
$DIMALTU
 70
     2
  9
$DIMALTTD
 70
     2
  9
$DIMTXSTY
  7
STANDARD
  9
$DIMAUNIT
 70
     0
  9
$LUNITS
 70
     2
  9
$LUPREC
 70
     4
  9
$SKETCHINC
 40
1.0
  9
$FILLETRAD
 40
0.0
  9
$AUNITS
 70
     0
  9
$AUPREC
 70
     2
  9
$MENU
  1
acad
  9
$ELEVATION
 40
0.0
  9
$PELEVATION
 40
0.0
  9
$THICKNESS
 40
0.0
  9
$LIMCHECK
 70
     0
  9
$CHAMFERA
 40
10.0
  9
$CHAMFERB
 40
10.0
  9
$CHAMFERC
 40
20.0
  9
$CHAMFERD
 40
0.0
  9
$SKPOLY
 70
     0
  9
$TDCREATE
 40
2451318.621352917
  9
$TDUPDATE
 40
2459538.671697813
  9
$TDINDWG
 40
1.5875128009
  9
$TDUSRTIMER
 40
1.5875128009
  9
$USRTIMER
 70
     1
  9
$ANGBASE
 50
0.0
  9
$ANGDIR
 70
     0
  9
$PDMODE
 70
     0
  9
$PDSIZE
 40
0.0
  9
$PLINEWID
 40
0.0
  9
$COORDS
 70
     2
  9
$SPLFRAME
 70
     0
  9
$SPLINETYPE
 70
     6
  9
$SPLINESEGS
 70
     8
  9
$ATTDIA
 70
     0
  9
$ATTREQ
 70
     1
  9
$HANDLING
 70
     1
  9
$HANDSEED
  5
D30C
  9
$SURFTAB1
 70
     6
  9
$SURFTAB2
 70
     6
  9
$SURFTYPE
 70
     6
  9
$SURFU
 70
     6
  9
$SURFV
 70
     6
  9
$UCSNAME
  2

  9
$UCSORG
 10
0.0
 20
0.0
 30
0.0
  9
$UCSXDIR
 10
1.0
 20
0.0
 30
0.0
  9
$UCSYDIR
 10
0.0
 20
1.0
 30
0.0
  9
$PUCSNAME
  2

  9
$PUCSORG
 10
0.0
 20
0.0
 30
0.0
  9
$PUCSXDIR
 10
1.0
 20
0.0
 30
0.0
  9
$PUCSYDIR
 10
0.0
 20
1.0
 30
0.0
  9
$USERI1
 70
     0
  9
$USERI2
 70
     0
  9
$USERI3
 70
     0
  9
$USERI4
 70
     0
  9
$USERI5
 70
     0
  9
$USERR1
 40
0.0
  9
$USERR2
 40
0.0
  9
$USERR3
 40
0.0
  9
$USERR4
 40
0.0
  9
$USERR5
 40
0.0
  9
$WORLDVIEW
 70
     1
  9
$SHADEDGE
 70
     3
  9
$SHADEDIF
 70
    70
  9
$TILEMODE
 70
     1
  9
$MAXACTVP
 70
    48
  9
$PINSBASE
 10
0.0
 20
0.0
 30
0.0
  9
$PLIMCHECK
 70
     0
  9
$PEXTMIN
 10
1.000000000000000E+20
 20
1.000000000000000E+20
 30
1.000000000000000E+20
  9
$PEXTMAX
 10
-1.000000000000000E+20
 20
-1.000000000000000E+20
 30
-1.000000000000000E+20
  9
$PLIMMIN
 10
0.0
 20
0.0
  9
$PLIMMAX
 10
420.0
 20
297.0
  9
$UNITMODE
 70
     0
  9
$VISRETAIN
 70
     1
  9
$PLINEGEN
 70
     0
  9
$PSLTSCALE
 70
     1
  9
$TREEDEPTH
 70
  3020
  9
$PICKSTYLE
 70
     1
  9
$CMLSTYLE
  2
STANDARD
  9
$CMLJUST
 70
     0
  9
$CMLSCALE
 40
20.0
  9
$SAVEIMAGES
 70
     1
  0
ENDSEC
  0
SECTION
  2
CLASSES
  0
CLASS
  1
DICTIONARYVAR
  2
AcDbDictionaryVar
  3
ObjectDBX Classes
 90
        0
280
     0
281
     0
  0
CLASS
  1
IDBUFFER
  2
AcDbIdBuffer
  3
ObjectDBX Classes
 90
    32768
280
     0
281
     0
  0
CLASS
  1
LWPOLYLINE
  2
AcDbPolyline
  3
ObjectDBX Classes
 90
    32768
280
     0
281
     1
  0
CLASS
  1
ACDBDICTIONARYWDFLT
  2
AcDbDictionaryWithDefault
  3
ObjectDBX Classes
 90
    32768
280
     0
281
     0
  0
CLASS
  1
ACDBPLACEHOLDER
  2
AcDbPlaceHolder
  3
ObjectDBX Classes
 90
        0
280
     0
281
     0
  0
CLASS
  1
LAYOUT
  2
AcDbLayout
  3
ObjectDBX Classes
 90
        0
280
     0
281
     0
  0
CLASS
  1
TABLESTYLE
  2
AcDbTableStyle
  3
ObjectDBX Classes
 90
     4095
280
     0
281
     0
  0
CLASS
  1
SORTENTSTABLE
  2
AcDbSortentsTable
  3
ObjectDBX Classes
 90
    32768
280
     0
281
     0
  0
CLASS
  1
MATERIAL
  2
AcDbMaterial
  3
ObjectDBX Classes
 90
     1153
280
     0
281
     0
  0
CLASS
  1
VISUALSTYLE
  2
AcDbVisualStyle
  3
ObjectDBX Classes
 90
     4095
280
     0
281
     0
  0
CLASS
  1
SCALE
  2
AcDbScale
  3
ObjectDBX Classes
 90
     1153
280
     0
281
     0
  0
CLASS
  1
MLEADERSTYLE
  2
AcDbMLeaderStyle
  3
ACDB_MLEADERSTYLE_CLASS
 90
     4095
280
     0
281
     0
  0
CLASS
  1
CELLSTYLEMAP
  2
AcDbCellStyleMap
  3
ObjectDBX Classes
 90
     1152
280
     0
281
     0
  0
CLASS
  1
SUN
  2
AcDbSun
  3
SCENEOE
 90
     1153
280
     0
281
     0
  0
CLASS
  1
AEC_REFEDIT_STATUS_TRACKER
  2
AecDbRefEditStatusTracker
  3
AecArchBase60|Product Desc: Autodesk Architectural Desktop 2007 |Company: Autodesk,Inc. |WEB Address: www.autodesk.com
 90
      129
280
     1
281
     0
  0
CLASS
  1
NPOCOLLECTION
  2
AcDbImpNonPersistentObjectsCollection
  3
ObjectDBX Classes
 90
     1153
280
     1
281
     0
  0
CLASS
  1
DIMASSOC
  2
AcDbDimAssoc
  3
"AcDbDimAssoc|Product Desc:     AcDim ARX App For Dimension|Company:          Autodesk, Inc.|WEB Address:      www.autodesk.com"
 90
        0
280
     0
281
     0
  0
CLASS
  1
MULTILEADER
  2
AcDbMLeader
  3
ACDB_MLEADER_CLASS
 90
     1025
280
     0
281
     1
  0
CLASS
  1
ACDB_MLEADEROBJECTCONTEXTDATA_CLASS
  2
AcDbMLeaderObjectContextData
  3
ObjectDBX Classes
 90
     1153
280
     0
281
     0
  0
CLASS
  1
XRECORD
  2
AcDbXrecord
  3
ObjectDBX Classes
 90
    32768
280
     0
281
     0
  0
CLASS
  1
HATCH
  2
AcDbHatch
  3
ObjectDBX Classes
 90
    32768
280
     0
281
     1
  0
ENDSEC
  0
SECTION
  2
TABLES
  0
TABLE
  2
VPORT
  5
8
330
0
100
AcDbSymbolTable
 70
     1
  0
VPORT
  5
952D
330
8
100
AcDbSymbolTableRecord
100
AcDbViewportTableRecord
  2
*ACTIVE
 70
     0
 10
0.0
 20
0.0
 11
1.0
 21
1.0
 12
5601.327019056782
 22
-310.6801823495393
 13
0.0
 23
0.0
 14
10.0
 24
10.0
 15
10.0
 25
10.0
 16
0.0
 26
0.0
 36
1.0
 17
0.0
 27
0.0
 37
0.0
 40
206.4261009387354
 41
1.562647754137116
 42
50.0
 43
0.0
 44
0.0
 50
0.0
 51
0.0
 71
    16
 72
   100
 73
     1
 74
     1
 75
     0
 76
     0
 77
     0
 78
     0
1001
ACAD_NAV_VCDISPLAY
1070
     3
  0
ENDTAB
  0
TABLE
  2
LTYPE
  5
5
330
0
100
AcDbSymbolTable
 70
     3
  0
LTYPE
  5
12
330
5
100
AcDbSymbolTableRecord
100
AcDbLinetypeTableRecord
  2
BYBLOCK
 70
     0
  3

 72
    65
 73
     0
 40
0.0
  0
LTYPE
  5
13
330
5
100
AcDbSymbolTableRecord
100
AcDbLinetypeTableRecord
  2
BYLAYER
 70
     0
  3

 72
    65
 73
     0
 40
0.0
  0
LTYPE
  5
14
330
5
100
AcDbSymbolTableRecord
100
AcDbLinetypeTableRecord
  2
CONTINUOUS
 70
     0
  3
Solid line
 72
    65
 73
     0
 40
0.0
  0
LTYPE
  5
9837
330
5
100
AcDbSymbolTableRecord
100
AcDbLinetypeTableRecord
  2
CENTER2
 70
     0
  3
Center (.5x) ___ _ ___ _ ___ _ ___ _ ___ _ ___
 72
    65
 73
     4
 40
28.575
 49
19.05
 74
     0
 49
-3.175
 74
     0
 49
3.175
 74
     0
 49
-3.175
 74
     0
  0
LTYPE
  5
BC86
330
5
100
AcDbSymbolTableRecord
100
AcDbLinetypeTableRecord
  2
PHANTOM2
 70
     0
  3
Phantom (0.5x) ___ _ _ ___ _ _ ___ _ _ ___ _ _
 72
    65
 73
     6
 40
31.75
 49
15.875
 74
     0
 49
-3.175
 74
     0
 49
3.175
 74
     0
 49
-3.175
 74
     0
 49
3.175
 74
     0
 49
-3.175
 74
     0
  0
ENDTAB
  0
TABLE
  2
LAYER
  5
2
102
{ACAD_XDICTIONARY
360
96D9
102
}
330
0
100
AcDbSymbolTable
 70
     6
  0
LAYER
  5
E
102
{ACAD_XDICTIONARY
360
9593
102
}
330
2
100
AcDbSymbolTableRecord
100
AcDbLayerTableRecord
  2
0
 70
     0
 62
     7
  6
CONTINUOUS
  0
LAYER
  5
29
102
{ACAD_XDICTIONARY
360
9595
102
}
330
2
100
AcDbSymbolTableRecord
100
AcDbLayerTableRecord
  2
1CENTER
 70
     0
 62
     7
  6
CENTER2
  0
LAYER
  5
31
102
{ACAD_XDICTIONARY
360
9597
102
}
330
2
100
AcDbSymbolTableRecord
100
AcDbLayerTableRecord
  2
1TEXT
 70
     0
 62
     7
  6
CONTINUOUS
  0
LAYER
  5
243
102
{ACAD_XDICTIONARY
360
959D
102
}
330
2
100
AcDbSymbolTableRecord
100
AcDbLayerTableRecord
  2
01
 70
     0
 62
     1
  6
CONTINUOUS
  0
LAYER
  5
24E
102
{ACAD_XDICTIONARY
360
95A3
102
}
330
2
100
AcDbSymbolTableRecord
100
AcDbLayerTableRecord
  2
1DIM
 70
     0
 62
     7
  6
CONTINUOUS
  0
LAYER
  5
BC83
102
{ACAD_XDICTIONARY
360
BC84
102
}
330
2
100
AcDbSymbolTableRecord
100
AcDbLayerTableRecord
  2
1PHANTOM
 70
     0
 62
     7
  6
PHANTOM2
  0
ENDTAB
  0
TABLE
  2
STYLE
  5
3
330
0
100
AcDbSymbolTable
 70
     2
  0
STYLE
  5
F
330
3
100
AcDbSymbolTableRecord
100
AcDbTextStyleTableRecord
  2
STANDARD
 70
     0
 40
0.0
 41
1.0
 50
0.0
 71
     0
 42
4.0
  3
txt.shx
  4
extfont.shx
  0
STYLE
  5
B8C4
330
3
100
AcDbSymbolTableRecord
100
AcDbTextStyleTableRecord
  2
STANDARD06
 70
     0
 40
0.0
 41
0.6
 50
0.0
 71
     0
 42
4.0
  3
romans.shx
  4
extfont2.shx
1001
ACADANNOTATIVE
1000
AnnotativeData
1002
{
1070
     1
1070
     0
1002
}
  0
ENDTAB
  0
TABLE
  2
VIEW
  5
6
330
0
100
AcDbSymbolTable
 70
     0
  0
ENDTAB
  0
TABLE
  2
UCS
  5
7
330
0
100
AcDbSymbolTable
 70
     0
  0
ENDTAB
  0
TABLE
  2
APPID
  5
9
330
0
100
AcDbSymbolTable
 70
    35
  0
APPID
  5
10
330
9
100
AcDbSymbolTableRecord
100
AcDbRegAppTableRecord
  2
ACAD
 70
     0
  0
APPID
  5
21
330
9
100
AcDbSymbolTableRecord
100
AcDbRegAppTableRecord
  2
DRAWINGVARIABLESXDATA
 70
     0
  0
APPID
  5
64
330
9
100
AcDbSymbolTableRecord
100
AcDbRegAppTableRecord
  2
CONTENTTABDATA
 70
     0
  0
APPID
  5
65
330
9
100
AcDbSymbolTableRecord
100
AcDbRegAppTableRecord
  2
CONTENTCURRENTTAB
 70
     0
  0
APPID
  5
66
330
9
100
AcDbSymbolTableRecord
100
AcDbRegAppTableRecord
  2
CONTENTBLOCKDESCRIPTION
 70
     0
  0
APPID
  5
67
330
9
100
AcDbSymbolTableRecord
100
AcDbRegAppTableRecord
  2
CONTENTBLOCKICON
 70
     0
  0
APPID
  5
68
330
9
100
AcDbSymbolTableRecord
100
AcDbRegAppTableRecord
  2
CONTENTLONGBLOCKNAME
 70
     0
  0
APPID
  5
2AE
330
9
100
AcDbSymbolTableRecord
100
AcDbRegAppTableRecord
  2
ACAD_PSEXT
 70
     0
  0
APPID
  5
9585
330
9
100
AcDbSymbolTableRecord
100
AcDbRegAppTableRecord
  2
ACAD_MLEADERVER
 70
     0
  0
APPID
  5
A2E3
330
9
100
AcDbSymbolTableRecord
100
AcDbRegAppTableRecord
  2
ACADANNOTATIVE
 70
     0
  0
APPID
  5
A2E4
330
9
100
AcDbSymbolTableRecord
100
AcDbRegAppTableRecord
  2
ACDBBLOCKREPETAG
 70
     0
  0
APPID
  5
AD43
330
9
100
AcDbSymbolTableRecord
100
AcDbRegAppTableRecord
  2
ACAECLAYERSTANDARD
 70
     0
  0
APPID
  5
AF26
330
9
100
AcDbSymbolTableRecord
100
AcDbRegAppTableRecord
  2
ACAD_OBJECT_CHANGE_GUID
 70
     0
  0
APPID
  5
AFBD
330
9
100
AcDbSymbolTableRecord
100
AcDbRegAppTableRecord
  2
ACAD_NAV_VCDISPLAY
 70
     0
  0
APPID
  5
B007
330
9
100
AcDbSymbolTableRecord
100
AcDbRegAppTableRecord
  2
ACAD_DSTYLE_DIMJAG
 70
     0
  0
APPID
  5
B008
330
9
100
AcDbSymbolTableRecord
100
AcDbRegAppTableRecord
  2
ACAD_DSTYLE_DIMTALN
 70
     0
  0
APPID
  5
B270
330
9
100
AcDbSymbolTableRecord
100
AcDbRegAppTableRecord
  2
ACAD_EXEMPT_FROM_CAD_STAND
 70
     0
  0
APPID
  5
B2BF
330
9
100
AcDbSymbolTableRecord
100
AcDbRegAppTableRecord
  2
GRADIENTCOLOR1ACI
 70
     0
  0
APPID
  5
B2C0
330
9
100
AcDbSymbolTableRecord
100
AcDbRegAppTableRecord
  2
GRADIENTCOLOR2ACI
 70
     0
  0
APPID
  5
B2C1
330
9
100
AcDbSymbolTableRecord
100
AcDbRegAppTableRecord
  2
ACAD_SPLINE_DATA
 70
     0
  0
APPID
  5
B8C2
330
9
100
AcDbSymbolTableRecord
100
AcDbRegAppTableRecord
  2
ACLAYERTOOLS
 70
     0
  0
APPID
  5
C0CB
330
9
100
AcDbSymbolTableRecord
100
AcDbRegAppTableRecord
  2
ACAD_DSTYLE_DIMRADIAL_EXTE
 70
     0
  0
APPID
  5
C0CD
330
9
100
AcDbSymbolTableRecord
100
AcDbRegAppTableRecord
  2
ACDBDYNAMICBLOCKTRUENAME
 70
     0
  0
APPID
  5
C0CE
330
9
100
AcDbSymbolTableRecord
100
AcDbRegAppTableRecord
  2
ACDBDYNAMICBLOCKGUID
 70
     0
  0
APPID
  5
C0CF
330
9
100
AcDbSymbolTableRecord
100
AcDbRegAppTableRecord
  2
ACDBBLOCKREPBTAG
 70
     0
  0
APPID
  5
C0D0
330
9
100
AcDbSymbolTableRecord
100
AcDbRegAppTableRecord
  2
ACAUTHENVIRON
 70
     0
  0
APPID
  5
C0D1
330
9
100
AcDbSymbolTableRecord
100
AcDbRegAppTableRecord
  2
ACADANNOPO
 70
     0
  0
APPID
  5
C0D5
330
9
100
AcDbSymbolTableRecord
100
AcDbRegAppTableRecord
  2
ACAD_DSTYLE_DIMJOGGED_JOGA
 70
     0
  0
APPID
  5
C0D6
330
9
100
AcDbSymbolTableRecord
100
AcDbRegAppTableRecord
  2
ACAD_DSTYLE_DIM_LINETYPE
 70
     0
  0
APPID
  5
C0D7
330
9
100
AcDbSymbolTableRecord
100
AcDbRegAppTableRecord
  2
ACAD_DSTYLE_DIM_EXT1_LINET
 70
     0
  0
APPID
  5
C0D8
330
9
100
AcDbSymbolTableRecord
100
AcDbRegAppTableRecord
  2
ACAD_DSTYLE_DIM_EXT2_LINET
 70
     0
  0
APPID
  5
C0D9
330
9
100
AcDbSymbolTableRecord
100
AcDbRegAppTableRecord
  2
ACAD_DIMASSOC_CALC_DIMLFAC
 70
     0
  0
APPID
  5
C0DA
330
9
100
AcDbSymbolTableRecord
100
AcDbRegAppTableRecord
  2
ACAD_DIMASSOC_DIMLFAC
 70
     0
  0
APPID
  5
C0DB
330
9
100
AcDbSymbolTableRecord
100
AcDbRegAppTableRecord
  2
ACAD_DIMASSOC_OVERRIDDEN_D
 70
     0
  0
APPID
  5
C0DE
330
9
100
AcDbSymbolTableRecord
100
AcDbRegAppTableRecord
  2
ACADANNOTATIVEDECOMPOSITIO
 70
     0
  0
ENDTAB
  0
TABLE
  2
DIMSTYLE
  5
A
330
0
100
AcDbSymbolTable
 70
     2
  0
DIMSTYLE
105
48
330
A
100
AcDbSymbolTableRecord
100
AcDbDimStyleTableRecord
  2
NEWX10
 70
     0
  3
 
  4

  5

  6
OPEN30
  7
OPEN30
 40
1.0
 41
2.0
 42
0.0
 43
7.0
 44
1.0
 45
0.5
 46
0.0
 47
0.0
 48
0.0
140
3.5
141
0.0
142
0.0
143
25.4
144
1.0
145
0.0
146
0.7
147
0.7
 71
     0
 72
     0
 73
     0
 74
     0
 75
     0
 76
     0
 77
     1
 78
     8
170
     0
171
     2
172
     1
173
     1
174
     0
175
     0
176
   256
177
   256
178
   201
179
     2
270
     2
271
     2
272
     2
273
     2
274
     2
340
F
275
     0
280
     0
281
     0
282
     0
283
     1
284
     8
285
     0
286
     0
287
     2
288
     0
1001
ACAD_DSTYLE_DIMJAG
1070
   388
1040
1.5
1001
ACAD_DSTYLE_DIMTALN
1070
   392
1070
     0
  0
DIMSTYLE
105
B8C0
330
A
100
AcDbSymbolTableRecord
100
AcDbDimStyleTableRecord
  2
ISO-25
 70
     0
  3

  4

  5

  6

  7

 40
1.0
 41
20.0
 42
3.0
 43
3.75
 44
2.0
 45
0.0
 46
0.0
 47
0.0
 48
0.0
140
30.0
141
5.0
142
0.0
143
0.03937
144
1.0
145
0.0
146
1.0
147
8.0
 71
     0
 72
     0
 73
     0
 74
     0
 75
     0
 76
     0
 77
     1
 78
     8
170
     0
171
     3
172
     1
173
     0
174
     0
175
     0
176
     1
177
     1
178
     1
179
     2
270
     2
271
     2
272
     2
273
     2
274
     3
340
F
275
     0
280
     0
281
     0
282
     0
283
     0
284
     8
285
     0
286
     0
287
     3
288
     0
  0
ENDTAB
  0
TABLE
  2
BLOCK_RECORD
  5
1
330
0
100
AcDbSymbolTable
 70
    10
  0
BLOCK_RECORD
  5
18
102
{ACAD_XDICTIONARY
360
88F
102
}
330
1
100
AcDbSymbolTableRecord
100
AcDbBlockTableRecord
  2
*MODEL_SPACE
  0
BLOCK_RECORD
  5
15
330
1
100
AcDbSymbolTableRecord
100
AcDbBlockTableRecord
  2
*PAPER_SPACE
  0
BLOCK_RECORD
  5
42
330
1
100
AcDbSymbolTableRecord
100
AcDbBlockTableRecord
  2
_OPEN30
  0
BLOCK_RECORD
  5
A333
330
1
100
AcDbSymbolTableRecord
100
AcDbBlockTableRecord
  2
A3WAKUKAWAJUN2017_HYOUDAI_
  0
BLOCK_RECORD
  5
B8CA
102
{ACAD_XDICTIONARY
360
B8CB
102
}
330
1
100
AcDbSymbolTableRecord
100
AcDbBlockTableRecord
  2
NO3CIRCLE
1001
ACADANNOTATIVE
1000
AnnotativeData
1002
{
1070
     1
1070
     0
1002
}
  0
BLOCK_RECORD
  5
BA76
102
{ACAD_XDICTIONARY
360
BA77
102
}
330
1
100
AcDbSymbolTableRecord
100
AcDbBlockTableRecord
  2
NOCIRCLE
1001
ACADANNOTATIVE
1000
AnnotativeData
1002
{
1070
     1
1070
     0
1002
}
  0
BLOCK_RECORD
  5
D16C
330
1
100
AcDbSymbolTableRecord
100
AcDbBlockTableRecord
  2
*X131
  0
BLOCK_RECORD
  5
D1BA
330
1
100
AcDbSymbolTableRecord
100
AcDbBlockTableRecord
  2
*X132
  0
BLOCK_RECORD
  5
D20C
330
1
100
AcDbSymbolTableRecord
100
AcDbBlockTableRecord
  2
*X133
  0
BLOCK_RECORD
  5
D25D
330
1
100
AcDbSymbolTableRecord
100
AcDbBlockTableRecord
  2
*X134
  0
BLOCK_RECORD
  5
D29A
330
1
100
AcDbSymbolTableRecord
100
AcDbBlockTableRecord
  2
*X135
  0
BLOCK_RECORD
  5
D2DA
330
1
100
AcDbSymbolTableRecord
100
AcDbBlockTableRecord
  2
*X136
  0
ENDTAB
  0
ENDSEC
  0
SECTION
  2
BLOCKS
  0
BLOCK
  5
19
330
18
100
AcDbEntity
  8
0
100
AcDbBlockBegin
  2
*MODEL_SPACE
 70
     0
 10
0.0
 20
0.0
 30
0.0
  3
*MODEL_SPACE
  1

  0
ENDBLK
  5
1A
330
18
100
AcDbEntity
  8
0
100
AcDbBlockEnd
  0
BLOCK
  5
16
330
15
100
AcDbEntity
 67
     1
  8
0
100
AcDbBlockBegin
  2
*PAPER_SPACE
 70
     0
 10
0.0
 20
0.0
 30
0.0
  3
*PAPER_SPACE
  1

  0
ENDBLK
  5
17
330
15
100
AcDbEntity
 67
     1
  8
0
100
AcDbBlockEnd
  0
BLOCK
  5
43
330
42
100
AcDbEntity
  8
0
100
AcDbBlockBegin
  2
_OPEN30
 70
     0
 10
0.0
 20
0.0
 30
0.0
  3
_OPEN30
  1

  0
LINE
  5
44
330
42
100
AcDbEntity
  8
0
  6
BYBLOCK
 62
     0
100
AcDbLine
 10
-1.0
 20
0.26794919
 30
0.0
 11
0.0
 21
0.0
 31
0.0
  0
LINE
  5
45
330
42
100
AcDbEntity
  8
0
  6
BYBLOCK
 62
     0
100
AcDbLine
 10
0.0
 20
0.0
 30
0.0
 11
-1.0
 21
-0.26794919
 31
0.0
  0
LINE
  5
46
330
42
100
AcDbEntity
  8
0
  6
BYBLOCK
 62
     0
100
AcDbLine
 10
0.0
 20
0.0
 30
0.0
 11
-1.0
 21
0.0
 31
0.0
  0
ENDBLK
  5
47
330
42
100
AcDbEntity
  8
0
100
AcDbBlockEnd
  0
BLOCK
  5
AA56
330
A333
100
AcDbEntity
  8
0
100
AcDbBlockBegin
  2
A3WAKUKAWAJUN2017_HYOUDAI_
 70
     0
 10
0.0
 20
0.0
 30
0.0
  3
A3WAKUKAWAJUN2017_HYOUDAI_
  1

  0
LINE
  5
A335
330
A333
100
AcDbEntity
  8
0
100
AcDbLine
 10
13.26299999998673
 20
-0.0001000000000317
 30
0.0
 11
9.236999999990758
 21
8.999899999990987
 31
0.0
1001
ACAD
1000
ASC_BOUNDS
1002
{
1070
    19
1005
A376
1002
}
  0
LINE
  5
A336
330
A333
100
AcDbEntity
  8
0
100
AcDbLine
 10
5.657999999994331
 20
0.9999999999989768
 30
0.0
 11
9.236999999990758
 21
8.999999999991019
 31
0.0
1001
ACAD
1000
ASC_BOUNDS
1002
{
1070
    19
1005
A376
1002
}
  0
LINE
  5
A337
330
A333
100
AcDbEntity
  8
0
100
AcDbLine
 10
18.59199999998134
 20
-0.2368999999997641
 30
0.0
 11
16.46099999998353
 21
5.432899999994561
 31
0.0
1001
ACAD
1000
ASC_BOUNDS
1002
{
1070
    19
1005
A377
1002
}
  0
LINE
  5
A338
330
A333
100
AcDbEntity
  8
0
100
AcDbLine
 10
18.59199999998134
 20
-0.2368999999997641
 30
0.0
 11
22.38199999997767
 21
8.763099999991255
 31
0.0
1001
ACAD
1000
ASC_BOUNDS
1002
{
1070
    19
1005
A377
1002
}
  0
LINE
  5
A339
330
A333
100
AcDbEntity
  8
0
100
AcDbLine
 10
14.32899999998563
 20
-0.2368999999997641
 30
0.0
 11
16.46099999998353
 21
5.432899999994561
 31
0.0
1001
ACAD
1000
ASC_BOUNDS
1002
{
1070
    19
1005
A377
1002
}
  0
LINE
  5
A33A
330
A333
100
AcDbEntity
  8
0
100
AcDbLine
 10
14.32899999998563
 20
-0.2368999999997641
 30
0.0
 11
10.53899999998941
 21
8.763099999991255
 31
0.0
1001
ACAD
1000
ASC_BOUNDS
1002
{
1070
    19
1005
A377
1002
}
  0
LINE
  5
A33B
330
A333
100
AcDbEntity
  8
0
100
AcDbLine
 10
19.53899999998043
 20
-0.0001000000000317
 30
0.0
 11
23.56599999997638
 21
8.999899999990987
 31
0.0
1001
ACAD
1000
ASC_BOUNDS
1002
{
1070
    19
1005
A378
1002
}
  0
LINE
  5
A33C
330
A333
100
AcDbEntity
  8
0
100
AcDbLine
 10
26.97358892824991
 20
1.383099999991202
 30
0.0
 11
23.56599999997638
 21
8.999899999990987
 31
0.0
1001
ACAD
1000
ASC_BOUNDS
1002
{
1070
    19
1005
A378
1002
}
  0
LINE
  5
A33D
330
A333
100
AcDbEntity
  8
0
100
AcDbLine
 10
5.657999999994331
 20
0.9999999999989768
 30
0.0
 11
3.181999999996833
 21
4.668599999995308
 31
0.0
1001
ACAD
1000
ASC_BOUNDS
1002
{
1070
    19
1005
A376
1002
}
  0
LINE
  5
A33E
330
A333
100
AcDbEntity
  8
0
100
AcDbLine
 10
4.617999999995391
 20
-0.0001000000000317
 30
0.0
 11
1.420999999998571
 21
4.736799999995242
 31
0.0
1001
ACAD
1000
ASC_BOUNDS
1002
{
1070
    19
1005
A376
1002
}
  0
LINE
  5
A33F
330
A333
100
AcDbEntity
  8
0
100
AcDbLine
 10
1.420999999998571
 20
8.763099999991255
 30
0.0
 11
1.420999999998571
 21
0.0
 31
0.0
1001
ACAD
1000
ASC_BOUNDS
1002
{
1070
    19
1005
A37B
1002
}
  0
LINE
  5
A340
330
A333
100
AcDbEntity
  8
0
100
AcDbLine
 10
0.0
 20
8.763099999991255
 30
0.0
 11
0.0
 21
0.0
 31
0.0
1001
ACAD
1000
ASC_BOUNDS
1002
{
1070
    19
1005
A37B
1002
}
  0
LINE
  5
A341
330
A333
100
AcDbEntity
  8
0
100
AcDbLine
 10
6.766999999993232
 20
-0.0001000000000317
 30
0.0
 11
7.826999999992154
 21
2.368399999997621
 31
0.0
1001
ACAD
1000
ASC_BOUNDS
1002
{
1070
    19
1005
A376
1002
}
  0
LINE
  5
A342
330
A333
100
AcDbEntity
  8
0
100
AcDbLine
 10
0.0
 20
0.0
 30
0.0
 11
1.420999999998571
 21
0.0
 31
0.0
1001
ACAD
1000
ASC_BOUNDS
1002
{
1070
    19
1005
A37B
1002
}
  0
LINE
  5
A343
330
A333
100
AcDbEntity
  8
0
100
AcDbLine
 10
4.617999999995391
 20
0.0
 30
0.0
 11
6.766999999993232
 21
0.0
 31
0.0
1001
ACAD
1000
ASC_BOUNDS
1002
{
1070
    19
1005
A376
1002
}
  0
LINE
  5
A344
330
A333
100
AcDbEntity
  8
0
100
AcDbLine
 10
11.70599999998831
 20
-0.0001000000000317
 30
0.0
 11
10.64699999998936
 21
2.368399999997621
 31
0.0
1001
ACAD
1000
ASC_BOUNDS
1002
{
1070
    19
1005
A376
1002
}
  0
LINE
  5
A345
330
A333
100
AcDbEntity
  8
0
100
AcDbLine
 10
7.826999999992154
 20
2.368399999997621
 30
0.0
 11
10.64699999998936
 21
2.368399999997621
 31
0.0
1001
ACAD
1000
ASC_BOUNDS
1002
{
1070
    19
1005
A376
1002
}
  0
LINE
  5
A346
330
A333
100
AcDbEntity
  8
0
100
AcDbLine
 10
11.70599999998831
 20
0.0
 30
0.0
 11
13.26299999998673
 21
0.0
 31
0.0
1001
ACAD
1000
ASC_BOUNDS
1002
{
1070
    19
1005
A376
1002
}
  0
LINE
  5
A347
330
A333
100
AcDbEntity
  8
0
100
AcDbLine
 10
22.15599999997789
 20
2.368399999997621
 30
0.0
 11
24.97599999997499
 21
2.368399999997621
 31
0.0
1001
ACAD
1000
ASC_BOUNDS
1002
{
1070
    19
1005
A378
1002
}
  0
LINE
  5
A348
330
A333
100
AcDbEntity
  8
0
100
AcDbLine
 10
19.53899999998043
 20
0.0
 30
0.0
 11
21.09599999997886
 21
0.0
 31
0.0
1001
ACAD
1000
ASC_BOUNDS
1002
{
1070
    19
1005
A378
1002
}
  0
LINE
  5
A349
330
A333
100
AcDbEntity
  8
0
100
AcDbLine
 10
21.09599999997886
 20
-0.0001000000000317
 30
0.0
 11
22.15599999997789
 21
2.368399999997621
 31
0.0
1001
ACAD
1000
ASC_BOUNDS
1002
{
1070
    19
1005
A378
1002
}
  0
LINE
  5
A34A
330
A333
100
AcDbEntity
  8
0
100
AcDbLine
 10
26.02015566812236
 20
0.0330999999912365
 30
0.0
 11
24.97599999997499
 21
2.368399999997621
 31
0.0
1001
ACAD
1000
ASC_BOUNDS
1002
{
1070
    19
1005
A378
1002
}
  0
LINE
  5
A34B
330
A333
100
AcDbEntity
  8
0
100
AcDbLine
 10
14.32399999998563
 20
3.315799999996671
 30
0.0
 11
16.46099999998353
 21
8.999899999990987
 31
0.0
1001
ACAD
1000
ASC_BOUNDS
1002
{
1070
    19
1005
A377
1002
}
  0
LINE
  5
A34C
330
A333
100
AcDbEntity
  8
0
100
AcDbLine
 10
6.432999999993513
 20
8.763099999991255
 30
0.0
 11
3.181999999996833
 21
4.668599999995308
 31
0.0
1001
ACAD
1000
ASC_BOUNDS
1002
{
1070
    19
1005
A376
1002
}
  0
LINE
  5
A34D
330
A333
100
AcDbEntity
  8
0
100
AcDbLine
 10
4.617999999995391
 20
8.763099999991255
 30
0.0
 11
1.420999999998571
 21
4.736799999995242
 31
0.0
1001
ACAD
1000
ASC_BOUNDS
1002
{
1070
    19
1005
A376
1002
}
  0
LINE
  5
A34E
330
A333
100
AcDbEntity
  8
0
100
AcDbLine
 10
0.0
 20
8.763099999991255
 30
0.0
 11
1.420999999998571
 21
8.763099999991255
 31
0.0
1001
ACAD
1000
ASC_BOUNDS
1002
{
1070
    19
1005
A37B
1002
}
  0
LINE
  5
A34F
330
A333
100
AcDbEntity
  8
0
100
AcDbLine
 10
4.617999999995391
 20
8.763099999991255
 30
0.0
 11
6.432999999993513
 21
8.763099999991255
 31
0.0
1001
ACAD
1000
ASC_BOUNDS
1002
{
1070
    19
1005
A376
1002
}
  0
LINE
  5
A350
330
A333
100
AcDbEntity
  8
0
100
AcDbLine
 10
14.32399999998563
 20
3.315799999996671
 30
0.0
 11
12.02999999998792
 21
8.763099999991255
 31
0.0
1001
ACAD
1000
ASC_BOUNDS
1002
{
1070
    19
1005
A377
1002
}
  0
LINE
  5
A351
330
A333
100
AcDbEntity
  8
0
100
AcDbLine
 10
10.06399999998996
 20
3.670999999996297
 30
0.0
 11
9.236999999990758
 21
5.5200999999945
 31
0.0
1001
ACAD
1000
ASC_BOUNDS
1002
{
1070
    19
1005
A376
1002
}
  0
LINE
  5
A352
330
A333
100
AcDbEntity
  8
0
100
AcDbLine
 10
8.409999999991555
 20
3.670999999996297
 30
0.0
 11
9.236999999990758
 21
5.5200999999945
 31
0.0
1001
ACAD
1000
ASC_BOUNDS
1002
{
1070
    19
1005
A376
1002
}
  0
LINE
  5
A353
330
A333
100
AcDbEntity
  8
0
100
AcDbLine
 10
8.409999999991555
 20
3.670999999996297
 30
0.0
 11
10.06399999998996
 21
3.670999999996297
 31
0.0
1001
ACAD
1000
ASC_BOUNDS
1002
{
1070
    19
1005
A376
1002
}
  0
LINE
  5
A354
330
A333
100
AcDbEntity
  8
0
100
AcDbLine
 10
10.53899999998941
 20
8.763099999991255
 30
0.0
 11
12.02999999998792
 21
8.763099999991255
 31
0.0
1001
ACAD
1000
ASC_BOUNDS
1002
{
1070
    19
1005
A377
1002
}
  0
LINE
  5
A355
330
A333
100
AcDbEntity
  8
0
100
AcDbLine
 10
22.7389999999773
 20
3.670999999996297
 30
0.0
 11
23.56599999997638
 21
5.5200999999945
 31
0.0
1001
ACAD
1000
ASC_BOUNDS
1002
{
1070
    19
1005
A378
1002
}
  0
LINE
  5
A356
330
A333
100
AcDbEntity
  8
0
100
AcDbLine
 10
22.7389999999773
 20
3.670999999996297
 30
0.0
 11
24.39299999997559
 21
3.670999999996297
 31
0.0
1001
ACAD
1000
ASC_BOUNDS
1002
{
1070
    19
1005
A378
1002
}
  0
LINE
  5
A357
330
A333
100
AcDbEntity
  8
0
100
AcDbLine
 10
18.59799999998143
 20
3.315799999996671
 30
0.0
 11
20.89099999997916
 21
8.763099999991255
 31
0.0
1001
ACAD
1000
ASC_BOUNDS
1002
{
1070
    19
1005
A377
1002
}
  0
LINE
  5
A358
330
A333
100
AcDbEntity
  8
0
100
AcDbLine
 10
18.59799999998143
 20
3.315799999996671
 30
0.0
 11
16.46099999998353
 21
8.999899999990987
 31
0.0
1001
ACAD
1000
ASC_BOUNDS
1002
{
1070
    19
1005
A377
1002
}
  0
LINE
  5
A359
330
A333
100
AcDbEntity
  8
0
100
AcDbLine
 10
20.89099999997916
 20
8.763099999991255
 30
0.0
 11
22.38199999997767
 21
8.763099999991255
 31
0.0
1001
ACAD
1000
ASC_BOUNDS
1002
{
1070
    19
1005
A377
1002
}
  0
LINE
  5
A35A
330
A333
100
AcDbEntity
  8
0
100
AcDbLine
 10
24.39299999997559
 20
3.670999999996297
 30
0.0
 11
23.56599999997638
 21
5.5200999999945
 31
0.0
1001
ACAD
1000
ASC_BOUNDS
1002
{
1070
    19
1005
A378
1002
}
  0
LINE
  5
A35B
330
A333
100
AcDbEntity
  8
0
100
AcDbLine
 10
44.99999999995498
 20
-0.2368999999997641
 30
0.0
 11
40.02599999995994
 21
5.341799999994635
 31
0.0
1001
ACAD
1000
ASC_BOUNDS
1002
{
1070
    19
1005
A37A
1002
}
  0
LINE
  5
A35C
330
A333
100
AcDbEntity
  8
0
100
AcDbLine
 10
40.02599999995994
 20
5.341799999994635
 30
0.0
 11
40.02599999995994
 21
0.0
 31
0.0
1001
ACAD
1000
ASC_BOUNDS
1002
{
1070
    19
1005
A37A
1002
}
  0
LINE
  5
A35D
330
A333
100
AcDbEntity
  8
0
100
AcDbLine
 10
38.60499999996136
 20
8.999999999991019
 30
0.0
 11
38.60499999996136
 21
0.0
 31
0.0
1001
ACAD
1000
ASC_BOUNDS
1002
{
1070
    19
1005
A37A
1002
}
  0
LINE
  5
A35E
330
A333
100
AcDbEntity
  8
0
100
AcDbLine
 10
44.99999999995498
 20
8.763099999991255
 30
0.0
 11
44.99999999995498
 21
-0.2368999999997641
 31
0.0
1001
ACAD
1000
ASC_BOUNDS
1002
{
1070
    19
1005
A37A
1002
}
  0
LINE
  5
A35F
330
A333
100
AcDbEntity
  8
0
100
AcDbLine
 10
38.60499999996136
 20
0.0
 30
0.0
 11
40.02599999995994
 21
0.0
 31
0.0
1001
ACAD
1000
ASC_BOUNDS
1002
{
1070
    19
1005
A37A
1002
}
  0
LINE
  5
A360
330
A333
100
AcDbEntity
  8
0
100
AcDbLine
 10
43.57899999995641
 20
3.421199999996588
 30
0.0
 11
38.60499999996136
 21
8.999899999990987
 31
0.0
1001
ACAD
1000
ASC_BOUNDS
1002
{
1070
    19
1005
A37A
1002
}
  0
LINE
  5
A361
330
A333
100
AcDbEntity
  8
0
100
AcDbLine
 10
43.57899999995641
 20
8.763099999991255
 30
0.0
 11
43.57899999995641
 21
3.421199999996588
 31
0.0
1001
ACAD
1000
ASC_BOUNDS
1002
{
1070
    19
1005
A37A
1002
}
  0
LINE
  5
A362
330
A333
100
AcDbEntity
  8
0
100
AcDbLine
 10
43.57899999995641
 20
8.763099999991255
 30
0.0
 11
44.99999999995498
 21
8.763099999991255
 31
0.0
1001
ACAD
1000
ASC_BOUNDS
1002
{
1070
    19
1005
A37A
1002
}
  0
LINE
  5
A363
330
A333
100
AcDbEntity
  8
0
100
AcDbLine
 10
37.67199999996831
 20
8.763099999991255
 30
0.0
 11
36.23199999996837
 21
8.763099999991255
 31
0.0
  0
LINE
  5
A364
330
A333
100
AcDbEntity
  8
0
100
AcDbLine
 10
31.64199999996833
 20
8.763099999991255
 30
0.0
 11
31.64199999996833
 21
2.481619422925121
 31
0.0
  0
LINE
  5
A365
330
A333
100
AcDbEntity
  8
0
100
AcDbLine
 10
37.67199999996831
 20
8.763099999991255
 30
0.0
 11
37.67199999996831
 21
2.481619422925121
 31
0.0
  0
LINE
  5
A366
330
A333
100
AcDbEntity
  8
0
100
AcDbLine
 10
36.23199999996837
 20
8.763099999991255
 30
0.0
 11
36.23199999996837
 21
2.481619422925064
 31
0.0
  0
LINE
  5
A367
330
A333
100
AcDbEntity
  8
0
100
AcDbLine
 10
33.08199999996839
 20
8.763099999991255
 30
0.0
 11
33.08199999996839
 21
2.481619422925121
 31
0.0
  0
ARC
  5
A368
330
A333
100
AcDbEntity
  8
0
100
AcDbCircle
 10
34.65699999996832
 20
3.183099999991214
 30
0.0
 40
3.420000000000007
100
AcDbArc
 50
240.0000000000255
 51
299.9999999999766
  0
ARC
  5
A369
330
A333
100
AcDbEntity
  8
0
100
AcDbCircle
 10
34.65699999996832
 20
3.183099999991214
 30
0.0
 40
1.97999999999999
100
AcDbArc
 50
240.000000000026
 51
299.9999999999703
  0
LINE
  5
A36A
330
A333
100
AcDbEntity
  8
0
100
AcDbLine
 10
33.08199999996828
 20
8.763099999991255
 30
0.0
 11
31.64199999996833
 21
8.763099999991255
 31
0.0
  0
ARC
  5
A36B
330
A333
100
AcDbEntity
  8
0
100
AcDbCircle
 10
35.06199999996829
 20
2.481619422925064
 30
0.0
 40
1.17
100
AcDbArc
 50
299.9999999999699
 51
0.0
  0
ARC
  5
A36C
330
A333
100
AcDbEntity
  8
0
100
AcDbCircle
 10
34.25199999996835
 20
2.481619422925121
 30
0.0
 40
1.17
100
AcDbArc
 50
180.0
 51
240.0000000000238
  0
ARC
  5
A36D
330
A333
100
AcDbEntity
  8
0
100
AcDbCircle
 10
35.06199999996841
 20
2.481619422925121
 30
0.0
 40
2.61
100
AcDbArc
 50
299.9999999999756
 51
0.0
  0
ARC
  5
A36E
330
A333
100
AcDbEntity
  8
0
100
AcDbCircle
 10
34.25199999996835
 20
2.481619422925121
 30
0.0
 40
2.61
100
AcDbArc
 50
180.0
 51
240.0000000000244
  0
LINE
  5
A36F
330
A333
100
AcDbEntity
  8
0
100
AcDbLine
 10
29.30199999996933
 20
8.763099999991255
 30
0.0
 11
30.74199999996927
 21
8.763099999991255
 31
0.0
1001
ACAD
1000
ASC_BOUNDS
1002
{
1070
    19
1005
A378
1002
}
  0
LINE
  5
A370
330
A333
100
AcDbEntity
  8
0
100
AcDbLine
 10
30.74199999996927
 20
8.763099999991255
 30
0.0
 11
30.74199999996927
 21
2.373099999991211
 31
0.0
1001
ACAD
1000
ASC_BOUNDS
1002
{
1070
    19
1005
A378
1002
}
  0
LINE
  5
A371
330
A333
100
AcDbEntity
  8
0
100
AcDbLine
 10
26.02015566812236
 20
0.0330999999912365
 30
0.0
 11
28.40199999996923
 21
0.0330999999912365
 31
0.0
1001
ACAD
1000
ASC_BOUNDS
1002
{
1070
    19
1005
A378
1002
}
  0
LINE
  5
A372
330
A333
100
AcDbEntity
  8
0
100
AcDbLine
 10
29.30199999996933
 20
8.763099999991255
 30
0.0
 11
29.30199999996933
 21
2.283099999991236
 31
0.0
1001
ACAD
1000
ASC_BOUNDS
1002
{
1070
    19
1005
A378
1002
}
  0
LINE
  5
A373
330
A333
100
AcDbEntity
  8
0
100
AcDbLine
 10
26.97358892824991
 20
1.383099999991202
 30
0.0
 11
28.40199999996923
 21
1.383099999991202
 31
0.0
1001
ACAD
1000
ASC_BOUNDS
1002
{
1070
    19
1005
A378
1002
}
  0
ARC
  5
A374
330
A333
100
AcDbEntity
  8
0
100
AcDbCircle
 10
28.40199999996923
 20
2.283099999991236
 30
0.0
 40
0.9
100
AcDbArc
 50
270.0
 51
0.0
1001
ACAD
1000
ASC_BOUNDS
1002
{
1070
    19
1005
A378
1002
}
  0
ARC
  5
A375
330
A333
100
AcDbEntity
  8
0
100
AcDbCircle
 10
28.40199999996923
 20
2.373099999991211
 30
0.0
 40
2.34
100
AcDbArc
 50
270.0
 51
0.0
1001
ACAD
1000
ASC_BOUNDS
1002
{
1070
    19
1005
A378
1002
}
  0
INSERT
  5
A376
330
A333
100
AcDbEntity
  8
0
100
AcDbBlockReference
  2
*X131
 10
0.0
 20
0.0
 30
0.0
1001
ACAD
1000
HATCH
1002
{
1070
    19
1000
ANSI37
1040
0.15
1040
0.0
1000
ASC_BOUNDS
1070
     2
1070
     2
1070
    12
1005
A335
1005
A336
1005
A33D
1005
A34C
1005
A34F
1005
A34D
1005
A33E
1005
A343
1005
A341
1005
A345
1005
A344
1005
A346
1070
     2
1070
     3
1005
A351
1005
A353
1005
A352
1000
ASC_SEEDPOINT
1011
3.614004224891801
1021
2.996669441146025
1031
0.0
1000
R14_HATCH_DATA
1000
A376
1011
1.0
1021
0.0
1031
0.0
1011
0.0
1021
1.0
1031
0.0
1011
0.0
1021
0.0
1031
1.0
1040
0.0
1010
0.0
1020
0.0
1030
1.0
1000
ANSI37
1070
     0
1070
     1
1071
        2
1071
        7
1070
     0
1070
     1
1071
       17
1040
13.26299999998673
1040
-0.0001000000000317
1040
9.236999999990758
1040
8.999899999990987
1040
9.236999999990758
1040
8.999999999991019
1040
5.657999999994331
1040
0.9999999999989768
1040
3.181999999996833
1040
4.668599999995308
1040
6.432999999993513
1040
8.763099999991255
1040
4.617999999995391
1040
8.763099999991255
1040
1.420999999998571
1040
4.736799999995242
1040
4.617999999995391
1040
-0.0001000000000317
1040
4.617999999995391
1040
0.0
1040
6.766999999993232
1040
0.0
1040
6.766999999993232
1040
-0.0001000000000317
1040
7.826999999992154
1040
2.368399999997621
1040
10.64699999998936
1040
2.368399999997621
1040
11.70599999998831
1040
-0.0001000000000317
1040
11.70599999998831
1040
0.0
1040
13.26299999998673
1040
0.0
1071
       12
1005
A335
1005
A336
1005
A33D
1005
A34C
1005
A34F
1005
A34D
1005
A33E
1005
A343
1005
A341
1005
A345
1005
A344
1005
A346
1071
       22
1070
     0
1070
     1
1071
        3
1040
9.236999999990758
1040
5.5200999999945
1040
10.06399999998996
1040
3.670999999996297
1040
8.409999999991555
1040
3.670999999996297
1071
        3
1005
A351
1005
A353
1005
A352
1070
     0
1070
     1
1040
0.0
1040
0.15
1070
     0
1070
     2
1040
0.7853981633974483
1040
49.29960901727088
1040
-10.17736998311392
1040
-0.3367596045400932
1040
0.3367596045400932
1070
     0
1040
2.356194490192345
1040
49.29960901727088
1040
-10.17736998311392
1040
-0.3367596045400932
1040
-0.3367596045400932
1070
     0
1040
0.0110235143455945
1071
        2
1040
3.614004224891801
1040
2.996669441146025
1040
0.0
1040
3.614004224891801
1040
2.996669441146025
1040
0.0
1002
}
  0
INSERT
  5
A377
330
A333
100
AcDbEntity
  8
0
100
AcDbBlockReference
  2
*X132
 10
0.0
 20
0.0
 30
0.0
1001
ACAD
1000
HATCH
1002
{
1070
    19
1000
ANSI37
1040
0.15
1040
0.0
1000
ASC_BOUNDS
1070
     1
1070
     2
1070
    10
1005
A337
1005
A338
1005
A359
1005
A357
1005
A358
1005
A34B
1005
A350
1005
A354
1005
A33A
1005
A339
1000
ASC_SEEDPOINT
1011
14.73245321214324
1021
2.798246178283421
1031
0.0
1000
R14_HATCH_DATA
1000
A377
1011
1.0
1021
0.0
1031
0.0
1011
0.0
1021
1.0
1031
0.0
1011
0.0
1021
0.0
1031
1.0
1040
0.0
1010
0.0
1020
0.0
1030
1.0
1000
ANSI37
1070
     0
1070
     1
1071
        1
1071
        7
1070
     0
1070
     1
1071
       10
1040
16.46099999998353
1040
5.432899999994561
1040
18.59199999998134
1040
-0.2368999999997641
1040
22.38199999997767
1040
8.763099999991255
1040
20.89099999997916
1040
8.763099999991255
1040
18.59799999998143
1040
3.315799999996671
1040
16.46099999998353
1040
8.999899999990987
1040
14.32399999998563
1040
3.315799999996671
1040
12.02999999998792
1040
8.763099999991255
1040
10.53899999998941
1040
8.763099999991255
1040
14.32899999998563
1040
-0.2368999999997641
1071
       10
1005
A337
1005
A338
1005
A359
1005
A357
1005
A358
1005
A34B
1005
A350
1005
A354
1005
A33A
1005
A339
1070
     0
1070
     1
1040
0.0
1040
0.15
1070
     0
1070
     2
1040
0.7853981633974483
1040
49.29960901727088
1040
-10.17736998311392
1040
-0.3367596045400932
1040
0.3367596045400932
1070
     0
1040
2.356194490192345
1040
49.29960901727088
1040
-10.17736998311392
1040
-0.3367596045400932
1040
-0.3367596045400932
1070
     0
1040
0.0110235143455945
1071
        1
1040
14.73245321214324
1040
2.798246178283421
1040
0.0
1002
}
  0
INSERT
  5
A378
330
A333
100
AcDbEntity
  8
0
100
AcDbBlockReference
  2
*X133
 10
0.0
 20
0.0
 30
0.0
1001
ACAD
1000
HATCH
1002
{
1070
    19
1000
ANSI37
1040
0.15
1040
0.0
1000
ASC_BOUNDS
1070
     2
1070
     2
1070
    13
1005
A33B
1005
A348
1005
A349
1005
A347
1005
A34A
1005
A371
1005
A375
1005
A370
1005
A36F
1005
A372
1005
A374
1005
A373
1005
A33C
1070
     2
1070
     3
1005
A355
1005
A35A
1005
A356
1000
ASC_SEEDPOINT
1011
21.97929957367762
1021
3.294304244259308
1031
0.0
1000
R14_HATCH_DATA
1000
A378
1011
1.0
1021
0.0
1031
0.0
1011
0.0
1021
1.0
1031
0.0
1011
0.0
1021
0.0
1031
1.0
1040
0.0
1010
0.0
1020
0.0
1030
1.0
1000
ANSI37
1070
     0
1070
     1
1071
        2
1071
        7
1070
     1
1070
     1
1071
       15
1040
23.56599999997638
1040
8.999899999990987
1040
0.0
1040
19.53899999998043
1040
-0.0001000000000317
1040
0.0
1040
19.53899999998043
1040
0.0
1040
0.0
1040
21.09599999997886
1040
0.0
1040
0.0
1040
21.09599999997886
1040
-0.0001000000000317
1040
0.0
1040
22.15599999997789
1040
2.368399999997621
1040
0.0
1040
24.97599999997499
1040
2.368399999997621
1040
0.0
1040
26.02015566812236
1040
0.0330999999912365
1040
0.0
1040
28.40199999996923
1040
0.0330999999912365
1040
0.414213562373095
1040
30.74199999996923
1040
2.373099999991211
1040
0.0
1040
30.74199999996927
1040
8.763099999991255
1040
0.0
1040
29.30199999996933
1040
8.763099999991255
1040
0.0
1040
29.30199999996933
1040
2.283099999991236
1040
-0.414213562373095
1040
28.40199999996923
1040
1.383099999991237
1040
0.0
1040
26.97358892824991
1040
1.383099999991202
1040
0.0
1071
       13
1005
A33B
1005
A348
1005
A349
1005
A347
1005
A34A
1005
A371
1005
A375
1005
A370
1005
A36F
1005
A372
1005
A374
1005
A373
1005
A33C
1071
       22
1070
     0
1070
     1
1071
        3
1040
22.7389999999773
1040
3.670999999996297
1040
23.56599999997638
1040
5.5200999999945
1040
24.39299999997559
1040
3.670999999996297
1071
        3
1005
A355
1005
A35A
1005
A356
1070
     0
1070
     1
1040
0.0
1040
0.15
1070
     0
1070
     2
1040
0.7853981633974483
1040
49.29960901727088
1040
-10.17736998311392
1040
-0.3367596045400932
1040
0.3367596045400932
1070
     0
1040
2.356194490192345
1040
49.29960901727088
1040
-10.17736998311392
1040
-0.3367596045400932
1040
-0.3367596045400932
1070
     0
1040
0.0110235143455945
1071
        2
1040
21.97929957367762
1040
3.294304244259308
1040
0.0
1040
21.97929957367762
1040
3.294304244259308
1040
0.0
1002
}
  0
INSERT
  5
A379
330
A333
100
AcDbEntity
  8
0
100
AcDbBlockReference
  2
*X134
 10
0.0
 20
0.0
 30
0.0
1001
ACAD
1000
HATCH
1002
{
1070
    19
1000
ANSI37
1040
0.15
1040
0.0
1000
R14_HATCH_DATA
1000
A379
1011
1.0
1021
0.0
1031
0.0
1011
0.0
1021
1.0
1031
0.0
1011
0.0
1021
0.0
1031
1.0
1040
0.0
1010
0.0
1020
0.0
1030
1.0
1000
ANSI37
1070
     0
1070
     1
1071
        1
1071
        7
1070
     1
1070
     1
1071
       12
1040
31.64199999996833
1040
2.481619422925121
1040
0.2679491924310942
1040
32.94699999997067
1040
0.2212931190493919
1040
0.2679491924301353
1040
36.36699999995983
1040
0.2212931190459813
1040
0.2679491924321411
1040
37.67199999996831
1040
2.481619422928361
1040
0.0
1040
37.67199999996831
1040
8.763099999991255
1040
0.0
1040
36.23199999996837
1040
8.763099999991255
1040
0.0
1040
36.23199999996837
1040
2.481619422925064
1040
-0.2679491924310291
1040
35.64699999996708
1040
1.468369700498386
1040
-0.267949192430519
1040
33.66699999997093
1040
1.468369700497703
1040
-0.267949192431809
1040
33.08199999996839
1040
2.481619422926997
1040
0.0
1040
33.08199999996839
1040
8.763099999991255
1040
0.0
1040
31.64199999996833
1040
8.763099999991255
1040
0.0
1071
        0
1070
     0
1070
     1
1040
0.0
1040
0.15
1070
     0
1070
     2
1040
0.7853981633974483
1040
49.29960901727088
1040
-10.17736998311392
1040
-0.3367596045400932
1040
0.3367596045400932
1070
     0
1040
2.356194490192345
1040
49.29960901727088
1040
-10.17736998311392
1040
-0.3367596045400932
1040
-0.3367596045400932
1070
     0
1040
0.0110235143455945
1071
        1
1040
32.30357378967278
1040
3.988785755459219
1040
0.0
1002
}
  0
INSERT
  5
A37A
330
A333
100
AcDbEntity
  8
0
100
AcDbBlockReference
  2
*X135
 10
0.0
 20
0.0
 30
0.0
1001
ACAD
1000
HATCH
1002
{
1070
    19
1000
ANSI37
1040
0.15
1040
0.0
1000
ASC_BOUNDS
1070
     1
1070
     2
1070
     8
1005
A35B
1005
A35E
1005
A362
1005
A361
1005
A360
1005
A35D
1005
A35F
1005
A35C
1000
ASC_SEEDPOINT
1011
39.74896370716704
1021
4.484843821435049
1031
0.0
1000
R14_HATCH_DATA
1000
A37A
1011
1.0
1021
0.0
1031
0.0
1011
0.0
1021
1.0
1031
0.0
1011
0.0
1021
0.0
1031
1.0
1040
0.0
1010
0.0
1020
0.0
1030
1.0
1000
ANSI37
1070
     0
1070
     1
1071
        1
1071
        7
1070
     0
1070
     1
1071
        9
1040
40.02599999995994
1040
5.341799999994635
1040
44.99999999995498
1040
-0.2368999999997641
1040
44.99999999995498
1040
8.763099999991255
1040
43.57899999995641
1040
8.763099999991255
1040
43.57899999995641
1040
3.421199999996588
1040
38.60499999996136
1040
8.999899999990987
1040
38.60499999996136
1040
8.999999999991019
1040
38.60499999996136
1040
0.0
1040
40.02599999995994
1040
0.0
1071
        8
1005
A35B
1005
A35E
1005
A362
1005
A361
1005
A360
1005
A35D
1005
A35F
1005
A35C
1070
     0
1070
     1
1040
0.0
1040
0.15
1070
     0
1070
     2
1040
0.7853981633974483
1040
49.29960901727088
1040
-10.17736998311392
1040
-0.3367596045400932
1040
0.3367596045400932
1070
     0
1040
2.356194490192345
1040
49.29960901727088
1040
-10.17736998311392
1040
-0.3367596045400932
1040
-0.3367596045400932
1070
     0
1040
0.0110235143455945
1071
        1
1040
39.74896370716704
1040
4.484843821435049
1040
0.0
1002
}
  0
INSERT
  5
A37B
330
A333
100
AcDbEntity
  8
0
100
AcDbBlockReference
  2
*X136
 10
0.0
 20
0.0
 30
0.0
1001
ACAD
1000
HATCH
1002
{
1070
    19
1000
ANSI37
1040
0.15
1040
0.0
1000
ASC_BOUNDS
1070
     1
1070
     2
1070
     4
1005
A33F
1005
A34E
1005
A340
1005
A342
1000
ASC_SEEDPOINT
1011
1.079051535452663
1021
4.148538732891836
1031
0.0
1000
R14_HATCH_DATA
1000
A37B
1011
1.0
1021
0.0
1031
0.0
1011
0.0
1021
1.0
1031
0.0
1011
0.0
1021
0.0
1031
1.0
1040
0.0
1010
0.0
1020
0.0
1030
1.0
1000
ANSI37
1070
     0
1070
     1
1071
        1
1071
        7
1070
     0
1070
     1
1071
        4
1040
1.420999999998571
1040
0.0
1040
1.420999999998571
1040
8.763099999991255
1040
0.0
1040
8.763099999991255
1040
0.0
1040
0.0
1071
        4
1005
A33F
1005
A34E
1005
A340
1005
A342
1070
     0
1070
     1
1040
0.0
1040
0.15
1070
     0
1070
     2
1040
0.7853981633974483
1040
49.29960901727088
1040
-10.17736998311392
1040
-0.3367596045400932
1040
0.3367596045400932
1070
     0
1040
2.356194490192345
1040
49.29960901727088
1040
-10.17736998311392
1040
-0.3367596045400932
1040
-0.3367596045400932
1070
     0
1040
0.0053004257112761
1071
        1
1040
1.079051535452663
1040
4.148538732891836
1040
0.0
1002
}
  0
ENDBLK
  5
AA57
330
A333
100
AcDbEntity
  8
0
100
AcDbBlockEnd
  0
BLOCK
  5
BAAE
330
B8CA
100
AcDbEntity
  8
0
100
AcDbBlockBegin
  2
NO3CIRCLE
 70
     2
 10
0.0
 20
0.0
 30
0.0
  3
NO3CIRCLE
  1

  0
CIRCLE
  5
B8CE
330
B8CA
100
AcDbEntity
  8
0
  6
BYBLOCK
 62
     0
100
AcDbCircle
 10
0.0
 20
0.0
 30
0.0
 40
4.2
  0
ATTDEF
  5
B8CF
330
B8CA
100
AcDbEntity
  8
1TEXT
100
AcDbText
 10
-3.428571428571428
 20
-2.0
 30
0.0
 40
4.0
  1
000
 41
0.6
  7
STANDARD06
 72
     4
 11
0.0
 21
0.0
 31
0.0
100
AcDbAttributeDefinition
  3
NO3
  2
NO3
 70
     0
  0
ENDBLK
  5
BAAF
330
B8CA
100
AcDbEntity
  8
0
100
AcDbBlockEnd
  0
BLOCK
  5
BAB0
330
BA76
100
AcDbEntity
  8
0
100
AcDbBlockBegin
  2
NOCIRCLE
 70
     2
 10
0.0
 20
0.0
 30
0.0
  3
NOCIRCLE
  1

  0
CIRCLE
  5
BA7A
330
BA76
100
AcDbEntity
  8
0
  6
BYBLOCK
 62
     0
100
AcDbCircle
 10
0.0
 20
0.0
 30
0.0
 40
4.2
  0
ATTDEF
  5
BA7B
330
BA76
100
AcDbEntity
  8
1TEXT
100
AcDbText
 10
-1.904761904761876
 20
-2.0
 30
0.0
 40
4.0
  1
0
 72
     4
 11
0.0
 21
0.0
 31
0.0
100
AcDbAttributeDefinition
  3
NO.
  2
NO
 70
     0
  0
ENDBLK
  5
BAB1
330
BA76
100
AcDbEntity
  8
0
100
AcDbBlockEnd
  0
BLOCK
  5
D2FA
330
D16C
100
AcDbEntity
  8
0
100
AcDbBlockBegin
  2
*X131
 70
     1
 10
0.0
 20
0.0
 30
0.0
  3
*X131
  1

  0
LINE
  5
D16D
330
D16C
100
AcDbEntity
  8
0
  6
CONTINUOUS
100
AcDbLine
 10
3.418023043697893
 20
7.251849696850613
 30
0.0
 11
4.929273346838536
 21
8.763099999991255
 31
0.0
  0
LINE
  5
D16E
330
D16C
100
AcDbEntity
  8
0
  6
CONTINUOUS
100
AcDbLine
 10
1.483656411257782
 20
4.643963855330318
 30
0.0
 11
5.60279255591872
 21
8.763099999991255
 31
0.0
  0
LINE
  5
D16F
330
D16C
100
AcDbEntity
  8
0
  6
CONTINUOUS
100
AcDbLine
 10
1.755053947328235
 20
4.241842182320584
 30
0.0
 11
6.276311764998907
 21
8.763099999991255
 31
0.0
  0
LINE
  5
D170
330
D16C
100
AcDbEntity
  8
0
  6
CONTINUOUS
100
AcDbLine
 10
2.026451483398688
 20
3.839720509310849
 30
0.0
 11
4.441040904851878
 21
6.254309930764039
 31
0.0
  0
LINE
  5
D171
330
D16C
100
AcDbEntity
  8
0
  6
CONTINUOUS
100
AcDbLine
 10
2.297849019469139
 20
3.437598836301114
 30
0.0
 11
3.321765168359338
 21
4.461514985191313
 31
0.0
  0
LINE
  5
D172
330
D16C
100
AcDbEntity
  8
0
  6
CONTINUOUS
100
AcDbLine
 10
2.569246555539591
 20
3.03547716329138
 30
0.0
 11
3.593163397972743
 21
4.059394005724531
 31
0.0
  0
LINE
  5
D173
330
D16C
100
AcDbEntity
  8
0
  6
CONTINUOUS
100
AcDbLine
 10
2.840644091610043
 20
2.633355490281646
 30
0.0
 11
3.864561627586149
 21
3.657273026257751
 31
0.0
  0
LINE
  5
D174
330
D16C
100
AcDbEntity
  8
0
  6
CONTINUOUS
100
AcDbLine
 10
3.112041627680496
 20
2.231233817271911
 30
0.0
 11
4.135959857199554
 21
3.25515204679097
 31
0.0
  0
LINE
  5
D175
330
D16C
100
AcDbEntity
  8
0
  6
CONTINUOUS
100
AcDbLine
 10
3.383439163750948
 20
1.829112144262177
 30
0.0
 11
4.40735808681296
 21
2.853031067324189
 31
0.0
  0
LINE
  5
D176
330
D16C
100
AcDbEntity
  8
0
  6
CONTINUOUS
100
AcDbLine
 10
3.654836699821399
 20
1.426990471252442
 30
0.0
 11
4.678756316426365
 21
2.450910087857407
 31
0.0
  0
LINE
  5
D177
330
D16C
100
AcDbEntity
  8
0
  6
CONTINUOUS
100
AcDbLine
 10
3.926234235891853
 20
1.024868798242709
 30
0.0
 11
4.95015454603977
 21
2.048789108390626
 31
0.0
  0
LINE
  5
D178
330
D16C
100
AcDbEntity
  8
0
  6
CONTINUOUS
100
AcDbLine
 10
4.197631771962304
 20
0.6227471252329737
 30
0.0
 11
5.221552775653176
 21
1.646668128923846
 31
0.0
  0
LINE
  5
D179
330
D16C
100
AcDbEntity
  8
0
  6
CONTINUOUS
100
AcDbLine
 10
8.715877546767851
 20
7.835069736359266
 30
0.0
 11
9.435953450375058
 21
8.555145639966472
 31
0.0
  0
LINE
  5
D17A
330
D16C
100
AcDbEntity
  8
0
  6
CONTINUOUS
100
AcDbLine
 10
8.170620868422267
 20
6.616293848933497
 30
0.0
 11
9.644120833743461
 21
8.08979381425469
 31
0.0
  0
LINE
  5
D17B
330
D16C
100
AcDbEntity
  8
0
  6
CONTINUOUS
100
AcDbLine
 10
7.625364190076684
 20
5.397517961507727
 30
0.0
 11
9.852288217111864
 21
7.624441988542907
 31
0.0
  0
LINE
  5
D17C
330
D16C
100
AcDbEntity
  8
0
  6
CONTINUOUS
100
AcDbLine
 10
7.080107511731101
 20
4.178742074081957
 30
0.0
 11
10.06045560048027
 21
7.159090162831124
 31
0.0
  0
LINE
  5
D17D
330
D16C
100
AcDbEntity
  8
0
  6
CONTINUOUS
100
AcDbLine
 10
6.534850833385518
 20
2.959966186656187
 30
0.0
 11
10.26862298384867
 21
6.693738337119342
 31
0.0
  0
LINE
  5
D17E
330
D16C
100
AcDbEntity
  8
0
  6
CONTINUOUS
100
AcDbLine
 10
4.469029308032756
 20
0.2206254522232385
 30
0.0
 11
5.492951005266582
 21
1.244547149457064
 31
0.0
  0
LINE
  5
D17F
330
D16C
100
AcDbEntity
  8
0
  6
CONTINUOUS
100
AcDbLine
 10
5.989594155039935
 20
1.741190299230417
 30
0.0
 11
8.806950407233131
 21
4.558546551423613
 31
0.0
  0
LINE
  5
D180
330
D16C
100
AcDbEntity
  8
0
  6
CONTINUOUS
100
AcDbLine
 10
9.401251593263643
 20
5.152847737454126
 30
0.0
 11
10.47679036721708
 21
6.228386511407559
 31
0.0
  0
LINE
  5
D181
330
D16C
100
AcDbEntity
  8
0
  6
CONTINUOUS
100
AcDbLine
 10
4.921837203428691
 20
-0.0000858614610131
 30
0.0
 11
8.592923064886001
 21
3.670999999996297
 31
0.0
  0
LINE
  5
D182
330
D16C
100
AcDbEntity
  8
0
  6
CONTINUOUS
100
AcDbLine
 10
9.609390446785305
 20
4.6874673818956
 30
0.0
 11
10.68495775058548
 21
5.763034685695775
 31
0.0
  0
LINE
  5
D183
330
D16C
100
AcDbEntity
  8
0
  6
CONTINUOUS
100
AcDbLine
 10
5.595387755019432
 20
-0.0000545189504582
 30
0.0
 11
7.716137258923768
 21
2.120694984953879
 31
0.0
  0
LINE
  5
D184
330
D16C
100
AcDbEntity
  8
0
  6
CONTINUOUS
100
AcDbLine
 10
6.268938306610172
 20
-0.000023176439905
 30
0.0
 11
7.170485805526503
 21
0.9015243224764267
 31
0.0
  0
LINE
  5
D185
330
D16C
100
AcDbEntity
  8
0
  6
CONTINUOUS
100
AcDbLine
 10
7.963842273967511
 20
2.368399999997621
 30
0.0
 11
9.266442273966188
 21
3.670999999996297
 31
0.0
  0
LINE
  5
D186
330
D16C
100
AcDbEntity
  8
0
  6
CONTINUOUS
100
AcDbLine
 10
8.637361483047696
 20
2.368399999997621
 30
0.0
 11
9.939961483046375
 21
3.670999999996297
 31
0.0
  0
LINE
  5
D187
330
D16C
100
AcDbEntity
  8
0
  6
CONTINUOUS
100
AcDbLine
 10
9.817529300306965
 20
4.222087026337075
 30
0.0
 11
10.89312513395388
 21
5.297682859983993
 31
0.0
  0
LINE
  5
D188
330
D16C
100
AcDbEntity
  8
0
  6
CONTINUOUS
100
AcDbLine
 10
10.02566815382863
 20
3.756706670778549
 30
0.0
 11
11.10129251732229
 21
4.832331034272211
 31
0.0
  0
LINE
  5
D189
330
D16C
100
AcDbEntity
  8
0
  6
CONTINUOUS
100
AcDbLine
 10
9.310880692127883
 20
2.368399999997621
 30
0.0
 11
11.30945990069069
 21
4.366979208560428
 31
0.0
  0
LINE
  5
D18A
330
D16C
100
AcDbEntity
  8
0
  6
CONTINUOUS
100
AcDbLine
 10
9.98439990120807
 20
2.36839999999762
 30
0.0
 11
11.5176272840591
 21
3.901627382848645
 31
0.0
  0
LINE
  5
D18B
330
D16C
100
AcDbEntity
  8
0
  6
CONTINUOUS
100
AcDbLine
 10
10.65037369446246
 20
2.36085458417182
 30
0.0
 11
11.7257946674275
 21
3.436275557136862
 31
0.0
  0
LINE
  5
D18C
330
D16C
100
AcDbEntity
  8
0
  6
CONTINUOUS
100
AcDbLine
 10
10.85847197087848
 20
1.895433651507656
 30
0.0
 11
11.9339620507959
 21
2.97092373142508
 31
0.0
  0
LINE
  5
D18D
330
D16C
100
AcDbEntity
  8
0
  6
CONTINUOUS
100
AcDbLine
 10
11.0665702472945
 20
1.430012718843491
 30
0.0
 11
12.14212943416431
 21
2.505571905713296
 31
0.0
  0
LINE
  5
D18E
330
D16C
100
AcDbEntity
  8
0
  6
CONTINUOUS
100
AcDbLine
 10
11.27466852371052
 20
0.9645917861793256
 30
0.0
 11
12.35029681753271
 21
2.040220080001513
 31
0.0
  0
LINE
  5
D18F
330
D16C
100
AcDbEntity
  8
0
  6
CONTINUOUS
100
AcDbLine
 10
11.48276680012654
 20
0.4991708535151611
 30
0.0
 11
12.55846420090111
 21
1.57486825428973
 31
0.0
  0
LINE
  5
D190
330
D16C
100
AcDbEntity
  8
0
  6
CONTINUOUS
100
AcDbLine
 10
11.69086507654257
 20
0.0337499208509957
 30
0.0
 11
12.76663158426952
 21
1.109516428577947
 31
0.0
  0
LINE
  5
D191
330
D16C
100
AcDbEntity
  8
0
  6
CONTINUOUS
100
AcDbLine
 10
12.33057447873954
 20
-0.0000598860322123
 30
0.0
 11
12.97479896763792
 21
0.6441646028661663
 31
0.0
  0
LINE
  5
D192
330
D16C
100
AcDbEntity
  8
0
  6
CONTINUOUS
100
AcDbLine
 10
13.00413694809395
 20
-0.0000166257579952
 30
0.0
 11
13.18296635100632
 21
0.1788127771543824
 31
0.0
  0
LINE
  5
D193
330
D16C
100
AcDbEntity
  8
0
  6
CONTINUOUS
100
AcDbLine
 10
4.772852165289667
 20
-0.000092794222212
 30
0.0
 11
4.296495091028902
 21
0.4762642800385528
 31
0.0
  0
LINE
  5
D194
330
D16C
100
AcDbEntity
  8
0
  6
CONTINUOUS
100
AcDbLine
 10
5.446340034776103
 20
-0.0000614546284616
 30
0.0
 11
2.898195908335625
 21
2.548082671812017
 31
0.0
  0
LINE
  5
D195
330
D16C
100
AcDbEntity
  8
0
  6
CONTINUOUS
100
AcDbLine
 10
6.119827904262539
 20
-0.0000301150347113
 30
0.0
 11
1.499896725642348
 21
4.61990106358548
 31
0.0
  0
LINE
  5
D196
330
D16C
100
AcDbEntity
  8
0
  6
CONTINUOUS
100
AcDbLine
 10
6.775136745476159
 20
0.0181802528318542
 30
0.0
 11
5.699826040202669
 21
1.093490958105344
 31
0.0
  0
LINE
  5
D197
330
D16C
100
AcDbEntity
  8
0
  6
CONTINUOUS
100
AcDbLine
 10
6.983376846288489
 20
0.4834593610997118
 30
0.0
 11
5.908008617934405
 21
1.558827589453796
 31
0.0
  0
LINE
  5
D198
330
D16C
100
AcDbEntity
  8
0
  6
CONTINUOUS
100
AcDbLine
 10
5.377063484962296
 20
1.416253513345719
 30
0.0
 11
1.702276957014131
 21
5.091040041293883
 31
0.0
  0
LINE
  5
D199
330
D16C
100
AcDbEntity
  8
0
  6
CONTINUOUS
100
AcDbLine
 10
3.978745891735324
 20
3.488090315652877
 30
0.0
 11
2.000373521109399
 21
5.466462686278803
 31
0.0
  0
LINE
  5
D19A
330
D16C
100
AcDbEntity
  8
0
  6
CONTINUOUS
100
AcDbLine
 10
7.191616947100819
 20
0.948738469367568
 30
0.0
 11
6.11619119566614
 21
2.024164220802247
 31
0.0
  0
LINE
  5
D19B
330
D16C
100
AcDbEntity
  8
0
  6
CONTINUOUS
100
AcDbLine
 10
7.399857047913149
 20
1.414017577635424
 30
0.0
 11
6.324373773397875
 21
2.489500852150698
 31
0.0
  0
LINE
  5
D19C
330
D16C
100
AcDbEntity
  8
0
  6
CONTINUOUS
100
AcDbLine
 10
7.608097148725479
 20
1.879296685903281
 30
0.0
 11
6.53255635112961
 21
2.95483748349915
 31
0.0
  0
LINE
  5
D19D
330
D16C
100
AcDbEntity
  8
0
  6
CONTINUOUS
100
AcDbLine
 10
7.816337249537808
 20
2.344575794171138
 30
0.0
 11
6.740738928861345
 21
3.420174114847601
 31
0.0
  0
LINE
  5
D19E
330
D16C
100
AcDbEntity
  8
0
  6
CONTINUOUS
100
AcDbLine
 10
3.310241080789734
 20
4.830114335678653
 30
0.0
 11
2.298470085204666
 21
5.84188533126372
 31
0.0
  0
LINE
  5
D19F
330
D16C
100
AcDbEntity
  8
0
  6
CONTINUOUS
100
AcDbLine
 10
3.60832983563551
 20
5.205544789913063
 30
0.0
 11
2.596566649299935
 21
6.217307976248638
 31
0.0
  0
LINE
  5
D1A0
330
D16C
100
AcDbEntity
  8
0
  6
CONTINUOUS
100
AcDbLine
 10
3.906418590481286
 20
5.580975244147473
 30
0.0
 11
2.894663213395203
 21
6.592730621233557
 31
0.0
  0
LINE
  5
D1A1
330
D16C
100
AcDbEntity
  8
0
  6
CONTINUOUS
100
AcDbLine
 10
4.204507345327062
 20
5.956405698381884
 30
0.0
 11
3.192759777490472
 21
6.968153266218474
 31
0.0
  0
LINE
  5
D1A2
330
D16C
100
AcDbEntity
  8
0
  6
CONTINUOUS
100
AcDbLine
 10
8.466032252791512
 20
2.368399999997621
 30
0.0
 11
6.948921506593081
 21
3.885510746196053
 31
0.0
  0
LINE
  5
D1A3
330
D16C
100
AcDbEntity
  8
0
  6
CONTINUOUS
100
AcDbLine
 10
9.139551461871699
 20
2.36839999999762
 30
0.0
 11
7.157104084324816
 21
4.350847377544504
 31
0.0
  0
LINE
  5
D1A4
330
D16C
100
AcDbEntity
  8
0
  6
CONTINUOUS
100
AcDbLine
 10
4.502596100172839
 20
6.331836152616295
 30
0.0
 11
3.49085634158574
 21
7.343575911203393
 31
0.0
  0
LINE
  5
D1A5
330
D16C
100
AcDbEntity
  8
0
  6
CONTINUOUS
100
AcDbLine
 10
4.800684855018615
 20
6.707266606850705
 30
0.0
 11
3.788952905681008
 21
7.718998556188312
 31
0.0
  0
LINE
  5
D1A6
330
D16C
100
AcDbEntity
  8
0
  6
CONTINUOUS
100
AcDbLine
 10
12.18154012887317
 20
-0.0000694579236642
 30
0.0
 11
11.32140332908496
 21
0.8600673418645499
 31
0.0
  0
LINE
  5
D1A7
330
D16C
100
AcDbEntity
  8
0
  6
CONTINUOUS
100
AcDbLine
 10
12.85501608323566
 20
-0.0000262032059659
 30
0.0
 11
10.77672456435345
 21
2.078265315676246
 31
0.0
  0
LINE
  5
D1A8
330
D16C
100
AcDbEntity
  8
0
  6
CONTINUOUS
100
AcDbLine
 10
9.813070670951886
 20
2.36839999999762
 30
0.0
 11
8.51047067095321
 21
3.670999999996297
 31
0.0
  0
LINE
  5
D1A9
330
D16C
100
AcDbEntity
  8
0
  6
CONTINUOUS
100
AcDbLine
 10
10.48658988003207
 20
2.36839999999762
 30
0.0
 11
9.183989880033396
 21
3.670999999996297
 31
0.0
  0
LINE
  5
D1AA
330
D16C
100
AcDbEntity
  8
0
  6
CONTINUOUS
100
AcDbLine
 10
8.441048632286794
 20
3.740422038662712
 30
0.0
 11
7.365286662056551
 21
4.816184008892956
 31
0.0
  0
LINE
  5
D1AB
330
D16C
100
AcDbEntity
  8
0
  6
CONTINUOUS
100
AcDbLine
 10
8.649187485808454
 20
4.205802394221237
 30
0.0
 11
7.573469239788285
 21
5.281520640241407
 31
0.0
  0
LINE
  5
D1AC
330
D16C
100
AcDbEntity
  8
0
  6
CONTINUOUS
100
AcDbLine
 10
5.098773609864391
 20
7.082697061085115
 30
0.0
 11
4.087049469776277
 21
8.09442120117323
 31
0.0
  0
LINE
  5
D1AD
330
D16C
100
AcDbEntity
  8
0
  6
CONTINUOUS
100
AcDbLine
 10
5.396862364710167
 20
7.458127515319526
 30
0.0
 11
4.385146033871544
 21
8.469843846158149
 31
0.0
  0
LINE
  5
D1AE
330
D16C
100
AcDbEntity
  8
0
  6
CONTINUOUS
100
AcDbLine
 10
13.04801363231285
 20
0.4804954567970334
 30
0.0
 11
9.85750908911358
 21
3.670999999996297
 31
0.0
  0
LINE
  5
D1AF
330
D16C
100
AcDbEntity
  8
0
  6
CONTINUOUS
100
AcDbLine
 10
8.857326339330116
 20
4.671182749779763
 30
0.0
 11
7.781651817520021
 21
5.746857271589858
 31
0.0
  0
LINE
  5
D1B0
330
D16C
100
AcDbEntity
  8
0
  6
CONTINUOUS
100
AcDbLine
 10
5.694951119555943
 20
7.833557969553937
 30
0.0
 11
4.765409089118624
 21
8.763099999991255
 31
0.0
  0
LINE
  5
D1B1
330
D16C
100
AcDbEntity
  8
0
  6
CONTINUOUS
100
AcDbLine
 10
12.50286117236978
 20
1.699167125820288
 30
0.0
 11
9.68611877250287
 21
4.515909525687196
 31
0.0
  0
LINE
  5
D1B2
330
D16C
100
AcDbEntity
  8
0
  6
CONTINUOUS
100
AcDbLine
 10
9.065465192851777
 20
5.136563105338288
 30
0.0
 11
7.989834395251757
 21
6.21219390293831
 31
0.0
  0
LINE
  5
D1B3
330
D16C
100
AcDbEntity
  8
0
  6
CONTINUOUS
100
AcDbLine
 10
5.993039874401719
 20
8.208988423788346
 30
0.0
 11
5.43892829819881
 21
8.763099999991255
 31
0.0
  0
LINE
  5
D1B4
330
D16C
100
AcDbEntity
  8
0
  6
CONTINUOUS
100
AcDbLine
 10
11.95770871242671
 20
2.917838794843543
 30
0.0
 11
8.19801697298349
 21
6.677530534286761
 31
0.0
  0
LINE
  5
D1B5
330
D16C
100
AcDbEntity
  8
0
  6
CONTINUOUS
100
AcDbLine
 10
6.291128629247495
 20
8.584418878022756
 30
0.0
 11
6.112447507278997
 21
8.763099999991255
 31
0.0
  0
LINE
  5
D1B6
330
D16C
100
AcDbEntity
  8
0
  6
CONTINUOUS
100
AcDbLine
 10
11.41255625248364
 20
4.136510463866797
 30
0.0
 11
8.406199550715227
 21
7.142867165635211
 31
0.0
  0
LINE
  5
D1B7
330
D16C
100
AcDbEntity
  8
0
  6
CONTINUOUS
100
AcDbLine
 10
10.86740379254057
 20
5.355182132890051
 30
0.0
 11
8.614382128446962
 21
7.608203796983664
 31
0.0
  0
LINE
  5
D1B8
330
D16C
100
AcDbEntity
  8
0
  6
CONTINUOUS
100
AcDbLine
 10
10.3222513325975
 20
6.573853801913305
 30
0.0
 11
8.822564706178696
 21
8.073540428332114
 31
0.0
  0
LINE
  5
D1B9
330
D16C
100
AcDbEntity
  8
0
  6
CONTINUOUS
100
AcDbLine
 10
9.777098872654436
 20
7.792525470936562
 30
0.0
 11
9.030747283910433
 21
8.538877059680566
 31
0.0
  0
ENDBLK
  5
D2FB
330
D16C
100
AcDbEntity
  8
0
100
AcDbBlockEnd
  0
BLOCK
  5
D2FC
330
D1BA
100
AcDbEntity
  8
0
100
AcDbBlockBegin
  2
*X132
 70
     1
 10
0.0
 20
0.0
 30
0.0
  3
*X132
  1

  0
LINE
  5
D1BB
330
D1BA
100
AcDbEntity
  8
0
  6
CONTINUOUS
100
AcDbLine
 10
10.67292308101235
 20
8.445076852443387
 30
0.0
 11
10.99094622856022
 21
8.763099999991255
 31
0.0
  0
LINE
  5
D1BC
330
D1BA
100
AcDbEntity
  8
0
  6
CONTINUOUS
100
AcDbLine
 10
10.87250383178748
 20
7.971138394138331
 30
0.0
 11
11.6644654376404
 21
8.763099999991255
 31
0.0
  0
LINE
  5
D1BD
330
D1BA
100
AcDbEntity
  8
0
  6
CONTINUOUS
100
AcDbLine
 10
11.07208458256261
 20
7.497199935833273
 30
0.0
 11
12.12126590876355
 21
8.546381262034211
 31
0.0
  0
LINE
  5
D1BE
330
D1BA
100
AcDbEntity
  8
0
  6
CONTINUOUS
100
AcDbLine
 10
11.27166533333774
 20
7.023261477528216
 30
0.0
 11
12.32085164573666
 21
8.072447789927136
 31
0.0
  0
LINE
  5
D1BF
330
D1BA
100
AcDbEntity
  8
0
  6
CONTINUOUS
100
AcDbLine
 10
11.47124608411287
 20
6.549323019223158
 30
0.0
 11
12.52043738270977
 21
7.59851431782006
 31
0.0
  0
LINE
  5
D1C0
330
D1BA
100
AcDbEntity
  8
0
  6
CONTINUOUS
100
AcDbLine
 10
11.670826834888
 20
6.075384560918101
 30
0.0
 11
12.72002311968288
 21
7.124580845712984
 31
0.0
  0
LINE
  5
D1C1
330
D1BA
100
AcDbEntity
  8
0
  6
CONTINUOUS
100
AcDbLine
 10
11.87040758566313
 20
5.601446102613043
 30
0.0
 11
12.91960885665599
 21
6.650647373605907
 31
0.0
  0
LINE
  5
D1C2
330
D1BA
100
AcDbEntity
  8
0
  6
CONTINUOUS
100
AcDbLine
 10
12.06998833643825
 20
5.127507644307986
 30
0.0
 11
13.1191945936291
 21
6.176713901498832
 31
0.0
  0
LINE
  5
D1C3
330
D1BA
100
AcDbEntity
  8
0
  6
CONTINUOUS
100
AcDbLine
 10
12.26956908721338
 20
4.65356918600293
 30
0.0
 11
13.31878033060221
 21
5.702780429391757
 31
0.0
  0
LINE
  5
D1C4
330
D1BA
100
AcDbEntity
  8
0
  6
CONTINUOUS
100
AcDbLine
 10
12.46914983798851
 20
4.179630727697873
 30
0.0
 11
13.51836606757532
 21
5.228846957284683
 31
0.0
  0
LINE
  5
D1C5
330
D1BA
100
AcDbEntity
  8
0
  6
CONTINUOUS
100
AcDbLine
 10
12.66873058876364
 20
3.705692269392816
 30
0.0
 11
13.71795180454843
 21
4.754913485177607
 31
0.0
  0
LINE
  5
D1C6
330
D1BA
100
AcDbEntity
  8
0
  6
CONTINUOUS
100
AcDbLine
 10
12.86831133953877
 20
3.231753811087759
 30
0.0
 11
13.91753754152154
 21
4.280980013070531
 31
0.0
  0
LINE
  5
D1C7
330
D1BA
100
AcDbEntity
  8
0
  6
CONTINUOUS
100
AcDbLine
 10
13.0678920903139
 20
2.757815352782702
 30
0.0
 11
14.11712327849465
 21
3.807046540963456
 31
0.0
  0
LINE
  5
D1C8
330
D1BA
100
AcDbEntity
  8
0
  6
CONTINUOUS
100
AcDbLine
 10
13.26747284108903
 20
2.283876894477644
 30
0.0
 11
14.31670901546777
 21
3.333113068856379
 31
0.0
  0
LINE
  5
D1C9
330
D1BA
100
AcDbEntity
  8
0
  6
CONTINUOUS
100
AcDbLine
 10
16.36767838827179
 20
8.751678487061342
 30
0.0
 11
16.50332410898388
 21
8.887324207773432
 31
0.0
  0
LINE
  5
D1CA
330
D1BA
100
AcDbEntity
  8
0
  6
CONTINUOUS
100
AcDbLine
 10
15.96190732182191
 20
7.67238821153127
 30
0.0
 11
16.68735328004734
 21
8.397834169756699
 31
0.0
  0
LINE
  5
D1CB
330
D1BA
100
AcDbEntity
  8
0
  6
CONTINUOUS
100
AcDbLine
 10
15.55613625537202
 20
6.593097936001196
 30
0.0
 11
16.87138245111079
 21
7.908344131739965
 31
0.0
  0
LINE
  5
D1CC
330
D1BA
100
AcDbEntity
  8
0
  6
CONTINUOUS
100
AcDbLine
 10
15.15036518892213
 20
5.513807660471122
 30
0.0
 11
17.05541162217424
 21
7.418854093723231
 31
0.0
  0
LINE
  5
D1CD
330
D1BA
100
AcDbEntity
  8
0
  6
CONTINUOUS
100
AcDbLine
 10
14.74459412247225
 20
4.434517384941048
 30
0.0
 11
17.2394407932377
 21
6.929364055706499
 31
0.0
  0
LINE
  5
D1CE
330
D1BA
100
AcDbEntity
  8
0
  6
CONTINUOUS
100
AcDbLine
 10
14.33882305602236
 20
3.355227109410975
 30
0.0
 11
17.42346996430115
 21
6.439874017689766
 31
0.0
  0
LINE
  5
D1CF
330
D1BA
100
AcDbEntity
  8
0
  6
CONTINUOUS
100
AcDbLine
 10
13.46705359186416
 20
1.809938436172586
 30
0.0
 11
16.0819338255367
 21
4.424818669845129
 31
0.0
  0
LINE
  5
D1D0
330
D1BA
100
AcDbEntity
  8
0
  6
CONTINUOUS
100
AcDbLine
 10
16.63283254238972
 20
4.975717386698149
 30
0.0
 11
17.60749913536461
 21
5.950383979673033
 31
0.0
  0
LINE
  5
D1D1
330
D1BA
100
AcDbEntity
  8
0
  6
CONTINUOUS
100
AcDbLine
 10
13.66663434263929
 20
1.335999977867529
 30
0.0
 11
15.67604797733754
 21
3.345413612565779
 31
0.0
  0
LINE
  5
D1D2
330
D1BA
100
AcDbEntity
  8
0
  6
CONTINUOUS
100
AcDbLine
 10
13.86621509341442
 20
0.8620615195624723
 30
0.0
 11
15.27016212913838
 21
2.26600855528643
 31
0.0
  0
LINE
  5
D1D3
330
D1BA
100
AcDbEntity
  8
0
  6
CONTINUOUS
100
AcDbLine
 10
16.81682257348267
 20
4.486188208710908
 30
0.0
 11
17.79152830642806
 21
5.460893941656299
 31
0.0
  0
LINE
  5
D1D4
330
D1BA
100
AcDbEntity
  8
0
  6
CONTINUOUS
100
AcDbLine
 10
17.00081260457561
 20
3.996659030723667
 30
0.0
 11
17.97555747749151
 21
4.971403903639565
 31
0.0
  0
LINE
  5
D1D5
330
D1BA
100
AcDbEntity
  8
0
  6
CONTINUOUS
100
AcDbLine
 10
20.74362343514722
 20
8.412989070375462
 30
0.0
 11
21.09373436476302
 21
8.763099999991256
 31
0.0
  0
LINE
  5
D1D6
330
D1BA
100
AcDbEntity
  8
0
  6
CONTINUOUS
100
AcDbLine
 10
20.25401257174777
 20
7.249858997895826
 30
0.0
 11
21.7672535738432
 21
8.763099999991255
 31
0.0
  0
LINE
  5
D1D7
330
D1BA
100
AcDbEntity
  8
0
  6
CONTINUOUS
100
AcDbLine
 10
14.06579584418955
 20
0.3881230612574149
 30
0.0
 11
14.86427628093921
 21
1.186603498007082
 31
0.0
  0
LINE
  5
D1D8
330
D1BA
100
AcDbEntity
  8
0
  6
CONTINUOUS
100
AcDbLine
 10
14.26537659496467
 20
-0.0858153970476412
 30
0.0
 11
14.45839043274005
 21
0.1071984407277329
 31
0.0
  0
LINE
  5
D1D9
330
D1BA
100
AcDbEntity
  8
0
  6
CONTINUOUS
100
AcDbLine
 10
17.18480263566856
 20
3.507129852736426
 30
0.0
 11
18.15958664855496
 21
4.481913865622833
 31
0.0
  0
LINE
  5
D1DA
330
D1BA
100
AcDbEntity
  8
0
  6
CONTINUOUS
100
AcDbLine
 10
17.3687926667615
 20
3.017600674749186
 30
0.0
 11
18.34361581961842
 21
3.9924238276061
 31
0.0
  0
LINE
  5
D1DB
330
D1BA
100
AcDbEntity
  8
0
  6
CONTINUOUS
100
AcDbLine
 10
19.76440170834832
 20
6.086728925416191
 30
0.0
 11
22.33924590259489
 21
8.661573119662755
 31
0.0
  0
LINE
  5
D1DC
330
D1BA
100
AcDbEntity
  8
0
  6
CONTINUOUS
100
AcDbLine
 10
19.27479084494887
 20
4.923598852936555
 30
0.0
 11
21.84929622842713
 21
7.498104236414807
 31
0.0
  0
LINE
  5
D1DD
330
D1BA
100
AcDbEntity
  8
0
  6
CONTINUOUS
100
AcDbLine
 10
17.55278269785445
 20
2.528071496761945
 30
0.0
 11
18.52764499068187
 21
3.502933789589366
 31
0.0
  0
LINE
  5
D1DE
330
D1BA
100
AcDbEntity
  8
0
  6
CONTINUOUS
100
AcDbLine
 10
18.78517998154942
 20
3.760468780456919
 30
0.0
 11
21.35934655425936
 21
6.33463535316686
 31
0.0
  0
LINE
  5
D1DF
330
D1BA
100
AcDbEntity
  8
0
  6
CONTINUOUS
100
AcDbLine
 10
17.73677272894739
 20
2.038542318774704
 30
0.0
 11
20.8693968800916
 21
5.171166469918914
 31
0.0
  0
LINE
  5
D1E0
330
D1BA
100
AcDbEntity
  8
0
  6
CONTINUOUS
100
AcDbLine
 10
17.92076276004034
 20
1.549013140787464
 30
0.0
 11
20.37944720592384
 21
4.007697586670968
 31
0.0
  0
LINE
  5
D1E1
330
D1BA
100
AcDbEntity
  8
0
  6
CONTINUOUS
100
AcDbLine
 10
18.10475279113329
 20
1.059483962800223
 30
0.0
 11
19.88949753175608
 21
2.84422870342302
 31
0.0
  0
LINE
  5
D1E2
330
D1BA
100
AcDbEntity
  8
0
  6
CONTINUOUS
100
AcDbLine
 10
18.28874282222623
 20
0.5699547848129822
 30
0.0
 11
19.39954785758832
 21
1.680759820175074
 31
0.0
  0
LINE
  5
D1E3
330
D1BA
100
AcDbEntity
  8
0
  6
CONTINUOUS
100
AcDbLine
 10
18.47273285331918
 20
0.0804256068257416
 30
0.0
 11
18.90959818342056
 21
0.517290936927127
 31
0.0
  0
LINE
  5
D1E4
330
D1BA
100
AcDbEntity
  8
0
  6
CONTINUOUS
100
AcDbLine
 10
14.3590401358224
 20
-0.1570118376323384
 30
0.0
 11
14.24903296539946
 21
-0.0470046672093929
 31
0.0
  0
LINE
  5
D1E5
330
D1BA
100
AcDbEntity
  8
0
  6
CONTINUOUS
100
AcDbLine
 10
14.54309291258661
 20
0.332454594683643
 30
0.0
 11
13.75908329123172
 21
1.116464216038529
 31
0.0
  0
LINE
  5
D1E6
330
D1BA
100
AcDbEntity
  8
0
  6
CONTINUOUS
100
AcDbLine
 10
14.72714568935081
 20
0.8219210269996244
 30
0.0
 11
13.26913361706399
 21
2.27993309928645
 31
0.0
  0
LINE
  5
D1E7
330
D1BA
100
AcDbEntity
  8
0
  6
CONTINUOUS
100
AcDbLine
 10
14.91119846611502
 20
1.311387459315606
 30
0.0
 11
12.77918394289625
 21
3.443401982534371
 31
0.0
  0
LINE
  5
D1E8
330
D1BA
100
AcDbEntity
  8
0
  6
CONTINUOUS
100
AcDbLine
 10
15.09525124287922
 20
1.800853891631587
 30
0.0
 11
12.28923426872852
 21
4.606870865782293
 31
0.0
  0
LINE
  5
D1E9
330
D1BA
100
AcDbEntity
  8
0
  6
CONTINUOUS
100
AcDbLine
 10
15.27930401964343
 20
2.290320323947569
 30
0.0
 11
11.79928459456078
 21
5.770339749030213
 31
0.0
  0
LINE
  5
D1EA
330
D1BA
100
AcDbEntity
  8
0
  6
CONTINUOUS
100
AcDbLine
 10
15.46335679640763
 20
2.77978675626355
 30
0.0
 11
14.48885470994921
 21
3.754288842721972
 31
0.0
  0
LINE
  5
D1EB
330
D1BA
100
AcDbEntity
  8
0
  6
CONTINUOUS
100
AcDbLine
 10
13.88507249233704
 20
4.358071060334137
 30
0.0
 11
11.30933492039305
 21
6.933808632278135
 31
0.0
  0
LINE
  5
D1EC
330
D1BA
100
AcDbEntity
  8
0
  6
CONTINUOUS
100
AcDbLine
 10
18.75840522805855
 20
0.1582575336928151
 30
0.0
 11
18.25383727664818
 21
0.6628254851031863
 31
0.0
  0
LINE
  5
D1ED
330
D1BA
100
AcDbEntity
  8
0
  6
CONTINUOUS
100
AcDbLine
 10
15.64740957317184
 20
3.269253188579531
 30
0.0
 11
14.67288388101266
 21
4.243778880738705
 31
0.0
  0
LINE
  5
D1EE
330
D1BA
100
AcDbEntity
  8
0
  6
CONTINUOUS
100
AcDbLine
 10
13.39509276772158
 20
5.521569994029786
 30
0.0
 11
10.81938524622531
 21
8.097277515526056
 31
0.0
  0
LINE
  5
D1EF
330
D1BA
100
AcDbEntity
  8
0
  6
CONTINUOUS
100
AcDbLine
 10
18.95798597883369
 20
0.6321959919978686
 30
0.0
 11
17.84825644852853
 21
1.741925522303024
 31
0.0
  0
LINE
  5
D1F0
330
D1BA
100
AcDbEntity
  8
0
  6
CONTINUOUS
100
AcDbLine
 10
19.15756672960882
 20
1.106134450302922
 30
0.0
 11
17.44267562040888
 21
2.821025559502861
 31
0.0
  0
LINE
  5
D1F1
330
D1BA
100
AcDbEntity
  8
0
  6
CONTINUOUS
100
AcDbLine
 10
15.83146234993604
 20
3.758719620895513
 30
0.0
 11
14.85691305207612
 21
4.733268918755439
 31
0.0
  0
LINE
  5
D1F2
330
D1BA
100
AcDbEntity
  8
0
  6
CONTINUOUS
100
AcDbLine
 10
16.01551512670025
 20
4.248186053211494
 30
0.0
 11
15.04094222313957
 21
5.222758956772172
 31
0.0
  0
LINE
  5
D1F3
330
D1BA
100
AcDbEntity
  8
0
  6
CONTINUOUS
100
AcDbLine
 10
12.90511304310612
 20
6.685068927725435
 30
0.0
 11
10.8270819708403
 21
8.763099999991255
 31
0.0
  0
LINE
  5
D1F4
330
D1BA
100
AcDbEntity
  8
0
  6
CONTINUOUS
100
AcDbLine
 10
12.41513331849066
 20
7.848567861421083
 30
0.0
 11
11.50060117992049
 21
8.763099999991255
 31
0.0
  0
LINE
  5
D1F5
330
D1BA
100
AcDbEntity
  8
0
  6
CONTINUOUS
100
AcDbLine
 10
19.35714748038395
 20
1.580072908607975
 30
0.0
 11
17.03709479228923
 21
3.900125596702697
 31
0.0
  0
LINE
  5
D1F6
330
D1BA
100
AcDbEntity
  8
0
  6
CONTINUOUS
100
AcDbLine
 10
19.55672823115909
 20
2.054011366913028
 30
0.0
 11
16.63151396416958
 21
4.979225633902534
 31
0.0
  0
LINE
  5
D1F7
330
D1BA
100
AcDbEntity
  8
0
  6
CONTINUOUS
100
AcDbLine
 10
16.19956790346445
 20
4.737652485527476
 30
0.0
 11
15.22497139420302
 21
5.712248994788904
 31
0.0
  0
LINE
  5
D1F8
330
D1BA
100
AcDbEntity
  8
0
  6
CONTINUOUS
100
AcDbLine
 10
16.38362068022866
 20
5.227118917843457
 30
0.0
 11
15.40900056526648
 21
6.201739032805637
 31
0.0
  0
LINE
  5
D1F9
330
D1BA
100
AcDbEntity
  8
0
  6
CONTINUOUS
100
AcDbLine
 10
19.75630898193422
 20
2.527949825218081
 30
0.0
 11
18.70774536448286
 21
3.576513442669441
 31
0.0
  0
LINE
  5
D1FA
330
D1BA
100
AcDbEntity
  8
0
  6
CONTINUOUS
100
AcDbLine
 10
19.95588973270936
 20
3.001888283523134
 30
0.0
 11
18.90726987211446
 21
4.050508144118028
 31
0.0
  0
LINE
  5
D1FB
330
D1BA
100
AcDbEntity
  8
0
  6
CONTINUOUS
100
AcDbLine
 10
20.15547048348449
 20
3.475826741828186
 30
0.0
 11
19.10679437974606
 21
4.524502845566614
 31
0.0
  0
LINE
  5
D1FC
330
D1BA
100
AcDbEntity
  8
0
  6
CONTINUOUS
100
AcDbLine
 10
20.35505123425962
 20
3.94976520013324
 30
0.0
 11
19.30631888737766
 21
4.998497547015201
 31
0.0
  0
LINE
  5
D1FD
330
D1BA
100
AcDbEntity
  8
0
  6
CONTINUOUS
100
AcDbLine
 10
20.55463198503475
 20
4.423703658438292
 30
0.0
 11
19.50584339500926
 21
5.472492248463787
 31
0.0
  0
LINE
  5
D1FE
330
D1BA
100
AcDbEntity
  8
0
  6
CONTINUOUS
100
AcDbLine
 10
18.37481191085755
 20
3.909446896294752
 30
0.0
 11
15.59302973632993
 21
6.691229070822371
 31
0.0
  0
LINE
  5
D1FF
330
D1BA
100
AcDbEntity
  8
0
  6
CONTINUOUS
100
AcDbLine
 10
17.96904084440766
 20
4.988737171824825
 30
0.0
 11
15.77705890739338
 21
7.180719108839104
 31
0.0
  0
LINE
  5
D200
330
D1BA
100
AcDbEntity
  8
0
  6
CONTINUOUS
100
AcDbLine
 10
17.56326977795777
 20
6.068027447354899
 30
0.0
 11
15.96108807845684
 21
7.670209146855838
 31
0.0
  0
LINE
  5
D201
330
D1BA
100
AcDbEntity
  8
0
  6
CONTINUOUS
100
AcDbLine
 10
17.15749871150789
 20
7.147317722884972
 30
0.0
 11
16.14511724952029
 21
8.15969918487257
 31
0.0
  0
LINE
  5
D202
330
D1BA
100
AcDbEntity
  8
0
  6
CONTINUOUS
100
AcDbLine
 10
16.751727645058
 20
8.226607998415046
 30
0.0
 11
16.32914642058374
 21
8.649189222889303
 31
0.0
  0
LINE
  5
D203
330
D1BA
100
AcDbEntity
  8
0
  6
CONTINUOUS
100
AcDbLine
 10
20.75421273580989
 20
4.897642116743345
 30
0.0
 11
19.70536790264086
 21
5.946486949912374
 31
0.0
  0
LINE
  5
D204
330
D1BA
100
AcDbEntity
  8
0
  6
CONTINUOUS
100
AcDbLine
 10
20.95379348658502
 20
5.371580575048398
 30
0.0
 11
19.90489241027246
 21
6.42048165136096
 31
0.0
  0
LINE
  5
D205
330
D1BA
100
AcDbEntity
  8
0
  6
CONTINUOUS
100
AcDbLine
 10
21.15337423736015
 20
5.845519033353452
 30
0.0
 11
20.10441691790406
 21
6.894476352809547
 31
0.0
  0
LINE
  5
D206
330
D1BA
100
AcDbEntity
  8
0
  6
CONTINUOUS
100
AcDbLine
 10
21.35295498813529
 20
6.319457491658505
 30
0.0
 11
20.30394142553566
 21
7.368471054258134
 31
0.0
  0
LINE
  5
D207
330
D1BA
100
AcDbEntity
  8
0
  6
CONTINUOUS
100
AcDbLine
 10
21.55253573891042
 20
6.793395949963558
 30
0.0
 11
20.50346593316726
 21
7.842465755706721
 31
0.0
  0
LINE
  5
D208
330
D1BA
100
AcDbEntity
  8
0
  6
CONTINUOUS
100
AcDbLine
 10
21.75211648968556
 20
7.267334408268612
 30
0.0
 11
20.70299044079886
 21
8.316460457155308
 31
0.0
  0
LINE
  5
D209
330
D1BA
100
AcDbEntity
  8
0
  6
CONTINUOUS
100
AcDbLine
 10
21.95169724046069
 20
7.741272866573663
 30
0.0
 11
20.9298701070431
 21
8.763099999991256
 31
0.0
  0
LINE
  5
D20A
330
D1BA
100
AcDbEntity
  8
0
  6
CONTINUOUS
100
AcDbLine
 10
22.15127799123582
 20
8.215211324878716
 30
0.0
 11
21.60338931612328
 21
8.763099999991256
 31
0.0
  0
LINE
  5
D20B
330
D1BA
100
AcDbEntity
  8
0
  6
CONTINUOUS
100
AcDbLine
 10
22.35085874201096
 20
8.689149783183769
 30
0.0
 11
22.27690852520347
 21
8.763099999991255
 31
0.0
  0
ENDBLK
  5
D2FD
330
D1BA
100
AcDbEntity
  8
0
100
AcDbBlockEnd
  0
BLOCK
  5
D2FE
330
D20C
100
AcDbEntity
  8
0
100
AcDbBlockBegin
  2
*X133
 70
     1
 10
0.0
 20
0.0
 30
0.0
  3
*X133
  1

  0
LINE
  5
D20D
330
D20C
100
AcDbEntity
  8
0
  6
CONTINUOUS
100
AcDbLine
 10
23.19462913593892
 20
8.169917934846424
 30
0.0
 11
23.70775465517246
 21
8.683043454079957
 31
0.0
  0
LINE
  5
D20E
330
D20C
100
AcDbEntity
  8
0
  6
CONTINUOUS
100
AcDbLine
 10
22.64923161835078
 20
6.951001208178088
 30
0.0
 11
23.9159364069932
 21
8.217705996820516
 31
0.0
  0
LINE
  5
D20F
330
D20C
100
AcDbEntity
  8
0
  6
CONTINUOUS
100
AcDbLine
 10
22.10383410076263
 20
5.732084481509751
 30
0.0
 11
24.12411815881395
 21
7.752368539561078
 31
0.0
  0
LINE
  5
D210
330
D20C
100
AcDbEntity
  8
0
  6
CONTINUOUS
100
AcDbLine
 10
21.55843658317447
 20
4.513167754841414
 30
0.0
 11
24.3322999106347
 21
7.287031082301639
 31
0.0
  0
LINE
  5
D211
330
D20C
100
AcDbEntity
  8
0
  6
CONTINUOUS
100
AcDbLine
 10
21.01303906558632
 20
3.294251028173077
 30
0.0
 11
24.54048166245544
 21
6.821693625042199
 31
0.0
  0
LINE
  5
D212
330
D20C
100
AcDbEntity
  8
0
  6
CONTINUOUS
100
AcDbLine
 10
20.46764154799817
 20
2.075334301504738
 30
0.0
 11
23.28571549467848
 21
4.89340824818505
 31
0.0
  0
LINE
  5
D213
330
D20C
100
AcDbEntity
  8
0
  6
CONTINUOUS
100
AcDbLine
 10
19.92224403041002
 20
0.8564175748364002
 30
0.0
 11
22.74075865492779
 21
3.674932199354171
 31
0.0
  0
LINE
  5
D214
330
D20C
100
AcDbEntity
  8
0
  6
CONTINUOUS
100
AcDbLine
 10
23.67305085490148
 20
5.280743608408048
 30
0.0
 11
24.74866341427619
 21
6.356356167782759
 31
0.0
  0
LINE
  5
D215
330
D20C
100
AcDbEntity
  8
0
  6
CONTINUOUS
100
AcDbLine
 10
23.88118970842314
 20
4.815363252849522
 30
0.0
 11
24.95684516609694
 21
5.89101871052332
 31
0.0
  0
LINE
  5
D216
330
D20C
100
AcDbEntity
  8
0
  6
CONTINUOUS
100
AcDbLine
 10
19.73925852647308
 20
-0.0000871381807288
 30
0.0
 11
23.4103456646501
 21
3.670999999996297
 31
0.0
  0
LINE
  5
D217
330
D20C
100
AcDbEntity
  8
0
  6
CONTINUOUS
100
AcDbLine
 10
24.0893285619448
 20
4.349982897290997
 30
0.0
 11
25.16502691791769
 21
5.42568125326388
 31
0.0
  0
LINE
  5
D218
330
D20C
100
AcDbEntity
  8
0
  6
CONTINUOUS
100
AcDbLine
 10
20.41282099582748
 20
-0.0000438779065108
 30
0.0
 11
21.64944178675636
 21
1.236576913022366
 31
0.0
  0
LINE
  5
D219
330
D20C
100
AcDbEntity
  8
0
  6
CONTINUOUS
100
AcDbLine
 10
22.78126487373161
 20
2.36839999999762
 30
0.0
 11
24.08386487373029
 21
3.670999999996297
 31
0.0
  0
LINE
  5
D21A
330
D20C
100
AcDbEntity
  8
0
  6
CONTINUOUS
100
AcDbLine
 10
24.29746741546646
 20
3.884602541732471
 30
0.0
 11
25.37320866973843
 21
4.960343796004441
 31
0.0
  0
LINE
  5
D21B
330
D20C
100
AcDbEntity
  8
0
  6
CONTINUOUS
100
AcDbLine
 10
21.08638346518189
 20
-0.0000006176322938
 30
0.0
 11
21.10379033335899
 21
0.0174062505448083
 31
0.0
  0
LINE
  5
D21C
330
D20C
100
AcDbEntity
  8
0
  6
CONTINUOUS
100
AcDbLine
 10
23.4547840828118
 20
2.36839999999762
 30
0.0
 11
25.58139042155918
 21
4.495006338745002
 31
0.0
  0
LINE
  5
D21D
330
D20C
100
AcDbEntity
  8
0
  6
CONTINUOUS
100
AcDbLine
 10
29.30199999996933
 20
8.215615917155148
 30
0.0
 11
29.84948408280543
 21
8.763099999991255
 31
0.0
  0
LINE
  5
D21E
330
D20C
100
AcDbEntity
  8
0
  6
CONTINUOUS
100
AcDbLine
 10
24.12830329189199
 20
2.36839999999762
 30
0.0
 11
25.78957217337993
 21
4.029668881485562
 31
0.0
  0
LINE
  5
D21F
330
D20C
100
AcDbEntity
  8
0
  6
CONTINUOUS
100
AcDbLine
 10
29.30199999996933
 20
7.54209670807496
 30
0.0
 11
30.52300329188562
 21
8.763099999991255
 31
0.0
  0
LINE
  5
D220
330
D20C
100
AcDbEntity
  8
0
  6
CONTINUOUS
100
AcDbLine
 10
24.80182250097217
 20
2.36839999999762
 30
0.0
 11
25.99775392520067
 21
3.564331424226122
 31
0.0
  0
LINE
  5
D221
330
D20C
100
AcDbEntity
  8
0
  6
CONTINUOUS
100
AcDbLine
 10
29.30199999996933
 20
6.868577498994774
 30
0.0
 11
30.74199999996926
 21
8.308577498994712
 31
0.0
  0
LINE
  5
D222
330
D20C
100
AcDbEntity
  8
0
  6
CONTINUOUS
100
AcDbLine
 10
25.13028238392013
 20
2.023340673865392
 30
0.0
 11
26.20593567702142
 21
3.098993966966683
 31
0.0
  0
LINE
  5
D223
330
D20C
100
AcDbEntity
  8
0
  6
CONTINUOUS
100
AcDbLine
 10
25.33838066033617
 20
1.557919741201244
 30
0.0
 11
26.41411742884217
 21
2.633656509707244
 31
0.0
  0
LINE
  5
D224
330
D20C
100
AcDbEntity
  8
0
  6
CONTINUOUS
100
AcDbLine
 10
25.54647893675221
 20
1.092498808537098
 30
0.0
 11
26.62229918066291
 21
2.168319052447804
 31
0.0
  0
LINE
  5
D225
330
D20C
100
AcDbEntity
  8
0
  6
CONTINUOUS
100
AcDbLine
 10
25.75457721316825
 20
0.62707787587295
 30
0.0
 11
26.83048093248366
 21
1.702981595188365
 31
0.0
  0
LINE
  5
D226
330
D20C
100
AcDbEntity
  8
0
  6
CONTINUOUS
100
AcDbLine
 10
29.30199999996933
 20
6.195058289914587
 30
0.0
 11
30.74199999996926
 21
7.635058289914522
 31
0.0
  0
LINE
  5
D227
330
D20C
100
AcDbEntity
  8
0
  6
CONTINUOUS
100
AcDbLine
 10
29.30199999996933
 20
5.521539080834401
 30
0.0
 11
30.74199999996926
 21
6.961539080834331
 31
0.0
  0
LINE
  5
D228
330
D20C
100
AcDbEntity
  8
0
  6
CONTINUOUS
100
AcDbLine
 10
29.30199999996933
 20
4.848019871754214
 30
0.0
 11
30.74199999996925
 21
6.288019871754143
 31
0.0
  0
LINE
  5
D229
330
D20C
100
AcDbEntity
  8
0
  6
CONTINUOUS
100
AcDbLine
 10
29.30199999996933
 20
4.174500662674028
 30
0.0
 11
30.74199999996925
 21
5.614500662673953
 31
0.0
  0
LINE
  5
D22A
330
D20C
100
AcDbEntity
  8
0
  6
CONTINUOUS
100
AcDbLine
 10
25.96267548958429
 20
0.1616569432088024
 30
0.0
 11
27.18411854636669
 21
1.383099999991207
 31
0.0
  0
LINE
  5
D22B
330
D20C
100
AcDbEntity
  8
0
  6
CONTINUOUS
100
AcDbLine
 10
29.30199999996933
 20
3.500981453593841
 30
0.0
 11
30.74199999996925
 21
4.940981453593762
 31
0.0
  0
LINE
  5
D22C
330
D20C
100
AcDbEntity
  8
0
  6
CONTINUOUS
100
AcDbLine
 10
26.50763775544691
 20
0.0330999999912356
 30
0.0
 11
27.85763775544689
 21
1.383099999991223
 31
0.0
  0
LINE
  5
D22D
330
D20C
100
AcDbEntity
  8
0
  6
CONTINUOUS
100
AcDbLine
 10
29.30199999996933
 20
2.827462244513656
 30
0.0
 11
30.74199999996925
 21
4.267462244513574
 31
0.0
  0
LINE
  5
D22E
330
D20C
100
AcDbEntity
  8
0
  6
CONTINUOUS
100
AcDbLine
 10
27.18115696452709
 20
0.0330999999912356
 30
0.0
 11
28.6224847300034
 21
1.474427765467545
 31
0.0
  0
LINE
  5
D22F
330
D20C
100
AcDbEntity
  8
0
  6
CONTINUOUS
100
AcDbLine
 10
29.21067223449293
 20
2.062615269957069
 30
0.0
 11
30.74199999996924
 21
3.593943035433383
 31
0.0
  0
LINE
  5
D230
330
D20C
100
AcDbEntity
  8
0
  6
CONTINUOUS
100
AcDbLine
 10
27.85467617360728
 20
0.0330999999912356
 30
0.0
 11
30.74199999996924
 21
2.920423826353195
 31
0.0
  0
LINE
  5
D231
330
D20C
100
AcDbEntity
  8
0
  6
CONTINUOUS
100
AcDbLine
 10
28.57438609860264
 20
0.0792907159064073
 30
0.0
 11
30.69580928405405
 21
2.200713901357819
 31
0.0
  0
LINE
  5
D232
330
D20C
100
AcDbEntity
  8
0
  6
CONTINUOUS
100
AcDbLine
 10
29.49443044814297
 20
0.3258158563665496
 30
0.0
 11
30.44928414359389
 21
1.280669551817477
 31
0.0
  0
LINE
  5
D233
330
D20C
100
AcDbEntity
  8
0
  6
CONTINUOUS
100
AcDbLine
 10
19.59027867740337
 20
-0.0000967065718083
 30
0.0
 11
19.55485265190471
 21
0.035329318926844
 31
0.0
  0
LINE
  5
D234
330
D20C
100
AcDbEntity
  8
0
  6
CONTINUOUS
100
AcDbLine
 10
20.26375463176586
 20
-0.0000534518541091
 30
0.0
 11
19.76305575737534
 21
0.5006454225364014
 31
0.0
  0
LINE
  5
D235
330
D20C
100
AcDbEntity
  8
0
  6
CONTINUOUS
100
AcDbLine
 10
20.93723058612834
 20
-0.0000101971364099
 30
0.0
 11
19.97125886284597
 21
0.965961526145958
 31
0.0
  0
LINE
  5
D236
330
D20C
100
AcDbEntity
  8
0
  6
CONTINUOUS
100
AcDbLine
 10
21.25514828313686
 20
0.355591314935257
 30
0.0
 11
20.1794619683166
 21
1.431277629755512
 31
0.0
  0
LINE
  5
D237
330
D20C
100
AcDbEntity
  8
0
  6
CONTINUOUS
100
AcDbLine
 10
21.46338838394921
 20
0.8208704232030986
 30
0.0
 11
20.38766507378723
 21
1.896593733365069
 31
0.0
  0
LINE
  5
D238
330
D20C
100
AcDbEntity
  8
0
  6
CONTINUOUS
100
AcDbLine
 10
21.67162848476155
 20
1.28614953147094
 30
0.0
 11
20.59586817925786
 21
2.361909836974626
 31
0.0
  0
LINE
  5
D239
330
D20C
100
AcDbEntity
  8
0
  6
CONTINUOUS
100
AcDbLine
 10
21.8798685855739
 20
1.751428639738782
 30
0.0
 11
20.80407128472849
 21
2.827225940584183
 31
0.0
  0
LINE
  5
D23A
330
D20C
100
AcDbEntity
  8
0
  6
CONTINUOUS
100
AcDbLine
 10
22.08810868638624
 20
2.216707748006623
 30
0.0
 11
21.01227439019912
 21
3.292542044193739
 31
0.0
  0
LINE
  5
D23B
330
D20C
100
AcDbEntity
  8
0
  6
CONTINUOUS
100
AcDbLine
 10
22.60993564347543
 20
2.36839999999762
 30
0.0
 11
21.22047749566975
 21
3.757858147803296
 31
0.0
  0
LINE
  5
D23C
330
D20C
100
AcDbEntity
  8
0
  6
CONTINUOUS
100
AcDbLine
 10
23.28345485255561
 20
2.36839999999762
 30
0.0
 11
21.42868060114038
 21
4.223174251412853
 31
0.0
  0
LINE
  5
D23D
330
D20C
100
AcDbEntity
  8
0
  6
CONTINUOUS
100
AcDbLine
 10
26.29227406164219
 20
0.0330999999912356
 30
0.0
 11
25.80009199592872
 21
0.5252820657046957
 31
0.0
  0
LINE
  5
D23E
330
D20C
100
AcDbEntity
  8
0
  6
CONTINUOUS
100
AcDbLine
 10
23.9569740616358
 20
2.36839999999762
 30
0.0
 11
21.63688370661101
 21
4.688490355022409
 31
0.0
  0
LINE
  5
D23F
330
D20C
100
AcDbEntity
  8
0
  6
CONTINUOUS
100
AcDbLine
 10
26.96579327072237
 20
0.0330999999912356
 30
0.0
 11
25.2554132311971
 21
1.743480039516508
 31
0.0
  0
LINE
  5
D240
330
D20C
100
AcDbEntity
  8
0
  6
CONTINUOUS
100
AcDbLine
 10
24.63049327071599
 20
2.36839999999762
 30
0.0
 11
23.32789327071731
 21
3.670999999996297
 31
0.0
  0
LINE
  5
D241
330
D20C
100
AcDbEntity
  8
0
  6
CONTINUOUS
100
AcDbLine
 10
22.92098674744635
 20
4.077906523267254
 30
0.0
 11
21.84508681208164
 21
5.153806458631966
 31
0.0
  0
LINE
  5
D242
330
D20C
100
AcDbEntity
  8
0
  6
CONTINUOUS
100
AcDbLine
 10
27.63931247980256
 20
0.0330999999912356
 30
0.0
 11
24.0014124797975
 21
3.670999999996297
 31
0.0
  0
LINE
  5
D243
330
D20C
100
AcDbEntity
  8
0
  6
CONTINUOUS
100
AcDbLine
 10
23.129125600968
 20
4.5432868788258
 30
0.0
 11
22.05328991755227
 21
5.619122562241522
 31
0.0
  0
LINE
  5
D244
330
D20C
100
AcDbEntity
  8
0
  6
CONTINUOUS
100
AcDbLine
 10
28.31283168888275
 20
0.0330999999912356
 30
0.0
 11
24.16488385994816
 21
4.181047828925828
 31
0.0
  0
LINE
  5
D245
330
D20C
100
AcDbEntity
  8
0
  6
CONTINUOUS
100
AcDbLine
 10
23.33726445448964
 20
5.008667234384345
 30
0.0
 11
22.2614930230229
 21
6.084438665851079
 31
0.0
  0
LINE
  5
D246
330
D20C
100
AcDbEntity
  8
0
  6
CONTINUOUS
100
AcDbLine
 10
28.86286302309502
 20
0.1565878748591523
 30
0.0
 11
27.63635089796295
 21
1.383099999991217
 31
0.0
  0
LINE
  5
D247
330
D20C
100
AcDbEntity
  8
0
  6
CONTINUOUS
100
AcDbLine
 10
26.43704649509776
 20
2.582404402856405
 30
0.0
 11
23.61992702019732
 21
5.399523877756844
 31
0.0
  0
LINE
  5
D248
330
D20C
100
AcDbEntity
  8
0
  6
CONTINUOUS
100
AcDbLine
 10
23.54540330801128
 20
5.47404758994289
 30
0.0
 11
22.46969612849353
 21
6.549754769460635
 31
0.0
  0
LINE
  5
D249
330
D20C
100
AcDbEntity
  8
0
  6
CONTINUOUS
100
AcDbLine
 10
29.39405087596853
 20
0.2989192310658284
 30
0.0
 11
28.30987010704312
 21
1.383099999991234
 31
0.0
  0
LINE
  5
D24A
330
D20C
100
AcDbEntity
  8
0
  6
CONTINUOUS
100
AcDbLine
 10
25.89179548232307
 20
3.801174624711282
 30
0.0
 11
22.67789923396416
 21
7.015070873070191
 31
0.0
  0
LINE
  5
D24B
330
D20C
100
AcDbEntity
  8
0
  6
CONTINUOUS
100
AcDbLine
 10
29.79594438047407
 20
0.570544935640473
 30
0.0
 11
28.81310432793121
 21
1.553384988183336
 31
0.0
  0
LINE
  5
D24C
330
D20C
100
AcDbEntity
  8
0
  6
CONTINUOUS
100
AcDbLine
 10
25.34654446954838
 20
5.01994484656616
 30
0.0
 11
22.88610233943479
 21
7.480386976679748
 31
0.0
  0
LINE
  5
D24D
330
D20C
100
AcDbEntity
  8
0
  6
CONTINUOUS
100
AcDbLine
 10
30.13270398501416
 20
0.9073045401805646
 30
0.0
 11
29.14234640337737
 21
1.897662121817355
 31
0.0
  0
LINE
  5
D24E
330
D20C
100
AcDbEntity
  8
0
  6
CONTINUOUS
100
AcDbLine
 10
24.80129345677369
 20
6.238715068421037
 30
0.0
 11
23.09430544490542
 21
7.945703080289305
 31
0.0
  0
LINE
  5
D24F
330
D20C
100
AcDbEntity
  8
0
  6
CONTINUOUS
100
AcDbLine
 10
30.44581292956759
 20
1.26771480470732
 30
0.0
 11
29.30199999996933
 21
2.411527734305588
 31
0.0
  0
LINE
  5
D250
330
D20C
100
AcDbEntity
  8
0
  6
CONTINUOUS
100
AcDbLine
 10
30.58814428577427
 20
1.798902657580827
 30
0.0
 11
29.30199999996933
 21
3.085046943385775
 31
0.0
  0
LINE
  5
D251
330
D20C
100
AcDbEntity
  8
0
  6
CONTINUOUS
100
AcDbLine
 10
24.256042443999
 20
7.457485290275915
 30
0.0
 11
23.30250855037605
 21
8.411019183898862
 31
0.0
  0
LINE
  5
D252
330
D20C
100
AcDbEntity
  8
0
  6
CONTINUOUS
100
AcDbLine
 10
23.71079143122431
 20
8.676255512130794
 30
0.0
 11
23.51071165584668
 21
8.876335287508418
 31
0.0
  0
LINE
  5
D253
330
D20C
100
AcDbEntity
  8
0
  6
CONTINUOUS
100
AcDbLine
 10
30.73047564198095
 20
2.330090510454333
 30
0.0
 11
29.30199999996933
 21
3.758566152465961
 31
0.0
  0
LINE
  5
D254
330
D20C
100
AcDbEntity
  8
0
  6
CONTINUOUS
100
AcDbLine
 10
30.74199999996924
 20
2.992085361546236
 30
0.0
 11
29.30199999996933
 21
4.432085361546148
 31
0.0
  0
LINE
  5
D255
330
D20C
100
AcDbEntity
  8
0
  6
CONTINUOUS
100
AcDbLine
 10
30.74199999996924
 20
3.665604570626419
 30
0.0
 11
29.30199999996933
 21
5.105604570626333
 31
0.0
  0
LINE
  5
D256
330
D20C
100
AcDbEntity
  8
0
  6
CONTINUOUS
100
AcDbLine
 10
30.74199999996925
 20
4.339123779706602
 30
0.0
 11
29.30199999996933
 21
5.77912377970652
 31
0.0
  0
LINE
  5
D257
330
D20C
100
AcDbEntity
  8
0
  6
CONTINUOUS
100
AcDbLine
 10
30.74199999996925
 20
5.012642988786785
 30
0.0
 11
29.30199999996933
 21
6.452642988786707
 31
0.0
  0
LINE
  5
D258
330
D20C
100
AcDbEntity
  8
0
  6
CONTINUOUS
100
AcDbLine
 10
30.74199999996925
 20
5.68616219786697
 30
0.0
 11
29.30199999996933
 21
7.126162197866894
 31
0.0
  0
LINE
  5
D259
330
D20C
100
AcDbEntity
  8
0
  6
CONTINUOUS
100
AcDbLine
 10
30.74199999996925
 20
6.359681406947153
 30
0.0
 11
29.30199999996933
 21
7.799681406947081
 31
0.0
  0
LINE
  5
D25A
330
D20C
100
AcDbEntity
  8
0
  6
CONTINUOUS
100
AcDbLine
 10
30.74199999996926
 20
7.033200616027337
 30
0.0
 11
29.30199999996933
 21
8.473200616027269
 31
0.0
  0
LINE
  5
D25B
330
D20C
100
AcDbEntity
  8
0
  6
CONTINUOUS
100
AcDbLine
 10
30.74199999996926
 20
7.706719825107518
 30
0.0
 11
29.68561982508552
 21
8.763099999991255
 31
0.0
  0
LINE
  5
D25C
330
D20C
100
AcDbEntity
  8
0
  6
CONTINUOUS
100
AcDbLine
 10
30.74199999996926
 20
8.380239034187703
 30
0.0
 11
30.35913903416571
 21
8.763099999991255
 31
0.0
  0
ENDBLK
  5
D2FF
330
D20C
100
AcDbEntity
  8
0
100
AcDbBlockEnd
  0
BLOCK
  5
D300
330
D25D
100
AcDbEntity
  8
0
100
AcDbBlockBegin
  2
*X134
 70
     1
 10
0.0
 20
0.0
 30
0.0
  3
*X134
  1

  0
LINE
  5
D25E
330
D25D
100
AcDbEntity
  8
0
  6
CONTINUOUS
100
AcDbLine
 10
31.64199999996833
 20
8.5350582899136
 30
0.0
 11
31.87004171004599
 21
8.763099999991255
 31
0.0
  0
LINE
  5
D25F
330
D25D
100
AcDbEntity
  8
0
  6
CONTINUOUS
100
AcDbLine
 10
31.64199999996833
 20
7.861539080833413
 30
0.0
 11
32.54356091912618
 21
8.763099999991255
 31
0.0
  0
LINE
  5
D260
330
D25D
100
AcDbEntity
  8
0
  6
CONTINUOUS
100
AcDbLine
 10
31.64199999996833
 20
7.188019871753227
 30
0.0
 11
33.08199999996839
 21
8.628019871753281
 31
0.0
  0
LINE
  5
D261
330
D25D
100
AcDbEntity
  8
0
  6
CONTINUOUS
100
AcDbLine
 10
31.64199999996833
 20
6.514500662673041
 30
0.0
 11
33.08199999996839
 21
7.954500662673095
 31
0.0
  0
LINE
  5
D262
330
D25D
100
AcDbEntity
  8
0
  6
CONTINUOUS
100
AcDbLine
 10
31.64199999996833
 20
5.840981453592855
 30
0.0
 11
33.08199999996839
 21
7.28098145359291
 31
0.0
  0
LINE
  5
D263
330
D25D
100
AcDbEntity
  8
0
  6
CONTINUOUS
100
AcDbLine
 10
31.64199999996833
 20
5.167462244512668
 30
0.0
 11
33.08199999996839
 21
6.607462244512723
 31
0.0
  0
LINE
  5
D264
330
D25D
100
AcDbEntity
  8
0
  6
CONTINUOUS
100
AcDbLine
 10
31.64199999996833
 20
4.493943035432482
 30
0.0
 11
33.08199999996839
 21
5.933943035432536
 31
0.0
  0
LINE
  5
D265
330
D25D
100
AcDbEntity
  8
0
  6
CONTINUOUS
100
AcDbLine
 10
31.64199999996833
 20
3.820423826352294
 30
0.0
 11
33.08199999996839
 21
5.260423826352349
 31
0.0
  0
LINE
  5
D266
330
D25D
100
AcDbEntity
  8
0
  6
CONTINUOUS
100
AcDbLine
 10
31.64199999996833
 20
3.146904617272108
 30
0.0
 11
33.08199999996839
 21
4.586904617272163
 31
0.0
  0
LINE
  5
D267
330
D25D
100
AcDbEntity
  8
0
  6
CONTINUOUS
100
AcDbLine
 10
36.23199999996837
 20
8.410423826352327
 30
0.0
 11
36.58467617360729
 21
8.763099999991255
 31
0.0
  0
LINE
  5
D268
330
D25D
100
AcDbEntity
  8
0
  6
CONTINUOUS
100
AcDbLine
 10
36.23199999996837
 20
7.73690461727214
 30
0.0
 11
37.25819538268748
 21
8.763099999991255
 31
0.0
  0
LINE
  5
D269
330
D25D
100
AcDbEntity
  8
0
  6
CONTINUOUS
100
AcDbLine
 10
31.64323424774199
 20
2.474619655965573
 30
0.0
 11
33.08199999996839
 21
3.913385408191976
 31
0.0
  0
LINE
  5
D26A
330
D25D
100
AcDbEntity
  8
0
  6
CONTINUOUS
100
AcDbLine
 10
31.74419223861915
 20
1.902058437762552
 30
0.0
 11
33.08199999996839
 21
3.239866199111789
 31
0.0
  0
LINE
  5
D26B
330
D25D
100
AcDbEntity
  8
0
  6
CONTINUOUS
100
AcDbLine
 10
36.23199999996837
 20
7.063385408191953
 30
0.0
 11
37.67199999996831
 21
8.503385408191894
 31
0.0
  0
LINE
  5
D26C
330
D25D
100
AcDbEntity
  8
0
  6
CONTINUOUS
100
AcDbLine
 10
36.23199999996837
 20
6.389866199111767
 30
0.0
 11
37.67199999996831
 21
7.829866199111708
 31
0.0
  0
LINE
  5
D26D
330
D25D
100
AcDbEntity
  8
0
  6
CONTINUOUS
100
AcDbLine
 10
31.91111233414976
 20
1.39545932421297
 30
0.0
 11
33.08199999996839
 21
2.566346990031603
 31
0.0
  0
LINE
  5
D26E
330
D25D
100
AcDbEntity
  8
0
  6
CONTINUOUS
100
AcDbLine
 10
36.23199999996837
 20
5.71634699003158
 30
0.0
 11
37.67199999996831
 21
7.156346990031522
 31
0.0
  0
LINE
  5
D26F
330
D25D
100
AcDbEntity
  8
0
  6
CONTINUOUS
100
AcDbLine
 10
32.1576374746103
 20
0.9684652555933289
 30
0.0
 11
33.20642631446081
 21
2.017254095443838
 31
0.0
  0
LINE
  5
D270
330
D25D
100
AcDbEntity
  8
0
  6
CONTINUOUS
100
AcDbLine
 10
36.23199999996837
 20
5.042827780951393
 30
0.0
 11
37.67199999996831
 21
6.482827780951334
 31
0.0
  0
LINE
  5
D271
330
D25D
100
AcDbEntity
  8
0
  6
CONTINUOUS
100
AcDbLine
 10
32.47774023927325
 20
0.6150488111760914
 30
0.0
 11
33.49903056428258
 21
1.636339136185419
 31
0.0
  0
LINE
  5
D272
330
D25D
100
AcDbEntity
  8
0
  6
CONTINUOUS
100
AcDbLine
 10
36.23199999996837
 20
4.369308571871207
 30
0.0
 11
37.67199999996831
 21
5.809308571871148
 31
0.0
  0
LINE
  5
D273
330
D25D
100
AcDbEntity
  8
0
  6
CONTINUOUS
100
AcDbLine
 10
32.84396249154443
 20
0.3077518543670883
 30
0.0
 11
33.93324121824649
 21
1.397030581069146
 31
0.0
  0
LINE
  5
D274
330
D25D
100
AcDbEntity
  8
0
  6
CONTINUOUS
100
AcDbLine
 10
36.23199999996837
 20
3.695789362791021
 30
0.0
 11
37.67199999996831
 21
5.135789362790963
 31
0.0
  0
LINE
  5
D275
330
D25D
100
AcDbEntity
  8
0
  6
CONTINUOUS
100
AcDbLine
 10
33.30186329036846
 20
0.0921334441109263
 30
0.0
 11
34.46442907112041
 21
1.254699224862875
 31
0.0
  0
LINE
  5
D276
330
D25D
100
AcDbEntity
  8
0
  6
CONTINUOUS
100
AcDbLine
 10
36.23199999996837
 20
3.022270153710834
 30
0.0
 11
37.67199999996831
 21
4.462270153710776
 31
0.0
  0
LINE
  5
D277
330
D25D
100
AcDbEntity
  8
0
  6
CONTINUOUS
100
AcDbLine
 10
33.79565647746294
 20
-0.0875925778747773
 30
0.0
 11
35.24350171668284
 21
1.360252661345124
 31
0.0
  0
LINE
  5
D278
330
D25D
100
AcDbEntity
  8
0
  6
CONTINUOUS
100
AcDbLine
 10
36.18336676155003
 20
2.300117706212308
 30
0.0
 11
37.67199999996831
 21
3.788750944630589
 31
0.0
  0
LINE
  5
D279
330
D25D
100
AcDbEntity
  8
0
  6
CONTINUOUS
100
AcDbLine
 10
34.37182574910968
 20
-0.184942515308224
 30
0.0
 11
37.67199999996831
 21
3.115231735550402
 31
0.0
  0
LINE
  5
D27A
330
D25D
100
AcDbEntity
  8
0
  6
CONTINUOUS
100
AcDbLine
 10
35.0453449581892
 20
-0.1849425153088955
 30
0.0
 11
37.66345697088136
 21
2.433169497383271
 31
0.0
  0
LINE
  5
D27B
330
D25D
100
AcDbEntity
  8
0
  6
CONTINUOUS
100
AcDbLine
 10
35.98667157609191
 20
0.0828648935136398
 30
0.0
 11
37.51927401744566
 21
1.615467334867382
 31
0.0
  0
LINE
  5
D27C
330
D25D
100
AcDbEntity
  8
0
  6
CONTINUOUS
100
AcDbLine
 10
32.27747408544484
 20
0.7830920669904482
 30
0.0
 11
32.24716210471949
 21
0.8134040477157893
 31
0.0
  0
LINE
  5
D27D
330
D25D
100
AcDbEntity
  8
0
  6
CONTINUOUS
100
AcDbLine
 10
33.83656881101902
 20
-0.1024834495035494
 30
0.0
 11
31.72538911593758
 21
2.008696245577891
 31
0.0
  0
LINE
  5
D27E
330
D25D
100
AcDbEntity
  8
0
  6
CONTINUOUS
100
AcDbLine
 10
34.5925470859041
 20
-0.1849425153084434
 30
0.0
 11
31.64199999996833
 21
2.765604570627322
 31
0.0
  0
LINE
  5
D27F
330
D25D
100
AcDbEntity
  8
0
  6
CONTINUOUS
100
AcDbLine
 10
35.26201302775981
 20
-0.1808892480839752
 30
0.0
 11
31.64199999996833
 21
3.439123779707508
 31
0.0
  0
LINE
  5
D280
330
D25D
100
AcDbEntity
  8
0
  6
CONTINUOUS
100
AcDbLine
 10
35.75580621485512
 20
-0.0011632260990879
 30
0.0
 11
34.51294304365551
 21
1.241699945100514
 31
0.0
  0
LINE
  5
D281
330
D25D
100
AcDbEntity
  8
0
  6
CONTINUOUS
100
AcDbLine
 10
33.08199999996839
 20
2.672642988787641
 30
0.0
 11
31.64199999996833
 21
4.112642988787695
 31
0.0
  0
LINE
  5
D282
330
D25D
100
AcDbEntity
  8
0
  6
CONTINUOUS
100
AcDbLine
 10
36.24959940195042
 20
0.1785627958857976
 30
0.0
 11
35.10501653033629
 21
1.323145667499924
 31
0.0
  0
LINE
  5
D283
330
D25D
100
AcDbEntity
  8
0
  6
CONTINUOUS
100
AcDbLine
 10
33.08199999996839
 20
3.346162197867827
 30
0.0
 11
31.64199999996833
 21
4.786162197867881
 31
0.0
  0
LINE
  5
D284
330
D25D
100
AcDbEntity
  8
0
  6
CONTINUOUS
100
AcDbLine
 10
36.64615197150552
 20
0.4555294354108876
 30
0.0
 11
35.6362043832099
 21
1.465477023706505
 31
0.0
  0
LINE
  5
D285
330
D25D
100
AcDbEntity
  8
0
  6
CONTINUOUS
100
AcDbLine
 10
33.08199999996839
 20
4.019681406948013
 30
0.0
 11
31.64199999996833
 21
5.459681406948068
 31
0.0
  0
LINE
  5
D286
330
D25D
100
AcDbEntity
  8
0
  6
CONTINUOUS
100
AcDbLine
 10
37.0123742237774
 20
0.7628263922191891
 30
0.0
 11
35.97691545773309
 21
1.798285158263504
 31
0.0
  0
LINE
  5
D287
330
D25D
100
AcDbEntity
  8
0
  6
CONTINUOUS
100
AcDbLine
 10
33.08199999996839
 20
4.6932006160282
 30
0.0
 11
31.64199999996833
 21
6.133200616028255
 31
0.0
  0
LINE
  5
D288
330
D25D
100
AcDbEntity
  8
0
  6
CONTINUOUS
100
AcDbLine
 10
37.27491524157143
 20
1.173804583505349
 30
0.0
 11
36.17602012811361
 21
2.272699696963169
 31
0.0
  0
LINE
  5
D289
330
D25D
100
AcDbEntity
  8
0
  6
CONTINUOUS
100
AcDbLine
 10
33.08199999996839
 20
5.366719825108387
 30
0.0
 11
31.64199999996833
 21
6.806719825108441
 31
0.0
  0
LINE
  5
D28A
330
D25D
100
AcDbEntity
  8
0
  6
CONTINUOUS
100
AcDbLine
 10
37.51739996707661
 20
1.604839067080355
 30
0.0
 11
36.23199999996837
 21
2.890239034188595
 31
0.0
  0
LINE
  5
D28B
330
D25D
100
AcDbEntity
  8
0
  6
CONTINUOUS
100
AcDbLine
 10
37.6183579579535
 20
2.177400285283649
 30
0.0
 11
36.23199999996837
 21
3.563758243268782
 31
0.0
  0
LINE
  5
D28C
330
D25D
100
AcDbEntity
  8
0
  6
CONTINUOUS
100
AcDbLine
 10
33.08199999996839
 20
6.040239034188573
 30
0.0
 11
31.64199999996833
 21
7.480239034188628
 31
0.0
  0
LINE
  5
D28D
330
D25D
100
AcDbEntity
  8
0
  6
CONTINUOUS
100
AcDbLine
 10
33.08199999996839
 20
6.713758243268759
 30
0.0
 11
31.64199999996833
 21
8.153758243268815
 31
0.0
  0
LINE
  5
D28E
330
D25D
100
AcDbEntity
  8
0
  6
CONTINUOUS
100
AcDbLine
 10
37.67199999996831
 20
2.797277452349027
 30
0.0
 11
36.23199999996837
 21
4.237277452348969
 31
0.0
  0
LINE
  5
D28F
330
D25D
100
AcDbEntity
  8
0
  6
CONTINUOUS
100
AcDbLine
 10
37.67199999996831
 20
3.470796661429214
 30
0.0
 11
36.23199999996837
 21
4.910796661429155
 31
0.0
  0
LINE
  5
D290
330
D25D
100
AcDbEntity
  8
0
  6
CONTINUOUS
100
AcDbLine
 10
37.67199999996831
 20
4.1443158705094
 30
0.0
 11
36.23199999996837
 21
5.584315870509341
 31
0.0
  0
LINE
  5
D291
330
D25D
100
AcDbEntity
  8
0
  6
CONTINUOUS
100
AcDbLine
 10
33.08199999996839
 20
7.387277452348946
 30
0.0
 11
31.70617745232608
 21
8.763099999991255
 31
0.0
  0
LINE
  5
D292
330
D25D
100
AcDbEntity
  8
0
  6
CONTINUOUS
100
AcDbLine
 10
33.08199999996839
 20
8.060796661429134
 30
0.0
 11
32.37969666140626
 21
8.763099999991255
 31
0.0
  0
LINE
  5
D293
330
D25D
100
AcDbEntity
  8
0
  6
CONTINUOUS
100
AcDbLine
 10
33.08199999996839
 20
8.734315870509318
 30
0.0
 11
33.05321587048645
 21
8.763099999991255
 31
0.0
  0
LINE
  5
D294
330
D25D
100
AcDbEntity
  8
0
  6
CONTINUOUS
100
AcDbLine
 10
37.67199999996831
 20
4.817835079589586
 30
0.0
 11
36.23199999996837
 21
6.257835079589528
 31
0.0
  0
LINE
  5
D295
330
D25D
100
AcDbEntity
  8
0
  6
CONTINUOUS
100
AcDbLine
 10
37.67199999996831
 20
5.491354288669772
 30
0.0
 11
36.23199999996837
 21
6.931354288669715
 31
0.0
  0
LINE
  5
D296
330
D25D
100
AcDbEntity
  8
0
  6
CONTINUOUS
100
AcDbLine
 10
37.67199999996831
 20
6.164873497749959
 30
0.0
 11
36.23199999996837
 21
7.6048734977499
 31
0.0
  0
LINE
  5
D297
330
D25D
100
AcDbEntity
  8
0
  6
CONTINUOUS
100
AcDbLine
 10
37.67199999996831
 20
6.838392706830145
 30
0.0
 11
36.23199999996837
 21
8.278392706830086
 31
0.0
  0
LINE
  5
D298
330
D25D
100
AcDbEntity
  8
0
  6
CONTINUOUS
100
AcDbLine
 10
37.67199999996831
 20
7.511911915910333
 30
0.0
 11
36.42081191588738
 21
8.763099999991255
 31
0.0
  0
LINE
  5
D299
330
D25D
100
AcDbEntity
  8
0
  6
CONTINUOUS
100
AcDbLine
 10
37.67199999996831
 20
8.185431124990519
 30
0.0
 11
37.09433112496757
 21
8.763099999991255
 31
0.0
  0
ENDBLK
  5
D301
330
D25D
100
AcDbEntity
  8
0
100
AcDbBlockEnd
  0
BLOCK
  5
D302
330
D29A
100
AcDbEntity
  8
0
100
AcDbBlockBegin
  2
*X135
 70
     1
 10
0.0
 20
0.0
 30
0.0
  3
*X135
  1

  0
LINE
  5
D29B
330
D29A
100
AcDbEntity
  8
0
  6
CONTINUOUS
100
AcDbLine
 10
38.60499999996136
 20
8.762866199104765
 30
0.0
 11
38.71672554182345
 21
8.874591740966855
 31
0.0
  0
LINE
  5
D29C
330
D29A
100
AcDbEntity
  8
0
  6
CONTINUOUS
100
AcDbLine
 10
38.60499999996136
 20
8.089346990024577
 30
0.0
 11
39.03418785440363
 21
8.518534844466847
 31
0.0
  0
LINE
  5
D29D
330
D29A
100
AcDbEntity
  8
0
  6
CONTINUOUS
100
AcDbLine
 10
38.60499999996136
 20
7.41582778094439
 30
0.0
 11
39.35165016698382
 21
8.16247794796684
 31
0.0
  0
LINE
  5
D29E
330
D29A
100
AcDbEntity
  8
0
  6
CONTINUOUS
100
AcDbLine
 10
38.60499999996136
 20
6.742308571864204
 30
0.0
 11
39.66911247956399
 21
7.806421051466834
 31
0.0
  0
LINE
  5
D29F
330
D29A
100
AcDbEntity
  8
0
  6
CONTINUOUS
100
AcDbLine
 10
38.60499999996136
 20
6.068789362784018
 30
0.0
 11
39.98657479214418
 21
7.450364154966827
 31
0.0
  0
LINE
  5
D2A0
330
D29A
100
AcDbEntity
  8
0
  6
CONTINUOUS
100
AcDbLine
 10
38.60499999996136
 20
5.395270153703832
 30
0.0
 11
40.30403710472435
 21
7.09430725846682
 31
0.0
  0
LINE
  5
D2A1
330
D29A
100
AcDbEntity
  8
0
  6
CONTINUOUS
100
AcDbLine
 10
38.60499999996136
 20
4.721750944623645
 30
0.0
 11
40.62149941730453
 21
6.738250361966813
 31
0.0
  0
LINE
  5
D2A2
330
D29A
100
AcDbEntity
  8
0
  6
CONTINUOUS
100
AcDbLine
 10
38.60499999996136
 20
4.048231735543458
 30
0.0
 11
40.93896172988471
 21
6.382193465466806
 31
0.0
  0
LINE
  5
D2A3
330
D29A
100
AcDbEntity
  8
0
  6
CONTINUOUS
100
AcDbLine
 10
38.60499999996136
 20
3.374712526463272
 30
0.0
 11
40.02599999995994
 21
4.795712526461843
 31
0.0
  0
LINE
  5
D2A4
330
D29A
100
AcDbEntity
  8
0
  6
CONTINUOUS
100
AcDbLine
 10
38.60499999996136
 20
2.701193317383085
 30
0.0
 11
40.02599999995994
 21
4.122193317381657
 31
0.0
  0
LINE
  5
D2A5
330
D29A
100
AcDbEntity
  8
0
  6
CONTINUOUS
100
AcDbLine
 10
40.28339754687704
 20
5.053110073378947
 30
0.0
 11
41.25642404246489
 21
6.026136568966799
 31
0.0
  0
LINE
  5
D2A6
330
D29A
100
AcDbEntity
  8
0
  6
CONTINUOUS
100
AcDbLine
 10
40.60085985945722
 20
4.697053176878939
 30
0.0
 11
41.57388635504507
 21
5.670079672466793
 31
0.0
  0
LINE
  5
D2A7
330
D29A
100
AcDbEntity
  8
0
  6
CONTINUOUS
100
AcDbLine
 10
43.57899999995641
 20
8.348712526458318
 30
0.0
 11
43.99338747348935
 21
8.763099999991255
 31
0.0
  0
LINE
  5
D2A8
330
D29A
100
AcDbEntity
  8
0
  6
CONTINUOUS
100
AcDbLine
 10
43.57899999995641
 20
7.675193317378131
 30
0.0
 11
44.66690668256953
 21
8.763099999991255
 31
0.0
  0
LINE
  5
D2A9
330
D29A
100
AcDbEntity
  8
0
  6
CONTINUOUS
100
AcDbLine
 10
38.60499999996136
 20
2.027674108302898
 30
0.0
 11
40.02599999995994
 21
3.44867410830147
 31
0.0
  0
LINE
  5
D2AA
330
D29A
100
AcDbEntity
  8
0
  6
CONTINUOUS
100
AcDbLine
 10
38.60499999996136
 20
1.354154899222712
 30
0.0
 11
40.02599999995994
 21
2.775154899221284
 31
0.0
  0
LINE
  5
D2AB
330
D29A
100
AcDbEntity
  8
0
  6
CONTINUOUS
100
AcDbLine
 10
38.60499999996136
 20
0.6806356901425255
 30
0.0
 11
40.02599999995994
 21
2.101635690141098
 31
0.0
  0
LINE
  5
D2AC
330
D29A
100
AcDbEntity
  8
0
  6
CONTINUOUS
100
AcDbLine
 10
38.60499999996136
 20
0.0071164810623383
 30
0.0
 11
40.02599999995994
 21
1.428116481060911
 31
0.0
  0
LINE
  5
D2AD
330
D29A
100
AcDbEntity
  8
0
  6
CONTINUOUS
100
AcDbLine
 10
40.9183221720374
 20
4.340996280378933
 30
0.0
 11
41.89134866762525
 21
5.314022775966786
 31
0.0
  0
LINE
  5
D2AE
330
D29A
100
AcDbEntity
  8
0
  6
CONTINUOUS
100
AcDbLine
 10
41.23578448461758
 20
3.984939383878926
 30
0.0
 11
42.20881098020543
 21
4.957965879466778
 31
0.0
  0
LINE
  5
D2AF
330
D29A
100
AcDbEntity
  8
0
  6
CONTINUOUS
100
AcDbLine
 10
41.55324679719776
 20
3.628882487378919
 30
0.0
 11
42.52627329278561
 21
4.601908982966772
 31
0.0
  0
LINE
  5
D2B0
330
D29A
100
AcDbEntity
  8
0
  6
CONTINUOUS
100
AcDbLine
 10
41.87070910977793
 20
3.272825590878912
 30
0.0
 11
42.84373560536579
 21
4.245852086466765
 31
0.0
  0
LINE
  5
D2B1
330
D29A
100
AcDbEntity
  8
0
  6
CONTINUOUS
100
AcDbLine
 10
43.57899999995641
 20
7.001674108297943
 30
0.0
 11
44.99999999995498
 21
8.422674108296516
 31
0.0
  0
LINE
  5
D2B2
330
D29A
100
AcDbEntity
  8
0
  6
CONTINUOUS
100
AcDbLine
 10
43.57899999995641
 20
6.328154899217758
 30
0.0
 11
44.99999999995498
 21
7.749154899216329
 31
0.0
  0
LINE
  5
D2B3
330
D29A
100
AcDbEntity
  8
0
  6
CONTINUOUS
100
AcDbLine
 10
43.57899999995641
 20
5.654635690137571
 30
0.0
 11
44.99999999995498
 21
7.075635690136142
 31
0.0
  0
LINE
  5
D2B4
330
D29A
100
AcDbEntity
  8
0
  6
CONTINUOUS
100
AcDbLine
 10
43.57899999995641
 20
4.981116481057384
 30
0.0
 11
44.99999999995498
 21
6.402116481055955
 31
0.0
  0
LINE
  5
D2B5
330
D29A
100
AcDbEntity
  8
0
  6
CONTINUOUS
100
AcDbLine
 10
39.27140272797921
 20
-0.0000000000000009
 30
0.0
 11
40.02599999995994
 21
0.7545972719807246
 31
0.0
  0
LINE
  5
D2B6
330
D29A
100
AcDbEntity
  8
0
  6
CONTINUOUS
100
AcDbLine
 10
39.9449219370594
 20
-0.0000000000000009
 30
0.0
 11
40.02599999995994
 21
0.0810780629005379
 31
0.0
  0
LINE
  5
D2B7
330
D29A
100
AcDbEntity
  8
0
  6
CONTINUOUS
100
AcDbLine
 10
42.18817142235812
 20
2.916768694378905
 30
0.0
 11
43.16119791794597
 21
3.889795189966758
 31
0.0
  0
LINE
  5
D2B8
330
D29A
100
AcDbEntity
  8
0
  6
CONTINUOUS
100
AcDbLine
 10
42.50563373493829
 20
2.560711797878898
 30
0.0
 11
43.47866023052615
 21
3.533738293466751
 31
0.0
  0
LINE
  5
D2B9
330
D29A
100
AcDbEntity
  8
0
  6
CONTINUOUS
100
AcDbLine
 10
43.57899999995641
 20
4.307597271977198
 30
0.0
 11
44.99999999995498
 21
5.728597271975769
 31
0.0
  0
LINE
  5
D2BA
330
D29A
100
AcDbEntity
  8
0
  6
CONTINUOUS
100
AcDbLine
 10
43.57899999995641
 20
3.634078062897011
 30
0.0
 11
44.99999999995498
 21
5.055078062895582
 31
0.0
  0
LINE
  5
D2BB
330
D29A
100
AcDbEntity
  8
0
  6
CONTINUOUS
100
AcDbLine
 10
42.82309604751848
 20
2.204654901378891
 30
0.0
 11
44.99999999995498
 21
4.381558853815395
 31
0.0
  0
LINE
  5
D2BC
330
D29A
100
AcDbEntity
  8
0
  6
CONTINUOUS
100
AcDbLine
 10
43.14055836009865
 20
1.848598004878885
 30
0.0
 11
44.99999999995498
 21
3.70803964473521
 31
0.0
  0
LINE
  5
D2BD
330
D29A
100
AcDbEntity
  8
0
  6
CONTINUOUS
100
AcDbLine
 10
43.45802067267883
 20
1.492541108378878
 30
0.0
 11
44.99999999995498
 21
3.034520435655023
 31
0.0
  0
LINE
  5
D2BE
330
D29A
100
AcDbEntity
  8
0
  6
CONTINUOUS
100
AcDbLine
 10
43.77548298525902
 20
1.136484211878871
 30
0.0
 11
44.99999999995498
 21
2.361001226574837
 31
0.0
  0
LINE
  5
D2BF
330
D29A
100
AcDbEntity
  8
0
  6
CONTINUOUS
100
AcDbLine
 10
44.09294529783919
 20
0.7804273153788639
 30
0.0
 11
44.99999999995498
 21
1.687482017494649
 31
0.0
  0
LINE
  5
D2C0
330
D29A
100
AcDbEntity
  8
0
  6
CONTINUOUS
100
AcDbLine
 10
44.41040761041938
 20
0.4243704188788566
 30
0.0
 11
44.99999999995498
 21
1.013962808414463
 31
0.0
  0
LINE
  5
D2C1
330
D29A
100
AcDbEntity
  8
0
  6
CONTINUOUS
100
AcDbLine
 10
44.72786992299955
 20
0.0683135223788494
 30
0.0
 11
44.99999999995498
 21
0.340443599334276
 31
0.0
  0
LINE
  5
D2C2
330
D29A
100
AcDbEntity
  8
0
  6
CONTINUOUS
100
AcDbLine
 10
39.12223903415696
 20
-0.0000000000000009
 30
0.0
 11
38.60499999996136
 21
0.5172390341955961
 31
0.0
  0
LINE
  5
D2C3
330
D29A
100
AcDbEntity
  8
0
  6
CONTINUOUS
100
AcDbLine
 10
39.79575824323715
 20
-0.0000000000000009
 30
0.0
 11
38.60499999996136
 21
1.190758243275783
 31
0.0
  0
LINE
  5
D2C4
330
D29A
100
AcDbEntity
  8
0
  6
CONTINUOUS
100
AcDbLine
 10
40.02599999995994
 20
0.443277452357397
 30
0.0
 11
38.60499999996136
 21
1.864277452355969
 31
0.0
  0
LINE
  5
D2C5
330
D29A
100
AcDbEntity
  8
0
  6
CONTINUOUS
100
AcDbLine
 10
40.02599999995994
 20
1.116796661437583
 30
0.0
 11
38.60499999996136
 21
2.537796661436155
 31
0.0
  0
LINE
  5
D2C6
330
D29A
100
AcDbEntity
  8
0
  6
CONTINUOUS
100
AcDbLine
 10
40.02599999995994
 20
1.79031587051777
 30
0.0
 11
38.60499999996136
 21
3.211315870516341
 31
0.0
  0
LINE
  5
D2C7
330
D29A
100
AcDbEntity
  8
0
  6
CONTINUOUS
100
AcDbLine
 10
40.02599999995994
 20
2.463835079597956
 30
0.0
 11
38.60499999996136
 21
3.884835079596527
 31
0.0
  0
LINE
  5
D2C8
330
D29A
100
AcDbEntity
  8
0
  6
CONTINUOUS
100
AcDbLine
 10
40.02599999995994
 20
3.137354288678143
 30
0.0
 11
38.60499999996136
 21
4.558354288676714
 31
0.0
  0
LINE
  5
D2C9
330
D29A
100
AcDbEntity
  8
0
  6
CONTINUOUS
100
AcDbLine
 10
40.02599999995994
 20
3.810873497758329
 30
0.0
 11
38.60499999996136
 21
5.2318734977569
 31
0.0
  0
LINE
  5
D2CA
330
D29A
100
AcDbEntity
  8
0
  6
CONTINUOUS
100
AcDbLine
 10
40.02599999995994
 20
4.484392706838515
 30
0.0
 11
38.60499999996136
 21
5.905392706837086
 31
0.0
  0
LINE
  5
D2CB
330
D29A
100
AcDbEntity
  8
0
  6
CONTINUOUS
100
AcDbLine
 10
44.99999999995498
 20
0.183911915923658
 30
0.0
 11
41.53858364506288
 21
3.64532827081576
 31
0.0
  0
LINE
  5
D2CC
330
D29A
100
AcDbEntity
  8
0
  6
CONTINUOUS
100
AcDbLine
 10
40.02599999995994
 20
5.157911915918703
 30
0.0
 11
38.60499999996136
 21
6.578911915917274
 31
0.0
  0
LINE
  5
D2CD
330
D29A
100
AcDbEntity
  8
0
  6
CONTINUOUS
100
AcDbLine
 10
44.99999999995498
 20
0.8574311250038447
 30
0.0
 11
38.60499999996136
 21
7.25243112499746
 31
0.0
  0
LINE
  5
D2CE
330
D29A
100
AcDbEntity
  8
0
  6
CONTINUOUS
100
AcDbLine
 10
44.99999999995498
 20
1.530950334084031
 30
0.0
 11
38.60499999996136
 21
7.925950334077647
 31
0.0
  0
LINE
  5
D2CF
330
D29A
100
AcDbEntity
  8
0
  6
CONTINUOUS
100
AcDbLine
 10
44.99999999995498
 20
2.204469543164218
 30
0.0
 11
43.57899999995641
 21
3.625469543162789
 31
0.0
  0
LINE
  5
D2D0
330
D29A
100
AcDbEntity
  8
0
  6
CONTINUOUS
100
AcDbLine
 10
41.89876730984767
 20
5.305702233271528
 30
0.0
 11
38.60499999996136
 21
8.599469543157834
 31
0.0
  0
LINE
  5
D2D1
330
D29A
100
AcDbEntity
  8
0
  6
CONTINUOUS
100
AcDbLine
 10
44.99999999995498
 20
2.877988752244405
 30
0.0
 11
43.57899999995641
 21
4.298988752242975
 31
0.0
  0
LINE
  5
D2D2
330
D29A
100
AcDbEntity
  8
0
  6
CONTINUOUS
100
AcDbLine
 10
44.99999999995498
 20
3.551507961324591
 30
0.0
 11
43.57899999995641
 21
4.972507961323163
 31
0.0
  0
LINE
  5
D2D3
330
D29A
100
AcDbEntity
  8
0
  6
CONTINUOUS
100
AcDbLine
 10
44.99999999995498
 20
4.225027170404777
 30
0.0
 11
43.57899999995641
 21
5.646027170403348
 31
0.0
  0
LINE
  5
D2D4
330
D29A
100
AcDbEntity
  8
0
  6
CONTINUOUS
100
AcDbLine
 10
44.99999999995498
 20
4.898546379484964
 30
0.0
 11
43.57899999995641
 21
6.319546379483535
 31
0.0
  0
LINE
  5
D2D5
330
D29A
100
AcDbEntity
  8
0
  6
CONTINUOUS
100
AcDbLine
 10
44.99999999995498
 20
5.572065588565151
 30
0.0
 11
43.57899999995641
 21
6.993065588563722
 31
0.0
  0
LINE
  5
D2D6
330
D29A
100
AcDbEntity
  8
0
  6
CONTINUOUS
100
AcDbLine
 10
44.99999999995498
 20
6.245584797645336
 30
0.0
 11
43.57899999995641
 21
7.666584797643908
 31
0.0
  0
LINE
  5
D2D7
330
D29A
100
AcDbEntity
  8
0
  6
CONTINUOUS
100
AcDbLine
 10
44.99999999995498
 20
6.919104006725522
 30
0.0
 11
43.57899999995641
 21
8.340104006724093
 31
0.0
  0
LINE
  5
D2D8
330
D29A
100
AcDbEntity
  8
0
  6
CONTINUOUS
100
AcDbLine
 10
44.99999999995498
 20
7.592623215805709
 30
0.0
 11
43.82952321576943
 21
8.763099999991255
 31
0.0
  0
LINE
  5
D2D9
330
D29A
100
AcDbEntity
  8
0
  6
CONTINUOUS
100
AcDbLine
 10
44.99999999995498
 20
8.266142424885896
 30
0.0
 11
44.50304242484962
 21
8.763099999991255
 31
0.0
  0
ENDBLK
  5
D303
330
D29A
100
AcDbEntity
  8
0
100
AcDbBlockEnd
  0
BLOCK
  5
D304
330
D2DA
100
AcDbEntity
  8
0
100
AcDbBlockBegin
  2
*X136
 70
     1
 10
0.0
 20
0.0
 30
0.0
  3
*X136
  1

  0
LINE
  5
D2DB
330
D2DA
100
AcDbEntity
  8
0
  6
CONTINUOUS
100
AcDbLine
 10
0.0
 20
8.548461116714023
 30
0.0
 11
0.2146388832772324
 21
8.763099999991255
 31
0.0
  0
LINE
  5
D2DC
330
D2DA
100
AcDbEntity
  8
0
  6
CONTINUOUS
100
AcDbLine
 10
-0.0000000000000002
 20
7.874941907633837
 30
0.0
 11
0.8881580923574184
 21
8.763099999991255
 31
0.0
  0
LINE
  5
D2DD
330
D2DA
100
AcDbEntity
  8
0
  6
CONTINUOUS
100
AcDbLine
 10
0.0
 20
7.20142269855365
 30
0.0
 11
1.420999999998572
 21
8.622422698552223
 31
0.0
  0
LINE
  5
D2DE
330
D2DA
100
AcDbEntity
  8
0
  6
CONTINUOUS
100
AcDbLine
 10
-0.0000000000000001
 20
6.527903489473465
 30
0.0
 11
1.420999999998571
 21
7.948903489472036
 31
0.0
  0
LINE
  5
D2DF
330
D2DA
100
AcDbEntity
  8
0
  6
CONTINUOUS
100
AcDbLine
 10
-0.0000000000000002
 20
5.854384280393278
 30
0.0
 11
1.420999999998571
 21
7.275384280391849
 31
0.0
  0
LINE
  5
D2E0
330
D2DA
100
AcDbEntity
  8
0
  6
CONTINUOUS
100
AcDbLine
 10
-0.0000000000000002
 20
5.180865071313091
 30
0.0
 11
1.420999999998571
 21
6.601865071311663
 31
0.0
  0
LINE
  5
D2E1
330
D2DA
100
AcDbEntity
  8
0
  6
CONTINUOUS
100
AcDbLine
 10
0.0
 20
4.507345862232905
 30
0.0
 11
1.420999999998571
 21
5.928345862231477
 31
0.0
  0
LINE
  5
D2E2
330
D2DA
100
AcDbEntity
  8
0
  6
CONTINUOUS
100
AcDbLine
 10
-0.0000000000000003
 20
3.833826653152718
 30
0.0
 11
1.420999999998571
 21
5.25482665315129
 31
0.0
  0
LINE
  5
D2E3
330
D2DA
100
AcDbEntity
  8
0
  6
CONTINUOUS
100
AcDbLine
 10
-0.0000000000000002
 20
3.160307444072532
 30
0.0
 11
1.420999999998571
 21
4.581307444071103
 31
0.0
  0
LINE
  5
D2E4
330
D2DA
100
AcDbEntity
  8
0
  6
CONTINUOUS
100
AcDbLine
 10
-0.0000000000000001
 20
2.486788234992345
 30
0.0
 11
1.420999999998571
 21
3.907788234990917
 31
0.0
  0
LINE
  5
D2E5
330
D2DA
100
AcDbEntity
  8
0
  6
CONTINUOUS
100
AcDbLine
 10
-0.0000000000000006
 20
1.813269025912159
 30
0.0
 11
1.420999999998571
 21
3.234269025910731
 31
0.0
  0
LINE
  5
D2E6
330
D2DA
100
AcDbEntity
  8
0
  6
CONTINUOUS
100
AcDbLine
 10
0.0
 20
1.139749816831973
 30
0.0
 11
1.420999999998571
 21
2.560749816830544
 31
0.0
  0
LINE
  5
D2E7
330
D2DA
100
AcDbEntity
  8
0
  6
CONTINUOUS
100
AcDbLine
 10
0.0000000000000002
 20
0.466230607751787
 30
0.0
 11
1.420999999998571
 21
1.887230607750358
 31
0.0
  0
LINE
  5
D2E8
330
D2DA
100
AcDbEntity
  8
0
  6
CONTINUOUS
100
AcDbLine
 10
0.2072886013284003
 20
-0.0000000000000009
 30
0.0
 11
1.420999999998571
 21
1.213711398670171
 31
0.0
  0
LINE
  5
D2E9
330
D2DA
100
AcDbEntity
  8
0
  6
CONTINUOUS
100
AcDbLine
 10
0.8808078104085864
 20
-0.0000000000000009
 30
0.0
 11
1.420999999998571
 21
0.5401921895899839
 31
0.0
  0
LINE
  5
D2EA
330
D2DA
100
AcDbEntity
  8
0
  6
CONTINUOUS
100
AcDbLine
 10
0.0581249075061505
 20
-0.0000000000000009
 30
0.0
 11
-0.0000000000000002
 21
0.0581249075061496
 31
0.0
  0
LINE
  5
D2EB
330
D2DA
100
AcDbEntity
  8
0
  6
CONTINUOUS
100
AcDbLine
 10
0.7316441165863372
 20
-0.0000000000000009
 30
0.0
 11
-0.0000000000000002
 21
0.7316441165863363
 31
0.0
  0
LINE
  5
D2EC
330
D2DA
100
AcDbEntity
  8
0
  6
CONTINUOUS
100
AcDbLine
 10
1.405163325666523
 20
-0.0000000000000009
 30
0.0
 11
-0.0000000000000002
 21
1.405163325666523
 31
0.0
  0
LINE
  5
D2ED
330
D2DA
100
AcDbEntity
  8
0
  6
CONTINUOUS
100
AcDbLine
 10
1.420999999998572
 20
0.6576825347481381
 30
0.0
 11
-0.0000000000000001
 21
2.07868253474671
 31
0.0
  0
LINE
  5
D2EE
330
D2DA
100
AcDbEntity
  8
0
  6
CONTINUOUS
100
AcDbLine
 10
1.420999999998571
 20
1.331201743828324
 30
0.0
 11
-0.0000000000000001
 21
2.752201743826896
 31
0.0
  0
LINE
  5
D2EF
330
D2DA
100
AcDbEntity
  8
0
  6
CONTINUOUS
100
AcDbLine
 10
1.420999999998571
 20
2.004720952908511
 30
0.0
 11
-0.0000000000000002
 21
3.425720952907082
 31
0.0
  0
LINE
  5
D2F0
330
D2DA
100
AcDbEntity
  8
0
  6
CONTINUOUS
100
AcDbLine
 10
1.420999999998571
 20
2.678240161988697
 30
0.0
 11
-0.0000000000000001
 21
4.099240161987269
 31
0.0
  0
LINE
  5
D2F1
330
D2DA
100
AcDbEntity
  8
0
  6
CONTINUOUS
100
AcDbLine
 10
1.420999999998572
 20
3.351759371068884
 30
0.0
 11
0.0
 21
4.772759371067455
 31
0.0
  0
LINE
  5
D2F2
330
D2DA
100
AcDbEntity
  8
0
  6
CONTINUOUS
100
AcDbLine
 10
1.420999999998571
 20
4.02527858014907
 30
0.0
 11
-0.0000000000000003
 21
5.446278580147642
 31
0.0
  0
LINE
  5
D2F3
330
D2DA
100
AcDbEntity
  8
0
  6
CONTINUOUS
100
AcDbLine
 10
1.420999999998571
 20
4.698797789229257
 30
0.0
 11
0.0
 21
6.119797789227828
 31
0.0
  0
LINE
  5
D2F4
330
D2DA
100
AcDbEntity
  8
0
  6
CONTINUOUS
100
AcDbLine
 10
1.420999999998571
 20
5.372316998309444
 30
0.0
 11
-0.0000000000000001
 21
6.793316998308015
 31
0.0
  0
LINE
  5
D2F5
330
D2DA
100
AcDbEntity
  8
0
  6
CONTINUOUS
100
AcDbLine
 10
1.420999999998572
 20
6.045836207389629
 30
0.0
 11
-0.0000000000000004
 21
7.466836207388202
 31
0.0
  0
LINE
  5
D2F6
330
D2DA
100
AcDbEntity
  8
0
  6
CONTINUOUS
100
AcDbLine
 10
1.420999999998571
 20
6.719355416469816
 30
0.0
 11
0.0
 21
8.140355416468388
 31
0.0
  0
LINE
  5
D2F7
330
D2DA
100
AcDbEntity
  8
0
  6
CONTINUOUS
100
AcDbLine
 10
1.420999999998571
 20
7.392874625550003
 30
0.0
 11
0.0507746255573185
 21
8.763099999991255
 31
0.0
  0
LINE
  5
D2F8
330
D2DA
100
AcDbEntity
  8
0
  6
CONTINUOUS
100
AcDbLine
 10
1.420999999998571
 20
8.06639383463019
 30
0.0
 11
0.7242938346375052
 21
8.763099999991255
 31
0.0
  0
LINE
  5
D2F9
330
D2DA
100
AcDbEntity
  8
0
  6
CONTINUOUS
100
AcDbLine
 10
1.420999999998571
 20
8.739913043710375
 30
0.0
 11
1.397813043717691
 21
8.763099999991255
 31
0.0
  0
ENDBLK
  5
D305
330
D2DA
100
AcDbEntity
  8
0
100
AcDbBlockEnd
  0
ENDSEC
  0
SECTION
  2
ENTITIES
  0
TEXT
  5
CB8B
330
18
100
AcDbEntity
  8
1TEXT
100
AcDbText
 10
5670.239694600286
 20
-233.7792842657856
 30
0.0
 40
4.0
  1
表面処理：プレート
 41
0.8
 72
     1
 11
5686.93302793362
 21
-233.7792842657856
 31
0.0
100
AcDbText
  0
LINE
  5
CB8C
330
18
100
AcDbEntity
  8
1DIM
100
AcDbLine
 10
5634.53302793362
 20
-228.2792842657856
 30
0.0
 11
5739.53302793362
 21
-228.2792842657856
 31
0.0
  0
LINE
  5
CB8D
330
18
100
AcDbEntity
  8
1DIM
100
AcDbLine
 10
5704.53302793362
 20
-242.2792842657856
 30
0.0
 11
5739.53302793362
 21
-242.2792842657856
 31
0.0
  0
LINE
  5
CB8E
330
18
100
AcDbEntity
  8
1DIM
100
AcDbLine
 10
5634.53302793362
 20
-235.2792842657856
 30
0.0
 11
5739.53302793362
 21
-235.2792842657856
 31
0.0
  0
LINE
  5
CB8F
330
18
100
AcDbEntity
  8
1DIM
100
AcDbLine
 10
5634.53302793362
 20
-249.2792842657856
 30
0.0
 11
5739.53302793362
 21
-249.2792842657856
 31
0.0
  0
LINE
  5
CB90
330
18
100
AcDbEntity
  8
1DIM
100
AcDbLine
 10
5634.53302793362
 20
-249.2792842657856
 30
0.0
 11
5739.53302793362
 21
-249.2792842657856
 31
0.0
  0
LINE
  5
CB91
330
18
100
AcDbEntity
  8
1DIM
100
AcDbLine
 10
5704.53302793362
 20
-228.2792842657856
 30
0.0
 11
5704.53302793362
 21
-249.2792842657856
 31
0.0
  0
TEXT
  5
CB92
330
18
100
AcDbEntity
  8
1TEXT
100
AcDbText
 10
5715.066361266953
 20
-233.7792842657856
 30
0.0
 40
4.0
  1
コード
 72
     1
 11
5721.93302793362
 21
-233.7792842657856
 31
0.0
100
AcDbText
  0
TEXT
  5
CB96
330
18
100
AcDbEntity
  8
1TEXT
100
AcDbText
 10
5635.466361266954
 20
-233.7792842657856
 30
0.0
 40
4.0
  1
表面処理：本体
 72
     1
 11
5651.93302793362
 21
-233.7792842657856
 31
0.0
100
AcDbText
  0
TEXT
  5
CB97
330
18
100
AcDbEntity
  8
1TEXT
100
AcDbText
 10
5635.066361266953
 20
-240.61457292531
 30
0.0
 40
4.0
  1
ソフトニッケル
 72
     1
 11
5651.93302793362
 21
-240.61457292531
 31
0.0
100
AcDbText
  0
TEXT
  5
CB98
330
18
100
AcDbEntity
  8
1TEXT
100
AcDbText
 10
5635.599694600287
 20
-247.61457292531
 30
0.0
 40
4.0
  1
ピアノブラック
 72
     1
 11
5651.93302793362
 21
-247.61457292531
 31
0.0
100
AcDbText
  0
LINE
  5
CB99
330
18
100
AcDbEntity
  8
1DIM
100
AcDbLine
 10
5634.53302793362
 20
-249.2792842657856
 30
0.0
 11
5634.53302793362
 21
-228.2792842657856
 31
0.0
  0
TEXT
  5
CB9A
330
18
100
AcDbEntity
  8
1TEXT
100
AcDbText
 10
5708.315805711399
 20
-240.9936412494349
 30
0.0
 40
4.0
  1
GP-139-015-01
 41
0.6
 72
     1
 11
5721.933027933621
 21
-240.9936412494349
 31
0.0
100
AcDbText
  0
TEXT
  5
CB9F
330
18
100
AcDbEntity
  8
1TEXT
100
AcDbText
 10
5670.19302793362
 20
-244.2145729253101
 30
0.0
 40
4.0
  1
ブラストブラック
 41
0.9
 72
     1
 11
5686.93302793362
 21
-244.2145729253101
 31
0.0
100
AcDbText
  0
TEXT
  5
CBA0
330
18
100
AcDbEntity
  8
1TEXT
100
AcDbText
 10
5708.124139044732
 20
-247.9936412494349
 30
0.0
 40
4.0
  1
GP-139-002-01
 41
0.6
 72
     1
 11
5721.933027933621
 21
-247.9936412494349
 31
0.0
100
AcDbText
  0
LINE
  5
CBDE
330
18
100
AcDbEntity
  8
1DIM
100
AcDbLine
 10
5739.53302793362
 20
-249.2792842657856
 30
0.0
 11
5739.53302793362
 21
-228.2792842657856
 31
0.0
  0
LINE
  5
CBE0
330
18
100
AcDbEntity
  8
1DIM
100
AcDbLine
 10
5669.53302793362
 20
-249.2792842657856
 30
0.0
 11
5669.53302793362
 21
-228.2792842657856
 31
0.0
  0
LINE
  5
CBE1
330
18
100
AcDbEntity
  8
1DIM
100
AcDbLine
 10
5634.53302793362
 20
-242.2792842657856
 30
0.0
 11
5669.53302793362
 21
-242.2792842657856
 31
0.0
  0
LINE
  5
CDB9
330
18
100
AcDbEntity
  8
01
100
AcDbLine
 10
5486.042363113566
 20
-383.4155822437739
 30
0.0
 11
5655.042363113566
 21
-383.4155822437739
 31
0.0
  0
LINE
  5
CDBA
330
18
100
AcDbEntity
  8
01
100
AcDbLine
 10
5486.042363113566
 20
-343.4155822437737
 30
0.0
 11
5655.042363113566
 21
-343.4155822437737
 31
0.0
  0
LINE
  5
CDBB
330
18
100
AcDbEntity
  8
01
100
AcDbLine
 10
5486.042363113566
 20
-383.4155822437739
 30
0.0
 11
5486.042363113565
 21
-365.4155822437739
 31
0.0
  0
ARC
  5
CDBC
330
18
100
AcDbEntity
  8
01
100
AcDbCircle
 10
5486.542363113565
 20
-365.4155822437739
 30
0.0
 40
0.5
100
AcDbArc
 50
90.0
 51
180.0
  0
LINE
  5
CDBD
330
18
100
AcDbEntity
  8
01
100
AcDbLine
 10
5486.042363113565
 20
-361.4155822437739
 30
0.0
 11
5486.042363113565
 21
-343.4155822437737
 31
0.0
  0
LINE
  5
CDBE
330
18
100
AcDbEntity
  8
01
100
AcDbLine
 10
5655.042363113565
 20
-383.4155822437739
 30
0.0
 11
5655.042363113565
 21
-365.4155822437739
 31
0.0
  0
ARC
  5
CDBF
330
18
100
AcDbEntity
  8
01
100
AcDbCircle
 10
5654.542363113565
 20
-365.4155822437739
 30
0.0
 40
0.5
100
AcDbArc
 50
0.0
 51
90.0
  0
LINE
  5
CDC0
330
18
100
AcDbEntity
  8
01
100
AcDbLine
 10
5655.042363113565
 20
-361.4155822437739
 30
0.0
 11
5655.042363113565
 21
-343.4155822437737
 31
0.0
  0
LINE
  5
CDC1
330
18
100
AcDbEntity
  8
01
100
AcDbLine
 10
5655.042363113567
 20
-293.4155822437738
 30
0.0
 11
5486.042363113565
 21
-293.4155822437735
 31
0.0
  0
LINE
  5
CDC2
330
18
100
AcDbEntity
  8
01
100
AcDbLine
 10
5655.042363113567
 20
-287.9155822437733
 30
0.0
 11
5486.042363113567
 21
-287.9155822437733
 31
0.0
  0
LINE
  5
CDC3
330
18
100
AcDbEntity
  8
01
100
AcDbLine
 10
5486.042363113567
 20
-287.9155822437733
 30
0.0
 11
5486.042363113567
 21
-293.4155822437738
 31
0.0
  0
LINE
  5
CDC4
330
18
100
AcDbEntity
  8
01
100
AcDbLine
 10
5655.042363113567
 20
-287.9155822437733
 30
0.0
 11
5655.042363113567
 21
-293.4155822437738
 31
0.0
  0
LINE
  5
CDC5
330
18
100
AcDbEntity
  8
01
100
AcDbLine
 10
5485.792363113563
 20
-382.1655822437739
 30
0.0
 11
5485.792363113564
 21
-344.6655822437739
 31
0.0
  0
ARC
  5
CDC6
330
18
100
AcDbEntity
  8
01
100
AcDbCircle
 10
5486.292363113564
 20
-344.6655822437739
 30
0.0
 40
0.5
100
AcDbArc
 50
119.9999999997581
 51
180.0
  0
ARC
  5
CDC7
330
18
100
AcDbEntity
  8
01
100
AcDbCircle
 10
5486.292363113563
 20
-382.1655822437739
 30
0.0
 40
0.5
100
AcDbArc
 50
180.0
 51
240.000000000481
  0
LINE
  5
CDC8
330
18
100
AcDbEntity
  8
01
100
AcDbLine
 10
5655.292363113565
 20
-382.1655822437739
 30
0.0
 11
5655.292363113564
 21
-344.6655822437739
 31
0.0
  0
ARC
  5
CDC9
330
18
100
AcDbEntity
  8
01
100
AcDbCircle
 10
5654.792363113565
 20
-382.1655822437739
 30
0.0
 40
0.5
100
AcDbArc
 50
300.0000000001201
 51
0.0
  0
ARC
  5
CDCA
330
18
100
AcDbEntity
  8
01
100
AcDbCircle
 10
5654.792363113564
 20
-344.6655822437739
 30
0.0
 40
0.5
100
AcDbArc
 50
0.0
 51
59.99999999987988
  0
LINE
  5
CDCB
330
18
100
AcDbEntity
  8
01
100
AcDbLine
 10
5706.442363113563
 20
-344.1655822437739
 30
0.0
 11
5710.292363113564
 21
-344.1655822437748
 31
0.0
  0
ARC
  5
CDCC
330
18
100
AcDbEntity
  8
01
100
AcDbCircle
 10
5709.292363113564
 20
-344.6655822437743
 30
0.0
 40
0.5
100
AcDbArc
 50
0.0
 51
90.0
  0
LINE
  5
CDCD
330
18
100
AcDbEntity
  8
01
100
AcDbLine
 10
5709.792363113564
 20
-344.6655822437743
 30
0.0
 11
5709.792363113564
 21
-347.1655822437739
 31
0.0
  0
LINE
  5
CDCE
330
18
100
AcDbEntity
  8
01
100
AcDbLine
 10
5709.792363113564
 20
-379.6655822437739
 30
0.0
 11
5709.792363113564
 21
-382.1655822437739
 31
0.0
  0
ARC
  5
CDCF
330
18
100
AcDbEntity
  8
01
100
AcDbCircle
 10
5709.292363113564
 20
-382.1655822437739
 30
0.0
 40
0.5
100
AcDbArc
 50
270.0
 51
0.0
  0
LINE
  5
CDD0
330
18
100
AcDbEntity
  8
01
100
AcDbLine
 10
5705.942363113563
 20
-344.6655822437739
 30
0.0
 11
5705.942363113565
 21
-382.1655822437739
 31
0.0
  0
ARC
  5
CDD1
330
18
100
AcDbEntity
  8
01
100
AcDbCircle
 10
5706.442363113565
 20
-382.1655822437739
 30
0.0
 40
0.5
100
AcDbArc
 50
180.0
 51
270.0
  0
ARC
  5
CDD2
330
18
100
AcDbEntity
  8
01
100
AcDbCircle
 10
5706.442363113563
 20
-344.6655822437739
 30
0.0
 40
0.5
100
AcDbArc
 50
90.0
 51
180.0
  0
LINE
  5
CDD3
330
18
100
AcDbEntity
  8
01
100
AcDbLine
 10
5710.992363113564
 20
-344.6655822437746
 30
0.0
 11
5710.992363113564
 21
-346.7655822437738
 31
0.0
  0
ARC
  5
CDD4
330
18
100
AcDbEntity
  8
01
100
AcDbCircle
 10
5710.492363113564
 20
-344.6655822437746
 30
0.0
 40
0.5
100
AcDbArc
 50
0.0
 51
53.1301023542602
  0
LINE
  5
CDD5
330
18
100
AcDbEntity
  8
01
100
AcDbLine
 10
5710.992363113564
 20
-380.0655822437742
 30
0.0
 11
5710.992363113564
 21
-382.1655822437739
 31
0.0
  0
LINE
  5
CDD6
330
18
100
AcDbEntity
  8
01
100
AcDbLine
 10
5706.442363113565
 20
-382.6655822437739
 30
0.0
 11
5710.292363113564
 21
-382.6655822437737
 31
0.0
  0
ARC
  5
CDD7
330
18
100
AcDbEntity
  8
01
100
AcDbCircle
 10
5710.492363113564
 20
-382.1655822437739
 30
0.0
 40
0.5
100
AcDbArc
 50
306.8698976457398
 51
0.0
  0
LINE
  5
CDD8
330
18
100
AcDbEntity
  8
01
100
AcDbLine
 10
5709.792363113564
 20
-379.6655822437737
 30
0.0
 11
5713.942363113565
 21
-379.6655822437739
 31
0.0
  0
LINE
  5
CDD9
330
18
100
AcDbEntity
  8
01
100
AcDbLine
 10
5709.792363113564
 20
-347.1655822437737
 30
0.0
 11
5713.942363113563
 21
-347.1655822437739
 31
0.0
  0
LINE
  5
CDDA
330
18
100
AcDbEntity
  8
01
100
AcDbLine
 10
5705.792363113564
 20
-377.6655822437739
 30
0.0
 11
5705.942363113563
 21
-377.6655822437739
 31
0.0
  0
LINE
  5
CDDB
330
18
100
AcDbEntity
  8
01
100
AcDbLine
 10
5705.792363113564
 20
-379.6655822437739
 30
0.0
 11
5705.942363113563
 21
-379.6655822437739
 31
0.0
  0
LINE
  5
CDDC
330
18
100
AcDbEntity
  8
01
100
AcDbLine
 10
5705.792363113564
 20
-379.6655822437739
 30
0.0
 11
5705.792363113564
 21
-377.6655822437739
 31
0.0
  0
LINE
  5
CDDD
330
18
100
AcDbEntity
  8
01
100
AcDbLine
 10
5713.942363113563
 20
-346.7655822437736
 30
0.0
 11
5710.792363113564
 21
-346.7655822437738
 31
0.0
  0
LINE
  5
CDDE
330
18
100
AcDbEntity
  8
01
100
AcDbLine
 10
5710.292363113564
 20
-346.7655822437738
 30
0.0
 11
5709.792363113564
 21
-346.7655822437738
 31
0.0
  0
LINE
  5
CDDF
330
18
100
AcDbEntity
  8
01
100
AcDbLine
 10
5713.942363113565
 20
-380.0655822437742
 30
0.0
 11
5710.792363113564
 21
-380.0655822437742
 31
0.0
  0
LINE
  5
CDE0
330
18
100
AcDbEntity
  8
01
100
AcDbLine
 10
5710.292363113564
 20
-380.0655822437742
 30
0.0
 11
5709.792363113564
 21
-380.0655822437742
 31
0.0
  0
LINE
  5
CDE1
330
18
100
AcDbEntity
  8
01
100
AcDbLine
 10
5705.792363113564
 20
-349.1655822437739
 30
0.0
 11
5705.942363113563
 21
-349.1655822437739
 31
0.0
  0
LINE
  5
CDE2
330
18
100
AcDbEntity
  8
01
100
AcDbLine
 10
5705.792363113564
 20
-347.1655822437739
 30
0.0
 11
5705.942363113563
 21
-347.1655822437739
 31
0.0
  0
LINE
  5
CDE3
330
18
100
AcDbEntity
  8
01
100
AcDbLine
 10
5705.792363113564
 20
-347.1655822437739
 30
0.0
 11
5705.792363113564
 21
-349.1655822437739
 31
0.0
  0
LINE
  5
CDE4
330
18
100
AcDbEntity
  8
01
100
AcDbLine
 10
5710.792363113564
 20
-379.9155822437739
 30
0.0
 11
5710.792363113564
 21
-382.9155822437739
 31
0.0
  0
ARC
  5
CDE5
330
18
100
AcDbEntity
  8
01
100
AcDbCircle
 10
5710.292363113564
 20
-382.9155822437739
 30
0.0
 40
0.5
100
AcDbArc
 50
270.0
 51
0.0000000000130276
  0
LINE
  5
CDE6
330
18
100
AcDbEntity
  8
01
100
AcDbLine
 10
5710.292363113564
 20
-379.9155822437739
 30
0.0
 11
5710.292363113564
 21
-382.9155822437739
 31
0.0
  0
LINE
  5
CDE7
330
18
100
AcDbEntity
  8
01
100
AcDbLine
 10
5705.792363113564
 20
-383.4155822437741
 30
0.0
 11
5710.292363113564
 21
-383.4155822437739
 31
0.0
  0
ARC
  5
CDE8
330
18
100
AcDbEntity
  8
01
100
AcDbCircle
 10
5705.792363113564
 20
-382.9155822437741
 30
0.0
 40
0.5
100
AcDbArc
 50
180.0
 51
270.0
  0
LINE
  5
CDE9
330
18
100
AcDbEntity
  8
01
100
AcDbLine
 10
5705.792363113564
 20
-382.9155822437741
 30
0.0
 11
5710.292363113564
 21
-382.9155822437737
 31
0.0
  0
LINE
  5
CDEA
330
18
100
AcDbEntity
  8
01
100
AcDbLine
 10
5710.292363113564
 20
-379.9155822437739
 30
0.0
 11
5710.792363113564
 21
-379.9155822437739
 31
0.0
  0
LINE
  5
CDEB
330
18
100
AcDbEntity
  8
01
100
AcDbLine
 10
5705.792363113564
 20
-343.4155822437737
 30
0.0
 11
5710.292363113564
 21
-343.4155822437737
 31
0.0
  0
LINE
  5
CDEC
330
18
100
AcDbEntity
  8
01
100
AcDbLine
 10
5705.792363113564
 20
-343.9155822437737
 30
0.0
 11
5710.292363113564
 21
-343.9155822437737
 31
0.0
  0
LINE
  5
CDED
330
18
100
AcDbEntity
  8
01
100
AcDbLine
 10
5710.292363113564
 20
-346.9155822437737
 30
0.0
 11
5710.792363113564
 21
-346.9155822437737
 31
0.0
  0
LINE
  5
CDEE
330
18
100
AcDbEntity
  8
01
100
AcDbLine
 10
5710.792363113564
 20
-343.9155822437737
 30
0.0
 11
5710.792363113564
 21
-346.9155822437737
 31
0.0
  0
ARC
  5
CDEF
330
18
100
AcDbEntity
  8
01
100
AcDbCircle
 10
5710.292363113564
 20
-343.9155822437737
 30
0.0
 40
0.5
100
AcDbArc
 50
0.0000000000130276
 51
90.0
  0
LINE
  5
CDF0
330
18
100
AcDbEntity
  8
01
100
AcDbLine
 10
5710.292363113564
 20
-343.9155822437737
 30
0.0
 11
5710.292363113564
 21
-346.9155822437737
 31
0.0
  0
LINE
  5
CDF1
330
18
100
AcDbEntity
  8
01
100
AcDbLine
 10
5705.292363113564
 20
-343.9155822437737
 30
0.0
 11
5705.292363113564
 21
-382.9155822437741
 31
0.0
  0
ARC
  5
CDF2
330
18
100
AcDbEntity
  8
01
100
AcDbCircle
 10
5705.792363113564
 20
-343.9155822437737
 30
0.0
 40
0.5
100
AcDbArc
 50
90.0
 51
180.0
  0
LINE
  5
CDF3
330
18
100
AcDbEntity
  8
01
100
AcDbLine
 10
5705.792363113564
 20
-343.9155822437737
 30
0.0
 11
5705.792363113564
 21
-382.9155822437741
 31
0.0
  0
LINE
  5
CDF4
330
18
100
AcDbEntity
  8
01
100
AcDbLine
 10
5655.292363113567
 20
-284.7655822437721
 30
0.0
 11
5647.792363113573
 21
-284.7655822437721
 31
0.0
  0
LINE
  5
CDF5
330
18
100
AcDbEntity
  8
01
100
AcDbLine
 10
5646.792363113569
 20
-285.2655822437721
 30
0.0
 11
5641.292363113567
 21
-285.2655822437723
 31
0.0
  0
LINE
  5
CDF6
330
18
100
AcDbEntity
  8
01
100
AcDbLine
 10
5640.292363113565
 20
-284.7655822437723
 30
0.0
 11
5500.792363113569
 21
-284.7655822437723
 31
0.0
  0
LINE
  5
CDF7
330
18
100
AcDbEntity
  8
01
100
AcDbLine
 10
5499.792363113565
 20
-285.2655822437723
 30
0.0
 11
5494.292363113564
 21
-285.2655822437723
 31
0.0
  0
LINE
  5
CDF8
330
18
100
AcDbEntity
  8
01
100
AcDbLine
 10
5493.292363113562
 20
-284.7655822437723
 30
0.0
 11
5485.792363113569
 21
-284.7655822437723
 31
0.0
  0
LINE
  5
CDF9
330
18
100
AcDbEntity
  8
01
100
AcDbLine
 10
5494.389063281284
 20
-287.9155822437733
 30
0.0
 11
5494.389063281285
 21
-285.2655822437723
 31
0.0
  0
LINE
  5
CDFA
330
18
100
AcDbEntity
  8
01
100
AcDbLine
 10
5499.695662945855
 20
-287.9155822437733
 30
0.0
 11
5499.695662945855
 21
-285.2655822437723
 31
0.0
  0
LINE
  5
CDFB
330
18
100
AcDbEntity
  8
01
100
AcDbLine
 10
5646.695662945853
 20
-287.9155822437733
 30
0.0
 11
5646.695662945853
 21
-285.2655822437723
 31
0.0
  0
LINE
  5
CDFC
330
18
100
AcDbEntity
  8
01
100
AcDbLine
 10
5641.389063281282
 20
-287.9155822437733
 30
0.0
 11
5641.389063281282
 21
-285.2655822437725
 31
0.0
  0
LINE
  5
CDFD
330
18
100
AcDbEntity
  8
01
100
AcDbLine
 10
5641.292363113569
 20
-287.9155822437735
 30
0.0
 11
5641.292363113567
 21
-285.2655822437725
 31
0.0
  0
LINE
  5
CDFE
330
18
100
AcDbEntity
  8
01
100
AcDbLine
 10
5646.792363113569
 20
-287.9155822437733
 30
0.0
 11
5646.792363113569
 21
-285.2655822437721
 31
0.0
  0
LINE
  5
CDFF
330
18
100
AcDbEntity
  8
01
100
AcDbLine
 10
5499.792363113565
 20
-287.9155822437733
 30
0.0
 11
5499.792363113565
 21
-285.2655822437723
 31
0.0
  0
LINE
  5
CE00
330
18
100
AcDbEntity
  8
01
100
AcDbLine
 10
5494.292363113565
 20
-287.9155822437733
 30
0.0
 11
5494.292363113564
 21
-285.2655822437723
 31
0.0
  0
ARC
  5
CE01
330
18
100
AcDbEntity
  8
01
100
AcDbCircle
 10
5486.292363113569
 20
-292.2655822437739
 30
0.0
 40
0.5
100
AcDbArc
 50
180.0
 51
239.999999999731
  0
LINE
  5
CE02
330
18
100
AcDbEntity
  8
01
100
AcDbLine
 10
5485.792363113569
 20
-292.2655822437739
 30
0.0
 11
5485.792363113569
 21
-284.7655822437721
 31
0.0
  0
ARC
  5
CE03
330
18
100
AcDbEntity
  8
01
100
AcDbCircle
 10
5486.292363113569
 20
-289.4155822437735
 30
0.0
 40
0.5
100
AcDbArc
 50
120.000000000269
 51
180.0
  0
LINE
  5
CE04
330
18
100
AcDbEntity
  8
01
100
AcDbLine
 10
5493.292363113562
 20
-284.7655822437723
 30
0.0
 11
5493.292363113562
 21
-287.9155822437733
 31
0.0
  0
LINE
  5
CE05
330
18
100
AcDbEntity
  8
01
100
AcDbLine
 10
5500.792363113569
 20
-284.7655822437723
 30
0.0
 11
5500.792363113569
 21
-287.9155822437733
 31
0.0
  0
ARC
  5
CE06
330
18
100
AcDbEntity
  8
01
100
AcDbCircle
 10
5654.792363113564
 20
-292.2655822437739
 30
0.0
 40
0.5
100
AcDbArc
 50
300.0000000004495
 51
0.0
  0
LINE
  5
CE07
330
18
100
AcDbEntity
  8
01
100
AcDbLine
 10
5655.292363113564
 20
-292.2655822437739
 30
0.0
 11
5655.292363113564
 21
-284.7655822437721
 31
0.0
  0
ARC
  5
CE08
330
18
100
AcDbEntity
  8
01
100
AcDbCircle
 10
5654.792363113564
 20
-289.4155822437735
 30
0.0
 40
0.5
100
AcDbArc
 50
0.0
 51
59.9999999995505
  0
LINE
  5
CE09
330
18
100
AcDbEntity
  8
01
100
AcDbLine
 10
5647.792363113573
 20
-284.7655822437723
 30
0.0
 11
5647.792363113573
 21
-287.9155822437733
 31
0.0
  0
LINE
  5
CE0A
330
18
100
AcDbEntity
  8
01
100
AcDbLine
 10
5640.292363113565
 20
-284.7655822437723
 30
0.0
 11
5640.292363113565
 21
-287.9155822437733
 31
0.0
  0
LINE
  5
CE0B
330
18
100
AcDbEntity
  8
1PHANTOM
100
AcDbLine
 10
5615.292363113567
 20
-288.7655822437723
 30
0.0
 11
5615.292363113567
 21
-289.7655822437723
 31
0.0
  0
ARC
  5
CE0C
330
18
100
AcDbEntity
  8
1PHANTOM
100
AcDbCircle
 10
5610.542363113567
 20
-282.9947489104388
 30
0.0
 40
8.270833333333439
100
AcDbArc
 50
234.9488632525387
 51
305.0511367474613
  0
LINE
  5
CE0D
330
18
100
AcDbEntity
  8
1PHANTOM
100
AcDbLine
 10
5605.792363113567
 20
-288.7655822437723
 30
0.0
 11
5605.792363113567
 21
-289.7655822437723
 31
0.0
  0
LINE
  5
CE0E
330
18
100
AcDbEntity
  8
1CENTER
100
AcDbLine
 10
5610.542363113567
 20
-247.1639072437724
 30
0.0
 11
5610.542363113567
 21
-292.6080128177409
 31
0.0
  0
LINE
  5
CE0F
330
18
100
AcDbEntity
  8
1PHANTOM
100
AcDbLine
 10
5615.542363113567
 20
-287.7655822437723
 30
0.0
 11
5615.542363113567
 21
-288.7655822437723
 31
0.0
  0
LINE
  5
CE10
330
18
100
AcDbEntity
  8
1PHANTOM
100
AcDbLine
 10
5605.542363113567
 20
-287.7655822437723
 30
0.0
 11
5605.542363113567
 21
-288.7655822437723
 31
0.0
  0
LINE
  5
CE11
330
18
100
AcDbEntity
  8
1PHANTOM
100
AcDbLine
 10
5615.075426293233
 20
-289.7655822437723
 30
0.0
 11
5606.036995328761
 21
-289.7655822437723
 31
0.0
  0
LINE
  5
CE12
330
18
100
AcDbEntity
  8
1PHANTOM
100
AcDbLine
 10
5608.042363113567
 20
-272.6477166577265
 30
0.0
 11
5613.042363113567
 21
-271.6477166577265
 31
0.0
  0
LINE
  5
CE13
330
18
100
AcDbEntity
  8
1PHANTOM
100
AcDbLine
 10
5608.792363113567
 20
-255.2966711570175
 30
0.0
 11
5608.792363113567
 21
-288.7655822437723
 31
0.0
  0
LINE
  5
CE14
330
18
100
AcDbEntity
  8
1PHANTOM
100
AcDbLine
 10
5610.542363113567
 20
-248.7655822437723
 30
0.0
 11
5608.792363113567
 21
-255.2966711570175
 31
0.0
  0
LINE
  5
CE15
330
18
100
AcDbEntity
  8
1PHANTOM
100
AcDbLine
 10
5610.542363113567
 20
-248.7655822437723
 30
0.0
 11
5612.292363113567
 21
-255.296671157018
 31
0.0
  0
LINE
  5
CE16
330
18
100
AcDbEntity
  8
1PHANTOM
100
AcDbLine
 10
5612.292363113567
 20
-255.296671157018
 30
0.0
 11
5612.292363113567
 21
-288.7655822437723
 31
0.0
  0
LINE
  5
CE17
330
18
100
AcDbEntity
  8
1PHANTOM
100
AcDbLine
 10
5608.226096172531
 20
-254.6109700459338
 30
0.0
 11
5608.976096172531
 21
-254.7609700459338
 31
0.0
  0
LINE
  5
CE18
330
18
100
AcDbEntity
  8
1PHANTOM
100
AcDbLine
 10
5608.226096172531
 20
-254.6109700459338
 30
0.0
 11
5612.623000653623
 21
-253.7315891497155
 31
0.0
  0
LINE
  5
CE19
330
18
100
AcDbEntity
  8
1PHANTOM
100
AcDbLine
 10
5610.855719800511
 20
-249.7850453203378
 30
0.0
 11
5611.605719800511
 21
-249.9350453203378
 31
0.0
  0
LINE
  5
CE1A
330
18
100
AcDbEntity
  8
1PHANTOM
100
AcDbLine
 10
5609.35858271305
 20
-250.38447273783
 30
0.0
 11
5610.10858271305
 21
-250.5344727378297
 31
0.0
  0
LINE
  5
CE1B
330
18
100
AcDbEntity
  8
1PHANTOM
100
AcDbLine
 10
5609.35858271305
 20
-250.38447273783
 30
0.0
 11
5611.605719800511
 21
-249.9350453203378
 31
0.0
  0
LINE
  5
CE1C
330
18
100
AcDbEntity
  8
1PHANTOM
100
AcDbLine
 10
5611.873000653623
 20
-253.5815891497155
 30
0.0
 11
5612.623000653623
 21
-253.7315891497155
 31
0.0
  0
LINE
  5
CE1D
330
18
100
AcDbEntity
  8
1PHANTOM
100
AcDbLine
 10
5611.364360227067
 20
-251.6833172350266
 30
0.0
 11
5612.114360227067
 21
-251.8333172350267
 31
0.0
  0
LINE
  5
CE1E
330
18
100
AcDbEntity
  8
1PHANTOM
100
AcDbLine
 10
5608.792339442791
 20
-252.4977213918819
 30
0.0
 11
5609.542339442791
 21
-252.6477213918815
 31
0.0
  0
LINE
  5
CE1F
330
18
100
AcDbEntity
  8
1PHANTOM
100
AcDbLine
 10
5608.792339442791
 20
-252.4977213918819
 30
0.0
 11
5612.114360227067
 21
-251.8333172350267
 31
0.0
  0
LINE
  5
CE20
330
18
100
AcDbEntity
  8
1PHANTOM
100
AcDbLine
 10
5612.292363113567
 20
-263.4977166577264
 30
0.0
 11
5613.042363113567
 21
-263.6477166577265
 31
0.0
  0
LINE
  5
CE21
330
18
100
AcDbEntity
  8
1PHANTOM
100
AcDbLine
 10
5608.042363113567
 20
-260.6477166577265
 30
0.0
 11
5608.792363113567
 21
-260.7977166577266
 31
0.0
  0
LINE
  5
CE22
330
18
100
AcDbEntity
  8
1PHANTOM
100
AcDbLine
 10
5608.042363113567
 20
-262.6477166577265
 30
0.0
 11
5608.792363113567
 21
-262.7977166577266
 31
0.0
  0
LINE
  5
CE23
330
18
100
AcDbEntity
  8
1PHANTOM
100
AcDbLine
 10
5608.042363113567
 20
-262.6477166577265
 30
0.0
 11
5613.042363113567
 21
-261.6477166577265
 31
0.0
  0
LINE
  5
CE24
330
18
100
AcDbEntity
  8
1PHANTOM
100
AcDbLine
 10
5608.042363113567
 20
-258.6477166577265
 30
0.0
 11
5608.792363113567
 21
-258.7977166577266
 31
0.0
  0
LINE
  5
CE25
330
18
100
AcDbEntity
  8
1PHANTOM
100
AcDbLine
 10
5608.042363113567
 20
-256.6477166577265
 30
0.0
 11
5608.792363113567
 21
-256.7977166577266
 31
0.0
  0
LINE
  5
CE26
330
18
100
AcDbEntity
  8
1PHANTOM
100
AcDbLine
 10
5608.042363113567
 20
-256.6477166577265
 30
0.0
 11
5613.042363113567
 21
-255.6477166577265
 31
0.0
  0
LINE
  5
CE27
330
18
100
AcDbEntity
  8
1PHANTOM
100
AcDbLine
 10
5608.042363113567
 20
-258.6477166577265
 30
0.0
 11
5613.042363113567
 21
-257.6477166577265
 31
0.0
  0
LINE
  5
CE28
330
18
100
AcDbEntity
  8
1PHANTOM
100
AcDbLine
 10
5608.042363113567
 20
-260.6477166577265
 30
0.0
 11
5613.042363113567
 21
-259.6477166577265
 31
0.0
  0
LINE
  5
CE29
330
18
100
AcDbEntity
  8
1PHANTOM
100
AcDbLine
 10
5612.292363113567
 20
-255.4977166577264
 30
0.0
 11
5613.042363113567
 21
-255.6477166577265
 31
0.0
  0
LINE
  5
CE2A
330
18
100
AcDbEntity
  8
1PHANTOM
100
AcDbLine
 10
5612.292363113567
 20
-257.4977166577264
 30
0.0
 11
5613.042363113567
 21
-257.6477166577265
 31
0.0
  0
LINE
  5
CE2B
330
18
100
AcDbEntity
  8
1PHANTOM
100
AcDbLine
 10
5612.292363113567
 20
-261.4977166577264
 30
0.0
 11
5613.042363113567
 21
-261.6477166577265
 31
0.0
  0
LINE
  5
CE2C
330
18
100
AcDbEntity
  8
1PHANTOM
100
AcDbLine
 10
5612.292363113567
 20
-259.4977166577264
 30
0.0
 11
5613.042363113567
 21
-259.6477166577265
 31
0.0
  0
LINE
  5
CE2D
330
18
100
AcDbEntity
  8
1PHANTOM
100
AcDbLine
 10
5608.042363113567
 20
-266.6477166577265
 30
0.0
 11
5608.792363113567
 21
-266.7977166577266
 31
0.0
  0
LINE
  5
CE2E
330
18
100
AcDbEntity
  8
1PHANTOM
100
AcDbLine
 10
5608.042363113567
 20
-264.6477166577265
 30
0.0
 11
5608.792363113567
 21
-264.7977166577266
 31
0.0
  0
LINE
  5
CE2F
330
18
100
AcDbEntity
  8
1PHANTOM
100
AcDbLine
 10
5608.042363113567
 20
-270.6477166577265
 30
0.0
 11
5608.792363113567
 21
-270.7977166577266
 31
0.0
  0
LINE
  5
CE30
330
18
100
AcDbEntity
  8
1PHANTOM
100
AcDbLine
 10
5608.042363113567
 20
-268.6477166577265
 30
0.0
 11
5608.792363113567
 21
-268.7977166577266
 31
0.0
  0
LINE
  5
CE31
330
18
100
AcDbEntity
  8
1PHANTOM
100
AcDbLine
 10
5608.042363113567
 20
-264.6477166577265
 30
0.0
 11
5613.042363113567
 21
-263.6477166577265
 31
0.0
  0
LINE
  5
CE32
330
18
100
AcDbEntity
  8
1PHANTOM
100
AcDbLine
 10
5608.042363113567
 20
-266.6477166577265
 30
0.0
 11
5613.042363113567
 21
-265.6477166577265
 31
0.0
  0
LINE
  5
CE33
330
18
100
AcDbEntity
  8
1PHANTOM
100
AcDbLine
 10
5608.042363113567
 20
-268.6477166577265
 30
0.0
 11
5613.042363113567
 21
-267.6477166577265
 31
0.0
  0
LINE
  5
CE34
330
18
100
AcDbEntity
  8
1PHANTOM
100
AcDbLine
 10
5608.042363113567
 20
-270.6477166577265
 30
0.0
 11
5613.042363113567
 21
-269.6477166577265
 31
0.0
  0
LINE
  5
CE35
330
18
100
AcDbEntity
  8
1PHANTOM
100
AcDbLine
 10
5612.292363113567
 20
-267.4977166577264
 30
0.0
 11
5613.042363113567
 21
-267.6477166577265
 31
0.0
  0
LINE
  5
CE36
330
18
100
AcDbEntity
  8
1PHANTOM
100
AcDbLine
 10
5612.292363113567
 20
-265.4977166577264
 30
0.0
 11
5613.042363113567
 21
-265.6477166577265
 31
0.0
  0
LINE
  5
CE37
330
18
100
AcDbEntity
  8
1PHANTOM
100
AcDbLine
 10
5612.292363113567
 20
-271.4977166577264
 30
0.0
 11
5613.042363113567
 21
-271.6477166577265
 31
0.0
  0
LINE
  5
CE38
330
18
100
AcDbEntity
  8
1PHANTOM
100
AcDbLine
 10
5612.292363113567
 20
-269.4977166577264
 30
0.0
 11
5613.042363113567
 21
-269.6477166577265
 31
0.0
  0
LINE
  5
CE39
330
18
100
AcDbEntity
  8
1PHANTOM
100
AcDbLine
 10
5608.042363113567
 20
-288.6477166577265
 30
0.0
 11
5613.042363113567
 21
-287.6477166577265
 31
0.0
  0
LINE
  5
CE3A
330
18
100
AcDbEntity
  8
1PHANTOM
100
AcDbLine
 10
5608.042363113567
 20
-280.6477166577265
 30
0.0
 11
5613.042363113567
 21
-279.6477166577265
 31
0.0
  0
LINE
  5
CE3B
330
18
100
AcDbEntity
  8
1PHANTOM
100
AcDbLine
 10
5608.042363113567
 20
-272.6477166577265
 30
0.0
 11
5608.792363113567
 21
-272.7977166577266
 31
0.0
  0
LINE
  5
CE3C
330
18
100
AcDbEntity
  8
1PHANTOM
100
AcDbLine
 10
5608.042363113567
 20
-274.6477166577265
 30
0.0
 11
5608.792363113567
 21
-274.7977166577266
 31
0.0
  0
LINE
  5
CE3D
330
18
100
AcDbEntity
  8
1PHANTOM
100
AcDbLine
 10
5608.042363113567
 20
-276.6477166577265
 30
0.0
 11
5608.792363113567
 21
-276.7977166577266
 31
0.0
  0
LINE
  5
CE3E
330
18
100
AcDbEntity
  8
1PHANTOM
100
AcDbLine
 10
5608.042363113567
 20
-278.6477166577265
 30
0.0
 11
5608.792363113567
 21
-278.7977166577266
 31
0.0
  0
LINE
  5
CE3F
330
18
100
AcDbEntity
  8
1PHANTOM
100
AcDbLine
 10
5608.042363113567
 20
-274.6477166577265
 30
0.0
 11
5613.042363113567
 21
-273.6477166577265
 31
0.0
  0
LINE
  5
CE40
330
18
100
AcDbEntity
  8
1PHANTOM
100
AcDbLine
 10
5608.042363113567
 20
-276.6477166577265
 30
0.0
 11
5613.042363113567
 21
-275.6477166577265
 31
0.0
  0
LINE
  5
CE41
330
18
100
AcDbEntity
  8
1PHANTOM
100
AcDbLine
 10
5608.042363113567
 20
-278.6477166577265
 30
0.0
 11
5613.042363113567
 21
-277.6477166577265
 31
0.0
  0
LINE
  5
CE42
330
18
100
AcDbEntity
  8
1PHANTOM
100
AcDbLine
 10
5612.292363113567
 20
-273.4977166577264
 30
0.0
 11
5613.042363113567
 21
-273.6477166577265
 31
0.0
  0
LINE
  5
CE43
330
18
100
AcDbEntity
  8
1PHANTOM
100
AcDbLine
 10
5612.292363113567
 20
-275.4977166577264
 30
0.0
 11
5613.042363113567
 21
-275.6477166577265
 31
0.0
  0
LINE
  5
CE44
330
18
100
AcDbEntity
  8
1PHANTOM
100
AcDbLine
 10
5612.292363113567
 20
-277.4977166577264
 30
0.0
 11
5613.042363113567
 21
-277.6477166577265
 31
0.0
  0
LINE
  5
CE45
330
18
100
AcDbEntity
  8
1PHANTOM
100
AcDbLine
 10
5612.292363113567
 20
-279.4977166577264
 30
0.0
 11
5613.042363113567
 21
-279.6477166577265
 31
0.0
  0
LINE
  5
CE46
330
18
100
AcDbEntity
  8
1PHANTOM
100
AcDbLine
 10
5608.042363113567
 20
-284.6477166577265
 30
0.0
 11
5608.792363113567
 21
-284.7977166577266
 31
0.0
  0
LINE
  5
CE47
330
18
100
AcDbEntity
  8
1PHANTOM
100
AcDbLine
 10
5608.042363113567
 20
-282.6477166577265
 30
0.0
 11
5608.792363113567
 21
-282.7977166577266
 31
0.0
  0
LINE
  5
CE48
330
18
100
AcDbEntity
  8
1PHANTOM
100
AcDbLine
 10
5608.042363113567
 20
-280.6477166577265
 30
0.0
 11
5608.792363113567
 21
-280.7977166577266
 31
0.0
  0
LINE
  5
CE49
330
18
100
AcDbEntity
  8
1PHANTOM
100
AcDbLine
 10
5608.042363113567
 20
-286.6477166577265
 30
0.0
 11
5608.792363113567
 21
-286.7977166577266
 31
0.0
  0
LINE
  5
CE4A
330
18
100
AcDbEntity
  8
1PHANTOM
100
AcDbLine
 10
5608.042363113567
 20
-282.6477166577265
 30
0.0
 11
5613.042363113567
 21
-281.6477166577265
 31
0.0
  0
LINE
  5
CE4B
330
18
100
AcDbEntity
  8
1PHANTOM
100
AcDbLine
 10
5608.042363113567
 20
-284.6477166577265
 30
0.0
 11
5613.042363113567
 21
-283.6477166577265
 31
0.0
  0
LINE
  5
CE4C
330
18
100
AcDbEntity
  8
1PHANTOM
100
AcDbLine
 10
5608.042363113567
 20
-286.6477166577265
 30
0.0
 11
5613.042363113567
 21
-285.6477166577265
 31
0.0
  0
LINE
  5
CE4D
330
18
100
AcDbEntity
  8
1PHANTOM
100
AcDbLine
 10
5612.292363113567
 20
-283.4977166577264
 30
0.0
 11
5613.042363113567
 21
-283.6477166577265
 31
0.0
  0
LINE
  5
CE4E
330
18
100
AcDbEntity
  8
1PHANTOM
100
AcDbLine
 10
5612.292363113567
 20
-281.4977166577264
 30
0.0
 11
5613.042363113567
 21
-281.6477166577265
 31
0.0
  0
LINE
  5
CE4F
330
18
100
AcDbEntity
  8
1PHANTOM
100
AcDbLine
 10
5612.292363113567
 20
-285.4977166577264
 30
0.0
 11
5613.042363113567
 21
-285.6477166577265
 31
0.0
  0
LINE
  5
CE50
330
18
100
AcDbEntity
  8
1PHANTOM
100
AcDbLine
 10
5612.292363113567
 20
-287.4977166577264
 30
0.0
 11
5613.042363113567
 21
-287.6477166577265
 31
0.0
  0
LINE
  5
CE51
330
18
100
AcDbEntity
  8
1PHANTOM
100
AcDbLine
 10
5608.042363113567
 20
-288.6477166577265
 30
0.0
 11
5608.792363113567
 21
-288.7977166577266
 31
0.0
  0
LINE
  5
CE52
330
18
100
AcDbEntity
  8
1PHANTOM
100
AcDbLine
 10
5615.542363113567
 20
-288.7655822437723
 30
0.0
 11
5605.542363113567
 21
-288.7655822437723
 31
0.0
  0
LINE
  5
CE53
330
18
100
AcDbEntity
  8
1PHANTOM
100
AcDbLine
 10
5615.542363113567
 20
-287.7655822437723
 30
0.0
 11
5605.542363113567
 21
-287.7655822437723
 31
0.0
  0
LINE
  5
CE54
330
18
100
AcDbEntity
  8
01
100
AcDbLine
 10
5654.542363113565
 20
-364.9155822437739
 30
0.0
 11
5620.042363113565
 21
-364.9155822437739
 31
0.0
  0
LINE
  5
CE55
330
18
100
AcDbEntity
  8
01
100
AcDbLine
 10
5654.542363113565
 20
-361.9155822437739
 30
0.0
 11
5620.042363113565
 21
-361.9155822437739
 31
0.0
  0
ARC
  5
CE56
330
18
100
AcDbEntity
  8
01
100
AcDbCircle
 10
5654.542363113565
 20
-361.4155822437739
 30
0.0
 40
0.5
100
AcDbArc
 50
270.0
 51
0.0
  0
LINE
  5
CE57
330
18
100
AcDbEntity
  8
01
100
AcDbLine
 10
5620.042363113565
 20
-364.9155822437739
 30
0.0
 11
5620.042363113565
 21
-361.9155822437739
 31
0.0
  0
LINE
  5
CE58
330
18
100
AcDbEntity
  8
1CENTER
100
AcDbLine
 10
5605.342363113567
 20
-363.4155822437742
 30
0.0
 11
5615.742363113566
 21
-363.4155822437742
 31
0.0
  0
LINE
  5
CE59
330
18
100
AcDbEntity
  8
1CENTER
100
AcDbLine
 10
5610.542363113566
 20
-368.6155822437743
 30
0.0
 11
5610.542363113566
 21
-358.2155822437733
 31
0.0
  0
LINE
  5
CE5A
330
18
100
AcDbEntity
  8
01
100
AcDbLine
 10
5486.542363113565
 20
-364.9155822437739
 30
0.0
 11
5521.042363113567
 21
-364.9155822437739
 31
0.0
  0
LINE
  5
CE5B
330
18
100
AcDbEntity
  8
01
100
AcDbLine
 10
5486.542363113565
 20
-361.9155822437739
 30
0.0
 11
5521.042363113567
 21
-361.9155822437739
 31
0.0
  0
ARC
  5
CE5C
330
18
100
AcDbEntity
  8
01
100
AcDbCircle
 10
5486.542363113565
 20
-361.4155822437739
 30
0.0
 40
0.5
100
AcDbArc
 50
180.0
 51
270.0
  0
LINE
  5
CE5D
330
18
100
AcDbEntity
  8
01
100
AcDbLine
 10
5521.042363113567
 20
-364.9155822437739
 30
0.0
 11
5521.042363113567
 21
-361.9155822437739
 31
0.0
  0
LINE
  5
CE5E
330
18
100
AcDbEntity
  8
1CENTER
100
AcDbLine
 10
5535.742363113566
 20
-363.4155822437742
 30
0.0
 11
5525.342363113567
 21
-363.4155822437742
 31
0.0
  0
LINE
  5
CE5F
330
18
100
AcDbEntity
  8
1CENTER
100
AcDbLine
 10
5530.542363113566
 20
-368.6155822437743
 30
0.0
 11
5530.542363113566
 21
-358.2155822437733
 31
0.0
  0
LINE
  5
CE60
330
18
100
AcDbEntity
  8
1PHANTOM
100
AcDbLine
 10
5610.542363113567
 20
-288.7655822437723
 30
0.0
 11
5609.965012844377
 21
-287.7655822437723
 31
0.0
  0
LINE
  5
CE61
330
18
100
AcDbEntity
  8
01
100
AcDbLine
 10
5713.942363113565
 20
-346.7655822437736
 30
0.0
 11
5713.942363113565
 21
-380.0655822437742
 31
0.0
  0
LINE
  5
CE62
330
18
100
AcDbEntity
  8
1PHANTOM
100
AcDbLine
 10
5709.942363113565
 20
-368.1655822437739
 30
0.0
 11
5708.942363113565
 21
-368.1655822437739
 31
0.0
  0
ARC
  5
CE63
330
18
100
AcDbEntity
  8
1PHANTOM
100
AcDbCircle
 10
5715.713196446899
 20
-363.4155822437739
 30
0.0
 40
8.270833333333439
100
AcDbArc
 50
144.9488632525401
 51
215.0511367474599
  0
LINE
  5
CE64
330
18
100
AcDbEntity
  8
1PHANTOM
100
AcDbLine
 10
5709.942363113565
 20
-358.6655822437739
 30
0.0
 11
5708.942363113565
 21
-358.6655822437739
 31
0.0
  0
LINE
  5
CE65
330
18
100
AcDbEntity
  8
1CENTER
100
AcDbLine
 10
5751.544038113565
 20
-363.4155822437739
 30
0.0
 11
5706.099932539597
 21
-363.4155822437739
 31
0.0
  0
LINE
  5
CE66
330
18
100
AcDbEntity
  8
1PHANTOM
100
AcDbLine
 10
5710.942363113565
 20
-368.4155822437739
 30
0.0
 11
5709.942363113565
 21
-368.4155822437739
 31
0.0
  0
LINE
  5
CE67
330
18
100
AcDbEntity
  8
1PHANTOM
100
AcDbLine
 10
5710.942363113565
 20
-358.4155822437739
 30
0.0
 11
5709.942363113565
 21
-358.4155822437739
 31
0.0
  0
LINE
  5
CE68
330
18
100
AcDbEntity
  8
1PHANTOM
100
AcDbLine
 10
5708.942363113565
 20
-367.9486454234399
 30
0.0
 11
5708.942363113565
 21
-358.9102144589675
 31
0.0
  0
LINE
  5
CE69
330
18
100
AcDbEntity
  8
1PHANTOM
100
AcDbLine
 10
5726.060228699611
 20
-360.9155822437739
 30
0.0
 11
5727.060228699611
 21
-365.9155822437739
 31
0.0
  0
LINE
  5
CE6A
330
18
100
AcDbEntity
  8
1PHANTOM
100
AcDbLine
 10
5743.41127420032
 20
-361.6655822437739
 30
0.0
 11
5709.942363113565
 21
-361.6655822437739
 31
0.0
  0
LINE
  5
CE6B
330
18
100
AcDbEntity
  8
1PHANTOM
100
AcDbLine
 10
5749.942363113565
 20
-363.4155822437739
 30
0.0
 11
5743.41127420032
 21
-361.6655822437739
 31
0.0
  0
LINE
  5
CE6C
330
18
100
AcDbEntity
  8
1PHANTOM
100
AcDbLine
 10
5749.942363113565
 20
-363.4155822437739
 30
0.0
 11
5743.41127420032
 21
-365.1655822437739
 31
0.0
  0
LINE
  5
CE6D
330
18
100
AcDbEntity
  8
1PHANTOM
100
AcDbLine
 10
5743.41127420032
 20
-365.1655822437739
 30
0.0
 11
5709.942363113565
 21
-365.1655822437739
 31
0.0
  0
LINE
  5
CE6E
330
18
100
AcDbEntity
  8
1PHANTOM
100
AcDbLine
 10
5744.096975311404
 20
-361.0993153027381
 30
0.0
 11
5743.946975311404
 21
-361.8493153027381
 31
0.0
  0
LINE
  5
CE6F
330
18
100
AcDbEntity
  8
1PHANTOM
100
AcDbLine
 10
5744.096975311404
 20
-361.0993153027381
 30
0.0
 11
5744.976356207622
 21
-365.4962197838291
 31
0.0
  0
LINE
  5
CE70
330
18
100
AcDbEntity
  8
1PHANTOM
100
AcDbLine
 10
5748.922900037
 20
-363.7289389307176
 30
0.0
 11
5748.772900037
 21
-364.4789389307176
 31
0.0
  0
LINE
  5
CE71
330
18
100
AcDbEntity
  8
1PHANTOM
100
AcDbLine
 10
5748.323472619508
 20
-362.2318018432567
 30
0.0
 11
5748.173472619508
 21
-362.9818018432567
 31
0.0
  0
LINE
  5
CE72
330
18
100
AcDbEntity
  8
1PHANTOM
100
AcDbLine
 10
5748.323472619508
 20
-362.2318018432567
 30
0.0
 11
5748.772900037
 21
-364.4789389307176
 31
0.0
  0
LINE
  5
CE73
330
18
100
AcDbEntity
  8
1PHANTOM
100
AcDbLine
 10
5745.126356207622
 20
-364.7462197838291
 30
0.0
 11
5744.976356207622
 21
-365.4962197838291
 31
0.0
  0
LINE
  5
CE74
330
18
100
AcDbEntity
  8
1PHANTOM
100
AcDbLine
 10
5747.024628122312
 20
-364.2375793572734
 30
0.0
 11
5746.874628122311
 21
-364.9875793572734
 31
0.0
  0
LINE
  5
CE75
330
18
100
AcDbEntity
  8
1PHANTOM
100
AcDbLine
 10
5746.210223965456
 20
-361.6655585729974
 30
0.0
 11
5746.060223965456
 21
-362.4155585729974
 31
0.0
  0
LINE
  5
CE76
330
18
100
AcDbEntity
  8
1PHANTOM
100
AcDbLine
 10
5746.210223965456
 20
-361.6655585729974
 30
0.0
 11
5746.874628122311
 21
-364.9875793572734
 31
0.0
  0
LINE
  5
CE77
330
18
100
AcDbEntity
  8
1PHANTOM
100
AcDbLine
 10
5735.210228699611
 20
-365.1655822437739
 30
0.0
 11
5735.060228699611
 21
-365.9155822437739
 31
0.0
  0
LINE
  5
CE78
330
18
100
AcDbEntity
  8
1PHANTOM
100
AcDbLine
 10
5738.060228699611
 20
-360.9155822437739
 30
0.0
 11
5737.910228699611
 21
-361.6655822437739
 31
0.0
  0
LINE
  5
CE79
330
18
100
AcDbEntity
  8
1PHANTOM
100
AcDbLine
 10
5736.060228699611
 20
-360.9155822437739
 30
0.0
 11
5735.910228699611
 21
-361.6655822437739
 31
0.0
  0
LINE
  5
CE7A
330
18
100
AcDbEntity
  8
1PHANTOM
100
AcDbLine
 10
5736.060228699611
 20
-360.9155822437739
 30
0.0
 11
5737.060228699611
 21
-365.9155822437739
 31
0.0
  0
LINE
  5
CE7B
330
18
100
AcDbEntity
  8
1PHANTOM
100
AcDbLine
 10
5740.060228699611
 20
-360.9155822437739
 30
0.0
 11
5739.910228699611
 21
-361.6655822437739
 31
0.0
  0
LINE
  5
CE7C
330
18
100
AcDbEntity
  8
1PHANTOM
100
AcDbLine
 10
5742.060228699611
 20
-360.9155822437739
 30
0.0
 11
5741.910228699611
 21
-361.6655822437739
 31
0.0
  0
LINE
  5
CE7D
330
18
100
AcDbEntity
  8
1PHANTOM
100
AcDbLine
 10
5742.060228699611
 20
-360.9155822437739
 30
0.0
 11
5743.060228699611
 21
-365.9155822437739
 31
0.0
  0
LINE
  5
CE7E
330
18
100
AcDbEntity
  8
1PHANTOM
100
AcDbLine
 10
5740.060228699611
 20
-360.9155822437739
 30
0.0
 11
5741.060228699611
 21
-365.9155822437739
 31
0.0
  0
LINE
  5
CE7F
330
18
100
AcDbEntity
  8
1PHANTOM
100
AcDbLine
 10
5738.060228699611
 20
-360.9155822437739
 30
0.0
 11
5739.060228699611
 21
-365.9155822437739
 31
0.0
  0
LINE
  5
CE80
330
18
100
AcDbEntity
  8
1PHANTOM
100
AcDbLine
 10
5743.210228699611
 20
-365.1655822437739
 30
0.0
 11
5743.060228699611
 21
-365.9155822437739
 31
0.0
  0
LINE
  5
CE81
330
18
100
AcDbEntity
  8
1PHANTOM
100
AcDbLine
 10
5741.210228699611
 20
-365.1655822437739
 30
0.0
 11
5741.060228699611
 21
-365.9155822437739
 31
0.0
  0
LINE
  5
CE82
330
18
100
AcDbEntity
  8
1PHANTOM
100
AcDbLine
 10
5737.210228699611
 20
-365.1655822437739
 30
0.0
 11
5737.060228699611
 21
-365.9155822437739
 31
0.0
  0
LINE
  5
CE83
330
18
100
AcDbEntity
  8
1PHANTOM
100
AcDbLine
 10
5739.210228699611
 20
-365.1655822437739
 30
0.0
 11
5739.060228699611
 21
-365.9155822437739
 31
0.0
  0
LINE
  5
CE84
330
18
100
AcDbEntity
  8
1PHANTOM
100
AcDbLine
 10
5732.060228699611
 20
-360.9155822437739
 30
0.0
 11
5731.910228699611
 21
-361.6655822437739
 31
0.0
  0
LINE
  5
CE85
330
18
100
AcDbEntity
  8
1PHANTOM
100
AcDbLine
 10
5734.060228699611
 20
-360.9155822437739
 30
0.0
 11
5733.910228699611
 21
-361.6655822437739
 31
0.0
  0
LINE
  5
CE86
330
18
100
AcDbEntity
  8
1PHANTOM
100
AcDbLine
 10
5728.060228699611
 20
-360.9155822437739
 30
0.0
 11
5727.910228699611
 21
-361.6655822437739
 31
0.0
  0
LINE
  5
CE87
330
18
100
AcDbEntity
  8
1PHANTOM
100
AcDbLine
 10
5730.060228699611
 20
-360.9155822437739
 30
0.0
 11
5729.910228699611
 21
-361.6655822437739
 31
0.0
  0
LINE
  5
CE88
330
18
100
AcDbEntity
  8
1PHANTOM
100
AcDbLine
 10
5734.060228699611
 20
-360.9155822437739
 30
0.0
 11
5735.060228699611
 21
-365.9155822437739
 31
0.0
  0
LINE
  5
CE89
330
18
100
AcDbEntity
  8
1PHANTOM
100
AcDbLine
 10
5732.060228699611
 20
-360.9155822437739
 30
0.0
 11
5733.060228699611
 21
-365.9155822437739
 31
0.0
  0
LINE
  5
CE8A
330
18
100
AcDbEntity
  8
1PHANTOM
100
AcDbLine
 10
5730.060228699611
 20
-360.9155822437739
 30
0.0
 11
5731.060228699611
 21
-365.9155822437739
 31
0.0
  0
LINE
  5
CE8B
330
18
100
AcDbEntity
  8
1PHANTOM
100
AcDbLine
 10
5728.060228699611
 20
-360.9155822437739
 30
0.0
 11
5729.060228699611
 21
-365.9155822437739
 31
0.0
  0
LINE
  5
CE8C
330
18
100
AcDbEntity
  8
1PHANTOM
100
AcDbLine
 10
5731.210228699611
 20
-365.1655822437739
 30
0.0
 11
5731.060228699611
 21
-365.9155822437739
 31
0.0
  0
LINE
  5
CE8D
330
18
100
AcDbEntity
  8
1PHANTOM
100
AcDbLine
 10
5733.210228699611
 20
-365.1655822437739
 30
0.0
 11
5733.060228699611
 21
-365.9155822437739
 31
0.0
  0
LINE
  5
CE8E
330
18
100
AcDbEntity
  8
1PHANTOM
100
AcDbLine
 10
5727.210228699611
 20
-365.1655822437739
 30
0.0
 11
5727.060228699611
 21
-365.9155822437739
 31
0.0
  0
LINE
  5
CE8F
330
18
100
AcDbEntity
  8
1PHANTOM
100
AcDbLine
 10
5729.210228699611
 20
-365.1655822437739
 30
0.0
 11
5729.060228699611
 21
-365.9155822437739
 31
0.0
  0
LINE
  5
CE90
330
18
100
AcDbEntity
  8
1PHANTOM
100
AcDbLine
 10
5710.060228699611
 20
-360.9155822437739
 30
0.0
 11
5711.060228699611
 21
-365.9155822437739
 31
0.0
  0
LINE
  5
CE91
330
18
100
AcDbEntity
  8
1PHANTOM
100
AcDbLine
 10
5718.060228699611
 20
-360.9155822437739
 30
0.0
 11
5719.060228699611
 21
-365.9155822437739
 31
0.0
  0
LINE
  5
CE92
330
18
100
AcDbEntity
  8
1PHANTOM
100
AcDbLine
 10
5726.060228699611
 20
-360.9155822437739
 30
0.0
 11
5725.910228699611
 21
-361.6655822437739
 31
0.0
  0
LINE
  5
CE93
330
18
100
AcDbEntity
  8
1PHANTOM
100
AcDbLine
 10
5724.060228699611
 20
-360.9155822437739
 30
0.0
 11
5723.910228699611
 21
-361.6655822437739
 31
0.0
  0
LINE
  5
CE94
330
18
100
AcDbEntity
  8
1PHANTOM
100
AcDbLine
 10
5722.060228699611
 20
-360.9155822437739
 30
0.0
 11
5721.910228699611
 21
-361.6655822437739
 31
0.0
  0
LINE
  5
CE95
330
18
100
AcDbEntity
  8
1PHANTOM
100
AcDbLine
 10
5720.060228699611
 20
-360.9155822437739
 30
0.0
 11
5719.910228699611
 21
-361.6655822437739
 31
0.0
  0
LINE
  5
CE96
330
18
100
AcDbEntity
  8
1PHANTOM
100
AcDbLine
 10
5724.060228699611
 20
-360.9155822437739
 30
0.0
 11
5725.060228699611
 21
-365.9155822437739
 31
0.0
  0
LINE
  5
CE97
330
18
100
AcDbEntity
  8
1PHANTOM
100
AcDbLine
 10
5722.060228699611
 20
-360.9155822437739
 30
0.0
 11
5723.060228699611
 21
-365.9155822437739
 31
0.0
  0
LINE
  5
CE98
330
18
100
AcDbEntity
  8
1PHANTOM
100
AcDbLine
 10
5720.060228699611
 20
-360.9155822437739
 30
0.0
 11
5721.060228699611
 21
-365.9155822437739
 31
0.0
  0
LINE
  5
CE99
330
18
100
AcDbEntity
  8
1PHANTOM
100
AcDbLine
 10
5725.210228699611
 20
-365.1655822437739
 30
0.0
 11
5725.060228699611
 21
-365.9155822437739
 31
0.0
  0
LINE
  5
CE9A
330
18
100
AcDbEntity
  8
1PHANTOM
100
AcDbLine
 10
5723.210228699611
 20
-365.1655822437739
 30
0.0
 11
5723.060228699611
 21
-365.9155822437739
 31
0.0
  0
LINE
  5
CE9B
330
18
100
AcDbEntity
  8
1PHANTOM
100
AcDbLine
 10
5721.210228699611
 20
-365.1655822437739
 30
0.0
 11
5721.060228699611
 21
-365.9155822437739
 31
0.0
  0
LINE
  5
CE9C
330
18
100
AcDbEntity
  8
1PHANTOM
100
AcDbLine
 10
5719.210228699611
 20
-365.1655822437739
 30
0.0
 11
5719.060228699611
 21
-365.9155822437739
 31
0.0
  0
LINE
  5
CE9D
330
18
100
AcDbEntity
  8
1PHANTOM
100
AcDbLine
 10
5714.060228699611
 20
-360.9155822437739
 30
0.0
 11
5713.910228699611
 21
-361.6655822437739
 31
0.0
  0
LINE
  5
CE9E
330
18
100
AcDbEntity
  8
1PHANTOM
100
AcDbLine
 10
5716.060228699611
 20
-360.9155822437739
 30
0.0
 11
5715.910228699611
 21
-361.6655822437739
 31
0.0
  0
LINE
  5
CE9F
330
18
100
AcDbEntity
  8
1PHANTOM
100
AcDbLine
 10
5718.060228699611
 20
-360.9155822437739
 30
0.0
 11
5717.910228699611
 21
-361.6655822437739
 31
0.0
  0
LINE
  5
CEA0
330
18
100
AcDbEntity
  8
1PHANTOM
100
AcDbLine
 10
5712.060228699611
 20
-360.9155822437739
 30
0.0
 11
5711.910228699611
 21
-361.6655822437739
 31
0.0
  0
LINE
  5
CEA1
330
18
100
AcDbEntity
  8
1PHANTOM
100
AcDbLine
 10
5716.060228699611
 20
-360.9155822437739
 30
0.0
 11
5717.060228699611
 21
-365.9155822437739
 31
0.0
  0
LINE
  5
CEA2
330
18
100
AcDbEntity
  8
1PHANTOM
100
AcDbLine
 10
5714.060228699611
 20
-360.9155822437739
 30
0.0
 11
5715.060228699611
 21
-365.9155822437739
 31
0.0
  0
LINE
  5
CEA3
330
18
100
AcDbEntity
  8
1PHANTOM
100
AcDbLine
 10
5712.060228699611
 20
-360.9155822437739
 30
0.0
 11
5713.060228699611
 21
-365.9155822437739
 31
0.0
  0
LINE
  5
CEA4
330
18
100
AcDbEntity
  8
1PHANTOM
100
AcDbLine
 10
5715.210228699611
 20
-365.1655822437739
 30
0.0
 11
5715.060228699611
 21
-365.9155822437739
 31
0.0
  0
LINE
  5
CEA5
330
18
100
AcDbEntity
  8
1PHANTOM
100
AcDbLine
 10
5717.210228699611
 20
-365.1655822437739
 30
0.0
 11
5717.060228699611
 21
-365.9155822437739
 31
0.0
  0
LINE
  5
CEA6
330
18
100
AcDbEntity
  8
1PHANTOM
100
AcDbLine
 10
5713.210228699611
 20
-365.1655822437739
 30
0.0
 11
5713.060228699611
 21
-365.9155822437739
 31
0.0
  0
LINE
  5
CEA7
330
18
100
AcDbEntity
  8
1PHANTOM
100
AcDbLine
 10
5711.210228699611
 20
-365.1655822437739
 30
0.0
 11
5711.060228699611
 21
-365.9155822437739
 31
0.0
  0
LINE
  5
CEA8
330
18
100
AcDbEntity
  8
1PHANTOM
100
AcDbLine
 10
5710.060228699611
 20
-360.9155822437739
 30
0.0
 11
5709.910228699611
 21
-361.6655822437739
 31
0.0
  0
LINE
  5
CEA9
330
18
100
AcDbEntity
  8
1PHANTOM
100
AcDbLine
 10
5709.942363113565
 20
-368.4155822437739
 30
0.0
 11
5709.942363113565
 21
-358.4155822437739
 31
0.0
  0
LINE
  5
CEAA
330
18
100
AcDbEntity
  8
1PHANTOM
100
AcDbLine
 10
5710.942363113565
 20
-368.4155822437739
 30
0.0
 11
5710.942363113565
 21
-358.4155822437739
 31
0.0
  0
LINE
  5
CEAB
330
18
100
AcDbEntity
  8
1PHANTOM
100
AcDbLine
 10
5709.942363113565
 20
-363.4155822437739
 30
0.0
 11
5710.942363113565
 21
-362.8382319745842
 31
0.0
  0
LINE
  5
CEAC
330
18
100
AcDbEntity
  8
1PHANTOM
100
AcDbLine
 10
5535.292363113567
 20
-288.7655822437723
 30
0.0
 11
5535.292363113567
 21
-289.7655822437723
 31
0.0
  0
ARC
  5
CEAD
330
18
100
AcDbEntity
  8
1PHANTOM
100
AcDbCircle
 10
5530.542363113567
 20
-282.9947489104388
 30
0.0
 40
8.270833333333439
100
AcDbArc
 50
234.9488632525387
 51
305.0511367474613
  0
LINE
  5
CEAE
330
18
100
AcDbEntity
  8
1PHANTOM
100
AcDbLine
 10
5525.792363113567
 20
-288.7655822437723
 30
0.0
 11
5525.792363113567
 21
-289.7655822437723
 31
0.0
  0
LINE
  5
CEAF
330
18
100
AcDbEntity
  8
1CENTER
100
AcDbLine
 10
5530.542363113567
 20
-247.1639072437724
 30
0.0
 11
5530.542363113567
 21
-292.6080128177409
 31
0.0
  0
LINE
  5
CEB0
330
18
100
AcDbEntity
  8
1PHANTOM
100
AcDbLine
 10
5535.542363113567
 20
-287.7655822437723
 30
0.0
 11
5535.542363113567
 21
-288.7655822437723
 31
0.0
  0
LINE
  5
CEB1
330
18
100
AcDbEntity
  8
1PHANTOM
100
AcDbLine
 10
5525.542363113567
 20
-287.7655822437723
 30
0.0
 11
5525.542363113567
 21
-288.7655822437723
 31
0.0
  0
LINE
  5
CEB2
330
18
100
AcDbEntity
  8
1PHANTOM
100
AcDbLine
 10
5535.075426293233
 20
-289.7655822437723
 30
0.0
 11
5526.036995328761
 21
-289.7655822437723
 31
0.0
  0
LINE
  5
CEB3
330
18
100
AcDbEntity
  8
1PHANTOM
100
AcDbLine
 10
5528.042363113567
 20
-272.6477166577265
 30
0.0
 11
5533.042363113567
 21
-271.6477166577265
 31
0.0
  0
LINE
  5
CEB4
330
18
100
AcDbEntity
  8
1PHANTOM
100
AcDbLine
 10
5528.792363113567
 20
-255.2966711570175
 30
0.0
 11
5528.792363113567
 21
-288.7655822437723
 31
0.0
  0
LINE
  5
CEB5
330
18
100
AcDbEntity
  8
1PHANTOM
100
AcDbLine
 10
5530.542363113567
 20
-248.7655822437723
 30
0.0
 11
5528.792363113567
 21
-255.2966711570175
 31
0.0
  0
LINE
  5
CEB6
330
18
100
AcDbEntity
  8
1PHANTOM
100
AcDbLine
 10
5530.542363113567
 20
-248.7655822437723
 30
0.0
 11
5532.292363113567
 21
-255.296671157018
 31
0.0
  0
LINE
  5
CEB7
330
18
100
AcDbEntity
  8
1PHANTOM
100
AcDbLine
 10
5532.292363113567
 20
-255.296671157018
 30
0.0
 11
5532.292363113567
 21
-288.7655822437723
 31
0.0
  0
LINE
  5
CEB8
330
18
100
AcDbEntity
  8
1PHANTOM
100
AcDbLine
 10
5528.226096172531
 20
-254.6109700459338
 30
0.0
 11
5528.976096172531
 21
-254.7609700459338
 31
0.0
  0
LINE
  5
CEB9
330
18
100
AcDbEntity
  8
1PHANTOM
100
AcDbLine
 10
5528.226096172531
 20
-254.6109700459338
 30
0.0
 11
5532.623000653623
 21
-253.7315891497155
 31
0.0
  0
LINE
  5
CEBA
330
18
100
AcDbEntity
  8
1PHANTOM
100
AcDbLine
 10
5530.855719800511
 20
-249.7850453203378
 30
0.0
 11
5531.605719800511
 21
-249.9350453203378
 31
0.0
  0
LINE
  5
CEBB
330
18
100
AcDbEntity
  8
1PHANTOM
100
AcDbLine
 10
5529.35858271305
 20
-250.38447273783
 30
0.0
 11
5530.10858271305
 21
-250.5344727378297
 31
0.0
  0
LINE
  5
CEBC
330
18
100
AcDbEntity
  8
1PHANTOM
100
AcDbLine
 10
5529.35858271305
 20
-250.38447273783
 30
0.0
 11
5531.605719800511
 21
-249.9350453203378
 31
0.0
  0
LINE
  5
CEBD
330
18
100
AcDbEntity
  8
1PHANTOM
100
AcDbLine
 10
5531.873000653623
 20
-253.5815891497155
 30
0.0
 11
5532.623000653623
 21
-253.7315891497155
 31
0.0
  0
LINE
  5
CEBE
330
18
100
AcDbEntity
  8
1PHANTOM
100
AcDbLine
 10
5531.364360227067
 20
-251.6833172350266
 30
0.0
 11
5532.114360227067
 21
-251.8333172350267
 31
0.0
  0
LINE
  5
CEBF
330
18
100
AcDbEntity
  8
1PHANTOM
100
AcDbLine
 10
5528.792339442791
 20
-252.4977213918819
 30
0.0
 11
5529.542339442791
 21
-252.6477213918815
 31
0.0
  0
LINE
  5
CEC0
330
18
100
AcDbEntity
  8
1PHANTOM
100
AcDbLine
 10
5528.792339442791
 20
-252.4977213918819
 30
0.0
 11
5532.114360227067
 21
-251.8333172350267
 31
0.0
  0
LINE
  5
CEC1
330
18
100
AcDbEntity
  8
1PHANTOM
100
AcDbLine
 10
5532.292363113567
 20
-263.4977166577264
 30
0.0
 11
5533.042363113567
 21
-263.6477166577265
 31
0.0
  0
LINE
  5
CEC2
330
18
100
AcDbEntity
  8
1PHANTOM
100
AcDbLine
 10
5528.042363113567
 20
-260.6477166577265
 30
0.0
 11
5528.792363113567
 21
-260.7977166577266
 31
0.0
  0
LINE
  5
CEC3
330
18
100
AcDbEntity
  8
1PHANTOM
100
AcDbLine
 10
5528.042363113567
 20
-262.6477166577265
 30
0.0
 11
5528.792363113567
 21
-262.7977166577266
 31
0.0
  0
LINE
  5
CEC4
330
18
100
AcDbEntity
  8
1PHANTOM
100
AcDbLine
 10
5528.042363113567
 20
-262.6477166577265
 30
0.0
 11
5533.042363113567
 21
-261.6477166577265
 31
0.0
  0
LINE
  5
CEC5
330
18
100
AcDbEntity
  8
1PHANTOM
100
AcDbLine
 10
5528.042363113567
 20
-258.6477166577265
 30
0.0
 11
5528.792363113567
 21
-258.7977166577266
 31
0.0
  0
LINE
  5
CEC6
330
18
100
AcDbEntity
  8
1PHANTOM
100
AcDbLine
 10
5528.042363113567
 20
-256.6477166577265
 30
0.0
 11
5528.792363113567
 21
-256.7977166577266
 31
0.0
  0
LINE
  5
CEC7
330
18
100
AcDbEntity
  8
1PHANTOM
100
AcDbLine
 10
5528.042363113567
 20
-256.6477166577265
 30
0.0
 11
5533.042363113567
 21
-255.6477166577265
 31
0.0
  0
LINE
  5
CEC8
330
18
100
AcDbEntity
  8
1PHANTOM
100
AcDbLine
 10
5528.042363113567
 20
-258.6477166577265
 30
0.0
 11
5533.042363113567
 21
-257.6477166577265
 31
0.0
  0
LINE
  5
CEC9
330
18
100
AcDbEntity
  8
1PHANTOM
100
AcDbLine
 10
5528.042363113567
 20
-260.6477166577265
 30
0.0
 11
5533.042363113567
 21
-259.6477166577265
 31
0.0
  0
LINE
  5
CECA
330
18
100
AcDbEntity
  8
1PHANTOM
100
AcDbLine
 10
5532.292363113567
 20
-255.4977166577264
 30
0.0
 11
5533.042363113567
 21
-255.6477166577265
 31
0.0
  0
LINE
  5
CECB
330
18
100
AcDbEntity
  8
1PHANTOM
100
AcDbLine
 10
5532.292363113567
 20
-257.4977166577264
 30
0.0
 11
5533.042363113567
 21
-257.6477166577265
 31
0.0
  0
LINE
  5
CECC
330
18
100
AcDbEntity
  8
1PHANTOM
100
AcDbLine
 10
5532.292363113567
 20
-261.4977166577264
 30
0.0
 11
5533.042363113567
 21
-261.6477166577265
 31
0.0
  0
LINE
  5
CECD
330
18
100
AcDbEntity
  8
1PHANTOM
100
AcDbLine
 10
5532.292363113567
 20
-259.4977166577264
 30
0.0
 11
5533.042363113567
 21
-259.6477166577265
 31
0.0
  0
LINE
  5
CECE
330
18
100
AcDbEntity
  8
1PHANTOM
100
AcDbLine
 10
5528.042363113567
 20
-266.6477166577265
 30
0.0
 11
5528.792363113567
 21
-266.7977166577266
 31
0.0
  0
LINE
  5
CECF
330
18
100
AcDbEntity
  8
1PHANTOM
100
AcDbLine
 10
5528.042363113567
 20
-264.6477166577265
 30
0.0
 11
5528.792363113567
 21
-264.7977166577266
 31
0.0
  0
LINE
  5
CED0
330
18
100
AcDbEntity
  8
1PHANTOM
100
AcDbLine
 10
5528.042363113567
 20
-270.6477166577265
 30
0.0
 11
5528.792363113567
 21
-270.7977166577266
 31
0.0
  0
LINE
  5
CED1
330
18
100
AcDbEntity
  8
1PHANTOM
100
AcDbLine
 10
5528.042363113567
 20
-268.6477166577265
 30
0.0
 11
5528.792363113567
 21
-268.7977166577266
 31
0.0
  0
LINE
  5
CED2
330
18
100
AcDbEntity
  8
1PHANTOM
100
AcDbLine
 10
5528.042363113567
 20
-264.6477166577265
 30
0.0
 11
5533.042363113567
 21
-263.6477166577265
 31
0.0
  0
LINE
  5
CED3
330
18
100
AcDbEntity
  8
1PHANTOM
100
AcDbLine
 10
5528.042363113567
 20
-266.6477166577265
 30
0.0
 11
5533.042363113567
 21
-265.6477166577265
 31
0.0
  0
LINE
  5
CED4
330
18
100
AcDbEntity
  8
1PHANTOM
100
AcDbLine
 10
5528.042363113567
 20
-268.6477166577265
 30
0.0
 11
5533.042363113567
 21
-267.6477166577265
 31
0.0
  0
LINE
  5
CED5
330
18
100
AcDbEntity
  8
1PHANTOM
100
AcDbLine
 10
5528.042363113567
 20
-270.6477166577265
 30
0.0
 11
5533.042363113567
 21
-269.6477166577265
 31
0.0
  0
LINE
  5
CED6
330
18
100
AcDbEntity
  8
1PHANTOM
100
AcDbLine
 10
5532.292363113567
 20
-267.4977166577264
 30
0.0
 11
5533.042363113567
 21
-267.6477166577265
 31
0.0
  0
LINE
  5
CED7
330
18
100
AcDbEntity
  8
1PHANTOM
100
AcDbLine
 10
5532.292363113567
 20
-265.4977166577264
 30
0.0
 11
5533.042363113567
 21
-265.6477166577265
 31
0.0
  0
LINE
  5
CED8
330
18
100
AcDbEntity
  8
1PHANTOM
100
AcDbLine
 10
5532.292363113567
 20
-271.4977166577264
 30
0.0
 11
5533.042363113567
 21
-271.6477166577265
 31
0.0
  0
LINE
  5
CED9
330
18
100
AcDbEntity
  8
1PHANTOM
100
AcDbLine
 10
5532.292363113567
 20
-269.4977166577264
 30
0.0
 11
5533.042363113567
 21
-269.6477166577265
 31
0.0
  0
LINE
  5
CEDA
330
18
100
AcDbEntity
  8
1PHANTOM
100
AcDbLine
 10
5528.042363113567
 20
-288.6477166577265
 30
0.0
 11
5533.042363113567
 21
-287.6477166577265
 31
0.0
  0
LINE
  5
CEDB
330
18
100
AcDbEntity
  8
1PHANTOM
100
AcDbLine
 10
5528.042363113567
 20
-280.6477166577265
 30
0.0
 11
5533.042363113567
 21
-279.6477166577265
 31
0.0
  0
LINE
  5
CEDC
330
18
100
AcDbEntity
  8
1PHANTOM
100
AcDbLine
 10
5528.042363113567
 20
-272.6477166577265
 30
0.0
 11
5528.792363113567
 21
-272.7977166577266
 31
0.0
  0
LINE
  5
CEDD
330
18
100
AcDbEntity
  8
1PHANTOM
100
AcDbLine
 10
5528.042363113567
 20
-274.6477166577265
 30
0.0
 11
5528.792363113567
 21
-274.7977166577266
 31
0.0
  0
LINE
  5
CEDE
330
18
100
AcDbEntity
  8
1PHANTOM
100
AcDbLine
 10
5528.042363113567
 20
-276.6477166577265
 30
0.0
 11
5528.792363113567
 21
-276.7977166577266
 31
0.0
  0
LINE
  5
CEDF
330
18
100
AcDbEntity
  8
1PHANTOM
100
AcDbLine
 10
5528.042363113567
 20
-278.6477166577265
 30
0.0
 11
5528.792363113567
 21
-278.7977166577266
 31
0.0
  0
LINE
  5
CEE0
330
18
100
AcDbEntity
  8
1PHANTOM
100
AcDbLine
 10
5528.042363113567
 20
-274.6477166577265
 30
0.0
 11
5533.042363113567
 21
-273.6477166577265
 31
0.0
  0
LINE
  5
CEE1
330
18
100
AcDbEntity
  8
1PHANTOM
100
AcDbLine
 10
5528.042363113567
 20
-276.6477166577265
 30
0.0
 11
5533.042363113567
 21
-275.6477166577265
 31
0.0
  0
LINE
  5
CEE2
330
18
100
AcDbEntity
  8
1PHANTOM
100
AcDbLine
 10
5528.042363113567
 20
-278.6477166577265
 30
0.0
 11
5533.042363113567
 21
-277.6477166577265
 31
0.0
  0
LINE
  5
CEE3
330
18
100
AcDbEntity
  8
1PHANTOM
100
AcDbLine
 10
5532.292363113567
 20
-273.4977166577264
 30
0.0
 11
5533.042363113567
 21
-273.6477166577265
 31
0.0
  0
LINE
  5
CEE4
330
18
100
AcDbEntity
  8
1PHANTOM
100
AcDbLine
 10
5532.292363113567
 20
-275.4977166577264
 30
0.0
 11
5533.042363113567
 21
-275.6477166577265
 31
0.0
  0
LINE
  5
CEE5
330
18
100
AcDbEntity
  8
1PHANTOM
100
AcDbLine
 10
5532.292363113567
 20
-277.4977166577264
 30
0.0
 11
5533.042363113567
 21
-277.6477166577265
 31
0.0
  0
LINE
  5
CEE6
330
18
100
AcDbEntity
  8
1PHANTOM
100
AcDbLine
 10
5532.292363113567
 20
-279.4977166577264
 30
0.0
 11
5533.042363113567
 21
-279.6477166577265
 31
0.0
  0
LINE
  5
CEE7
330
18
100
AcDbEntity
  8
1PHANTOM
100
AcDbLine
 10
5528.042363113567
 20
-284.6477166577265
 30
0.0
 11
5528.792363113567
 21
-284.7977166577266
 31
0.0
  0
LINE
  5
CEE8
330
18
100
AcDbEntity
  8
1PHANTOM
100
AcDbLine
 10
5528.042363113567
 20
-282.6477166577265
 30
0.0
 11
5528.792363113567
 21
-282.7977166577266
 31
0.0
  0
LINE
  5
CEE9
330
18
100
AcDbEntity
  8
1PHANTOM
100
AcDbLine
 10
5528.042363113567
 20
-280.6477166577265
 30
0.0
 11
5528.792363113567
 21
-280.7977166577266
 31
0.0
  0
LINE
  5
CEEA
330
18
100
AcDbEntity
  8
1PHANTOM
100
AcDbLine
 10
5528.042363113567
 20
-286.6477166577265
 30
0.0
 11
5528.792363113567
 21
-286.7977166577266
 31
0.0
  0
LINE
  5
CEEB
330
18
100
AcDbEntity
  8
1PHANTOM
100
AcDbLine
 10
5528.042363113567
 20
-282.6477166577265
 30
0.0
 11
5533.042363113567
 21
-281.6477166577265
 31
0.0
  0
LINE
  5
CEEC
330
18
100
AcDbEntity
  8
1PHANTOM
100
AcDbLine
 10
5528.042363113567
 20
-284.6477166577265
 30
0.0
 11
5533.042363113567
 21
-283.6477166577265
 31
0.0
  0
LINE
  5
CEED
330
18
100
AcDbEntity
  8
1PHANTOM
100
AcDbLine
 10
5528.042363113567
 20
-286.6477166577265
 30
0.0
 11
5533.042363113567
 21
-285.6477166577265
 31
0.0
  0
LINE
  5
CEEE
330
18
100
AcDbEntity
  8
1PHANTOM
100
AcDbLine
 10
5532.292363113567
 20
-283.4977166577264
 30
0.0
 11
5533.042363113567
 21
-283.6477166577265
 31
0.0
  0
LINE
  5
CEEF
330
18
100
AcDbEntity
  8
1PHANTOM
100
AcDbLine
 10
5532.292363113567
 20
-281.4977166577264
 30
0.0
 11
5533.042363113567
 21
-281.6477166577265
 31
0.0
  0
LINE
  5
CEF0
330
18
100
AcDbEntity
  8
1PHANTOM
100
AcDbLine
 10
5532.292363113567
 20
-285.4977166577264
 30
0.0
 11
5533.042363113567
 21
-285.6477166577265
 31
0.0
  0
LINE
  5
CEF1
330
18
100
AcDbEntity
  8
1PHANTOM
100
AcDbLine
 10
5532.292363113567
 20
-287.4977166577264
 30
0.0
 11
5533.042363113567
 21
-287.6477166577265
 31
0.0
  0
LINE
  5
CEF2
330
18
100
AcDbEntity
  8
1PHANTOM
100
AcDbLine
 10
5528.042363113567
 20
-288.6477166577265
 30
0.0
 11
5528.792363113567
 21
-288.7977166577266
 31
0.0
  0
LINE
  5
CEF3
330
18
100
AcDbEntity
  8
1PHANTOM
100
AcDbLine
 10
5535.542363113567
 20
-288.7655822437723
 30
0.0
 11
5525.542363113567
 21
-288.7655822437723
 31
0.0
  0
LINE
  5
CEF4
330
18
100
AcDbEntity
  8
1PHANTOM
100
AcDbLine
 10
5535.542363113567
 20
-287.7655822437723
 30
0.0
 11
5525.542363113567
 21
-287.7655822437723
 31
0.0
  0
LINE
  5
CEF5
330
18
100
AcDbEntity
  8
1PHANTOM
100
AcDbLine
 10
5530.542363113567
 20
-288.7655822437723
 30
0.0
 11
5529.965012844377
 21
-287.7655822437723
 31
0.0
  0
LINE
  5
CEF6
330
18
100
AcDbEntity
  8
01
100
AcDbLine
 10
5713.942363113565
 20
-405.0
 30
0.0
 11
5713.942363113565
 21
-321.8311644875478
 31
0.0
  0
LINE
  5
CEF7
330
18
100
AcDbEntity
  8
01
100
AcDbLine
 10
5722.942363113565
 20
-405.0
 30
0.0
 11
5722.942363113565
 21
-321.8311644875478
 31
0.0
  0
TEXT
  5
CF13
330
18
100
AcDbEntity
  8
1TEXT
100
AcDbText
 10
5634.53302793362
 20
-224.3603646990787
 30
0.0
 40
8.0
  1
GP-139-X-01
100
AcDbText
  0
LINE
  5
D129
330
18
100
AcDbEntity
  8
1DIM
100
AcDbLine
 10
5655.042363113566
 20
-383.4155822437739
 30
0.0
 11
5676.292363113564
 21
-383.4155822437739
 31
0.0
1001
ACAD
1000
DSTYLE
1002
{
1070
    45
1040
0.5
1002
}
  0
LINE
  5
D12A
330
18
100
AcDbEntity
  8
1DIM
100
AcDbLine
 10
5655.042363113566
 20
-343.4155822437737
 30
0.0
 11
5676.292363113564
 21
-343.4155822437737
 31
0.0
1001
ACAD
1000
DSTYLE
1002
{
1070
    45
1040
0.5
1002
}
  0
LINE
  5
D12B
330
18
100
AcDbEntity
  8
1DIM
100
AcDbLine
 10
5675.292363113564
 20
-381.4155822437739
 30
0.0
 11
5675.292363113564
 21
-345.4155822437737
 31
0.0
1001
ACAD
1000
DSTYLE
1002
{
1070
    45
1040
0.5
1002
}
  0
LINE
  5
D12F
330
18
100
AcDbEntity
  8
1DIM
100
AcDbLine
 10
5530.542363113566
 20
-368.6155822437744
 30
0.0
 11
5530.542363113566
 21
-404.4155822437739
 31
0.0
1001
ACAD
1000
DSTYLE
1002
{
1070
    45
1040
0.5
1002
}
  0
LINE
  5
D130
330
18
100
AcDbEntity
  8
1DIM
100
AcDbLine
 10
5610.542363113566
 20
-368.6155822437744
 30
0.0
 11
5610.542363113566
 21
-404.4155822437739
 31
0.0
1001
ACAD
1000
DSTYLE
1002
{
1070
    45
1040
0.5
1002
}
  0
LINE
  5
D131
330
18
100
AcDbEntity
  8
1DIM
100
AcDbLine
 10
5532.542363113566
 20
-403.4155822437739
 30
0.0
 11
5608.542363113566
 21
-403.4155822437739
 31
0.0
1001
ACAD
1000
DSTYLE
1002
{
1070
    45
1040
0.5
1002
}
  0
LINE
  5
D135
330
18
100
AcDbEntity
  8
1DIM
100
AcDbLine
 10
5485.792363113564
 20
-344.6655822437739
 30
0.0
 11
5485.792363113564
 21
-322.4155822437737
 31
0.0
1001
ACAD
1000
DSTYLE
1002
{
1070
    45
1040
0.5
1002
}
  0
LINE
  5
D136
330
18
100
AcDbEntity
  8
1DIM
100
AcDbLine
 10
5655.292363113564
 20
-344.6655822437739
 30
0.0
 11
5655.292363113564
 21
-322.4155822437737
 31
0.0
1001
ACAD
1000
DSTYLE
1002
{
1070
    45
1040
0.5
1002
}
  0
LINE
  5
D137
330
18
100
AcDbEntity
  8
1DIM
100
AcDbLine
 10
5487.792363113564
 20
-323.4155822437737
 30
0.0
 11
5653.292363113564
 21
-323.4155822437737
 31
0.0
1001
ACAD
1000
DSTYLE
1002
{
1070
    45
1040
0.5
1002
}
  0
LINE
  5
D13B
330
18
100
AcDbEntity
  8
1DIM
100
AcDbLine
 10
5705.292363113564
 20
-343.9155822437737
 30
0.0
 11
5705.292363113564
 21
-322.4155822437737
 31
0.0
1001
ACAD
1000
DSTYLE
1002
{
1070
    45
1040
0.5
1002
}
  0
LINE
  5
D13C
330
18
100
AcDbEntity
  8
1DIM
100
AcDbLine
 10
5713.942363113563
 20
-346.7655822437736
 30
0.0
 11
5713.942363113563
 21
-322.4155822437737
 31
0.0
1001
ACAD
1000
DSTYLE
1002
{
1070
    45
1040
0.5
1002
}
  0
LINE
  5
D13D
330
18
100
AcDbEntity
  8
1DIM
100
AcDbLine
 10
5707.292363113564
 20
-323.4155822437737
 30
0.0
 11
5711.942363113563
 21
-323.4155822437737
 31
0.0
1001
ACAD
1000
DSTYLE
1002
{
1070
    45
1040
0.5
1002
}
  0
TEXT
  5
D141
330
18
100
AcDbEntity
  8
1DIM
  6
CONTINUOUS
100
AcDbText
 10
5466.183333333333
 20
-249.0408781582488
 30
0.0
 40
3.5
  1
材質：ABS樹脂
100
AcDbText
  0
TEXT
  5
D142
330
18
100
AcDbEntity
  8
1DIM
  6
CONTINUOUS
100
AcDbText
 10
5459.883333333333
 20
-254.8742114915822
 30
0.0
 40
3.5
  1
仕上げ：各種仕上げ
100
AcDbText
  0
SOLID
  5
D143
330
18
100
AcDbEntity
  8
1DIM
100
AcDbTrace
 10
5519.951737954738
 20
-284.3951209485858
 30
0.0
 11
5520.812241892843
 21
-286.2310523426241
 31
0.0
 12
5519.402814472244
 22
-284.7734428417032
 32
0.0
 13
5519.402814472244
 23
-284.7734428417032
 33
0.0
1001
ACAD
1000
DSTYLE
1002
{
1070
    45
1040
0.5
1002
}
  0
LINE
  5
D144
330
18
100
AcDbEntity
  8
1DIM
100
AcDbLine
 10
5519.677276213491
 20
-284.5842818951445
 30
0.0
 11
5499.683333333333
 21
-255.5742114915822
 31
0.0
1001
ACAD
1000
DSTYLE
1002
{
1070
    45
1040
0.5
1002
}
  0
LINE
  5
D145
330
18
100
AcDbEntity
  8
1DIM
100
AcDbLine
 10
5499.683333333333
 20
-255.5742114915822
 30
0.0
 11
5460.0
 21
-255.5742114915822
 31
0.0
1001
ACAD
1000
DSTYLE
1002
{
1070
    45
1040
0.5
1002
}
  0
TEXT
  5
D146
330
18
100
AcDbEntity
  8
1DIM
  6
CONTINUOUS
100
AcDbText
 10
5473.3
 20
-396.4948861005685
 30
0.0
 40
3.5
  1
材質：アルミ
100
AcDbText
1001
ACADANNOTATIVE
1000
AnnotativeData
1002
{
1070
     1
1070
     0
1002
}
  0
TEXT
  5
D147
330
18
100
AcDbEntity
  8
1DIM
  6
CONTINUOUS
100
AcDbText
 10
5450.993333333334
 20
-402.3282194339018
 30
0.0
 40
3.5
  1
仕上げ：
100
AcDbText
1001
ACADANNOTATIVE
1000
AnnotativeData
1002
{
1070
     1
1070
     0
1002
}
  0
TEXT
  5
D148
330
18
100
AcDbEntity
  8
1DIM
  6
CONTINUOUS
100
AcDbText
 10
5467.793333333334
 20
-402.3282194339018
 30
0.0
 40
3.5
  1
ブラストブラック
 41
0.9
100
AcDbText
1001
ACADANNOTATIVE
1000
AnnotativeData
1002
{
1070
     1
1070
     0
1002
}
  0
SOLID
  5
D149
330
18
100
AcDbEntity
  8
1DIM
100
AcDbTrace
 10
5519.182744867393
 20
-382.3697005835649
 30
0.0
 11
5520.812241892843
 21
-381.1631142604371
 31
0.0
 12
5519.662151081675
 22
-382.8329652230014
 32
0.0
 13
5519.662151081675
 23
-382.8329652230014
 33
0.0
1001
ACAD
1000
DSTYLE
1002
{
1070
    45
1040
0.5
1002
}
  0
LINE
  5
D14A
330
18
100
AcDbEntity
  8
1DIM
100
AcDbLine
 10
5519.422447974533
 20
-382.6013329032832
 30
0.0
 11
5499.683333333333
 21
-403.0282194339018
 31
0.0
1001
ACAD
1000
DSTYLE
1002
{
1070
    45
1040
0.5
1002
}
  0
LINE
  5
D14B
330
18
100
AcDbEntity
  8
1DIM
100
AcDbLine
 10
5499.683333333333
 20
-403.0282194339018
 30
0.0
 11
5451.11
 21
-403.0282194339018
 31
0.0
1001
ACAD
1000
DSTYLE
1002
{
1070
    45
1040
0.5
1002
}
  0
LINE
  5
D14C
330
18
100
AcDbEntity
  8
0
  6
BYBLOCK
100
AcDbLine
 10
5675.828261493563
 20
-381.4155822437739
 30
0.0
 11
5675.292363113564
 21
-383.4155822437739
 31
0.0
  0
LINE
  5
D14D
330
18
100
AcDbEntity
  8
0
  6
BYBLOCK
100
AcDbLine
 10
5675.292363113564
 20
-383.4155822437739
 30
0.0
 11
5674.756464733564
 21
-381.4155822437739
 31
0.0
  0
LINE
  5
D14E
330
18
100
AcDbEntity
  8
0
  6
BYBLOCK
100
AcDbLine
 10
5675.292363113564
 20
-383.4155822437739
 30
0.0
 11
5675.292363113564
 21
-381.4155822437739
 31
0.0
  0
LINE
  5
D14F
330
18
100
AcDbEntity
  8
0
  6
BYBLOCK
100
AcDbLine
 10
5674.756464733564
 20
-345.4155822437737
 30
0.0
 11
5675.292363113564
 21
-343.4155822437737
 31
0.0
  0
LINE
  5
D150
330
18
100
AcDbEntity
  8
0
  6
BYBLOCK
100
AcDbLine
 10
5675.292363113564
 20
-343.4155822437737
 30
0.0
 11
5675.828261493563
 21
-345.4155822437737
 31
0.0
  0
LINE
  5
D151
330
18
100
AcDbEntity
  8
0
  6
BYBLOCK
100
AcDbLine
 10
5675.292363113564
 20
-343.4155822437737
 30
0.0
 11
5675.292363113564
 21
-345.4155822437737
 31
0.0
  0
TEXT
  5
D152
330
18
100
AcDbEntity
  8
1DIM
  6
CONTINUOUS
100
AcDbText
 10
5674.592363113563
 20
-366.1134989104412
 30
0.0
 40
3.5
  1
40
 50
90.0
100
AcDbText
1001
ACAD
1000
DSTYLE
1002
{
1070
    45
1040
0.5
1002
}
  0
LINE
  5
D153
330
18
100
AcDbEntity
  8
0
  6
BYBLOCK
100
AcDbLine
 10
5532.542363113566
 20
-403.9514806237739
 30
0.0
 11
5530.542363113566
 21
-403.4155822437739
 31
0.0
  0
LINE
  5
D154
330
18
100
AcDbEntity
  8
0
  6
BYBLOCK
100
AcDbLine
 10
5530.542363113566
 20
-403.4155822437739
 30
0.0
 11
5532.542363113566
 21
-402.8796838637739
 31
0.0
  0
LINE
  5
D155
330
18
100
AcDbEntity
  8
0
  6
BYBLOCK
100
AcDbLine
 10
5530.542363113566
 20
-403.4155822437739
 30
0.0
 11
5532.542363113566
 21
-403.4155822437739
 31
0.0
  0
LINE
  5
D156
330
18
100
AcDbEntity
  8
0
  6
BYBLOCK
100
AcDbLine
 10
5608.542363113566
 20
-402.8796838637739
 30
0.0
 11
5610.542363113566
 21
-403.4155822437739
 31
0.0
  0
LINE
  5
D157
330
18
100
AcDbEntity
  8
0
  6
BYBLOCK
100
AcDbLine
 10
5610.542363113566
 20
-403.4155822437739
 30
0.0
 11
5608.542363113566
 21
-403.9514806237739
 31
0.0
  0
LINE
  5
D158
330
18
100
AcDbEntity
  8
0
  6
BYBLOCK
100
AcDbLine
 10
5610.542363113566
 20
-403.4155822437739
 30
0.0
 11
5608.542363113566
 21
-403.4155822437739
 31
0.0
  0
TEXT
  5
D159
330
18
100
AcDbEntity
  8
1DIM
  6
CONTINUOUS
100
AcDbText
 10
5566.094446446899
 20
-402.7155822437739
 30
0.0
 40
3.5
  1
P80
100
AcDbText
1001
ACAD
1000
DSTYLE
1002
{
1070
    45
1040
0.5
1002
}
  0
LINE
  5
D15A
330
18
100
AcDbEntity
  8
0
  6
BYBLOCK
100
AcDbLine
 10
5487.792363113564
 20
-323.9514806237736
 30
0.0
 11
5485.792363113564
 21
-323.4155822437737
 31
0.0
  0
LINE
  5
D15B
330
18
100
AcDbEntity
  8
0
  6
BYBLOCK
100
AcDbLine
 10
5485.792363113564
 20
-323.4155822437737
 30
0.0
 11
5487.792363113564
 21
-322.8796838637737
 31
0.0
  0
LINE
  5
D15C
330
18
100
AcDbEntity
  8
0
  6
BYBLOCK
100
AcDbLine
 10
5485.792363113564
 20
-323.4155822437737
 30
0.0
 11
5487.792363113564
 21
-323.4155822437737
 31
0.0
  0
LINE
  5
D15D
330
18
100
AcDbEntity
  8
0
  6
BYBLOCK
100
AcDbLine
 10
5653.292363113564
 20
-322.8796838637737
 30
0.0
 11
5655.292363113564
 21
-323.4155822437737
 31
0.0
  0
LINE
  5
D15E
330
18
100
AcDbEntity
  8
0
  6
BYBLOCK
100
AcDbLine
 10
5655.292363113564
 20
-323.4155822437737
 30
0.0
 11
5653.292363113564
 21
-323.9514806237736
 31
0.0
  0
LINE
  5
D15F
330
18
100
AcDbEntity
  8
0
  6
BYBLOCK
100
AcDbLine
 10
5655.292363113564
 20
-323.4155822437737
 30
0.0
 11
5653.292363113564
 21
-323.4155822437737
 31
0.0
  0
TEXT
  5
D160
330
18
100
AcDbEntity
  8
1DIM
  6
CONTINUOUS
100
AcDbText
 10
5564.112733483934
 20
-322.7155822437736
 30
0.0
 40
3.5
  1
169.5
100
AcDbText
1001
ACAD
1000
DSTYLE
1002
{
1070
    45
1040
0.5
1002
}
  0
LINE
  5
D161
330
18
100
AcDbEntity
  8
0
  6
BYBLOCK
100
AcDbLine
 10
5707.292363113564
 20
-323.9514806237736
 30
0.0
 11
5705.292363113564
 21
-323.4155822437737
 31
0.0
  0
LINE
  5
D162
330
18
100
AcDbEntity
  8
0
  6
BYBLOCK
100
AcDbLine
 10
5705.292363113564
 20
-323.4155822437737
 30
0.0
 11
5707.292363113564
 21
-322.8796838637737
 31
0.0
  0
LINE
  5
D163
330
18
100
AcDbEntity
  8
0
  6
BYBLOCK
100
AcDbLine
 10
5705.292363113564
 20
-323.4155822437737
 30
0.0
 11
5707.292363113564
 21
-323.4155822437737
 31
0.0
  0
LINE
  5
D164
330
18
100
AcDbEntity
  8
0
  6
BYBLOCK
100
AcDbLine
 10
5711.942363113563
 20
-322.8796838637737
 30
0.0
 11
5713.942363113563
 21
-323.4155822437737
 31
0.0
  0
LINE
  5
D165
330
18
100
AcDbEntity
  8
0
  6
BYBLOCK
100
AcDbLine
 10
5713.942363113563
 20
-323.4155822437737
 30
0.0
 11
5711.942363113563
 21
-323.9514806237736
 31
0.0
  0
LINE
  5
D166
330
18
100
AcDbEntity
  8
0
  6
BYBLOCK
100
AcDbLine
 10
5713.942363113563
 20
-323.4155822437737
 30
0.0
 11
5711.942363113563
 21
-323.4155822437737
 31
0.0
  0
TEXT
  5
D167
330
18
100
AcDbEntity
  8
1DIM
  6
CONTINUOUS
100
AcDbText
 10
5706.117363113564
 20
-322.7155822437736
 30
0.0
 40
3.5
  1
8.5
100
AcDbText
1001
ACAD
1000
DSTYLE
1002
{
1070
    45
1040
0.5
1002
}
  0
VIEWPORT
  5
57
330
15
100
AcDbEntity
 67
     1
  8
0
100
AcDbViewport
 68
     1
 10
0.0
 20
0.0
 30
0.0
 40
464.1063829787233
 41
296.9999999999999
 68
     1
 69
     1
1001
ACAD
1000
MVIEW
1002
{
1070
    16
1010
0.0
1020
0.0
1030
0.0
1010
0.0
1020
0.0
1030
1.0
1040
0.0
1040
296.9999999999999
1040
5.728000000000009
1040
25.339
1040
50.0
1040
0.0
1040
0.0
1070
    16
1070
   100
1070
     0
1070
     1
1070
     0
1070
     0
1070
     0
1070
     0
1040
0.0
1040
0.0
1040
0.0
1040
10.0
1040
10.0
1040
10.0
1040
10.0
1070
     0
1002
{
1002
}
1002
}
  0
ENDSEC
  0
SECTION
  2
OBJECTS
  0
DICTIONARY
  5
C
330
0
100
AcDbDictionary
  3
ACAD_CIP_PREVIOUS_PRODUCT_INFO
350
AF9C
  3
ACAD_COLOR
350
18D
  3
ACAD_GROUP
350
D
  3
ACAD_LAYOUT
350
18E
  3
ACAD_MATERIAL
350
18C
  3
ACAD_MLEADERSTYLE
350
9583
  3
ACAD_MLINESTYLE
350
1B
  3
ACAD_PLOTSETTINGS
350
18F
  3
ACAD_SCALELIST
350
9561
  3
ACAD_VISUALSTYLE
350
9550
  3
ACDBHEADERROUNDTRIPXREC
350
D168
  3
ACDBVARIABLEDICTIONARY
350
37
  3
AEC_PROPERTY_SET_DEFS
350
ADE0
  3
CONTENTDICTIONARY
350
D8
  3
DRAWINGVARIABLESDICT
350
20
  3
DWGPROPS
350
D16B
1001
ACAD
1000
TREAT_AS_HARD
1070
     0
  0
DICTIONARY
  5
96D9
330
2
100
AcDbDictionary
  3
ACAD_LAYERSTATES
360
96DA
1001
ACAD
1000
TREAT_AS_HARD
1070
     1
  0
DICTIONARY
  5
9593
330
E
100
AcDbDictionary
  3
ADSK_XREC_LAYER_RECONCILED
360
9594
1001
ACAD
1000
TREAT_AS_HARD
1070
     1
  0
DICTIONARY
  5
9595
330
29
100
AcDbDictionary
  3
ADSK_XREC_LAYER_RECONCILED
360
9596
1001
ACAD
1000
TREAT_AS_HARD
1070
     1
  0
DICTIONARY
  5
9597
330
31
100
AcDbDictionary
  3
ADSK_XREC_LAYER_RECONCILED
360
9598
1001
ACAD
1000
TREAT_AS_HARD
1070
     1
  0
DICTIONARY
  5
959D
330
243
100
AcDbDictionary
  3
ADSK_XREC_LAYER_RECONCILED
360
959E
1001
ACAD
1000
TREAT_AS_HARD
1070
     1
  0
DICTIONARY
  5
95A3
330
24E
100
AcDbDictionary
  3
ADSK_XREC_LAYER_RECONCILED
360
95A4
1001
ACAD
1000
TREAT_AS_HARD
1070
     1
  0
DICTIONARY
  5
BC84
330
BC83
100
AcDbDictionary
  3
ADSK_XREC_LAYER_RECONCILED
360
BC85
1001
ACAD
1000
TREAT_AS_HARD
1070
     1
  0
DICTIONARY
  5
88F
330
18
100
AcDbDictionary
  3
ACAD_SORTENTS
360
890
1001
ACAD
1000
TREAT_AS_HARD
1070
     1
  0
DICTIONARY
  5
B8CB
330
B8CA
100
AcDbDictionary
  3
ACAD_SORTENTS
360
B8CC
1001
ACAD
1000
TREAT_AS_HARD
1070
     1
  0
DICTIONARY
  5
BA77
330
BA76
100
AcDbDictionary
  3
ACAD_SORTENTS
360
BA78
1001
ACAD
1000
TREAT_AS_HARD
1070
     1
  0
XRECORD
  5
AF9C
102
{ACAD_REACTORS
330
C
102
}
330
C
100
AcDbXrecord
300
ACDLT
300
2012
300
ACDLT_F_S
  0
DICTIONARY
  5
18D
102
{ACAD_REACTORS
330
C
102
}
330
C
100
AcDbDictionary
1001
ACAD
1000
TREAT_AS_HARD
1070
     0
  0
DICTIONARY
  5
D
102
{ACAD_REACTORS
330
C
102
}
330
C
100
AcDbDictionary
1001
ACAD
1000
TREAT_AS_HARD
1070
     0
  0
DICTIONARY
  5
18E
102
{ACAD_REACTORS
330
C
102
}
330
C
100
AcDbDictionary
1001
ACAD
1000
TREAT_AS_HARD
1070
     0
  0
DICTIONARY
  5
18C
102
{ACAD_REACTORS
330
C
102
}
330
C
100
AcDbDictionary
  3
BYBLOCK
350
9540
  3
BYLAYER
350
9538
  3
GLOBAL
350
9548
1001
ACAD
1000
TREAT_AS_HARD
1070
     0
  0
DICTIONARY
  5
9583
102
{ACAD_REACTORS
330
C
102
}
330
C
100
AcDbDictionary
  3
BALLOON3
350
B8C9
  3
BALLOONA
350
C104
  3
BALLOONS005
350
C0F7
  3
BALLOONS01
350
C0EE
  3
BALLOONS02
350
C0F4
  3
BALLOONS03
350
C0F6
  3
BALLOONS05
350
C0F8
  3
BALLOONS07
350
C0F5
  3
BALLOONS1
350
C0E6
  3
BALLOONS10
350
C0F3
  3
BALLOONS100
350
C0FF
  3
BALLOONS13
350
C101
  3
BALLOONS15
350
C102
  3
BALLOONS2
350
C0EF
  3
BALLOONS20
350
C0FC
  3
BALLOONS200
350
C100
  3
BALLOONS25
350
C0FD
  3
BALLOONS3
350
C0F1
  3
BALLOONS30
350
C0FA
  3
BALLOONS4
350
C0F2
  3
BALLOONS40
350
C0FB
  3
BALLOONS5
350
C0F0
  3
BALLOONS50
350
C0F9
  3
BALLOONS500
350
C0FE
  3
BALLOONS7
350
C103
  3
LEADERMULTI
350
C105
  3
LEADERMULTIA
350
C11D
  3
LEADERMULTIS005
350
C117
  3
LEADERMULTIS01
350
C118
  3
LEADERMULTIS02
350
C119
  3
LEADERMULTIS03
350
C11A
  3
LEADERMULTIS05
350
C11B
  3
LEADERMULTIS07
350
C11C
  3
LEADERMULTIS1
350
C10A
  3
LEADERMULTIS10
350
C10C
  3
LEADERMULTIS100
350
C10D
  3
LEADERMULTIS13
350
C10E
  3
LEADERMULTIS15
350
C10F
  3
LEADERMULTIS2
350
C106
  3
LEADERMULTIS20
350
C110
  3
LEADERMULTIS200
350
C111
  3
LEADERMULTIS25
350
C112
  3
LEADERMULTIS3
350
C107
  3
LEADERMULTIS30
350
C113
  3
LEADERMULTIS4
350
C108
  3
LEADERMULTIS40
350
C114
  3
LEADERMULTIS5
350
C109
  3
LEADERMULTIS50
350
C115
  3
LEADERMULTIS500
350
C116
  3
LEADERMULTIS7
350
C10B
  3
STANDARD
350
9584
1001
ACAD
1000
TREAT_AS_HARD
1070
     0
  0
DICTIONARY
  5
1B
102
{ACAD_REACTORS
330
C
102
}
330
C
100
AcDbDictionary
  3
STANDARD
350
1C
1001
ACAD
1000
TREAT_AS_HARD
1070
     0
  0
DICTIONARY
  5
18F
102
{ACAD_REACTORS
330
C
102
}
330
C
100
AcDbDictionary
1001
ACAD
1000
TREAT_AS_HARD
1070
     0
  0
DICTIONARY
  5
9561
102
{ACAD_REACTORS
330
C
102
}
330
C
100
AcDbDictionary
  3
*A1
350
C147
  3
*A10
350
C150
  3
*A11
350
C151
  3
*A12
350
C152
  3
*A13
350
C153
  3
*A14
350
C154
  3
*A15
350
C155
  3
*A16
350
C156
  3
*A2
350
C148
  3
*A3
350
C149
  3
*A4
350
C14A
  3
*A5
350
C14B
  3
*A6
350
C14C
  3
*A7
350
C14D
  3
*A8
350
C14E
  3
*A9
350
C14F
  3
A0
350
9562
  3
A1
350
9563
  3
A2
350
9564
  3
A3
350
9565
  3
A4
350
9566
  3
A5
350
9567
  3
A6
350
9568
  3
A7
350
9569
  3
A8
350
956A
  3
A9
350
956B
  3
B0
350
956C
  3
B1
350
956D
  3
B2
350
956E
  3
B3
350
956F
  3
B4
350
9570
  3
B5
350
9571
  3
B6
350
9572
  3
B7
350
9573
  3
B8
350
9574
  3
B9
350
9575
  3
C0
350
9576
  3
C1
350
9577
  3
C2
350
9578
  3
C3
350
9579
  3
C4
350
957A
  3
C5
350
957B
  3
C6
350
957C
  3
C7
350
957D
  3
C8
350
957E
  3
C9
350
957F
  3
D0
350
9580
  3
D1
350
9581
  3
D2
350
9582
1001
ACAD
1000
TREAT_AS_HARD
1070
     0
  0
DICTIONARY
  5
9550
102
{ACAD_REACTORS
330
C
102
}
330
C
100
AcDbDictionary
  3
2DWIREFRAME
350
9556
  3
3D_HIDDEN
350
9558
  3
3DWIREFRAME
350
9557
  3
BASIC
350
9555
  3
BRIGHTEN
350
955C
  3
COLORCHANGE
350
9560
  3
CONCEPTUAL
350
9559
  3
DIM
350
955B
  3
EDGECOLOROFF
350
A211
  3
FACEPATTERN
350
955F
  3
FLAT
350
9551
  3
FLATWITHEDGES
350
9552
  3
GOURAUD
350
9553
  3
GOURAUDWITHEDGES
350
9554
  3
HIDDEN
350
A260
  3
JITTEROFF
350
A20F
  3
LINEPATTERN
350
955E
  3
MODELING
350
A266
  3
OVERHANGOFF
350
A210
  3
REALISTIC
350
955A
  3
SHADED
350
A265
  3
SHADED_WITH_EDGES
350
A264
  3
SHADES_OF_GRAY
350
A261
  3
SKETCHY
350
A262
  3
THICKEN
350
955D
  3
WIREFRAME
350
A25F
  3
X-RAY
350
A263
1001
ACAD
1000
TREAT_AS_HARD
1070
     0
  0
DICTIONARY
  5
D168
102
{ACAD_REACTORS
330
C
102
}
330
C
100
AcDbDictionary
  3
COLORDICT
350
D169
  3
MATERIALDICT
350
D16A
1001
ACAD
1000
TREAT_AS_HARD
1070
     0
  0
DICTIONARY
  5
37
102
{ACAD_REACTORS
330
C
102
}
330
C
100
AcDbDictionary
  3
CANNOSCALE
350
AF43
  3
CMLEADERSTYLE
350
9627
  3
CTABLESTYLE
350
29E
  3
DIMADEC
350
38
  3
DIMASSOC
350
1CE
  3
HIDETEXT
350
704E
  3
INDEXCTL
350
962A
  3
INTERSECTIONCOLOR
350
7052
  3
INTERSECTIONDISPLAY
350
7051
  3
MSLTSCALE
350
AB30
  3
OBSCOLOR
350
704F
  3
OBSLTYPE
350
7050
  3
PROJECTNAME
350
1CF
  3
SORTENTS
350
9629
  3
XCLIPFRAME
350
B84C
1001
ACAD
1000
TREAT_AS_HARD
1070
     0
  0
DICTIONARY
  5
ADE0
102
{ACAD_REACTORS
330
C
102
}
330
C
100
AcDbDictionary
1001
ACAD
1000
TREAT_AS_HARD
1070
     0
  0
DICTIONARY
  5
D8
102
{ACAD_REACTORS
330
C
102
}
330
C
100
AcDbDictionary
1001
ACAD
1000
TREAT_AS_HARD
1070
     0
  0
DICTIONARY
  5
20
102
{ACAD_REACTORS
330
C
102
}
330
C
100
AcDbDictionary
1001
DRAWINGVARIABLESXDATA
1000
POLARANG
1000
0.261799387799149410000000
1000
POLARMODE
1000
1
1000
POLARSTYLE
1000
1
1001
ACAD
1000
TREAT_AS_HARD
1070
     0
  0
XRECORD
  5
D16B
102
{ACAD_REACTORS
330
C
102
}
330
C
100
AcDbXrecord
  1
DWGPROPS COOKIE
  2

  3

  4

  6

  7

  8
3684
  9

300
=
301
=
302
=
303
=
304
=
305
=
306
=
307
=
308
=
309
=
 40
0.0
 41
2451318.246352917
 42
2459538.296697813
  1

 90
        0
  0
DICTIONARY
  5
96DA
102
{ACAD_REACTORS
330
96D9
102
}
330
96D9
100
AcDbDictionary
  3
_LAYISO_STATE
350
C26F
1001
ACAD
1000
TREAT_AS_HARD
1070
     0
  0
ACAD_PROXY_OBJECT
  5
9594
102
{ACAD_REACTORS
330
9593
102
}
330
9593
100
AcDbZombieObject
 90
      499
 91
      519
 93
       34
310
40C8804040
  0
ACAD_PROXY_OBJECT
  5
9596
102
{ACAD_REACTORS
330
9595
102
}
330
9595
100
AcDbZombieObject
 90
      499
 91
      519
 93
       34
310
40C8804040
  0
ACAD_PROXY_OBJECT
  5
9598
102
{ACAD_REACTORS
330
9597
102
}
330
9597
100
AcDbZombieObject
 90
      499
 91
      519
 93
       34
310
40C8804040
  0
ACAD_PROXY_OBJECT
  5
959E
102
{ACAD_REACTORS
330
959D
102
}
330
959D
100
AcDbZombieObject
 90
      499
 91
      519
 93
       34
310
40C8804040
  0
ACAD_PROXY_OBJECT
  5
95A4
102
{ACAD_REACTORS
330
95A3
102
}
330
95A3
100
AcDbZombieObject
 90
      499
 91
      519
 93
       34
310
40C8804040
  0
ACAD_PROXY_OBJECT
  5
BC85
102
{ACAD_REACTORS
330
BC84
102
}
330
BC84
100
AcDbZombieObject
 90
      499
 91
      519
 93
       34
310
40C8804040
  0
SORTENTSTABLE
  5
890
102
{ACAD_REACTORS
330
88F
102
}
330
88F
100
AcDbSortentsTable
330
18
331
CDB9
  5
CDE0
331
CDBA
  5
CDE1
331
CDBB
  5
CDE2
331
CDBC
  5
CDE3
331
CDBD
  5
CDE4
331
CDBE
  5
CDE5
331
CDBF
  5
CDE6
331
CDC0
  5
CDE7
331
CDC1
  5
CDE8
331
CDC2
  5
CDE9
331
CDC3
  5
CDEA
331
CDC4
  5
CDEB
331
CDC5
  5
CDEC
331
CDC6
  5
CDED
331
CDC7
  5
CDEE
331
CDC8
  5
CDEF
331
CDC9
  5
CDF0
331
CDCA
  5
CDF1
331
CDCB
  5
CDF2
331
CDCC
  5
CDF3
331
CDCD
  5
CDF4
331
CDCE
  5
CDF5
331
CDCF
  5
CDF6
331
CDD0
  5
CDF7
331
CDD1
  5
CDF8
331
CDD2
  5
CDF9
331
CDD3
  5
CDFA
331
CDD4
  5
CDFB
331
CDD5
  5
CDFC
331
CDD6
  5
CDFD
331
CDD7
  5
CDFE
331
CDD8
  5
CDFF
331
CDD9
  5
CE00
331
CDDA
  5
CE01
331
CDDB
  5
CE02
331
CDDC
  5
CE03
331
CDDD
  5
CE04
331
CDDE
  5
CE05
331
CDDF
  5
CE06
331
CDE0
  5
CE07
331
CDE1
  5
CE08
331
CDE2
  5
CE09
331
CDE3
  5
CE0A
331
CDE4
  5
CE0B
331
CDE5
  5
CE0C
331
CDE6
  5
CE0D
331
CDE7
  5
CE0E
331
CDE8
  5
CE0F
331
CDE9
  5
CE10
331
CDEA
  5
CE11
331
CDEB
  5
CE12
331
CDEC
  5
CE13
331
CDED
  5
CE14
331
CDEE
  5
CE15
331
CDEF
  5
CE16
331
CDF0
  5
CE17
331
CDF1
  5
CE18
331
CDF2
  5
CE19
331
CDF3
  5
CE1A
331
CDF4
  5
CE1B
331
CDF5
  5
CE1C
331
CDF6
  5
CE1D
331
CDF7
  5
CE1E
331
CDF8
  5
CE1F
331
CDF9
  5
CE20
331
CDFA
  5
CE21
331
CDFB
  5
CE22
331
CDFC
  5
CE23
331
CDFD
  5
CE24
331
CDFE
  5
CE25
331
CDFF
  5
CE26
331
CE00
  5
CE27
331
CE01
  5
CE28
331
CE02
  5
CE29
331
CE03
  5
CE2A
331
CE04
  5
CE2B
331
CE05
  5
CE2C
331
CE06
  5
CE2D
331
CE07
  5
CE2E
331
CE08
  5
CE2F
331
CE09
  5
CE30
331
CE0A
  5
CE31
331
CE0B
  5
CE32
331
CE0C
  5
CE33
331
CE0D
  5
CE34
331
CE0E
  5
CE35
331
CE0F
  5
CE36
331
CE10
  5
CE37
331
CE11
  5
CE38
331
CE12
  5
CE39
331
CE13
  5
CE3A
331
CE14
  5
CE3B
331
CE15
  5
CE3C
331
CE16
  5
CE3D
331
CE17
  5
CE3E
331
CE18
  5
CE3F
331
CE19
  5
CE40
331
CE1A
  5
CE41
331
CE1B
  5
CE42
331
CE1C
  5
CE43
331
CE1D
  5
CE44
331
CE1E
  5
CE45
331
CE1F
  5
CE46
331
CE20
  5
CE47
331
CE21
  5
CE48
331
CE22
  5
CE49
331
CE23
  5
CE4A
331
CE24
  5
CE4B
331
CE25
  5
CE4C
331
CE26
  5
CE4D
331
CE27
  5
CE4E
331
CE28
  5
CE4F
331
CE29
  5
CE50
331
CE2A
  5
CE51
331
CE2B
  5
CE52
331
CE2C
  5
CE53
331
CE2D
  5
CE54
331
CE2E
  5
CE55
331
CE2F
  5
CE56
331
CE30
  5
CE57
331
CE31
  5
CE58
331
CE32
  5
CE59
331
CE33
  5
CE5A
331
CE34
  5
CE5B
331
CE35
  5
CE5C
331
CE36
  5
CE5D
331
CE37
  5
CE5E
331
CE38
  5
CE5F
331
CE39
  5
CE60
331
CE3A
  5
CE61
331
CE3B
  5
CE62
331
CE3C
  5
CE63
331
CE3D
  5
CE64
331
CE3E
  5
CE65
331
CE3F
  5
CE66
331
CE40
  5
CE67
331
CE41
  5
CE68
331
CE42
  5
CE69
331
CE43
  5
CE6A
331
CE44
  5
CE6B
331
CE45
  5
CE6C
331
CE46
  5
CE6D
331
CE47
  5
CE6E
331
CE48
  5
CE6F
331
CE49
  5
CE70
331
CE4A
  5
CE71
331
CE4B
  5
CE72
331
CE4C
  5
CE73
331
CE4D
  5
CE74
331
CE4E
  5
CE75
331
CE4F
  5
CE76
331
CE50
  5
CE77
331
CE51
  5
CE78
331
CE52
  5
CE79
331
CE53
  5
CE7A
331
CE54
  5
CE7B
331
CE55
  5
CE7C
331
CE56
  5
CE7D
331
CE57
  5
CE7E
331
CE58
  5
CE7F
331
CE59
  5
CE80
331
CE5A
  5
CE81
331
CE5B
  5
CE82
331
CE5C
  5
CE83
331
CE5D
  5
CE84
331
CE5E
  5
CE85
331
CE5F
  5
CE86
331
CE60
  5
CE87
331
CE61
  5
CE88
331
CE62
  5
CE89
331
CE63
  5
CE8A
331
CE64
  5
CE8B
331
CE65
  5
CE8C
331
CE66
  5
CE8D
331
CE67
  5
CE8E
331
CE68
  5
CE8F
331
CE69
  5
CE90
331
CE6A
  5
CE91
331
CE6B
  5
CE92
331
CE6C
  5
CE93
331
CE6D
  5
CE94
331
CE6E
  5
CE95
331
CE6F
  5
CE96
331
CE70
  5
CE97
331
CE71
  5
CE98
331
CE72
  5
CE99
331
CE73
  5
CE9A
331
CE74
  5
CE9B
331
CE75
  5
CE9C
331
CE76
  5
CE9D
331
CE77
  5
CE9E
331
CE78
  5
CE9F
331
CE79
  5
CEA0
331
CE7A
  5
CEA1
331
CE7B
  5
CEA2
331
CE7C
  5
CEA3
331
CE7D
  5
CEA4
331
CE7E
  5
CEA5
331
CE7F
  5
CEA6
331
CE80
  5
CEA7
331
CE81
  5
CEA8
331
CE82
  5
CEA9
331
CE83
  5
CEAA
331
CE84
  5
CEAB
331
CE85
  5
CEAC
331
CE86
  5
CEAD
331
CE87
  5
CEAE
331
CE88
  5
CEAF
331
CE89
  5
CEB0
331
CE8A
  5
CEB1
331
CE8B
  5
CEB2
331
CE8C
  5
CEB3
331
CE8D
  5
CEB4
331
CE8E
  5
CEB5
331
CE8F
  5
CEB6
331
CE90
  5
CEB7
331
CE91
  5
CEB8
331
CE92
  5
CEB9
331
CE93
  5
CEBA
331
CE94
  5
CEBB
331
CE95
  5
CEBC
331
CE96
  5
CEBD
331
CE97
  5
CEBE
331
CE98
  5
CEBF
331
CE99
  5
CEC0
331
CE9A
  5
CEC1
331
CE9B
  5
CEC2
331
CE9C
  5
CEC3
331
CE9D
  5
CEC4
331
CE9E
  5
CEC5
331
CE9F
  5
CEC6
331
CEA0
  5
CEC7
331
CEA1
  5
CEC8
331
CEA2
  5
CEC9
331
CEA3
  5
CECA
331
CEA4
  5
CECB
331
CEA5
  5
CECC
331
CEA6
  5
CECD
331
CEA7
  5
CECE
331
CEA8
  5
CECF
331
CEA9
  5
CED0
331
CEAA
  5
CED1
331
CEAB
  5
CED2
331
CEAC
  5
CED3
331
CEAD
  5
CED4
331
CEAE
  5
CED5
331
CEAF
  5
CED6
331
CEB0
  5
CED7
331
CEB1
  5
CED8
331
CEB2
  5
CED9
331
CEB3
  5
CEDA
331
CEB4
  5
CEDB
331
CEB5
  5
CEDC
331
CEB6
  5
CEDD
331
CEB7
  5
CEDE
331
CEB8
  5
CEDF
331
CEB9
  5
CEE0
331
CEBA
  5
CEE1
331
CEBB
  5
CEE2
331
CEBC
  5
CEE3
331
CEBD
  5
CEE4
331
CEBE
  5
CEE5
331
CEBF
  5
CEE6
331
CEC0
  5
CEE7
331
CEC1
  5
CEE8
331
CEC2
  5
CEE9
331
CEC3
  5
CEEA
331
CEC4
  5
CEEB
331
CEC5
  5
CEEC
331
CEC6
  5
CEED
331
CEC7
  5
CEEE
331
CEC8
  5
CEEF
331
CEC9
  5
CEF0
331
CECA
  5
CEF1
331
CECB
  5
CEF2
331
CECC
  5
CEF3
331
CECD
  5
CEF4
331
CECE
  5
CEF5
331
CECF
  5
CEF6
331
CED0
  5
CEF7
331
CED1
  5
CF13
331
CED2
  5
D129
331
CED3
  5
D12A
331
CED4
  5
D12B
331
CED5
  5
D12C
331
CED6
  5
D12D
331
CED7
  5
D12E
331
CED8
  5
D12F
331
CED9
  5
D130
331
CEDA
  5
D131
331
CEDB
  5
D132
331
CEDC
  5
D133
331
CEDD
  5
D134
331
CEDE
  5
D135
331
CEDF
  5
D136
331
CEE0
  5
D137
331
CEE1
  5
D138
331
CEE2
  5
D139
331
CEE3
  5
D13A
331
CEE4
  5
D13B
331
CEE5
  5
D13C
331
CEE6
  5
D140
331
CEE7
  5
D141
331
CEE8
  5
D142
331
CEE9
  5
D143
331
CEEA
  5
D144
331
CEEB
  5
D145
331
CEEC
  5
D146
331
CEED
  5
D147
331
CEEE
  5
D148
331
CEEF
  5
D149
331
CEF0
  5
D14A
331
CEF1
  5
D14B
331
CEF2
  5
D14C
331
CEF3
  5
D14D
331
CEF4
  5
D14E
331
CEF5
  5
D14F
331
CEF6
  5
D150
331
CEF7
  5
D151
331
CF13
  5
D167
331
D129
  5
CDB9
331
D12A
  5
CDBA
331
D12B
  5
CDBB
331
0
  5
CDBC
331
0
  5
CDBD
331
0
  5
CDBE
331
D12F
  5
CDCC
331
D130
  5
CDCD
331
D131
  5
CDCE
331
0
  5
CDC2
331
0
  5
CDC3
331
0
  5
CDC4
331
D135
  5
CDD6
331
D136
  5
CDD7
331
D137
  5
CDD8
331
0
  5
CDC8
331
0
  5
CDC9
331
0
  5
CDCA
331
D13B
  5
D152
331
D13C
  5
D153
331
D13D
  5
D154
331
0
  5
D13D
331
0
  5
D13E
331
0
  5
D13F
331
D141
  5
D15C
331
D142
  5
D15D
331
D143
  5
D15E
331
D144
  5
D15F
331
D145
  5
D160
331
D146
  5
D161
331
D147
  5
D162
331
D148
  5
D163
331
D149
  5
D164
331
D14A
  5
D165
331
D14B
  5
D166
331
D14C
  5
CDBF
331
D14D
  5
CDC0
331
D14E
  5
CDC1
331
D14F
  5
CDC5
331
D150
  5
CDC6
331
D151
  5
CDC7
331
D152
  5
CDCB
331
D153
  5
CDCF
331
D154
  5
CDD0
331
D155
  5
CDD1
331
D156
  5
CDD2
331
D157
  5
CDD3
331
D158
  5
CDD4
331
D159
  5
CDD5
331
D15A
  5
CDD9
331
D15B
  5
CDDA
331
D15C
  5
CDDB
331
D15D
  5
CDDC
331
D15E
  5
CDDD
331
D15F
  5
CDDE
331
D160
  5
CDDF
331
D161
  5
D155
331
D162
  5
D156
331
D163
  5
D157
331
D164
  5
D158
331
D165
  5
D159
331
D166
  5
D15A
331
D167
  5
D15B
  0
SORTENTSTABLE
  5
B8CC
102
{ACAD_REACTORS
330
B8CB
102
}
330
B8CB
100
AcDbSortentsTable
330
B8CA
331
B8CE
  5
B8CF
331
B8CF
  5
B8CE
  0
SORTENTSTABLE
  5
BA78
102
{ACAD_REACTORS
330
BA77
102
}
330
BA77
100
AcDbSortentsTable
330
BA76
331
BA7A
  5
BA7B
331
BA7B
  5
BA7A
  0
MATERIAL
  5
9540
102
{ACAD_REACTORS
330
18C
102
}
102
{ACAD_XDICTIONARY
360
D306
102
}
330
18C
100
AcDbMaterial
  1
BYBLOCK
 72
     0
 73
     2
 43
0.0208333333333333
 43
0.0
 43
0.0
 43
0.0
 43
0.0
 43
0.0208333333333333
 43
0.0
 43
0.0
 43
0.0
 43
0.0
 43
1.0
 43
0.0
 43
0.0
 43
0.0
 43
0.0
 43
1.0
 77
     0
 78
     2
 47
0.0208333333333333
 47
0.0
 47
0.0
 47
0.0
 47
0.0
 47
0.0208333333333333
 47
0.0
 47
0.0
 47
0.0
 47
0.0
 47
1.0
 47
0.0
 47
0.0
 47
0.0
 47
0.0
 47
1.0
171
     0
172
     2
 49
0.0208333333333333
 49
0.0
 49
0.0
 49
0.0
 49
0.0
 49
0.0208333333333333
 49
0.0
 49
0.0
 49
0.0
 49
0.0
 49
1.0
 49
0.0
 49
0.0
 49
0.0
 49
0.0
 49
1.0
175
     0
176
     2
142
0.0208333333333333
142
0.0
142
0.0
142
0.0
142
0.0
142
0.0208333333333333
142
0.0
142
0.0
142
0.0
142
0.0
142
1.0
142
0.0
142
0.0
142
0.0
142
0.0
142
1.0
179
     0
270
     2
144
0.0208333333333333
144
0.0
144
0.0
144
0.0
144
0.0
144
0.0208333333333333
144
0.0
144
0.0
144
0.0
144
0.0
144
1.0
144
0.0
144
0.0
144
0.0
144
0.0
144
1.0
274
     2
147
0.0208333333333333
147
0.0
147
0.0
147
0.0
147
0.0
147
0.0208333333333333
147
0.0
147
0.0
147
0.0
147
0.0
147
1.0
147
0.0
147
0.0
147
0.0
147
0.0
147
1.0
  0
MATERIAL
  5
9538
102
{ACAD_REACTORS
330
18C
102
}
102
{ACAD_XDICTIONARY
360
D308
102
}
330
18C
100
AcDbMaterial
  1
BYLAYER
 72
     0
 73
     2
 43
0.0208333333333333
 43
0.0
 43
0.0
 43
0.0
 43
0.0
 43
0.0208333333333333
 43
0.0
 43
0.0
 43
0.0
 43
0.0
 43
1.0
 43
0.0
 43
0.0
 43
0.0
 43
0.0
 43
1.0
 77
     0
 78
     2
 47
0.0208333333333333
 47
0.0
 47
0.0
 47
0.0
 47
0.0
 47
0.0208333333333333
 47
0.0
 47
0.0
 47
0.0
 47
0.0
 47
1.0
 47
0.0
 47
0.0
 47
0.0
 47
0.0
 47
1.0
171
     0
172
     2
 49
0.0208333333333333
 49
0.0
 49
0.0
 49
0.0
 49
0.0
 49
0.0208333333333333
 49
0.0
 49
0.0
 49
0.0
 49
0.0
 49
1.0
 49
0.0
 49
0.0
 49
0.0
 49
0.0
 49
1.0
175
     0
176
     2
142
0.0208333333333333
142
0.0
142
0.0
142
0.0
142
0.0
142
0.0208333333333333
142
0.0
142
0.0
142
0.0
142
0.0
142
1.0
142
0.0
142
0.0
142
0.0
142
0.0
142
1.0
179
     0
270
     2
144
0.0208333333333333
144
0.0
144
0.0
144
0.0
144
0.0
144
0.0208333333333333
144
0.0
144
0.0
144
0.0
144
0.0
144
1.0
144
0.0
144
0.0
144
0.0
144
0.0
144
1.0
274
     2
147
0.0208333333333333
147
0.0
147
0.0
147
0.0
147
0.0
147
0.0208333333333333
147
0.0
147
0.0
147
0.0
147
0.0
147
1.0
147
0.0
147
0.0
147
0.0
147
0.0
147
1.0
  0
MATERIAL
  5
9548
102
{ACAD_REACTORS
330
18C
102
}
102
{ACAD_XDICTIONARY
360
D30A
102
}
330
18C
100
AcDbMaterial
  1
GLOBAL
 72
     0
 73
     2
 43
0.0208333333333333
 43
0.0
 43
0.0
 43
0.0
 43
0.0
 43
0.0208333333333333
 43
0.0
 43
0.0
 43
0.0
 43
0.0
 43
1.0
 43
0.0
 43
0.0
 43
0.0
 43
0.0
 43
1.0
 77
     0
 78
     2
 47
0.0208333333333333
 47
0.0
 47
0.0
 47
0.0
 47
0.0
 47
0.0208333333333333
 47
0.0
 47
0.0
 47
0.0
 47
0.0
 47
1.0
 47
0.0
 47
0.0
 47
0.0
 47
0.0
 47
1.0
171
     0
172
     2
 49
0.0208333333333333
 49
0.0
 49
0.0
 49
0.0
 49
0.0
 49
0.0208333333333333
 49
0.0
 49
0.0
 49
0.0
 49
0.0
 49
1.0
 49
0.0
 49
0.0
 49
0.0
 49
0.0
 49
1.0
175
     0
176
     2
142
0.0208333333333333
142
0.0
142
0.0
142
0.0
142
0.0
142
0.0208333333333333
142
0.0
142
0.0
142
0.0
142
0.0
142
1.0
142
0.0
142
0.0
142
0.0
142
0.0
142
1.0
179
     0
270
     2
144
0.0208333333333333
144
0.0
144
0.0
144
0.0
144
0.0
144
0.0208333333333333
144
0.0
144
0.0
144
0.0
144
0.0
144
1.0
144
0.0
144
0.0
144
0.0
144
0.0
144
1.0
274
     2
147
0.0208333333333333
147
0.0
147
0.0
147
0.0
147
0.0
147
0.0208333333333333
147
0.0
147
0.0
147
0.0
147
0.0
147
1.0
147
0.0
147
0.0
147
0.0
147
0.0
147
1.0
  0
ACAD_PROXY_OBJECT
  5
B8C9
102
{ACAD_REACTORS
330
9583
102
}
330
9583
100
AcDbZombieObject
 90
      499
 91
      511
 93
      546
310
40501902A4063FBFFFFFE4D4CCCCCCCCCEC9FC00000000000020C08000000000000004090140501A26A666666666724FC00000000000005102575014000000000000039000
340
12
340
42
340
F
340
B8CA
 94
        0
1001
ACAD_MLEADERVER
1070
     2
  0
ACAD_PROXY_OBJECT
  5
C104
102
{ACAD_REACTORS
330
9583
102
}
330
9583
100
AcDbZombieObject
 90
      499
 91
      511
 93
      546
310
40501902A4063FBFFFFFE0000000000000020000000000000020408000000000000004090140501A0000000000000410000000000000004102575016000000000000039000
340
12
340
42
340
F
340
BA76
 94
        0
1001
ACAD_MLEADERVER
1070
     2
  0
ACAD_PROXY_OBJECT
  5
C0F7
102
{ACAD_REACTORS
330
9583
102
}
330
9583
100
AcDbZombieObject
 90
      499
 91
      511
 93
      610
310
40501902A4063FBFFFFFE0000000000000020000000000000020408000000000000004090140501A00000000000004100000000000000041025750126A6666666666A4FC000000000000039000
340
12
340
42
340
F
340
BA76
 94
        0
1001
ACAD_MLEADERVER
1070
     2
  0
ACAD_PROXY_OBJECT
  5
C0EE
102
{ACAD_REACTORS
330
9583
102
}
330
9583
100
AcDbZombieObject
 90
      499
 91
      511
 93
      610
310
40501902A4063FBFFFFFE0000000000000020000000000000020408000000000000004090140501A00000000000004100000000000000041025750126A6666666666E4FC000000000000039000
340
12
340
42
340
F
340
BA76
 94
        0
1001
ACAD_MLEADERVER
1070
     2
  0
ACAD_PROXY_OBJECT
  5
C0F4
102
{ACAD_REACTORS
330
9583
102
}
330
9583
100
AcDbZombieObject
 90
      499
 91
      511
 93
      610
310
40501902A4063FBFFFFFE0000000000000020000000000000020408000000000000004090140501A00000000000004100000000000000041025750126A666666666724FC000000000000039000
340
12
340
42
340
F
340
BA76
 94
        0
1001
ACAD_MLEADERVER
1070
     2
  0
ACAD_PROXY_OBJECT
  5
C0F6
102
{ACAD_REACTORS
330
9583
102
}
330
9583
100
AcDbZombieObject
 90
      499
 91
      511
 93
      610
310
40501902A4063FBFFFFFE0000000000000020000000000000020408000000000000004090140501A0000000000000410000000000000004102575010CCCCCCCCCCCF4CFC000000000000039000
340
12
340
42
340
F
340
BA76
 94
        0
1001
ACAD_MLEADERVER
1070
     2
  0
ACAD_PROXY_OBJECT
  5
C0F8
102
{ACAD_REACTORS
330
9583
102
}
330
9583
100
AcDbZombieObject
 90
      499
 91
      511
 93
      610
310
40501902A4063FBFFFFFE0000000000000020000000000000020408000000000000004090140501A000000000000041000000000000000410257501000000000000380FC000000000000039000
340
12
340
42
340
F
340
BA76
 94
        0
1001
ACAD_MLEADERVER
1070
     2
  0
ACAD_PROXY_OBJECT
  5
C0F5
102
{ACAD_REACTORS
330
9583
102
}
330
9583
100
AcDbZombieObject
 90
      499
 91
      511
 93
      610
310
40501902A4063FBFFFFFE0000000000000020000000000000020408000000000000004090140501A000000000000041000000000000000410257501199999999999B98FC000000000000039000
340
12
340
42
340
F
340
BA76
 94
        0
1001
ACAD_MLEADERVER
1070
     2
  0
ACAD_PROXY_OBJECT
  5
C0E6
102
{ACAD_REACTORS
330
9583
102
}
330
9583
100
AcDbZombieObject
 90
      499
 91
      511
 93
      546
310
40501902A4063FBFFFFFE0000000000000020000000000000020408000000000000004090140501A0000000000000410000000000000004102575014000000000000039000
340
12
340
42
340
F
340
BA76
 94
        0
1001
ACAD_MLEADERVER
1070
     2
  0
ACAD_PROXY_OBJECT
  5
C0F3
102
{ACAD_REACTORS
330
9583
102
}
330
9583
100
AcDbZombieObject
 90
      499
 91
      511
 93
      610
310
40501902A4063FBFFFFFE0000000000000020000000000000020408000000000000004090140501A00000000000004100000000000000041025750100000000000009100000000000000039000
340
12
340
42
340
F
340
BA76
 94
        0
1001
ACAD_MLEADERVER
1070
     2
  0
ACAD_PROXY_OBJECT
  5
C0FF
102
{ACAD_REACTORS
330
9583
102
}
330
9583
100
AcDbZombieObject
 90
      499
 91
      511
 93
      610
310
40501902A4063FBFFFFFE0000000000000020000000000000020408000000000000004090140501A00000000000004100000000000000041025750100000000000016500000000000000039000
340
12
340
42
340
F
340
BA76
 94
        0
1001
ACAD_MLEADERVER
1070
     2
  0
ACAD_PROXY_OBJECT
  5
C101
102
{ACAD_REACTORS
330
9583
102
}
330
9583
100
AcDbZombieObject
 90
      499
 91
      511
 93
      610
310
40501902A4063FBFFFFFE0000000000000020000000000000020408000000000000004090140501A0000000000000410000000000000004102575013373333333333D0FC000000000000039000
340
12
340
42
340
F
340
BA76
 94
        0
1001
ACAD_MLEADERVER
1070
     2
  0
ACAD_PROXY_OBJECT
  5
C102
102
{ACAD_REACTORS
330
9583
102
}
330
9583
100
AcDbZombieObject
 90
      499
 91
      511
 93
      610
310
40501902A4063FBFFFFFE0000000000000020000000000000020408000000000000004090140501A0000000000000410000000000000004102575010000000000000B900000000000000039000
340
12
340
42
340
F
340
BA76
 94
        0
1001
ACAD_MLEADERVER
1070
     2
  0
ACAD_PROXY_OBJECT
  5
C0EF
102
{ACAD_REACTORS
330
9583
102
}
330
9583
100
AcDbZombieObject
 90
      499
 91
      511
 93
      610
310
40501902A4063FBFFFFFE0000000000000020000000000000020408000000000000004090140501A00000000000004100000000000000041025750100000000000000100000000000000039000
340
12
340
42
340
F
340
BA76
 94
        0
1001
ACAD_MLEADERVER
1070
     2
  0
ACAD_PROXY_OBJECT
  5
C0FC
102
{ACAD_REACTORS
330
9583
102
}
330
9583
100
AcDbZombieObject
 90
      499
 91
      511
 93
      610
310
40501902A4063FBFFFFFE0000000000000020000000000000020408000000000000004090140501A0000000000000410000000000000004102575010000000000000D100000000000000039000
340
12
340
42
340
F
340
BA76
 94
        0
1001
ACAD_MLEADERVER
1070
     2
  0
ACAD_PROXY_OBJECT
  5
C100
102
{ACAD_REACTORS
330
9583
102
}
330
9583
100
AcDbZombieObject
 90
      499
 91
      511
 93
      610
310
40501902A4063FBFFFFFE0000000000000020000000000000020408000000000000004090140501A0000000000000410000000000000004102575010000000000001A500000000000000039000
340
12
340
42
340
F
340
BA76
 94
        0
1001
ACAD_MLEADERVER
1070
     2
  0
ACAD_PROXY_OBJECT
  5
C0FD
102
{ACAD_REACTORS
330
9583
102
}
330
9583
100
AcDbZombieObject
 90
      499
 91
      511
 93
      610
310
40501902A4063FBFFFFFE0000000000000020000000000000020408000000000000004090140501A0000000000000410000000000000004102575010000000000000E500000000000000039000
340
12
340
42
340
F
340
BA76
 94
        0
1001
ACAD_MLEADERVER
1070
     2
  0
ACAD_PROXY_OBJECT
  5
C0F1
102
{ACAD_REACTORS
330
9583
102
}
330
9583
100
AcDbZombieObject
 90
      499
 91
      511
 93
      610
310
40501902A4063FBFFFFFE0000000000000020000000000000020408000000000000004090140501A00000000000004100000000000000041025750100000000000002100000000000000039000
340
12
340
42
340
F
340
BA76
 94
        0
1001
ACAD_MLEADERVER
1070
     2
  0
ACAD_PROXY_OBJECT
  5
C0FA
102
{ACAD_REACTORS
330
9583
102
}
330
9583
100
AcDbZombieObject
 90
      499
 91
      511
 93
      610
310
40501902A4063FBFFFFFE0000000000000020000000000000020408000000000000004090140501A0000000000000410000000000000004102575010000000000000F900000000000000039000
340
12
340
42
340
F
340
BA76
 94
        0
1001
ACAD_MLEADERVER
1070
     2
  0
ACAD_PROXY_OBJECT
  5
C0F2
102
{ACAD_REACTORS
330
9583
102
}
330
9583
100
AcDbZombieObject
 90
      499
 91
      511
 93
      610
310
40501902A4063FBFFFFFE0000000000000020000000000000020408000000000000004090140501A00000000000004100000000000000041025750100000000000004100000000000000039000
340
12
340
42
340
F
340
BA76
 94
        0
1001
ACAD_MLEADERVER
1070
     2
  0
ACAD_PROXY_OBJECT
  5
C0FB
102
{ACAD_REACTORS
330
9583
102
}
330
9583
100
AcDbZombieObject
 90
      499
 91
      511
 93
      610
310
40501902A4063FBFFFFFE0000000000000020000000000000020408000000000000004090140501A00000000000004100000000000000041025750100000000000011100000000000000039000
340
12
340
42
340
F
340
BA76
 94
        0
1001
ACAD_MLEADERVER
1070
     2
  0
ACAD_PROXY_OBJECT
  5
C0F0
102
{ACAD_REACTORS
330
9583
102
}
330
9583
100
AcDbZombieObject
 90
      499
 91
      511
 93
      610
310
40501902A4063FBFFFFFE0000000000000020000000000000020408000000000000004090140501A00000000000004100000000000000041025750100000000000005100000000000000039000
340
12
340
42
340
F
340
BA76
 94
        0
1001
ACAD_MLEADERVER
1070
     2
  0
ACAD_PROXY_OBJECT
  5
C0F9
102
{ACAD_REACTORS
330
9583
102
}
330
9583
100
AcDbZombieObject
 90
      499
 91
      511
 93
      610
310
40501902A4063FBFFFFFE0000000000000020000000000000020408000000000000004090140501A00000000000004100000000000000041025750100000000000012500000000000000039000
340
12
340
42
340
F
340
BA76
 94
        0
1001
ACAD_MLEADERVER
1070
     2
  0
ACAD_PROXY_OBJECT
  5
C0FE
102
{ACAD_REACTORS
330
9583
102
}
330
9583
100
AcDbZombieObject
 90
      499
 91
      511
 93
      610
310
40501902A4063FBFFFFFE0000000000000020000000000000020408000000000000004090140501A0000000000000410000000000000004102575010000000000101FD00000000000000039000
340
12
340
42
340
F
340
BA76
 94
        0
1001
ACAD_MLEADERVER
1070
     2
  0
ACAD_PROXY_OBJECT
  5
C103
102
{ACAD_REACTORS
330
9583
102
}
330
9583
100
AcDbZombieObject
 90
      499
 91
      511
 93
      610
310
40501902A4063FBFFFFFE0000000000000020000000000000020408000000000000004090140501A00000000000004100000000000000041025750100000000000007100000000000000039000
340
12
340
42
340
F
340
BA76
 94
        0
1001
ACAD_MLEADERVER
1070
     2
  0
ACAD_PROXY_OBJECT
  5
C105
102
{ACAD_REACTORS
330
9583
102
}
330
9583
100
AcDbZombieObject
 90
      499
 91
      511
 93
      546
310
40901902A4063FBFFFFFE0000000000000020400000000000020C080000000000000040905415019C900000000000003100000000000000041025764000000000000039000
340
12
340
42
340
F
340
0
 94
        0
1001
ACAD_MLEADERVER
1070
     2
  0
ACAD_PROXY_OBJECT
  5
C11D
102
{ACAD_REACTORS
330
9583
102
}
330
9583
100
AcDbZombieObject
 90
      499
 91
      511
 93
      546
310
40901902A4063FBFFFFFE0000000000000020400000000000020C080000000000000040905415019C900000000000003100000000000000041025766000000000000039000
340
12
340
42
340
F
340
0
 94
        0
1001
ACAD_MLEADERVER
1070
     2
  0
ACAD_PROXY_OBJECT
  5
C117
102
{ACAD_REACTORS
330
9583
102
}
330
9583
100
AcDbZombieObject
 90
      499
 91
      511
 93
      610
310
40901902A4063FBFFFFFE0000000000000020400000000000020C080000000000000040905415019C9000000000000031000000000000000410257626A6666666666A4FC000000000000039000
340
12
340
42
340
F
340
0
 94
        0
1001
ACAD_MLEADERVER
1070
     2
  0
ACAD_PROXY_OBJECT
  5
C118
102
{ACAD_REACTORS
330
9583
102
}
330
9583
100
AcDbZombieObject
 90
      499
 91
      511
 93
      610
310
40901902A4063FBFFFFFE0000000000000020400000000000020C080000000000000040905415019C9000000000000031000000000000000410257626A6666666666E4FC000000000000039000
340
12
340
42
340
F
340
0
 94
        0
1001
ACAD_MLEADERVER
1070
     2
  0
ACAD_PROXY_OBJECT
  5
C119
102
{ACAD_REACTORS
330
9583
102
}
330
9583
100
AcDbZombieObject
 90
      499
 91
      511
 93
      610
310
40901902A4063FBFFFFFE0000000000000020400000000000020C080000000000000040905415019C9000000000000031000000000000000410257626A666666666724FC000000000000039000
340
12
340
42
340
F
340
0
 94
        0
1001
ACAD_MLEADERVER
1070
     2
  0
ACAD_PROXY_OBJECT
  5
C11A
102
{ACAD_REACTORS
330
9583
102
}
330
9583
100
AcDbZombieObject
 90
      499
 91
      511
 93
      610
310
40901902A4063FBFFFFFE0000000000000020400000000000020C080000000000000040905415019C900000000000003100000000000000041025760CCCCCCCCCCCF4CFC000000000000039000
340
12
340
42
340
F
340
0
 94
        0
1001
ACAD_MLEADERVER
1070
     2
  0
ACAD_PROXY_OBJECT
  5
C11B
102
{ACAD_REACTORS
330
9583
102
}
330
9583
100
AcDbZombieObject
 90
      499
 91
      511
 93
      610
310
40901902A4063FBFFFFFE0000000000000020400000000000020C080000000000000040905415019C90000000000000310000000000000004102576000000000000380FC000000000000039000
340
12
340
42
340
F
340
0
 94
        0
1001
ACAD_MLEADERVER
1070
     2
  0
ACAD_PROXY_OBJECT
  5
C11C
102
{ACAD_REACTORS
330
9583
102
}
330
9583
100
AcDbZombieObject
 90
      499
 91
      511
 93
      610
310
40901902A4063FBFFFFFE0000000000000020400000000000020C080000000000000040905415019C90000000000000310000000000000004102576199999999999B98FC000000000000039000
340
12
340
42
340
F
340
0
 94
        0
1001
ACAD_MLEADERVER
1070
     2
  0
ACAD_PROXY_OBJECT
  5
C10A
102
{ACAD_REACTORS
330
9583
102
}
330
9583
100
AcDbZombieObject
 90
      499
 91
      511
 93
      546
310
40901902A4063FBFFFFFE0000000000000020400000000000020C080000000000000040905415019C900000000000003100000000000000041025764000000000000039000
340
12
340
42
340
F
340
0
 94
        0
1001
ACAD_MLEADERVER
1070
     2
  0
ACAD_PROXY_OBJECT
  5
C10C
102
{ACAD_REACTORS
330
9583
102
}
330
9583
100
AcDbZombieObject
 90
      499
 91
      511
 93
      610
310
40901902A4063FBFFFFFE0000000000000020400000000000020C080000000000000040905415019C9000000000000031000000000000000410257600000000000009100000000000000039000
340
12
340
42
340
F
340
0
 94
        0
1001
ACAD_MLEADERVER
1070
     2
  0
ACAD_PROXY_OBJECT
  5
C10D
102
{ACAD_REACTORS
330
9583
102
}
330
9583
100
AcDbZombieObject
 90
      499
 91
      511
 93
      610
310
40901902A4063FBFFFFFE0000000000000020400000000000020C080000000000000040905415019C9000000000000031000000000000000410257600000000000016500000000000000039000
340
12
340
42
340
F
340
0
 94
        0
1001
ACAD_MLEADERVER
1070
     2
  0
ACAD_PROXY_OBJECT
  5
C10E
102
{ACAD_REACTORS
330
9583
102
}
330
9583
100
AcDbZombieObject
 90
      499
 91
      511
 93
      610
310
40901902A4063FBFFFFFE0000000000000020400000000000020C080000000000000040905415019C900000000000003100000000000000041025763373333333333D0FC000000000000039000
340
12
340
42
340
F
340
0
 94
        0
1001
ACAD_MLEADERVER
1070
     2
  0
ACAD_PROXY_OBJECT
  5
C10F
102
{ACAD_REACTORS
330
9583
102
}
330
9583
100
AcDbZombieObject
 90
      499
 91
      511
 93
      610
310
40901902A4063FBFFFFFE0000000000000020400000000000020C080000000000000040905415019C900000000000003100000000000000041025760000000000000B900000000000000039000
340
12
340
42
340
F
340
0
 94
        0
1001
ACAD_MLEADERVER
1070
     2
  0
ACAD_PROXY_OBJECT
  5
C106
102
{ACAD_REACTORS
330
9583
102
}
330
9583
100
AcDbZombieObject
 90
      499
 91
      511
 93
      610
310
40901902A4063FBFFFFFE0000000000000020400000000000020C080000000000000040905415019C9000000000000031000000000000000410257600000000000000100000000000000039000
340
12
340
42
340
F
340
0
 94
        0
1001
ACAD_MLEADERVER
1070
     2
  0
ACAD_PROXY_OBJECT
  5
C110
102
{ACAD_REACTORS
330
9583
102
}
330
9583
100
AcDbZombieObject
 90
      499
 91
      511
 93
      610
310
40901902A4063FBFFFFFE0000000000000020400000000000020C080000000000000040905415019C900000000000003100000000000000041025760000000000000D100000000000000039000
340
12
340
42
340
F
340
0
 94
        0
1001
ACAD_MLEADERVER
1070
     2
  0
ACAD_PROXY_OBJECT
  5
C111
102
{ACAD_REACTORS
330
9583
102
}
330
9583
100
AcDbZombieObject
 90
      499
 91
      511
 93
      610
310
40901902A4063FBFFFFFE0000000000000020400000000000020C080000000000000040905415019C900000000000003100000000000000041025760000000000001A500000000000000039000
340
12
340
42
340
F
340
0
 94
        0
1001
ACAD_MLEADERVER
1070
     2
  0
ACAD_PROXY_OBJECT
  5
C112
102
{ACAD_REACTORS
330
9583
102
}
330
9583
100
AcDbZombieObject
 90
      499
 91
      511
 93
      610
310
40901902A4063FBFFFFFE0000000000000020400000000000020C080000000000000040905415019C900000000000003100000000000000041025760000000000000E500000000000000039000
340
12
340
42
340
F
340
0
 94
        0
1001
ACAD_MLEADERVER
1070
     2
  0
ACAD_PROXY_OBJECT
  5
C107
102
{ACAD_REACTORS
330
9583
102
}
330
9583
100
AcDbZombieObject
 90
      499
 91
      511
 93
      610
310
40901902A4063FBFFFFFE0000000000000020400000000000020C080000000000000040905415019C9000000000000031000000000000000410257600000000000002100000000000000039000
340
12
340
42
340
F
340
0
 94
        0
1001
ACAD_MLEADERVER
1070
     2
  0
ACAD_PROXY_OBJECT
  5
C113
102
{ACAD_REACTORS
330
9583
102
}
330
9583
100
AcDbZombieObject
 90
      499
 91
      511
 93
      610
310
40901902A4063FBFFFFFE0000000000000020400000000000020C080000000000000040905415019C900000000000003100000000000000041025760000000000000F900000000000000039000
340
12
340
42
340
F
340
0
 94
        0
1001
ACAD_MLEADERVER
1070
     2
  0
ACAD_PROXY_OBJECT
  5
C108
102
{ACAD_REACTORS
330
9583
102
}
330
9583
100
AcDbZombieObject
 90
      499
 91
      511
 93
      610
310
40901902A4063FBFFFFFE0000000000000020400000000000020C080000000000000040905415019C9000000000000031000000000000000410257600000000000004100000000000000039000
340
12
340
42
340
F
340
0
 94
        0
1001
ACAD_MLEADERVER
1070
     2
  0
ACAD_PROXY_OBJECT
  5
C114
102
{ACAD_REACTORS
330
9583
102
}
330
9583
100
AcDbZombieObject
 90
      499
 91
      511
 93
      610
310
40901902A4063FBFFFFFE0000000000000020400000000000020C080000000000000040905415019C9000000000000031000000000000000410257600000000000011100000000000000039000
340
12
340
42
340
F
340
0
 94
        0
1001
ACAD_MLEADERVER
1070
     2
  0
ACAD_PROXY_OBJECT
  5
C109
102
{ACAD_REACTORS
330
9583
102
}
330
9583
100
AcDbZombieObject
 90
      499
 91
      511
 93
      610
310
40901902A4063FBFFFFFE0000000000000020400000000000020C080000000000000040905415019C9000000000000031000000000000000410257600000000000005100000000000000039000
340
12
340
42
340
F
340
0
 94
        0
1001
ACAD_MLEADERVER
1070
     2
  0
ACAD_PROXY_OBJECT
  5
C115
102
{ACAD_REACTORS
330
9583
102
}
330
9583
100
AcDbZombieObject
 90
      499
 91
      511
 93
      610
310
40901902A4063FBFFFFFE0000000000000020400000000000020C080000000000000040905415019C9000000000000031000000000000000410257600000000000012500000000000000039000
340
12
340
42
340
F
340
0
 94
        0
1001
ACAD_MLEADERVER
1070
     2
  0
ACAD_PROXY_OBJECT
  5
C116
102
{ACAD_REACTORS
330
9583
102
}
330
9583
100
AcDbZombieObject
 90
      499
 91
      511
 93
      610
310
40901902A4063FBFFFFFE0000000000000020400000000000020C080000000000000040905415019C900000000000003100000000000000041025760000000000101FD00000000000000039000
340
12
340
42
340
F
340
0
 94
        0
1001
ACAD_MLEADERVER
1070
     2
  0
ACAD_PROXY_OBJECT
  5
C10B
102
{ACAD_REACTORS
330
9583
102
}
330
9583
100
AcDbZombieObject
 90
      499
 91
      511
 93
      610
310
40901902A4063FBFFFFFE0000000000000020400000000000020C080000000000000040905415019C9000000000000031000000000000000410257600000000000007100000000000000039000
340
12
340
42
340
F
340
0
 94
        0
1001
ACAD_MLEADERVER
1070
     2
  0
ACAD_PROXY_OBJECT
  5
9584
102
{ACAD_REACTORS
330
9583
102
}
330
9583
100
AcDbZombieObject
 90
      499
 91
      511
 93
      610
310
40901902A4063FBFFFFFE000000000000002040AD7A3703D0AD73F4214DD185B99185C990000000000000104090141901A00000000000004100000000000000041025764000000000000300FC0
340
12
340
0
340
F
340
0
 94
        0
1001
ACAD_MLEADERVER
1070
     2
  0
MLINESTYLE
  5
1C
102
{ACAD_REACTORS
330
1B
102
}
330
1B
100
AcDbMlineStyle
  2
STANDARD
 70
     0
  3

 62
   256
 51
90.0
 52
90.0
 71
     2
 49
0.5
 62
   256
  6
BYLAYER
 49
-0.5
 62
   256
  6
BYLAYER
  0
ACAD_PROXY_OBJECT
  5
C147
102
{ACAD_REACTORS
330
9561
102
}
330
9561
100
AcDbZombieObject
 90
      499
 91
      510
 93
      153
310
909313A34305F585245464000000000000444000
  0
ACAD_PROXY_OBJECT
  5
C150
102
{ACAD_REACTORS
330
9561
102
}
330
9561
100
AcDbZombieObject
 90
      499
 91
      510
 93
      145
310
908313A345F585245464000000000000104000
  0
ACAD_PROXY_OBJECT
  5
C151
102
{ACAD_REACTORS
330
9561
102
}
330
9561
100
AcDbZombieObject
 90
      499
 91
      510
 93
      145
310
908313A355F585245464000000000000144000
  0
ACAD_PROXY_OBJECT
  5
C152
102
{ACAD_REACTORS
330
9561
102
}
330
9561
100
AcDbZombieObject
 90
      499
 91
      510
 93
      145
310
908313A385F585245464000000000000204000
  0
ACAD_PROXY_OBJECT
  5
C153
102
{ACAD_REACTORS
330
9561
102
}
330
9561
100
AcDbZombieObject
 90
      499
 91
      510
 93
      153
310
909313A31305F585245464000000000000244000
  0
ACAD_PROXY_OBJECT
  5
C154
102
{ACAD_REACTORS
330
9561
102
}
330
9561
100
AcDbZombieObject
 90
      499
 91
      510
 93
      153
310
909313A31365F585245464000000000000304000
  0
ACAD_PROXY_OBJECT
  5
C155
102
{ACAD_REACTORS
330
9561
102
}
330
9561
100
AcDbZombieObject
 90
      499
 91
      510
 93
      153
310
909313A32305F585245464000000000000344000
  0
ACAD_PROXY_OBJECT
  5
C156
102
{ACAD_REACTORS
330
9561
102
}
330
9561
100
AcDbZombieObject
 90
      499
 91
      510
 93
      153
310
909313A33305F5852454640000000000003E4000
  0
ACAD_PROXY_OBJECT
  5
C148
102
{ACAD_REACTORS
330
9561
102
}
330
9561
100
AcDbZombieObject
 90
      499
 91
      510
 93
      153
310
909313A35305F585245464000000000000494000
  0
ACAD_PROXY_OBJECT
  5
C149
102
{ACAD_REACTORS
330
9561
102
}
330
9561
100
AcDbZombieObject
 90
      499
 91
      510
 93
      161
310
90A313A3130305F585245464000000000000594000
  0
ACAD_PROXY_OBJECT
  5
C14A
102
{ACAD_REACTORS
330
9561
102
}
330
9561
100
AcDbZombieObject
 90
      499
 91
      510
 93
      145
310
908323A315F585245460000000000000010100
  0
ACAD_PROXY_OBJECT
  5
C14B
102
{ACAD_REACTORS
330
9561
102
}
330
9561
100
AcDbZombieObject
 90
      499
 91
      510
 93
      145
310
908343A315F585245460000000000000410100
  0
ACAD_PROXY_OBJECT
  5
C14C
102
{ACAD_REACTORS
330
9561
102
}
330
9561
100
AcDbZombieObject
 90
      499
 91
      510
 93
      145
310
908383A315F585245460000000000000810100
  0
ACAD_PROXY_OBJECT
  5
C14D
102
{ACAD_REACTORS
330
9561
102
}
330
9561
100
AcDbZombieObject
 90
      499
 91
      510
 93
      153
310
90931303A315F585245460000000000000910100
  0
ACAD_PROXY_OBJECT
  5
C14E
102
{ACAD_REACTORS
330
9561
102
}
330
9561
100
AcDbZombieObject
 90
      499
 91
      510
 93
      161
310
90A3130303A315F585245460000000000001650100
  0
ACAD_PROXY_OBJECT
  5
C14F
102
{ACAD_REACTORS
330
9561
102
}
330
9561
100
AcDbZombieObject
 90
      499
 91
      510
 93
      145
310
908313A325F585245464000000000000004000
  0
ACAD_PROXY_OBJECT
  5
9562
102
{ACAD_REACTORS
330
9561
102
}
330
9561
100
AcDbZombieObject
 90
      499
 91
      510
 93
       41
310
903313A31580
  0
ACAD_PROXY_OBJECT
  5
9563
102
{ACAD_REACTORS
330
9561
102
}
330
9561
100
AcDbZombieObject
 90
      499
 91
      510
 93
      105
310
903313A324000000000000004000
  0
ACAD_PROXY_OBJECT
  5
9564
102
{ACAD_REACTORS
330
9561
102
}
330
9561
100
AcDbZombieObject
 90
      499
 91
      510
 93
      105
310
903313A344000000000000104000
  0
ACAD_PROXY_OBJECT
  5
9565
102
{ACAD_REACTORS
330
9561
102
}
330
9561
100
AcDbZombieObject
 90
      499
 91
      510
 93
      105
310
903313A354000000000000144000
  0
ACAD_PROXY_OBJECT
  5
9566
102
{ACAD_REACTORS
330
9561
102
}
330
9561
100
AcDbZombieObject
 90
      499
 91
      510
 93
      105
310
903313A384000000000000204000
  0
ACAD_PROXY_OBJECT
  5
9567
102
{ACAD_REACTORS
330
9561
102
}
330
9561
100
AcDbZombieObject
 90
      499
 91
      510
 93
      113
310
904313A31304000000000000244000
  0
ACAD_PROXY_OBJECT
  5
9568
102
{ACAD_REACTORS
330
9561
102
}
330
9561
100
AcDbZombieObject
 90
      499
 91
      510
 93
      113
310
904313A31364000000000000304000
  0
ACAD_PROXY_OBJECT
  5
9569
102
{ACAD_REACTORS
330
9561
102
}
330
9561
100
AcDbZombieObject
 90
      499
 91
      510
 93
      113
310
904313A32304000000000000344000
  0
ACAD_PROXY_OBJECT
  5
956A
102
{ACAD_REACTORS
330
9561
102
}
330
9561
100
AcDbZombieObject
 90
      499
 91
      510
 93
      113
310
904313A333040000000000003E4000
  0
ACAD_PROXY_OBJECT
  5
956B
102
{ACAD_REACTORS
330
9561
102
}
330
9561
100
AcDbZombieObject
 90
      499
 91
      510
 93
      113
310
904313A34304000000000000444000
  0
ACAD_PROXY_OBJECT
  5
956C
102
{ACAD_REACTORS
330
9561
102
}
330
9561
100
AcDbZombieObject
 90
      499
 91
      510
 93
      113
310
904313A35304000000000000494000
  0
ACAD_PROXY_OBJECT
  5
956D
102
{ACAD_REACTORS
330
9561
102
}
330
9561
100
AcDbZombieObject
 90
      499
 91
      510
 93
      121
310
905313A3130304000000000000594000
  0
ACAD_PROXY_OBJECT
  5
956E
102
{ACAD_REACTORS
330
9561
102
}
330
9561
100
AcDbZombieObject
 90
      499
 91
      510
 93
      105
310
903323A310000000000000010100
  0
ACAD_PROXY_OBJECT
  5
956F
102
{ACAD_REACTORS
330
9561
102
}
330
9561
100
AcDbZombieObject
 90
      499
 91
      510
 93
      105
310
903343A310000000000000410100
  0
ACAD_PROXY_OBJECT
  5
9570
102
{ACAD_REACTORS
330
9561
102
}
330
9561
100
AcDbZombieObject
 90
      499
 91
      510
 93
      105
310
903383A310000000000000810100
  0
ACAD_PROXY_OBJECT
  5
9571
102
{ACAD_REACTORS
330
9561
102
}
330
9561
100
AcDbZombieObject
 90
      499
 91
      510
 93
      113
310
90431303A310000000000000910100
  0
ACAD_PROXY_OBJECT
  5
9572
102
{ACAD_REACTORS
330
9561
102
}
330
9561
100
AcDbZombieObject
 90
      499
 91
      510
 93
      121
310
9053130303A310000000000001650100
  0
ACAD_PROXY_OBJECT
  5
9573
102
{ACAD_REACTORS
330
9561
102
}
330
9561
100
AcDbZombieObject
 90
      499
 91
      510
 93
      257
310
90E312F31323822203D2031272D3022000000000000200FC000000000000284000
  0
ACAD_PROXY_OBJECT
  5
9574
102
{ACAD_REACTORS
330
9561
102
}
330
9561
100
AcDbZombieObject
 90
      499
 91
      510
 93
      249
310
90D312F363422203D2031272D3022000000000000240FC000000000000284000
  0
ACAD_PROXY_OBJECT
  5
9575
102
{ACAD_REACTORS
330
9561
102
}
330
9561
100
AcDbZombieObject
 90
      499
 91
      510
 93
      249
310
90D312F333222203D2031272D3022000000000000280FC000000000000284000
  0
ACAD_PROXY_OBJECT
  5
9576
102
{ACAD_REACTORS
330
9561
102
}
330
9561
100
AcDbZombieObject
 90
      499
 91
      510
 93
      249
310
90D312F313622203D2031272D30220000000000002C0FC000000000000284000
  0
ACAD_PROXY_OBJECT
  5
9577
102
{ACAD_REACTORS
330
9561
102
}
330
9561
100
AcDbZombieObject
 90
      499
 91
      510
 93
      249
310
90D332F333222203D2031272D30220000000000002E0FC000000000000284000
  0
ACAD_PROXY_OBJECT
  5
9578
102
{ACAD_REACTORS
330
9561
102
}
330
9561
100
AcDbZombieObject
 90
      499
 91
      510
 93
      241
310
90C312F3822203D2031272D3022000000000000300FC000000000000284000
  0
ACAD_PROXY_OBJECT
  5
9579
102
{ACAD_REACTORS
330
9561
102
}
330
9561
100
AcDbZombieObject
 90
      499
 91
      510
 93
      249
310
90D332F313622203D2031272D3022000000000000320FC000000000000284000
  0
ACAD_PROXY_OBJECT
  5
957A
102
{ACAD_REACTORS
330
9561
102
}
330
9561
100
AcDbZombieObject
 90
      499
 91
      510
 93
      241
310
90C312F3422203D2031272D3022000000000000340FC000000000000284000
  0
ACAD_PROXY_OBJECT
  5
957B
102
{ACAD_REACTORS
330
9561
102
}
330
9561
100
AcDbZombieObject
 90
      499
 91
      510
 93
      241
310
90C332F3822203D2031272D3022000000000000360FC000000000000284000
  0
ACAD_PROXY_OBJECT
  5
957C
102
{ACAD_REACTORS
330
9561
102
}
330
9561
100
AcDbZombieObject
 90
      499
 91
      510
 93
      241
310
90C312F3222203D2031272D3022000000000000380FC000000000000284000
  0
ACAD_PROXY_OBJECT
  5
957D
102
{ACAD_REACTORS
330
9561
102
}
330
9561
100
AcDbZombieObject
 90
      499
 91
      510
 93
      241
310
90C332F3422203D2031272D30220000000000003A0FC000000000000284000
  0
ACAD_PROXY_OBJECT
  5
957E
102
{ACAD_REACTORS
330
9561
102
}
330
9561
100
AcDbZombieObject
 90
      499
 91
      510
 93
      161
310
90A3122203D2031272D30224000000000000284000
  0
ACAD_PROXY_OBJECT
  5
957F
102
{ACAD_REACTORS
330
9561
102
}
330
9561
100
AcDbZombieObject
 90
      499
 91
      510
 93
      257
310
90E312D312F3222203D2031272D30220000000000003E0FC000000000000284000
  0
ACAD_PROXY_OBJECT
  5
9580
102
{ACAD_REACTORS
330
9561
102
}
330
9561
100
AcDbZombieObject
 90
      499
 91
      510
 93
      225
310
90A3322203D2031272D302200000000000002100000000000000284000
  0
ACAD_PROXY_OBJECT
  5
9581
102
{ACAD_REACTORS
330
9561
102
}
330
9561
100
AcDbZombieObject
 90
      499
 91
      510
 93
      225
310
90A3622203D2031272D302200000000000006100000000000000284000
  0
ACAD_PROXY_OBJECT
  5
9582
102
{ACAD_REACTORS
330
9561
102
}
330
9561
100
AcDbZombieObject
 90
      499
 91
      510
 93
      249
310
90D31272D3022203D2031272D30220000000000000A100000000000000284000
  0
ACAD_PROXY_OBJECT
  5
9556
102
{ACAD_REACTORS
330
9550
102
}
330
9550
100
AcDbZombieObject
 90
      499
 91
      509
 93
      436
310
42CC9915DA5C99599C985B595049028333333333333E3BF0000000000000FB0107901411070040501600405405064090741402480A0340
1001
ACAD
1000
AcDbSavedByObjectVersion
1070
     0
  0
ACAD_PROXY_OBJECT
  5
9558
102
{ACAD_REACTORS
330
9550
102
}
330
9550
100
AcDbZombieObject
 90
      499
 91
      509
 93
      500
310
424CD108121A5919195B90640502408333333333333E3BF0000000000000FB01079024090700405020000000000001110200405405064090740C02480A0340
1001
ACAD
1000
AcDbSavedByObjectVersion
1070
     0
  0
ACAD_PROXY_OBJECT
  5
9557
102
{ACAD_REACTORS
330
9550
102
}
330
9550
100
AcDbZombieObject
 90
      499
 91
      509
 93
      436
310
42CCD915DA5C99599C985B595059028333333333333E3BF0000000000000FB0107901411070040501600405405064090741402480A0340
1001
ACAD
1000
AcDbSavedByObjectVersion
1070
     0
  0
ACAD_PROXY_OBJECT
  5
9555
102
{ACAD_REACTORS
330
9550
102
}
330
9550
100
AcDbZombieObject
 90
      499
 91
      509
 93
      388
310
4150985CDA58D07406404333333333333E3BF0000000000000FB0107A41107004050150841D405064090741402480A0350
1001
ACAD
1000
AcDbSavedByObjectVersion
1070
     0
  0
ACAD_PROXY_OBJECT
  5
955C
102
{ACAD_REACTORS
330
9550
102
}
330
9550
100
AcDbZombieObject
 90
      499
 91
      509
 93
      428
310
42109C9A59DA1D195B90C409028333333333333E3BF0000000000000FB010790141107004050150841D405064090741402480A029950
1001
ACAD
1000
AcDbSavedByObjectVersion
1070
     0
  0
ACAD_PROXY_OBJECT
  5
9560
102
{ACAD_REACTORS
330
9550
102
}
330
9550
100
AcDbZombieObject
 90
      499
 91
      509
 93
      452
310
42D0DBDB1BDC90DA185B99D95104090240C333333333333E3BF0000000000000FB0108901411070040501508421405064090741402480A0350
1001
ACAD
1000
AcDbSavedByObjectVersion
1070
     0
  0
ACAD_PROXY_OBJECT
  5
9559
102
{ACAD_REACTORS
330
9550
102
}
330
9550
100
AcDbZombieObject
 90
      499
 91
      509
 93
      500
310
4290DBDB98D95C1D1D585B10940D028333333333333E3BF0000000000000FB0107902409070040501000000000000111010841D405064090740C02480A0340
1001
ACAD
1000
AcDbSavedByObjectVersion
1070
     0
  0
ACAD_PROXY_OBJECT
  5
955B
102
{ACAD_REACTORS
330
9550
102
}
330
9550
100
AcDbZombieObject
 90
      499
 91
      509
 93
      412
310
40D11A5B50B409028333333333333E3BF0000000000000FB010790141107004050150841D405064090741402480A02677FFFFFD0
1001
ACAD
1000
AcDbSavedByObjectVersion
1070
     0
  0
ACAD_PROXY_OBJECT
  5
A211
102
{ACAD_REACTORS
330
9550
102
}
330
9550
100
AcDbZombieObject
 90
      499
 91
      509
 93
      452
310
43115919D950DBDB1BDC93D999916409028333333333333E3BF0000000000000FB010790141107004050150841D405064090741402480A0350
1001
ACAD
1000
AcDbSavedByObjectVersion
1070
     0
  0
ACAD_PROXY_OBJECT
  5
955F
102
{ACAD_REACTORS
330
9550
102
}
330
9550
100
AcDbZombieObject
 90
      499
 91
      509
 93
      444
310
42D19858D95C185D1D195C9B90F409028333333333333E3BF0000000000000FB010790141107004050150841D405064090741402480A0350
1001
ACAD
1000
AcDbSavedByObjectVersion
1070
     0
  0
ACAD_PROXY_OBJECT
  5
9551
102
{ACAD_REACTORS
330
9550
102
}
330
9550
100
AcDbZombieObject
 90
      499
 91
      509
 93
      388
310
41119B185D240901404333333333333E3BF0000000000000F9010740A41107004050150841D405064090741402480A1B50
1001
ACAD
1000
AcDbSavedByObjectVersion
1070
     0
  0
ACAD_PROXY_OBJECT
  5
9552
102
{ACAD_REACTORS
330
9550
102
}
330
9550
100
AcDbZombieObject
 90
      499
 91
      509
 93
      476
310
43519B185D15DA5D1A115919D95CD0140901404333333333333E3BF0000000000000F9010740901411070040501600405405064090741402480A1B50
1001
ACAD
1000
AcDbSavedByObjectVersion
1070
     0
  0
ACAD_PROXY_OBJECT
  5
9553
102
{ACAD_REACTORS
330
9550
102
}
330
9550
100
AcDbZombieObject
 90
      499
 91
      509
 93
      412
310
41D1DBDD5C985D5910240902404333333333333E3BF0000000000000F9010740A411070040501641D405064090741402480A1B50
1001
ACAD
1000
AcDbSavedByObjectVersion
1070
     0
  0
ACAD_PROXY_OBJECT
  5
9554
102
{ACAD_REACTORS
330
9550
102
}
330
9550
100
AcDbZombieObject
 90
      499
 91
      509
 93
      500
310
4411DBDD5C985D5915DA5D1A115919D95CD0340902404333333333333E3BF0000000000000F9010740901411070040501600405405064090741402480A1B50
1001
ACAD
1000
AcDbSavedByObjectVersion
1070
     0
  0
ACAD_PROXY_OBJECT
  5
A260
102
{ACAD_REACTORS
330
9550
102
}
330
9550
100
AcDbZombieObject
 90
      499
 91
      509
 93
      476
310
41921A5919195B90640502408333333333333E3BF0000000000000FB01079024090700405020000000000001110200405405064090740C02480A0340
1001
ACAD
1000
AcDbSavedByObjectVersion
1070
     0
  0
ACAD_PROXY_OBJECT
  5
A20F
102
{ACAD_REACTORS
330
9550
102
}
330
9550
100
AcDbZombieObject
 90
      499
 91
      509
 93
      428
310
42529A5D1D195C93D999914409028333333333333E3BF0000000000000FB010790141107004050150A41D405064090741402480A0350
1001
ACAD
1000
AcDbSavedByObjectVersion
1070
     0
  0
ACAD_PROXY_OBJECT
  5
955E
102
{ACAD_REACTORS
330
9550
102
}
330
9550
100
AcDbZombieObject
 90
      499
 91
      509
 93
      444
310
42D31A5B995C185D1D195C9B90E409028333333333333E3BF0000000000000FB010790141107004050750841D405064090741402483A0350
1001
ACAD
1000
AcDbSavedByObjectVersion
1070
     0
  0
ACAD_PROXY_OBJECT
  5
A266
102
{ACAD_REACTORS
330
9550
102
}
330
9550
100
AcDbZombieObject
 90
      499
 91
      509
 93
      484
310
42135BD9195B1A5B99D0A409028333333333333E3BF0000000000000F901074090290700405010000000000201990108421405064090741402480A1B40
1001
ACAD
1000
AcDbSavedByObjectVersion
1070
     0
  0
ACAD_PROXY_OBJECT
  5
A210
102
{ACAD_REACTORS
330
9550
102
}
330
9550
100
AcDbZombieObject
 90
      499
 91
      509
 93
      444
310
42D3DD995C9A185B99D3D999915409028333333333333E3BF0000000000000FB010790141107004050150941D405064090741402480A0350
1001
ACAD
1000
AcDbSavedByObjectVersion
1070
     0
  0
ACAD_PROXY_OBJECT
  5
955A
102
{ACAD_REACTORS
330
9550
102
}
330
9550
100
AcDbZombieObject
 90
      499
 91
      509
 93
      420
310
425499585B1A5CDD1A58D08409028333333333333E3BF0000000000000FB01079019070040501508421405064090741402480A1B40
1001
ACAD
1000
AcDbSavedByObjectVersion
1070
     0
  0
ACAD_PROXY_OBJECT
  5
A265
102
{ACAD_REACTORS
330
9550
102
}
330
9550
100
AcDbZombieObject
 90
      499
 91
      509
 93
      420
310
4194DA1859195911B40902404333333333333E3BF0000000000000F9010740A41107004050150800405405064090840C02480A0B40
1001
ACAD
1000
AcDbSavedByObjectVersion
1070
     0
  0
ACAD_PROXY_OBJECT
  5
A264
102
{ACAD_REACTORS
330
9550
102
}
330
9550
100
AcDbZombieObject
 90
      499
 91
      509
 93
      516
310
4454DA18591959081DDA5D1A08195919D95CD1A40902404333333333333E3BF0000000000000F901074090142907004050250800405405064090740C02480A0B40
1001
ACAD
1000
AcDbSavedByObjectVersion
1070
     0
  0
ACAD_PROXY_OBJECT
  5
A261
102
{ACAD_REACTORS
330
9550
102
}
330
9550
100
AcDbZombieObject
 90
      499
 91
      509
 93
      532
310
4394DA1859195CC81BD98811DC985E5174090240C333333333333E3BF0000000000000FB01079024090741D01000000000000111010841D405064090740C02480A0340
1001
ACAD
1000
AcDbSavedByObjectVersion
1070
     0
  0
ACAD_PROXY_OBJECT
  5
A262
102
{ACAD_REACTORS
330
9550
102
}
330
9550
100
AcDbZombieObject
 90
      499
 91
      509
 93
      476
310
41D4DAD95D18DA1E51840502408333333333333E3BF0000000000000FB01079024090741D01000000000000111010B41D405064090741802480A0340
1001
ACAD
1000
AcDbSavedByObjectVersion
1070
     0
  0
ACAD_PROXY_OBJECT
  5
955D
102
{ACAD_REACTORS
330
9550
102
}
330
9550
100
AcDbZombieObject
 90
      499
 91
      509
 93
      412
310
41D51A1A58DAD95B90D409028333333333333E3BF0000000000000FB010790141107004050150C41D405064090741402480A0350
1001
ACAD
1000
AcDbSavedByObjectVersion
1070
     0
  0
ACAD_PROXY_OBJECT
  5
A25F
102
{ACAD_REACTORS
330
9550
102
}
330
9550
100
AcDbZombieObject
 90
      499
 91
      509
 93
      420
310
4255DA5C99599C985B595059028333333333333E3BF0000000000000FB0107901411070040501600405405064090740C02480A0340
1001
ACAD
1000
AcDbSavedByObjectVersion
1070
     0
  0
ACAD_PROXY_OBJECT
  5
A263
102
{ACAD_REACTORS
330
9550
102
}
330
9550
100
AcDbZombieObject
 90
      499
 91
      509
 93
      404
310
41560B54985E51940902404000000000000E03F0000000000000FB010740501907004050150841D405064090740C02480A1B40
1001
ACAD
1000
AcDbSavedByObjectVersion
1070
     0
  0
XRECORD
  5
D169
102
{ACAD_REACTORS
330
D168
102
}
330
D168
100
AcDbXrecord
340
18D
  0
XRECORD
  5
D16A
102
{ACAD_REACTORS
330
D168
102
}
330
D168
100
AcDbXrecord
340
18C
  0
DICTIONARYVAR
  5
AF43
102
{ACAD_REACTORS
330
37
102
}
330
37
100
DictionaryVariables
280
     0
  1
1:1
  0
DICTIONARYVAR
  5
9627
102
{ACAD_REACTORS
330
37
102
}
330
37
100
DictionaryVariables
280
     0
  1
LeaderMulti
  0
DICTIONARYVAR
  5
29E
102
{ACAD_REACTORS
330
37
102
}
330
37
100
DictionaryVariables
280
     0
  1
Standard
  0
DICTIONARYVAR
  5
38
102
{ACAD_REACTORS
330
37
102
}
330
37
100
DictionaryVariables
280
     0
  1
-1
  0
DICTIONARYVAR
  5
1CE
102
{ACAD_REACTORS
330
37
102
}
330
37
100
DictionaryVariables
280
     0
  1
2
  0
DICTIONARYVAR
  5
704E
102
{ACAD_REACTORS
330
37
102
}
330
37
100
DictionaryVariables
280
     0
  1
1
  0
DICTIONARYVAR
  5
962A
102
{ACAD_REACTORS
330
37
102
}
330
37
100
DictionaryVariables
280
     0
  1
0
  0
DICTIONARYVAR
  5
7052
102
{ACAD_REACTORS
330
37
102
}
330
37
100
DictionaryVariables
280
     0
  1
8
  0
DICTIONARYVAR
  5
7051
102
{ACAD_REACTORS
330
37
102
}
330
37
100
DictionaryVariables
280
     0
  1
1
  0
DICTIONARYVAR
  5
AB30
102
{ACAD_REACTORS
330
37
102
}
330
37
100
DictionaryVariables
280
     0
  1
0
  0
DICTIONARYVAR
  5
704F
102
{ACAD_REACTORS
330
37
102
}
330
37
100
DictionaryVariables
280
     0
  1
8
  0
DICTIONARYVAR
  5
7050
102
{ACAD_REACTORS
330
37
102
}
330
37
100
DictionaryVariables
280
     0
  1
2
  0
DICTIONARYVAR
  5
1CF
102
{ACAD_REACTORS
330
37
102
}
330
37
100
DictionaryVariables
280
     0
  1

  0
DICTIONARYVAR
  5
9629
102
{ACAD_REACTORS
330
37
102
}
330
37
100
DictionaryVariables
280
     0
  1
127
  0
DICTIONARYVAR
  5
B84C
102
{ACAD_REACTORS
330
37
102
}
330
37
100
DictionaryVariables
280
     0
  1
2
  0
ACAD_PROXY_OBJECT
  5
C26F
102
{ACAD_REACTORS
330
96DA
102
}
330
96DA
100
AcDbZombieObject
 90
      499
 91
      519
 93
    49362
310
0586000016C005C080000B404000098880400B8041000996969616128043800000000000001680020000000F8001C01C80478012C04500000000000000004001C00990DBDB1BDC97CDEE0040000000128040000000000000001680020000000F8037401C80448012C04500000000000000004002400990DBDB1BDC97CC8C8C
310
6E0040000000128040000000000000001680020000000F8002001C80448012C04500000000000000004001C00990DBDB1BDC97CE2E0040000000128040000000000000001680020000000F8002001C80448012C04000000000000000004001C00990DBDB1BDC97CE2E0040000000128040000000000000001680020000000F
310
8032401C80464012C04500000000000000004002400990DBDB1BDC97CC8C0C6E0040000000128040000000000000001680020000000F8037401C80448012C04500000000000000004002400990DBDB1BDC97CC8C8C6E0040000000128040000000000000001680024000000F8000401C807F7FD2C045000000000000000040
310
01C00990DBDB1BDC97CC6E0040000000128040000000000000001680020000000F803F401C80434012C04500000000000000004002400990DBDB1BDC97CC8D4CEE0040000000128040000000000000001680000000000F8001C01C807F7FD2C04500000000000000004001C00990DBDB1BDC97CDEE00400000001280400000
310
00000000001680020000000F8002001C80448012C04500000000000000004001C00990DBDB1BDC97CE2E0040000000128040000000000000001680020000000F803F801C80434012C04000000000000000004002400990DBDB1BDC97CC8D4D2E0040000000128040000000000000001680020000000F8037401C80448012C0
310
4500000000000000004002400990DBDB1BDC97CC8C8C6E0040000000128040000000000000001680020000000F8000801C80478012C04500000000000000004001C00990DBDB1BDC97CCAE0040000000128040000000000000001680020000000F8035401C80478012C04500000000000000004002400990DBDB1BDC97CC8C
310
4CEE0040000000128040000000000000001680020000000F8038401C807F7FD2C04500000000000000004002400990DBDB1BDC97CC8C8D6E0040000000128040000000000000001680020000000F8001C01C807F7FD2C04500000000000000004001C00990DBDB1BDC97CDEE00400000001280400000000000000016800200
310
00000F8007801C807F7FD2C04500000000000000004002000990DBDB1BDC97CCCC2E0040000000128040000000000000001680020000000F803F001C804F0012C04500000000000000004002400990DBDB1BDC97CC8D4CAE0040000000128040000000000000001680024000000F8002001C807F7FD2C04500000000000000
310
004001C00990DBDB1BDC97CE2E0040000000128040000000000000001680020000000F8001801C80478012C04500000000000000004001C00990DBDB1BDC97CDAE0040000000128040000000000000001680020000000F8037801C807F7FD2C04500000000000000004002400990DBDB1BDC97CC8C8CAE0040000000128040
310
000000000000001680020000000F8000401C807F7FD2C04500000000000000004001C00990DBDB1BDC97CC6E0040000000128040000000000000001680020000000F8017C01C80478012C04500000000000000004002000990DBDB1BDC97CE4D6E0040000000128040000000000000001680000000000F803CC01C807F7FD2
310
C04500000000000000004002400990DBDB1BDC97CC8D0CEE0040000000128040000000000000001680020000000F8001001C80478012C04500000000000000004001C00990DBDB1BDC97CD2E0040000000128040000000000000001680020000000F8017401C80434012C04500000000000000004002000990DBDB1BDC97CE
310
4CEE0040000000128040000000000000001680020000000F8039C01C80434012C04500000000000000004002400990DBDB1BDC97CC8CCC6E0040000000128040000000000000001680020000000F8007C01C80434012C04500000000000000004002000990DBDB1BDC97CCCC6E004000000012804000000000000000168002
310
0000000F8001C01C80450012C04500000000000000004001C00990DBDB1BDC97CDEE0040000000128040000000000000001680020000000F8001401C80434012C04000000000000000004001C00990DBDB1BDC97CD6E0040000000128040000000000000001680020000000F8000401C80434012C040000000000000000040
310
01C00990DBDB1BDC97CC6E0040000000128040000000000000001680020000000F8002001C8043C012C04000000000000000004001C00990DBDB1BDC97CE2E0040000000128040000000000000001680020000000F8000401C80478012C04500000000000000004001C00990DBDB1BDC97CC6E004000000012804000000000
310
0000001680020000000F8000C01C80478012C04500000000000000004001C00990DBDB1BDC97CCEE0040000000128040000000000000001680020000000F8023401C80434012C04500000000000000004002400990DBDB1BDC97CC4D0C6E0040000000128040000000000000001680020000000F8014401C80434012C04500
310
000000000000004002000990DBDB1BDC97CE0C6E0040000000128040000000000000001680020000000F8003401C80434012C04500000000000000004002000990DBDB1BDC97CC4CEE0040000000128040000000000000001680020000000F800DC01C80434012C04500000000000000004002000990DBDB1BDC97CD4D6E00
310
40000000128040000000000000001680020000000F800D401C80434012C04500000000000000004002000990DBDB1BDC97CD4CEE0040000000128040000000000000001680020000000F8021801C80434012C04500000000000000004002400990DBDB1BDC97CC4CCD2E004000000012804000000000000000168002000000
310
0F800FC01C80434012C04500000000000000004002000990DBDB1BDC97CD8CEE0040000000128040000000000000001680020000000F803AC01C80434012C04500000000000000004002400990DBDB1BDC97CC8CCD6E0040000000128040000000000000001680020000000F8023401C80434012C045000000000000000040
310
02400990DBDB1BDC97CC4D0C6E0040000000128040000000000000001680020000000F8001401C80478012C04500000000000000004001C00990DBDB1BDC97CD6E0040000000128040000000000000001680020000000F8023C01C80478012C04500000000000000004002400990DBDB1BDC97CC4D0CEE0040000000128040
310
000000000000001680020000000F8003C01C80478012C04500000000000000004002000990DBDB1BDC97CC4D6E0040000000128040000000000000001680020000000F8001C01C80478012C04500000000000000004001C00990DBDB1BDC97CDEE0040000000128040000000000000001680020000000F803F801C80448012
310
C04500000000000000004002400990DBDB1BDC97CC8D4D2E0040000000128040000000000000001680020000000F8002001C80448012C04500000000000000004001C00990DBDB1BDC97CE2E0040000000128040000000000000001680020000000F8001C01C807F7FD2C04000000000000000004001C00990DBDB1BDC97CD
310
EE0040000000128040000000000000001680020000000F8001C01C807F7FD2C04000000000000000004001C00990DBDB1BDC97CDEE0040000000128040000000000000001680020000000F8001C01C807F7FD2C04000000000000000004001C00990DBDB1BDC97CDEE0040000000128040000000000000001680020000000F
310
8001C01C807F7FD2C04000000000000000004001C00990DBDB1BDC97CDEE0040000000128040000000000000001680020000000F8001C01C807F7FD2C04000000000000000004001C00990DBDB1BDC97CDEE0040000000128040000000000000001680020000000F8001C01C807F7FD2C04000000000000000004001C00990
310
DBDB1BDC97CDEE0040000000128040000000000000001680020000000F8002401C80450012C04500000000000000004001C00990DBDB1BDC97CE6E0040000000128040000000000000001680020000000F8001001C80400012C04000000000000000004001C00990DBDB1BDC97CD2E00400000001280400000000000000016
310
80020000000F8001001C80400012C04500000000000000004001C00990DBDB1BDC97CD2E0040000000128040000000000000001680020000000F8001001C80400012C04500000000000000004001C00990DBDB1BDC97CD2E0040000000128040000000000000001680020000000F8000401C80400012C04500000000000000
310
004001C00990DBDB1BDC97CC6E0040000000128040000000000000001680020000000F8001C01C80434012C04500000000000000004001C00990DBDB1BDC97CDEE0040000000128040000000000000001680020000000F8011801C80400012C04500000000000000004002000990DBDB1BDC97CDCC2E004000000012804000
310
0000000000001680020000000F8001001C80400012C04500000000000000004001C00990DBDB1BDC97CD2E0040000000128040000000000000001680020000000F8001C01C80448012C04500000000000000004001C00990DBDB1BDC97CDEE0040000000128040000000000000001680020000000F803F401C80434012C045
310
00000000000000004002400990DBDB1BDC97CC8D4CEE0040000000128040000000000000001680020000000F8000401C80478012C04500000000000000004001C00990DBDB1BDC97CC6E0040000000128040000000000000001680020000000F803F001C807F7FD2C04500000000000000004002400990DBDB1BDC97CC8D4C
310
AE0040000000128040000000000000001680020000000F800DC01C80434012C04500000000000000004002000990DBDB1BDC97CD4D6E0040000000128040000000000000001680020000000F8002801C807F7FD2C04500000000000000004002000990DBDB1BDC97CC4C2E0040000000128040000000000000001680020000
310
000F8002C01C807F7FD2C04500000000000000004002000990DBDB1BDC97CC4C6E0040000000128040000000000000001680020000000F8005401C807F7FD2C04500000000000000004002000990DBDB1BDC97CC8C6E0040000000128040000000000000001680020000000F8003001C807F7FD2C045000000000000000040
310
02000990DBDB1BDC97CC4CAE0040000000128040000000000000001680020000000F8005801C807F7FD2C04500000000000000004002000990DBDB1BDC97CC8CAE0040000000128040000000000000001680020000000F8008001C807F7FD2C04500000000000000004002000990DBDB1BDC97CCCCAE004000000012804000
310
0000000000001680020000000F8003C01C807F7FD2C04500000000000000004002000990DBDB1BDC97CC4D6E0040000000128040000000000000001680020000000F803C401C807F7FD2C04500000000000000004002400990DBDB1BDC97CC8D0C6E0040000000128040000000000000001680020000000F8000801C807F7F
310
D2C04500000000000000004001C00990DBDB1BDC97CCAE0040000000128040000000000000001680020000000F800D401C807F7FD2C04500000000000000004002000990DBDB1BDC97CD4CEE0040000000128040000000000000001680020000000F800DC01C807F7FD2C04500000000000000004002000990DBDB1BDC97CD
310
4D6E0040000000128040000000000000001680020000000F800D001C807F7FD2C04500000000000000004002000990DBDB1BDC97CD4CAE0040000000128040000000000000001680020000000F800A001C807F7FD2C04500000000000000004002000990DBDB1BDC97CD0C2E00400000001280400000000000000016800200
310
00000F800A401C807F7FD2C04500000000000000004002000990DBDB1BDC97CD0C6E0040000000128040000000000000001680020000000F800AC01C807F7FD2C04500000000000000004002000990DBDB1BDC97CD0CEE0040000000128040000000000000001680020000000F800A801C807F7FD2C0450000000000000000
310
4002000990DBDB1BDC97CD0CAE0040000000128040000000000000001680020000000F800B001C807F7FD2C04500000000000000004002000990DBDB1BDC97CD0D2E0040000000128040000000000000001680020000000F800B801C807F7FD2C04500000000000000004002000990DBDB1BDC97CD0DAE0040000000128040
310
000000000000001680020000000F800B401C807F7FD2C04500000000000000004002000990DBDB1BDC97CD0D6E0040000000128040000000000000001680020000000F800BC01C807F7FD2C04500000000000000004002000990DBDB1BDC97CD0DEE0040000000128040000000000000001680020000000F800E001C807F7F
310
D2C04500000000000000004002000990DBDB1BDC97CD4DAE0040000000128040000000000000001680020000000F8000C01C807F7FD2C04500000000000000004001C00990DBDB1BDC97CCEE0040000000128040000000000000001680020000000F800F001C807F7FD2C04500000000000000004002000990DBDB1BDC97CD
310
8C2E0040000000128040000000000000001680020000000F8014001C807F7FD2C04500000000000000004002000990DBDB1BDC97CE0C2E0040000000128040000000000000001680020000000F8019001C807F7FD2C04500000000000000004002400990DBDB1BDC97CC4C0C2E004000000012804000000000000000168002
310
0000000F800F401C807F7FD2C04500000000000000004002000990DBDB1BDC97CD8C6E0040000000128040000000000000001680020000000F8014401C807F7FD2C04500000000000000004002000990DBDB1BDC97CE0C6E0040000000128040000000000000001680020000000F8019401C807F7FD2C04500000000000000
310
004002400990DBDB1BDC97CC4C0C6E0040000000128040000000000000001680020000000F800FC01C807F7FD2C04500000000000000004002000990DBDB1BDC97CD8CEE0040000000128040000000000000001680020000000F8017401C807F7FD2C04500000000000000004002000990DBDB1BDC97CE4CEE004000000012
310
8040000000000000001680020000000F8012C01C807F7FD2C04500000000000000004002000990DBDB1BDC97CDCD6E0040000000128040000000000000001680020000000F801A401C807F7FD2C04500000000000000004002400990DBDB1BDC97CC4C0D6E0040000000128040000000000000001680020000000F8012801C
310
807F7FD2C04500000000000000004002000990DBDB1BDC97CDCD2E0040000000128040000000000000001680020000000F801A801C807F7FD2C04500000000000000004002400990DBDB1BDC97CC4C0DAE0040000000128040000000000000001680020000000F8001001C807F7FD2C04500000000000000004001C00990DB
310
DB1BDC97CD2E0040000000128040000000000000001680020000000F8021001C807F7FD2C04500000000000000004002400990DBDB1BDC97CC4CCCAE0040000000128040000000000000001680020000000F8022001C807F7FD2C04500000000000000004002400990DBDB1BDC97CC4CCDAE00400000001280400000000000
310
00001680020000000F8023001C807F7FD2C04500000000000000004002400990DBDB1BDC97CC4D0C2E0040000000128040000000000000001680020000000F8023801C807F7FD2C04500000000000000004002400990DBDB1BDC97CC4D0CAE0040000000128040000000000000001680020000000F8024001C807F7FD2C045
310
00000000000000004002400990DBDB1BDC97CC4D0D2E0040000000128040000000000000001680020000000F801EC01C807F7FD2C04500000000000000004002400990DBDB1BDC97CC4C8CEE0040000000128040000000000000001680020000000F8021C01C807F7FD2C04500000000000000004002400990DBDB1BDC97CC
310
4CCD6E0040000000128040000000000000001680020000000F8025C01C807F7FD2C04500000000000000004002400990DBDB1BDC97CC4D4C6E0040000000128040000000000000001680020000000F8028401C807F7FD2C04500000000000000004002400990DBDB1BDC97CC4D8C6E00400000001280400000000000000016
310
80020000000F8026001C807F7FD2C04500000000000000004002400990DBDB1BDC97CC4D4CAE0040000000128040000000000000001680020000000F8001401C807F7FD2C04500000000000000004001C00990DBDB1BDC97CD6E0040000000128040000000000000001680020000000F803F001C807F7FD2C0450000000000
310
0000004002400990DBDB1BDC97CC8D4CAE0040000000128040000000000000001680020000000F8001C01C807F7FD2C04500000000000000004001C00990DBDB1BDC97CDEE004000000000
  0
DICTIONARY
  5
D306
330
9540
100
AcDbDictionary
  3
ACAD_XREC_ROUNDTRIP
360
D307
1001
ACAD
1000
TREAT_AS_HARD
1070
     1
  0
DICTIONARY
  5
D308
330
9538
100
AcDbDictionary
  3
ACAD_XREC_ROUNDTRIP
360
D309
1001
ACAD
1000
TREAT_AS_HARD
1070
     1
  0
DICTIONARY
  5
D30A
330
9548
100
AcDbDictionary
  3
ACAD_XREC_ROUNDTRIP
360
D30B
1001
ACAD
1000
TREAT_AS_HARD
1070
     1
  0
XRECORD
  5
D307
102
{ACAD_REACTORS
330
D306
102
}
330
D306
100
AcDbXrecord
102
MATERIAL
148
0.0
149
0.0
149
0.0
 93
        0
 94
      127
282
     0
 72
     0
 77
     0
171
     0
175
     0
179
     0
273
     0
  0
XRECORD
  5
D309
102
{ACAD_REACTORS
330
D308
102
}
330
D308
100
AcDbXrecord
102
MATERIAL
148
0.0
149
0.0
149
0.0
 93
        0
 94
      127
282
     0
 72
     0
 77
     0
171
     0
175
     0
179
     0
273
     0
  0
XRECORD
  5
D30B
102
{ACAD_REACTORS
330
D30A
102
}
330
D30A
100
AcDbXrecord
102
MATERIAL
148
0.0
149
0.0
149
0.0
 93
        0
 94
      127
282
     0
 72
     0
 77
     0
171
     0
175
     0
179
     0
273
     0
  0
ENDSEC
  0
EOF
