  0
SECTION
  2
HEADER
  9
$ACADVER
  1
AC1012
  9
$DWGCODEPAGE
  3
ansi_932
  9
$INSBASE
 10
0.0
 20
0.0
 30
0.0
  9
$EXTMIN
 10
1.000000000000000E+20
 20
1.000000000000000E+20
 30
1.000000000000000E+20
  9
$EXTMAX
 10
-1.000000000000000E+20
 20
-1.000000000000000E+20
 30
-1.000000000000000E+20
  9
$LIMMIN
 10
0.0
 20
0.0
  9
$LIMMAX
 10
420.0
 20
297.0
  9
$ORTHOMODE
 70
     0
  9
$REGENMODE
 70
     1
  9
$FILLMODE
 70
     1
  9
$QTEXTMODE
 70
     0
  9
$MIRRTEXT
 70
     0
  9
$DRAGMODE
 70
     2
  9
$LTSCALE
 40
0.5
  9
$OSMODE
 70
 14591
  9
$ATTMODE
 70
     1
  9
$TEXTSIZE
 40
4.0
  9
$TRACEWID
 40
1.0
  9
$TEXTSTYLE
  7
STANDARD
  9
$CLAYER
  8
1TEXT
  9
$CELTYPE
  6
BYLAYER
  9
$CECOLOR
 62
   256
  9
$CELTSCALE
 40
1.0
  9
$DELOBJ
 70
     1
  9
$DISPSILH
 70
     0
  9
$DIMSCALE
 40
4.0
  9
$DIMASZ
 40
2.0
  9
$DIMEXO
 40
0.0
  9
$DIMDLI
 40
7.0
  9
$DIMRND
 40
0.0
  9
$DIMDLE
 40
0.0
  9
$DIMEXE
 40
1.0
  9
$DIMTP
 40
0.0
  9
$DIMTM
 40
0.0
  9
$DIMTXT
 40
3.5
  9
$DIMCEN
 40
0.0
  9
$DIMTSZ
 40
0.0
  9
$DIMTOL
 70
     0
  9
$DIMLIM
 70
     0
  9
$DIMTIH
 70
     0
  9
$DIMTOH
 70
     0
  9
$DIMSE1
 70
     0
  9
$DIMSE2
 70
     0
  9
$DIMTAD
 70
     1
  9
$DIMZIN
 70
     8
  9
$DIMBLK
  1

  9
$DIMASO
 70
     1
  9
$DIMSHO
 70
     1
  9
$DIMPOST
  1
 
  9
$DIMAPOST
  1

  9
$DIMALT
 70
     0
  9
$DIMALTD
 70
     2
  9
$DIMALTF
 40
25.4
  9
$DIMLFAC
 40
1.0
  9
$DIMTOFL
 70
     1
  9
$DIMTVP
 40
0.0
  9
$DIMTIX
 70
     0
  9
$DIMSOXD
 70
     0
  9
$DIMSAH
 70
     1
  9
$DIMBLK1
  1
OPEN30
  9
$DIMBLK2
  1
OPEN30
  9
$DIMSTYLE
  2
NEWX10
  9
$DIMCLRD
 70
   256
  9
$DIMCLRE
 70
   256
  9
$DIMCLRT
 70
   201
  9
$DIMTFAC
 40
0.7
  9
$DIMGAP
 40
0.7
  9
$DIMJUST
 70
     0
  9
$DIMSD1
 70
     0
  9
$DIMSD2
 70
     0
  9
$DIMTOLJ
 70
     1
  9
$DIMTZIN
 70
     8
  9
$DIMALTZ
 70
     0
  9
$DIMALTTZ
 70
     0
  9
$DIMFIT
 70
     2
  9
$DIMUPT
 70
     0
  9
$DIMUNIT
 70
     2
  9
$DIMDEC
 70
     2
  9
$DIMTDEC
 70
     4
  9
$DIMALTU
 70
     2
  9
$DIMALTTD
 70
     2
  9
$DIMTXSTY
  7
STANDARD
  9
$DIMAUNIT
 70
     0
  9
$LUNITS
 70
     2
  9
$LUPREC
 70
     4
  9
$SKETCHINC
 40
1.0
  9
$FILLETRAD
 40
0.0
  9
$AUNITS
 70
     0
  9
$AUPREC
 70
     2
  9
$MENU
  1
acad
  9
$ELEVATION
 40
0.0
  9
$PELEVATION
 40
0.0
  9
$THICKNESS
 40
0.0
  9
$LIMCHECK
 70
     0
  9
$CHAMFERA
 40
1.0
  9
$CHAMFERB
 40
1.0
  9
$CHAMFERC
 40
20.0
  9
$CHAMFERD
 40
0.0
  9
$SKPOLY
 70
     0
  9
$TDCREATE
 40
2453033.732663484
  9
$TDUPDATE
 40
2458040.72513934
  9
$TDINDWG
 40
2.9430040741
  9
$TDUSRTIMER
 40
2.9430040741
  9
$USRTIMER
 70
     1
  9
$ANGBASE
 50
0.0
  9
$ANGDIR
 70
     0
  9
$PDMODE
 70
     0
  9
$PDSIZE
 40
0.0
  9
$PLINEWID
 40
0.0
  9
$COORDS
 70
     2
  9
$SPLFRAME
 70
     0
  9
$SPLINETYPE
 70
     6
  9
$SPLINESEGS
 70
     8
  9
$ATTDIA
 70
     0
  9
$ATTREQ
 70
     1
  9
$HANDLING
 70
     1
  9
$HANDSEED
  5
35039
  9
$SURFTAB1
 70
     6
  9
$SURFTAB2
 70
     6
  9
$SURFTYPE
 70
     6
  9
$SURFU
 70
     6
  9
$SURFV
 70
     6
  9
$UCSNAME
  2

  9
$UCSORG
 10
0.0
 20
0.0
 30
0.0
  9
$UCSXDIR
 10
1.0
 20
0.0
 30
0.0
  9
$UCSYDIR
 10
0.0
 20
1.0
 30
0.0
  9
$PUCSNAME
  2

  9
$PUCSORG
 10
0.0
 20
0.0
 30
0.0
  9
$PUCSXDIR
 10
1.0
 20
0.0
 30
0.0
  9
$PUCSYDIR
 10
0.0
 20
1.0
 30
0.0
  9
$USERI1
 70
     0
  9
$USERI2
 70
     0
  9
$USERI3
 70
     0
  9
$USERI4
 70
     0
  9
$USERI5
 70
     0
  9
$USERR1
 40
0.0
  9
$USERR2
 40
0.0
  9
$USERR3
 40
0.0
  9
$USERR4
 40
0.0
  9
$USERR5
 40
0.0
  9
$WORLDVIEW
 70
     1
  9
$SHADEDGE
 70
     3
  9
$SHADEDIF
 70
    70
  9
$TILEMODE
 70
     1
  9
$MAXACTVP
 70
    48
  9
$PINSBASE
 10
0.0
 20
0.0
 30
0.0
  9
$PLIMCHECK
 70
     0
  9
$PEXTMIN
 10
1.000000000000000E+20
 20
1.000000000000000E+20
 30
1.000000000000000E+20
  9
$PEXTMAX
 10
-1.000000000000000E+20
 20
-1.000000000000000E+20
 30
-1.000000000000000E+20
  9
$PLIMMIN
 10
0.0
 20
0.0
  9
$PLIMMAX
 10
420.0
 20
297.0
  9
$UNITMODE
 70
     0
  9
$VISRETAIN
 70
     1
  9
$PLINEGEN
 70
     0
  9
$PSLTSCALE
 70
     1
  9
$TREEDEPTH
 70
  3020
  9
$PICKSTYLE
 70
     1
  9
$CMLSTYLE
  2
STANDARD
  9
$CMLJUST
 70
     0
  9
$CMLSCALE
 40
20.0
  9
$SAVEIMAGES
 70
     1
  0
ENDSEC
  0
SECTION
  2
CLASSES
  0
CLASS
  1
DICTIONARYVAR
  2
AcDbDictionaryVar
  3
ObjectDBX Classes
 90
        0
280
     0
281
     0
  0
CLASS
  1
IDBUFFER
  2
AcDbIdBuffer
  3
ObjectDBX Classes
 90
    32768
280
     0
281
     0
  0
CLASS
  1
LWPOLYLINE
  2
AcDbPolyline
  3
ObjectDBX Classes
 90
    32768
280
     0
281
     1
  0
CLASS
  1
ACDBDICTIONARYWDFLT
  2
AcDbDictionaryWithDefault
  3
ObjectDBX Classes
 90
    32768
280
     0
281
     0
  0
CLASS
  1
ACDBPLACEHOLDER
  2
AcDbPlaceHolder
  3
ObjectDBX Classes
 90
        0
280
     0
281
     0
  0
CLASS
  1
LAYOUT
  2
AcDbLayout
  3
ObjectDBX Classes
 90
        0
280
     0
281
     0
  0
CLASS
  1
TABLESTYLE
  2
AcDbTableStyle
  3
ObjectDBX Classes
 90
     4095
280
     0
281
     0
  0
CLASS
  1
SORTENTSTABLE
  2
AcDbSortentsTable
  3
ObjectDBX Classes
 90
    32768
280
     0
281
     0
  0
CLASS
  1
DIMASSOC
  2
AcDbDimAssoc
  3
"AcDbDimAssoc|Product Desc:     AcDim ARX App For Dimension|Company:          Autodesk, Inc.|WEB Address:      www.autodesk.com"
 90
        0
280
     0
281
     0
  0
CLASS
  1
MATERIAL
  2
AcDbMaterial
  3
ObjectDBX Classes
 90
     1153
280
     0
281
     0
  0
CLASS
  1
VISUALSTYLE
  2
AcDbVisualStyle
  3
ObjectDBX Classes
 90
     4095
280
     0
281
     0
  0
CLASS
  1
SCALE
  2
AcDbScale
  3
ObjectDBX Classes
 90
     1153
280
     0
281
     0
  0
CLASS
  1
MLEADERSTYLE
  2
AcDbMLeaderStyle
  3
ACDB_MLEADERSTYLE_CLASS
 90
     4095
280
     0
281
     0
  0
CLASS
  1
CELLSTYLEMAP
  2
AcDbCellStyleMap
  3
ObjectDBX Classes
 90
     1152
280
     0
281
     0
  0
CLASS
  1
EXACXREFPANELOBJECT
  2
ExAcXREFPanelObject
  3
EXAC_ESW
 90
     1025
280
     1
281
     0
  0
CLASS
  1
NPOCOLLECTION
  2
AcDbImpNonPersistentObjectsCollection
  3
ObjectDBX Classes
 90
     1153
280
     1
281
     0
  0
CLASS
  1
AEC_REFEDIT_STATUS_TRACKER
  2
AecDbRefEditStatusTracker
  3
AecArchBase60|Product Desc: Autodesk Architectural Desktop 2007 |Company: Autodesk,Inc. |WEB Address: www.autodesk.com
 90
      129
280
     1
281
     0
  0
CLASS
  1
SUN
  2
AcDbSun
  3
SCENEOE
 90
     1153
280
     0
281
     0
  0
CLASS
  1
XRECORD
  2
AcDbXrecord
  3
ObjectDBX Classes
 90
    32768
280
     0
281
     0
  0
CLASS
  1
HATCH
  2
AcDbHatch
  3
ObjectDBX Classes
 90
    32768
280
     0
281
     1
  0
ENDSEC
  0
SECTION
  2
TABLES
  0
TABLE
  2
VPORT
  5
8
330
0
100
AcDbSymbolTable
 70
     1
  0
VPORT
  5
15B17
330
8
100
AcDbSymbolTableRecord
100
AcDbViewportTableRecord
  2
*ACTIVE
 70
     0
 10
0.0
 20
0.0
 11
1.0
 21
1.0
 12
2062.833472398702
 22
-2046.562774238614
 13
0.0
 23
0.0
 14
10.0
 24
10.0
 15
10.0
 25
10.0
 16
0.0
 26
0.0
 36
1.0
 17
0.0
 27
0.0
 37
0.0
 40
1077.825975605461
 41
2.020775623268698
 42
50.0
 43
0.0
 44
0.0
 50
0.0
 51
0.0
 71
    16
 72
   100
 73
     1
 74
     1
 75
     0
 76
     0
 77
     0
 78
     0
  0
ENDTAB
  0
TABLE
  2
LTYPE
  5
5
330
0
100
AcDbSymbolTable
 70
     4
  0
LTYPE
  5
12
330
5
100
AcDbSymbolTableRecord
100
AcDbLinetypeTableRecord
  2
BYBLOCK
 70
     0
  3

 72
    65
 73
     0
 40
0.0
  0
LTYPE
  5
13
330
5
100
AcDbSymbolTableRecord
100
AcDbLinetypeTableRecord
  2
BYLAYER
 70
     0
  3

 72
    65
 73
     0
 40
0.0
  0
LTYPE
  5
14
330
5
100
AcDbSymbolTableRecord
100
AcDbLinetypeTableRecord
  2
CONTINUOUS
 70
     0
  3
Solid line
 72
    65
 73
     0
 40
0.0
  0
LTYPE
  5
26
330
5
100
AcDbSymbolTableRecord
100
AcDbLinetypeTableRecord
  2
CENTER2
 70
     0
  3
Center (.5x) ___ _ ___ _ ___ _ ___ _ ___ _ ___
 72
    65
 73
     4
 40
28.575
 49
19.05
 74
     0
 49
-3.175
 74
     0
 49
3.175
 74
     0
 49
-3.175
 74
     0
  0
LTYPE
  5
FF
330
5
100
AcDbSymbolTableRecord
100
AcDbLinetypeTableRecord
  2
HIDDEN
 70
     0
  3
Hidden __ __ __ __ __ __ __ __ __ __ __ __ __ _
 72
    65
 73
     2
 40
9.524999999999999
 49
6.35
 74
     0
 49
-3.175
 74
     0
  0
LTYPE
  5
100
330
5
100
AcDbSymbolTableRecord
100
AcDbLinetypeTableRecord
  2
PHANTOM2
 70
     0
  3
Phantom (0.5x) ___ _ _ ___ _ _ ___ _ _ ___ _ _
 72
    65
 73
     6
 40
31.75
 49
15.875
 74
     0
 49
-3.175
 74
     0
 49
3.175
 74
     0
 49
-3.175
 74
     0
 49
3.175
 74
     0
 49
-3.175
 74
     0
  0
ENDTAB
  0
TABLE
  2
LAYER
  5
2
102
{ACAD_XDICTIONARY
360
14EC2
102
}
330
0
100
AcDbSymbolTable
 70
     7
  0
LAYER
  5
E
102
{ACAD_XDICTIONARY
360
15BB5
102
}
330
2
100
AcDbSymbolTableRecord
100
AcDbLayerTableRecord
  2
0
 70
     0
 62
     7
  6
CONTINUOUS
  0
LAYER
  5
29
102
{ACAD_XDICTIONARY
360
15BB7
102
}
330
2
100
AcDbSymbolTableRecord
100
AcDbLayerTableRecord
  2
1CENTER
 70
     0
 62
     7
  6
CENTER2
  0
LAYER
  5
31
102
{ACAD_XDICTIONARY
360
15BB9
102
}
330
2
100
AcDbSymbolTableRecord
100
AcDbLayerTableRecord
  2
1TEXT
 70
     0
 62
     7
  6
CONTINUOUS
  0
LAYER
  5
101
102
{ACAD_XDICTIONARY
360
15BC3
102
}
330
2
100
AcDbSymbolTableRecord
100
AcDbLayerTableRecord
  2
1DIM
 70
     0
 62
     7
  6
CONTINUOUS
  0
LAYER
  5
102
102
{ACAD_XDICTIONARY
360
15BC5
102
}
330
2
100
AcDbSymbolTableRecord
100
AcDbLayerTableRecord
  2
1HIDDEN
 70
     0
 62
     7
  6
HIDDEN
  0
LAYER
  5
103
102
{ACAD_XDICTIONARY
360
15BC7
102
}
330
2
100
AcDbSymbolTableRecord
100
AcDbLayerTableRecord
  2
1PHANTOM
 70
     0
 62
     7
  6
PHANTOM2
  0
LAYER
  5
25F
102
{ACAD_XDICTIONARY
360
15BCB
102
}
330
2
100
AcDbSymbolTableRecord
100
AcDbLayerTableRecord
  2
01
 70
     0
 62
     1
  6
CONTINUOUS
  0
ENDTAB
  0
TABLE
  2
STYLE
  5
3
330
0
100
AcDbSymbolTable
 70
     1
  0
STYLE
  5
F
330
3
100
AcDbSymbolTableRecord
100
AcDbTextStyleTableRecord
  2
STANDARD
 70
     0
 40
0.0
 41
1.0
 50
0.0
 71
     0
 42
4.0
  3
txt.shx
  4
extfont.shx
  0
ENDTAB
  0
TABLE
  2
VIEW
  5
6
330
0
100
AcDbSymbolTable
 70
     0
  0
ENDTAB
  0
TABLE
  2
UCS
  5
7
330
0
100
AcDbSymbolTable
 70
     0
  0
ENDTAB
  0
TABLE
  2
APPID
  5
9
330
0
100
AcDbSymbolTable
 70
    15
  0
APPID
  5
10
330
9
100
AcDbSymbolTableRecord
100
AcDbRegAppTableRecord
  2
ACAD
 70
     0
  0
APPID
  5
21
330
9
100
AcDbSymbolTableRecord
100
AcDbRegAppTableRecord
  2
DRAWINGVARIABLESXDATA
 70
     0
  0
APPID
  5
64
330
9
100
AcDbSymbolTableRecord
100
AcDbRegAppTableRecord
  2
CONTENTTABDATA
 70
     0
  0
APPID
  5
65
330
9
100
AcDbSymbolTableRecord
100
AcDbRegAppTableRecord
  2
CONTENTCURRENTTAB
 70
     0
  0
APPID
  5
66
330
9
100
AcDbSymbolTableRecord
100
AcDbRegAppTableRecord
  2
CONTENTBLOCKDESCRIPTION
 70
     0
  0
APPID
  5
67
330
9
100
AcDbSymbolTableRecord
100
AcDbRegAppTableRecord
  2
CONTENTBLOCKICON
 70
     0
  0
APPID
  5
68
330
9
100
AcDbSymbolTableRecord
100
AcDbRegAppTableRecord
  2
CONTENTLONGBLOCKNAME
 70
     0
  0
APPID
  5
5A9
330
9
100
AcDbSymbolTableRecord
100
AcDbRegAppTableRecord
  2
ACAD_PSEXT
 70
     0
  0
APPID
  5
18AC
330
9
100
AcDbSymbolTableRecord
100
AcDbRegAppTableRecord
  2
ACAD_DSTYLE_DIMTEXT_FILL
 70
     0
  0
APPID
  5
15B9A
330
9
100
AcDbSymbolTableRecord
100
AcDbRegAppTableRecord
  2
ACAD_MLEADERVER
 70
     0
  0
APPID
  5
175EB
330
9
100
AcDbSymbolTableRecord
100
AcDbRegAppTableRecord
  2
ACAD_DSTYLE_DIMRADIAL_EXTE
 70
     0
  0
APPID
  5
17CB7
330
9
100
AcDbSymbolTableRecord
100
AcDbRegAppTableRecord
  2
ACADANNOTATIVE
 70
     0
  0
APPID
  5
244FC
330
9
100
AcDbSymbolTableRecord
100
AcDbRegAppTableRecord
  2
ACLAYERTOOLS
 70
     0
  0
APPID
  5
24F8E
330
9
100
AcDbSymbolTableRecord
100
AcDbRegAppTableRecord
  2
ACAD_EXEMPT_FROM_CAD_STAND
 70
     0
  0
APPID
  5
34EAB
330
9
100
AcDbSymbolTableRecord
100
AcDbRegAppTableRecord
  2
ACAD_OBJECT_CHANGE_GUID
 70
     0
  0
ENDTAB
  0
TABLE
  2
DIMSTYLE
  5
A
330
0
100
AcDbSymbolTable
 70
     1
  0
DIMSTYLE
105
48
330
A
100
AcDbSymbolTableRecord
100
AcDbDimStyleTableRecord
  2
NEWX10
 70
     0
  3
 
  4

  5

  6
OPEN30
  7
OPEN30
 40
1.0
 41
2.0
 42
0.0
 43
7.0
 44
1.0
 45
0.0
 46
0.0
 47
0.0
 48
0.0
140
3.5
141
0.0
142
0.0
143
25.4
144
1.0
145
0.0
146
0.7
147
0.7
 71
     0
 72
     0
 73
     0
 74
     0
 75
     0
 76
     0
 77
     1
 78
     8
170
     0
171
     2
172
     1
173
     1
174
     0
175
     0
176
   256
177
   256
178
   201
179
     2
270
     2
271
     2
272
     4
273
     2
274
     2
340
F
275
     0
280
     0
281
     0
282
     0
283
     1
284
     8
285
     0
286
     0
287
     2
288
     0
  0
ENDTAB
  0
TABLE
  2
BLOCK_RECORD
  5
1
330
0
100
AcDbSymbolTable
 70
     1
  0
BLOCK_RECORD
  5
18
102
{ACAD_XDICTIONARY
360
6E9
102
}
330
1
100
AcDbSymbolTableRecord
100
AcDbBlockTableRecord
  2
*MODEL_SPACE
  0
BLOCK_RECORD
  5
15
102
{ACAD_XDICTIONARY
360
59B
102
}
330
1
100
AcDbSymbolTableRecord
100
AcDbBlockTableRecord
  2
*PAPER_SPACE
  0
BLOCK_RECORD
  5
42
330
1
100
AcDbSymbolTableRecord
100
AcDbBlockTableRecord
  2
_OPEN30
  0
ENDTAB
  0
ENDSEC
  0
SECTION
  2
BLOCKS
  0
BLOCK
  5
19
330
18
100
AcDbEntity
  8
0
100
AcDbBlockBegin
  2
*MODEL_SPACE
 70
     0
 10
0.0
 20
0.0
 30
0.0
  3
*MODEL_SPACE
  1

  0
ENDBLK
  5
1A
330
18
100
AcDbEntity
  8
0
100
AcDbBlockEnd
  0
BLOCK
  5
16
330
15
100
AcDbEntity
 67
     1
  8
0
100
AcDbBlockBegin
  2
*PAPER_SPACE
 70
     0
 10
0.0
 20
0.0
 30
0.0
  3
*PAPER_SPACE
  1

  0
ENDBLK
  5
17
330
15
100
AcDbEntity
 67
     1
  8
0
100
AcDbBlockEnd
  0
BLOCK
  5
43
330
42
100
AcDbEntity
  8
0
100
AcDbBlockBegin
  2
_OPEN30
 70
     0
 10
0.0
 20
0.0
 30
0.0
  3
_OPEN30
  1

  0
LINE
  5
44
330
42
100
AcDbEntity
  8
0
  6
BYBLOCK
 62
     0
100
AcDbLine
 10
-1.0
 20
0.26794919
 30
0.0
 11
0.0
 21
0.0
 31
0.0
  0
LINE
  5
45
330
42
100
AcDbEntity
  8
0
  6
BYBLOCK
 62
     0
100
AcDbLine
 10
0.0
 20
0.0
 30
0.0
 11
-1.0
 21
-0.26794919
 31
0.0
  0
LINE
  5
46
330
42
100
AcDbEntity
  8
0
  6
BYBLOCK
 62
     0
100
AcDbLine
 10
0.0
 20
0.0
 30
0.0
 11
-1.0
 21
0.0
 31
0.0
  0
ENDBLK
  5
47
330
42
100
AcDbEntity
  8
0
100
AcDbBlockEnd
  0
ENDSEC
  0
SECTION
  2
ENTITIES
  0
TEXT
  5
25397
330
18
100
AcDbEntity
  8
1TEXT
100
AcDbText
 10
2503.998319454316
 20
-1737.149152476614
 30
0.0
 40
16.0
  1
コード
 72
     1
 11
2531.464986120982
 21
-1737.149152476614
 31
0.0
100
AcDbText
  0
LINE
  5
2539B
330
18
100
AcDbEntity
  8
1DIM
100
AcDbLine
 10
2181.864986120978
 20
-1715.149152476615
 30
0.0
 11
2181.864986120978
 21
-1827.149152476617
 31
0.0
  0
LINE
  5
2539C
330
18
100
AcDbEntity
  8
1DIM
100
AcDbLine
 10
2321.86498612098
 20
-1715.149152476612
 30
0.0
 11
2321.86498612098
 21
-1827.149152476617
 31
0.0
  0
LINE
  5
2539D
330
18
100
AcDbEntity
  8
1DIM
100
AcDbLine
 10
2601.864986120984
 20
-1715.149152476612
 30
0.0
 11
2601.86498612098
 21
-1827.149152476617
 31
0.0
  0
TEXT
  5
2539F
330
18
100
AcDbEntity
  8
1TEXT
100
AcDbText
 10
2179.08203183439
 20
-1706.37999344316
 30
0.0
 40
32.0
  1
GP-140-X-01
100
AcDbText
  0
TEXT
  5
253A2
330
18
100
AcDbEntity
  8
1TEXT
100
AcDbText
 10
2475.962208343203
 20
-1794.006580411209
 30
0.0
 40
16.0
  1
GP-140-XT-01
 41
0.65
 72
     1
 11
2531.464986120981
 21
-1794.006580411209
 31
0.0
100
AcDbText
  0
TEXT
  5
253A6
330
18
100
AcDbEntity
  8
1TEXT
100
AcDbText
 10
2634.398319454318
 20
-1737.149152476614
 30
0.0
 40
16.0
  1
対応子機
 72
     1
 11
2671.464986120984
 21
-1737.149152476614
 31
0.0
100
AcDbText
  0
LINE
  5
253A7
330
18
100
AcDbEntity
  8
1DIM
100
AcDbLine
 10
2741.864986120986
 20
-1715.149152476612
 30
0.0
 11
2741.864986120982
 21
-1827.149152476617
 31
0.0
  0
TEXT
  5
253A8
330
18
100
AcDbEntity
  8
1TEXT
100
AcDbText
 10
2617.278319454319
 20
-1794.006580411212
 30
0.0
 40
16.0
  1
PR-NXU-「」
 41
0.8
 72
     1
 11
2671.464986120986
 21
-1794.006580411212
 31
0.0
100
AcDbText
  0
TEXT
  5
253A9
330
18
100
AcDbEntity
  8
1TEXT
100
AcDbText
 10
2634.664986120987
 20
-1766.006580411212
 30
0.0
 40
16.0
  1
アイホン
 72
     1
 11
2671.464986120987
 21
-1766.006580411212
 31
0.0
100
AcDbText
  0
TEXT
  5
25589
330
18
100
AcDbEntity
  8
1TEXT
100
AcDbText
 10
2214.558319454312
 20
-1794.006580411208
 30
0.0
 40
16.0
  1
ヘアライン
 41
0.8
 72
     1
 11
2251.464986120979
 21
-1794.006580411208
 31
0.0
100
AcDbText
  0
TEXT
  5
2558B
330
18
100
AcDbEntity
  8
1TEXT
100
AcDbText
 10
2195.198319454314
 20
-1737.149152476613
 30
0.0
 40
16.0
  1
仕上げ：本体
 72
     1
 11
2251.46498612098
 21
-1737.149152476613
 31
0.0
100
AcDbText
  0
LINE
  5
2D6C2
330
18
100
AcDbEntity
  8
01
100
AcDbLine
 10
1618.864094946184
 20
-1687.984868218511
 30
0.0
 11
1738.864094946184
 21
-1687.984868218511
 31
0.0
  0
LINE
  5
2D6C3
330
18
100
AcDbEntity
  8
01
100
AcDbLine
 10
1618.864094946183
 20
-2480.484868218511
 30
0.0
 11
1738.864094946183
 21
-2480.484868218511
 31
0.0
  0
LINE
  5
2D6C4
330
18
100
AcDbEntity
  8
01
100
AcDbLine
 10
1738.864094946184
 20
-1687.984868218511
 30
0.0
 11
1738.864094946184
 21
-2481.184868218512
 31
0.0
  0
LINE
  5
2D6C5
330
18
100
AcDbEntity
  8
01
100
AcDbLine
 10
1618.864094946184
 20
-1687.984868218511
 30
0.0
 11
1618.864094946182
 21
-2481.184868218511
 31
0.0
  0
LINE
  5
2D6C6
330
18
100
AcDbEntity
  8
01
  6
BYBLOCK
100
AcDbLine
 10
1698.864094946184
 20
-2091.984868218511
 30
0.0
 11
1698.864094946184
 21
-2023.984868218511
 31
0.0
  0
LINE
  5
2D6C7
330
18
100
AcDbEntity
  8
01
  6
BYBLOCK
100
AcDbLine
 10
1658.864094946184
 20
-2091.984868218511
 30
0.0
 11
1658.864094946184
 21
-2023.984868218511
 31
0.0
  0
LINE
  5
2D6C8
330
18
100
AcDbEntity
  8
01
  6
BYBLOCK
100
AcDbLine
 10
1658.864094946184
 20
-2023.984868218511
 30
0.0
 11
1698.864094946184
 21
-2023.984868218511
 31
0.0
  0
LINE
  5
2D6CA
330
18
100
AcDbEntity
  8
01
  6
BYBLOCK
100
AcDbLine
 10
1658.864094946184
 20
-2091.984868218511
 30
0.0
 11
1698.864094946184
 21
-2091.984868218511
 31
0.0
  0
ARC
  5
2D6CC
330
18
100
AcDbEntity
  8
01
100
AcDbCircle
 10
1661.364094946184
 20
-1977.984868218511
 30
0.0
 40
1.5
100
AcDbArc
 50
0.0
 51
180.0
  0
ARC
  5
2D6CD
330
18
100
AcDbEntity
  8
01
100
AcDbCircle
 10
1661.364094946184
 20
-1999.984868218511
 30
0.0
 40
1.5
100
AcDbArc
 50
180.0
 51
0.0
  0
LINE
  5
2D6CE
330
18
100
AcDbEntity
  8
01
100
AcDbLine
 10
1662.864094946184
 20
-1977.984868218511
 30
0.0
 11
1662.864094946184
 21
-1999.984868218511
 31
0.0
  0
LINE
  5
2D6CF
330
18
100
AcDbEntity
  8
01
100
AcDbLine
 10
1659.864094946184
 20
-1977.984868218511
 30
0.0
 11
1659.864094946184
 21
-1999.984868218511
 31
0.0
  0
ARC
  5
2D6D0
330
18
100
AcDbEntity
  8
01
100
AcDbCircle
 10
1668.364094946184
 20
-1977.984868218511
 30
0.0
 40
1.5
100
AcDbArc
 50
0.0
 51
180.0
  0
ARC
  5
2D6D1
330
18
100
AcDbEntity
  8
01
100
AcDbCircle
 10
1668.364094946184
 20
-1999.984868218511
 30
0.0
 40
1.5
100
AcDbArc
 50
180.0
 51
0.0
  0
LINE
  5
2D6D2
330
18
100
AcDbEntity
  8
01
100
AcDbLine
 10
1669.864094946184
 20
-1977.984868218511
 30
0.0
 11
1669.864094946184
 21
-1999.984868218511
 31
0.0
  0
LINE
  5
2D6D3
330
18
100
AcDbEntity
  8
01
100
AcDbLine
 10
1666.864094946184
 20
-1977.984868218511
 30
0.0
 11
1666.864094946184
 21
-1999.984868218511
 31
0.0
  0
ARC
  5
2D6D4
330
18
100
AcDbEntity
  8
01
100
AcDbCircle
 10
1675.364094946184
 20
-1977.984868218511
 30
0.0
 40
1.5
100
AcDbArc
 50
0.0
 51
180.0
  0
ARC
  5
2D6D5
330
18
100
AcDbEntity
  8
01
100
AcDbCircle
 10
1675.364094946184
 20
-1999.984868218511
 30
0.0
 40
1.5
100
AcDbArc
 50
180.0
 51
0.0
  0
LINE
  5
2D6D6
330
18
100
AcDbEntity
  8
01
100
AcDbLine
 10
1676.864094946184
 20
-1977.984868218511
 30
0.0
 11
1676.864094946184
 21
-1999.984868218511
 31
0.0
  0
LINE
  5
2D6D7
330
18
100
AcDbEntity
  8
01
100
AcDbLine
 10
1673.864094946184
 20
-1977.984868218511
 30
0.0
 11
1673.864094946184
 21
-1999.984868218511
 31
0.0
  0
ARC
  5
2D6D8
330
18
100
AcDbEntity
  8
01
100
AcDbCircle
 10
1682.364094946184
 20
-1977.984868218511
 30
0.0
 40
1.5
100
AcDbArc
 50
0.0
 51
180.0
  0
ARC
  5
2D6D9
330
18
100
AcDbEntity
  8
01
100
AcDbCircle
 10
1682.364094946184
 20
-1999.984868218511
 30
0.0
 40
1.5
100
AcDbArc
 50
180.0
 51
0.0
  0
LINE
  5
2D6DA
330
18
100
AcDbEntity
  8
01
100
AcDbLine
 10
1683.864094946184
 20
-1977.984868218511
 30
0.0
 11
1683.864094946184
 21
-1999.984868218511
 31
0.0
  0
LINE
  5
2D6DB
330
18
100
AcDbEntity
  8
01
100
AcDbLine
 10
1680.864094946184
 20
-1977.984868218511
 30
0.0
 11
1680.864094946184
 21
-1999.984868218511
 31
0.0
  0
ARC
  5
2D6DC
330
18
100
AcDbEntity
  8
01
100
AcDbCircle
 10
1689.364094946184
 20
-1977.984868218511
 30
0.0
 40
1.5
100
AcDbArc
 50
0.0
 51
180.0
  0
ARC
  5
2D6DD
330
18
100
AcDbEntity
  8
01
100
AcDbCircle
 10
1689.364094946184
 20
-1999.984868218511
 30
0.0
 40
1.5
100
AcDbArc
 50
180.0
 51
0.0
  0
LINE
  5
2D6DE
330
18
100
AcDbEntity
  8
01
100
AcDbLine
 10
1690.864094946184
 20
-1977.984868218511
 30
0.0
 11
1690.864094946184
 21
-1999.984868218511
 31
0.0
  0
LINE
  5
2D6DF
330
18
100
AcDbEntity
  8
01
100
AcDbLine
 10
1687.864094946184
 20
-1977.984868218511
 30
0.0
 11
1687.864094946184
 21
-1999.984868218511
 31
0.0
  0
ARC
  5
2D6E0
330
18
100
AcDbEntity
  8
01
100
AcDbCircle
 10
1696.364094946184
 20
-1977.984868218511
 30
0.0
 40
1.5
100
AcDbArc
 50
0.0
 51
180.0
  0
ARC
  5
2D6E1
330
18
100
AcDbEntity
  8
01
100
AcDbCircle
 10
1696.364094946184
 20
-1999.984868218511
 30
0.0
 40
1.5
100
AcDbArc
 50
180.0
 51
0.0
  0
LINE
  5
2D6E2
330
18
100
AcDbEntity
  8
01
100
AcDbLine
 10
1697.864094946184
 20
-1977.984868218511
 30
0.0
 11
1697.864094946184
 21
-1999.984868218511
 31
0.0
  0
LINE
  5
2D6E3
330
18
100
AcDbEntity
  8
01
100
AcDbLine
 10
1694.864094946184
 20
-1977.984868218511
 30
0.0
 11
1694.864094946184
 21
-1999.984868218511
 31
0.0
  0
ARC
  5
2D6E4
330
18
100
AcDbEntity
  8
01
100
AcDbCircle
 10
1652.864094946184
 20
-2058.984868218511
 30
0.0
 40
1.5
100
AcDbArc
 50
0.0
 51
180.0
  0
ARC
  5
2D6E5
330
18
100
AcDbEntity
  8
01
100
AcDbCircle
 10
1652.864094946184
 20
-2080.984868218511
 30
0.0
 40
1.5
100
AcDbArc
 50
180.0
 51
0.0
  0
LINE
  5
2D6E6
330
18
100
AcDbEntity
  8
01
100
AcDbLine
 10
1654.364094946184
 20
-2058.984868218511
 30
0.0
 11
1654.364094946184
 21
-2080.984868218511
 31
0.0
  0
LINE
  5
2D6E7
330
18
100
AcDbEntity
  8
01
100
AcDbLine
 10
1651.364094946184
 20
-2058.984868218511
 30
0.0
 11
1651.364094946184
 21
-2080.984868218511
 31
0.0
  0
LINE
  5
2D739
330
18
100
AcDbEntity
  8
01
100
AcDbLine
 10
1618.864094946184
 20
-1595.834011089012
 30
0.0
 11
1618.864094946184
 21
-1545.434011089012
 31
0.0
  0
ARC
  5
2D73A
330
18
100
AcDbEntity
  8
01
100
AcDbCircle
 10
1619.664094946183
 20
-1595.834011089012
 30
0.0
 40
0.8
100
AcDbArc
 50
180.0
 51
270.0
  0
LINE
  5
2D73B
330
18
100
AcDbEntity
  8
01
100
AcDbLine
 10
1619.664094946183
 20
-1544.634011089012
 30
0.0
 11
1628.864094946183
 21
-1544.634011089012
 31
0.0
  0
LINE
  5
2D73C
330
18
100
AcDbEntity
  8
01
100
AcDbLine
 10
1728.864094946184
 20
-1544.634011089012
 30
0.0
 11
1738.064094946183
 21
-1544.634011089012
 31
0.0
  0
LINE
  5
2D73D
330
18
100
AcDbEntity
  8
01
100
AcDbLine
 10
1619.66409494618
 20
-1545.434011089012
 30
0.0
 11
1628.864094946183
 21
-1545.434011089012
 31
0.0
  0
LINE
  5
2D73E
330
18
100
AcDbEntity
  8
01
100
AcDbLine
 10
1728.864094946184
 20
-1545.434011089012
 30
0.0
 11
1738.064094946183
 21
-1545.434011089012
 31
0.0
  0
LINE
  5
2D73F
330
18
100
AcDbEntity
  8
01
100
AcDbLine
 10
1619.664094946183
 20
-1596.634011089012
 30
0.0
 11
1738.064094946183
 21
-1596.634011089012
 31
0.0
  0
LINE
  5
2D741
330
18
100
AcDbEntity
  8
01
100
AcDbLine
 10
1619.664094946183
 20
-1595.834011089012
 30
0.0
 11
1738.064094946183
 21
-1595.834011089012
 31
0.0
  0
ARC
  5
2D743
330
18
100
AcDbEntity
  8
01
100
AcDbCircle
 10
1738.064094946183
 20
-1595.834011089012
 30
0.0
 40
0.8
100
AcDbArc
 50
270.0
 51
0.0
  0
LINE
  5
2D744
330
18
100
AcDbEntity
  8
01
100
AcDbLine
 10
1738.864094946184
 20
-1595.834011089012
 30
0.0
 11
1738.864094946184
 21
-1545.434011089012
 31
0.0
  0
LINE
  5
2D745
330
18
100
AcDbEntity
  8
01
100
AcDbLine
 10
1738.064094946183
 20
-1595.834011089012
 30
0.0
 11
1738.064094946183
 21
-1545.434011089012
 31
0.0
  0
ARC
  5
2D746
330
18
100
AcDbEntity
  8
01
100
AcDbCircle
 10
1738.064094946183
 20
-1545.434011089012
 30
0.0
 40
0.8
100
AcDbArc
 50
0.0
 51
90.0
  0
LINE
  5
2D748
330
18
100
AcDbEntity
  8
01
100
AcDbLine
 10
1619.664094946183
 20
-1595.834011089012
 30
0.0
 11
1619.66409494618
 21
-1545.434011089012
 31
0.0
  0
ARC
  5
2D749
330
18
100
AcDbEntity
  8
01
100
AcDbCircle
 10
1619.664094946183
 20
-1545.434011089012
 30
0.0
 40
0.8
100
AcDbArc
 50
90.0
 51
180.0
  0
LINE
  5
2D7CF
330
18
100
AcDbEntity
  8
01
100
AcDbLine
 10
1963.746630241206
 20
-1687.984868218511
 30
0.0
 11
1963.746630241206
 21
-2154.984868218511
 31
0.0
  0
LINE
  5
2D7D3
330
18
100
AcDbEntity
  8
01
100
AcDbLine
 10
1911.746630241206
 20
-1687.984868218511
 30
0.0
 11
1911.746630241204
 21
-2480.484868218511
 31
0.0
  0
LINE
  5
2D7D7
330
18
100
AcDbEntity
  8
01
100
AcDbLine
 10
1911.746630241206
 20
-2480.484868218511
 30
0.0
 11
1917.246630241206
 21
-2480.484868218511
 31
0.0
  0
LINE
  5
2D7D9
330
18
100
AcDbEntity
  8
01
100
AcDbLine
 10
1919.246630241206
 20
-2154.984868218511
 30
0.0
 11
1963.746630241206
 21
-2154.984868218511
 31
0.0
  0
LINE
  5
2D7DC
330
18
100
AcDbEntity
  8
01
100
AcDbLine
 10
1919.246630241206
 20
-2154.984868218511
 30
0.0
 11
1919.246630241206
 21
-2478.484868218511
 31
0.0
  0
ARC
  5
2D7DD
330
18
100
AcDbEntity
  8
01
100
AcDbCircle
 10
1917.246630241206
 20
-2478.484868218511
 30
0.0
 40
2.0
100
AcDbArc
 50
270.0
 51
0.0
  0
LINE
  5
2D7DE
330
18
100
AcDbEntity
  8
01
100
AcDbLine
 10
1911.746630241206
 20
-1687.984868218511
 30
0.0
 11
1963.746630241206
 21
-1687.984868218511
 31
0.0
  0
LINE
  5
2D7EE
330
18
100
AcDbEntity
  8
01
100
AcDbLine
 10
1919.246630241206
 20
-2459.734868218511
 30
0.0
 11
1920.246630241206
 21
-2459.734868218511
 31
0.0
  0
LINE
  5
2D7F2
330
18
100
AcDbEntity
  8
01
100
AcDbLine
 10
1920.246630241207
 20
-2154.984868218511
 30
0.0
 11
1920.246630241206
 21
-2459.734868218511
 31
0.0
  0
LINE
  5
2DA9A
330
18
100
AcDbEntity
  8
01
100
AcDbLine
 10
1738.864094946183
 20
-2479.734868218516
 30
0.0
 11
1738.864094946183
 21
-2480.434868218512
 31
0.0
  0
ARC
  5
2DA9B
330
18
100
AcDbEntity
  8
01
100
AcDbCircle
 10
1738.064094946183
 20
-2481.184868218512
 30
0.0
 40
0.8
100
AcDbArc
 50
270.0
 51
0.0
  0
LINE
  5
2DA9C
330
18
100
AcDbEntity
  8
01
100
AcDbLine
 10
1618.864094946183
 20
-2479.734868218511
 30
0.0
 11
1618.864094946183
 21
-2480.434868218511
 31
0.0
  0
LINE
  5
2DA9D
330
18
100
AcDbEntity
  8
01
100
AcDbLine
 10
1619.664094946183
 20
-2481.984868218511
 30
0.0
 11
1738.064094946183
 21
-2481.984868218512
 31
0.0
  0
ARC
  5
2DA9E
330
18
100
AcDbEntity
  8
01
100
AcDbCircle
 10
1619.664094946183
 20
-2481.184868218511
 30
0.0
 40
0.8
100
AcDbArc
 50
180.0
 51
270.0
  0
LINE
  5
2DBF3
330
18
100
AcDbEntity
  8
01
100
AcDbLine
 10
1619.91409494618
 20
-1545.434011089012
 30
0.0
 11
1632.364094946183
 21
-1545.434011089012
 31
0.0
  0
LINE
  5
2DBF4
330
18
100
AcDbEntity
  8
01
100
AcDbLine
 10
1632.364094946183
 20
-1544.634011089012
 30
0.0
 11
1725.364094946183
 21
-1544.634011089012
 31
0.0
  0
LINE
  5
2DBF5
330
18
100
AcDbEntity
  8
01
100
AcDbLine
 10
1725.364094946183
 20
-1545.434011089012
 30
0.0
 11
1737.814094946183
 21
-1545.434011089012
 31
0.0
  0
LINE
  5
2DBF6
330
18
100
AcDbEntity
  8
01
100
AcDbLine
 10
1619.914094946182
 20
-1595.334011089012
 30
0.0
 11
1737.814094946183
 21
-1595.334011089012
 31
0.0
  0
LINE
  5
2DBF7
330
18
100
AcDbEntity
  8
01
100
AcDbLine
 10
1737.814094946183
 20
-1595.334011089012
 30
0.0
 11
1737.814094946183
 21
-1545.434011089012
 31
0.0
  0
LINE
  5
2DBF8
330
18
100
AcDbEntity
  8
01
100
AcDbLine
 10
1619.914094946182
 20
-1595.334011089012
 30
0.0
 11
1619.91409494618
 21
-1545.434011089012
 31
0.0
  0
LINE
  5
2DBF9
330
18
100
AcDbEntity
  8
01
100
AcDbLine
 10
1725.364094946183
 20
-1544.634011089012
 30
0.0
 11
1725.364094946183
 21
-1545.434011089012
 31
0.0
  0
LINE
  5
2DBFA
330
18
100
AcDbEntity
  8
01
100
AcDbLine
 10
1632.364094946183
 20
-1544.634011089012
 30
0.0
 11
1632.364094946183
 21
-1545.434011089012
 31
0.0
  0
LINE
  5
2DDBC
330
18
100
AcDbEntity
  8
01
100
AcDbLine
 10
1963.746630241204
 20
-2154.984868218512
 30
0.0
 11
1963.746630241204
 21
-2479.984868218513
 31
0.0
  0
LINE
  5
2DDBF
330
18
100
AcDbEntity
  8
01
100
AcDbLine
 10
1955.246630241204
 20
-2155.784868218511
 30
0.0
 11
1955.246630241204
 21
-2479.984868218511
 31
0.0
  0
ARC
  5
2DDC0
330
18
100
AcDbEntity
  8
01
100
AcDbCircle
 10
1956.046630241205
 20
-2155.784868218511
 30
0.0
 40
0.8
100
AcDbArc
 50
90.0
 51
180.0
  0
LINE
  5
2DDC2
330
18
100
AcDbEntity
  8
1CENTER
100
AcDbLine
 10
1909.679721970261
 20
-2469.984868218506
 30
0.0
 11
1966.738681307658
 21
-2469.984868218513
 31
0.0
  0
LINE
  5
2DDCA
330
18
100
AcDbEntity
  8
01
100
AcDbLine
 10
1920.246630241206
 20
-2475.73486821851
 30
0.0
 11
1955.246630241205
 21
-2475.734868218512
 31
0.0
  0
LINE
  5
2DDCB
330
18
100
AcDbEntity
  8
01
100
AcDbLine
 10
1920.246630241206
 20
-2464.23486821851
 30
0.0
 11
1955.246630241204
 21
-2464.234868218511
 31
0.0
  0
LINE
  5
2DDCC
330
18
100
AcDbEntity
  8
01
100
AcDbLine
 10
1919.446630241206
 20
-2459.734868218511
 30
0.0
 11
1920.246630241206
 21
-2459.734868218511
 31
0.0
  0
LINE
  5
2DDCF
330
18
100
AcDbEntity
  8
01
100
AcDbLine
 10
1920.246630241207
 20
-2481.984868218511
 30
0.0
 11
1912.546630241206
 21
-2481.984868218511
 31
0.0
  0
ARC
  5
2DDD0
330
18
100
AcDbEntity
  8
01
100
AcDbCircle
 10
1912.546630241206
 20
-2481.184868218511
 30
0.0
 40
0.8
100
AcDbArc
 50
180.0
 51
270.0
  0
LINE
  5
2DDD4
330
18
100
AcDbEntity
  8
01
100
AcDbLine
 10
1911.746630241207
 20
-2480.484868218511
 30
0.0
 11
1911.746630241207
 21
-2481.184868218511
 31
0.0
  0
LINE
  5
2DDD5
330
18
100
AcDbEntity
  8
01
100
AcDbLine
 10
1920.246630241206
 20
-2459.734868218511
 30
0.0
 11
1920.246630241206
 21
-2481.984868218511
 31
0.0
  0
LINE
  5
2DDD7
330
18
100
AcDbEntity
  8
01
100
AcDbLine
 10
1955.246630241204
 20
-2479.984868218511
 30
0.0
 11
1963.746630241205
 21
-2479.984868218511
 31
0.0
  0
CIRCLE
  5
2DDE9
330
18
100
AcDbEntity
  8
1PHANTOM
100
AcDbCircle
 10
1643.864094946183
 20
-2469.984868218509
 30
0.0
 40
3.0
  0
CIRCLE
  5
2DDEA
330
18
100
AcDbEntity
  8
1PHANTOM
100
AcDbCircle
 10
1713.864094946183
 20
-2469.984868218509
 30
0.0
 40
3.0
  0
LINE
  5
2DDEB
330
18
100
AcDbEntity
  8
1CENTER
100
AcDbLine
 10
1639.964094946183
 20
-2469.98486821851
 30
0.0
 11
1647.764094946183
 21
-2469.98486821851
 31
0.0
  0
LINE
  5
2DDEC
330
18
100
AcDbEntity
  8
1CENTER
100
AcDbLine
 10
1643.864094946183
 20
-2473.88486821851
 30
0.0
 11
1643.864094946183
 21
-2466.08486821851
 31
0.0
  0
LINE
  5
2DDED
330
18
100
AcDbEntity
  8
1CENTER
100
AcDbLine
 10
1709.964094946183
 20
-2469.98486821851
 30
0.0
 11
1717.764094946183
 21
-2469.98486821851
 31
0.0
  0
LINE
  5
2DDEE
330
18
100
AcDbEntity
  8
1CENTER
100
AcDbLine
 10
1713.864094946183
 20
-2473.88486821851
 30
0.0
 11
1713.864094946183
 21
-2466.08486821851
 31
0.0
  0
LINE
  5
2DDFF
330
18
100
AcDbEntity
  8
01
100
AcDbLine
 10
1983.746630241206
 20
-2506.531079965488
 30
0.0
 11
1983.746630241206
 21
-1674.875101535955
 31
0.0
  0
LINE
  5
2DE0B
330
18
100
AcDbEntity
  8
01
100
AcDbLine
 10
1919.796630241204
 20
-2481.984868218511
 30
0.0
 11
1919.796630241204
 21
-2482.584868218511
 31
0.0
  0
ARC
  5
2DE0D
330
18
100
AcDbEntity
  8
01
100
AcDbCircle
 10
1917.796630241204
 20
-2482.584868218511
 30
0.0
 40
2.0
100
AcDbArc
 50
270.0
 51
0.0
  0
LINE
  5
2DE0F
330
18
100
AcDbEntity
  8
01
100
AcDbLine
 10
1917.796630241204
 20
-2484.584868218511
 30
0.0
 11
1914.796630241204
 21
-2484.584868218511
 31
0.0
  0
ARC
  5
2DE11
330
18
100
AcDbEntity
  8
01
100
AcDbCircle
 10
1914.796630241204
 20
-2482.584868218511
 30
0.0
 40
2.0
100
AcDbArc
 50
180.0
 51
270.0
  0
LINE
  5
2DE12
330
18
100
AcDbEntity
  8
01
100
AcDbLine
 10
1912.796630241204
 20
-2481.984868218511
 30
0.0
 11
1912.796630241204
 21
-2482.584868218511
 31
0.0
  0
LINE
  5
2DE13
330
18
100
AcDbEntity
  8
01
100
AcDbLine
 10
1682.364094946183
 20
-2481.984868218511
 30
0.0
 11
1682.364094946183
 21
-2482.584868218511
 31
0.0
  0
ARC
  5
2DE14
330
18
100
AcDbEntity
  8
01
100
AcDbCircle
 10
1680.364094946183
 20
-2482.584868218511
 30
0.0
 40
2.0
100
AcDbArc
 50
270.0
 51
0.0
  0
LINE
  5
2DE15
330
18
100
AcDbEntity
  8
01
100
AcDbLine
 10
1680.364094946183
 20
-2484.584868218511
 30
0.0
 11
1677.364094946183
 21
-2484.584868218511
 31
0.0
  0
ARC
  5
2DE16
330
18
100
AcDbEntity
  8
01
100
AcDbCircle
 10
1677.364094946183
 20
-2482.584868218511
 30
0.0
 40
2.0
100
AcDbArc
 50
180.0
 51
270.0
  0
LINE
  5
2DE17
330
18
100
AcDbEntity
  8
01
100
AcDbLine
 10
1675.364094946183
 20
-2481.984868218511
 30
0.0
 11
1675.364094946183
 21
-2482.584868218511
 31
0.0
  0
LINE
  5
2DE18
330
18
100
AcDbEntity
  8
01
100
AcDbLine
 10
1963.746630241206
 20
-2506.531079965488
 30
0.0
 11
1963.746630241206
 21
-1674.875101535955
 31
0.0
  0
LINE
  5
2DE19
330
18
100
AcDbEntity
  8
1CENTER
100
AcDbLine
 10
1650.231139403317
 20
-2119.98486821851
 30
0.0
 11
1637.497050489048
 21
-2119.98486821851
 31
0.0
  0
LINE
  5
2DE1A
330
18
100
AcDbEntity
  8
1CENTER
100
AcDbLine
 10
1643.864094946182
 20
-2123.47310711609
 30
0.0
 11
1643.864094946182
 21
-2116.49662932093
 31
0.0
  0
ARC
  5
2DE1B
330
18
100
AcDbEntity
  8
1PHANTOM
100
AcDbCircle
 10
1641.364094946182
 20
-2119.98486821851
 30
0.0
 40
2.5
100
AcDbArc
 50
90.0
 51
270.0
  0
ARC
  5
2DE1C
330
18
100
AcDbEntity
  8
1PHANTOM
100
AcDbCircle
 10
1646.364094946182
 20
-2119.98486821851
 30
0.0
 40
2.5
100
AcDbArc
 50
270.0
 51
90.0
  0
LINE
  5
2DE1D
330
18
100
AcDbEntity
  8
1PHANTOM
100
AcDbLine
 10
1641.364094946182
 20
-2117.48486821851
 30
0.0
 11
1646.364094946182
 21
-2117.48486821851
 31
0.0
  0
LINE
  5
2DE1E
330
18
100
AcDbEntity
  8
1PHANTOM
100
AcDbLine
 10
1641.364094946182
 20
-2122.48486821851
 30
0.0
 11
1646.364094946182
 21
-2122.48486821851
 31
0.0
  0
LINE
  5
2DE1F
330
18
100
AcDbEntity
  8
1CENTER
100
AcDbLine
 10
1650.231139403318
 20
-1769.98486821851
 30
0.0
 11
1637.497050489049
 21
-1769.98486821851
 31
0.0
  0
LINE
  5
2DE20
330
18
100
AcDbEntity
  8
1CENTER
100
AcDbLine
 10
1643.864094946183
 20
-1773.47310711609
 30
0.0
 11
1643.864094946183
 21
-1766.49662932093
 31
0.0
  0
ARC
  5
2DE21
330
18
100
AcDbEntity
  8
1PHANTOM
100
AcDbCircle
 10
1641.364094946183
 20
-1769.98486821851
 30
0.0
 40
2.5
100
AcDbArc
 50
90.0
 51
270.0
  0
ARC
  5
2DE22
330
18
100
AcDbEntity
  8
1PHANTOM
100
AcDbCircle
 10
1646.364094946183
 20
-1769.98486821851
 30
0.0
 40
2.5
100
AcDbArc
 50
270.0
 51
90.0
  0
LINE
  5
2DE23
330
18
100
AcDbEntity
  8
1PHANTOM
100
AcDbLine
 10
1641.364094946183
 20
-1767.48486821851
 30
0.0
 11
1646.364094946183
 21
-1767.48486821851
 31
0.0
  0
LINE
  5
2DE24
330
18
100
AcDbEntity
  8
1PHANTOM
100
AcDbLine
 10
1641.364094946183
 20
-1772.48486821851
 30
0.0
 11
1646.364094946183
 21
-1772.48486821851
 31
0.0
  0
LINE
  5
2DE25
330
18
100
AcDbEntity
  8
1CENTER
100
AcDbLine
 10
1707.49705048905
 20
-2119.98486821851
 30
0.0
 11
1720.231139403319
 21
-2119.98486821851
 31
0.0
  0
LINE
  5
2DE26
330
18
100
AcDbEntity
  8
1CENTER
100
AcDbLine
 10
1713.864094946185
 20
-2123.47310711609
 30
0.0
 11
1713.864094946185
 21
-2116.49662932093
 31
0.0
  0
ARC
  5
2DE27
330
18
100
AcDbEntity
  8
1PHANTOM
100
AcDbCircle
 10
1716.364094946185
 20
-2119.98486821851
 30
0.0
 40
2.5
100
AcDbArc
 50
270.0
 51
90.0
  0
ARC
  5
2DE28
330
18
100
AcDbEntity
  8
1PHANTOM
100
AcDbCircle
 10
1711.364094946185
 20
-2119.98486821851
 30
0.0
 40
2.5
100
AcDbArc
 50
90.0
 51
270.0
  0
LINE
  5
2DE29
330
18
100
AcDbEntity
  8
1PHANTOM
100
AcDbLine
 10
1716.364094946185
 20
-2117.48486821851
 30
0.0
 11
1711.364094946185
 21
-2117.48486821851
 31
0.0
  0
LINE
  5
2DE2A
330
18
100
AcDbEntity
  8
1PHANTOM
100
AcDbLine
 10
1716.364094946185
 20
-2122.48486821851
 30
0.0
 11
1711.364094946185
 21
-2122.48486821851
 31
0.0
  0
LINE
  5
2DE2B
330
18
100
AcDbEntity
  8
1CENTER
100
AcDbLine
 10
1707.497050489049
 20
-1769.98486821851
 30
0.0
 11
1720.231139403318
 21
-1769.98486821851
 31
0.0
  0
LINE
  5
2DE2C
330
18
100
AcDbEntity
  8
1CENTER
100
AcDbLine
 10
1713.864094946184
 20
-1773.47310711609
 30
0.0
 11
1713.864094946184
 21
-1766.49662932093
 31
0.0
  0
ARC
  5
2DE2D
330
18
100
AcDbEntity
  8
1PHANTOM
100
AcDbCircle
 10
1716.364094946184
 20
-1769.98486821851
 30
0.0
 40
2.5
100
AcDbArc
 50
270.0
 51
90.0
  0
ARC
  5
2DE2E
330
18
100
AcDbEntity
  8
1PHANTOM
100
AcDbCircle
 10
1711.364094946184
 20
-1769.98486821851
 30
0.0
 40
2.5
100
AcDbArc
 50
90.0
 51
270.0
  0
LINE
  5
2DE2F
330
18
100
AcDbEntity
  8
1PHANTOM
100
AcDbLine
 10
1716.364094946184
 20
-1767.48486821851
 30
0.0
 11
1711.364094946184
 21
-1767.48486821851
 31
0.0
  0
LINE
  5
2DE30
330
18
100
AcDbEntity
  8
1PHANTOM
100
AcDbLine
 10
1716.364094946184
 20
-1772.48486821851
 30
0.0
 11
1711.364094946184
 21
-1772.48486821851
 31
0.0
  0
LINE
  5
2DE35
330
18
100
AcDbEntity
  8
01
100
AcDbLine
 10
1628.864094946183
 20
-1545.434011089012
 30
0.0
 11
1628.864094946183
 21
-1544.634011089012
 31
0.0
  0
LINE
  5
2DE36
330
18
100
AcDbEntity
  8
01
100
AcDbLine
 10
1728.864094946184
 20
-1545.434011089012
 30
0.0
 11
1728.864094946184
 21
-1544.634011089012
 31
0.0
  0
LINE
  5
2DE56
330
18
100
AcDbEntity
  8
01
100
AcDbLine
 10
1644.864094946183
 20
-1687.984868218511
 30
0.0
 11
1644.864094946183
 21
-1687.384868218511
 31
0.0
  0
ARC
  5
2DE57
330
18
100
AcDbEntity
  8
01
100
AcDbCircle
 10
1642.864094946183
 20
-1687.384868218511
 30
0.0
 40
2.0
100
AcDbArc
 50
0.0
 51
90.0
  0
LINE
  5
2DE58
330
18
100
AcDbEntity
  8
01
100
AcDbLine
 10
1642.864094946183
 20
-1685.384868218511
 30
0.0
 11
1639.864094946183
 21
-1685.384868218511
 31
0.0
  0
ARC
  5
2DE59
330
18
100
AcDbEntity
  8
01
100
AcDbCircle
 10
1639.864094946183
 20
-1687.384868218511
 30
0.0
 40
2.0
100
AcDbArc
 50
90.0
 51
180.0
  0
LINE
  5
2DE5A
330
18
100
AcDbEntity
  8
01
100
AcDbLine
 10
1637.864094946183
 20
-1687.984868218511
 30
0.0
 11
1637.864094946183
 21
-1687.384868218511
 31
0.0
  0
LINE
  5
2DE5C
330
18
100
AcDbEntity
  8
01
100
AcDbLine
 10
1712.864094946184
 20
-1687.984868218511
 30
0.0
 11
1712.864094946184
 21
-1687.384868218511
 31
0.0
  0
ARC
  5
2DE5D
330
18
100
AcDbEntity
  8
01
100
AcDbCircle
 10
1714.864094946184
 20
-1687.384868218511
 30
0.0
 40
2.0
100
AcDbArc
 50
90.0
 51
180.0
  0
LINE
  5
2DE5E
330
18
100
AcDbEntity
  8
01
100
AcDbLine
 10
1714.864094946184
 20
-1685.384868218511
 30
0.0
 11
1717.864094946184
 21
-1685.384868218511
 31
0.0
  0
ARC
  5
2DE5F
330
18
100
AcDbEntity
  8
01
100
AcDbCircle
 10
1717.864094946184
 20
-1687.384868218511
 30
0.0
 40
2.0
100
AcDbArc
 50
0.000000000000007
 51
90.0
  0
LINE
  5
2DE60
330
18
100
AcDbEntity
  8
01
100
AcDbLine
 10
1719.864094946184
 20
-1687.984868218511
 30
0.0
 11
1719.864094946184
 21
-1687.384868218511
 31
0.0
  0
LINE
  5
2DE63
102
{ACAD_REACTORS
330
2DF3C
102
}
330
18
100
AcDbEntity
  8
1PHANTOM
100
AcDbLine
 10
1917.796630241204
 20
-2474.734868218507
 30
0.0
 11
1916.796630241204
 21
-2474.734868218507
 31
0.0
  0
ARC
  5
2DE64
102
{ACAD_REACTORS
330
2DF3C
102
}
330
18
100
AcDbEntity
  8
1PHANTOM
100
AcDbCircle
 10
1923.567463574538
 20
-2469.984868218507
 30
0.0
 40
8.270833333333439
100
AcDbArc
 50
144.9488632525424
 51
215.0511367474576
  0
LINE
  5
2DE65
102
{ACAD_REACTORS
330
2DF3C
102
}
330
18
100
AcDbEntity
  8
1PHANTOM
100
AcDbLine
 10
1917.796630241204
 20
-2465.234868218507
 30
0.0
 11
1916.796630241204
 21
-2465.234868218507
 31
0.0
  0
LINE
  5
2DE66
102
{ACAD_REACTORS
330
2DF3C
102
}
330
18
100
AcDbEntity
  8
1CENTER
100
AcDbLine
 10
2009.398305241204
 20
-2469.984868218507
 30
0.0
 11
1913.446588168592
 21
-2469.984868218507
 31
0.0
  0
LINE
  5
2DE67
102
{ACAD_REACTORS
330
2DF3C
102
}
330
18
100
AcDbEntity
  8
1PHANTOM
100
AcDbLine
 10
1916.796630241204
 20
-2474.517931398174
 30
0.0
 11
1916.796630241204
 21
-2465.479500433702
 31
0.0
  0
LINE
  5
2DE68
102
{ACAD_REACTORS
330
2DF3C
102
}
330
18
100
AcDbEntity
  8
1PHANTOM
100
AcDbLine
 10
1983.91449582725
 20
-2467.484868218507
 30
0.0
 11
1984.91449582725
 21
-2472.484868218507
 31
0.0
  0
LINE
  5
2DE69
102
{ACAD_REACTORS
330
2DF3C
102
}
330
18
100
AcDbEntity
  8
1PHANTOM
100
AcDbLine
 10
2001.265541327959
 20
-2468.234868218507
 30
0.0
 11
1917.796630241204
 21
-2468.234868218507
 31
0.0
  0
LINE
  5
2DE6A
102
{ACAD_REACTORS
330
2DF3C
102
}
330
18
100
AcDbEntity
  8
1PHANTOM
100
AcDbLine
 10
2007.796630241204
 20
-2469.984868218507
 30
0.0
 11
2001.265541327959
 21
-2468.234868218507
 31
0.0
  0
LINE
  5
2DE6B
102
{ACAD_REACTORS
330
2DF3C
102
}
330
18
100
AcDbEntity
  8
1PHANTOM
100
AcDbLine
 10
2007.796630241204
 20
-2469.984868218507
 30
0.0
 11
2001.265541327959
 21
-2471.734868218507
 31
0.0
  0
LINE
  5
2DE6C
102
{ACAD_REACTORS
330
2DF3C
102
}
330
18
100
AcDbEntity
  8
1PHANTOM
100
AcDbLine
 10
2001.265541327959
 20
-2471.734868218507
 30
0.0
 11
1917.796630241204
 21
-2471.734868218507
 31
0.0
  0
LINE
  5
2DE6D
102
{ACAD_REACTORS
330
2DF3C
102
}
330
18
100
AcDbEntity
  8
1PHANTOM
100
AcDbLine
 10
2001.951242439043
 20
-2467.668601277471
 30
0.0
 11
2001.801242439043
 21
-2468.418601277471
 31
0.0
  0
LINE
  5
2DE6E
102
{ACAD_REACTORS
330
2DF3C
102
}
330
18
100
AcDbEntity
  8
1PHANTOM
100
AcDbLine
 10
2001.951242439043
 20
-2467.668601277471
 30
0.0
 11
2002.830623335261
 21
-2472.065505758562
 31
0.0
  0
LINE
  5
2DE6F
102
{ACAD_REACTORS
330
2DF3C
102
}
330
18
100
AcDbEntity
  8
1PHANTOM
100
AcDbLine
 10
2006.777167164639
 20
-2470.298224905451
 30
0.0
 11
2006.627167164639
 21
-2471.048224905451
 31
0.0
  0
LINE
  5
2DE70
102
{ACAD_REACTORS
330
2DF3C
102
}
330
18
100
AcDbEntity
  8
1PHANTOM
100
AcDbLine
 10
2006.177739747147
 20
-2468.80108781799
 30
0.0
 11
2006.027739747147
 21
-2469.55108781799
 31
0.0
  0
LINE
  5
2DE71
102
{ACAD_REACTORS
330
2DF3C
102
}
330
18
100
AcDbEntity
  8
1PHANTOM
100
AcDbLine
 10
2006.177739747147
 20
-2468.80108781799
 30
0.0
 11
2006.627167164639
 21
-2471.048224905451
 31
0.0
  0
LINE
  5
2DE72
102
{ACAD_REACTORS
330
2DF3C
102
}
330
18
100
AcDbEntity
  8
1PHANTOM
100
AcDbLine
 10
2002.980623335261
 20
-2471.315505758562
 30
0.0
 11
2002.830623335261
 21
-2472.065505758562
 31
0.0
  0
LINE
  5
2DE73
102
{ACAD_REACTORS
330
2DF3C
102
}
330
18
100
AcDbEntity
  8
1PHANTOM
100
AcDbLine
 10
2004.87889524995
 20
-2470.806865332007
 30
0.0
 11
2004.72889524995
 21
-2471.556865332007
 31
0.0
  0
LINE
  5
2DE74
102
{ACAD_REACTORS
330
2DF3C
102
}
330
18
100
AcDbEntity
  8
1PHANTOM
100
AcDbLine
 10
2004.064491093095
 20
-2468.234844547731
 30
0.0
 11
2003.914491093095
 21
-2468.984844547731
 31
0.0
  0
LINE
  5
2DE75
102
{ACAD_REACTORS
330
2DF3C
102
}
330
18
100
AcDbEntity
  8
1PHANTOM
100
AcDbLine
 10
2004.064491093095
 20
-2468.234844547731
 30
0.0
 11
2004.72889524995
 21
-2471.556865332007
 31
0.0
  0
LINE
  5
2DE76
102
{ACAD_REACTORS
330
2DF3C
102
}
330
18
100
AcDbEntity
  8
1PHANTOM
100
AcDbLine
 10
1993.064495827251
 20
-2471.734868218507
 30
0.0
 11
1992.91449582725
 21
-2472.484868218507
 31
0.0
  0
LINE
  5
2DE77
102
{ACAD_REACTORS
330
2DF3C
102
}
330
18
100
AcDbEntity
  8
1PHANTOM
100
AcDbLine
 10
1995.91449582725
 20
-2467.484868218507
 30
0.0
 11
1995.76449582725
 21
-2468.234868218507
 31
0.0
  0
LINE
  5
2DE78
102
{ACAD_REACTORS
330
2DF3C
102
}
330
18
100
AcDbEntity
  8
1PHANTOM
100
AcDbLine
 10
1993.91449582725
 20
-2467.484868218507
 30
0.0
 11
1993.76449582725
 21
-2468.234868218507
 31
0.0
  0
LINE
  5
2DE79
102
{ACAD_REACTORS
330
2DF3C
102
}
330
18
100
AcDbEntity
  8
1PHANTOM
100
AcDbLine
 10
1993.91449582725
 20
-2467.484868218507
 30
0.0
 11
1994.91449582725
 21
-2472.484868218507
 31
0.0
  0
LINE
  5
2DE7A
102
{ACAD_REACTORS
330
2DF3C
102
}
330
18
100
AcDbEntity
  8
1PHANTOM
100
AcDbLine
 10
1997.91449582725
 20
-2467.484868218507
 30
0.0
 11
1997.76449582725
 21
-2468.234868218507
 31
0.0
  0
LINE
  5
2DE7B
102
{ACAD_REACTORS
330
2DF3C
102
}
330
18
100
AcDbEntity
  8
1PHANTOM
100
AcDbLine
 10
1999.91449582725
 20
-2467.484868218507
 30
0.0
 11
1999.76449582725
 21
-2468.234868218507
 31
0.0
  0
LINE
  5
2DE7C
102
{ACAD_REACTORS
330
2DF3C
102
}
330
18
100
AcDbEntity
  8
1PHANTOM
100
AcDbLine
 10
1999.91449582725
 20
-2467.484868218507
 30
0.0
 11
2000.91449582725
 21
-2472.484868218507
 31
0.0
  0
LINE
  5
2DE7D
102
{ACAD_REACTORS
330
2DF3C
102
}
330
18
100
AcDbEntity
  8
1PHANTOM
100
AcDbLine
 10
1997.91449582725
 20
-2467.484868218507
 30
0.0
 11
1998.91449582725
 21
-2472.484868218507
 31
0.0
  0
LINE
  5
2DE7E
102
{ACAD_REACTORS
330
2DF3C
102
}
330
18
100
AcDbEntity
  8
1PHANTOM
100
AcDbLine
 10
1995.91449582725
 20
-2467.484868218507
 30
0.0
 11
1996.91449582725
 21
-2472.484868218507
 31
0.0
  0
LINE
  5
2DE7F
102
{ACAD_REACTORS
330
2DF3C
102
}
330
18
100
AcDbEntity
  8
1PHANTOM
100
AcDbLine
 10
2001.064495827251
 20
-2471.734868218507
 30
0.0
 11
2000.91449582725
 21
-2472.484868218507
 31
0.0
  0
LINE
  5
2DE80
102
{ACAD_REACTORS
330
2DF3C
102
}
330
18
100
AcDbEntity
  8
1PHANTOM
100
AcDbLine
 10
1999.064495827251
 20
-2471.734868218507
 30
0.0
 11
1998.91449582725
 21
-2472.484868218507
 31
0.0
  0
LINE
  5
2DE81
102
{ACAD_REACTORS
330
2DF3C
102
}
330
18
100
AcDbEntity
  8
1PHANTOM
100
AcDbLine
 10
1995.064495827251
 20
-2471.734868218507
 30
0.0
 11
1994.91449582725
 21
-2472.484868218507
 31
0.0
  0
LINE
  5
2DE82
102
{ACAD_REACTORS
330
2DF3C
102
}
330
18
100
AcDbEntity
  8
1PHANTOM
100
AcDbLine
 10
1997.064495827251
 20
-2471.734868218507
 30
0.0
 11
1996.91449582725
 21
-2472.484868218507
 31
0.0
  0
LINE
  5
2DE83
102
{ACAD_REACTORS
330
2DF3C
102
}
330
18
100
AcDbEntity
  8
1PHANTOM
100
AcDbLine
 10
1989.91449582725
 20
-2467.484868218507
 30
0.0
 11
1989.76449582725
 21
-2468.234868218507
 31
0.0
  0
LINE
  5
2DE84
102
{ACAD_REACTORS
330
2DF3C
102
}
330
18
100
AcDbEntity
  8
1PHANTOM
100
AcDbLine
 10
1991.91449582725
 20
-2467.484868218507
 30
0.0
 11
1991.76449582725
 21
-2468.234868218507
 31
0.0
  0
LINE
  5
2DE85
102
{ACAD_REACTORS
330
2DF3C
102
}
330
18
100
AcDbEntity
  8
1PHANTOM
100
AcDbLine
 10
1985.91449582725
 20
-2467.484868218507
 30
0.0
 11
1985.76449582725
 21
-2468.234868218507
 31
0.0
  0
LINE
  5
2DE86
102
{ACAD_REACTORS
330
2DF3C
102
}
330
18
100
AcDbEntity
  8
1PHANTOM
100
AcDbLine
 10
1987.91449582725
 20
-2467.484868218507
 30
0.0
 11
1987.76449582725
 21
-2468.234868218507
 31
0.0
  0
LINE
  5
2DE87
102
{ACAD_REACTORS
330
2DF3C
102
}
330
18
100
AcDbEntity
  8
1PHANTOM
100
AcDbLine
 10
1991.91449582725
 20
-2467.484868218507
 30
0.0
 11
1992.91449582725
 21
-2472.484868218507
 31
0.0
  0
LINE
  5
2DE88
102
{ACAD_REACTORS
330
2DF3C
102
}
330
18
100
AcDbEntity
  8
1PHANTOM
100
AcDbLine
 10
1989.91449582725
 20
-2467.484868218507
 30
0.0
 11
1990.91449582725
 21
-2472.484868218507
 31
0.0
  0
LINE
  5
2DE89
102
{ACAD_REACTORS
330
2DF3C
102
}
330
18
100
AcDbEntity
  8
1PHANTOM
100
AcDbLine
 10
1987.91449582725
 20
-2467.484868218507
 30
0.0
 11
1988.91449582725
 21
-2472.484868218507
 31
0.0
  0
LINE
  5
2DE8A
102
{ACAD_REACTORS
330
2DF3C
102
}
330
18
100
AcDbEntity
  8
1PHANTOM
100
AcDbLine
 10
1985.91449582725
 20
-2467.484868218507
 30
0.0
 11
1986.91449582725
 21
-2472.484868218507
 31
0.0
  0
LINE
  5
2DE8B
102
{ACAD_REACTORS
330
2DF3C
102
}
330
18
100
AcDbEntity
  8
1PHANTOM
100
AcDbLine
 10
1989.064495827251
 20
-2471.734868218507
 30
0.0
 11
1988.91449582725
 21
-2472.484868218507
 31
0.0
  0
LINE
  5
2DE8C
102
{ACAD_REACTORS
330
2DF3C
102
}
330
18
100
AcDbEntity
  8
1PHANTOM
100
AcDbLine
 10
1991.064495827251
 20
-2471.734868218507
 30
0.0
 11
1990.91449582725
 21
-2472.484868218507
 31
0.0
  0
LINE
  5
2DE8D
102
{ACAD_REACTORS
330
2DF3C
102
}
330
18
100
AcDbEntity
  8
1PHANTOM
100
AcDbLine
 10
1985.064495827251
 20
-2471.734868218507
 30
0.0
 11
1984.91449582725
 21
-2472.484868218507
 31
0.0
  0
LINE
  5
2DE8E
102
{ACAD_REACTORS
330
2DF3C
102
}
330
18
100
AcDbEntity
  8
1PHANTOM
100
AcDbLine
 10
1987.064495827251
 20
-2471.734868218507
 30
0.0
 11
1986.91449582725
 21
-2472.484868218507
 31
0.0
  0
LINE
  5
2DE8F
102
{ACAD_REACTORS
330
2DF3C
102
}
330
18
100
AcDbEntity
  8
1PHANTOM
100
AcDbLine
 10
1967.91449582725
 20
-2467.484868218507
 30
0.0
 11
1968.91449582725
 21
-2472.484868218507
 31
0.0
  0
LINE
  5
2DE90
102
{ACAD_REACTORS
330
2DF3C
102
}
330
18
100
AcDbEntity
  8
1PHANTOM
100
AcDbLine
 10
1975.91449582725
 20
-2467.484868218507
 30
0.0
 11
1976.91449582725
 21
-2472.484868218507
 31
0.0
  0
LINE
  5
2DE91
102
{ACAD_REACTORS
330
2DF3C
102
}
330
18
100
AcDbEntity
  8
1PHANTOM
100
AcDbLine
 10
1983.91449582725
 20
-2467.484868218507
 30
0.0
 11
1983.76449582725
 21
-2468.234868218507
 31
0.0
  0
LINE
  5
2DE92
102
{ACAD_REACTORS
330
2DF3C
102
}
330
18
100
AcDbEntity
  8
1PHANTOM
100
AcDbLine
 10
1981.91449582725
 20
-2467.484868218507
 30
0.0
 11
1981.76449582725
 21
-2468.234868218507
 31
0.0
  0
LINE
  5
2DE93
102
{ACAD_REACTORS
330
2DF3C
102
}
330
18
100
AcDbEntity
  8
1PHANTOM
100
AcDbLine
 10
1979.91449582725
 20
-2467.484868218507
 30
0.0
 11
1979.76449582725
 21
-2468.234868218507
 31
0.0
  0
LINE
  5
2DE94
102
{ACAD_REACTORS
330
2DF3C
102
}
330
18
100
AcDbEntity
  8
1PHANTOM
100
AcDbLine
 10
1977.91449582725
 20
-2467.484868218507
 30
0.0
 11
1977.76449582725
 21
-2468.234868218507
 31
0.0
  0
LINE
  5
2DE95
102
{ACAD_REACTORS
330
2DF3C
102
}
330
18
100
AcDbEntity
  8
1PHANTOM
100
AcDbLine
 10
1981.91449582725
 20
-2467.484868218507
 30
0.0
 11
1982.91449582725
 21
-2472.484868218507
 31
0.0
  0
LINE
  5
2DE96
102
{ACAD_REACTORS
330
2DF3C
102
}
330
18
100
AcDbEntity
  8
1PHANTOM
100
AcDbLine
 10
1979.91449582725
 20
-2467.484868218507
 30
0.0
 11
1980.91449582725
 21
-2472.484868218507
 31
0.0
  0
LINE
  5
2DE97
102
{ACAD_REACTORS
330
2DF3C
102
}
330
18
100
AcDbEntity
  8
1PHANTOM
100
AcDbLine
 10
1977.91449582725
 20
-2467.484868218507
 30
0.0
 11
1978.91449582725
 21
-2472.484868218507
 31
0.0
  0
LINE
  5
2DE98
102
{ACAD_REACTORS
330
2DF3C
102
}
330
18
100
AcDbEntity
  8
1PHANTOM
100
AcDbLine
 10
1983.064495827251
 20
-2471.734868218507
 30
0.0
 11
1982.91449582725
 21
-2472.484868218507
 31
0.0
  0
LINE
  5
2DE99
102
{ACAD_REACTORS
330
2DF3C
102
}
330
18
100
AcDbEntity
  8
1PHANTOM
100
AcDbLine
 10
1981.064495827251
 20
-2471.734868218507
 30
0.0
 11
1980.91449582725
 21
-2472.484868218507
 31
0.0
  0
LINE
  5
2DE9A
102
{ACAD_REACTORS
330
2DF3C
102
}
330
18
100
AcDbEntity
  8
1PHANTOM
100
AcDbLine
 10
1979.064495827251
 20
-2471.734868218507
 30
0.0
 11
1978.91449582725
 21
-2472.484868218507
 31
0.0
  0
LINE
  5
2DE9B
102
{ACAD_REACTORS
330
2DF3C
102
}
330
18
100
AcDbEntity
  8
1PHANTOM
100
AcDbLine
 10
1977.064495827251
 20
-2471.734868218507
 30
0.0
 11
1976.91449582725
 21
-2472.484868218507
 31
0.0
  0
LINE
  5
2DE9C
102
{ACAD_REACTORS
330
2DF3C
102
}
330
18
100
AcDbEntity
  8
1PHANTOM
100
AcDbLine
 10
1971.91449582725
 20
-2467.484868218507
 30
0.0
 11
1971.76449582725
 21
-2468.234868218507
 31
0.0
  0
LINE
  5
2DE9D
102
{ACAD_REACTORS
330
2DF3C
102
}
330
18
100
AcDbEntity
  8
1PHANTOM
100
AcDbLine
 10
1973.91449582725
 20
-2467.484868218507
 30
0.0
 11
1973.76449582725
 21
-2468.234868218507
 31
0.0
  0
LINE
  5
2DE9E
102
{ACAD_REACTORS
330
2DF3C
102
}
330
18
100
AcDbEntity
  8
1PHANTOM
100
AcDbLine
 10
1975.91449582725
 20
-2467.484868218507
 30
0.0
 11
1975.76449582725
 21
-2468.234868218507
 31
0.0
  0
LINE
  5
2DE9F
102
{ACAD_REACTORS
330
2DF3C
102
}
330
18
100
AcDbEntity
  8
1PHANTOM
100
AcDbLine
 10
1969.91449582725
 20
-2467.484868218507
 30
0.0
 11
1969.76449582725
 21
-2468.234868218507
 31
0.0
  0
LINE
  5
2DEA0
102
{ACAD_REACTORS
330
2DF3C
102
}
330
18
100
AcDbEntity
  8
1PHANTOM
100
AcDbLine
 10
1973.91449582725
 20
-2467.484868218507
 30
0.0
 11
1974.91449582725
 21
-2472.484868218507
 31
0.0
  0
LINE
  5
2DEA1
102
{ACAD_REACTORS
330
2DF3C
102
}
330
18
100
AcDbEntity
  8
1PHANTOM
100
AcDbLine
 10
1971.91449582725
 20
-2467.484868218507
 30
0.0
 11
1972.91449582725
 21
-2472.484868218507
 31
0.0
  0
LINE
  5
2DEA2
102
{ACAD_REACTORS
330
2DF3C
102
}
330
18
100
AcDbEntity
  8
1PHANTOM
100
AcDbLine
 10
1969.91449582725
 20
-2467.484868218507
 30
0.0
 11
1970.91449582725
 21
-2472.484868218507
 31
0.0
  0
LINE
  5
2DEA3
102
{ACAD_REACTORS
330
2DF3C
102
}
330
18
100
AcDbEntity
  8
1PHANTOM
100
AcDbLine
 10
1973.064495827251
 20
-2471.734868218507
 30
0.0
 11
1972.91449582725
 21
-2472.484868218507
 31
0.0
  0
LINE
  5
2DEA4
102
{ACAD_REACTORS
330
2DF3C
102
}
330
18
100
AcDbEntity
  8
1PHANTOM
100
AcDbLine
 10
1975.064495827251
 20
-2471.734868218507
 30
0.0
 11
1974.91449582725
 21
-2472.484868218507
 31
0.0
  0
LINE
  5
2DEA5
102
{ACAD_REACTORS
330
2DF3C
102
}
330
18
100
AcDbEntity
  8
1PHANTOM
100
AcDbLine
 10
1971.064495827251
 20
-2471.734868218507
 30
0.0
 11
1970.91449582725
 21
-2472.484868218507
 31
0.0
  0
LINE
  5
2DEA6
102
{ACAD_REACTORS
330
2DF3C
102
}
330
18
100
AcDbEntity
  8
1PHANTOM
100
AcDbLine
 10
1969.064495827251
 20
-2471.734868218507
 30
0.0
 11
1968.91449582725
 21
-2472.484868218507
 31
0.0
  0
LINE
  5
2DEA7
102
{ACAD_REACTORS
330
2DF3C
102
}
330
18
100
AcDbEntity
  8
1PHANTOM
100
AcDbLine
 10
1967.91449582725
 20
-2467.484868218507
 30
0.0
 11
1967.76449582725
 21
-2468.234868218507
 31
0.0
  0
LINE
  5
2DEA8
102
{ACAD_REACTORS
330
2DF3C
102
}
330
18
100
AcDbEntity
  8
1PHANTOM
100
AcDbLine
 10
1917.796630241204
 20
-2474.734868218507
 30
0.0
 11
1917.796630241204
 21
-2465.234868218507
 31
0.0
  0
LINE
  5
2DEA9
102
{ACAD_REACTORS
330
2DF3D
102
}
330
18
100
AcDbEntity
  8
1PHANTOM
100
AcDbLine
 10
1962.746630241206
 20
-2124.73486821851
 30
0.0
 11
1961.746630241206
 21
-2124.73486821851
 31
0.0
  0
ARC
  5
2DEAA
102
{ACAD_REACTORS
330
2DF3D
102
}
330
18
100
AcDbEntity
  8
1PHANTOM
100
AcDbCircle
 10
1968.51746357454
 20
-2119.98486821851
 30
0.0
 40
8.270833333333439
100
AcDbArc
 50
144.9488632525423
 51
215.0511367474576
  0
LINE
  5
2DEAB
102
{ACAD_REACTORS
330
2DF3D
102
}
330
18
100
AcDbEntity
  8
1PHANTOM
100
AcDbLine
 10
1962.746630241206
 20
-2115.23486821851
 30
0.0
 11
1961.746630241206
 21
-2115.23486821851
 31
0.0
  0
LINE
  5
2DEAC
102
{ACAD_REACTORS
330
2DF3D
102
}
330
18
100
AcDbEntity
  8
1CENTER
100
AcDbLine
 10
2004.348305241206
 20
-2119.98486821851
 30
0.0
 11
1958.904199667237
 21
-2119.98486821851
 31
0.0
  0
LINE
  5
2DEAD
102
{ACAD_REACTORS
330
2DF3D
102
}
330
18
100
AcDbEntity
  8
1PHANTOM
100
AcDbLine
 10
1961.746630241206
 20
-2124.517931398177
 30
0.0
 11
1961.746630241206
 21
-2115.479500433705
 31
0.0
  0
LINE
  5
2DEAE
102
{ACAD_REACTORS
330
2DF3D
102
}
330
18
100
AcDbEntity
  8
1PHANTOM
100
AcDbLine
 10
1978.864495827252
 20
-2117.48486821851
 30
0.0
 11
1979.864495827252
 21
-2122.48486821851
 31
0.0
  0
LINE
  5
2DEAF
102
{ACAD_REACTORS
330
2DF3D
102
}
330
18
100
AcDbEntity
  8
1PHANTOM
100
AcDbLine
 10
1996.215541327961
 20
-2118.23486821851
 30
0.0
 11
1962.746630241206
 21
-2118.23486821851
 31
0.0
  0
LINE
  5
2DEB0
102
{ACAD_REACTORS
330
2DF3D
102
}
330
18
100
AcDbEntity
  8
1PHANTOM
100
AcDbLine
 10
2002.746630241206
 20
-2119.98486821851
 30
0.0
 11
1996.215541327961
 21
-2118.23486821851
 31
0.0
  0
LINE
  5
2DEB1
102
{ACAD_REACTORS
330
2DF3D
102
}
330
18
100
AcDbEntity
  8
1PHANTOM
100
AcDbLine
 10
2002.746630241206
 20
-2119.98486821851
 30
0.0
 11
1996.21554132796
 21
-2121.73486821851
 31
0.0
  0
LINE
  5
2DEB2
102
{ACAD_REACTORS
330
2DF3D
102
}
330
18
100
AcDbEntity
  8
1PHANTOM
100
AcDbLine
 10
1996.21554132796
 20
-2121.73486821851
 30
0.0
 11
1962.746630241206
 21
-2121.73486821851
 31
0.0
  0
LINE
  5
2DEB3
102
{ACAD_REACTORS
330
2DF3D
102
}
330
18
100
AcDbEntity
  8
1PHANTOM
100
AcDbLine
 10
1996.901242439045
 20
-2117.668601277474
 30
0.0
 11
1996.751242439045
 21
-2118.418601277474
 31
0.0
  0
LINE
  5
2DEB4
102
{ACAD_REACTORS
330
2DF3D
102
}
330
18
100
AcDbEntity
  8
1PHANTOM
100
AcDbLine
 10
1996.901242439045
 20
-2117.668601277474
 30
0.0
 11
1997.780623335263
 21
-2122.065505758565
 31
0.0
  0
LINE
  5
2DEB5
102
{ACAD_REACTORS
330
2DF3D
102
}
330
18
100
AcDbEntity
  8
1PHANTOM
100
AcDbLine
 10
2001.727167164641
 20
-2120.298224905454
 30
0.0
 11
2001.577167164641
 21
-2121.048224905454
 31
0.0
  0
LINE
  5
2DEB6
102
{ACAD_REACTORS
330
2DF3D
102
}
330
18
100
AcDbEntity
  8
1PHANTOM
100
AcDbLine
 10
2001.127739747148
 20
-2118.801087817993
 30
0.0
 11
2000.977739747149
 21
-2119.551087817993
 31
0.0
  0
LINE
  5
2DEB7
102
{ACAD_REACTORS
330
2DF3D
102
}
330
18
100
AcDbEntity
  8
1PHANTOM
100
AcDbLine
 10
2001.127739747148
 20
-2118.801087817993
 30
0.0
 11
2001.577167164641
 21
-2121.048224905454
 31
0.0
  0
LINE
  5
2DEB8
102
{ACAD_REACTORS
330
2DF3D
102
}
330
18
100
AcDbEntity
  8
1PHANTOM
100
AcDbLine
 10
1997.930623335263
 20
-2121.315505758565
 30
0.0
 11
1997.780623335263
 21
-2122.065505758565
 31
0.0
  0
LINE
  5
2DEB9
102
{ACAD_REACTORS
330
2DF3D
102
}
330
18
100
AcDbEntity
  8
1PHANTOM
100
AcDbLine
 10
1999.828895249952
 20
-2120.80686533201
 30
0.0
 11
1999.678895249952
 21
-2121.55686533201
 31
0.0
  0
LINE
  5
2DEBA
102
{ACAD_REACTORS
330
2DF3D
102
}
330
18
100
AcDbEntity
  8
1PHANTOM
100
AcDbLine
 10
1999.014491093096
 20
-2118.234844547734
 30
0.0
 11
1998.864491093097
 21
-2118.984844547734
 31
0.0
  0
LINE
  5
2DEBB
102
{ACAD_REACTORS
330
2DF3D
102
}
330
18
100
AcDbEntity
  8
1PHANTOM
100
AcDbLine
 10
1999.014491093096
 20
-2118.234844547734
 30
0.0
 11
1999.678895249952
 21
-2121.55686533201
 31
0.0
  0
LINE
  5
2DEBC
102
{ACAD_REACTORS
330
2DF3D
102
}
330
18
100
AcDbEntity
  8
1PHANTOM
100
AcDbLine
 10
1988.014495827252
 20
-2121.73486821851
 30
0.0
 11
1987.864495827252
 21
-2122.48486821851
 31
0.0
  0
LINE
  5
2DEBD
102
{ACAD_REACTORS
330
2DF3D
102
}
330
18
100
AcDbEntity
  8
1PHANTOM
100
AcDbLine
 10
1990.864495827252
 20
-2117.48486821851
 30
0.0
 11
1990.714495827252
 21
-2118.23486821851
 31
0.0
  0
LINE
  5
2DEBE
102
{ACAD_REACTORS
330
2DF3D
102
}
330
18
100
AcDbEntity
  8
1PHANTOM
100
AcDbLine
 10
1988.864495827252
 20
-2117.48486821851
 30
0.0
 11
1988.714495827252
 21
-2118.23486821851
 31
0.0
  0
LINE
  5
2DEBF
102
{ACAD_REACTORS
330
2DF3D
102
}
330
18
100
AcDbEntity
  8
1PHANTOM
100
AcDbLine
 10
1988.864495827252
 20
-2117.48486821851
 30
0.0
 11
1989.864495827252
 21
-2122.48486821851
 31
0.0
  0
LINE
  5
2DEC0
102
{ACAD_REACTORS
330
2DF3D
102
}
330
18
100
AcDbEntity
  8
1PHANTOM
100
AcDbLine
 10
1992.864495827252
 20
-2117.48486821851
 30
0.0
 11
1992.714495827252
 21
-2118.23486821851
 31
0.0
  0
LINE
  5
2DEC1
102
{ACAD_REACTORS
330
2DF3D
102
}
330
18
100
AcDbEntity
  8
1PHANTOM
100
AcDbLine
 10
1994.864495827252
 20
-2117.48486821851
 30
0.0
 11
1994.714495827252
 21
-2118.23486821851
 31
0.0
  0
LINE
  5
2DEC2
102
{ACAD_REACTORS
330
2DF3D
102
}
330
18
100
AcDbEntity
  8
1PHANTOM
100
AcDbLine
 10
1994.864495827252
 20
-2117.48486821851
 30
0.0
 11
1995.864495827252
 21
-2122.48486821851
 31
0.0
  0
LINE
  5
2DEC3
102
{ACAD_REACTORS
330
2DF3D
102
}
330
18
100
AcDbEntity
  8
1PHANTOM
100
AcDbLine
 10
1992.864495827252
 20
-2117.48486821851
 30
0.0
 11
1993.864495827252
 21
-2122.48486821851
 31
0.0
  0
LINE
  5
2DEC4
102
{ACAD_REACTORS
330
2DF3D
102
}
330
18
100
AcDbEntity
  8
1PHANTOM
100
AcDbLine
 10
1990.864495827252
 20
-2117.48486821851
 30
0.0
 11
1991.864495827252
 21
-2122.48486821851
 31
0.0
  0
LINE
  5
2DEC5
102
{ACAD_REACTORS
330
2DF3D
102
}
330
18
100
AcDbEntity
  8
1PHANTOM
100
AcDbLine
 10
1996.014495827252
 20
-2121.73486821851
 30
0.0
 11
1995.864495827252
 21
-2122.48486821851
 31
0.0
  0
LINE
  5
2DEC6
102
{ACAD_REACTORS
330
2DF3D
102
}
330
18
100
AcDbEntity
  8
1PHANTOM
100
AcDbLine
 10
1994.014495827252
 20
-2121.73486821851
 30
0.0
 11
1993.864495827252
 21
-2122.48486821851
 31
0.0
  0
LINE
  5
2DEC7
102
{ACAD_REACTORS
330
2DF3D
102
}
330
18
100
AcDbEntity
  8
1PHANTOM
100
AcDbLine
 10
1990.014495827252
 20
-2121.73486821851
 30
0.0
 11
1989.864495827252
 21
-2122.48486821851
 31
0.0
  0
LINE
  5
2DEC8
102
{ACAD_REACTORS
330
2DF3D
102
}
330
18
100
AcDbEntity
  8
1PHANTOM
100
AcDbLine
 10
1992.014495827252
 20
-2121.73486821851
 30
0.0
 11
1991.864495827252
 21
-2122.48486821851
 31
0.0
  0
LINE
  5
2DEC9
102
{ACAD_REACTORS
330
2DF3D
102
}
330
18
100
AcDbEntity
  8
1PHANTOM
100
AcDbLine
 10
1984.864495827252
 20
-2117.48486821851
 30
0.0
 11
1984.714495827252
 21
-2118.23486821851
 31
0.0
  0
LINE
  5
2DECA
102
{ACAD_REACTORS
330
2DF3D
102
}
330
18
100
AcDbEntity
  8
1PHANTOM
100
AcDbLine
 10
1986.864495827252
 20
-2117.48486821851
 30
0.0
 11
1986.714495827252
 21
-2118.23486821851
 31
0.0
  0
LINE
  5
2DECB
102
{ACAD_REACTORS
330
2DF3D
102
}
330
18
100
AcDbEntity
  8
1PHANTOM
100
AcDbLine
 10
1980.864495827252
 20
-2117.48486821851
 30
0.0
 11
1980.714495827252
 21
-2118.23486821851
 31
0.0
  0
LINE
  5
2DECC
102
{ACAD_REACTORS
330
2DF3D
102
}
330
18
100
AcDbEntity
  8
1PHANTOM
100
AcDbLine
 10
1982.864495827252
 20
-2117.48486821851
 30
0.0
 11
1982.714495827252
 21
-2118.23486821851
 31
0.0
  0
LINE
  5
2DECD
102
{ACAD_REACTORS
330
2DF3D
102
}
330
18
100
AcDbEntity
  8
1PHANTOM
100
AcDbLine
 10
1986.864495827252
 20
-2117.48486821851
 30
0.0
 11
1987.864495827252
 21
-2122.48486821851
 31
0.0
  0
LINE
  5
2DECE
102
{ACAD_REACTORS
330
2DF3D
102
}
330
18
100
AcDbEntity
  8
1PHANTOM
100
AcDbLine
 10
1984.864495827252
 20
-2117.48486821851
 30
0.0
 11
1985.864495827252
 21
-2122.48486821851
 31
0.0
  0
LINE
  5
2DECF
102
{ACAD_REACTORS
330
2DF3D
102
}
330
18
100
AcDbEntity
  8
1PHANTOM
100
AcDbLine
 10
1982.864495827252
 20
-2117.48486821851
 30
0.0
 11
1983.864495827252
 21
-2122.48486821851
 31
0.0
  0
LINE
  5
2DED0
102
{ACAD_REACTORS
330
2DF3D
102
}
330
18
100
AcDbEntity
  8
1PHANTOM
100
AcDbLine
 10
1980.864495827252
 20
-2117.48486821851
 30
0.0
 11
1981.864495827252
 21
-2122.48486821851
 31
0.0
  0
LINE
  5
2DED1
102
{ACAD_REACTORS
330
2DF3D
102
}
330
18
100
AcDbEntity
  8
1PHANTOM
100
AcDbLine
 10
1984.014495827252
 20
-2121.73486821851
 30
0.0
 11
1983.864495827252
 21
-2122.48486821851
 31
0.0
  0
LINE
  5
2DED2
102
{ACAD_REACTORS
330
2DF3D
102
}
330
18
100
AcDbEntity
  8
1PHANTOM
100
AcDbLine
 10
1986.014495827252
 20
-2121.73486821851
 30
0.0
 11
1985.864495827252
 21
-2122.48486821851
 31
0.0
  0
LINE
  5
2DED3
102
{ACAD_REACTORS
330
2DF3D
102
}
330
18
100
AcDbEntity
  8
1PHANTOM
100
AcDbLine
 10
1980.014495827252
 20
-2121.73486821851
 30
0.0
 11
1979.864495827252
 21
-2122.48486821851
 31
0.0
  0
LINE
  5
2DED4
102
{ACAD_REACTORS
330
2DF3D
102
}
330
18
100
AcDbEntity
  8
1PHANTOM
100
AcDbLine
 10
1982.014495827252
 20
-2121.73486821851
 30
0.0
 11
1981.864495827252
 21
-2122.48486821851
 31
0.0
  0
LINE
  5
2DED5
102
{ACAD_REACTORS
330
2DF3D
102
}
330
18
100
AcDbEntity
  8
1PHANTOM
100
AcDbLine
 10
1962.864495827252
 20
-2117.48486821851
 30
0.0
 11
1963.864495827252
 21
-2122.48486821851
 31
0.0
  0
LINE
  5
2DED6
102
{ACAD_REACTORS
330
2DF3D
102
}
330
18
100
AcDbEntity
  8
1PHANTOM
100
AcDbLine
 10
1970.864495827252
 20
-2117.48486821851
 30
0.0
 11
1971.864495827252
 21
-2122.48486821851
 31
0.0
  0
LINE
  5
2DED7
102
{ACAD_REACTORS
330
2DF3D
102
}
330
18
100
AcDbEntity
  8
1PHANTOM
100
AcDbLine
 10
1978.864495827252
 20
-2117.48486821851
 30
0.0
 11
1978.714495827252
 21
-2118.23486821851
 31
0.0
  0
LINE
  5
2DED8
102
{ACAD_REACTORS
330
2DF3D
102
}
330
18
100
AcDbEntity
  8
1PHANTOM
100
AcDbLine
 10
1976.864495827252
 20
-2117.48486821851
 30
0.0
 11
1976.714495827252
 21
-2118.23486821851
 31
0.0
  0
LINE
  5
2DED9
102
{ACAD_REACTORS
330
2DF3D
102
}
330
18
100
AcDbEntity
  8
1PHANTOM
100
AcDbLine
 10
1974.864495827252
 20
-2117.48486821851
 30
0.0
 11
1974.714495827252
 21
-2118.23486821851
 31
0.0
  0
LINE
  5
2DEDA
102
{ACAD_REACTORS
330
2DF3D
102
}
330
18
100
AcDbEntity
  8
1PHANTOM
100
AcDbLine
 10
1972.864495827252
 20
-2117.48486821851
 30
0.0
 11
1972.714495827252
 21
-2118.23486821851
 31
0.0
  0
LINE
  5
2DEDB
102
{ACAD_REACTORS
330
2DF3D
102
}
330
18
100
AcDbEntity
  8
1PHANTOM
100
AcDbLine
 10
1976.864495827252
 20
-2117.48486821851
 30
0.0
 11
1977.864495827252
 21
-2122.48486821851
 31
0.0
  0
LINE
  5
2DEDC
102
{ACAD_REACTORS
330
2DF3D
102
}
330
18
100
AcDbEntity
  8
1PHANTOM
100
AcDbLine
 10
1974.864495827252
 20
-2117.48486821851
 30
0.0
 11
1975.864495827252
 21
-2122.48486821851
 31
0.0
  0
LINE
  5
2DEDD
102
{ACAD_REACTORS
330
2DF3D
102
}
330
18
100
AcDbEntity
  8
1PHANTOM
100
AcDbLine
 10
1972.864495827252
 20
-2117.48486821851
 30
0.0
 11
1973.864495827252
 21
-2122.48486821851
 31
0.0
  0
LINE
  5
2DEDE
102
{ACAD_REACTORS
330
2DF3D
102
}
330
18
100
AcDbEntity
  8
1PHANTOM
100
AcDbLine
 10
1978.014495827252
 20
-2121.73486821851
 30
0.0
 11
1977.864495827252
 21
-2122.48486821851
 31
0.0
  0
LINE
  5
2DEDF
102
{ACAD_REACTORS
330
2DF3D
102
}
330
18
100
AcDbEntity
  8
1PHANTOM
100
AcDbLine
 10
1976.014495827252
 20
-2121.73486821851
 30
0.0
 11
1975.864495827252
 21
-2122.48486821851
 31
0.0
  0
LINE
  5
2DEE0
102
{ACAD_REACTORS
330
2DF3D
102
}
330
18
100
AcDbEntity
  8
1PHANTOM
100
AcDbLine
 10
1974.014495827252
 20
-2121.73486821851
 30
0.0
 11
1973.864495827252
 21
-2122.48486821851
 31
0.0
  0
LINE
  5
2DEE1
102
{ACAD_REACTORS
330
2DF3D
102
}
330
18
100
AcDbEntity
  8
1PHANTOM
100
AcDbLine
 10
1972.014495827252
 20
-2121.73486821851
 30
0.0
 11
1971.864495827252
 21
-2122.48486821851
 31
0.0
  0
LINE
  5
2DEE2
102
{ACAD_REACTORS
330
2DF3D
102
}
330
18
100
AcDbEntity
  8
1PHANTOM
100
AcDbLine
 10
1966.864495827252
 20
-2117.48486821851
 30
0.0
 11
1966.714495827252
 21
-2118.23486821851
 31
0.0
  0
LINE
  5
2DEE3
102
{ACAD_REACTORS
330
2DF3D
102
}
330
18
100
AcDbEntity
  8
1PHANTOM
100
AcDbLine
 10
1968.864495827252
 20
-2117.48486821851
 30
0.0
 11
1968.714495827252
 21
-2118.23486821851
 31
0.0
  0
LINE
  5
2DEE4
102
{ACAD_REACTORS
330
2DF3D
102
}
330
18
100
AcDbEntity
  8
1PHANTOM
100
AcDbLine
 10
1970.864495827252
 20
-2117.48486821851
 30
0.0
 11
1970.714495827252
 21
-2118.23486821851
 31
0.0
  0
LINE
  5
2DEE5
102
{ACAD_REACTORS
330
2DF3D
102
}
330
18
100
AcDbEntity
  8
1PHANTOM
100
AcDbLine
 10
1964.864495827252
 20
-2117.48486821851
 30
0.0
 11
1964.714495827252
 21
-2118.23486821851
 31
0.0
  0
LINE
  5
2DEE6
102
{ACAD_REACTORS
330
2DF3D
102
}
330
18
100
AcDbEntity
  8
1PHANTOM
100
AcDbLine
 10
1968.864495827252
 20
-2117.48486821851
 30
0.0
 11
1969.864495827252
 21
-2122.48486821851
 31
0.0
  0
LINE
  5
2DEE7
102
{ACAD_REACTORS
330
2DF3D
102
}
330
18
100
AcDbEntity
  8
1PHANTOM
100
AcDbLine
 10
1966.864495827252
 20
-2117.48486821851
 30
0.0
 11
1967.864495827252
 21
-2122.48486821851
 31
0.0
  0
LINE
  5
2DEE8
102
{ACAD_REACTORS
330
2DF3D
102
}
330
18
100
AcDbEntity
  8
1PHANTOM
100
AcDbLine
 10
1964.864495827252
 20
-2117.48486821851
 30
0.0
 11
1965.864495827252
 21
-2122.48486821851
 31
0.0
  0
LINE
  5
2DEE9
102
{ACAD_REACTORS
330
2DF3D
102
}
330
18
100
AcDbEntity
  8
1PHANTOM
100
AcDbLine
 10
1968.014495827252
 20
-2121.73486821851
 30
0.0
 11
1967.864495827252
 21
-2122.48486821851
 31
0.0
  0
LINE
  5
2DEEA
102
{ACAD_REACTORS
330
2DF3D
102
}
330
18
100
AcDbEntity
  8
1PHANTOM
100
AcDbLine
 10
1970.014495827252
 20
-2121.73486821851
 30
0.0
 11
1969.864495827252
 21
-2122.48486821851
 31
0.0
  0
LINE
  5
2DEEB
102
{ACAD_REACTORS
330
2DF3D
102
}
330
18
100
AcDbEntity
  8
1PHANTOM
100
AcDbLine
 10
1966.014495827252
 20
-2121.73486821851
 30
0.0
 11
1965.864495827252
 21
-2122.48486821851
 31
0.0
  0
LINE
  5
2DEEC
102
{ACAD_REACTORS
330
2DF3D
102
}
330
18
100
AcDbEntity
  8
1PHANTOM
100
AcDbLine
 10
1964.014495827252
 20
-2121.73486821851
 30
0.0
 11
1963.864495827252
 21
-2122.48486821851
 31
0.0
  0
LINE
  5
2DEED
102
{ACAD_REACTORS
330
2DF3D
102
}
330
18
100
AcDbEntity
  8
1PHANTOM
100
AcDbLine
 10
1962.864495827252
 20
-2117.48486821851
 30
0.0
 11
1962.714495827252
 21
-2118.23486821851
 31
0.0
  0
LINE
  5
2DEEE
102
{ACAD_REACTORS
330
2DF3D
102
}
330
18
100
AcDbEntity
  8
1PHANTOM
100
AcDbLine
 10
1962.746630241206
 20
-2124.73486821851
 30
0.0
 11
1962.746630241206
 21
-2115.23486821851
 31
0.0
  0
LINE
  5
2DEEF
102
{ACAD_REACTORS
330
2DF3C
102
}
330
18
100
AcDbEntity
  8
1PHANTOM
100
AcDbLine
 10
1951.91449582725
 20
-2467.484868218507
 30
0.0
 11
1952.91449582725
 21
-2472.484868218507
 31
0.0
  0
LINE
  5
2DEF0
102
{ACAD_REACTORS
330
2DF3C
102
}
330
18
100
AcDbEntity
  8
1PHANTOM
100
AcDbLine
 10
1961.064495827251
 20
-2471.734868218507
 30
0.0
 11
1960.91449582725
 21
-2472.484868218507
 31
0.0
  0
LINE
  5
2DEF1
102
{ACAD_REACTORS
330
2DF3C
102
}
330
18
100
AcDbEntity
  8
1PHANTOM
100
AcDbLine
 10
1963.91449582725
 20
-2467.484868218507
 30
0.0
 11
1963.76449582725
 21
-2468.234868218507
 31
0.0
  0
LINE
  5
2DEF2
102
{ACAD_REACTORS
330
2DF3C
102
}
330
18
100
AcDbEntity
  8
1PHANTOM
100
AcDbLine
 10
1961.91449582725
 20
-2467.484868218507
 30
0.0
 11
1961.76449582725
 21
-2468.234868218507
 31
0.0
  0
LINE
  5
2DEF3
102
{ACAD_REACTORS
330
2DF3C
102
}
330
18
100
AcDbEntity
  8
1PHANTOM
100
AcDbLine
 10
1961.91449582725
 20
-2467.484868218507
 30
0.0
 11
1962.91449582725
 21
-2472.484868218507
 31
0.0
  0
LINE
  5
2DEF4
102
{ACAD_REACTORS
330
2DF3C
102
}
330
18
100
AcDbEntity
  8
1PHANTOM
100
AcDbLine
 10
1965.91449582725
 20
-2467.484868218507
 30
0.0
 11
1965.76449582725
 21
-2468.234868218507
 31
0.0
  0
LINE
  5
2DEF5
102
{ACAD_REACTORS
330
2DF3C
102
}
330
18
100
AcDbEntity
  8
1PHANTOM
100
AcDbLine
 10
1965.91449582725
 20
-2467.484868218507
 30
0.0
 11
1966.91449582725
 21
-2472.484868218507
 31
0.0
  0
LINE
  5
2DEF6
102
{ACAD_REACTORS
330
2DF3C
102
}
330
18
100
AcDbEntity
  8
1PHANTOM
100
AcDbLine
 10
1963.91449582725
 20
-2467.484868218507
 30
0.0
 11
1964.91449582725
 21
-2472.484868218507
 31
0.0
  0
LINE
  5
2DEF7
102
{ACAD_REACTORS
330
2DF3C
102
}
330
18
100
AcDbEntity
  8
1PHANTOM
100
AcDbLine
 10
1967.064495827251
 20
-2471.734868218507
 30
0.0
 11
1966.91449582725
 21
-2472.484868218507
 31
0.0
  0
LINE
  5
2DEF8
102
{ACAD_REACTORS
330
2DF3C
102
}
330
18
100
AcDbEntity
  8
1PHANTOM
100
AcDbLine
 10
1963.064495827251
 20
-2471.734868218507
 30
0.0
 11
1962.91449582725
 21
-2472.484868218507
 31
0.0
  0
LINE
  5
2DEF9
102
{ACAD_REACTORS
330
2DF3C
102
}
330
18
100
AcDbEntity
  8
1PHANTOM
100
AcDbLine
 10
1965.064495827251
 20
-2471.734868218507
 30
0.0
 11
1964.91449582725
 21
-2472.484868218507
 31
0.0
  0
LINE
  5
2DEFA
102
{ACAD_REACTORS
330
2DF3C
102
}
330
18
100
AcDbEntity
  8
1PHANTOM
100
AcDbLine
 10
1957.91449582725
 20
-2467.484868218507
 30
0.0
 11
1957.76449582725
 21
-2468.234868218507
 31
0.0
  0
LINE
  5
2DEFB
102
{ACAD_REACTORS
330
2DF3C
102
}
330
18
100
AcDbEntity
  8
1PHANTOM
100
AcDbLine
 10
1959.91449582725
 20
-2467.484868218507
 30
0.0
 11
1959.76449582725
 21
-2468.234868218507
 31
0.0
  0
LINE
  5
2DEFC
102
{ACAD_REACTORS
330
2DF3C
102
}
330
18
100
AcDbEntity
  8
1PHANTOM
100
AcDbLine
 10
1953.91449582725
 20
-2467.484868218507
 30
0.0
 11
1953.76449582725
 21
-2468.234868218507
 31
0.0
  0
LINE
  5
2DEFD
102
{ACAD_REACTORS
330
2DF3C
102
}
330
18
100
AcDbEntity
  8
1PHANTOM
100
AcDbLine
 10
1955.91449582725
 20
-2467.484868218507
 30
0.0
 11
1955.76449582725
 21
-2468.234868218507
 31
0.0
  0
LINE
  5
2DEFE
102
{ACAD_REACTORS
330
2DF3C
102
}
330
18
100
AcDbEntity
  8
1PHANTOM
100
AcDbLine
 10
1959.91449582725
 20
-2467.484868218507
 30
0.0
 11
1960.91449582725
 21
-2472.484868218507
 31
0.0
  0
LINE
  5
2DEFF
102
{ACAD_REACTORS
330
2DF3C
102
}
330
18
100
AcDbEntity
  8
1PHANTOM
100
AcDbLine
 10
1957.91449582725
 20
-2467.484868218507
 30
0.0
 11
1958.91449582725
 21
-2472.484868218507
 31
0.0
  0
LINE
  5
2DF00
102
{ACAD_REACTORS
330
2DF3C
102
}
330
18
100
AcDbEntity
  8
1PHANTOM
100
AcDbLine
 10
1955.91449582725
 20
-2467.484868218507
 30
0.0
 11
1956.91449582725
 21
-2472.484868218507
 31
0.0
  0
LINE
  5
2DF01
102
{ACAD_REACTORS
330
2DF3C
102
}
330
18
100
AcDbEntity
  8
1PHANTOM
100
AcDbLine
 10
1953.91449582725
 20
-2467.484868218507
 30
0.0
 11
1954.91449582725
 21
-2472.484868218507
 31
0.0
  0
LINE
  5
2DF02
102
{ACAD_REACTORS
330
2DF3C
102
}
330
18
100
AcDbEntity
  8
1PHANTOM
100
AcDbLine
 10
1957.064495827251
 20
-2471.734868218507
 30
0.0
 11
1956.91449582725
 21
-2472.484868218507
 31
0.0
  0
LINE
  5
2DF03
102
{ACAD_REACTORS
330
2DF3C
102
}
330
18
100
AcDbEntity
  8
1PHANTOM
100
AcDbLine
 10
1959.064495827251
 20
-2471.734868218507
 30
0.0
 11
1958.91449582725
 21
-2472.484868218507
 31
0.0
  0
LINE
  5
2DF04
102
{ACAD_REACTORS
330
2DF3C
102
}
330
18
100
AcDbEntity
  8
1PHANTOM
100
AcDbLine
 10
1953.064495827251
 20
-2471.734868218507
 30
0.0
 11
1952.91449582725
 21
-2472.484868218507
 31
0.0
  0
LINE
  5
2DF05
102
{ACAD_REACTORS
330
2DF3C
102
}
330
18
100
AcDbEntity
  8
1PHANTOM
100
AcDbLine
 10
1955.064495827251
 20
-2471.734868218507
 30
0.0
 11
1954.91449582725
 21
-2472.484868218507
 31
0.0
  0
LINE
  5
2DF06
102
{ACAD_REACTORS
330
2DF3C
102
}
330
18
100
AcDbEntity
  8
1PHANTOM
100
AcDbLine
 10
1935.91449582725
 20
-2467.484868218507
 30
0.0
 11
1936.91449582725
 21
-2472.484868218507
 31
0.0
  0
LINE
  5
2DF07
102
{ACAD_REACTORS
330
2DF3C
102
}
330
18
100
AcDbEntity
  8
1PHANTOM
100
AcDbLine
 10
1943.91449582725
 20
-2467.484868218507
 30
0.0
 11
1944.91449582725
 21
-2472.484868218507
 31
0.0
  0
LINE
  5
2DF08
102
{ACAD_REACTORS
330
2DF3C
102
}
330
18
100
AcDbEntity
  8
1PHANTOM
100
AcDbLine
 10
1951.91449582725
 20
-2467.484868218507
 30
0.0
 11
1951.76449582725
 21
-2468.234868218507
 31
0.0
  0
LINE
  5
2DF09
102
{ACAD_REACTORS
330
2DF3C
102
}
330
18
100
AcDbEntity
  8
1PHANTOM
100
AcDbLine
 10
1949.91449582725
 20
-2467.484868218507
 30
0.0
 11
1949.76449582725
 21
-2468.234868218507
 31
0.0
  0
LINE
  5
2DF0A
102
{ACAD_REACTORS
330
2DF3C
102
}
330
18
100
AcDbEntity
  8
1PHANTOM
100
AcDbLine
 10
1947.91449582725
 20
-2467.484868218507
 30
0.0
 11
1947.76449582725
 21
-2468.234868218507
 31
0.0
  0
LINE
  5
2DF0B
102
{ACAD_REACTORS
330
2DF3C
102
}
330
18
100
AcDbEntity
  8
1PHANTOM
100
AcDbLine
 10
1945.91449582725
 20
-2467.484868218507
 30
0.0
 11
1945.76449582725
 21
-2468.234868218507
 31
0.0
  0
LINE
  5
2DF0C
102
{ACAD_REACTORS
330
2DF3C
102
}
330
18
100
AcDbEntity
  8
1PHANTOM
100
AcDbLine
 10
1949.91449582725
 20
-2467.484868218507
 30
0.0
 11
1950.91449582725
 21
-2472.484868218507
 31
0.0
  0
LINE
  5
2DF0D
102
{ACAD_REACTORS
330
2DF3C
102
}
330
18
100
AcDbEntity
  8
1PHANTOM
100
AcDbLine
 10
1947.91449582725
 20
-2467.484868218507
 30
0.0
 11
1948.91449582725
 21
-2472.484868218507
 31
0.0
  0
LINE
  5
2DF0E
102
{ACAD_REACTORS
330
2DF3C
102
}
330
18
100
AcDbEntity
  8
1PHANTOM
100
AcDbLine
 10
1945.91449582725
 20
-2467.484868218507
 30
0.0
 11
1946.91449582725
 21
-2472.484868218507
 31
0.0
  0
LINE
  5
2DF0F
102
{ACAD_REACTORS
330
2DF3C
102
}
330
18
100
AcDbEntity
  8
1PHANTOM
100
AcDbLine
 10
1951.064495827251
 20
-2471.734868218507
 30
0.0
 11
1950.91449582725
 21
-2472.484868218507
 31
0.0
  0
LINE
  5
2DF10
102
{ACAD_REACTORS
330
2DF3C
102
}
330
18
100
AcDbEntity
  8
1PHANTOM
100
AcDbLine
 10
1949.064495827251
 20
-2471.734868218507
 30
0.0
 11
1948.91449582725
 21
-2472.484868218507
 31
0.0
  0
LINE
  5
2DF11
102
{ACAD_REACTORS
330
2DF3C
102
}
330
18
100
AcDbEntity
  8
1PHANTOM
100
AcDbLine
 10
1947.06449582725
 20
-2471.734868218507
 30
0.0
 11
1946.91449582725
 21
-2472.484868218507
 31
0.0
  0
LINE
  5
2DF12
102
{ACAD_REACTORS
330
2DF3C
102
}
330
18
100
AcDbEntity
  8
1PHANTOM
100
AcDbLine
 10
1945.06449582725
 20
-2471.734868218507
 30
0.0
 11
1944.91449582725
 21
-2472.484868218507
 31
0.0
  0
LINE
  5
2DF13
102
{ACAD_REACTORS
330
2DF3C
102
}
330
18
100
AcDbEntity
  8
1PHANTOM
100
AcDbLine
 10
1939.91449582725
 20
-2467.484868218507
 30
0.0
 11
1939.76449582725
 21
-2468.234868218507
 31
0.0
  0
LINE
  5
2DF14
102
{ACAD_REACTORS
330
2DF3C
102
}
330
18
100
AcDbEntity
  8
1PHANTOM
100
AcDbLine
 10
1941.91449582725
 20
-2467.484868218507
 30
0.0
 11
1941.76449582725
 21
-2468.234868218507
 31
0.0
  0
LINE
  5
2DF15
102
{ACAD_REACTORS
330
2DF3C
102
}
330
18
100
AcDbEntity
  8
1PHANTOM
100
AcDbLine
 10
1943.91449582725
 20
-2467.484868218507
 30
0.0
 11
1943.76449582725
 21
-2468.234868218507
 31
0.0
  0
LINE
  5
2DF16
102
{ACAD_REACTORS
330
2DF3C
102
}
330
18
100
AcDbEntity
  8
1PHANTOM
100
AcDbLine
 10
1937.91449582725
 20
-2467.484868218507
 30
0.0
 11
1937.76449582725
 21
-2468.234868218507
 31
0.0
  0
LINE
  5
2DF17
102
{ACAD_REACTORS
330
2DF3C
102
}
330
18
100
AcDbEntity
  8
1PHANTOM
100
AcDbLine
 10
1941.91449582725
 20
-2467.484868218507
 30
0.0
 11
1942.91449582725
 21
-2472.484868218507
 31
0.0
  0
LINE
  5
2DF18
102
{ACAD_REACTORS
330
2DF3C
102
}
330
18
100
AcDbEntity
  8
1PHANTOM
100
AcDbLine
 10
1939.91449582725
 20
-2467.484868218507
 30
0.0
 11
1940.91449582725
 21
-2472.484868218507
 31
0.0
  0
LINE
  5
2DF19
102
{ACAD_REACTORS
330
2DF3C
102
}
330
18
100
AcDbEntity
  8
1PHANTOM
100
AcDbLine
 10
1937.91449582725
 20
-2467.484868218507
 30
0.0
 11
1938.91449582725
 21
-2472.484868218507
 31
0.0
  0
LINE
  5
2DF1A
102
{ACAD_REACTORS
330
2DF3C
102
}
330
18
100
AcDbEntity
  8
1PHANTOM
100
AcDbLine
 10
1941.06449582725
 20
-2471.734868218507
 30
0.0
 11
1940.91449582725
 21
-2472.484868218507
 31
0.0
  0
LINE
  5
2DF1B
102
{ACAD_REACTORS
330
2DF3C
102
}
330
18
100
AcDbEntity
  8
1PHANTOM
100
AcDbLine
 10
1943.06449582725
 20
-2471.734868218507
 30
0.0
 11
1942.91449582725
 21
-2472.484868218507
 31
0.0
  0
LINE
  5
2DF1C
102
{ACAD_REACTORS
330
2DF3C
102
}
330
18
100
AcDbEntity
  8
1PHANTOM
100
AcDbLine
 10
1939.06449582725
 20
-2471.734868218507
 30
0.0
 11
1938.91449582725
 21
-2472.484868218507
 31
0.0
  0
LINE
  5
2DF1D
102
{ACAD_REACTORS
330
2DF3C
102
}
330
18
100
AcDbEntity
  8
1PHANTOM
100
AcDbLine
 10
1937.06449582725
 20
-2471.734868218507
 30
0.0
 11
1936.91449582725
 21
-2472.484868218507
 31
0.0
  0
LINE
  5
2DF1E
102
{ACAD_REACTORS
330
2DF3C
102
}
330
18
100
AcDbEntity
  8
1PHANTOM
100
AcDbLine
 10
1935.91449582725
 20
-2467.484868218507
 30
0.0
 11
1935.76449582725
 21
-2468.234868218507
 31
0.0
  0
LINE
  5
2DF1F
102
{ACAD_REACTORS
330
2DF3C
102
}
330
18
100
AcDbEntity
  8
1PHANTOM
100
AcDbLine
 10
1919.91449582725
 20
-2467.484868218507
 30
0.0
 11
1920.91449582725
 21
-2472.484868218507
 31
0.0
  0
LINE
  5
2DF20
102
{ACAD_REACTORS
330
2DF3C
102
}
330
18
100
AcDbEntity
  8
1PHANTOM
100
AcDbLine
 10
1929.06449582725
 20
-2471.734868218507
 30
0.0
 11
1928.91449582725
 21
-2472.484868218507
 31
0.0
  0
LINE
  5
2DF21
102
{ACAD_REACTORS
330
2DF3C
102
}
330
18
100
AcDbEntity
  8
1PHANTOM
100
AcDbLine
 10
1931.91449582725
 20
-2467.484868218507
 30
0.0
 11
1931.76449582725
 21
-2468.234868218507
 31
0.0
  0
LINE
  5
2DF22
102
{ACAD_REACTORS
330
2DF3C
102
}
330
18
100
AcDbEntity
  8
1PHANTOM
100
AcDbLine
 10
1929.91449582725
 20
-2467.484868218507
 30
0.0
 11
1929.76449582725
 21
-2468.234868218507
 31
0.0
  0
LINE
  5
2DF23
102
{ACAD_REACTORS
330
2DF3C
102
}
330
18
100
AcDbEntity
  8
1PHANTOM
100
AcDbLine
 10
1929.91449582725
 20
-2467.484868218507
 30
0.0
 11
1930.91449582725
 21
-2472.484868218507
 31
0.0
  0
LINE
  5
2DF24
102
{ACAD_REACTORS
330
2DF3C
102
}
330
18
100
AcDbEntity
  8
1PHANTOM
100
AcDbLine
 10
1933.91449582725
 20
-2467.484868218507
 30
0.0
 11
1933.76449582725
 21
-2468.234868218507
 31
0.0
  0
LINE
  5
2DF25
102
{ACAD_REACTORS
330
2DF3C
102
}
330
18
100
AcDbEntity
  8
1PHANTOM
100
AcDbLine
 10
1933.91449582725
 20
-2467.484868218507
 30
0.0
 11
1934.91449582725
 21
-2472.484868218507
 31
0.0
  0
LINE
  5
2DF26
102
{ACAD_REACTORS
330
2DF3C
102
}
330
18
100
AcDbEntity
  8
1PHANTOM
100
AcDbLine
 10
1931.91449582725
 20
-2467.484868218507
 30
0.0
 11
1932.91449582725
 21
-2472.484868218507
 31
0.0
  0
LINE
  5
2DF27
102
{ACAD_REACTORS
330
2DF3C
102
}
330
18
100
AcDbEntity
  8
1PHANTOM
100
AcDbLine
 10
1935.06449582725
 20
-2471.734868218507
 30
0.0
 11
1934.91449582725
 21
-2472.484868218507
 31
0.0
  0
LINE
  5
2DF28
102
{ACAD_REACTORS
330
2DF3C
102
}
330
18
100
AcDbEntity
  8
1PHANTOM
100
AcDbLine
 10
1931.06449582725
 20
-2471.734868218507
 30
0.0
 11
1930.91449582725
 21
-2472.484868218507
 31
0.0
  0
LINE
  5
2DF29
102
{ACAD_REACTORS
330
2DF3C
102
}
330
18
100
AcDbEntity
  8
1PHANTOM
100
AcDbLine
 10
1933.06449582725
 20
-2471.734868218507
 30
0.0
 11
1932.91449582725
 21
-2472.484868218507
 31
0.0
  0
LINE
  5
2DF2A
102
{ACAD_REACTORS
330
2DF3C
102
}
330
18
100
AcDbEntity
  8
1PHANTOM
100
AcDbLine
 10
1925.91449582725
 20
-2467.484868218507
 30
0.0
 11
1925.76449582725
 21
-2468.234868218507
 31
0.0
  0
LINE
  5
2DF2B
102
{ACAD_REACTORS
330
2DF3C
102
}
330
18
100
AcDbEntity
  8
1PHANTOM
100
AcDbLine
 10
1927.91449582725
 20
-2467.484868218507
 30
0.0
 11
1927.76449582725
 21
-2468.234868218507
 31
0.0
  0
LINE
  5
2DF2C
102
{ACAD_REACTORS
330
2DF3C
102
}
330
18
100
AcDbEntity
  8
1PHANTOM
100
AcDbLine
 10
1921.91449582725
 20
-2467.484868218507
 30
0.0
 11
1921.76449582725
 21
-2468.234868218507
 31
0.0
  0
LINE
  5
2DF2D
102
{ACAD_REACTORS
330
2DF3C
102
}
330
18
100
AcDbEntity
  8
1PHANTOM
100
AcDbLine
 10
1923.91449582725
 20
-2467.484868218507
 30
0.0
 11
1923.76449582725
 21
-2468.234868218507
 31
0.0
  0
LINE
  5
2DF2E
102
{ACAD_REACTORS
330
2DF3C
102
}
330
18
100
AcDbEntity
  8
1PHANTOM
100
AcDbLine
 10
1927.91449582725
 20
-2467.484868218507
 30
0.0
 11
1928.91449582725
 21
-2472.484868218507
 31
0.0
  0
LINE
  5
2DF2F
102
{ACAD_REACTORS
330
2DF3C
102
}
330
18
100
AcDbEntity
  8
1PHANTOM
100
AcDbLine
 10
1925.91449582725
 20
-2467.484868218507
 30
0.0
 11
1926.91449582725
 21
-2472.484868218507
 31
0.0
  0
LINE
  5
2DF30
102
{ACAD_REACTORS
330
2DF3C
102
}
330
18
100
AcDbEntity
  8
1PHANTOM
100
AcDbLine
 10
1923.91449582725
 20
-2467.484868218507
 30
0.0
 11
1924.91449582725
 21
-2472.484868218507
 31
0.0
  0
LINE
  5
2DF31
102
{ACAD_REACTORS
330
2DF3C
102
}
330
18
100
AcDbEntity
  8
1PHANTOM
100
AcDbLine
 10
1921.91449582725
 20
-2467.484868218507
 30
0.0
 11
1922.91449582725
 21
-2472.484868218507
 31
0.0
  0
LINE
  5
2DF32
102
{ACAD_REACTORS
330
2DF3C
102
}
330
18
100
AcDbEntity
  8
1PHANTOM
100
AcDbLine
 10
1925.06449582725
 20
-2471.734868218507
 30
0.0
 11
1924.91449582725
 21
-2472.484868218507
 31
0.0
  0
LINE
  5
2DF33
102
{ACAD_REACTORS
330
2DF3C
102
}
330
18
100
AcDbEntity
  8
1PHANTOM
100
AcDbLine
 10
1927.06449582725
 20
-2471.734868218507
 30
0.0
 11
1926.91449582725
 21
-2472.484868218507
 31
0.0
  0
LINE
  5
2DF34
102
{ACAD_REACTORS
330
2DF3C
102
}
330
18
100
AcDbEntity
  8
1PHANTOM
100
AcDbLine
 10
1921.06449582725
 20
-2471.734868218507
 30
0.0
 11
1920.91449582725
 21
-2472.484868218507
 31
0.0
  0
LINE
  5
2DF35
102
{ACAD_REACTORS
330
2DF3C
102
}
330
18
100
AcDbEntity
  8
1PHANTOM
100
AcDbLine
 10
1923.06449582725
 20
-2471.734868218507
 30
0.0
 11
1922.91449582725
 21
-2472.484868218507
 31
0.0
  0
LINE
  5
2DF36
102
{ACAD_REACTORS
330
2DF3C
102
}
330
18
100
AcDbEntity
  8
1PHANTOM
100
AcDbLine
 10
1919.91449582725
 20
-2467.484868218507
 30
0.0
 11
1919.76449582725
 21
-2468.234868218507
 31
0.0
  0
LINE
  5
2DF37
102
{ACAD_REACTORS
330
2DF3C
102
}
330
18
100
AcDbEntity
  8
1PHANTOM
100
AcDbLine
 10
1917.91449582725
 20
-2467.484868218507
 30
0.0
 11
1917.76449582725
 21
-2468.234868218507
 31
0.0
  0
LINE
  5
2DF38
102
{ACAD_REACTORS
330
2DF3C
102
}
330
18
100
AcDbEntity
  8
1PHANTOM
100
AcDbLine
 10
1917.91449582725
 20
-2467.484868218507
 30
0.0
 11
1918.91449582725
 21
-2472.484868218507
 31
0.0
  0
LINE
  5
2DF39
102
{ACAD_REACTORS
330
2DF3C
102
}
330
18
100
AcDbEntity
  8
1PHANTOM
100
AcDbLine
 10
1919.06449582725
 20
-2471.734868218507
 30
0.0
 11
1918.91449582725
 21
-2472.484868218507
 31
0.0
  0
LINE
  5
2DF40
102
{ACAD_REACTORS
330
2DF86
102
}
330
18
100
AcDbEntity
  8
1PHANTOM
100
AcDbLine
 10
1962.746630241206
 20
-1774.73486821851
 30
0.0
 11
1961.746630241206
 21
-1774.73486821851
 31
0.0
  0
ARC
  5
2DF41
102
{ACAD_REACTORS
330
2DF86
102
}
330
18
100
AcDbEntity
  8
1PHANTOM
100
AcDbCircle
 10
1968.51746357454
 20
-1769.98486821851
 30
0.0
 40
8.270833333333439
100
AcDbArc
 50
144.9488632525411
 51
215.0511367474588
  0
LINE
  5
2DF42
102
{ACAD_REACTORS
330
2DF86
102
}
330
18
100
AcDbEntity
  8
1PHANTOM
100
AcDbLine
 10
1962.746630241206
 20
-1765.23486821851
 30
0.0
 11
1961.746630241206
 21
-1765.23486821851
 31
0.0
  0
LINE
  5
2DF43
102
{ACAD_REACTORS
330
2DF86
102
}
330
18
100
AcDbEntity
  8
1CENTER
100
AcDbLine
 10
2004.348305241206
 20
-1769.98486821851
 30
0.0
 11
1958.904199667237
 21
-1769.98486821851
 31
0.0
  0
LINE
  5
2DF44
102
{ACAD_REACTORS
330
2DF86
102
}
330
18
100
AcDbEntity
  8
1PHANTOM
100
AcDbLine
 10
1961.746630241206
 20
-1774.517931398177
 30
0.0
 11
1961.746630241206
 21
-1765.479500433705
 31
0.0
  0
LINE
  5
2DF45
102
{ACAD_REACTORS
330
2DF86
102
}
330
18
100
AcDbEntity
  8
1PHANTOM
100
AcDbLine
 10
1978.864495827252
 20
-1767.48486821851
 30
0.0
 11
1979.864495827252
 21
-1772.48486821851
 31
0.0
  0
LINE
  5
2DF46
102
{ACAD_REACTORS
330
2DF86
102
}
330
18
100
AcDbEntity
  8
1PHANTOM
100
AcDbLine
 10
1996.215541327961
 20
-1768.23486821851
 30
0.0
 11
1962.746630241206
 21
-1768.23486821851
 31
0.0
  0
LINE
  5
2DF47
102
{ACAD_REACTORS
330
2DF86
102
}
330
18
100
AcDbEntity
  8
1PHANTOM
100
AcDbLine
 10
2002.746630241206
 20
-1769.98486821851
 30
0.0
 11
1996.215541327961
 21
-1768.23486821851
 31
0.0
  0
LINE
  5
2DF48
102
{ACAD_REACTORS
330
2DF86
102
}
330
18
100
AcDbEntity
  8
1PHANTOM
100
AcDbLine
 10
2002.746630241206
 20
-1769.98486821851
 30
0.0
 11
1996.21554132796
 21
-1771.73486821851
 31
0.0
  0
LINE
  5
2DF49
102
{ACAD_REACTORS
330
2DF86
102
}
330
18
100
AcDbEntity
  8
1PHANTOM
100
AcDbLine
 10
1996.21554132796
 20
-1771.73486821851
 30
0.0
 11
1962.746630241206
 21
-1771.73486821851
 31
0.0
  0
LINE
  5
2DF4A
102
{ACAD_REACTORS
330
2DF86
102
}
330
18
100
AcDbEntity
  8
1PHANTOM
100
AcDbLine
 10
1996.901242439045
 20
-1767.668601277474
 30
0.0
 11
1996.751242439045
 21
-1768.418601277474
 31
0.0
  0
LINE
  5
2DF4B
102
{ACAD_REACTORS
330
2DF86
102
}
330
18
100
AcDbEntity
  8
1PHANTOM
100
AcDbLine
 10
1996.901242439045
 20
-1767.668601277474
 30
0.0
 11
1997.780623335263
 21
-1772.065505758565
 31
0.0
  0
LINE
  5
2DF4C
102
{ACAD_REACTORS
330
2DF86
102
}
330
18
100
AcDbEntity
  8
1PHANTOM
100
AcDbLine
 10
2001.727167164641
 20
-1770.298224905454
 30
0.0
 11
2001.577167164641
 21
-1771.048224905454
 31
0.0
  0
LINE
  5
2DF4D
102
{ACAD_REACTORS
330
2DF86
102
}
330
18
100
AcDbEntity
  8
1PHANTOM
100
AcDbLine
 10
2001.127739747148
 20
-1768.801087817993
 30
0.0
 11
2000.977739747149
 21
-1769.551087817993
 31
0.0
  0
LINE
  5
2DF4E
102
{ACAD_REACTORS
330
2DF86
102
}
330
18
100
AcDbEntity
  8
1PHANTOM
100
AcDbLine
 10
2001.127739747148
 20
-1768.801087817993
 30
0.0
 11
2001.577167164641
 21
-1771.048224905454
 31
0.0
  0
LINE
  5
2DF4F
102
{ACAD_REACTORS
330
2DF86
102
}
330
18
100
AcDbEntity
  8
1PHANTOM
100
AcDbLine
 10
1997.930623335263
 20
-1771.315505758565
 30
0.0
 11
1997.780623335263
 21
-1772.065505758565
 31
0.0
  0
LINE
  5
2DF50
102
{ACAD_REACTORS
330
2DF86
102
}
330
18
100
AcDbEntity
  8
1PHANTOM
100
AcDbLine
 10
1999.828895249952
 20
-1770.80686533201
 30
0.0
 11
1999.678895249952
 21
-1771.55686533201
 31
0.0
  0
LINE
  5
2DF51
102
{ACAD_REACTORS
330
2DF86
102
}
330
18
100
AcDbEntity
  8
1PHANTOM
100
AcDbLine
 10
1999.014491093096
 20
-1768.234844547734
 30
0.0
 11
1998.864491093097
 21
-1768.984844547734
 31
0.0
  0
LINE
  5
2DF52
102
{ACAD_REACTORS
330
2DF86
102
}
330
18
100
AcDbEntity
  8
1PHANTOM
100
AcDbLine
 10
1999.014491093096
 20
-1768.234844547734
 30
0.0
 11
1999.678895249952
 21
-1771.55686533201
 31
0.0
  0
LINE
  5
2DF53
102
{ACAD_REACTORS
330
2DF86
102
}
330
18
100
AcDbEntity
  8
1PHANTOM
100
AcDbLine
 10
1988.014495827252
 20
-1771.73486821851
 30
0.0
 11
1987.864495827252
 21
-1772.48486821851
 31
0.0
  0
LINE
  5
2DF54
102
{ACAD_REACTORS
330
2DF86
102
}
330
18
100
AcDbEntity
  8
1PHANTOM
100
AcDbLine
 10
1990.864495827252
 20
-1767.48486821851
 30
0.0
 11
1990.714495827252
 21
-1768.23486821851
 31
0.0
  0
LINE
  5
2DF55
102
{ACAD_REACTORS
330
2DF86
102
}
330
18
100
AcDbEntity
  8
1PHANTOM
100
AcDbLine
 10
1988.864495827252
 20
-1767.48486821851
 30
0.0
 11
1988.714495827252
 21
-1768.23486821851
 31
0.0
  0
LINE
  5
2DF56
102
{ACAD_REACTORS
330
2DF86
102
}
330
18
100
AcDbEntity
  8
1PHANTOM
100
AcDbLine
 10
1988.864495827252
 20
-1767.48486821851
 30
0.0
 11
1989.864495827252
 21
-1772.48486821851
 31
0.0
  0
LINE
  5
2DF57
102
{ACAD_REACTORS
330
2DF86
102
}
330
18
100
AcDbEntity
  8
1PHANTOM
100
AcDbLine
 10
1992.864495827252
 20
-1767.48486821851
 30
0.0
 11
1992.714495827252
 21
-1768.23486821851
 31
0.0
  0
LINE
  5
2DF58
102
{ACAD_REACTORS
330
2DF86
102
}
330
18
100
AcDbEntity
  8
1PHANTOM
100
AcDbLine
 10
1994.864495827252
 20
-1767.48486821851
 30
0.0
 11
1994.714495827252
 21
-1768.23486821851
 31
0.0
  0
LINE
  5
2DF59
102
{ACAD_REACTORS
330
2DF86
102
}
330
18
100
AcDbEntity
  8
1PHANTOM
100
AcDbLine
 10
1994.864495827252
 20
-1767.48486821851
 30
0.0
 11
1995.864495827252
 21
-1772.48486821851
 31
0.0
  0
LINE
  5
2DF5A
102
{ACAD_REACTORS
330
2DF86
102
}
330
18
100
AcDbEntity
  8
1PHANTOM
100
AcDbLine
 10
1992.864495827252
 20
-1767.48486821851
 30
0.0
 11
1993.864495827252
 21
-1772.48486821851
 31
0.0
  0
LINE
  5
2DF5B
102
{ACAD_REACTORS
330
2DF86
102
}
330
18
100
AcDbEntity
  8
1PHANTOM
100
AcDbLine
 10
1990.864495827252
 20
-1767.48486821851
 30
0.0
 11
1991.864495827252
 21
-1772.48486821851
 31
0.0
  0
LINE
  5
2DF5C
102
{ACAD_REACTORS
330
2DF86
102
}
330
18
100
AcDbEntity
  8
1PHANTOM
100
AcDbLine
 10
1996.014495827252
 20
-1771.73486821851
 30
0.0
 11
1995.864495827252
 21
-1772.48486821851
 31
0.0
  0
LINE
  5
2DF5D
102
{ACAD_REACTORS
330
2DF86
102
}
330
18
100
AcDbEntity
  8
1PHANTOM
100
AcDbLine
 10
1994.014495827252
 20
-1771.73486821851
 30
0.0
 11
1993.864495827252
 21
-1772.48486821851
 31
0.0
  0
LINE
  5
2DF5E
102
{ACAD_REACTORS
330
2DF86
102
}
330
18
100
AcDbEntity
  8
1PHANTOM
100
AcDbLine
 10
1990.014495827252
 20
-1771.73486821851
 30
0.0
 11
1989.864495827252
 21
-1772.48486821851
 31
0.0
  0
LINE
  5
2DF5F
102
{ACAD_REACTORS
330
2DF86
102
}
330
18
100
AcDbEntity
  8
1PHANTOM
100
AcDbLine
 10
1992.014495827252
 20
-1771.73486821851
 30
0.0
 11
1991.864495827252
 21
-1772.48486821851
 31
0.0
  0
LINE
  5
2DF60
102
{ACAD_REACTORS
330
2DF86
102
}
330
18
100
AcDbEntity
  8
1PHANTOM
100
AcDbLine
 10
1984.864495827252
 20
-1767.48486821851
 30
0.0
 11
1984.714495827252
 21
-1768.23486821851
 31
0.0
  0
LINE
  5
2DF61
102
{ACAD_REACTORS
330
2DF86
102
}
330
18
100
AcDbEntity
  8
1PHANTOM
100
AcDbLine
 10
1986.864495827252
 20
-1767.48486821851
 30
0.0
 11
1986.714495827252
 21
-1768.23486821851
 31
0.0
  0
LINE
  5
2DF62
102
{ACAD_REACTORS
330
2DF86
102
}
330
18
100
AcDbEntity
  8
1PHANTOM
100
AcDbLine
 10
1980.864495827252
 20
-1767.48486821851
 30
0.0
 11
1980.714495827252
 21
-1768.23486821851
 31
0.0
  0
LINE
  5
2DF63
102
{ACAD_REACTORS
330
2DF86
102
}
330
18
100
AcDbEntity
  8
1PHANTOM
100
AcDbLine
 10
1982.864495827252
 20
-1767.48486821851
 30
0.0
 11
1982.714495827252
 21
-1768.23486821851
 31
0.0
  0
LINE
  5
2DF64
102
{ACAD_REACTORS
330
2DF86
102
}
330
18
100
AcDbEntity
  8
1PHANTOM
100
AcDbLine
 10
1986.864495827252
 20
-1767.48486821851
 30
0.0
 11
1987.864495827252
 21
-1772.48486821851
 31
0.0
  0
LINE
  5
2DF65
102
{ACAD_REACTORS
330
2DF86
102
}
330
18
100
AcDbEntity
  8
1PHANTOM
100
AcDbLine
 10
1984.864495827252
 20
-1767.48486821851
 30
0.0
 11
1985.864495827252
 21
-1772.48486821851
 31
0.0
  0
LINE
  5
2DF66
102
{ACAD_REACTORS
330
2DF86
102
}
330
18
100
AcDbEntity
  8
1PHANTOM
100
AcDbLine
 10
1982.864495827252
 20
-1767.48486821851
 30
0.0
 11
1983.864495827252
 21
-1772.48486821851
 31
0.0
  0
LINE
  5
2DF67
102
{ACAD_REACTORS
330
2DF86
102
}
330
18
100
AcDbEntity
  8
1PHANTOM
100
AcDbLine
 10
1980.864495827252
 20
-1767.48486821851
 30
0.0
 11
1981.864495827252
 21
-1772.48486821851
 31
0.0
  0
LINE
  5
2DF68
102
{ACAD_REACTORS
330
2DF86
102
}
330
18
100
AcDbEntity
  8
1PHANTOM
100
AcDbLine
 10
1984.014495827252
 20
-1771.73486821851
 30
0.0
 11
1983.864495827252
 21
-1772.48486821851
 31
0.0
  0
LINE
  5
2DF69
102
{ACAD_REACTORS
330
2DF86
102
}
330
18
100
AcDbEntity
  8
1PHANTOM
100
AcDbLine
 10
1986.014495827252
 20
-1771.73486821851
 30
0.0
 11
1985.864495827252
 21
-1772.48486821851
 31
0.0
  0
LINE
  5
2DF6A
102
{ACAD_REACTORS
330
2DF86
102
}
330
18
100
AcDbEntity
  8
1PHANTOM
100
AcDbLine
 10
1980.014495827252
 20
-1771.73486821851
 30
0.0
 11
1979.864495827252
 21
-1772.48486821851
 31
0.0
  0
LINE
  5
2DF6B
102
{ACAD_REACTORS
330
2DF86
102
}
330
18
100
AcDbEntity
  8
1PHANTOM
100
AcDbLine
 10
1982.014495827252
 20
-1771.73486821851
 30
0.0
 11
1981.864495827252
 21
-1772.48486821851
 31
0.0
  0
LINE
  5
2DF6C
102
{ACAD_REACTORS
330
2DF86
102
}
330
18
100
AcDbEntity
  8
1PHANTOM
100
AcDbLine
 10
1962.864495827252
 20
-1767.48486821851
 30
0.0
 11
1963.864495827252
 21
-1772.48486821851
 31
0.0
  0
LINE
  5
2DF6D
102
{ACAD_REACTORS
330
2DF86
102
}
330
18
100
AcDbEntity
  8
1PHANTOM
100
AcDbLine
 10
1970.864495827252
 20
-1767.48486821851
 30
0.0
 11
1971.864495827252
 21
-1772.48486821851
 31
0.0
  0
LINE
  5
2DF6E
102
{ACAD_REACTORS
330
2DF86
102
}
330
18
100
AcDbEntity
  8
1PHANTOM
100
AcDbLine
 10
1978.864495827252
 20
-1767.48486821851
 30
0.0
 11
1978.714495827252
 21
-1768.23486821851
 31
0.0
  0
LINE
  5
2DF6F
102
{ACAD_REACTORS
330
2DF86
102
}
330
18
100
AcDbEntity
  8
1PHANTOM
100
AcDbLine
 10
1976.864495827252
 20
-1767.48486821851
 30
0.0
 11
1976.714495827252
 21
-1768.23486821851
 31
0.0
  0
LINE
  5
2DF70
102
{ACAD_REACTORS
330
2DF86
102
}
330
18
100
AcDbEntity
  8
1PHANTOM
100
AcDbLine
 10
1974.864495827252
 20
-1767.48486821851
 30
0.0
 11
1974.714495827252
 21
-1768.23486821851
 31
0.0
  0
LINE
  5
2DF71
102
{ACAD_REACTORS
330
2DF86
102
}
330
18
100
AcDbEntity
  8
1PHANTOM
100
AcDbLine
 10
1972.864495827252
 20
-1767.48486821851
 30
0.0
 11
1972.714495827252
 21
-1768.23486821851
 31
0.0
  0
LINE
  5
2DF72
102
{ACAD_REACTORS
330
2DF86
102
}
330
18
100
AcDbEntity
  8
1PHANTOM
100
AcDbLine
 10
1976.864495827252
 20
-1767.48486821851
 30
0.0
 11
1977.864495827252
 21
-1772.48486821851
 31
0.0
  0
LINE
  5
2DF73
102
{ACAD_REACTORS
330
2DF86
102
}
330
18
100
AcDbEntity
  8
1PHANTOM
100
AcDbLine
 10
1974.864495827252
 20
-1767.48486821851
 30
0.0
 11
1975.864495827252
 21
-1772.48486821851
 31
0.0
  0
LINE
  5
2DF74
102
{ACAD_REACTORS
330
2DF86
102
}
330
18
100
AcDbEntity
  8
1PHANTOM
100
AcDbLine
 10
1972.864495827252
 20
-1767.48486821851
 30
0.0
 11
1973.864495827252
 21
-1772.48486821851
 31
0.0
  0
LINE
  5
2DF75
102
{ACAD_REACTORS
330
2DF86
102
}
330
18
100
AcDbEntity
  8
1PHANTOM
100
AcDbLine
 10
1978.014495827252
 20
-1771.73486821851
 30
0.0
 11
1977.864495827252
 21
-1772.48486821851
 31
0.0
  0
LINE
  5
2DF76
102
{ACAD_REACTORS
330
2DF86
102
}
330
18
100
AcDbEntity
  8
1PHANTOM
100
AcDbLine
 10
1976.014495827252
 20
-1771.73486821851
 30
0.0
 11
1975.864495827252
 21
-1772.48486821851
 31
0.0
  0
LINE
  5
2DF77
102
{ACAD_REACTORS
330
2DF86
102
}
330
18
100
AcDbEntity
  8
1PHANTOM
100
AcDbLine
 10
1974.014495827252
 20
-1771.73486821851
 30
0.0
 11
1973.864495827252
 21
-1772.48486821851
 31
0.0
  0
LINE
  5
2DF78
102
{ACAD_REACTORS
330
2DF86
102
}
330
18
100
AcDbEntity
  8
1PHANTOM
100
AcDbLine
 10
1972.014495827252
 20
-1771.73486821851
 30
0.0
 11
1971.864495827252
 21
-1772.48486821851
 31
0.0
  0
LINE
  5
2DF79
102
{ACAD_REACTORS
330
2DF86
102
}
330
18
100
AcDbEntity
  8
1PHANTOM
100
AcDbLine
 10
1966.864495827252
 20
-1767.48486821851
 30
0.0
 11
1966.714495827252
 21
-1768.23486821851
 31
0.0
  0
LINE
  5
2DF7A
102
{ACAD_REACTORS
330
2DF86
102
}
330
18
100
AcDbEntity
  8
1PHANTOM
100
AcDbLine
 10
1968.864495827252
 20
-1767.48486821851
 30
0.0
 11
1968.714495827252
 21
-1768.23486821851
 31
0.0
  0
LINE
  5
2DF7B
102
{ACAD_REACTORS
330
2DF86
102
}
330
18
100
AcDbEntity
  8
1PHANTOM
100
AcDbLine
 10
1970.864495827252
 20
-1767.48486821851
 30
0.0
 11
1970.714495827252
 21
-1768.23486821851
 31
0.0
  0
LINE
  5
2DF7C
102
{ACAD_REACTORS
330
2DF86
102
}
330
18
100
AcDbEntity
  8
1PHANTOM
100
AcDbLine
 10
1964.864495827252
 20
-1767.48486821851
 30
0.0
 11
1964.714495827252
 21
-1768.23486821851
 31
0.0
  0
LINE
  5
2DF7D
102
{ACAD_REACTORS
330
2DF86
102
}
330
18
100
AcDbEntity
  8
1PHANTOM
100
AcDbLine
 10
1968.864495827252
 20
-1767.48486821851
 30
0.0
 11
1969.864495827252
 21
-1772.48486821851
 31
0.0
  0
LINE
  5
2DF7E
102
{ACAD_REACTORS
330
2DF86
102
}
330
18
100
AcDbEntity
  8
1PHANTOM
100
AcDbLine
 10
1966.864495827252
 20
-1767.48486821851
 30
0.0
 11
1967.864495827252
 21
-1772.48486821851
 31
0.0
  0
LINE
  5
2DF7F
102
{ACAD_REACTORS
330
2DF86
102
}
330
18
100
AcDbEntity
  8
1PHANTOM
100
AcDbLine
 10
1964.864495827252
 20
-1767.48486821851
 30
0.0
 11
1965.864495827252
 21
-1772.48486821851
 31
0.0
  0
LINE
  5
2DF80
102
{ACAD_REACTORS
330
2DF86
102
}
330
18
100
AcDbEntity
  8
1PHANTOM
100
AcDbLine
 10
1968.014495827252
 20
-1771.73486821851
 30
0.0
 11
1967.864495827252
 21
-1772.48486821851
 31
0.0
  0
LINE
  5
2DF81
102
{ACAD_REACTORS
330
2DF86
102
}
330
18
100
AcDbEntity
  8
1PHANTOM
100
AcDbLine
 10
1970.014495827252
 20
-1771.73486821851
 30
0.0
 11
1969.864495827252
 21
-1772.48486821851
 31
0.0
  0
LINE
  5
2DF82
102
{ACAD_REACTORS
330
2DF86
102
}
330
18
100
AcDbEntity
  8
1PHANTOM
100
AcDbLine
 10
1966.014495827252
 20
-1771.73486821851
 30
0.0
 11
1965.864495827252
 21
-1772.48486821851
 31
0.0
  0
LINE
  5
2DF83
102
{ACAD_REACTORS
330
2DF86
102
}
330
18
100
AcDbEntity
  8
1PHANTOM
100
AcDbLine
 10
1964.014495827252
 20
-1771.73486821851
 30
0.0
 11
1963.864495827252
 21
-1772.48486821851
 31
0.0
  0
LINE
  5
2DF84
102
{ACAD_REACTORS
330
2DF86
102
}
330
18
100
AcDbEntity
  8
1PHANTOM
100
AcDbLine
 10
1962.864495827252
 20
-1767.48486821851
 30
0.0
 11
1962.714495827252
 21
-1768.23486821851
 31
0.0
  0
LINE
  5
2DF85
102
{ACAD_REACTORS
330
2DF86
102
}
330
18
100
AcDbEntity
  8
1PHANTOM
100
AcDbLine
 10
1962.746630241206
 20
-1774.73486821851
 30
0.0
 11
1962.746630241206
 21
-1765.23486821851
 31
0.0
  0
LINE
  5
2E007
330
18
100
AcDbEntity
  8
1CENTER
100
AcDbLine
 10
1683.864094944316
 20
-2024.984868227626
 30
0.0
 11
1673.864094944316
 21
-2024.984868227626
 31
0.0
  0
LINE
  5
2E008
330
18
100
AcDbEntity
  8
1CENTER
100
AcDbLine
 10
1678.864094946183
 20
-2019.984868232184
 30
0.0
 11
1678.864094946183
 21
-2029.984868232184
 31
0.0
  0
LINE
  5
2E00E
330
18
100
AcDbEntity
  8
1DIM
100
AcDbLine
 10
2181.864986120978
 20
-1827.149152476617
 30
0.0
 11
2741.864986120982
 21
-1827.149152476617
 31
0.0
  0
LINE
  5
2E011
330
18
100
AcDbEntity
  8
1DIM
100
AcDbLine
 10
2181.864986120978
 20
-1743.149152476613
 30
0.0
 11
2741.864986120984
 21
-1743.14915247661
 31
0.0
  0
LINE
  5
2E012
330
18
100
AcDbEntity
  8
1DIM
100
AcDbLine
 10
2181.864986120978
 20
-1715.149152476612
 30
0.0
 11
2741.864986120985
 21
-1715.14915247661
 31
0.0
  0
LINE
  5
31923
330
18
100
AcDbEntity
  8
1CENTER
100
AcDbLine
 10
1731.463471992636
 20
-1902.984868227626
 30
0.0
 11
1626.264717895995
 21
-1902.984868227626
 31
0.0
  0
LINE
  5
31924
330
18
100
AcDbEntity
  8
1HIDDEN
100
AcDbLine
 10
1724.614094944316
 20
-1915.734868227626
 30
0.0
 11
1633.114094944316
 21
-1915.734868227626
 31
0.0
  0
LINE
  5
31925
330
18
100
AcDbEntity
  8
1HIDDEN
100
AcDbLine
 10
1724.614094944316
 20
-1890.234868227626
 30
0.0
 11
1633.114094944316
 21
-1890.234868227626
 31
0.0
  0
LINE
  5
31926
330
18
100
AcDbEntity
  8
1HIDDEN
100
AcDbLine
 10
1724.614094944316
 20
-1915.734868227626
 30
0.0
 11
1724.614094944316
 21
-1890.234868227626
 31
0.0
  0
LINE
  5
31927
330
18
100
AcDbEntity
  8
1HIDDEN
100
AcDbLine
 10
1633.114094944316
 20
-1915.734868227626
 30
0.0
 11
1633.114094944316
 21
-1890.234868227626
 31
0.0
  0
LINE
  5
31CD8
330
18
100
AcDbEntity
  8
1DIM
100
AcDbLine
 10
1518.864094946183
 20
-2032.984868227626
 30
0.0
 11
1518.864094946183
 21
-2504.084202603847
 31
0.0
  0
CIRCLE
  5
32216
330
18
100
AcDbEntity
  8
1PHANTOM
100
AcDbCircle
 10
1678.864094944316
 20
-2074.984868227626
 30
0.0
 40
5.0
  0
LINE
  5
32217
330
18
100
AcDbEntity
  8
1CENTER
100
AcDbLine
 10
1672.364094944312
 20
-2074.98486822763
 30
0.0
 11
1685.364094944312
 21
-2074.98486822763
 31
0.0
  0
LINE
  5
32218
330
18
100
AcDbEntity
  8
1CENTER
100
AcDbLine
 10
1678.864094944312
 20
-2081.48486822763
 30
0.0
 11
1678.864094944312
 21
-2068.48486822763
 31
0.0
  0
LINE
  5
325B9
330
18
100
AcDbEntity
  8
01
100
AcDbLine
 10
1945.246630241206
 20
-1687.984868218511
 30
0.0
 11
1945.246630241206
 21
-1687.384868218511
 31
0.0
  0
ARC
  5
325BA
330
18
100
AcDbEntity
  8
01
100
AcDbCircle
 10
1947.246630241206
 20
-1687.384868218511
 30
0.0
 40
2.0
100
AcDbArc
 50
90.0
 51
180.0
  0
LINE
  5
325BB
330
18
100
AcDbEntity
  8
01
100
AcDbLine
 10
1947.246630241206
 20
-1685.384868218511
 30
0.0
 11
1950.246630241206
 21
-1685.384868218511
 31
0.0
  0
ARC
  5
325BC
330
18
100
AcDbEntity
  8
01
100
AcDbCircle
 10
1950.246630241206
 20
-1687.384868218511
 30
0.0
 40
2.0
100
AcDbArc
 50
0.000000000000007
 51
90.0
  0
LINE
  5
325BD
330
18
100
AcDbEntity
  8
01
100
AcDbLine
 10
1952.246630241206
 20
-1687.984868218511
 30
0.0
 11
1952.246630241206
 21
-1687.384868218511
 31
0.0
  0
LINE
  5
34D45
330
18
100
AcDbEntity
  8
1DIM
100
AcDbLine
 10
2461.864986120982
 20
-1715.149152476609
 30
0.0
 11
2461.864986120982
 21
-1827.149152476614
 31
0.0
  0
TEXT
  5
34D47
330
18
100
AcDbEntity
  8
1TEXT
100
AcDbText
 10
2370.131652787648
 20
-1794.006580411204
 30
0.0
 40
16.0
  1
グレー
 41
0.8
 72
     1
 11
2391.464986120981
 21
-1794.006580411204
 31
0.0
100
AcDbText
  0
TEXT
  5
34D49
330
18
100
AcDbEntity
  8
1TEXT
100
AcDbText
 10
2325.198319454316
 20
-1737.14915247661
 30
0.0
 40
16.0
  1
仕上げ：樹脂キャップ
 41
0.7
 72
     1
 11
2391.464986120983
 21
-1737.14915247661
 31
0.0
100
AcDbText
  0
ARC
  5
34F39
330
18
100
AcDbEntity
  8
01
100
AcDbCircle
 10
1642.767120176507
 20
-1561.036943682006
 30
0.0
 40
0.875
100
AcDbArc
 50
90.00039994659008
 51
179.9996000533951
  0
LINE
  5
34F3A
330
18
100
AcDbEntity
  8
01
100
AcDbLine
 10
1643.990723040095
 20
-1560.161935140766
 30
0.0
 11
1642.767114068671
 21
-1560.161943682028
 31
0.0
  0
LINE
  5
34F3B
330
18
100
AcDbEntity
  8
01
100
AcDbLine
 10
1641.892111634672
 20
-1562.26063181205
 30
0.0
 11
1641.892120176528
 21
-1561.03693757417
 31
0.0
  0
ARC
  5
34F3C
330
18
100
AcDbEntity
  8
01
100
AcDbCircle
 10
1639.961162353191
 20
-1561.037036319333
 30
0.0
 40
0.875
100
AcDbArc
 50
0.0003999465900757
 51
89.99960005346949
  0
LINE
  5
34F3D
330
18
100
AcDbEntity
  8
01
100
AcDbLine
 10
1640.836170894431
 20
-1562.260639182923
 30
0.0
 11
1640.83616235317
 21
-1561.037030211496
 31
0.0
  0
LINE
  5
34F3E
330
18
100
AcDbEntity
  8
01
100
AcDbLine
 10
1638.737474223142
 20
-1560.162027777499
 30
0.0
 11
1639.961168461027
 21
-1560.162036319354
 31
0.0
  0
ARC
  5
34F3F
330
18
100
AcDbEntity
  8
01
100
AcDbCircle
 10
1639.961069715862
 20
-1558.231078496017
 30
0.0
 40
0.875
100
AcDbArc
 50
270.0003999465901
 51
359.9996000534844
  0
LINE
  5
34F40
330
18
100
AcDbEntity
  8
01
100
AcDbLine
 10
1638.73746685227
 20
-1559.106087037258
 30
0.0
 11
1639.961075823698
 21
-1559.106078495996
 31
0.0
  0
LINE
  5
34F41
330
18
100
AcDbEntity
  8
01
100
AcDbLine
 10
1640.836078257696
 20
-1557.007390365973
 30
0.0
 11
1640.836069715841
 21
-1558.231084603853
 31
0.0
  0
ARC
  5
34F42
330
18
100
AcDbEntity
  8
01
100
AcDbCircle
 10
1642.767027539177
 20
-1558.230985858691
 30
0.0
 40
0.875
100
AcDbArc
 50
180.0003999466049
 51
269.9996000534695
  0
LINE
  5
34F43
330
18
100
AcDbEntity
  8
01
100
AcDbLine
 10
1643.990715669222
 20
-1559.105994400526
 30
0.0
 11
1642.76702143134
 21
-1559.10598585867
 31
0.0
  0
LINE
  5
34F44
330
18
100
AcDbEntity
  8
01
100
AcDbLine
 10
1641.892018997936
 20
-1557.007382995101
 30
0.0
 11
1641.892027539197
 21
-1558.230991966528
 31
0.0
  0
LINE
  5
34F45
330
18
100
AcDbEntity
  8
01
100
AcDbLine
 10
1643.990715669222
 20
-1559.105994400526
 30
0.0
 11
1643.990723040095
 21
-1560.161935140766
 31
0.0
  0
LINE
  5
34F46
330
18
100
AcDbEntity
  8
01
100
AcDbLine
 10
1641.892111634672
 20
-1562.26063181205
 30
0.0
 11
1640.836170894431
 21
-1562.260639182923
 31
0.0
  0
LINE
  5
34F47
330
18
100
AcDbEntity
  8
01
100
AcDbLine
 10
1638.737474223142
 20
-1560.162027777499
 30
0.0
 11
1638.73746685227
 21
-1559.106087037258
 31
0.0
  0
LINE
  5
34F48
330
18
100
AcDbEntity
  8
1CENTER
100
AcDbLine
 10
1641.364094946183
 20
-1555.724188864507
 30
0.0
 11
1641.364094946183
 21
-1563.543833313517
 31
0.0
  0
LINE
  5
34F49
330
18
100
AcDbEntity
  8
1CENTER
100
AcDbLine
 10
1645.273917170688
 20
-1559.634011089012
 30
0.0
 11
1637.454272721678
 21
-1559.634011089012
 31
0.0
  0
LINE
  5
34F4A
330
18
100
AcDbEntity
  8
01
100
AcDbLine
 10
1640.836078257696
 20
-1557.007390365973
 30
0.0
 11
1641.892018997936
 21
-1557.007382995101
 31
0.0
  0
CIRCLE
  5
34F4B
330
18
100
AcDbEntity
  8
01
100
AcDbCircle
 10
1641.364094946183
 20
-1559.634011089012
 30
0.0
 40
3.5
  0
ARC
  5
34F5F
330
18
100
AcDbEntity
  8
01
100
AcDbCircle
 10
1714.961069715859
 20
-1561.036943682006
 30
0.0
 40
0.875
100
AcDbArc
 50
0.0003999466049644
 51
89.99960005340994
  0
LINE
  5
34F60
330
18
100
AcDbEntity
  8
01
100
AcDbLine
 10
1713.737466852271
 20
-1560.161935140766
 30
0.0
 11
1714.961075823695
 21
-1560.161943682028
 31
0.0
  0
LINE
  5
34F61
330
18
100
AcDbEntity
  8
01
100
AcDbLine
 10
1715.836078257694
 20
-1562.26063181205
 30
0.0
 11
1715.836069715838
 21
-1561.03693757417
 31
0.0
  0
ARC
  5
34F62
330
18
100
AcDbEntity
  8
01
100
AcDbCircle
 10
1717.767027539175
 20
-1561.037036319333
 30
0.0
 40
0.875
100
AcDbArc
 50
90.00039994653054
 51
179.9996000534099
  0
LINE
  5
34F63
330
18
100
AcDbEntity
  8
01
100
AcDbLine
 10
1716.892018997935
 20
-1562.260639182923
 30
0.0
 11
1716.892027539196
 21
-1561.037030211496
 31
0.0
  0
LINE
  5
34F64
330
18
100
AcDbEntity
  8
01
100
AcDbLine
 10
1718.990715669224
 20
-1560.162027777499
 30
0.0
 11
1717.767021431339
 21
-1560.162036319354
 31
0.0
  0
ARC
  5
34F65
330
18
100
AcDbEntity
  8
01
100
AcDbCircle
 10
1717.767120176504
 20
-1558.231078496017
 30
0.0
 40
0.875
100
AcDbArc
 50
180.0003999465156
 51
269.9996000534099
  0
LINE
  5
34F66
330
18
100
AcDbEntity
  8
01
100
AcDbLine
 10
1718.990723040096
 20
-1559.106087037258
 30
0.0
 11
1717.767114068668
 21
-1559.106078495996
 31
0.0
  0
LINE
  5
34F67
330
18
100
AcDbEntity
  8
01
100
AcDbLine
 10
1716.89211163467
 20
-1557.007390365973
 30
0.0
 11
1716.892120176525
 21
-1558.231084603853
 31
0.0
  0
ARC
  5
34F68
330
18
100
AcDbEntity
  8
01
100
AcDbCircle
 10
1714.961162353189
 20
-1558.230985858691
 30
0.0
 40
0.875
100
AcDbArc
 50
270.0003999465305
 51
359.9996000533951
  0
LINE
  5
34F69
330
18
100
AcDbEntity
  8
01
100
AcDbLine
 10
1713.737474223144
 20
-1559.105994400526
 30
0.0
 11
1714.961168461026
 21
-1559.10598585867
 31
0.0
  0
LINE
  5
34F6A
330
18
100
AcDbEntity
  8
01
100
AcDbLine
 10
1715.83617089443
 20
-1557.007382995101
 30
0.0
 11
1715.836162353169
 21
-1558.230991966528
 31
0.0
  0
LINE
  5
34F6B
330
18
100
AcDbEntity
  8
01
100
AcDbLine
 10
1713.737474223144
 20
-1559.105994400526
 30
0.0
 11
1713.737466852271
 21
-1560.161935140766
 31
0.0
  0
LINE
  5
34F6C
330
18
100
AcDbEntity
  8
01
100
AcDbLine
 10
1715.836078257694
 20
-1562.26063181205
 30
0.0
 11
1716.892018997935
 21
-1562.260639182923
 31
0.0
  0
LINE
  5
34F6D
330
18
100
AcDbEntity
  8
01
100
AcDbLine
 10
1718.990715669224
 20
-1560.162027777499
 30
0.0
 11
1718.990723040096
 21
-1559.106087037258
 31
0.0
  0
LINE
  5
34F6E
330
18
100
AcDbEntity
  8
1CENTER
100
AcDbLine
 10
1716.364094946183
 20
-1555.724188864507
 30
0.0
 11
1716.364094946183
 21
-1563.543833313517
 31
0.0
  0
LINE
  5
34F6F
330
18
100
AcDbEntity
  8
1CENTER
100
AcDbLine
 10
1712.454272721678
 20
-1559.634011089012
 30
0.0
 11
1720.273917170688
 21
-1559.634011089012
 31
0.0
  0
LINE
  5
34F70
330
18
100
AcDbEntity
  8
01
100
AcDbLine
 10
1716.89211163467
 20
-1557.007390365973
 30
0.0
 11
1715.83617089443
 21
-1557.007382995101
 31
0.0
  0
CIRCLE
  5
34F71
330
18
100
AcDbEntity
  8
01
100
AcDbCircle
 10
1716.364094946183
 20
-1559.634011089012
 30
0.0
 40
3.5
  0
LINE
  5
34F72
330
18
100
AcDbEntity
  8
1DIM
100
AcDbLine
 10
1720.231139403318
 20
-1769.98486821851
 30
0.0
 11
1782.864094946184
 21
-1769.98486821851
 31
0.0
1001
ACAD
1000
DSTYLE
1002
{
1070
    40
1040
4.0
1002
}
  0
LINE
  5
34F73
330
18
100
AcDbEntity
  8
1DIM
100
AcDbLine
 10
1720.231139403319
 20
-2119.98486821851
 30
0.0
 11
1782.864094946184
 21
-2119.98486821851
 31
0.0
1001
ACAD
1000
DSTYLE
1002
{
1070
    40
1040
4.0
1002
}
  0
LINE
  5
34F74
330
18
100
AcDbEntity
  8
1DIM
100
AcDbLine
 10
1778.864094946184
 20
-1777.98486821851
 30
0.0
 11
1778.864094946184
 21
-2111.98486821851
 31
0.0
1001
ACAD
1000
DSTYLE
1002
{
1070
    40
1040
4.0
1002
}
  0
LINE
  5
34F78
330
18
100
AcDbEntity
  8
1DIM
100
AcDbLine
 10
1738.864094946184
 20
-1687.984868218511
 30
0.0
 11
1822.864094946183
 21
-1687.984868218511
 31
0.0
1001
ACAD
1000
DSTYLE
1002
{
1070
    40
1040
4.0
1002
}
  0
LINE
  5
34F79
330
18
100
AcDbEntity
  8
1DIM
100
AcDbLine
 10
1738.064094946182
 20
-2481.984868218512
 30
0.0
 11
1822.864094946183
 21
-2481.984868218512
 31
0.0
1001
ACAD
1000
DSTYLE
1002
{
1070
    40
1040
4.0
1002
}
  0
LINE
  5
34F7A
330
18
100
AcDbEntity
  8
1DIM
100
AcDbLine
 10
1818.864094946183
 20
-1695.984868218511
 30
0.0
 11
1818.864094946183
 21
-2473.984868218512
 31
0.0
1001
ACAD
1000
DSTYLE
1002
{
1070
    40
1040
4.0
1002
}
  0
LINE
  5
34F7E
330
18
100
AcDbEntity
  8
1DIM
100
AcDbLine
 10
1911.746630241206
 20
-1687.984868218511
 30
0.0
 11
1911.746630241206
 21
-1649.164003837843
 31
0.0
1001
ACAD
1000
DSTYLE
1002
{
1070
    40
1040
4.0
1002
}
  0
LINE
  5
34F7F
330
18
100
AcDbEntity
  8
1DIM
100
AcDbLine
 10
1963.746630241206
 20
-1687.984868218511
 30
0.0
 11
1963.746630241206
 21
-1649.164003837843
 31
0.0
1001
ACAD
1000
DSTYLE
1002
{
1070
    40
1040
4.0
1002
}
  0
LINE
  5
34F80
330
18
100
AcDbEntity
  8
1DIM
100
AcDbLine
 10
1919.746630241206
 20
-1653.164003837843
 30
0.0
 11
1955.746630241206
 21
-1653.164003837843
 31
0.0
1001
ACAD
1000
DSTYLE
1002
{
1070
    40
1040
4.0
1002
}
  0
LINE
  5
34F84
330
18
100
AcDbEntity
  8
1DIM
100
AcDbLine
 10
1643.864094946183
 20
-1766.49662932093
 30
0.0
 11
1643.864094946183
 21
-1667.583491682211
 31
0.0
1001
ACAD
1000
DSTYLE
1002
{
1070
    40
1040
4.0
1002
}
  0
LINE
  5
34F85
330
18
100
AcDbEntity
  8
1DIM
100
AcDbLine
 10
1713.864094946184
 20
-1766.49662932093
 30
0.0
 11
1713.864094946184
 21
-1667.583491682211
 31
0.0
1001
ACAD
1000
DSTYLE
1002
{
1070
    40
1040
4.0
1002
}
  0
LINE
  5
34F86
330
18
100
AcDbEntity
  8
1DIM
100
AcDbLine
 10
1651.864094946183
 20
-1671.583491682211
 30
0.0
 11
1705.864094946184
 21
-1671.583491682211
 31
0.0
1001
ACAD
1000
DSTYLE
1002
{
1070
    40
1040
4.0
1002
}
  0
LINE
  5
34F8A
330
18
100
AcDbEntity
  8
1DIM
100
AcDbLine
 10
1720.231139403318
 20
-1769.98486821851
 30
0.0
 11
1782.864094946184
 21
-1769.98486821851
 31
0.0
1001
ACAD
1000
DSTYLE
1002
{
1070
    40
1040
4.0
1002
}
  0
LINE
  5
34F8B
330
18
100
AcDbEntity
  8
1DIM
100
AcDbLine
 10
1738.864094946184
 20
-1687.984868218511
 30
0.0
 11
1782.864094946184
 21
-1687.984868218511
 31
0.0
1001
ACAD
1000
DSTYLE
1002
{
1070
    40
1040
4.0
1002
}
  0
LINE
  5
34F8C
330
18
100
AcDbEntity
  8
1DIM
100
AcDbLine
 10
1778.864094946184
 20
-1761.98486821851
 30
0.0
 11
1778.864094946184
 21
-1695.984868218511
 31
0.0
1001
ACAD
1000
DSTYLE
1002
{
1070
    40
1040
4.0
1002
}
  0
LINE
  5
34F90
330
18
100
AcDbEntity
  8
1DIM
100
AcDbLine
 10
1717.764094946183
 20
-2469.98486821851
 30
0.0
 11
1782.864094946184
 21
-2469.98486821851
 31
0.0
1001
ACAD
1000
DSTYLE
1002
{
1070
    40
1040
4.0
1002
}
  0
LINE
  5
34F91
330
18
100
AcDbEntity
  8
1DIM
100
AcDbLine
 10
1720.231139403319
 20
-2119.98486821851
 30
0.0
 11
1782.864094946184
 21
-2119.98486821851
 31
0.0
1001
ACAD
1000
DSTYLE
1002
{
1070
    40
1040
4.0
1002
}
  0
LINE
  5
34F92
330
18
100
AcDbEntity
  8
1DIM
100
AcDbLine
 10
1778.864094946184
 20
-2461.98486821851
 30
0.0
 11
1778.864094946184
 21
-2127.98486821851
 31
0.0
1001
ACAD
1000
DSTYLE
1002
{
1070
    40
1040
4.0
1002
}
  0
LINE
  5
34F96
330
18
100
AcDbEntity
  8
1DIM
100
AcDbLine
 10
1673.864094944316
 20
-2024.984868227626
 30
0.0
 11
1514.864094946183
 21
-2024.984868227626
 31
0.0
1001
ACAD
1000
DSTYLE
1002
{
1070
    40
1040
4.0
1002
}
  0
LINE
  5
34F97
330
18
100
AcDbEntity
  8
1DIM
100
AcDbLine
 10
1637.497050489049
 20
-1769.98486821851
 30
0.0
 11
1514.864094946183
 21
-1769.98486821851
 31
0.0
1001
ACAD
1000
DSTYLE
1002
{
1070
    40
1040
4.0
1002
}
  0
LINE
  5
34F98
330
18
100
AcDbEntity
  8
1DIM
100
AcDbLine
 10
1518.864094946183
 20
-2016.984868227626
 30
0.0
 11
1518.864094946183
 21
-1777.98486821851
 31
0.0
1001
ACAD
1000
DSTYLE
1002
{
1070
    40
1040
4.0
1002
}
  0
LINE
  5
34F9C
330
18
100
AcDbEntity
  8
0
  6
BYBLOCK
100
AcDbLine
 10
1516.720501426183
 20
-2032.984868227626
 30
0.0
 11
1518.864094946183
 21
-2024.984868227626
 31
0.0
  0
LINE
  5
34F9D
330
18
100
AcDbEntity
  8
0
  6
BYBLOCK
100
AcDbLine
 10
1518.864094946183
 20
-2024.984868227626
 30
0.0
 11
1521.007688466183
 21
-2032.984868227626
 31
0.0
  0
LINE
  5
34F9E
330
18
100
AcDbEntity
  8
0
  6
BYBLOCK
100
AcDbLine
 10
1518.864094946183
 20
-2024.984868227626
 30
0.0
 11
1518.864094946183
 21
-2032.984868227626
 31
0.0
  0
TEXT
  5
34F9F
330
18
100
AcDbEntity
  8
1DIM
  6
CONTINUOUS
100
AcDbText
 10
1490.37339763304
 20
-2427.901202082403
 30
0.0
 40
14.0
  1
JIS1個用スイッチボックス（カバーなし）
 50
90.0
100
AcDbText
  0
TEXT
  5
34FA0
330
18
100
AcDbEntity
  8
1DIM
  6
CONTINUOUS
100
AcDbText
 10
1513.716453188596
 20
-2388.049813193514
 30
0.0
 40
14.0
  1
中心床面より1350（推奨位置）
 50
90.0
100
AcDbText
  0
LINE
  5
34FA1
330
18
100
AcDbEntity
  8
1DIM
100
AcDbLine
 10
1673.864094944316
 20
-2024.984868227626
 30
0.0
 11
1594.877490950112
 21
-2024.984868227626
 31
0.0
1001
ACAD
1000
DSTYLE
1002
{
1070
    40
1040
4.0
1002
}
  0
LINE
  5
34FA2
330
18
100
AcDbEntity
  8
1DIM
100
AcDbLine
 10
1672.364094944312
 20
-2074.98486822763
 30
0.0
 11
1594.877490950112
 21
-2074.98486822763
 31
0.0
1001
ACAD
1000
DSTYLE
1002
{
1070
    40
1040
4.0
1002
}
  0
LINE
  5
34FA3
330
18
100
AcDbEntity
  8
1DIM
100
AcDbLine
 10
1598.877490950112
 20
-2032.984868227626
 30
0.0
 11
1598.877490950112
 21
-2066.98486822763
 31
0.0
1001
ACAD
1000
DSTYLE
1002
{
1070
    40
1040
4.0
1002
}
  0
LINE
  5
34FA4
330
18
100
AcDbEntity
  8
1DIM
100
AcDbLine
 10
1598.877490950112
 20
-2074.98486822763
 30
0.0
 11
1598.877490950112
 21
-2281.38486822763
 31
0.0
1001
ACAD
1000
DSTYLE
1002
{
1070
    40
1040
4.0
1002
}
  0
LINE
  5
34FA8
330
18
100
AcDbEntity
  8
1DIM
100
AcDbLine
 10
1643.864094946182
 20
-2123.47310711609
 30
0.0
 11
1643.864094946182
 21
-2165.086219227129
 31
0.0
1001
ACAD
1000
DSTYLE
1002
{
1070
    40
1040
4.0
1002
}
  0
LINE
  5
34FA9
330
18
100
AcDbEntity
  8
1DIM
100
AcDbLine
 10
1713.864094946185
 20
-2123.47310711609
 30
0.0
 11
1713.864094946185
 21
-2165.086219227129
 31
0.0
1001
ACAD
1000
DSTYLE
1002
{
1070
    40
1040
4.0
1002
}
  0
LINE
  5
34FAA
330
18
100
AcDbEntity
  8
1DIM
100
AcDbLine
 10
1651.864094946182
 20
-2161.086219227129
 30
0.0
 11
1705.864094946185
 21
-2161.086219227129
 31
0.0
1001
ACAD
1000
DSTYLE
1002
{
1070
    40
1040
4.0
1002
}
  0
LINE
  5
34FAE
330
18
100
AcDbEntity
  8
1DIM
100
AcDbLine
 10
1643.864094946183
 20
-2473.88486821851
 30
0.0
 11
1643.864094946183
 21
-2519.006823682527
 31
0.0
1001
ACAD
1000
DSTYLE
1002
{
1070
    40
1040
4.0
1002
}
  0
LINE
  5
34FAF
330
18
100
AcDbEntity
  8
1DIM
100
AcDbLine
 10
1713.864094946183
 20
-2473.88486821851
 30
0.0
 11
1713.864094946183
 21
-2519.006823682527
 31
0.0
1001
ACAD
1000
DSTYLE
1002
{
1070
    40
1040
4.0
1002
}
  0
LINE
  5
34FB0
330
18
100
AcDbEntity
  8
1DIM
100
AcDbLine
 10
1651.864094946183
 20
-2515.006823682527
 30
0.0
 11
1705.864094946183
 21
-2515.006823682527
 31
0.0
1001
ACAD
1000
DSTYLE
1002
{
1070
    40
1040
4.0
1002
}
  0
LINE
  5
34FB4
330
18
100
AcDbEntity
  8
1DIM
100
AcDbLine
 10
1626.264717895995
 20
-1902.984868227626
 30
0.0
 11
1594.877490950112
 21
-1902.984868227626
 31
0.0
1001
ACAD
1000
DSTYLE
1002
{
1070
    40
1040
4.0
1002
}
  0
LINE
  5
34FB5
330
18
100
AcDbEntity
  8
1DIM
100
AcDbLine
 10
1618.864094946184
 20
-1687.984868218511
 30
0.0
 11
1594.877490950112
 21
-1687.984868218511
 31
0.0
1001
ACAD
1000
DSTYLE
1002
{
1070
    40
1040
4.0
1002
}
  0
LINE
  5
34FB6
330
18
100
AcDbEntity
  8
1DIM
100
AcDbLine
 10
1598.877490950112
 20
-1894.984868227626
 30
0.0
 11
1598.877490950112
 21
-1695.984868218511
 31
0.0
1001
ACAD
1000
DSTYLE
1002
{
1070
    40
1040
4.0
1002
}
  0
SOLID
  5
34FBA
330
18
100
AcDbEntity
  8
1DIM
100
AcDbTrace
 10
1642.652486682476
 20
-1884.682573552059
 30
0.0
 11
1643.532863480491
 21
-1892.744999642963
 31
0.0
 12
1640.085233723156
 22
-1885.40390797795
 32
0.0
 13
1640.085233723156
 23
-1885.40390797795
 33
0.0
1001
ACAD
1000
DSTYLE
1002
{
1070
    40
1040
4.0
1002
}
  0
LINE
  5
34FBB
330
18
100
AcDbEntity
  8
1DIM
100
AcDbLine
 10
1641.368860202816
 20
-1885.043240765005
 30
0.0
 11
1568.401958676419
 21
-1625.351637048095
 31
0.0
1001
ACAD
1000
DSTYLE
1002
{
1070
    40
1040
4.0
1002
}
  0
LINE
  5
34FBC
330
18
100
AcDbEntity
  8
1DIM
100
AcDbLine
 10
1568.401958676419
 20
-1625.351637048095
 30
0.0
 11
1383.801958676419
 21
-1625.351637048095
 31
0.0
1001
ACAD
1000
DSTYLE
1002
{
1070
    40
1040
4.0
1002
}
  0
TEXT
  5
34FBD
330
18
100
AcDbEntity
  8
1TEXT
  6
CONTINUOUS
100
AcDbText
 10
1388.571403120863
 20
-1599.218303714762
 30
0.0
 40
14.0
  1
ルームナンバーGP-2
100
AcDbText
  0
TEXT
  5
34FBE
330
18
100
AcDbEntity
  8
1TEXT
  6
CONTINUOUS
100
AcDbText
 10
1443.735292009752
 20
-1622.551637048095
 30
0.0
 40
14.0
  1
張付け推奨位置
100
AcDbText
  0
LINE
  5
34FBF
330
18
100
AcDbEntity
  8
1DIM
100
AcDbLine
 10
1618.864094946184
 20
-1687.984868218511
 30
0.0
 11
1618.864094946184
 21
-1639.667656402434
 31
0.0
1001
ACAD
1000
DSTYLE
1002
{
1070
    40
1040
4.0
1002
}
  0
LINE
  5
34FC0
330
18
100
AcDbEntity
  8
1DIM
100
AcDbLine
 10
1738.864094946184
 20
-1687.984868218511
 30
0.0
 11
1738.864094946184
 21
-1639.667656402434
 31
0.0
1001
ACAD
1000
DSTYLE
1002
{
1070
    40
1040
4.0
1002
}
  0
LINE
  5
34FC1
330
18
100
AcDbEntity
  8
1DIM
100
AcDbLine
 10
1626.864094946184
 20
-1643.667656402434
 30
0.0
 11
1730.864094946184
 21
-1643.667656402434
 31
0.0
1001
ACAD
1000
DSTYLE
1002
{
1070
    40
1040
4.0
1002
}
  0
SOLID
  5
34FC5
330
18
100
AcDbEntity
  8
1DIM
100
AcDbTrace
 10
1956.905449825337
 20
-1678.684525301735
 30
0.0
 11
1950.316898116282
 21
-1683.414088088599
 31
0.0
 12
1955.015399639919
 22
-1676.803349762953
 32
0.0
 13
1955.015399639919
 23
-1676.803349762953
 33
0.0
1001
ACAD
1000
DSTYLE
1002
{
1070
    40
1040
4.0
1002
}
  0
LINE
  5
34FC6
330
18
100
AcDbEntity
  8
1DIM
100
AcDbLine
 10
1955.960424732628
 20
-1677.743937532344
 30
0.0
 11
2010.408524551326
 21
-1623.038972984145
 31
0.0
1001
ACAD
1000
DSTYLE
1002
{
1070
    40
1040
4.0
1002
}
  0
LINE
  5
34FC7
330
18
100
AcDbEntity
  8
1DIM
100
AcDbLine
 10
2010.408524551326
 20
-1623.038972984145
 30
0.0
 11
2276.808524551326
 21
-1623.038972984145
 31
0.0
1001
ACAD
1000
DSTYLE
1002
{
1070
    40
1040
4.0
1002
}
  0
TEXT
  5
34FC8
330
18
100
AcDbEntity
  8
1DIM
  6
CONTINUOUS
100
AcDbText
 10
2020.275191217993
 20
-1596.886195206367
 30
0.0
 40
14.0
  1
製品の取り付けのため
100
AcDbText
  0
TEXT
  5
34FC9
330
18
100
AcDbEntity
  8
1DIM
  6
CONTINUOUS
100
AcDbText
 10
2021.208524551326
 20
-1620.238972984145
 30
0.0
 40
14.0
  1
上部に150ミリ以上の空間が必要
100
AcDbText
  0
SOLID
  5
34FCA
330
18
100
AcDbEntity
  8
1DIM
100
AcDbTrace
 10
1925.248578101925
 20
-2491.698095537718
 30
0.0
 11
1919.341243076016
 21
-2486.141012609648
 31
0.0
 12
1926.73155986098
 22
-2489.481820235906
 32
0.0
 13
1926.73155986098
 23
-2489.481820235906
 33
0.0
1001
ACAD
1000
DSTYLE
1002
{
1070
    40
1040
4.0
1002
}
  0
LINE
  5
34FCB
330
18
100
AcDbEntity
  8
1DIM
100
AcDbLine
 10
1925.990068981452
 20
-2490.589957886812
 30
0.0
 11
2010.408524551326
 21
-2547.077087276992
 31
0.0
1001
ACAD
1000
DSTYLE
1002
{
1070
    40
1040
4.0
1002
}
  0
LINE
  5
34FCC
330
18
100
AcDbEntity
  8
1DIM
100
AcDbLine
 10
2010.408524551326
 20
-2547.077087276992
 30
0.0
 11
2276.341857884659
 21
-2547.077087276992
 31
0.0
1001
ACAD
1000
DSTYLE
1002
{
1070
    40
1040
4.0
1002
}
  0
TEXT
  5
34FCD
330
18
100
AcDbEntity
  8
1DIM
  6
CONTINUOUS
100
AcDbText
 10
2020.275191217993
 20
-2520.924309499214
 30
0.0
 40
14.0
  1
製品の取り付けのため
100
AcDbText
  0
TEXT
  5
34FCE
330
18
100
AcDbEntity
  8
1DIM
  6
CONTINUOUS
100
AcDbText
 10
2020.741857884659
 20
-2544.277087276992
 30
0.0
 40
14.0
  1
下部に150ミリ以上の空間が必要
100
AcDbText
  0
SOLID
  5
34FCF
330
18
100
AcDbEntity
  8
1DIM
100
AcDbTrace
 10
1959.8838692484
 20
-2060.761215926736
 30
0.0
 11
1952.469820700469
 21
-2064.04902095543
 31
0.0
 12
1958.416794722989
 22
-2058.53437883166
 32
0.0
 13
1958.416794722989
 23
-2058.53437883166
 33
0.0
1001
ACAD
1000
DSTYLE
1002
{
1070
    40
1040
4.0
1002
}
  0
LINE
  5
34FD0
330
18
100
AcDbEntity
  8
1DIM
100
AcDbLine
 10
1959.150331985694
 20
-2059.647797379198
 30
0.0
 11
2009.166511440573
 21
-2026.696369140953
 31
0.0
1001
ACAD
1000
DSTYLE
1002
{
1070
    40
1040
4.0
1002
}
  0
LINE
  5
34FD1
330
18
100
AcDbEntity
  8
1DIM
100
AcDbLine
 10
2009.166511440573
 20
-2026.696369140953
 30
0.0
 11
2167.899844773907
 21
-2026.696369140953
 31
0.0
1001
ACAD
1000
DSTYLE
1002
{
1070
    40
1040
4.0
1002
}
  0
TEXT
  5
34FD2
330
18
100
AcDbEntity
  8
1DIM
  6
CONTINUOUS
100
AcDbText
 10
2019.03317810724
 20
-2000.56303580762
 30
0.0
 40
14.0
  1
材質：ステンレス
100
AcDbText
  0
TEXT
  5
34FD3
330
18
100
AcDbEntity
  8
1DIM
  6
CONTINUOUS
100
AcDbText
 10
2019.499844773906
 20
-2023.896369140953
 30
0.0
 40
14.0
  1
仕上げ：各種仕上げ
100
AcDbText
  0
SOLID
  5
34FD4
330
18
100
AcDbEntity
  8
1DIM
100
AcDbTrace
 10
1725.288198585297
 20
-2487.628650939102
 30
0.0
 11
1720.612125871431
 21
-2481.0020287413
 31
0.0
 12
1727.184612664916
 22
-2485.753891021211
 32
0.0
 13
1727.184612664916
 23
-2485.753891021211
 33
0.0
1001
ACAD
1000
DSTYLE
1002
{
1070
    40
1040
4.0
1002
}
  0
LINE
  5
34FD5
330
18
100
AcDbEntity
  8
1DIM
100
AcDbLine
 10
1726.236405625107
 20
-2486.691270980157
 30
0.0
 11
1787.331007074256
 21
-2548.491537388216
 31
0.0
1001
ACAD
1000
DSTYLE
1002
{
1070
    40
1040
4.0
1002
}
  0
LINE
  5
34FD6
330
18
100
AcDbEntity
  8
1DIM
100
AcDbLine
 10
1787.331007074256
 20
-2548.491537388216
 30
0.0
 11
1946.064340407589
 21
-2548.491537388216
 31
0.0
1001
ACAD
1000
DSTYLE
1002
{
1070
    40
1040
4.0
1002
}
  0
TEXT
  5
34FD7
330
18
100
AcDbEntity
  8
1DIM
  6
CONTINUOUS
100
AcDbText
 10
1797.197673740923
 20
-2522.358204054882
 30
0.0
 40
14.0
  1
材質：AES
100
AcDbText
  0
TEXT
  5
34FD8
330
18
100
AcDbEntity
  8
1DIM
  6
CONTINUOUS
100
AcDbText
 10
1797.664340407589
 20
-2545.691537388216
 30
0.0
 40
14.0
  1
仕上げ：各種仕上げ
100
AcDbText
  0
LINE
  5
34FD9
330
18
100
AcDbEntity
  8
0
  6
BYBLOCK
100
AcDbLine
 10
1776.720501426184
 20
-1777.98486821851
 30
0.0
 11
1778.864094946184
 21
-1769.98486821851
 31
0.0
  0
LINE
  5
34FDA
330
18
100
AcDbEntity
  8
0
  6
BYBLOCK
100
AcDbLine
 10
1778.864094946184
 20
-1769.98486821851
 30
0.0
 11
1781.007688466184
 21
-1777.98486821851
 31
0.0
  0
LINE
  5
34FDB
330
18
100
AcDbEntity
  8
0
  6
BYBLOCK
100
AcDbLine
 10
1778.864094946184
 20
-1769.98486821851
 30
0.0
 11
1778.864094946184
 21
-1777.98486821851
 31
0.0
  0
LINE
  5
34FDC
330
18
100
AcDbEntity
  8
0
  6
BYBLOCK
100
AcDbLine
 10
1781.007688466184
 20
-2111.98486821851
 30
0.0
 11
1778.864094946184
 21
-2119.98486821851
 31
0.0
  0
LINE
  5
34FDD
330
18
100
AcDbEntity
  8
0
  6
BYBLOCK
100
AcDbLine
 10
1778.864094946184
 20
-2119.98486821851
 30
0.0
 11
1776.720501426184
 21
-2111.98486821851
 31
0.0
  0
LINE
  5
34FDE
330
18
100
AcDbEntity
  8
0
  6
BYBLOCK
100
AcDbLine
 10
1778.864094946184
 20
-2119.98486821851
 30
0.0
 11
1778.864094946184
 21
-2111.98486821851
 31
0.0
  0
TEXT
  5
34FDF
330
18
100
AcDbEntity
  8
1DIM
  6
CONTINUOUS
100
AcDbText
 10
1776.064094946184
 20
-1969.825145996287
 30
0.0
 40
14.0
  1
P350
 50
90.0
100
AcDbText
1001
ACAD
1000
DSTYLE
1002
{
1070
    40
1040
4.0
1002
}
  0
LINE
  5
34FE0
330
18
100
AcDbEntity
  8
0
  6
BYBLOCK
100
AcDbLine
 10
1816.720501426183
 20
-1695.984868218511
 30
0.0
 11
1818.864094946183
 21
-1687.984868218511
 31
0.0
  0
LINE
  5
34FE1
330
18
100
AcDbEntity
  8
0
  6
BYBLOCK
100
AcDbLine
 10
1818.864094946183
 20
-1687.984868218511
 30
0.0
 11
1821.007688466183
 21
-1695.984868218511
 31
0.0
  0
LINE
  5
34FE2
330
18
100
AcDbEntity
  8
0
  6
BYBLOCK
100
AcDbLine
 10
1818.864094946183
 20
-1687.984868218511
 30
0.0
 11
1818.864094946183
 21
-1695.984868218511
 31
0.0
  0
LINE
  5
34FE3
330
18
100
AcDbEntity
  8
0
  6
BYBLOCK
100
AcDbLine
 10
1821.007688466183
 20
-2473.984868218512
 30
0.0
 11
1818.864094946183
 21
-2481.984868218512
 31
0.0
  0
LINE
  5
34FE4
330
18
100
AcDbEntity
  8
0
  6
BYBLOCK
100
AcDbLine
 10
1818.864094946183
 20
-2481.984868218512
 30
0.0
 11
1816.720501426183
 21
-2473.984868218512
 31
0.0
  0
LINE
  5
34FE5
330
18
100
AcDbEntity
  8
0
  6
BYBLOCK
100
AcDbLine
 10
1818.864094946183
 20
-2481.984868218512
 30
0.0
 11
1818.864094946183
 21
-2473.984868218512
 31
0.0
  0
TEXT
  5
34FE6
330
18
100
AcDbEntity
  8
1DIM
  6
CONTINUOUS
100
AcDbText
 10
1816.064094946184
 20
-2103.654775625918
 30
0.0
 40
14.0
  1
794
 50
90.0
100
AcDbText
1001
ACAD
1000
DSTYLE
1002
{
1070
    40
1040
4.0
1002
}
  0
LINE
  5
34FE7
330
18
100
AcDbEntity
  8
0
  6
BYBLOCK
100
AcDbLine
 10
1919.746630241206
 20
-1655.307597357843
 30
0.0
 11
1911.746630241206
 21
-1653.164003837843
 31
0.0
  0
LINE
  5
34FE8
330
18
100
AcDbEntity
  8
0
  6
BYBLOCK
100
AcDbLine
 10
1911.746630241206
 20
-1653.164003837843
 30
0.0
 11
1919.746630241206
 21
-1651.020410317843
 31
0.0
  0
LINE
  5
34FE9
330
18
100
AcDbEntity
  8
0
  6
BYBLOCK
100
AcDbLine
 10
1911.746630241206
 20
-1653.164003837843
 30
0.0
 11
1919.746630241206
 21
-1653.164003837843
 31
0.0
  0
LINE
  5
34FEA
330
18
100
AcDbEntity
  8
0
  6
BYBLOCK
100
AcDbLine
 10
1955.746630241206
 20
-1651.020410317843
 30
0.0
 11
1963.746630241206
 21
-1653.164003837843
 31
0.0
  0
LINE
  5
34FEB
330
18
100
AcDbEntity
  8
0
  6
BYBLOCK
100
AcDbLine
 10
1963.746630241206
 20
-1653.164003837843
 30
0.0
 11
1955.746630241206
 21
-1655.307597357843
 31
0.0
  0
LINE
  5
34FEC
330
18
100
AcDbEntity
  8
0
  6
BYBLOCK
100
AcDbLine
 10
1963.746630241206
 20
-1653.164003837843
 30
0.0
 11
1955.746630241206
 21
-1653.164003837843
 31
0.0
  0
TEXT
  5
34FED
330
18
100
AcDbEntity
  8
1DIM
  6
CONTINUOUS
100
AcDbText
 10
1926.031352463428
 20
-1650.364003837843
 30
0.0
 40
14.0
  1
52
100
AcDbText
1001
ACAD
1000
DSTYLE
1002
{
1070
    40
1040
4.0
1002
}
  0
LINE
  5
34FEE
330
18
100
AcDbEntity
  8
0
  6
BYBLOCK
100
AcDbLine
 10
1651.864094946183
 20
-1673.727085202211
 30
0.0
 11
1643.864094946183
 21
-1671.583491682211
 31
0.0
  0
LINE
  5
34FEF
330
18
100
AcDbEntity
  8
0
  6
BYBLOCK
100
AcDbLine
 10
1643.864094946183
 20
-1671.583491682211
 30
0.0
 11
1651.864094946183
 21
-1669.439898162211
 31
0.0
  0
LINE
  5
34FF0
330
18
100
AcDbEntity
  8
0
  6
BYBLOCK
100
AcDbLine
 10
1643.864094946183
 20
-1671.583491682211
 30
0.0
 11
1651.864094946183
 21
-1671.583491682211
 31
0.0
  0
LINE
  5
34FF1
330
18
100
AcDbEntity
  8
0
  6
BYBLOCK
100
AcDbLine
 10
1705.864094946184
 20
-1669.439898162211
 30
0.0
 11
1713.864094946184
 21
-1671.583491682211
 31
0.0
  0
LINE
  5
34FF2
330
18
100
AcDbEntity
  8
0
  6
BYBLOCK
100
AcDbLine
 10
1713.864094946184
 20
-1671.583491682211
 30
0.0
 11
1705.864094946184
 21
-1673.727085202211
 31
0.0
  0
LINE
  5
34FF3
330
18
100
AcDbEntity
  8
0
  6
BYBLOCK
100
AcDbLine
 10
1713.864094946184
 20
-1671.583491682211
 30
0.0
 11
1705.864094946184
 21
-1671.583491682211
 31
0.0
  0
TEXT
  5
34FF4
330
18
100
AcDbEntity
  8
1DIM
  6
CONTINUOUS
100
AcDbText
 10
1661.072428279517
 20
-1668.783491682211
 30
0.0
 40
14.0
  1
P70
100
AcDbText
1001
ACAD
1000
DSTYLE
1002
{
1070
    40
1040
4.0
1002
}
  0
LINE
  5
34FF5
330
18
100
AcDbEntity
  8
0
  6
BYBLOCK
100
AcDbLine
 10
1781.007688466184
 20
-1761.98486821851
 30
0.0
 11
1778.864094946184
 21
-1769.98486821851
 31
0.0
  0
LINE
  5
34FF6
330
18
100
AcDbEntity
  8
0
  6
BYBLOCK
100
AcDbLine
 10
1778.864094946184
 20
-1769.98486821851
 30
0.0
 11
1776.720501426184
 21
-1761.98486821851
 31
0.0
  0
LINE
  5
34FF7
330
18
100
AcDbEntity
  8
0
  6
BYBLOCK
100
AcDbLine
 10
1778.864094946184
 20
-1769.98486821851
 30
0.0
 11
1778.864094946184
 21
-1761.98486821851
 31
0.0
  0
LINE
  5
34FF8
330
18
100
AcDbEntity
  8
0
  6
BYBLOCK
100
AcDbLine
 10
1776.720501426184
 20
-1695.984868218511
 30
0.0
 11
1778.864094946184
 21
-1687.984868218511
 31
0.0
  0
LINE
  5
34FF9
330
18
100
AcDbEntity
  8
0
  6
BYBLOCK
100
AcDbLine
 10
1778.864094946184
 20
-1687.984868218511
 30
0.0
 11
1781.007688466184
 21
-1695.984868218511
 31
0.0
  0
LINE
  5
34FFA
330
18
100
AcDbEntity
  8
0
  6
BYBLOCK
100
AcDbLine
 10
1778.864094946184
 20
-1687.984868218511
 30
0.0
 11
1778.864094946184
 21
-1695.984868218511
 31
0.0
  0
TEXT
  5
34FFB
330
18
100
AcDbEntity
  8
1DIM
  6
CONTINUOUS
100
AcDbText
 10
1776.064094946184
 20
-1747.651534885177
 30
0.0
 40
14.0
  1
P82
 50
90.0
100
AcDbText
1001
ACAD
1000
DSTYLE
1002
{
1070
    40
1040
4.0
1002
}
  0
LINE
  5
34FFC
330
18
100
AcDbEntity
  8
0
  6
BYBLOCK
100
AcDbLine
 10
1781.007688466184
 20
-2461.98486821851
 30
0.0
 11
1778.864094946184
 21
-2469.98486821851
 31
0.0
  0
LINE
  5
34FFD
330
18
100
AcDbEntity
  8
0
  6
BYBLOCK
100
AcDbLine
 10
1778.864094946184
 20
-2469.98486821851
 30
0.0
 11
1776.720501426184
 21
-2461.98486821851
 31
0.0
  0
LINE
  5
34FFE
330
18
100
AcDbEntity
  8
0
  6
BYBLOCK
100
AcDbLine
 10
1778.864094946184
 20
-2469.98486821851
 30
0.0
 11
1778.864094946184
 21
-2461.98486821851
 31
0.0
  0
LINE
  5
34FFF
330
18
100
AcDbEntity
  8
0
  6
BYBLOCK
100
AcDbLine
 10
1776.720501426184
 20
-2127.98486821851
 30
0.0
 11
1778.864094946184
 21
-2119.98486821851
 31
0.0
  0
LINE
  5
35000
330
18
100
AcDbEntity
  8
0
  6
BYBLOCK
100
AcDbLine
 10
1778.864094946184
 20
-2119.98486821851
 30
0.0
 11
1781.007688466184
 21
-2127.98486821851
 31
0.0
  0
LINE
  5
35001
330
18
100
AcDbEntity
  8
0
  6
BYBLOCK
100
AcDbLine
 10
1778.864094946184
 20
-2119.98486821851
 30
0.0
 11
1778.864094946184
 21
-2127.98486821851
 31
0.0
  0
TEXT
  5
35002
330
18
100
AcDbEntity
  8
1DIM
  6
CONTINUOUS
100
AcDbText
 10
1776.064094946184
 20
-2319.825145996288
 30
0.0
 40
14.0
  1
P350
 50
90.0
100
AcDbText
1001
ACAD
1000
DSTYLE
1002
{
1070
    40
1040
4.0
1002
}
  0
LINE
  5
35003
330
18
100
AcDbEntity
  8
0
  6
BYBLOCK
100
AcDbLine
 10
1521.007688466183
 20
-2016.984868227626
 30
0.0
 11
1518.864094946183
 21
-2024.984868227626
 31
0.0
  0
LINE
  5
35004
330
18
100
AcDbEntity
  8
0
  6
BYBLOCK
100
AcDbLine
 10
1518.864094946183
 20
-2024.984868227626
 30
0.0
 11
1516.720501426183
 21
-2016.984868227626
 31
0.0
  0
LINE
  5
35005
330
18
100
AcDbEntity
  8
0
  6
BYBLOCK
100
AcDbLine
 10
1518.864094946183
 20
-2024.984868227626
 30
0.0
 11
1518.864094946183
 21
-2016.984868227626
 31
0.0
  0
LINE
  5
35006
330
18
100
AcDbEntity
  8
0
  6
BYBLOCK
100
AcDbLine
 10
1516.720501426183
 20
-1777.98486821851
 30
0.0
 11
1518.864094946183
 21
-1769.98486821851
 31
0.0
  0
LINE
  5
35007
330
18
100
AcDbEntity
  8
0
  6
BYBLOCK
100
AcDbLine
 10
1518.864094946183
 20
-1769.98486821851
 30
0.0
 11
1521.007688466183
 21
-1777.98486821851
 31
0.0
  0
LINE
  5
35008
330
18
100
AcDbEntity
  8
0
  6
BYBLOCK
100
AcDbLine
 10
1518.864094946183
 20
-1769.98486821851
 30
0.0
 11
1518.864094946183
 21
-1777.98486821851
 31
0.0
  0
TEXT
  5
35009
330
18
100
AcDbEntity
  8
1DIM
  6
CONTINUOUS
100
AcDbText
 10
1516.064094946184
 20
-1916.200146000845
 30
0.0
 40
14.0
  1
255
 50
90.0
100
AcDbText
1001
ACAD
1000
DSTYLE
1002
{
1070
    40
1040
4.0
1002
}
  0
LINE
  5
3500A
330
18
100
AcDbEntity
  8
0
  6
BYBLOCK
100
AcDbLine
 10
1596.733897430112
 20
-2032.984868227626
 30
0.0
 11
1598.877490950112
 21
-2024.984868227626
 31
0.0
  0
LINE
  5
3500B
330
18
100
AcDbEntity
  8
0
  6
BYBLOCK
100
AcDbLine
 10
1598.877490950112
 20
-2024.984868227626
 30
0.0
 11
1601.021084470112
 21
-2032.984868227626
 31
0.0
  0
LINE
  5
3500C
330
18
100
AcDbEntity
  8
0
  6
BYBLOCK
100
AcDbLine
 10
1598.877490950112
 20
-2024.984868227626
 30
0.0
 11
1598.877490950112
 21
-2032.984868227626
 31
0.0
  0
LINE
  5
3500D
330
18
100
AcDbEntity
  8
0
  6
BYBLOCK
100
AcDbLine
 10
1601.021084470112
 20
-2066.98486822763
 30
0.0
 11
1598.877490950112
 21
-2074.98486822763
 31
0.0
  0
LINE
  5
3500E
330
18
100
AcDbEntity
  8
0
  6
BYBLOCK
100
AcDbLine
 10
1598.877490950112
 20
-2074.98486822763
 30
0.0
 11
1596.733897430112
 21
-2066.98486822763
 31
0.0
  0
LINE
  5
3500F
330
18
100
AcDbEntity
  8
0
  6
BYBLOCK
100
AcDbLine
 10
1598.877490950112
 20
-2074.98486822763
 30
0.0
 11
1598.877490950112
 21
-2066.98486822763
 31
0.0
  0
TEXT
  5
35010
330
18
100
AcDbEntity
  8
1DIM
  6
CONTINUOUS
100
AcDbText
 10
1549.401102061223
 20
-2256.38486822763
 30
0.0
 40
14.0
  1
スイッチボックスを
 50
90.0
100
AcDbText
1001
ACAD
1000
DSTYLE
1002
{
1070
    40
1040
4.0
1002
}
  0
TEXT
  5
35011
330
18
100
AcDbEntity
  8
1DIM
  6
CONTINUOUS
100
AcDbText
 10
1572.734435394556
 20
-2247.518201560963
 30
0.0
 40
14.0
  1
使用しない場合の
 50
90.0
100
AcDbText
1001
ACAD
1000
DSTYLE
1002
{
1070
    40
1040
4.0
1002
}
  0
TEXT
  5
35012
330
18
100
AcDbEntity
  8
1DIM
  6
CONTINUOUS
100
AcDbText
 10
1596.077490950112
 20
-2272.300146005407
 30
0.0
 40
14.0
  1
配線用穴50（推奨位置）
 50
90.0
100
AcDbText
1001
ACAD
1000
DSTYLE
1002
{
1070
    40
1040
4.0
1002
}
  0
LINE
  5
35013
330
18
100
AcDbEntity
  8
0
  6
BYBLOCK
100
AcDbLine
 10
1651.864094946182
 20
-2163.229812747129
 30
0.0
 11
1643.864094946182
 21
-2161.086219227129
 31
0.0
  0
LINE
  5
35014
330
18
100
AcDbEntity
  8
0
  6
BYBLOCK
100
AcDbLine
 10
1643.864094946182
 20
-2161.086219227129
 30
0.0
 11
1651.864094946182
 21
-2158.942625707129
 31
0.0
  0
LINE
  5
35015
330
18
100
AcDbEntity
  8
0
  6
BYBLOCK
100
AcDbLine
 10
1643.864094946182
 20
-2161.086219227129
 30
0.0
 11
1651.864094946182
 21
-2161.086219227129
 31
0.0
  0
LINE
  5
35016
330
18
100
AcDbEntity
  8
0
  6
BYBLOCK
100
AcDbLine
 10
1705.864094946185
 20
-2158.942625707129
 30
0.0
 11
1713.864094946185
 21
-2161.086219227129
 31
0.0
  0
LINE
  5
35017
330
18
100
AcDbEntity
  8
0
  6
BYBLOCK
100
AcDbLine
 10
1713.864094946185
 20
-2161.086219227129
 30
0.0
 11
1705.864094946185
 21
-2163.229812747129
 31
0.0
  0
LINE
  5
35018
330
18
100
AcDbEntity
  8
0
  6
BYBLOCK
100
AcDbLine
 10
1713.864094946185
 20
-2161.086219227129
 30
0.0
 11
1705.864094946185
 21
-2161.086219227129
 31
0.0
  0
TEXT
  5
35019
330
18
100
AcDbEntity
  8
1DIM
  6
CONTINUOUS
100
AcDbText
 10
1661.072428279517
 20
-2158.286219227129
 30
0.0
 40
14.0
  1
P70
100
AcDbText
1001
ACAD
1000
DSTYLE
1002
{
1070
    40
1040
4.0
1002
}
  0
LINE
  5
3501A
330
18
100
AcDbEntity
  8
0
  6
BYBLOCK
100
AcDbLine
 10
1651.864094946183
 20
-2517.150417202527
 30
0.0
 11
1643.864094946183
 21
-2515.006823682527
 31
0.0
  0
LINE
  5
3501B
330
18
100
AcDbEntity
  8
0
  6
BYBLOCK
100
AcDbLine
 10
1643.864094946183
 20
-2515.006823682527
 30
0.0
 11
1651.864094946183
 21
-2512.863230162527
 31
0.0
  0
LINE
  5
3501C
330
18
100
AcDbEntity
  8
0
  6
BYBLOCK
100
AcDbLine
 10
1643.864094946183
 20
-2515.006823682527
 30
0.0
 11
1651.864094946183
 21
-2515.006823682527
 31
0.0
  0
LINE
  5
3501D
330
18
100
AcDbEntity
  8
0
  6
BYBLOCK
100
AcDbLine
 10
1705.864094946183
 20
-2512.863230162527
 30
0.0
 11
1713.864094946183
 21
-2515.006823682527
 31
0.0
  0
LINE
  5
3501E
330
18
100
AcDbEntity
  8
0
  6
BYBLOCK
100
AcDbLine
 10
1713.864094946183
 20
-2515.006823682527
 30
0.0
 11
1705.864094946183
 21
-2517.150417202527
 31
0.0
  0
LINE
  5
3501F
330
18
100
AcDbEntity
  8
0
  6
BYBLOCK
100
AcDbLine
 10
1713.864094946183
 20
-2515.006823682527
 30
0.0
 11
1705.864094946183
 21
-2515.006823682527
 31
0.0
  0
TEXT
  5
35020
330
18
100
AcDbEntity
  8
1DIM
  6
CONTINUOUS
100
AcDbText
 10
1661.072428279516
 20
-2512.206823682527
 30
0.0
 40
14.0
  1
P70
100
AcDbText
1001
ACAD
1000
DSTYLE
1002
{
1070
    40
1040
4.0
1002
}
  0
LINE
  5
35021
330
18
100
AcDbEntity
  8
0
  6
BYBLOCK
100
AcDbLine
 10
1601.021084470112
 20
-1894.984868227626
 30
0.0
 11
1598.877490950112
 21
-1902.984868227626
 31
0.0
  0
LINE
  5
35022
330
18
100
AcDbEntity
  8
0
  6
BYBLOCK
100
AcDbLine
 10
1598.877490950112
 20
-1902.984868227626
 30
0.0
 11
1596.733897430112
 21
-1894.984868227626
 31
0.0
  0
LINE
  5
35023
330
18
100
AcDbEntity
  8
0
  6
BYBLOCK
100
AcDbLine
 10
1598.877490950112
 20
-1902.984868227626
 30
0.0
 11
1598.877490950112
 21
-1894.984868227626
 31
0.0
  0
LINE
  5
35024
330
18
100
AcDbEntity
  8
0
  6
BYBLOCK
100
AcDbLine
 10
1596.733897430112
 20
-1695.984868218511
 30
0.0
 11
1598.877490950112
 21
-1687.984868218511
 31
0.0
  0
LINE
  5
35025
330
18
100
AcDbEntity
  8
0
  6
BYBLOCK
100
AcDbLine
 10
1598.877490950112
 20
-1687.984868218511
 30
0.0
 11
1601.021084470112
 21
-1695.984868218511
 31
0.0
  0
LINE
  5
35026
330
18
100
AcDbEntity
  8
0
  6
BYBLOCK
100
AcDbLine
 10
1598.877490950112
 20
-1687.984868218511
 30
0.0
 11
1598.877490950112
 21
-1695.984868218511
 31
0.0
  0
TEXT
  5
35027
330
18
100
AcDbEntity
  8
1DIM
  6
CONTINUOUS
100
AcDbText
 10
1596.077490950112
 20
-1811.818201556401
 30
0.0
 40
14.0
  1
215
 50
90.0
100
AcDbText
1001
ACAD
1000
DSTYLE
1002
{
1070
    40
1040
4.0
1002
}
  0
LINE
  5
35028
330
18
100
AcDbEntity
  8
0
  6
BYBLOCK
100
AcDbLine
 10
1626.864094946184
 20
-1645.811249922434
 30
0.0
 11
1618.864094946184
 21
-1643.667656402434
 31
0.0
  0
LINE
  5
35029
330
18
100
AcDbEntity
  8
0
  6
BYBLOCK
100
AcDbLine
 10
1618.864094946184
 20
-1643.667656402434
 30
0.0
 11
1626.864094946184
 21
-1641.524062882434
 31
0.0
  0
LINE
  5
3502A
330
18
100
AcDbEntity
  8
0
  6
BYBLOCK
100
AcDbLine
 10
1618.864094946184
 20
-1643.667656402434
 30
0.0
 11
1626.864094946184
 21
-1643.667656402434
 31
0.0
  0
LINE
  5
3502B
330
18
100
AcDbEntity
  8
0
  6
BYBLOCK
100
AcDbLine
 10
1730.864094946184
 20
-1641.524062882434
 30
0.0
 11
1738.864094946184
 21
-1643.667656402434
 31
0.0
  0
LINE
  5
3502C
330
18
100
AcDbEntity
  8
0
  6
BYBLOCK
100
AcDbLine
 10
1738.864094946184
 20
-1643.667656402434
 30
0.0
 11
1730.864094946184
 21
-1645.811249922434
 31
0.0
  0
LINE
  5
3502D
330
18
100
AcDbEntity
  8
0
  6
BYBLOCK
100
AcDbLine
 10
1738.864094946184
 20
-1643.667656402434
 30
0.0
 11
1730.864094946184
 21
-1643.667656402434
 31
0.0
  0
TEXT
  5
3502E
330
18
100
AcDbEntity
  8
1DIM
  6
CONTINUOUS
100
AcDbText
 10
1663.40576161285
 20
-1640.867656402434
 30
0.0
 40
14.0
  1
120
100
AcDbText
1001
ACAD
1000
DSTYLE
1002
{
1070
    40
1040
4.0
1002
}
  0
VIEWPORT
  5
57
330
15
100
AcDbEntity
 67
     1
  8
0
100
AcDbViewport
 68
     1
 10
0.0
 20
0.0
 30
0.0
 40
600.1703601108034
 41
297.0000000000001
 68
     1
 69
     1
1001
ACAD
1000
MVIEW
1002
{
1070
    16
1010
0.0
1020
0.0
1030
0.0
1010
0.0
1020
0.0
1030
1.0
1040
0.0
1040
297.0000000000001
1040
-4.272048862584541
1040
18.33904653606845
1040
50.0
1040
0.0
1040
0.0
1070
    16
1070
   100
1070
     0
1070
     1
1070
     0
1070
     0
1070
     0
1070
     0
1040
0.0
1040
0.0
1040
0.0
1040
10.0
1040
10.0
1040
10.0
1040
10.0
1070
     0
1002
{
1002
}
1002
}
  0
ENDSEC
  0
SECTION
  2
OBJECTS
  0
DICTIONARY
  5
C
330
0
100
AcDbDictionary
  3
ACAD_COLOR
350
2D0
  3
ACAD_GROUP
350
D
  3
ACAD_LAYOUT
350
2D1
  3
ACAD_MATERIAL
350
2CF
  3
ACAD_MLEADERSTYLE
350
15B98
  3
ACAD_MLINESTYLE
350
1B
  3
ACAD_PLOTSETTINGS
350
2D2
  3
ACAD_SCALELIST
350
15B76
  3
ACAD_VISUALSTYLE
350
15B65
  3
ACDBHEADERROUNDTRIPXREC
350
3502F
  3
ACDBVARIABLEDICTIONARY
350
37
  3
AEC_PROPERTY_SET_DEFS
350
32AE1
  3
CONTENTDICTIONARY
350
D8
  3
DRAWINGVARIABLESDICT
350
20
  3
DWGPROPS
350
35032
1001
ACAD
1000
TREAT_AS_HARD
1070
     0
  0
DICTIONARY
  5
14EC2
330
2
100
AcDbDictionary
  3
ACAD_LAYERSTATES
360
14EC3
1001
ACAD
1000
TREAT_AS_HARD
1070
     1
  0
DICTIONARY
  5
15BB5
330
E
100
AcDbDictionary
  3
ADSK_XREC_LAYER_RECONCILED
360
15BB6
1001
ACAD
1000
TREAT_AS_HARD
1070
     1
  0
DICTIONARY
  5
15BB7
330
29
100
AcDbDictionary
  3
ADSK_XREC_LAYER_RECONCILED
360
15BB8
1001
ACAD
1000
TREAT_AS_HARD
1070
     1
  0
DICTIONARY
  5
15BB9
330
31
100
AcDbDictionary
  3
ADSK_XREC_LAYER_RECONCILED
360
15BBA
1001
ACAD
1000
TREAT_AS_HARD
1070
     1
  0
DICTIONARY
  5
15BC3
330
101
100
AcDbDictionary
  3
ADSK_XREC_LAYER_RECONCILED
360
15BC4
1001
ACAD
1000
TREAT_AS_HARD
1070
     1
  0
DICTIONARY
  5
15BC5
330
102
100
AcDbDictionary
  3
ADSK_XREC_LAYER_RECONCILED
360
15BC6
1001
ACAD
1000
TREAT_AS_HARD
1070
     1
  0
DICTIONARY
  5
15BC7
330
103
100
AcDbDictionary
  3
ADSK_XREC_LAYER_RECONCILED
360
15BC8
1001
ACAD
1000
TREAT_AS_HARD
1070
     1
  0
DICTIONARY
  5
15BCB
330
25F
100
AcDbDictionary
  3
ADSK_XREC_LAYER_RECONCILED
360
15BCC
1001
ACAD
1000
TREAT_AS_HARD
1070
     1
  0
DICTIONARY
  5
6E9
330
18
100
AcDbDictionary
  3
ACAD_SORTENTS
360
6EA
1001
ACAD
1000
TREAT_AS_HARD
1070
     1
  0
DICTIONARY
  5
59B
330
15
100
AcDbDictionary
  3
ACAD_SORTENTS
360
59C
1001
ACAD
1000
TREAT_AS_HARD
1070
     1
  0
DICTIONARY
  5
2D0
102
{ACAD_REACTORS
330
C
102
}
330
C
100
AcDbDictionary
1001
ACAD
1000
TREAT_AS_HARD
1070
     0
  0
DICTIONARY
  5
D
102
{ACAD_REACTORS
330
C
102
}
330
C
100
AcDbDictionary
  3
*A1
350
2DF3C
  3
*A2
350
2DF3D
  3
*A3
350
2DF86
1001
ACAD
1000
TREAT_AS_HARD
1070
     0
  0
DICTIONARY
  5
2D1
102
{ACAD_REACTORS
330
C
102
}
330
C
100
AcDbDictionary
1001
ACAD
1000
TREAT_AS_HARD
1070
     0
  0
DICTIONARY
  5
2CF
102
{ACAD_REACTORS
330
C
102
}
330
C
100
AcDbDictionary
  3
BYBLOCK
350
15B55
  3
BYLAYER
350
15B4D
  3
GLOBAL
350
15B5D
1001
ACAD
1000
TREAT_AS_HARD
1070
     0
  0
DICTIONARY
  5
15B98
102
{ACAD_REACTORS
330
C
102
}
330
C
100
AcDbDictionary
  3
STANDARD
350
15B99
1001
ACAD
1000
TREAT_AS_HARD
1070
     0
  0
DICTIONARY
  5
1B
102
{ACAD_REACTORS
330
C
102
}
330
C
100
AcDbDictionary
  3
STANDARD
350
1C
1001
ACAD
1000
TREAT_AS_HARD
1070
     0
  0
DICTIONARY
  5
2D2
102
{ACAD_REACTORS
330
C
102
}
330
C
100
AcDbDictionary
1001
ACAD
1000
TREAT_AS_HARD
1070
     0
  0
DICTIONARY
  5
15B76
102
{ACAD_REACTORS
330
C
102
}
330
C
100
AcDbDictionary
  3
A0
350
15B77
  3
A1
350
15B78
  3
A2
350
15B79
  3
A3
350
15B7A
  3
A4
350
15B7B
  3
A5
350
15B7C
  3
A6
350
15B7D
  3
A7
350
15B7E
  3
A8
350
15B7F
  3
A9
350
15B80
  3
B0
350
15B81
  3
B1
350
15B82
  3
B2
350
15B83
  3
B3
350
15B84
  3
B4
350
15B85
  3
B5
350
15B86
  3
B6
350
15B87
  3
B7
350
15B88
  3
B8
350
15B89
  3
B9
350
15B8A
  3
C0
350
15B8B
  3
C1
350
15B8C
  3
C2
350
15B8D
  3
C3
350
15B8E
  3
C4
350
15B8F
  3
C5
350
15B90
  3
C6
350
15B91
  3
C7
350
15B92
  3
C8
350
15B93
  3
C9
350
15B94
  3
D0
350
15B95
  3
D1
350
15B96
  3
D2
350
15B97
1001
ACAD
1000
TREAT_AS_HARD
1070
     0
  0
DICTIONARY
  5
15B65
102
{ACAD_REACTORS
330
C
102
}
330
C
100
AcDbDictionary
  3
2DWIREFRAME
350
15B6B
  3
3D_HIDDEN
350
15B6D
  3
3DWIREFRAME
350
15B6C
  3
BASIC
350
15B6A
  3
BRIGHTEN
350
15B71
  3
COLORCHANGE
350
15B75
  3
CONCEPTUAL
350
15B6E
  3
DIM
350
15B70
  3
EDGECOLOROFF
350
1F525
  3
FACEPATTERN
350
15B74
  3
FLAT
350
15B66
  3
FLATWITHEDGES
350
15B67
  3
GOURAUD
350
15B68
  3
GOURAUDWITHEDGES
350
15B69
  3
HIDDEN
350
34E63
  3
JITTEROFF
350
1F523
  3
LINEPATTERN
350
15B73
  3
MODELING
350
34E69
  3
OVERHANGOFF
350
1F524
  3
REALISTIC
350
15B6F
  3
SHADED
350
34E68
  3
SHADED_WITH_EDGES
350
34E67
  3
SHADES_OF_GRAY
350
34E64
  3
SKETCHY
350
34E65
  3
THICKEN
350
15B72
  3
WIREFRAME
350
34E62
  3
X-RAY
350
34E66
1001
ACAD
1000
TREAT_AS_HARD
1070
     0
  0
DICTIONARY
  5
3502F
102
{ACAD_REACTORS
330
C
102
}
330
C
100
AcDbDictionary
  3
COLORDICT
350
35030
  3
MATERIALDICT
350
35031
1001
ACAD
1000
TREAT_AS_HARD
1070
     0
  0
DICTIONARY
  5
37
102
{ACAD_REACTORS
330
C
102
}
330
C
100
AcDbDictionary
  3
CANNOSCALE
350
34E6B
  3
CMLEADERSTYLE
350
15C4B
  3
CTABLESTYLE
350
4F1
  3
DIMADEC
350
38
  3
DIMASSOC
350
408
  3
HIDETEXT
350
1891
  3
INDEXCTL
350
15C4E
  3
INTERSECTIONCOLOR
350
1895
  3
INTERSECTIONDISPLAY
350
1894
  3
MSLTSCALE
350
34E6C
  3
OBSCOLOR
350
1892
  3
OBSLTYPE
350
1893
  3
PROJECTNAME
350
409
  3
SORTENTS
350
15C4D
  3
XCLIPFRAME
350
34E61
1001
ACAD
1000
TREAT_AS_HARD
1070
     0
  0
DICTIONARY
  5
32AE1
102
{ACAD_REACTORS
330
C
102
}
330
C
100
AcDbDictionary
1001
ACAD
1000
TREAT_AS_HARD
1070
     0
  0
DICTIONARY
  5
D8
102
{ACAD_REACTORS
330
C
102
}
330
C
100
AcDbDictionary
1001
CONTENTTABDATA
1070
    11
1000
Child
1000
D:\ACLT\TABset\CHILDREN.dwg
1070
     0
1070
     0
1070
     1
1000
PK
1000
D:\ACLT\TABset\PK.dwg
1070
     0
1070
     0
1070
     1
1000
Lev1
1000
D:\ACLT\TABset\Lever01.dwg
1070
     0
1070
     0
1070
     1
1000
Lev2
1000
D:\ACLT\TABset\Lever02.dwg
1070
     0
1070
     0
1070
     1
1000
L3
1000
D:\Aclt\TABset\Lever03.dwg
1070
     0
1070
     0
1070
     1
1000
Form
1000
D:\ACLT\FORMAT
1070
     1
1070
     0
1070
     1
1000
Jnt
1000
D:\ACLT\TABset\JOINTPARTS.dwg
1070
     0
1070
     0
1070
     1
1000
ISO
1000
D:\ACLT\TABset\Isome01.dwg
1070
     0
1070
     0
1070
     1
1000
R
1000
D:\ACLT\TABset\REGION.dwg
1070
     0
1070
     0
1070
     1
1000
std
1000
D:\ACLT\TABset\std_sym_all.dwg
1070
     0
1070
     0
1070
     1
1000
丸
1000
D:\Aclt\TABset\MARU.dwg
1070
     0
1070
     0
1070
     1
1001
CONTENTCURRENTTAB
1070
     0
1001
ACAD
1000
TREAT_AS_HARD
1070
     0
  0
DICTIONARY
  5
20
102
{ACAD_REACTORS
330
C
102
}
330
C
100
AcDbDictionary
1001
DRAWINGVARIABLESXDATA
1000
POLARANG
1000
0.261799387799149410000000
1000
POLARMODE
1000
1
1000
POLARSTYLE
1000
1
1001
ACAD
1000
TREAT_AS_HARD
1070
     0
  0
XRECORD
  5
35032
102
{ACAD_REACTORS
330
C
102
}
330
C
100
AcDbXrecord
  1
DWGPROPS COOKIE
  2

  3

  4

  6

  7

  8
619
  9

300
=
301
=
302
=
303
=
304
=
305
=
306
=
307
=
308
=
309
=
 40
0.0
 41
2453033.357663484
 42
2458040.35013934
  1

 90
        0
  0
DICTIONARY
  5
14EC3
102
{ACAD_REACTORS
330
14EC2
102
}
330
14EC2
100
AcDbDictionary
  3
_LAYISO_STATE
350
253AA
1001
ACLAYERTOOLS
1000
2D3
1000
0
1001
ACAD
1000
TREAT_AS_HARD
1070
     0
  0
ACAD_PROXY_OBJECT
  5
15BB6
102
{ACAD_REACTORS
330
15BB5
102
}
330
15BB5
100
AcDbZombieObject
 90
      499
 91
      518
 93
       34
310
40C8804040
  0
ACAD_PROXY_OBJECT
  5
15BB8
102
{ACAD_REACTORS
330
15BB7
102
}
330
15BB7
100
AcDbZombieObject
 90
      499
 91
      518
 93
       34
310
40C8804040
  0
ACAD_PROXY_OBJECT
  5
15BBA
102
{ACAD_REACTORS
330
15BB9
102
}
330
15BB9
100
AcDbZombieObject
 90
      499
 91
      518
 93
       34
310
40C8804040
  0
ACAD_PROXY_OBJECT
  5
15BC4
102
{ACAD_REACTORS
330
15BC3
102
}
330
15BC3
100
AcDbZombieObject
 90
      499
 91
      518
 93
       34
310
40C8804040
  0
ACAD_PROXY_OBJECT
  5
15BC6
102
{ACAD_REACTORS
330
15BC5
102
}
330
15BC5
100
AcDbZombieObject
 90
      499
 91
      518
 93
       34
310
40C8804040
  0
ACAD_PROXY_OBJECT
  5
15BC8
102
{ACAD_REACTORS
330
15BC7
102
}
330
15BC7
100
AcDbZombieObject
 90
      499
 91
      518
 93
       34
310
40C8804040
  0
ACAD_PROXY_OBJECT
  5
15BCC
102
{ACAD_REACTORS
330
15BCB
102
}
330
15BCB
100
AcDbZombieObject
 90
      499
 91
      518
 93
       34
310
40C8804040
  0
SORTENTSTABLE
  5
6EA
102
{ACAD_REACTORS
330
6E9
102
}
330
6E9
100
AcDbSortentsTable
330
18
331
25397
  5
253A7
331
2539B
  5
253B0
331
2539C
  5
253B3
331
2539D
  5
253B4
331
2539F
  5
2540D
331
253A2
  5
25416
331
253A6
  5
255C3
331
253A7
  5
255D0
331
253A8
  5
25CC0
331
253A9
  5
25CE6
331
25589
  5
29B17
331
2558B
  5
29BB2
331
2D6C2
  5
2D6C7
331
2D6C3
  5
2D6C8
331
2D6C4
  5
2D6CA
331
2D6C5
  5
2D6D2
331
2D6C6
  5
2D6D3
331
2D6C7
  5
2D6D4
331
2D6C8
  5
2D6D5
331
2D6CA
  5
2D6D6
331
2D6CC
  5
2D6D7
331
2D6CD
  5
2D6D8
331
2D6CE
  5
2D6D9
331
2D6CF
  5
2D6DA
331
2D6D0
  5
2D6DB
331
2D6D1
  5
2D6DC
331
2D6D2
  5
2D6DD
331
2D6D3
  5
2D6DE
331
2D6D4
  5
2D6DF
331
2D6D5
  5
2D6E0
331
2D6D6
  5
2D6E1
331
2D6D7
  5
2D6E2
331
2D6D8
  5
2D6E3
331
2D6D9
  5
2D6E4
331
2D6DA
  5
2D6E5
331
2D6DB
  5
2D6E6
331
2D6DC
  5
2D6E7
331
2D6DD
  5
2D739
331
2D6DE
  5
2D73A
331
2D6DF
  5
2D73B
331
2D6E0
  5
2D73C
331
2D6E1
  5
2D73D
331
2D6E2
  5
2D73E
331
2D6E3
  5
2D73F
331
2D6E4
  5
2D741
331
2D6E5
  5
2D743
331
2D6E6
  5
2D744
331
2D6E7
  5
2D745
331
2D739
  5
2D746
331
2D73A
  5
2D748
331
2D73B
  5
2D749
331
2D73C
  5
2D74A
331
2D73D
  5
2D74B
331
2D73E
  5
2D74C
331
2D73F
  5
2D74D
331
2D741
  5
2D74E
331
2D743
  5
2D74F
331
2D744
  5
2D750
331
2D745
  5
2D751
331
2D746
  5
2D77D
331
2D748
  5
2D77E
331
2D749
  5
2D7CF
331
0
  5
2D7FD
331
0
  5
2DA9B
331
2D7CF
  5
2DE06
331
2D7D3
  5
2DE08
331
2D7D7
  5
2DE0A
331
2D7D9
  5
2DE0C
331
2D7DC
  5
2DE0D
331
2D7DD
  5
2DE14
331
2D7DE
  5
2DE15
331
0
  5
2DBF8
331
2D7EE
  5
2DE20
331
2D7F2
  5
2DE21
331
2DA9A
  5
2DE22
331
2DA9B
  5
2DE23
331
2DA9C
  5
2DE24
331
2DA9D
  5
2DE25
331
2DA9E
  5
2DE27
331
2DBF3
  5
2DE28
331
2DBF4
  5
2DE29
331
2DBF5
  5
2DE2A
331
2DBF6
  5
2DE2B
331
2DBF7
  5
2DE2C
331
2DBF8
  5
2DE2D
331
2DBF9
  5
2DE2E
331
2DBFA
  5
2DE2F
331
2DDBC
  5
2DE30
331
2DDBF
  5
2DE35
331
2DDC0
  5
2DE36
331
2DDC2
  5
2DE54
331
2DDCA
  5
2DE55
331
2DDCB
  5
2DE56
331
2DDCC
  5
2DE57
331
2DDCF
  5
2DE58
331
2DDD0
  5
2DE59
331
2DDD4
  5
2DE5A
331
2DDD5
  5
2DE5C
331
2DDD7
  5
2DE5D
331
2DDE9
  5
2DE5E
331
2DDEA
  5
2DE5F
331
2DDEB
  5
2DE60
331
2DDEC
  5
2DE63
331
2DDED
  5
2DE64
331
2DDEE
  5
2DE67
331
2DDFF
  5
2DE68
331
2DE0B
  5
2DE69
331
2DE0D
  5
2DE6A
331
2DE0F
  5
2DE6B
331
2DE11
  5
2DE6C
331
2DE12
  5
2DE6D
331
2DE13
  5
2DE6E
331
2DE14
  5
2DE6F
331
2DE15
  5
2DE70
331
2DE16
  5
2DE71
331
2DE17
  5
2DE72
331
2DE18
  5
2DE73
331
2DE19
  5
2DE74
331
2DE1A
  5
2DE75
331
2DE1B
  5
2DE76
331
2DE1C
  5
2DE77
331
2DE1D
  5
2DE78
331
2DE1E
  5
2DE79
331
2DE1F
  5
2DE7A
331
2DE20
  5
2DE7B
331
2DE21
  5
2DE7C
331
2DE22
  5
2DE7D
331
2DE23
  5
2DE7E
331
2DE24
  5
2DE7F
331
2DE25
  5
2DE80
331
2DE26
  5
2DE81
331
2DE27
  5
2DE82
331
2DE28
  5
2DE83
331
2DE29
  5
2DE84
331
2DE2A
  5
2DE85
331
2DE2B
  5
2DE86
331
2DE2C
  5
2DE87
331
2DE2D
  5
2DE88
331
2DE2E
  5
2DE89
331
2DE2F
  5
2DE8A
331
2DE30
  5
2DE8B
331
2DE35
  5
2DE8C
331
2DE36
  5
2DE8D
331
0
  5
2DE65
331
0
  5
2DE66
331
2DE56
  5
2DEB4
331
2DE57
  5
2DEB5
331
2DE58
  5
2DEB6
331
2DE59
  5
2DEB7
331
2DE5A
  5
2DEB8
331
2DE5C
  5
2DEB9
331
2DE5D
  5
2DEBA
331
2DE5E
  5
2DEBB
331
2DE5F
  5
2DEBC
331
2DE60
  5
2DEBD
331
2DE63
  5
2DEBE
331
2DE64
  5
2DEBF
331
2DE65
  5
2DEC0
331
2DE66
  5
2DEC1
331
2DE67
  5
2DEC2
331
2DE68
  5
2DEC3
331
2DE69
  5
2DEC4
331
2DE6A
  5
2DEC5
331
2DE6B
  5
2DEC6
331
2DE6C
  5
2DEC7
331
2DE6D
  5
2DEC8
331
2DE6E
  5
2DEC9
331
2DE6F
  5
2DECA
331
2DE70
  5
2DECB
331
2DE71
  5
2DECC
331
2DE72
  5
2DECD
331
2DE73
  5
2DECE
331
2DE74
  5
2DECF
331
2DE75
  5
2DED0
331
2DE76
  5
2DED1
331
2DE77
  5
2DED2
331
2DE78
  5
2DED3
331
2DE79
  5
2DED4
331
2DE7A
  5
2DED5
331
2DE7B
  5
2DED6
331
2DE7C
  5
2DED7
331
2DE7D
  5
2DED8
331
2DE7E
  5
2DED9
331
2DE7F
  5
2DEDA
331
2DE80
  5
2DEDB
331
2DE81
  5
2DEDC
331
2DE82
  5
2DEDD
331
2DE83
  5
2DEDE
331
2DE84
  5
2DEDF
331
2DE85
  5
2DEE0
331
2DE86
  5
2DEE1
331
2DE87
  5
2DEE2
331
2DE88
  5
2DEE3
331
2DE89
  5
2DEE4
331
2DE8A
  5
2DEE5
331
2DE8B
  5
2DEE6
331
2DE8C
  5
2DEE7
331
2DE8D
  5
2DEE8
331
2DE8E
  5
2DEE9
331
2DE8F
  5
2DEEA
331
2DE90
  5
2DEEB
331
2DE91
  5
2DEEC
331
2DE92
  5
2DEED
331
2DE93
  5
2DEEE
331
2DE94
  5
2DEEF
331
2DE95
  5
2DEF0
331
2DE96
  5
2DEF1
331
2DE97
  5
2DEF2
331
2DE98
  5
2DEF3
331
2DE99
  5
2DEF4
331
2DE9A
  5
2DEF5
331
2DE9B
  5
2DEF6
331
2DE9C
  5
2DEF7
331
2DE9D
  5
2DEF8
331
2DE9E
  5
2DEF9
331
2DE9F
  5
2DEFA
331
2DEA0
  5
2DEFB
331
2DEA1
  5
2DEFC
331
2DEA2
  5
2DEFD
331
2DEA3
  5
2DEFE
331
2DEA4
  5
2DEFF
331
2DEA5
  5
2DF00
331
2DEA6
  5
2DF01
331
2DEA7
  5
2DF02
331
2DEA8
  5
2DF03
331
2DEA9
  5
2DF04
331
2DEAA
  5
2DF05
331
2DEAB
  5
2DF06
331
2DEAC
  5
2DF07
331
2DEAD
  5
2DF08
331
2DEAE
  5
2DF09
331
2DEAF
  5
2DF0A
331
2DEB0
  5
2DF0B
331
2DEB1
  5
2DF0C
331
2DEB2
  5
2DF0D
331
2DEB3
  5
2DF0E
331
2DEB4
  5
2DF0F
331
2DEB5
  5
2DF10
331
2DEB6
  5
2DF11
331
2DEB7
  5
2DF12
331
2DEB8
  5
2DF13
331
2DEB9
  5
2DF14
331
2DEBA
  5
2DF15
331
2DEBB
  5
2DF16
331
2DEBC
  5
2DF17
331
2DEBD
  5
2DF18
331
2DEBE
  5
2DF19
331
2DEBF
  5
2DF1A
331
2DEC0
  5
2DF1B
331
2DEC1
  5
2DF1C
331
2DEC2
  5
2DF1D
331
2DEC3
  5
2DF1E
331
2DEC4
  5
2DF1F
331
2DEC5
  5
2DF20
331
2DEC6
  5
2DF21
331
2DEC7
  5
2DF22
331
2DEC8
  5
2DF23
331
2DEC9
  5
2DF24
331
2DECA
  5
2DF25
331
2DECB
  5
2DF26
331
2DECC
  5
2DF27
331
2DECD
  5
2DF28
331
2DECE
  5
2DF29
331
2DECF
  5
2DF2A
331
2DED0
  5
2DF2B
331
2DED1
  5
2DF2C
331
2DED2
  5
2DF2D
331
2DED3
  5
2DF2E
331
2DED4
  5
2DF2F
331
2DED5
  5
2DF30
331
2DED6
  5
2DF31
331
2DED7
  5
2DF32
331
2DED8
  5
2DF33
331
2DED9
  5
2DF34
331
2DEDA
  5
2DF35
331
2DEDB
  5
2DF36
331
2DEDC
  5
2DF37
331
2DEDD
  5
2DF38
331
2DEDE
  5
2DF39
331
2DEDF
  5
2DF40
331
2DEE0
  5
2DF41
331
2DEE1
  5
2DF42
331
2DEE2
  5
2DF43
331
2DEE3
  5
2DF44
331
2DEE4
  5
2DF45
331
2DEE5
  5
2DF46
331
2DEE6
  5
2DF47
331
2DEE7
  5
2DF48
331
2DEE8
  5
2DF49
331
2DEE9
  5
2DF4A
331
2DEEA
  5
2DF4B
331
2DEEB
  5
2DF4C
331
2DEEC
  5
2DF4D
331
2DEED
  5
2DF4E
331
2DEEE
  5
2DF4F
331
2DEEF
  5
2DF50
331
2DEF0
  5
2DF51
331
2DEF1
  5
2DF52
331
2DEF2
  5
2DF53
331
2DEF3
  5
2DF54
331
2DEF4
  5
2DF55
331
2DEF5
  5
2DF56
331
2DEF6
  5
2DF57
331
2DEF7
  5
2DF58
331
2DEF8
  5
2DF59
331
2DEF9
  5
2DF5A
331
2DEFA
  5
2DF5B
331
2DEFB
  5
2DF5C
331
2DEFC
  5
2DF5D
331
2DEFD
  5
2DF5E
331
2DEFE
  5
2DF5F
331
2DEFF
  5
2DF60
331
2DF00
  5
2DF61
331
2DF01
  5
2DF62
331
2DF02
  5
2DF63
331
2DF03
  5
2DF64
331
2DF04
  5
2DF65
331
2DF05
  5
2DF66
331
2DF06
  5
2DF67
331
2DF07
  5
2DF68
331
2DF08
  5
2DF69
331
2DF09
  5
2DF6A
331
2DF0A
  5
2DF6B
331
2DF0B
  5
2DF6C
331
2DF0C
  5
2DF6D
331
2DF0D
  5
2DF6E
331
2DF0E
  5
2DF6F
331
2DF0F
  5
2DF70
331
2DF10
  5
2DF71
331
2DF11
  5
2DF72
331
2DF12
  5
2DF73
331
2DF13
  5
2DF74
331
2DF14
  5
2DF75
331
2DF15
  5
2DF76
331
2DF16
  5
2DF77
331
2DF17
  5
2DF78
331
2DF18
  5
2DF79
331
2DF19
  5
2DF7A
331
2DF1A
  5
2DF7B
331
2DF1B
  5
2DF7C
331
2DF1C
  5
2DF7D
331
2DF1D
  5
2DF7E
331
2DF1E
  5
2DF7F
331
2DF1F
  5
2DF80
331
2DF20
  5
2DF81
331
2DF21
  5
2DF82
331
2DF22
  5
2DF83
331
2DF23
  5
2DF84
331
2DF24
  5
2DF85
331
2DF25
  5
2DF96
331
2DF26
  5
2E007
331
2DF27
  5
2E008
331
2DF28
  5
2E00E
331
2DF29
  5
2E00F
331
2DF2A
  5
2E010
331
2DF2B
  5
2E011
331
2DF2C
  5
2F6F6
331
2DF2D
  5
31924
331
2DF2E
  5
31925
331
2DF2F
  5
31926
331
2DF30
  5
31927
331
2DF31
  5
31928
331
2DF32
  5
3193B
331
2DF33
  5
31ADF
331
2DF34
  5
31AE0
331
2DF35
  5
31AE1
331
2DF36
  5
31AE2
331
2DF37
  5
31CA1
331
2DF38
  5
31CB7
331
2DF39
  5
32217
331
2DF40
  5
32218
331
2DF41
  5
32219
331
2DF42
  5
32239
331
2DF43
  5
32244
331
2DF44
  5
32245
331
2DF45
  5
32246
331
2DF46
  5
3225A
331
2DF47
  5
3225B
331
2DF48
  5
32340
331
2DF49
  5
3234D
331
2DF4A
  5
3246D
331
2DF4B
  5
3246E
331
2DF4C
  5
3246F
331
2DF4D
  5
32526
331
2DF4E
  5
3258B
331
2DF4F
  5
3258E
331
2DF50
  5
325A4
331
2DF51
  5
325A7
331
2DF52
  5
325A8
331
2DF53
  5
325A9
331
2DF54
  5
325B8
331
2DF55
  5
325B9
331
2DF56
  5
325BA
331
2DF57
  5
325BB
331
2DF58
  5
325BC
331
2DF59
  5
325BD
331
2DF5A
  5
34D25
331
2DF5B
  5
34D26
331
2DF5C
  5
34D3F
331
2DF5D
  5
34D40
331
2DF5E
  5
34D45
331
2DF5F
  5
34D49
331
2DF60
  5
34F39
331
2DF61
  5
34F3A
331
2DF62
  5
34F3B
331
2DF63
  5
34F3C
331
2DF64
  5
34F3D
331
2DF65
  5
34F3E
331
2DF66
  5
34F42
331
2DF67
  5
34F45
331
2DF68
  5
34F46
331
2DF69
  5
34F47
331
2DF6A
  5
34F66
331
2DF6B
  5
34F67
331
2DF6C
  5
34F68
331
2DF6D
  5
34F69
331
2DF6E
  5
34F6A
331
2DF6F
  5
34F6F
331
2DF70
  5
34F70
331
2DF71
  5
34F71
331
2DF72
  5
34F72
331
2DF73
  5
34F73
331
2DF74
  5
34F77
331
2DF75
  5
34F78
331
2DF76
  5
34F79
331
2DF77
  5
34F7A
331
2DF78
  5
34F7B
331
2DF79
  5
34F7C
331
2DF7A
  5
34F7D
331
2DF7B
  5
34F7E
331
2DF7C
  5
34F7F
331
2DF7D
  5
34F80
331
2DF7E
  5
34F84
331
2DF7F
  5
34F85
331
2DF80
  5
34F86
331
2DF81
  5
34F8A
331
2DF82
  5
34F8B
331
2DF83
  5
34F8C
331
2DF84
  5
34F90
331
2DF85
  5
34F91
331
0
  5
34D47
331
2E007
  5
34F9C
331
2E008
  5
34FA0
331
2E00E
  5
2541C
331
2E011
  5
253A4
331
2E012
  5
253A6
331
31923
  5
34FA1
331
31924
  5
34FA2
331
31925
  5
34FA6
331
31926
  5
34FA7
331
31927
  5
34FA8
331
0
  5
34F3F
331
0
  5
34F40
331
0
  5
34F41
331
31CD8
  5
34FD0
331
0
  5
34F43
331
0
  5
34F44
331
32216
  5
34FD6
331
32217
  5
34FD7
331
32218
  5
34FD8
331
0
  5
34F48
331
0
  5
34F49
331
0
  5
34F4A
331
0
  5
34F4B
331
0
  5
34F5F
331
0
  5
34F60
331
0
  5
34F61
331
0
  5
34F62
331
0
  5
34F63
331
0
  5
34F64
331
0
  5
34F65
331
325B9
  5
3501D
331
325BA
  5
3501E
331
325BB
  5
3501F
331
325BC
  5
35020
331
325BD
  5
35021
331
0
  5
34F6B
331
0
  5
34F6C
331
0
  5
34F6D
331
0
  5
34F6E
331
34D45
  5
3502C
331
34D47
  5
3502D
331
34D49
  5
3502E
331
34F39
  5
2DE8E
331
34F3A
  5
2DE8F
331
34F3B
  5
2DE90
331
34F3C
  5
2DE91
331
34F3D
  5
2DE92
331
34F3E
  5
2DE93
331
34F3F
  5
2DE94
331
34F40
  5
2DE95
331
34F41
  5
2DE96
331
34F42
  5
2DE97
331
34F43
  5
2DE98
331
34F44
  5
2DE99
331
34F45
  5
2DE9A
331
34F46
  5
2DE9B
331
34F47
  5
2DE9C
331
34F48
  5
2DE9D
331
34F49
  5
2DE9E
331
34F4A
  5
2DE9F
331
34F4B
  5
2DEA0
331
34F5F
  5
2DEA1
331
34F60
  5
2DEA2
331
34F61
  5
2DEA3
331
34F62
  5
2DEA4
331
34F63
  5
2DEA5
331
34F64
  5
2DEA6
331
34F65
  5
2DEA7
331
34F66
  5
2DEA8
331
34F67
  5
2DEA9
331
34F68
  5
2DEAA
331
34F69
  5
2DEAB
331
34F6A
  5
2DEAC
331
34F6B
  5
2DEAD
331
34F6C
  5
2DEAE
331
34F6D
  5
2DEAF
331
34F6E
  5
2DEB0
331
34F6F
  5
2DEB1
331
34F70
  5
2DEB2
331
34F71
  5
2DEB3
331
34F72
  5
2DA9C
331
34F73
  5
2DA9D
331
34F74
  5
2DA9E
331
0
  5
2DBE3
331
0
  5
2DBF4
331
0
  5
2DBF5
331
34F78
  5
2DDCF
331
34F79
  5
2DDD0
331
34F7A
  5
2DDD3
331
0
  5
2DBFB
331
0
  5
2DDBF
331
0
  5
2DDC0
331
34F7E
  5
2DE16
331
34F7F
  5
2DE17
331
34F80
  5
2DE18
331
0
  5
2DDEA
331
0
  5
2DDEB
331
0
  5
2DDEC
331
34F84
  5
34F92
331
34F85
  5
34F93
331
34F86
  5
34F94
331
0
  5
34F74
331
0
  5
34F75
331
0
  5
34F76
331
34F8A
  5
34FAC
331
34F8B
  5
34FAD
331
34F8C
  5
34FAE
331
0
  5
34F81
331
0
  5
34F82
331
0
  5
34F83
331
34F90
  5
34FB9
331
34F91
  5
34FBD
331
34F92
  5
34FBE
331
0
  5
34F87
331
0
  5
34F88
331
0
  5
34F89
331
34F96
  5
34FC6
331
34F97
  5
34FC7
331
34F98
  5
34FC8
331
0
  5
34F8D
331
0
  5
34F8E
331
0
  5
34F8F
331
34F9C
  5
34FD1
331
34F9D
  5
34FD2
331
34F9E
  5
34FD3
331
34F9F
  5
34FD4
331
34FA0
  5
34FD5
331
34FA1
  5
34FD9
331
34FA2
  5
34FDA
331
34FA3
  5
34FDB
331
34FA4
  5
34FDC
331
0
  5
34F9D
331
0
  5
34F9E
331
0
  5
34F9F
331
34FA8
  5
34FE6
331
34FA9
  5
34FE7
331
34FAA
  5
34FE8
331
0
  5
34FA3
331
0
  5
34FA4
331
0
  5
34FA5
331
34FAE
  5
34FF0
331
34FAF
  5
34FF1
331
34FB0
  5
34FF2
331
0
  5
34FA9
331
0
  5
34FAA
331
0
  5
34FAB
331
34FB4
  5
34FFA
331
34FB5
  5
34FFB
331
34FB6
  5
34FFC
331
0
  5
34FAF
331
0
  5
34FB0
331
0
  5
34FB1
331
34FBA
  5
35004
331
34FBB
  5
35005
331
34FBC
  5
35006
331
34FBD
  5
35007
331
34FBE
  5
35008
331
34FBF
  5
35009
331
34FC0
  5
3500A
331
34FC1
  5
3500B
331
0
  5
34FBA
331
0
  5
34FBB
331
0
  5
34FBC
331
34FC5
  5
35013
331
34FC6
  5
35014
331
34FC7
  5
35015
331
34FC8
  5
35016
331
34FC9
  5
35017
331
34FCA
  5
35018
331
34FCB
  5
35019
331
34FCC
  5
3501A
331
34FCD
  5
3501B
331
34FCE
  5
3501C
331
34FCF
  5
35022
331
34FD0
  5
35023
331
34FD1
  5
35024
331
34FD2
  5
35025
331
34FD3
  5
35026
331
34FD4
  5
35027
331
34FD5
  5
35028
331
34FD6
  5
35029
331
34FD7
  5
3502A
331
34FD8
  5
3502B
331
34FD9
  5
2DBF6
331
34FDA
  5
2DBF9
331
34FDB
  5
2DBFA
331
34FDC
  5
2DDC2
331
34FDD
  5
2DDCA
331
34FDE
  5
2DDCB
331
34FDF
  5
2DDCC
331
34FE0
  5
2DDD5
331
34FE1
  5
2DDD7
331
34FE2
  5
2DDDD
331
34FE3
  5
2DDED
331
34FE4
  5
2DDEE
331
34FE5
  5
2DDEF
331
34FE6
  5
2DDFF
331
34FE7
  5
2DE19
331
34FE8
  5
2DE1A
331
34FE9
  5
2DE1B
331
34FEA
  5
2DE1C
331
34FEB
  5
2DE1D
331
34FEC
  5
2DE1E
331
34FED
  5
2DE1F
331
34FEE
  5
34F95
331
34FEF
  5
34F96
331
34FF0
  5
34F97
331
34FF1
  5
34F98
331
34FF2
  5
34F99
331
34FF3
  5
34F9A
331
34FF4
  5
34F9B
331
34FF5
  5
34FB2
331
34FF6
  5
34FB3
331
34FF7
  5
34FB4
331
34FF8
  5
34FB5
331
34FF9
  5
34FB6
331
34FFA
  5
34FB7
331
34FFB
  5
34FB8
331
34FFC
  5
34FBF
331
34FFD
  5
34FC0
331
34FFE
  5
34FC1
331
34FFF
  5
34FC2
331
35000
  5
34FC3
331
35001
  5
34FC4
331
35002
  5
34FC5
331
35003
  5
34FC9
331
35004
  5
34FCA
331
35005
  5
34FCB
331
35006
  5
34FCC
331
35007
  5
34FCD
331
35008
  5
34FCE
331
35009
  5
34FCF
331
3500A
  5
34FDD
331
3500B
  5
34FDE
331
3500C
  5
34FDF
331
3500D
  5
34FE0
331
3500E
  5
34FE1
331
3500F
  5
34FE2
331
35010
  5
34FE3
331
35011
  5
34FE4
331
35012
  5
34FE5
331
35013
  5
34FE9
331
35014
  5
34FEA
331
35015
  5
34FEB
331
35016
  5
34FEC
331
35017
  5
34FED
331
35018
  5
34FEE
331
35019
  5
34FEF
331
3501A
  5
34FF3
331
3501B
  5
34FF4
331
3501C
  5
34FF5
331
3501D
  5
34FF6
331
3501E
  5
34FF7
331
3501F
  5
34FF8
331
35020
  5
34FF9
331
35021
  5
34FFD
331
35022
  5
34FFE
331
35023
  5
34FFF
331
35024
  5
35000
331
35025
  5
35001
331
35026
  5
35002
331
35027
  5
35003
331
35028
  5
3500C
331
35029
  5
3500D
331
3502A
  5
3500E
331
3502B
  5
3500F
331
3502C
  5
35010
331
3502D
  5
35011
331
3502E
  5
35012
  0
SORTENTSTABLE
  5
59C
102
{ACAD_REACTORS
330
59B
102
}
330
59B
100
AcDbSortentsTable
330
15
331
57
  5
57
331
0
  5
70
331
0
  5
15E0C
331
0
  5
15E0D
331
0
  5
15E0E
331
0
  5
15E0F
331
0
  5
15E10
331
0
  5
15E11
331
0
  5
15E12
331
0
  5
15E13
331
0
  5
15E14
331
0
  5
15E15
331
0
  5
15E16
331
0
  5
15E17
331
0
  5
15E18
331
0
  5
15E19
331
0
  5
15E1A
331
0
  5
15FEC
331
0
  5
15FED
331
0
  5
15FEE
331
0
  5
15FEF
331
0
  5
15E1C
331
0
  5
15E1D
331
0
  5
15E1E
331
0
  5
15E1F
331
0
  5
15E20
331
0
  5
15E21
331
0
  5
15E22
331
0
  5
15E23
331
0
  5
15E24
331
0
  5
15E25
331
0
  5
15E26
331
0
  5
15E27
331
0
  5
15E28
331
0
  5
15E29
331
0
  5
15E2A
331
0
  5
15E2B
331
0
  5
15E2C
331
0
  5
15E2D
331
0
  5
15E2E
331
0
  5
15E2F
331
0
  5
15E30
331
0
  5
15E31
331
0
  5
15E32
331
0
  5
15E33
331
0
  5
15E34
331
0
  5
15E35
331
0
  5
15E36
331
0
  5
15E37
331
0
  5
15E38
331
0
  5
15E39
331
0
  5
15E3A
331
0
  5
15E3B
331
0
  5
15E3C
331
0
  5
15E3D
331
0
  5
15E3E
331
0
  5
15E3F
331
0
  5
15E40
331
0
  5
15E41
331
0
  5
15E42
331
0
  5
15E43
331
0
  5
15E44
331
0
  5
15E45
331
0
  5
15E46
331
0
  5
15E47
331
0
  5
15E48
331
0
  5
15E49
331
0
  5
15E4A
331
0
  5
15E4B
331
0
  5
15E4C
331
0
  5
15E4D
331
0
  5
15E4E
331
0
  5
15E4F
331
0
  5
15E50
331
0
  5
15E51
331
0
  5
15E52
331
0
  5
15E53
331
0
  5
15E54
331
0
  5
15E55
331
0
  5
15E56
331
0
  5
15E57
331
0
  5
15E58
331
0
  5
15E59
331
0
  5
15E5A
331
0
  5
15E5B
331
0
  5
15E5C
331
0
  5
15FCD
331
0
  5
15FCE
331
0
  5
15FCF
331
0
  5
15FD0
331
0
  5
15FD1
331
0
  5
15FD2
331
0
  5
15FD3
331
0
  5
15FD4
331
0
  5
15FD5
331
0
  5
15FD6
331
0
  5
15FD7
331
0
  5
15FD8
331
0
  5
15FD9
331
0
  5
15FDA
331
0
  5
15FDB
331
0
  5
15FDC
331
0
  5
15FDD
331
0
  5
15FDE
331
0
  5
15FDF
331
0
  5
15FE0
331
0
  5
15FE1
331
0
  5
15FE2
331
0
  5
15FE3
331
0
  5
15FE4
331
0
  5
15FE5
331
0
  5
15FE6
331
0
  5
15FE7
331
0
  5
15FE8
331
0
  5
15FE9
331
0
  5
15FEA
331
0
  5
15FEB
331
0
  5
15F8E
331
0
  5
15F8F
331
0
  5
15F90
331
0
  5
15F91
331
0
  5
15F92
331
0
  5
15F93
331
0
  5
15F94
331
0
  5
15F95
331
0
  5
15F96
331
0
  5
15F97
331
0
  5
15F98
331
0
  5
15F99
331
0
  5
15F9A
331
0
  5
15F9B
331
0
  5
15F9C
331
0
  5
15F9D
331
0
  5
15F9E
331
0
  5
15F9F
331
0
  5
15FA0
331
0
  5
15FA1
331
0
  5
15FA2
331
0
  5
15FA3
331
0
  5
15FA4
331
0
  5
15FA5
331
0
  5
15FA6
331
0
  5
15FA7
331
0
  5
15FA8
331
0
  5
15FA9
331
0
  5
15FAA
331
0
  5
15FAB
331
0
  5
15FAC
331
0
  5
15FAD
331
0
  5
15FAE
331
0
  5
15FAF
331
0
  5
15FB0
331
0
  5
15FB1
331
0
  5
15FB2
331
0
  5
15FB3
331
0
  5
15FB4
331
0
  5
15FB5
331
0
  5
15FB6
331
0
  5
15FB7
331
0
  5
15FB8
331
0
  5
15FB9
331
0
  5
15FBA
331
0
  5
15FBB
331
0
  5
15FBC
331
0
  5
15FBD
331
0
  5
15FBE
331
0
  5
15FBF
331
0
  5
15FC0
331
0
  5
15FC1
331
0
  5
15FC2
331
0
  5
15FC3
331
0
  5
15FC4
331
0
  5
15FC5
331
0
  5
15FC6
331
0
  5
15FC7
331
0
  5
15FC8
331
0
  5
15FC9
331
0
  5
15FCA
331
0
  5
15FCB
331
0
  5
15FCC
331
0
  5
15F51
331
0
  5
15F52
331
0
  5
15F53
331
0
  5
15F54
331
0
  5
15F55
331
0
  5
15F56
331
0
  5
15F57
331
0
  5
15F58
331
0
  5
15F59
331
0
  5
15F5A
331
0
  5
15F5B
331
0
  5
15F5C
331
0
  5
15F5D
331
0
  5
15F5E
331
0
  5
15F5F
331
0
  5
15F60
331
0
  5
15F61
331
0
  5
15F62
331
0
  5
15F63
331
0
  5
15F64
331
0
  5
15F65
331
0
  5
15F66
331
0
  5
15F67
331
0
  5
15F68
331
0
  5
15F69
331
0
  5
15F6A
331
0
  5
15F6B
331
0
  5
15F6C
331
0
  5
15F6D
331
0
  5
15F6E
331
0
  5
15F6F
331
0
  5
15F70
331
0
  5
15F71
331
0
  5
15F72
331
0
  5
15F73
331
0
  5
15F74
331
0
  5
15F75
331
0
  5
15F76
331
0
  5
15F77
331
0
  5
15F78
331
0
  5
15F79
331
0
  5
15F7A
331
0
  5
15F7B
331
0
  5
15F7C
331
0
  5
15F7D
331
0
  5
15F7E
331
0
  5
15F7F
331
0
  5
15F80
331
0
  5
15F81
331
0
  5
15F82
331
0
  5
15F83
331
0
  5
15F84
331
0
  5
15F85
331
0
  5
15F86
331
0
  5
15F87
331
0
  5
15F88
331
0
  5
15F89
331
0
  5
15F8A
331
0
  5
15F8B
331
0
  5
15F8C
331
0
  5
15F8D
331
0
  5
15F01
331
0
  5
15F02
331
0
  5
15F03
331
0
  5
15F04
331
0
  5
15F05
331
0
  5
15F06
331
0
  5
15F07
331
0
  5
15F08
331
0
  5
15F09
331
0
  5
15F0A
331
0
  5
15F0B
331
0
  5
15F0C
331
0
  5
15F0D
331
0
  5
15F0E
331
0
  5
15F0F
331
0
  5
15F10
331
0
  5
15F11
331
0
  5
15F12
331
0
  5
15F13
331
0
  5
15F14
331
0
  5
15F15
331
0
  5
15F16
331
0
  5
15F17
331
0
  5
15F18
331
0
  5
15F19
331
0
  5
15F1A
331
0
  5
15F1B
331
0
  5
15F1C
331
0
  5
15F1D
331
0
  5
15F1E
331
0
  5
15F1F
331
0
  5
15F20
331
0
  5
15F21
331
0
  5
15F22
331
0
  5
15F23
331
0
  5
15F24
331
0
  5
15F25
331
0
  5
15F26
331
0
  5
15F27
331
0
  5
15F28
331
0
  5
15F29
331
0
  5
15F2A
331
0
  5
15F2B
331
0
  5
15F2C
331
0
  5
15F2D
331
0
  5
15F2E
331
0
  5
15F2F
331
0
  5
15F30
331
0
  5
15F31
331
0
  5
15F32
331
0
  5
15F33
331
0
  5
15F34
331
0
  5
15F35
331
0
  5
15F36
331
0
  5
15F37
331
0
  5
15F38
331
0
  5
15F39
331
0
  5
15F3A
331
0
  5
15F3B
331
0
  5
15F3C
331
0
  5
15F3D
331
0
  5
15F3E
331
0
  5
15F3F
331
0
  5
15F40
331
0
  5
15F41
331
0
  5
15F42
331
0
  5
15F43
331
0
  5
15F44
331
0
  5
15F45
331
0
  5
15F46
331
0
  5
15F47
331
0
  5
15F48
331
0
  5
15F49
331
0
  5
15F4A
331
0
  5
15F4B
331
0
  5
15F4C
331
0
  5
15F4D
331
0
  5
15F4E
331
0
  5
15F4F
331
0
  5
15F50
331
0
  5
15EB0
331
0
  5
15EB1
331
0
  5
15EB2
331
0
  5
15EB3
331
0
  5
15EB4
331
0
  5
15EB5
331
0
  5
15EB6
331
0
  5
15EB7
331
0
  5
15EB8
331
0
  5
15EB9
331
0
  5
15EBA
331
0
  5
15EBB
331
0
  5
15EBC
331
0
  5
15EBD
331
0
  5
15EBE
331
0
  5
15EBF
331
0
  5
15EC0
331
0
  5
15EC1
331
0
  5
15EC2
331
0
  5
15EC3
331
0
  5
15EC4
331
0
  5
15EC5
331
0
  5
15EC6
331
0
  5
15EC7
331
0
  5
15EC8
331
0
  5
15EC9
331
0
  5
15ECA
331
0
  5
15ECB
331
0
  5
15ECC
331
0
  5
15ECD
331
0
  5
15ECE
331
0
  5
15ECF
331
0
  5
15ED0
331
0
  5
15ED1
331
0
  5
15ED2
331
0
  5
15ED3
331
0
  5
15ED4
331
0
  5
15ED5
331
0
  5
15ED6
331
0
  5
15ED7
331
0
  5
15ED8
331
0
  5
15ED9
331
0
  5
15EDA
331
0
  5
15EDB
331
0
  5
15EDC
331
0
  5
15EDD
331
0
  5
15EDE
331
0
  5
15EDF
331
0
  5
15EE0
331
0
  5
15EE1
331
0
  5
15EE2
331
0
  5
15EE3
331
0
  5
15EE4
331
0
  5
15EE5
331
0
  5
15EE6
331
0
  5
15EE7
331
0
  5
15EE8
331
0
  5
15EE9
331
0
  5
15EEA
331
0
  5
15EEB
331
0
  5
15EEC
331
0
  5
15EED
331
0
  5
15EEE
331
0
  5
15EEF
331
0
  5
15EF0
331
0
  5
15EF1
331
0
  5
15EF2
331
0
  5
15EF3
331
0
  5
15EF4
331
0
  5
15EF5
331
0
  5
15EF6
331
0
  5
15EF7
331
0
  5
15EF8
331
0
  5
15EF9
331
0
  5
15EFA
331
0
  5
15EFB
331
0
  5
15EFC
331
0
  5
15EFD
331
0
  5
15EFE
331
0
  5
15EFF
331
0
  5
15F00
331
0
  5
15E63
331
0
  5
15E64
331
0
  5
15E65
331
0
  5
15E66
331
0
  5
15E67
331
0
  5
15E68
331
0
  5
15E69
331
0
  5
15E6A
331
0
  5
15E6B
331
0
  5
15E6C
331
0
  5
15E6D
331
0
  5
15E6E
331
0
  5
15E6F
331
0
  5
15E70
331
0
  5
15E71
331
0
  5
15E72
331
0
  5
15E73
331
0
  5
15E74
331
0
  5
15E75
331
0
  5
15E76
331
0
  5
15E77
331
0
  5
15E78
331
0
  5
15E79
331
0
  5
15E7A
331
0
  5
15E7B
331
0
  5
15E7C
331
0
  5
15E7D
331
0
  5
15E7E
331
0
  5
15E7F
331
0
  5
15E80
331
0
  5
15E81
331
0
  5
15E82
331
0
  5
15E83
331
0
  5
15E84
331
0
  5
15E85
331
0
  5
15E86
331
0
  5
15E87
331
0
  5
15E88
331
0
  5
15E89
331
0
  5
15E8A
331
0
  5
15E8B
331
0
  5
15E8C
331
0
  5
15E8D
331
0
  5
15E8E
331
0
  5
15E8F
331
0
  5
15E90
331
0
  5
15E91
331
0
  5
15E92
331
0
  5
15E93
331
0
  5
15E94
331
0
  5
15E95
331
0
  5
15E96
331
0
  5
15E97
331
0
  5
15E98
331
0
  5
15E99
331
0
  5
15E9A
331
0
  5
15E9B
331
0
  5
15E9C
331
0
  5
15E9D
331
0
  5
15E9E
331
0
  5
15E9F
331
0
  5
15EA0
331
0
  5
15EA1
331
0
  5
15EA2
331
0
  5
15EA3
331
0
  5
15EA4
331
0
  5
15EA5
331
0
  5
15EA6
331
0
  5
15EA7
331
0
  5
15EA8
331
0
  5
15EA9
331
0
  5
15EAA
331
0
  5
15EAB
331
0
  5
15EAC
331
0
  5
15EAD
331
0
  5
15EAE
331
0
  5
15EAF
  0
GROUP
  5
2DF3C
102
{ACAD_REACTORS
330
D
102
}
330
D
100
AcDbGroup
300

 70
     1
 71
     1
340
2DF39
340
2DF38
340
2DF37
340
2DF36
340
2DF35
340
2DF34
340
2DF33
340
2DF32
340
2DF31
340
2DF30
340
2DF2F
340
2DF2E
340
2DF2D
340
2DF2C
340
2DF2B
340
2DF2A
340
2DF29
340
2DF28
340
2DF27
340
2DF26
340
2DF25
340
2DF24
340
2DF23
340
2DF22
340
2DF21
340
2DF20
340
2DF1F
340
2DF1E
340
2DF1D
340
2DF1C
340
2DF1B
340
2DF1A
340
2DF19
340
2DF18
340
2DF17
340
2DF16
340
2DF15
340
2DF14
340
2DF13
340
2DF12
340
2DF11
340
2DF10
340
2DF0F
340
2DF0E
340
2DF0D
340
2DF0C
340
2DF0B
340
2DF0A
340
2DF09
340
2DF08
340
2DF07
340
2DF06
340
2DF05
340
2DF04
340
2DF03
340
2DF02
340
2DF01
340
2DF00
340
2DEFF
340
2DEFE
340
2DEFD
340
2DEFC
340
2DEFB
340
2DEFA
340
2DEF9
340
2DEF8
340
2DEF7
340
2DEF6
340
2DEF5
340
2DEF4
340
2DEF3
340
2DEF2
340
2DEF1
340
2DEF0
340
2DEEF
340
2DEA8
340
2DEA7
340
2DEA6
340
2DEA5
340
2DEA4
340
2DEA3
340
2DEA2
340
2DEA1
340
2DEA0
340
2DE9F
340
2DE9E
340
2DE9D
340
2DE9C
340
2DE9B
340
2DE9A
340
2DE99
340
2DE98
340
2DE97
340
2DE96
340
2DE95
340
2DE94
340
2DE93
340
2DE92
340
2DE91
340
2DE90
340
2DE8F
340
2DE8E
340
2DE8D
340
2DE8C
340
2DE8B
340
2DE8A
340
2DE89
340
2DE88
340
2DE87
340
2DE86
340
2DE85
340
2DE84
340
2DE83
340
2DE82
340
2DE81
340
2DE80
340
2DE7F
340
2DE7E
340
2DE7D
340
2DE7C
340
2DE7B
340
2DE7A
340
2DE79
340
2DE78
340
2DE77
340
2DE76
340
2DE75
340
2DE74
340
2DE73
340
2DE72
340
2DE71
340
2DE70
340
2DE6F
340
2DE6E
340
2DE6D
340
2DE6C
340
2DE6B
340
2DE6A
340
2DE69
340
2DE68
340
2DE67
340
2DE66
340
2DE65
340
2DE64
340
2DE63
  0
GROUP
  5
2DF3D
102
{ACAD_REACTORS
330
D
102
}
330
D
100
AcDbGroup
300

 70
     1
 71
     1
340
2DEEE
340
2DEED
340
2DEEC
340
2DEEB
340
2DEEA
340
2DEE9
340
2DEE8
340
2DEE7
340
2DEE6
340
2DEE5
340
2DEE4
340
2DEE3
340
2DEE2
340
2DEE1
340
2DEE0
340
2DEDF
340
2DEDE
340
2DEDD
340
2DEDC
340
2DEDB
340
2DEDA
340
2DED9
340
2DED8
340
2DED7
340
2DED6
340
2DED5
340
2DED4
340
2DED3
340
2DED2
340
2DED1
340
2DED0
340
2DECF
340
2DECE
340
2DECD
340
2DECC
340
2DECB
340
2DECA
340
2DEC9
340
2DEC8
340
2DEC7
340
2DEC6
340
2DEC5
340
2DEC4
340
2DEC3
340
2DEC2
340
2DEC1
340
2DEC0
340
2DEBF
340
2DEBE
340
2DEBD
340
2DEBC
340
2DEBB
340
2DEBA
340
2DEB9
340
2DEB8
340
2DEB7
340
2DEB6
340
2DEB5
340
2DEB4
340
2DEB3
340
2DEB2
340
2DEB1
340
2DEB0
340
2DEAF
340
2DEAE
340
2DEAD
340
2DEAC
340
2DEAB
340
2DEAA
340
2DEA9
  0
GROUP
  5
2DF86
102
{ACAD_REACTORS
330
D
102
}
330
D
100
AcDbGroup
300

 70
     1
 71
     1
340
2DF85
340
2DF84
340
2DF83
340
2DF82
340
2DF81
340
2DF80
340
2DF7F
340
2DF7E
340
2DF7D
340
2DF7C
340
2DF7B
340
2DF7A
340
2DF79
340
2DF78
340
2DF77
340
2DF76
340
2DF75
340
2DF74
340
2DF73
340
2DF72
340
2DF71
340
2DF70
340
2DF6F
340
2DF6E
340
2DF6D
340
2DF6C
340
2DF6B
340
2DF6A
340
2DF69
340
2DF68
340
2DF67
340
2DF66
340
2DF65
340
2DF64
340
2DF63
340
2DF62
340
2DF61
340
2DF60
340
2DF5F
340
2DF5E
340
2DF5D
340
2DF5C
340
2DF5B
340
2DF5A
340
2DF59
340
2DF58
340
2DF57
340
2DF56
340
2DF55
340
2DF54
340
2DF53
340
2DF52
340
2DF51
340
2DF50
340
2DF4F
340
2DF4E
340
2DF4D
340
2DF4C
340
2DF4B
340
2DF4A
340
2DF49
340
2DF48
340
2DF47
340
2DF46
340
2DF45
340
2DF44
340
2DF43
340
2DF42
340
2DF41
340
2DF40
  0
MATERIAL
  5
15B55
102
{ACAD_REACTORS
330
2CF
102
}
102
{ACAD_XDICTIONARY
360
35033
102
}
330
2CF
100
AcDbMaterial
  1
BYBLOCK
 72
     0
 73
     2
 43
0.0208333333333333
 43
0.0
 43
0.0
 43
0.0
 43
0.0
 43
0.0208333333333333
 43
0.0
 43
0.0
 43
0.0
 43
0.0
 43
1.0
 43
0.0
 43
0.0
 43
0.0
 43
0.0
 43
1.0
 77
     0
 78
     2
 47
0.0208333333333333
 47
0.0
 47
0.0
 47
0.0
 47
0.0
 47
0.0208333333333333
 47
0.0
 47
0.0
 47
0.0
 47
0.0
 47
1.0
 47
0.0
 47
0.0
 47
0.0
 47
0.0
 47
1.0
171
     0
172
     2
 49
0.0208333333333333
 49
0.0
 49
0.0
 49
0.0
 49
0.0
 49
0.0208333333333333
 49
0.0
 49
0.0
 49
0.0
 49
0.0
 49
1.0
 49
0.0
 49
0.0
 49
0.0
 49
0.0
 49
1.0
175
     0
176
     2
142
0.0208333333333333
142
0.0
142
0.0
142
0.0
142
0.0
142
0.0208333333333333
142
0.0
142
0.0
142
0.0
142
0.0
142
1.0
142
0.0
142
0.0
142
0.0
142
0.0
142
1.0
179
     0
270
     2
144
0.0208333333333333
144
0.0
144
0.0
144
0.0
144
0.0
144
0.0208333333333333
144
0.0
144
0.0
144
0.0
144
0.0
144
1.0
144
0.0
144
0.0
144
0.0
144
0.0
144
1.0
274
     2
147
0.0208333333333333
147
0.0
147
0.0
147
0.0
147
0.0
147
0.0208333333333333
147
0.0
147
0.0
147
0.0
147
0.0
147
1.0
147
0.0
147
0.0
147
0.0
147
0.0
147
1.0
  0
MATERIAL
  5
15B4D
102
{ACAD_REACTORS
330
2CF
102
}
102
{ACAD_XDICTIONARY
360
35035
102
}
330
2CF
100
AcDbMaterial
  1
BYLAYER
 72
     0
 73
     2
 43
0.0208333333333333
 43
0.0
 43
0.0
 43
0.0
 43
0.0
 43
0.0208333333333333
 43
0.0
 43
0.0
 43
0.0
 43
0.0
 43
1.0
 43
0.0
 43
0.0
 43
0.0
 43
0.0
 43
1.0
 77
     0
 78
     2
 47
0.0208333333333333
 47
0.0
 47
0.0
 47
0.0
 47
0.0
 47
0.0208333333333333
 47
0.0
 47
0.0
 47
0.0
 47
0.0
 47
1.0
 47
0.0
 47
0.0
 47
0.0
 47
0.0
 47
1.0
171
     0
172
     2
 49
0.0208333333333333
 49
0.0
 49
0.0
 49
0.0
 49
0.0
 49
0.0208333333333333
 49
0.0
 49
0.0
 49
0.0
 49
0.0
 49
1.0
 49
0.0
 49
0.0
 49
0.0
 49
0.0
 49
1.0
175
     0
176
     2
142
0.0208333333333333
142
0.0
142
0.0
142
0.0
142
0.0
142
0.0208333333333333
142
0.0
142
0.0
142
0.0
142
0.0
142
1.0
142
0.0
142
0.0
142
0.0
142
0.0
142
1.0
179
     0
270
     2
144
0.0208333333333333
144
0.0
144
0.0
144
0.0
144
0.0
144
0.0208333333333333
144
0.0
144
0.0
144
0.0
144
0.0
144
1.0
144
0.0
144
0.0
144
0.0
144
0.0
144
1.0
274
     2
147
0.0208333333333333
147
0.0
147
0.0
147
0.0
147
0.0
147
0.0208333333333333
147
0.0
147
0.0
147
0.0
147
0.0
147
1.0
147
0.0
147
0.0
147
0.0
147
0.0
147
1.0
  0
MATERIAL
  5
15B5D
102
{ACAD_REACTORS
330
2CF
102
}
102
{ACAD_XDICTIONARY
360
35037
102
}
330
2CF
100
AcDbMaterial
  1
GLOBAL
 72
     0
 73
     2
 43
0.0208333333333333
 43
0.0
 43
0.0
 43
0.0
 43
0.0
 43
0.0208333333333333
 43
0.0
 43
0.0
 43
0.0
 43
0.0
 43
1.0
 43
0.0
 43
0.0
 43
0.0
 43
0.0
 43
1.0
 77
     0
 78
     2
 47
0.0208333333333333
 47
0.0
 47
0.0
 47
0.0
 47
0.0
 47
0.0208333333333333
 47
0.0
 47
0.0
 47
0.0
 47
0.0
 47
1.0
 47
0.0
 47
0.0
 47
0.0
 47
0.0
 47
1.0
171
     0
172
     2
 49
0.0208333333333333
 49
0.0
 49
0.0
 49
0.0
 49
0.0
 49
0.0208333333333333
 49
0.0
 49
0.0
 49
0.0
 49
0.0
 49
1.0
 49
0.0
 49
0.0
 49
0.0
 49
0.0
 49
1.0
175
     0
176
     2
142
0.0208333333333333
142
0.0
142
0.0
142
0.0
142
0.0
142
0.0208333333333333
142
0.0
142
0.0
142
0.0
142
0.0
142
1.0
142
0.0
142
0.0
142
0.0
142
0.0
142
1.0
179
     0
270
     2
144
0.0208333333333333
144
0.0
144
0.0
144
0.0
144
0.0
144
0.0208333333333333
144
0.0
144
0.0
144
0.0
144
0.0
144
1.0
144
0.0
144
0.0
144
0.0
144
0.0
144
1.0
274
     2
147
0.0208333333333333
147
0.0
147
0.0
147
0.0
147
0.0
147
0.0208333333333333
147
0.0
147
0.0
147
0.0
147
0.0
147
1.0
147
0.0
147
0.0
147
0.0
147
0.0
147
1.0
  0
ACAD_PROXY_OBJECT
  5
15B99
102
{ACAD_REACTORS
330
15B98
102
}
330
15B98
100
AcDbZombieObject
 90
      499
 91
      512
 93
      610
310
40901902A4063FBFFFFFE000000000000002040AD7A3703D0AD73F4214DD185B99185C990000000000000104090141901A00000000000004100000000000000041025764000000000000300FC0
340
12
340
0
340
F
340
0
 94
        0
1001
ACAD_MLEADERVER
1070
     2
  0
MLINESTYLE
  5
1C
102
{ACAD_REACTORS
330
1B
102
}
330
1B
100
AcDbMlineStyle
  2
STANDARD
 70
     0
  3

 62
   256
 51
90.0
 52
90.0
 71
     2
 49
0.5
 62
   256
  6
BYLAYER
 49
-0.5
 62
   256
  6
BYLAYER
  0
ACAD_PROXY_OBJECT
  5
15B77
102
{ACAD_REACTORS
330
15B76
102
}
330
15B76
100
AcDbZombieObject
 90
      499
 91
      511
 93
       41
310
903313A31580
  0
ACAD_PROXY_OBJECT
  5
15B78
102
{ACAD_REACTORS
330
15B76
102
}
330
15B76
100
AcDbZombieObject
 90
      499
 91
      511
 93
      105
310
903313A324000000000000004000
  0
ACAD_PROXY_OBJECT
  5
15B79
102
{ACAD_REACTORS
330
15B76
102
}
330
15B76
100
AcDbZombieObject
 90
      499
 91
      511
 93
      105
310
903313A344000000000000104000
  0
ACAD_PROXY_OBJECT
  5
15B7A
102
{ACAD_REACTORS
330
15B76
102
}
330
15B76
100
AcDbZombieObject
 90
      499
 91
      511
 93
      105
310
903313A354000000000000144000
  0
ACAD_PROXY_OBJECT
  5
15B7B
102
{ACAD_REACTORS
330
15B76
102
}
330
15B76
100
AcDbZombieObject
 90
      499
 91
      511
 93
      105
310
903313A384000000000000204000
  0
ACAD_PROXY_OBJECT
  5
15B7C
102
{ACAD_REACTORS
330
15B76
102
}
330
15B76
100
AcDbZombieObject
 90
      499
 91
      511
 93
      113
310
904313A31304000000000000244000
  0
ACAD_PROXY_OBJECT
  5
15B7D
102
{ACAD_REACTORS
330
15B76
102
}
330
15B76
100
AcDbZombieObject
 90
      499
 91
      511
 93
      113
310
904313A31364000000000000304000
  0
ACAD_PROXY_OBJECT
  5
15B7E
102
{ACAD_REACTORS
330
15B76
102
}
330
15B76
100
AcDbZombieObject
 90
      499
 91
      511
 93
      113
310
904313A32304000000000000344000
  0
ACAD_PROXY_OBJECT
  5
15B7F
102
{ACAD_REACTORS
330
15B76
102
}
330
15B76
100
AcDbZombieObject
 90
      499
 91
      511
 93
      113
310
904313A333040000000000003E4000
  0
ACAD_PROXY_OBJECT
  5
15B80
102
{ACAD_REACTORS
330
15B76
102
}
330
15B76
100
AcDbZombieObject
 90
      499
 91
      511
 93
      113
310
904313A34304000000000000444000
  0
ACAD_PROXY_OBJECT
  5
15B81
102
{ACAD_REACTORS
330
15B76
102
}
330
15B76
100
AcDbZombieObject
 90
      499
 91
      511
 93
      113
310
904313A35304000000000000494000
  0
ACAD_PROXY_OBJECT
  5
15B82
102
{ACAD_REACTORS
330
15B76
102
}
330
15B76
100
AcDbZombieObject
 90
      499
 91
      511
 93
      121
310
905313A3130304000000000000594000
  0
ACAD_PROXY_OBJECT
  5
15B83
102
{ACAD_REACTORS
330
15B76
102
}
330
15B76
100
AcDbZombieObject
 90
      499
 91
      511
 93
      105
310
903323A310000000000000010100
  0
ACAD_PROXY_OBJECT
  5
15B84
102
{ACAD_REACTORS
330
15B76
102
}
330
15B76
100
AcDbZombieObject
 90
      499
 91
      511
 93
      105
310
903343A310000000000000410100
  0
ACAD_PROXY_OBJECT
  5
15B85
102
{ACAD_REACTORS
330
15B76
102
}
330
15B76
100
AcDbZombieObject
 90
      499
 91
      511
 93
      105
310
903383A310000000000000810100
  0
ACAD_PROXY_OBJECT
  5
15B86
102
{ACAD_REACTORS
330
15B76
102
}
330
15B76
100
AcDbZombieObject
 90
      499
 91
      511
 93
      113
310
90431303A310000000000000910100
  0
ACAD_PROXY_OBJECT
  5
15B87
102
{ACAD_REACTORS
330
15B76
102
}
330
15B76
100
AcDbZombieObject
 90
      499
 91
      511
 93
      121
310
9053130303A310000000000001650100
  0
ACAD_PROXY_OBJECT
  5
15B88
102
{ACAD_REACTORS
330
15B76
102
}
330
15B76
100
AcDbZombieObject
 90
      499
 91
      511
 93
      257
310
90E312F31323822203D2031272D3022000000000000200FC000000000000284000
  0
ACAD_PROXY_OBJECT
  5
15B89
102
{ACAD_REACTORS
330
15B76
102
}
330
15B76
100
AcDbZombieObject
 90
      499
 91
      511
 93
      249
310
90D312F363422203D2031272D3022000000000000240FC000000000000284000
  0
ACAD_PROXY_OBJECT
  5
15B8A
102
{ACAD_REACTORS
330
15B76
102
}
330
15B76
100
AcDbZombieObject
 90
      499
 91
      511
 93
      249
310
90D312F333222203D2031272D3022000000000000280FC000000000000284000
  0
ACAD_PROXY_OBJECT
  5
15B8B
102
{ACAD_REACTORS
330
15B76
102
}
330
15B76
100
AcDbZombieObject
 90
      499
 91
      511
 93
      249
310
90D312F313622203D2031272D30220000000000002C0FC000000000000284000
  0
ACAD_PROXY_OBJECT
  5
15B8C
102
{ACAD_REACTORS
330
15B76
102
}
330
15B76
100
AcDbZombieObject
 90
      499
 91
      511
 93
      249
310
90D332F333222203D2031272D30220000000000002E0FC000000000000284000
  0
ACAD_PROXY_OBJECT
  5
15B8D
102
{ACAD_REACTORS
330
15B76
102
}
330
15B76
100
AcDbZombieObject
 90
      499
 91
      511
 93
      241
310
90C312F3822203D2031272D3022000000000000300FC000000000000284000
  0
ACAD_PROXY_OBJECT
  5
15B8E
102
{ACAD_REACTORS
330
15B76
102
}
330
15B76
100
AcDbZombieObject
 90
      499
 91
      511
 93
      249
310
90D332F313622203D2031272D3022000000000000320FC000000000000284000
  0
ACAD_PROXY_OBJECT
  5
15B8F
102
{ACAD_REACTORS
330
15B76
102
}
330
15B76
100
AcDbZombieObject
 90
      499
 91
      511
 93
      241
310
90C312F3422203D2031272D3022000000000000340FC000000000000284000
  0
ACAD_PROXY_OBJECT
  5
15B90
102
{ACAD_REACTORS
330
15B76
102
}
330
15B76
100
AcDbZombieObject
 90
      499
 91
      511
 93
      241
310
90C332F3822203D2031272D3022000000000000360FC000000000000284000
  0
ACAD_PROXY_OBJECT
  5
15B91
102
{ACAD_REACTORS
330
15B76
102
}
330
15B76
100
AcDbZombieObject
 90
      499
 91
      511
 93
      241
310
90C312F3222203D2031272D3022000000000000380FC000000000000284000
  0
ACAD_PROXY_OBJECT
  5
15B92
102
{ACAD_REACTORS
330
15B76
102
}
330
15B76
100
AcDbZombieObject
 90
      499
 91
      511
 93
      241
310
90C332F3422203D2031272D30220000000000003A0FC000000000000284000
  0
ACAD_PROXY_OBJECT
  5
15B93
102
{ACAD_REACTORS
330
15B76
102
}
330
15B76
100
AcDbZombieObject
 90
      499
 91
      511
 93
      161
310
90A3122203D2031272D30224000000000000284000
  0
ACAD_PROXY_OBJECT
  5
15B94
102
{ACAD_REACTORS
330
15B76
102
}
330
15B76
100
AcDbZombieObject
 90
      499
 91
      511
 93
      257
310
90E312D312F3222203D2031272D30220000000000003E0FC000000000000284000
  0
ACAD_PROXY_OBJECT
  5
15B95
102
{ACAD_REACTORS
330
15B76
102
}
330
15B76
100
AcDbZombieObject
 90
      499
 91
      511
 93
      225
310
90A3322203D2031272D302200000000000002100000000000000284000
  0
ACAD_PROXY_OBJECT
  5
15B96
102
{ACAD_REACTORS
330
15B76
102
}
330
15B76
100
AcDbZombieObject
 90
      499
 91
      511
 93
      225
310
90A3622203D2031272D302200000000000006100000000000000284000
  0
ACAD_PROXY_OBJECT
  5
15B97
102
{ACAD_REACTORS
330
15B76
102
}
330
15B76
100
AcDbZombieObject
 90
      499
 91
      511
 93
      249
310
90D31272D3022203D2031272D30220000000000000A100000000000000284000
  0
ACAD_PROXY_OBJECT
  5
15B6B
102
{ACAD_REACTORS
330
15B65
102
}
330
15B65
100
AcDbZombieObject
 90
      499
 91
      510
 93
      436
310
42CC9915DA5C99599C985B595049028333333333333E3BF0000000000000FB0107901411070040501600405405064090741402480A0340
1001
ACAD
1000
AcDbSavedByObjectVersion
1070
     0
  0
ACAD_PROXY_OBJECT
  5
15B6D
102
{ACAD_REACTORS
330
15B65
102
}
330
15B65
100
AcDbZombieObject
 90
      499
 91
      510
 93
      500
310
424CD108121A5919195B90640502408333333333333E3BF0000000000000FB01079024090700405020000000000001110200405405064090740C02480A0340
1001
ACAD
1000
AcDbSavedByObjectVersion
1070
     0
  0
ACAD_PROXY_OBJECT
  5
15B6C
102
{ACAD_REACTORS
330
15B65
102
}
330
15B65
100
AcDbZombieObject
 90
      499
 91
      510
 93
      436
310
42CCD915DA5C99599C985B595059028333333333333E3BF0000000000000FB0107901411070040501600405405064090741402480A0340
1001
ACAD
1000
AcDbSavedByObjectVersion
1070
     0
  0
ACAD_PROXY_OBJECT
  5
15B6A
102
{ACAD_REACTORS
330
15B65
102
}
330
15B65
100
AcDbZombieObject
 90
      499
 91
      510
 93
      388
310
4150985CDA58D07406404333333333333E3BF0000000000000FB0107A41107004050150841D405064090741402480A0350
1001
ACAD
1000
AcDbSavedByObjectVersion
1070
     0
  0
ACAD_PROXY_OBJECT
  5
15B71
102
{ACAD_REACTORS
330
15B65
102
}
330
15B65
100
AcDbZombieObject
 90
      499
 91
      510
 93
      428
310
42109C9A59DA1D195B90C409028333333333333E3BF0000000000000FB010790141107004050150841D405064090741402480A029950
1001
ACAD
1000
AcDbSavedByObjectVersion
1070
     0
  0
ACAD_PROXY_OBJECT
  5
15B75
102
{ACAD_REACTORS
330
15B65
102
}
330
15B65
100
AcDbZombieObject
 90
      499
 91
      510
 93
      452
310
42D0DBDB1BDC90DA185B99D95104090240C333333333333E3BF0000000000000FB0108901411070040501508421405064090741402480A0350
1001
ACAD
1000
AcDbSavedByObjectVersion
1070
     0
  0
ACAD_PROXY_OBJECT
  5
15B6E
102
{ACAD_REACTORS
330
15B65
102
}
330
15B65
100
AcDbZombieObject
 90
      499
 91
      510
 93
      500
310
4290DBDB98D95C1D1D585B10940D028333333333333E3BF0000000000000FB0107902409070040501000000000000111010841D405064090740C02480A0340
1001
ACAD
1000
AcDbSavedByObjectVersion
1070
     0
  0
ACAD_PROXY_OBJECT
  5
15B70
102
{ACAD_REACTORS
330
15B65
102
}
330
15B65
100
AcDbZombieObject
 90
      499
 91
      510
 93
      412
310
40D11A5B50B409028333333333333E3BF0000000000000FB010790141107004050150841D405064090741402480A02677FFFFFD0
1001
ACAD
1000
AcDbSavedByObjectVersion
1070
     0
  0
ACAD_PROXY_OBJECT
  5
1F525
102
{ACAD_REACTORS
330
15B65
102
}
330
15B65
100
AcDbZombieObject
 90
      499
 91
      510
 93
      452
310
43115919D950DBDB1BDC93D999916409028333333333333E3BF0000000000000FB010790141107004050150841D405064090741402480A0350
1001
ACAD
1000
AcDbSavedByObjectVersion
1070
     0
  0
ACAD_PROXY_OBJECT
  5
15B74
102
{ACAD_REACTORS
330
15B65
102
}
330
15B65
100
AcDbZombieObject
 90
      499
 91
      510
 93
      444
310
42D19858D95C185D1D195C9B90F409028333333333333E3BF0000000000000FB010790141107004050150841D405064090741402480A0350
1001
ACAD
1000
AcDbSavedByObjectVersion
1070
     0
  0
ACAD_PROXY_OBJECT
  5
15B66
102
{ACAD_REACTORS
330
15B65
102
}
330
15B65
100
AcDbZombieObject
 90
      499
 91
      510
 93
      388
310
41119B185D240901404333333333333E3BF0000000000000F9010740A41107004050150841D405064090741402480A1B50
1001
ACAD
1000
AcDbSavedByObjectVersion
1070
     0
  0
ACAD_PROXY_OBJECT
  5
15B67
102
{ACAD_REACTORS
330
15B65
102
}
330
15B65
100
AcDbZombieObject
 90
      499
 91
      510
 93
      476
310
43519B185D15DA5D1A115919D95CD0140901404333333333333E3BF0000000000000F9010740901411070040501600405405064090741402480A1B50
1001
ACAD
1000
AcDbSavedByObjectVersion
1070
     0
  0
ACAD_PROXY_OBJECT
  5
15B68
102
{ACAD_REACTORS
330
15B65
102
}
330
15B65
100
AcDbZombieObject
 90
      499
 91
      510
 93
      412
310
41D1DBDD5C985D5910240902404333333333333E3BF0000000000000F9010740A411070040501641D405064090741402480A1B50
1001
ACAD
1000
AcDbSavedByObjectVersion
1070
     0
  0
ACAD_PROXY_OBJECT
  5
15B69
102
{ACAD_REACTORS
330
15B65
102
}
330
15B65
100
AcDbZombieObject
 90
      499
 91
      510
 93
      500
310
4411DBDD5C985D5915DA5D1A115919D95CD0340902404333333333333E3BF0000000000000F9010740901411070040501600405405064090741402480A1B50
1001
ACAD
1000
AcDbSavedByObjectVersion
1070
     0
  0
ACAD_PROXY_OBJECT
  5
34E63
102
{ACAD_REACTORS
330
15B65
102
}
330
15B65
100
AcDbZombieObject
 90
      499
 91
      510
 93
      476
310
41921A5919195B90640502408333333333333E33F0000000000000F901079024090700405020000000000001110200405405064090740C02480A0340
1001
ACAD
1000
AcDbSavedByObjectVersion
1070
     0
  0
ACAD_PROXY_OBJECT
  5
1F523
102
{ACAD_REACTORS
330
15B65
102
}
330
15B65
100
AcDbZombieObject
 90
      499
 91
      510
 93
      428
310
42529A5D1D195C93D999914409028333333333333E3BF0000000000000FB010790141107004050150A41D405064090741402480A0350
1001
ACAD
1000
AcDbSavedByObjectVersion
1070
     0
  0
ACAD_PROXY_OBJECT
  5
15B73
102
{ACAD_REACTORS
330
15B65
102
}
330
15B65
100
AcDbZombieObject
 90
      499
 91
      510
 93
      444
310
42D31A5B995C185D1D195C9B90E409028333333333333E3BF0000000000000FB010790141107004050750841D405064090741402483A0350
1001
ACAD
1000
AcDbSavedByObjectVersion
1070
     0
  0
ACAD_PROXY_OBJECT
  5
34E69
102
{ACAD_REACTORS
330
15B65
102
}
330
15B65
100
AcDbZombieObject
 90
      499
 91
      510
 93
      484
310
42135BD9195B1A5B99D0A409038333333333333E33F0000000000000F901074090290700405010000000000201990108421405064090741402480A1B40
1001
ACAD
1000
AcDbSavedByObjectVersion
1070
     0
  0
ACAD_PROXY_OBJECT
  5
1F524
102
{ACAD_REACTORS
330
15B65
102
}
330
15B65
100
AcDbZombieObject
 90
      499
 91
      510
 93
      444
310
42D3DD995C9A185B99D3D999915409028333333333333E3BF0000000000000FB010790141107004050150941D405064090741402480A0350
1001
ACAD
1000
AcDbSavedByObjectVersion
1070
     0
  0
ACAD_PROXY_OBJECT
  5
15B6F
102
{ACAD_REACTORS
330
15B65
102
}
330
15B65
100
AcDbZombieObject
 90
      499
 91
      510
 93
      420
310
425499585B1A5CDD1A58D08409028333333333333E3BF0000000000000FB01079019070040501508421405064090741402480A1B40
1001
ACAD
1000
AcDbSavedByObjectVersion
1070
     0
  0
ACAD_PROXY_OBJECT
  5
34E68
102
{ACAD_REACTORS
330
15B65
102
}
330
15B65
100
AcDbZombieObject
 90
      499
 91
      510
 93
      420
310
4194DA1859195911B40902404333333333333E33F0000000000000F9010740A41107004050150800405405064090840C02480A0B40
1001
ACAD
1000
AcDbSavedByObjectVersion
1070
     0
  0
ACAD_PROXY_OBJECT
  5
34E67
102
{ACAD_REACTORS
330
15B65
102
}
330
15B65
100
AcDbZombieObject
 90
      499
 91
      510
 93
      516
310
4454DA18591959081DDA5D1A08195919D95CD1A40902404333333333333E33F0000000000000F901074090142907004050250800405405064090740C02480A0B40
1001
ACAD
1000
AcDbSavedByObjectVersion
1070
     0
  0
ACAD_PROXY_OBJECT
  5
34E64
102
{ACAD_REACTORS
330
15B65
102
}
330
15B65
100
AcDbZombieObject
 90
      499
 91
      510
 93
      532
310
4394DA1859195CC81BD98811DC985E5174090240C333333333333E33F0000000000000F901079024090741D01000000000000111010841D405064090740C02480A0340
1001
ACAD
1000
AcDbSavedByObjectVersion
1070
     0
  0
ACAD_PROXY_OBJECT
  5
34E65
102
{ACAD_REACTORS
330
15B65
102
}
330
15B65
100
AcDbZombieObject
 90
      499
 91
      510
 93
      476
310
41D4DAD95D18DA1E51840502408333333333333E33F0000000000000F901079024090741D01000000000000111010B41D405064090741802480A0340
1001
ACAD
1000
AcDbSavedByObjectVersion
1070
     0
  0
ACAD_PROXY_OBJECT
  5
15B72
102
{ACAD_REACTORS
330
15B65
102
}
330
15B65
100
AcDbZombieObject
 90
      499
 91
      510
 93
      412
310
41D51A1A58DAD95B90D409028333333333333E3BF0000000000000FB010790141107004050150C41D405064090741402480A0350
1001
ACAD
1000
AcDbSavedByObjectVersion
1070
     0
  0
ACAD_PROXY_OBJECT
  5
34E62
102
{ACAD_REACTORS
330
15B65
102
}
330
15B65
100
AcDbZombieObject
 90
      499
 91
      510
 93
      420
310
4255DA5C99599C985B595059028333333333333E33F0000000000000F90107901411070040501600405405064090740C02480A0340
1001
ACAD
1000
AcDbSavedByObjectVersion
1070
     0
  0
ACAD_PROXY_OBJECT
  5
34E66
102
{ACAD_REACTORS
330
15B65
102
}
330
15B65
100
AcDbZombieObject
 90
      499
 91
      510
 93
      404
310
41560B54985E51940902404000000000000E03F0000000000000F9010740501907004050150841D405064090740C02480A1B40
1001
ACAD
1000
AcDbSavedByObjectVersion
1070
     0
  0
XRECORD
  5
35030
102
{ACAD_REACTORS
330
3502F
102
}
330
3502F
100
AcDbXrecord
340
2D0
  0
XRECORD
  5
35031
102
{ACAD_REACTORS
330
3502F
102
}
330
3502F
100
AcDbXrecord
340
2CF
  0
DICTIONARYVAR
  5
34E6B
102
{ACAD_REACTORS
330
37
102
}
330
37
100
DictionaryVariables
280
     0
  1
1:1
  0
DICTIONARYVAR
  5
15C4B
102
{ACAD_REACTORS
330
37
102
}
330
37
100
DictionaryVariables
280
     0
  1
Standard
  0
DICTIONARYVAR
  5
4F1
102
{ACAD_REACTORS
330
37
102
}
330
37
100
DictionaryVariables
280
     0
  1
Standard
  0
DICTIONARYVAR
  5
38
102
{ACAD_REACTORS
330
37
102
}
330
37
100
DictionaryVariables
280
     0
  1
-1
  0
DICTIONARYVAR
  5
408
102
{ACAD_REACTORS
330
37
102
}
330
37
100
DictionaryVariables
280
     0
  1
2
  0
DICTIONARYVAR
  5
1891
102
{ACAD_REACTORS
330
37
102
}
330
37
100
DictionaryVariables
280
     0
  1
1
  0
DICTIONARYVAR
  5
15C4E
102
{ACAD_REACTORS
330
37
102
}
330
37
100
DictionaryVariables
280
     0
  1
0
  0
DICTIONARYVAR
  5
1895
102
{ACAD_REACTORS
330
37
102
}
330
37
100
DictionaryVariables
280
     0
  1
8
  0
DICTIONARYVAR
  5
1894
102
{ACAD_REACTORS
330
37
102
}
330
37
100
DictionaryVariables
280
     0
  1
1
  0
DICTIONARYVAR
  5
34E6C
102
{ACAD_REACTORS
330
37
102
}
330
37
100
DictionaryVariables
280
     0
  1
0
  0
DICTIONARYVAR
  5
1892
102
{ACAD_REACTORS
330
37
102
}
330
37
100
DictionaryVariables
280
     0
  1
8
  0
DICTIONARYVAR
  5
1893
102
{ACAD_REACTORS
330
37
102
}
330
37
100
DictionaryVariables
280
     0
  1
2
  0
DICTIONARYVAR
  5
409
102
{ACAD_REACTORS
330
37
102
}
330
37
100
DictionaryVariables
280
     0
  1

  0
DICTIONARYVAR
  5
15C4D
102
{ACAD_REACTORS
330
37
102
}
330
37
100
DictionaryVariables
280
     0
  1
127
  0
DICTIONARYVAR
  5
34E61
102
{ACAD_REACTORS
330
37
102
}
330
37
100
DictionaryVariables
280
     0
  1
2
  0
ACAD_PROXY_OBJECT
  5
253AA
102
{ACAD_REACTORS
330
14EC3
102
}
102
{ACAD_XDICTIONARY
360
253AB
102
}
330
14EC3
100
AcDbZombieObject
 90
      499
 91
      518
 93
    16594
310
0582000016C005C080000B404000098880400B804100098C511253528074410080000000001680020000000F8001C01C807F7FD2C045000000000000000040010009A41197CDD2806D75C040000000001680020000000F8001C01C807F7FD2C045000000000000000040010009A41197CDD2804C1A00400000000016800200
310
00000F8020C01C807F7FD2C045000000000000000040018009A41197CC4CCC52807EA5C000000000001680020000000F8001C01C807F7FD2C045000000000000000040010009A41197CDD28078418000000000001680020000000F8001C01C807F7FD2C045000000000000000040010009A41197CDD2807801800000000000
310
1680020000000F8001C01C807F7FD2C045000000000000000040010009A41197CDD28077C18000000000001680020000000F8037401C807F7FD2C078818000000000000040018009A41197CC8C8C528077818000000000001680020000000F8001C01C807F7FD2C045000000000000000040010009A41197CDD28077418000
310
000000001680020000000F803F001C807F7FD2C045000000000000000040018009A41197CC8D4C92806EC10000000000001680020000000F8037401C807F7FD2C05A800000000000000040018009A41197CC8C8C52804E80C000000000001680000000000F8000401C807F7FD2C05D008000000000000040010009A41197CC
310
52805DC08000000000001680024000000F8002001C807F7FD2C045000000000000000040010009A41197CE12805D808000000000001680020000000F803F001C807F7FD2C045000000000000000040018009A41197CC8D4C92805D408000000000001680020000000F8002401C807F7FD2C045000000000000000040010009
310
A41197CE52805CC08000000000001680020000000F8001C01C807F7FD2C045000000000000000040010009A41197CDD2805C808000000000001680020000000F8001C01C807F7FD2C057008000000000000040010009A41197CDD2805C408000000000001680020000000F8001C01C807F7FD2C056C0800000000000004001
310
0009A41197CDD2805C008000000000001680020000000F8001C01C807F7FD2C056808000000000000040010009A41197CDD2805BC08000000000001680020000000F8001C01C807F7FD2C056408000000000000040010009A41197CDD2805B808000000000001680020000000F8001C01C807F7FD2C0560080000000000000
310
40010009A41197CDD2805B408000000000001680020000000F8002001C807F7FD2C045000000000000000040010009A41197CE12805B008000000000001680020000000F8002001C807F7FD2C045000000000000000040010009A41197CE12805AC08000000000001680020000000F8002001C807F7FD2C045000000000000
310
000040010009A41197CE12805A808000000000001680020000000F8002001C807F7FD2C045000000000000000040010009A41197CE12805A408000000000001680020000000F8001C01C807F7FD2C045000000000000000040010009A41197CDD2805A008000000000001680020000000F8035401C807F7FD2C04500000000
310
0000000040018009A41197CC8C4CD28059C08000000000001680020000000F8003C01C807F7FD2C045000000000000000040014009A41197CC4D528059808000000000001680020000000F8017C01C807F7FD2C045000000000000000040014009A41197CE4D528059408000000000001680020000000F8023C01C807F7FD2
310
C045000000000000000040018009A41197CC4D0CD28059008000000000001680020000000F8001801C807F7FD2C045000000000000000040010009A41197CD928058C08000000000001680020000000F8001401C807F7FD2C045000000000000000040010009A41197CD528058808000000000001680020000000F8001001C
310
807F7FD2C045000000000000000040010009A41197CD128058408000000000001680020000000F8000C01C807F7FD2C045000000000000000040010009A41197CCD28058008000000000001680020000000F8000801C807F7FD2C045000000000000000040010009A41197CC928057C08000000000001680020000000F8000
310
401C807F7FD2C045000000000000000040010009A41197CC528055408000000000001680020000000F8001C01C807F7FD2C057408000000000000040010009A41197CDD28040C04000000000001680020000000F803F801C807F7FD2C040004000000000000040018009A41197CC8D4D128040804000000000001680020000
310
000F8002001C807F7FD2C07FC00000000000000040010009A41197CE128040404000000000001680020000000F8002001C807F7FD2C045000000000000000040010009A41197CE128069000000000000001680020000000F8001C01C807F7FD2C045000000000000000040010009A41197CDD2805800000000000000168000
310
0000000F8001C01C807F7FD2C045000000000000000040010009A41197CDD2804D000000000000001680020000000F803F401C807F7FD2C045000000000000000040018009A41197CC8D4CD2804CC00000000000001680024000000F8000401C807F7FD2C045000000000000000040010009A41197CC52804C800000000000
310
001680020000000F8037401C807F7FD2C045000000000000000040018009A41197CC8C8C52804C400000000000001680020000000F8032401C807F7FD2C045000000000000000040018009A41197CC8C0C52804A400000000000001680020000000F8037401C807F7FD2C045000000000000000040018009A41197CC8C8C52
310
8043800000000000001680020000000F8001C01C807F7FD2C045000000000000000040010009A41197CDC0
  0
DICTIONARY
  5
35033
330
15B55
100
AcDbDictionary
  3
ACAD_XREC_ROUNDTRIP
360
35034
1001
ACAD
1000
TREAT_AS_HARD
1070
     1
  0
DICTIONARY
  5
35035
330
15B4D
100
AcDbDictionary
  3
ACAD_XREC_ROUNDTRIP
360
35036
1001
ACAD
1000
TREAT_AS_HARD
1070
     1
  0
DICTIONARY
  5
35037
330
15B5D
100
AcDbDictionary
  3
ACAD_XREC_ROUNDTRIP
360
35038
1001
ACAD
1000
TREAT_AS_HARD
1070
     1
  0
DICTIONARY
  5
253AB
330
253AA
100
AcDbDictionary
  3
ACADLAYERSTATEANNOSCALE
360
253AC
1001
ACAD
1000
TREAT_AS_HARD
1070
     1
  0
XRECORD
  5
35034
102
{ACAD_REACTORS
330
35033
102
}
330
35033
100
AcDbXrecord
102
MATERIAL
148
0.0
149
0.0
149
0.0
 93
        0
 94
      127
282
     0
 72
     0
 77
     0
171
     0
175
     0
179
     0
273
     0
  0
XRECORD
  5
35036
102
{ACAD_REACTORS
330
35035
102
}
330
35035
100
AcDbXrecord
102
MATERIAL
148
0.0
149
0.0
149
0.0
 93
        0
 94
      127
282
     0
 72
     0
 77
     0
171
     0
175
     0
179
     0
273
     0
  0
XRECORD
  5
35038
102
{ACAD_REACTORS
330
35037
102
}
330
35037
100
AcDbXrecord
102
MATERIAL
148
0.0
149
0.0
149
0.0
 93
        0
 94
      127
282
     0
 72
     0
 77
     0
171
     0
175
     0
179
     0
273
     0
  0
XRECORD
  5
253AC
102
{ACAD_REACTORS
330
253AB
102
}
330
253AB
100
AcDbXrecord
330
15B77
  0
ENDSEC
  0
EOF
