  0
SECTION
  2
HEADER
  9
$ACADVER
  1
AC1009
  9
$DWGCODEPAGE
  3
ansi_932
  9
$INSBASE
 10
0.0
 20
0.0
 30
0.0
  9
$EXTMIN
 10
2771.588772232351
 20
-1828.353278748932
 30
0.0
  9
$EXTMAX
 10
3045.580423490023
 20
-1681.038158502518
 30
0.0
  9
$LIMMIN
 10
0.0
 20
0.0
  9
$LIMMAX
 10
420.0
 20
297.0
  9
$ORTHOMODE
 70
     0
  9
$REGENMODE
 70
     1
  9
$FILLMODE
 70
     1
  9
$QTEXTMODE
 70
     0
  9
$MIRRTEXT
 70
     0
  9
$DRAGMODE
 70
     2
  9
$LTSCALE
 40
0.5
  9
$OSMODE
 70
 14591
  9
$ATTMODE
 70
     1
  9
$TEXTSIZE
 40
4.0
  9
$TRACEWID
 40
1.0
  9
$TEXTSTYLE
  7
STANDARD
  9
$CLAYER
  8
1TEXT
  9
$CELTYPE
  6
BYLAYER
  9
$CECOLOR
 62
   256
  9
$DIMSCALE
 40
1.0
  9
$DIMASZ
 40
2.0
  9
$DIMEXO
 40
0.0
  9
$DIMDLI
 40
7.0
  9
$DIMRND
 40
0.0
  9
$DIMDLE
 40
0.0
  9
$DIMEXE
 40
1.0
  9
$DIMTP
 40
0.0
  9
$DIMTM
 40
0.0
  9
$DIMTXT
 40
3.5
  9
$DIMCEN
 40
0.0
  9
$DIMTSZ
 40
0.0
  9
$DIMTOL
 70
     0
  9
$DIMLIM
 70
     0
  9
$DIMTIH
 70
     0
  9
$DIMTOH
 70
     0
  9
$DIMSE1
 70
     0
  9
$DIMSE2
 70
     0
  9
$DIMTAD
 70
     1
  9
$DIMZIN
 70
     8
  9
$DIMBLK
  1

  9
$DIMASO
 70
     1
  9
$DIMSHO
 70
     1
  9
$DIMPOST
  1
 
  9
$DIMAPOST
  1

  9
$DIMALT
 70
     0
  9
$DIMALTD
 70
     2
  9
$DIMALTF
 40
25.4
  9
$DIMLFAC
 40
1.0
  9
$DIMTOFL
 70
     1
  9
$DIMTVP
 40
0.0
  9
$DIMTIX
 70
     0
  9
$DIMSOXD
 70
     0
  9
$DIMSAH
 70
     1
  9
$DIMBLK1
  1
OPEN30
  9
$DIMBLK2
  1
OPEN30
  9
$DIMSTYLE
  2
NEWX10
  9
$DIMCLRD
 70
   256
  9
$DIMCLRE
 70
   256
  9
$DIMCLRT
 70
   201
  9
$DIMTFAC
 40
0.7
  9
$DIMGAP
 40
0.7
  9
$LUNITS
 70
     2
  9
$LUPREC
 70
     4
  9
$SKETCHINC
 40
1.0
  9
$FILLETRAD
 40
0.0
  9
$AUNITS
 70
     0
  9
$AUPREC
 70
     2
  9
$MENU
  1
acad
  9
$ELEVATION
 40
0.0
  9
$PELEVATION
 40
0.0
  9
$THICKNESS
 40
0.0
  9
$LIMCHECK
 70
     0
  9
$CHAMFERA
 40
10.0
  9
$CHAMFERB
 40
10.0
  9
$SKPOLY
 70
     0
  9
$TDCREATE
 40
2453033.732663484
  9
$TDUPDATE
 40
2457948.622480417
  9
$TDINDWG
 40
2.4621797917
  9
$TDUSRTIMER
 40
2.4621797917
  9
$USRTIMER
 70
     1
  9
$ANGBASE
 50
0.0
  9
$ANGDIR
 70
     0
  9
$PDMODE
 70
     0
  9
$PDSIZE
 40
0.0
  9
$PLINEWID
 40
0.0
  9
$COORDS
 70
     2
  9
$SPLFRAME
 70
     0
  9
$SPLINETYPE
 70
     6
  9
$SPLINESEGS
 70
     8
  9
$ATTDIA
 70
     0
  9
$ATTREQ
 70
     1
  9
$HANDLING
 70
     1
  9
$HANDSEED
  5
1A009
  9
$SURFTAB1
 70
     6
  9
$SURFTAB2
 70
     6
  9
$SURFTYPE
 70
     6
  9
$SURFU
 70
     6
  9
$SURFV
 70
     6
  9
$UCSNAME
  2

  9
$UCSORG
 10
0.0
 20
0.0
 30
0.0
  9
$UCSXDIR
 10
1.0
 20
0.0
 30
0.0
  9
$UCSYDIR
 10
0.0
 20
1.0
 30
0.0
  9
$PUCSNAME
  2

  9
$PUCSORG
 10
0.0
 20
0.0
 30
0.0
  9
$PUCSXDIR
 10
1.0
 20
0.0
 30
0.0
  9
$PUCSYDIR
 10
0.0
 20
1.0
 30
0.0
  9
$USERI1
 70
     0
  9
$USERI2
 70
     0
  9
$USERI3
 70
     0
  9
$USERI4
 70
     0
  9
$USERI5
 70
     0
  9
$USERR1
 40
0.0
  9
$USERR2
 40
0.0
  9
$USERR3
 40
0.0
  9
$USERR4
 40
0.0
  9
$USERR5
 40
0.0
  9
$WORLDVIEW
 70
     1
  9
$SHADEDGE
 70
     3
  9
$SHADEDIF
 70
    70
  9
$TILEMODE
 70
     1
  9
$MAXACTVP
 70
    48
  9
$PLIMCHECK
 70
     0
  9
$PEXTMIN
 10
1.000000000000000E+20
 20
1.000000000000000E+20
 30
1.000000000000000E+20
  9
$PEXTMAX
 10
-1.000000000000000E+20
 20
-1.000000000000000E+20
 30
-1.000000000000000E+20
  9
$PLIMMIN
 10
0.0
 20
0.0
  9
$PLIMMAX
 10
420.0
 20
297.0
  9
$UNITMODE
 70
     0
  9
$VISRETAIN
 70
     1
  9
$PLINEGEN
 70
     0
  9
$PSLTSCALE
 70
     1
  0
ENDSEC
  0
SECTION
  2
TABLES
  0
TABLE
  2
VPORT
 70
     1
  0
VPORT
  2
*ACTIVE
 70
     0
 10
0.0
 20
0.0
 11
1.0
 21
1.0
 12
2908.584597861187
 22
-1754.695718625725
 13
0.0
 23
0.0
 14
10.0
 24
10.0
 15
10.0
 25
10.0
 16
0.0
 26
0.0
 36
1.0
 17
0.0
 27
0.0
 37
0.0
 40
158.1699185803602
 41
2.020775623268698
 42
50.0
 43
0.0
 44
0.0
 50
0.0
 51
0.0
 71
    16
 72
   100
 73
     1
 74
     1
 75
     0
 76
     0
 77
     0
 78
     0
  0
ENDTAB
  0
TABLE
  2
LTYPE
 70
    15
  0
LTYPE
  2
CONTINUOUS
 70
     0
  3
Solid line
 72
    65
 73
     0
 40
0.0
  0
LTYPE
  2
CENTER2
 70
     0
  3
Center (.5x) ___ _ ___ _ ___ _ ___ _ ___ _ ___
 72
    65
 73
     4
 40
28.575
 49
19.05
 49
-3.175
 49
3.175
 49
-3.175
  0
LTYPE
  2
PHANTOM2
 70
     0
  3
Phantom (0.5x) ___ _ _ ___ _ _ ___ _ _ ___ _ _
 72
    65
 73
     6
 40
31.75
 49
15.875
 49
-3.175
 49
3.175
 49
-3.175
 49
3.175
 49
-3.175
  0
ENDTAB
  0
TABLE
  2
LAYER
 70
    45
  0
LAYER
  2
0
 70
     0
 62
     7
  6
CONTINUOUS
  0
LAYER
  2
1CENTER
 70
     0
 62
     7
  6
CENTER2
  0
LAYER
  2
1TEXT
 70
     0
 62
     7
  6
CONTINUOUS
  0
LAYER
  2
1DIM
 70
     0
 62
     7
  6
CONTINUOUS
  0
LAYER
  2
1PHANTOM
 70
     0
 62
     7
  6
PHANTOM2
  0
LAYER
  2
01
 70
     0
 62
     1
  6
CONTINUOUS
  0
LAYER
  2
1HATCH
 70
     0
 62
     7
  6
CONTINUOUS
  0
ENDTAB
  0
TABLE
  2
STYLE
 70
    25
  0
STYLE
  2
STANDARD
 70
     0
 40
0.0
 41
1.0
 50
0.0
 71
     0
 42
4.0
  3
txt.shx
  4
extfont.shx
  0
ENDTAB
  0
TABLE
  2
VIEW
 70
     0
  0
ENDTAB
  0
TABLE
  2
UCS
 70
     0
  0
ENDTAB
  0
TABLE
  2
APPID
 70
    15
  0
APPID
  2
ACAD
 70
     0
  0
APPID
  2
DRAWINGVARIABLESXDATA
 70
     0
  0
APPID
  2
CONTENTTABDATA
 70
     0
  0
APPID
  2
CONTENTCURRENTTAB
 70
     0
  0
APPID
  2
CONTENTBLOCKDESCRIPTION
 70
     0
  0
APPID
  2
CONTENTBLOCKICON
 70
     0
  0
APPID
  2
CONTENTLONGBLOCKNAME
 70
     0
  0
APPID
  2
ACAD_PSEXT
 70
     0
  0
APPID
  2
ACAD_DSTYLE_DIMTEXT_FILL
 70
     0
  0
APPID
  2
ACAD_MLEADERVER
 70
     0
  0
APPID
  2
ACAD_DSTYLE_DIMRADIAL_EXTE
 70
     0
  0
APPID
  2
ACAD_EXEMPT_FROM_CAD_STAND
 70
     0
  0
APPID
  2
ACADANNOTATIVE
 70
     0
  0
APPID
  2
ACLAYERTOOLS
 70
     0
  0
APPID
  2
ACAD_OBJECT_CHANGE_GUID
 70
     0
  0
ENDTAB
  0
TABLE
  2
DIMSTYLE
 70
    10
  0
DIMSTYLE
  2
NEWX10
 70
     0
  3
 
  4

  5

  6
OPEN30
  7
OPEN30
 40
1.0
 41
2.0
 42
0.0
 43
7.0
 44
1.0
 45
0.0
 46
0.0
 47
0.0
 48
0.0
140
3.5
141
0.0
142
0.0
143
25.4
144
1.0
145
0.0
146
0.7
147
0.7
 71
     0
 72
     0
 73
     0
 74
     0
 75
     0
 76
     0
 77
     1
 78
     8
170
     0
171
     2
172
     1
173
     1
174
     0
175
     0
176
   256
177
   256
178
   201
  0
ENDTAB
  0
ENDSEC
  0
SECTION
  2
BLOCKS
  0
BLOCK
  8
0
  2
$MODEL_SPACE
 70
     0
 10
0.0
 20
0.0
 30
0.0
  3
$MODEL_SPACE
  1

  0
ENDBLK
  5
1A
  8
0
  0
BLOCK
 67
     1
  8
0
  2
$PAPER_SPACE
 70
     0
 10
0.0
 20
0.0
 30
0.0
  3
$PAPER_SPACE
  1

  0
ENDBLK
  5
17
 67
     1
  8
0
  0
BLOCK
  8
0
  2
_OPEN30
 70
     0
 10
0.0
 20
0.0
 30
0.0
  3
_OPEN30
  1

  0
LINE
  5
44
  8
0
  6
BYBLOCK
 62
     0
 10
-1.0
 20
0.26794919
 30
0.0
 11
0.0
 21
0.0
 31
0.0
  0
LINE
  5
45
  8
0
  6
BYBLOCK
 62
     0
 10
0.0
 20
0.0
 30
0.0
 11
-1.0
 21
-0.26794919
 31
0.0
  0
LINE
  5
46
  8
0
  6
BYBLOCK
 62
     0
 10
0.0
 20
0.0
 30
0.0
 11
-1.0
 21
0.0
 31
0.0
  0
ENDBLK
  5
47
  8
0
  0
ENDSEC
  0
SECTION
  2
ENTITIES
  0
LINE
  5
18545
  8
1DIM
 10
2975.580423490022
 20
-1716.675292090592
 30
0.0
 11
3045.580423490023
 21
-1716.675292090592
 31
0.0
  0
LINE
  5
18546
  8
1DIM
 10
2975.580423490022
 20
-1709.675292090592
 30
0.0
 11
3045.580423490023
 21
-1709.675292090592
 31
0.0
  0
TEXT
  5
18547
  8
1TEXT
 10
3021.113756823356
 20
-1715.175292090592
 30
0.0
 40
4.0
  1
コード
 72
     1
 11
3027.980423490023
 21
-1715.175292090592
 31
0.0
  0
TEXT
  5
18548
  8
1TEXT
 10
2984.640423490022
 20
-1715.175292090592
 30
0.0
 40
4.0
  1
表面処理
 41
0.9
 72
     1
 11
2992.980423490023
 21
-1715.175292090592
 31
0.0
  0
LINE
  5
18549
  8
1DIM
 10
2975.580423490023
 20
-1723.675292090592
 30
0.0
 11
3045.580423490023
 21
-1723.675292090592
 31
0.0
  0
LINE
  5
1854B
  8
1DIM
 10
2975.580423490023
 20
-1709.675292090592
 30
0.0
 11
2975.580423490023
 21
-1737.675292090593
 31
0.0
  0
LINE
  5
1854C
  8
1DIM
 10
3010.580423490023
 20
-1709.675292090592
 30
0.0
 11
3010.580423490023
 21
-1737.675292090593
 31
0.0
  0
LINE
  5
1854D
  8
1DIM
 10
3045.580423490023
 20
-1709.675292090592
 30
0.0
 11
3045.580423490022
 21
-1737.675292090593
 31
0.0
  0
TEXT
  5
1854E
  8
1TEXT
 10
3015.594312378912
 20
-1722.389649074242
 30
0.0
 40
4.0
  1
GP-161-036
 41
0.7
 72
     1
 11
3027.980423490023
 21
-1722.389649074242
 31
0.0
  0
TEXT
  5
1854F
  8
1TEXT
 10
2974.379134006963
 20
-1705.384162864501
 30
0.0
 40
8.0
  1
GP-161-X
  0
TEXT
  5
18551
  8
1TEXT
 10
2976.240423490024
 20
-1736.389649074242
 30
0.0
 40
4.0
  1
ブラストブラック
 41
0.9
 72
     1
 11
2992.980423490023
 21
-1736.389649074242
 31
0.0
  0
TEXT
  5
18552
  8
1TEXT
 10
3015.58459015669
 20
-1736.389649074242
 30
0.0
 40
4.0
  1
GP-161-062
 41
0.7
 72
     1
 11
3027.980423490023
 21
-1736.389649074242
 31
0.0
  0
LINE
  5
18553
  8
1DIM
 10
2975.580423490023
 20
-1730.675292090592
 30
0.0
 11
3045.580423490022
 21
-1730.675292090593
 31
0.0
  0
TEXT
  5
18554
  8
1TEXT
 10
2976.780423490024
 20
-1729.389649074242
 30
0.0
 40
4.0
  1
ダークアンバー
 72
     1
 11
2992.980423490023
 21
-1729.389649074242
 31
0.0
  0
TEXT
  5
18555
  8
1TEXT
 10
3016.060979045579
 20
-1729.389649074242
 30
0.0
 40
4.0
  1
GP-161-014
 41
0.7
 72
     1
 11
3027.980423490023
 21
-1729.389649074242
 31
0.0
  0
TEXT
  5
1855B
  8
1TEXT
 10
2976.240423490024
 20
-1722.389649074241
 30
0.0
 40
4.0
  1
ブラストシルバー
 41
0.9
 72
     1
 11
2992.980423490023
 21
-1722.389649074241
 31
0.0
  0
LINE
  5
18EE8
  8
01
 10
2773.588772232351
 20
-1721.639833502519
 30
0.0
 11
2771.588772232351
 21
-1721.639833502519
 31
0.0
  0
LINE
  5
18EE9
  8
01
 10
2771.588772232351
 20
-1739.139833502519
 30
0.0
 11
2771.588772232351
 21
-1721.639833502519
 31
0.0
  0
ARC
  5
18EEA
  8
01
 10
2772.088772232351
 20
-1739.139833502519
 30
0.0
 40
0.5
 50
180.0
 51
270.0
  0
LINE
  5
18EEB
  8
01
 10
2773.588772232351
 20
-1737.639833502519
 30
0.0
 11
2773.588772232351
 21
-1721.639833502519
 31
0.0
  0
LINE
  5
18EF1
  8
01
 10
2908.088772232351
 20
-1721.639833502519
 30
0.0
 11
2906.088772232351
 21
-1721.639833502519
 31
0.0
  0
LINE
  5
18EF2
  8
01
 10
2907.588772232351
 20
-1739.639833502519
 30
0.0
 11
2772.088772232351
 21
-1739.639833502519
 31
0.0
  0
ARC
  5
18EF3
  8
01
 10
2907.588772232351
 20
-1739.139833502519
 30
0.0
 40
0.5
 50
270.0
 51
0.0
  0
LINE
  5
18EF4
  8
01
 10
2906.088772232351
 20
-1737.639833502519
 30
0.0
 11
2773.588772232351
 21
-1737.639833502519
 31
0.0
  0
LINE
  5
18EF5
  8
01
 10
2908.088772232351
 20
-1739.139833502519
 30
0.0
 11
2908.088772232351
 21
-1721.639833502519
 31
0.0
  0
LINE
  5
18EF6
  8
01
 10
2906.088772232351
 20
-1737.639833502519
 30
0.0
 11
2906.088772232351
 21
-1721.639833502519
 31
0.0
  0
LINE
  5
18F29
  8
01
 10
2773.688772232352
 20
-1737.039833502519
 30
0.0
 11
2773.688772232352
 21
-1721.639833502519
 31
0.0
  0
LINE
  5
18F2A
  8
01
 10
2773.688772232352
 20
-1721.639833502519
 30
0.0
 11
2905.988772232351
 21
-1721.639833502519
 31
0.0
  0
LINE
  5
18F2B
  8
01
 10
2905.988772232351
 20
-1737.039833502519
 30
0.0
 11
2905.988772232351
 21
-1721.639833502519
 31
0.0
  0
LINE
  5
18F2C
  8
01
 10
2905.988772232351
 20
-1737.039833502519
 30
0.0
 11
2773.688772232352
 21
-1737.039833502519
 31
0.0
  0
LINE
  5
18F31
  8
1DIM
 10
2975.580423490023
 20
-1737.675292090593
 30
0.0
 11
3045.580423490022
 21
-1737.675292090593
 31
0.0
  0
LINE
  5
19305
  8
1CENTER
 10
2799.838772232351
 20
-1681.038158502518
 30
0.0
 11
2799.838772232351
 21
-1726.482264076487
 31
0.0
  0
LINE
  5
19306
  8
1PHANTOM
 10
2797.338772232351
 20
-1706.521967916472
 30
0.0
 11
2802.338772232351
 21
-1705.521967916472
 31
0.0
  0
LINE
  5
19307
  8
1PHANTOM
 10
2798.088772232351
 20
-1689.170922415764
 30
0.0
 11
2798.088772232351
 21
-1721.639833502519
 31
0.0
  0
LINE
  5
19308
  8
1PHANTOM
 10
2799.838772232351
 20
-1682.639833502519
 30
0.0
 11
2798.088772232351
 21
-1689.170922415764
 31
0.0
  0
LINE
  5
19309
  8
1PHANTOM
 10
2799.838772232351
 20
-1682.639833502519
 30
0.0
 11
2801.588772232351
 21
-1689.170922415764
 31
0.0
  0
LINE
  5
1930A
  8
1PHANTOM
 10
2801.588772232351
 20
-1689.170922415764
 30
0.0
 11
2801.588772232351
 21
-1721.639833502519
 31
0.0
  0
LINE
  5
1930B
  8
1PHANTOM
 10
2797.522505291316
 20
-1688.48522130468
 30
0.0
 11
2798.272505291316
 21
-1688.63522130468
 31
0.0
  0
LINE
  5
1930C
  8
1PHANTOM
 10
2797.522505291316
 20
-1688.48522130468
 30
0.0
 11
2801.919409772407
 21
-1687.605840408462
 31
0.0
  0
LINE
  5
1930D
  8
1PHANTOM
 10
2800.152128919295
 20
-1683.659296579084
 30
0.0
 11
2800.902128919295
 21
-1683.809296579084
 31
0.0
  0
LINE
  5
1930E
  8
1PHANTOM
 10
2798.654991831834
 20
-1684.258723996576
 30
0.0
 11
2799.404991831834
 21
-1684.408723996576
 31
0.0
  0
LINE
  5
1930F
  8
1PHANTOM
 10
2798.654991831834
 20
-1684.258723996576
 30
0.0
 11
2800.902128919295
 21
-1683.809296579084
 31
0.0
  0
LINE
  5
19310
  8
1PHANTOM
 10
2801.169409772407
 20
-1687.455840408462
 30
0.0
 11
2801.919409772407
 21
-1687.605840408462
 31
0.0
  0
LINE
  5
19311
  8
1PHANTOM
 10
2800.660769345851
 20
-1685.557568493772
 30
0.0
 11
2801.410769345851
 21
-1685.707568493773
 31
0.0
  0
LINE
  5
19312
  8
1PHANTOM
 10
2798.088748561575
 20
-1686.371972650628
 30
0.0
 11
2798.838748561575
 21
-1686.521972650628
 31
0.0
  0
LINE
  5
19313
  8
1PHANTOM
 10
2798.088748561575
 20
-1686.371972650628
 30
0.0
 11
2801.410769345851
 21
-1685.707568493773
 31
0.0
  0
LINE
  5
19314
  8
1PHANTOM
 10
2801.588772232351
 20
-1697.371967916473
 30
0.0
 11
2802.338772232351
 21
-1697.521967916472
 31
0.0
  0
LINE
  5
19315
  8
1PHANTOM
 10
2797.338772232351
 20
-1694.521967916472
 30
0.0
 11
2798.088772232351
 21
-1694.671967916473
 31
0.0
  0
LINE
  5
19316
  8
1PHANTOM
 10
2797.338772232351
 20
-1696.521967916472
 30
0.0
 11
2798.088772232351
 21
-1696.671967916473
 31
0.0
  0
LINE
  5
19317
  8
1PHANTOM
 10
2797.338772232351
 20
-1696.521967916472
 30
0.0
 11
2802.338772232351
 21
-1695.521967916472
 31
0.0
  0
LINE
  5
19318
  8
1PHANTOM
 10
2797.338772232351
 20
-1692.521967916472
 30
0.0
 11
2798.088772232351
 21
-1692.671967916473
 31
0.0
  0
LINE
  5
19319
  8
1PHANTOM
 10
2797.338772232351
 20
-1690.521967916472
 30
0.0
 11
2798.088772232351
 21
-1690.671967916473
 31
0.0
  0
LINE
  5
1931A
  8
1PHANTOM
 10
2797.338772232351
 20
-1690.521967916472
 30
0.0
 11
2802.338772232351
 21
-1689.521967916472
 31
0.0
  0
LINE
  5
1931B
  8
1PHANTOM
 10
2797.338772232351
 20
-1692.521967916472
 30
0.0
 11
2802.338772232351
 21
-1691.521967916472
 31
0.0
  0
LINE
  5
1931C
  8
1PHANTOM
 10
2797.338772232351
 20
-1694.521967916472
 30
0.0
 11
2802.338772232351
 21
-1693.521967916472
 31
0.0
  0
LINE
  5
1931D
  8
1PHANTOM
 10
2801.588772232351
 20
-1689.371967916473
 30
0.0
 11
2802.338772232351
 21
-1689.521967916472
 31
0.0
  0
LINE
  5
1931E
  8
1PHANTOM
 10
2801.588772232351
 20
-1691.371967916473
 30
0.0
 11
2802.338772232351
 21
-1691.521967916472
 31
0.0
  0
LINE
  5
1931F
  8
1PHANTOM
 10
2801.588772232351
 20
-1695.371967916473
 30
0.0
 11
2802.338772232351
 21
-1695.521967916472
 31
0.0
  0
LINE
  5
19320
  8
1PHANTOM
 10
2801.588772232351
 20
-1693.371967916473
 30
0.0
 11
2802.338772232351
 21
-1693.521967916472
 31
0.0
  0
LINE
  5
19321
  8
1PHANTOM
 10
2797.338772232351
 20
-1700.521967916472
 30
0.0
 11
2798.088772232351
 21
-1700.671967916473
 31
0.0
  0
LINE
  5
19322
  8
1PHANTOM
 10
2797.338772232351
 20
-1698.521967916472
 30
0.0
 11
2798.088772232351
 21
-1698.671967916473
 31
0.0
  0
LINE
  5
19323
  8
1PHANTOM
 10
2797.338772232351
 20
-1704.521967916472
 30
0.0
 11
2798.088772232351
 21
-1704.671967916473
 31
0.0
  0
LINE
  5
19324
  8
1PHANTOM
 10
2797.338772232351
 20
-1702.521967916472
 30
0.0
 11
2798.088772232351
 21
-1702.671967916473
 31
0.0
  0
LINE
  5
19325
  8
1PHANTOM
 10
2797.338772232351
 20
-1698.521967916472
 30
0.0
 11
2802.338772232351
 21
-1697.521967916472
 31
0.0
  0
LINE
  5
19326
  8
1PHANTOM
 10
2797.338772232351
 20
-1700.521967916472
 30
0.0
 11
2802.338772232351
 21
-1699.521967916472
 31
0.0
  0
LINE
  5
19327
  8
1PHANTOM
 10
2797.338772232351
 20
-1702.521967916472
 30
0.0
 11
2802.338772232351
 21
-1701.521967916472
 31
0.0
  0
LINE
  5
19328
  8
1PHANTOM
 10
2797.338772232351
 20
-1704.521967916472
 30
0.0
 11
2802.338772232351
 21
-1703.521967916472
 31
0.0
  0
LINE
  5
19329
  8
1PHANTOM
 10
2801.588772232351
 20
-1701.371967916473
 30
0.0
 11
2802.338772232351
 21
-1701.521967916472
 31
0.0
  0
LINE
  5
1932A
  8
1PHANTOM
 10
2801.588772232351
 20
-1699.371967916473
 30
0.0
 11
2802.338772232351
 21
-1699.521967916472
 31
0.0
  0
LINE
  5
1932B
  8
1PHANTOM
 10
2801.588772232351
 20
-1705.371967916473
 30
0.0
 11
2802.338772232351
 21
-1705.521967916472
 31
0.0
  0
LINE
  5
1932C
  8
1PHANTOM
 10
2801.588772232351
 20
-1703.371967916473
 30
0.0
 11
2802.338772232351
 21
-1703.521967916472
 31
0.0
  0
LINE
  5
1932D
  8
1PHANTOM
 10
2801.749444302118
 20
-1721.639833502519
 30
0.0
 11
2802.338772232351
 21
-1721.521967916472
 31
0.0
  0
LINE
  5
1932E
  8
1PHANTOM
 10
2797.338772232351
 20
-1714.521967916472
 30
0.0
 11
2802.338772232351
 21
-1713.521967916472
 31
0.0
  0
LINE
  5
1932F
  8
1PHANTOM
 10
2797.338772232351
 20
-1706.521967916472
 30
0.0
 11
2798.088772232351
 21
-1706.671967916473
 31
0.0
  0
LINE
  5
19330
  8
1PHANTOM
 10
2797.338772232351
 20
-1708.521967916472
 30
0.0
 11
2798.088772232351
 21
-1708.671967916473
 31
0.0
  0
LINE
  5
19331
  8
1PHANTOM
 10
2797.338772232351
 20
-1710.521967916472
 30
0.0
 11
2798.088772232351
 21
-1710.671967916473
 31
0.0
  0
LINE
  5
19332
  8
1PHANTOM
 10
2797.338772232351
 20
-1712.521967916472
 30
0.0
 11
2798.088772232351
 21
-1712.671967916473
 31
0.0
  0
LINE
  5
19333
  8
1PHANTOM
 10
2797.338772232351
 20
-1708.521967916472
 30
0.0
 11
2802.338772232351
 21
-1707.521967916472
 31
0.0
  0
LINE
  5
19334
  8
1PHANTOM
 10
2797.338772232351
 20
-1710.521967916472
 30
0.0
 11
2802.338772232351
 21
-1709.521967916472
 31
0.0
  0
LINE
  5
19335
  8
1PHANTOM
 10
2797.338772232351
 20
-1712.521967916472
 30
0.0
 11
2802.338772232351
 21
-1711.521967916472
 31
0.0
  0
LINE
  5
19336
  8
1PHANTOM
 10
2801.588772232351
 20
-1707.371967916473
 30
0.0
 11
2802.338772232351
 21
-1707.521967916472
 31
0.0
  0
LINE
  5
19337
  8
1PHANTOM
 10
2801.588772232351
 20
-1709.371967916473
 30
0.0
 11
2802.338772232351
 21
-1709.521967916472
 31
0.0
  0
LINE
  5
19338
  8
1PHANTOM
 10
2801.588772232351
 20
-1711.371967916473
 30
0.0
 11
2802.338772232351
 21
-1711.521967916472
 31
0.0
  0
LINE
  5
19339
  8
1PHANTOM
 10
2801.588772232351
 20
-1713.371967916473
 30
0.0
 11
2802.338772232351
 21
-1713.521967916472
 31
0.0
  0
LINE
  5
1933A
  8
1PHANTOM
 10
2797.338772232351
 20
-1718.521967916472
 30
0.0
 11
2798.088772232351
 21
-1718.671967916473
 31
0.0
  0
LINE
  5
1933B
  8
1PHANTOM
 10
2797.338772232351
 20
-1716.521967916472
 30
0.0
 11
2798.088772232351
 21
-1716.671967916473
 31
0.0
  0
LINE
  5
1933C
  8
1PHANTOM
 10
2797.338772232351
 20
-1714.521967916472
 30
0.0
 11
2798.088772232351
 21
-1714.671967916473
 31
0.0
  0
LINE
  5
1933D
  8
1PHANTOM
 10
2797.338772232351
 20
-1720.521967916472
 30
0.0
 11
2798.088772232351
 21
-1720.671967916473
 31
0.0
  0
LINE
  5
1933E
  8
1PHANTOM
 10
2797.338772232351
 20
-1716.521967916472
 30
0.0
 11
2802.338772232351
 21
-1715.521967916472
 31
0.0
  0
LINE
  5
1933F
  8
1PHANTOM
 10
2797.338772232351
 20
-1718.521967916472
 30
0.0
 11
2802.338772232351
 21
-1717.521967916472
 31
0.0
  0
LINE
  5
19340
  8
1PHANTOM
 10
2797.338772232351
 20
-1720.521967916472
 30
0.0
 11
2802.338772232351
 21
-1719.521967916472
 31
0.0
  0
LINE
  5
19341
  8
1PHANTOM
 10
2801.588772232351
 20
-1717.371967916473
 30
0.0
 11
2802.338772232351
 21
-1717.521967916472
 31
0.0
  0
LINE
  5
19342
  8
1PHANTOM
 10
2801.588772232351
 20
-1715.371967916473
 30
0.0
 11
2802.338772232351
 21
-1715.521967916472
 31
0.0
  0
LINE
  5
19343
  8
1PHANTOM
 10
2801.588772232351
 20
-1719.371967916473
 30
0.0
 11
2802.338772232351
 21
-1719.521967916472
 31
0.0
  0
LINE
  5
19344
  8
1PHANTOM
 10
2801.588772232351
 20
-1721.371967916473
 30
0.0
 11
2802.338772232351
 21
-1721.521967916472
 31
0.0
  0
LINE
  5
1938B
  8
1PHANTOM
 10
2958.810617375427
 20
-1808.218215157086
 30
0.0
 11
2957.810617375427
 21
-1808.218215157086
 31
0.0
  0
ARC
  5
1938C
  8
1PHANTOM
 10
2964.581450708761
 20
-1803.468215157086
 30
0.0
 40
8.270833333333439
 50
144.9488632525446
 51
215.0511367474554
  0
LINE
  5
1938D
  8
1PHANTOM
 10
2958.810617375427
 20
-1798.718215157086
 30
0.0
 11
2957.810617375427
 21
-1798.718215157086
 31
0.0
  0
LINE
  5
1938E
  8
1CENTER
 10
3000.412292375428
 20
-1803.468215157086
 30
0.0
 11
2954.968186801459
 21
-1803.468215157086
 31
0.0
  0
LINE
  5
1938F
  8
1PHANTOM
 10
2957.810617375427
 20
-1808.001278336753
 30
0.0
 11
2957.810617375427
 21
-1798.962847372281
 31
0.0
  0
LINE
  5
19390
  8
1PHANTOM
 10
2974.928482961473
 20
-1800.968215157086
 30
0.0
 11
2975.928482961473
 21
-1805.968215157086
 31
0.0
  0
LINE
  5
19391
  8
1PHANTOM
 10
2992.279528462182
 20
-1801.718215157086
 30
0.0
 11
2958.810617375427
 21
-1801.718215157086
 31
0.0
  0
LINE
  5
19392
  8
1PHANTOM
 10
2998.810617375427
 20
-1803.468215157086
 30
0.0
 11
2992.279528462182
 21
-1801.718215157086
 31
0.0
  0
LINE
  5
19393
  8
1PHANTOM
 10
2998.810617375427
 20
-1803.468215157086
 30
0.0
 11
2992.279528462182
 21
-1805.218215157086
 31
0.0
  0
LINE
  5
19394
  8
1PHANTOM
 10
2992.279528462182
 20
-1805.218215157086
 30
0.0
 11
2958.810617375427
 21
-1805.218215157086
 31
0.0
  0
LINE
  5
19395
  8
1PHANTOM
 10
2992.965229573266
 20
-1801.151948216051
 30
0.0
 11
2992.815229573266
 21
-1801.901948216051
 31
0.0
  0
LINE
  5
19396
  8
1PHANTOM
 10
2992.965229573266
 20
-1801.151948216051
 30
0.0
 11
2993.844610469484
 21
-1805.548852697142
 31
0.0
  0
LINE
  5
19397
  8
1PHANTOM
 10
2997.791154298862
 20
-1803.78157184403
 30
0.0
 11
2997.641154298862
 21
-1804.53157184403
 31
0.0
  0
LINE
  5
19398
  8
1PHANTOM
 10
2997.19172688137
 20
-1802.284434756569
 30
0.0
 11
2997.04172688137
 21
-1803.034434756569
 31
0.0
  0
LINE
  5
19399
  8
1PHANTOM
 10
2997.19172688137
 20
-1802.284434756569
 30
0.0
 11
2997.641154298862
 21
-1804.53157184403
 31
0.0
  0
LINE
  5
1939A
  8
1PHANTOM
 10
2993.994610469484
 20
-1804.798852697142
 30
0.0
 11
2993.844610469484
 21
-1805.548852697142
 31
0.0
  0
LINE
  5
1939B
  8
1PHANTOM
 10
2995.892882384173
 20
-1804.290212270586
 30
0.0
 11
2995.742882384173
 21
-1805.040212270586
 31
0.0
  0
LINE
  5
1939C
  8
1PHANTOM
 10
2995.078478227318
 20
-1801.71819148631
 30
0.0
 11
2994.928478227318
 21
-1802.46819148631
 31
0.0
  0
LINE
  5
1939D
  8
1PHANTOM
 10
2995.078478227318
 20
-1801.71819148631
 30
0.0
 11
2995.742882384173
 21
-1805.040212270586
 31
0.0
  0
LINE
  5
1939E
  8
1PHANTOM
 10
2984.078482961473
 20
-1805.218215157086
 30
0.0
 11
2983.928482961473
 21
-1805.968215157086
 31
0.0
  0
LINE
  5
1939F
  8
1PHANTOM
 10
2986.928482961473
 20
-1800.968215157086
 30
0.0
 11
2986.778482961473
 21
-1801.718215157086
 31
0.0
  0
LINE
  5
193A0
  8
1PHANTOM
 10
2984.928482961473
 20
-1800.968215157086
 30
0.0
 11
2984.778482961473
 21
-1801.718215157086
 31
0.0
  0
LINE
  5
193A1
  8
1PHANTOM
 10
2984.928482961473
 20
-1800.968215157086
 30
0.0
 11
2985.928482961473
 21
-1805.968215157086
 31
0.0
  0
LINE
  5
193A2
  8
1PHANTOM
 10
2988.928482961473
 20
-1800.968215157086
 30
0.0
 11
2988.778482961473
 21
-1801.718215157086
 31
0.0
  0
LINE
  5
193A3
  8
1PHANTOM
 10
2990.928482961473
 20
-1800.968215157086
 30
0.0
 11
2990.778482961473
 21
-1801.718215157086
 31
0.0
  0
LINE
  5
193A4
  8
1PHANTOM
 10
2990.928482961473
 20
-1800.968215157086
 30
0.0
 11
2991.928482961473
 21
-1805.968215157086
 31
0.0
  0
LINE
  5
193A5
  8
1PHANTOM
 10
2988.928482961473
 20
-1800.968215157086
 30
0.0
 11
2989.928482961473
 21
-1805.968215157086
 31
0.0
  0
LINE
  5
193A6
  8
1PHANTOM
 10
2986.928482961473
 20
-1800.968215157086
 30
0.0
 11
2987.928482961473
 21
-1805.968215157086
 31
0.0
  0
LINE
  5
193A7
  8
1PHANTOM
 10
2992.078482961473
 20
-1805.218215157086
 30
0.0
 11
2991.928482961473
 21
-1805.968215157086
 31
0.0
  0
LINE
  5
193A8
  8
1PHANTOM
 10
2990.078482961473
 20
-1805.218215157086
 30
0.0
 11
2989.928482961473
 21
-1805.968215157086
 31
0.0
  0
LINE
  5
193A9
  8
1PHANTOM
 10
2986.078482961473
 20
-1805.218215157086
 30
0.0
 11
2985.928482961473
 21
-1805.968215157086
 31
0.0
  0
LINE
  5
193AA
  8
1PHANTOM
 10
2988.078482961473
 20
-1805.218215157086
 30
0.0
 11
2987.928482961473
 21
-1805.968215157086
 31
0.0
  0
LINE
  5
193AB
  8
1PHANTOM
 10
2980.928482961473
 20
-1800.968215157086
 30
0.0
 11
2980.778482961473
 21
-1801.718215157086
 31
0.0
  0
LINE
  5
193AC
  8
1PHANTOM
 10
2982.928482961473
 20
-1800.968215157086
 30
0.0
 11
2982.778482961473
 21
-1801.718215157086
 31
0.0
  0
LINE
  5
193AD
  8
1PHANTOM
 10
2976.928482961473
 20
-1800.968215157086
 30
0.0
 11
2976.778482961473
 21
-1801.718215157086
 31
0.0
  0
LINE
  5
193AE
  8
1PHANTOM
 10
2978.928482961473
 20
-1800.968215157086
 30
0.0
 11
2978.778482961473
 21
-1801.718215157086
 31
0.0
  0
LINE
  5
193AF
  8
1PHANTOM
 10
2982.928482961473
 20
-1800.968215157086
 30
0.0
 11
2983.928482961473
 21
-1805.968215157086
 31
0.0
  0
LINE
  5
193B0
  8
1PHANTOM
 10
2980.928482961473
 20
-1800.968215157086
 30
0.0
 11
2981.928482961473
 21
-1805.968215157086
 31
0.0
  0
LINE
  5
193B1
  8
1PHANTOM
 10
2978.928482961473
 20
-1800.968215157086
 30
0.0
 11
2979.928482961473
 21
-1805.968215157086
 31
0.0
  0
LINE
  5
193B2
  8
1PHANTOM
 10
2976.928482961473
 20
-1800.968215157086
 30
0.0
 11
2977.928482961473
 21
-1805.968215157086
 31
0.0
  0
LINE
  5
193B3
  8
1PHANTOM
 10
2980.078482961473
 20
-1805.218215157086
 30
0.0
 11
2979.928482961473
 21
-1805.968215157086
 31
0.0
  0
LINE
  5
193B4
  8
1PHANTOM
 10
2982.078482961473
 20
-1805.218215157086
 30
0.0
 11
2981.928482961473
 21
-1805.968215157086
 31
0.0
  0
LINE
  5
193B5
  8
1PHANTOM
 10
2976.078482961473
 20
-1805.218215157086
 30
0.0
 11
2975.928482961473
 21
-1805.968215157086
 31
0.0
  0
LINE
  5
193B6
  8
1PHANTOM
 10
2978.078482961473
 20
-1805.218215157086
 30
0.0
 11
2977.928482961473
 21
-1805.968215157086
 31
0.0
  0
LINE
  5
193B7
  8
1PHANTOM
 10
2958.928482961473
 20
-1800.968215157086
 30
0.0
 11
2959.928482961473
 21
-1805.968215157086
 31
0.0
  0
LINE
  5
193B8
  8
1PHANTOM
 10
2966.928482961473
 20
-1800.968215157086
 30
0.0
 11
2967.928482961473
 21
-1805.968215157086
 31
0.0
  0
LINE
  5
193B9
  8
1PHANTOM
 10
2974.928482961473
 20
-1800.968215157086
 30
0.0
 11
2974.778482961473
 21
-1801.718215157086
 31
0.0
  0
LINE
  5
193BA
  8
1PHANTOM
 10
2972.928482961473
 20
-1800.968215157086
 30
0.0
 11
2972.778482961473
 21
-1801.718215157086
 31
0.0
  0
LINE
  5
193BB
  8
1PHANTOM
 10
2970.928482961473
 20
-1800.968215157086
 30
0.0
 11
2970.778482961473
 21
-1801.718215157086
 31
0.0
  0
LINE
  5
193BC
  8
1PHANTOM
 10
2968.928482961473
 20
-1800.968215157086
 30
0.0
 11
2968.778482961473
 21
-1801.718215157086
 31
0.0
  0
LINE
  5
193BD
  8
1PHANTOM
 10
2972.928482961473
 20
-1800.968215157086
 30
0.0
 11
2973.928482961473
 21
-1805.968215157086
 31
0.0
  0
LINE
  5
193BE
  8
1PHANTOM
 10
2970.928482961473
 20
-1800.968215157086
 30
0.0
 11
2971.928482961473
 21
-1805.968215157086
 31
0.0
  0
LINE
  5
193BF
  8
1PHANTOM
 10
2968.928482961473
 20
-1800.968215157086
 30
0.0
 11
2969.928482961473
 21
-1805.968215157086
 31
0.0
  0
LINE
  5
193C0
  8
1PHANTOM
 10
2974.078482961473
 20
-1805.218215157086
 30
0.0
 11
2973.928482961473
 21
-1805.968215157086
 31
0.0
  0
LINE
  5
193C1
  8
1PHANTOM
 10
2972.078482961473
 20
-1805.218215157086
 30
0.0
 11
2971.928482961473
 21
-1805.968215157086
 31
0.0
  0
LINE
  5
193C2
  8
1PHANTOM
 10
2970.078482961473
 20
-1805.218215157086
 30
0.0
 11
2969.928482961473
 21
-1805.968215157086
 31
0.0
  0
LINE
  5
193C3
  8
1PHANTOM
 10
2968.078482961473
 20
-1805.218215157086
 30
0.0
 11
2967.928482961473
 21
-1805.968215157086
 31
0.0
  0
LINE
  5
193C4
  8
1PHANTOM
 10
2962.928482961473
 20
-1800.968215157086
 30
0.0
 11
2962.778482961473
 21
-1801.718215157086
 31
0.0
  0
LINE
  5
193C5
  8
1PHANTOM
 10
2964.928482961473
 20
-1800.968215157086
 30
0.0
 11
2964.778482961473
 21
-1801.718215157086
 31
0.0
  0
LINE
  5
193C6
  8
1PHANTOM
 10
2966.928482961473
 20
-1800.968215157086
 30
0.0
 11
2966.778482961473
 21
-1801.718215157086
 31
0.0
  0
LINE
  5
193C7
  8
1PHANTOM
 10
2960.928482961473
 20
-1800.968215157086
 30
0.0
 11
2960.778482961473
 21
-1801.718215157086
 31
0.0
  0
LINE
  5
193C8
  8
1PHANTOM
 10
2964.928482961473
 20
-1800.968215157086
 30
0.0
 11
2965.928482961473
 21
-1805.968215157086
 31
0.0
  0
LINE
  5
193C9
  8
1PHANTOM
 10
2962.928482961473
 20
-1800.968215157086
 30
0.0
 11
2963.928482961473
 21
-1805.968215157086
 31
0.0
  0
LINE
  5
193CA
  8
1PHANTOM
 10
2960.928482961473
 20
-1800.968215157086
 30
0.0
 11
2961.928482961473
 21
-1805.968215157086
 31
0.0
  0
LINE
  5
193CB
  8
1PHANTOM
 10
2964.078482961473
 20
-1805.218215157086
 30
0.0
 11
2963.928482961473
 21
-1805.968215157086
 31
0.0
  0
LINE
  5
193CC
  8
1PHANTOM
 10
2966.078482961473
 20
-1805.218215157086
 30
0.0
 11
2965.928482961473
 21
-1805.968215157086
 31
0.0
  0
LINE
  5
193CD
  8
1PHANTOM
 10
2962.078482961473
 20
-1805.218215157086
 30
0.0
 11
2961.928482961473
 21
-1805.968215157086
 31
0.0
  0
LINE
  5
193CE
  8
1PHANTOM
 10
2960.078482961473
 20
-1805.218215157086
 30
0.0
 11
2959.928482961473
 21
-1805.968215157086
 31
0.0
  0
LINE
  5
193CF
  8
1PHANTOM
 10
2958.928482961473
 20
-1800.968215157086
 30
0.0
 11
2958.778482961473
 21
-1801.718215157086
 31
0.0
  0
LINE
  5
193D0
  8
1PHANTOM
 10
2958.810617375427
 20
-1808.218215157086
 30
0.0
 11
2958.810617375427
 21
-1798.718215157086
 31
0.0
  0
LINE
  5
19BC1
  8
01
 10
2771.588772232351
 20
-1783.468215157086
 30
0.0
 11
2771.588772232351
 21
-1823.468215157086
 31
0.0
  0
LINE
  5
19BC2
  8
01
 10
2771.588772232351
 20
-1823.468215157086
 30
0.0
 11
2908.088772232351
 21
-1823.468215157086
 31
0.0
  0
LINE
  5
19BC3
  8
01
 10
2771.588772232351
 20
-1783.468215157086
 30
0.0
 11
2908.088772232351
 21
-1783.468215157086
 31
0.0
  0
LINE
  5
19BC4
  8
01
 10
2908.088772232351
 20
-1783.468215157086
 30
0.0
 11
2908.088772232351
 21
-1823.468215157086
 31
0.0
  0
LINE
  5
19BC5
  8
01
 10
2959.810617375535
 20
-1783.468215157086
 30
0.0
 11
2959.810617375535
 21
-1823.468215157086
 31
0.0
  0
LINE
  5
19BC7
  8
01
 10
2941.810617375535
 20
-1783.468215157086
 30
0.0
 11
2959.810617375535
 21
-1783.468215157086
 31
0.0
  0
LINE
  5
19BC9
  8
01
 10
2941.810617375535
 20
-1783.468215157086
 30
0.0
 11
2941.810617375535
 21
-1823.468215157086
 31
0.0
  0
LINE
  5
19BCE
  8
01
 10
2941.810617375535
 20
-1823.468215157086
 30
0.0
 11
2959.810617375535
 21
-1823.468215157086
 31
0.0
  0
LINE
  5
19C1F
  8
1CENTER
 10
2879.838772232351
 20
-1681.038158502518
 30
0.0
 11
2879.838772232351
 21
-1726.482264076487
 31
0.0
  0
LINE
  5
19C20
  8
1PHANTOM
 10
2877.338772232351
 20
-1706.521967916472
 30
0.0
 11
2882.338772232351
 21
-1705.521967916472
 31
0.0
  0
LINE
  5
19C21
  8
1PHANTOM
 10
2878.088772232351
 20
-1689.170922415764
 30
0.0
 11
2878.088772232351
 21
-1721.639833502519
 31
0.0
  0
LINE
  5
19C22
  8
1PHANTOM
 10
2879.838772232351
 20
-1682.639833502519
 30
0.0
 11
2878.088772232351
 21
-1689.170922415764
 31
0.0
  0
LINE
  5
19C23
  8
1PHANTOM
 10
2879.838772232351
 20
-1682.639833502519
 30
0.0
 11
2881.588772232351
 21
-1689.170922415764
 31
0.0
  0
LINE
  5
19C24
  8
1PHANTOM
 10
2881.588772232351
 20
-1689.170922415764
 30
0.0
 11
2881.588772232351
 21
-1721.639833502519
 31
0.0
  0
LINE
  5
19C25
  8
1PHANTOM
 10
2877.522505291316
 20
-1688.48522130468
 30
0.0
 11
2878.272505291316
 21
-1688.63522130468
 31
0.0
  0
LINE
  5
19C26
  8
1PHANTOM
 10
2877.522505291316
 20
-1688.48522130468
 30
0.0
 11
2881.919409772407
 21
-1687.605840408462
 31
0.0
  0
LINE
  5
19C27
  8
1PHANTOM
 10
2880.152128919295
 20
-1683.659296579084
 30
0.0
 11
2880.902128919295
 21
-1683.809296579084
 31
0.0
  0
LINE
  5
19C28
  8
1PHANTOM
 10
2878.654991831834
 20
-1684.258723996576
 30
0.0
 11
2879.404991831834
 21
-1684.408723996576
 31
0.0
  0
LINE
  5
19C29
  8
1PHANTOM
 10
2878.654991831834
 20
-1684.258723996576
 30
0.0
 11
2880.902128919295
 21
-1683.809296579084
 31
0.0
  0
LINE
  5
19C2A
  8
1PHANTOM
 10
2881.169409772407
 20
-1687.455840408462
 30
0.0
 11
2881.919409772407
 21
-1687.605840408462
 31
0.0
  0
LINE
  5
19C2B
  8
1PHANTOM
 10
2880.660769345851
 20
-1685.557568493772
 30
0.0
 11
2881.410769345851
 21
-1685.707568493773
 31
0.0
  0
LINE
  5
19C2C
  8
1PHANTOM
 10
2878.088748561575
 20
-1686.371972650628
 30
0.0
 11
2878.838748561575
 21
-1686.521972650628
 31
0.0
  0
LINE
  5
19C2D
  8
1PHANTOM
 10
2878.088748561575
 20
-1686.371972650628
 30
0.0
 11
2881.410769345851
 21
-1685.707568493773
 31
0.0
  0
LINE
  5
19C2E
  8
1PHANTOM
 10
2881.588772232351
 20
-1697.371967916473
 30
0.0
 11
2882.338772232351
 21
-1697.521967916472
 31
0.0
  0
LINE
  5
19C2F
  8
1PHANTOM
 10
2877.338772232351
 20
-1694.521967916472
 30
0.0
 11
2878.088772232351
 21
-1694.671967916473
 31
0.0
  0
LINE
  5
19C30
  8
1PHANTOM
 10
2877.338772232351
 20
-1696.521967916472
 30
0.0
 11
2878.088772232351
 21
-1696.671967916473
 31
0.0
  0
LINE
  5
19C31
  8
1PHANTOM
 10
2877.338772232351
 20
-1696.521967916472
 30
0.0
 11
2882.338772232351
 21
-1695.521967916472
 31
0.0
  0
LINE
  5
19C32
  8
1PHANTOM
 10
2877.338772232351
 20
-1692.521967916472
 30
0.0
 11
2878.088772232351
 21
-1692.671967916473
 31
0.0
  0
LINE
  5
19C33
  8
1PHANTOM
 10
2877.338772232351
 20
-1690.521967916472
 30
0.0
 11
2878.088772232351
 21
-1690.671967916473
 31
0.0
  0
LINE
  5
19C34
  8
1PHANTOM
 10
2877.338772232351
 20
-1690.521967916472
 30
0.0
 11
2882.338772232351
 21
-1689.521967916472
 31
0.0
  0
LINE
  5
19C35
  8
1PHANTOM
 10
2877.338772232351
 20
-1692.521967916472
 30
0.0
 11
2882.338772232351
 21
-1691.521967916472
 31
0.0
  0
LINE
  5
19C36
  8
1PHANTOM
 10
2877.338772232351
 20
-1694.521967916472
 30
0.0
 11
2882.338772232351
 21
-1693.521967916472
 31
0.0
  0
LINE
  5
19C37
  8
1PHANTOM
 10
2881.588772232351
 20
-1689.371967916473
 30
0.0
 11
2882.338772232351
 21
-1689.521967916472
 31
0.0
  0
LINE
  5
19C38
  8
1PHANTOM
 10
2881.588772232351
 20
-1691.371967916473
 30
0.0
 11
2882.338772232351
 21
-1691.521967916472
 31
0.0
  0
LINE
  5
19C39
  8
1PHANTOM
 10
2881.588772232351
 20
-1695.371967916473
 30
0.0
 11
2882.338772232351
 21
-1695.521967916472
 31
0.0
  0
LINE
  5
19C3A
  8
1PHANTOM
 10
2881.588772232351
 20
-1693.371967916473
 30
0.0
 11
2882.338772232351
 21
-1693.521967916472
 31
0.0
  0
LINE
  5
19C3B
  8
1PHANTOM
 10
2877.338772232351
 20
-1700.521967916472
 30
0.0
 11
2878.088772232351
 21
-1700.671967916473
 31
0.0
  0
LINE
  5
19C3C
  8
1PHANTOM
 10
2877.338772232351
 20
-1698.521967916472
 30
0.0
 11
2878.088772232351
 21
-1698.671967916473
 31
0.0
  0
LINE
  5
19C3D
  8
1PHANTOM
 10
2877.338772232351
 20
-1704.521967916472
 30
0.0
 11
2878.088772232351
 21
-1704.671967916473
 31
0.0
  0
LINE
  5
19C3E
  8
1PHANTOM
 10
2877.338772232351
 20
-1702.521967916472
 30
0.0
 11
2878.088772232351
 21
-1702.671967916473
 31
0.0
  0
LINE
  5
19C3F
  8
1PHANTOM
 10
2877.338772232351
 20
-1698.521967916472
 30
0.0
 11
2882.338772232351
 21
-1697.521967916472
 31
0.0
  0
LINE
  5
19C40
  8
1PHANTOM
 10
2877.338772232351
 20
-1700.521967916472
 30
0.0
 11
2882.338772232351
 21
-1699.521967916472
 31
0.0
  0
LINE
  5
19C41
  8
1PHANTOM
 10
2877.338772232351
 20
-1702.521967916472
 30
0.0
 11
2882.338772232351
 21
-1701.521967916472
 31
0.0
  0
LINE
  5
19C42
  8
1PHANTOM
 10
2877.338772232351
 20
-1704.521967916472
 30
0.0
 11
2882.338772232351
 21
-1703.521967916472
 31
0.0
  0
LINE
  5
19C43
  8
1PHANTOM
 10
2881.588772232351
 20
-1701.371967916473
 30
0.0
 11
2882.338772232351
 21
-1701.521967916472
 31
0.0
  0
LINE
  5
19C44
  8
1PHANTOM
 10
2881.588772232351
 20
-1699.371967916473
 30
0.0
 11
2882.338772232351
 21
-1699.521967916472
 31
0.0
  0
LINE
  5
19C45
  8
1PHANTOM
 10
2881.588772232351
 20
-1705.371967916473
 30
0.0
 11
2882.338772232351
 21
-1705.521967916472
 31
0.0
  0
LINE
  5
19C46
  8
1PHANTOM
 10
2881.588772232351
 20
-1703.371967916473
 30
0.0
 11
2882.338772232351
 21
-1703.521967916472
 31
0.0
  0
LINE
  5
19C47
  8
1PHANTOM
 10
2881.749444302118
 20
-1721.639833502519
 30
0.0
 11
2882.338772232351
 21
-1721.521967916472
 31
0.0
  0
LINE
  5
19C48
  8
1PHANTOM
 10
2877.338772232351
 20
-1714.521967916472
 30
0.0
 11
2882.338772232351
 21
-1713.521967916472
 31
0.0
  0
LINE
  5
19C49
  8
1PHANTOM
 10
2877.338772232351
 20
-1706.521967916472
 30
0.0
 11
2878.088772232351
 21
-1706.671967916473
 31
0.0
  0
LINE
  5
19C4A
  8
1PHANTOM
 10
2877.338772232351
 20
-1708.521967916472
 30
0.0
 11
2878.088772232351
 21
-1708.671967916473
 31
0.0
  0
LINE
  5
19C4B
  8
1PHANTOM
 10
2877.338772232351
 20
-1710.521967916472
 30
0.0
 11
2878.088772232351
 21
-1710.671967916473
 31
0.0
  0
LINE
  5
19C4C
  8
1PHANTOM
 10
2877.338772232351
 20
-1712.521967916472
 30
0.0
 11
2878.088772232351
 21
-1712.671967916473
 31
0.0
  0
LINE
  5
19C4D
  8
1PHANTOM
 10
2877.338772232351
 20
-1708.521967916472
 30
0.0
 11
2882.338772232351
 21
-1707.521967916472
 31
0.0
  0
LINE
  5
19C4E
  8
1PHANTOM
 10
2877.338772232351
 20
-1710.521967916472
 30
0.0
 11
2882.338772232351
 21
-1709.521967916472
 31
0.0
  0
LINE
  5
19C4F
  8
1PHANTOM
 10
2877.338772232351
 20
-1712.521967916472
 30
0.0
 11
2882.338772232351
 21
-1711.521967916472
 31
0.0
  0
LINE
  5
19C50
  8
1PHANTOM
 10
2881.588772232351
 20
-1707.371967916473
 30
0.0
 11
2882.338772232351
 21
-1707.521967916472
 31
0.0
  0
LINE
  5
19C51
  8
1PHANTOM
 10
2881.588772232351
 20
-1709.371967916473
 30
0.0
 11
2882.338772232351
 21
-1709.521967916472
 31
0.0
  0
LINE
  5
19C52
  8
1PHANTOM
 10
2881.588772232351
 20
-1711.371967916473
 30
0.0
 11
2882.338772232351
 21
-1711.521967916472
 31
0.0
  0
LINE
  5
19C53
  8
1PHANTOM
 10
2881.588772232351
 20
-1713.371967916473
 30
0.0
 11
2882.338772232351
 21
-1713.521967916472
 31
0.0
  0
LINE
  5
19C54
  8
1PHANTOM
 10
2877.338772232351
 20
-1718.521967916472
 30
0.0
 11
2878.088772232351
 21
-1718.671967916473
 31
0.0
  0
LINE
  5
19C55
  8
1PHANTOM
 10
2877.338772232351
 20
-1716.521967916472
 30
0.0
 11
2878.088772232351
 21
-1716.671967916473
 31
0.0
  0
LINE
  5
19C56
  8
1PHANTOM
 10
2877.338772232351
 20
-1714.521967916472
 30
0.0
 11
2878.088772232351
 21
-1714.671967916473
 31
0.0
  0
LINE
  5
19C57
  8
1PHANTOM
 10
2877.338772232351
 20
-1720.521967916472
 30
0.0
 11
2878.088772232351
 21
-1720.671967916473
 31
0.0
  0
LINE
  5
19C58
  8
1PHANTOM
 10
2877.338772232351
 20
-1716.521967916472
 30
0.0
 11
2882.338772232351
 21
-1715.521967916472
 31
0.0
  0
LINE
  5
19C59
  8
1PHANTOM
 10
2877.338772232351
 20
-1718.521967916472
 30
0.0
 11
2882.338772232351
 21
-1717.521967916472
 31
0.0
  0
LINE
  5
19C5A
  8
1PHANTOM
 10
2877.338772232351
 20
-1720.521967916472
 30
0.0
 11
2882.338772232351
 21
-1719.521967916472
 31
0.0
  0
LINE
  5
19C5B
  8
1PHANTOM
 10
2881.588772232351
 20
-1717.371967916473
 30
0.0
 11
2882.338772232351
 21
-1717.521967916472
 31
0.0
  0
LINE
  5
19C5C
  8
1PHANTOM
 10
2881.588772232351
 20
-1715.371967916473
 30
0.0
 11
2882.338772232351
 21
-1715.521967916472
 31
0.0
  0
LINE
  5
19C5D
  8
1PHANTOM
 10
2881.588772232351
 20
-1719.371967916473
 30
0.0
 11
2882.338772232351
 21
-1719.521967916472
 31
0.0
  0
LINE
  5
19C5E
  8
1PHANTOM
 10
2881.588772232351
 20
-1721.371967916473
 30
0.0
 11
2882.338772232351
 21
-1721.521967916472
 31
0.0
  0
ARC
  5
19C99
  8
1PHANTOM
 10
2879.838772232353
 20
-1805.968215157087
 30
0.0
 40
2.5
 50
180.0
 51
0.0
  0
ARC
  5
19C9A
  8
1PHANTOM
 10
2879.838772232353
 20
-1800.968215157086
 30
0.0
 40
2.5
 50
0.0
 51
180.0
  0
LINE
  5
19C9B
  8
1PHANTOM
 10
2877.338772232353
 20
-1800.968215157086
 30
0.0
 11
2877.338772232353
 21
-1805.968215157087
 31
0.0
  0
LINE
  5
19C9C
  8
1PHANTOM
 10
2882.338772232353
 20
-1800.968215157086
 30
0.0
 11
2882.338772232353
 21
-1805.968215157087
 31
0.0
  0
LINE
  5
19C9D
  8
1CENTER
 10
2879.838772232353
 20
-1795.847677788505
 30
0.0
 11
2879.838772232353
 21
-1811.088752525668
 31
0.0
  0
ARC
  5
19C9E
  8
1PHANTOM
 10
2799.838772232353
 20
-1805.968215157087
 30
0.0
 40
2.5
 50
180.0
 51
0.0
  0
ARC
  5
19C9F
  8
1PHANTOM
 10
2799.838772232353
 20
-1800.968215157086
 30
0.0
 40
2.5
 50
0.0
 51
180.0
  0
LINE
  5
19CA0
  8
1PHANTOM
 10
2797.338772232353
 20
-1800.968215157086
 30
0.0
 11
2797.338772232353
 21
-1805.968215157087
 31
0.0
  0
LINE
  5
19CA1
  8
1PHANTOM
 10
2802.338772232353
 20
-1800.968215157086
 30
0.0
 11
2802.338772232353
 21
-1805.968215157087
 31
0.0
  0
LINE
  5
19CA2
  8
1CENTER
 10
2799.838772232353
 20
-1795.847677788505
 30
0.0
 11
2799.838772232353
 21
-1811.088752525668
 31
0.0
  0
LINE
  5
19CA3
  8
1CENTER
 10
2795.821075212473
 20
-1803.468215157086
 30
0.0
 11
2803.856469252233
 21
-1803.468215157086
 31
0.0
  0
LINE
  5
19CA4
  8
1CENTER
 10
2875.821075212473
 20
-1803.468215157086
 30
0.0
 11
2883.856469252233
 21
-1803.468215157086
 31
0.0
  0
LINE
  5
19D53
  8
01
 10
2974.810617375535
 20
-1778.287920194694
 30
0.0
 11
2974.810617375535
 21
-1828.353278748932
 31
0.0
  0
LINE
  5
19D54
  8
01
 10
2959.810617375535
 20
-1778.583151565241
 30
0.0
 11
2959.810617375535
 21
-1828.353278748932
 31
0.0
  0
ARC
  5
19F7B
  8
01
 10
2801.041365286915
 20
-1731.742347153657
 30
0.0
 40
0.75
 50
90.00039994660993
 51
179.9996000534074
  0
LINE
  5
19F7C
  8
01
 10
2802.090167741419
 20
-1730.992339832595
 30
0.0
 11
2801.041360051627
 21
-1730.992347153676
 31
0.0
  0
LINE
  5
19F7D
  8
01
 10
2800.291357965342
 20
-1732.791222693695
 30
0.0
 11
2800.291365286933
 21
-1731.742341918368
 31
0.0
  0
ARC
  5
19F7E
  8
01
 10
2798.636258581215
 20
-1731.74242655708
 30
0.0
 40
0.75
 50
0.0003999466099272
 51
89.99960005345956
  0
LINE
  5
19F7F
  8
01
 10
2799.386265902278
 20
-1732.791229011586
 30
0.0
 11
2799.386258581198
 21
-1731.742421321791
 31
0.0
  0
LINE
  5
19F80
  8
01
 10
2797.587383041174
 20
-1730.992419235508
 30
0.0
 11
2798.636263816504
 21
-1730.992426557098
 31
0.0
  0
ARC
  5
19F81
  8
01
 10
2798.63617917779
 20
-1729.337319851381
 30
0.0
 40
0.75
 50
270.0003999466099
 51
359.9996000534943
  0
LINE
  5
19F82
  8
01
 10
2797.587376723283
 20
-1730.087327172444
 30
0.0
 11
2798.636184413079
 21
-1730.087319851363
 31
0.0
  0
LINE
  5
19F83
  8
01
 10
2799.386186499362
 20
-1728.288444311343
 30
0.0
 11
2799.386179177773
 21
-1729.337325086668
 31
0.0
  0
ARC
  5
19F84
  8
01
 10
2801.041285883489
 20
-1729.337240447959
 30
0.0
 40
0.75
 50
180.0003999465926
 51
269.9996000534595
  0
LINE
  5
19F85
  8
01
 10
2802.090161423528
 20
-1730.087247769531
 30
0.0
 11
2801.0412806482
 21
-1730.08724044794
 31
0.0
  0
LINE
  5
19F86
  8
01
 10
2800.291278562426
 20
-1728.288437993452
 30
0.0
 11
2800.291285883507
 21
-1729.337245683248
 31
0.0
  0
LINE
  5
19F87
  8
01
 10
2802.090161423528
 20
-1730.087247769531
 30
0.0
 11
2802.090167741419
 21
-1730.992339832595
 31
0.0
  0
LINE
  5
19F88
  8
01
 10
2800.291357965342
 20
-1732.791222693695
 30
0.0
 11
2799.386265902278
 21
-1732.791229011586
 31
0.0
  0
LINE
  5
19F89
  8
01
 10
2797.587383041174
 20
-1730.992419235508
 30
0.0
 11
2797.587376723283
 21
-1730.087327172444
 31
0.0
  0
LINE
  5
19F8A
  8
1CENTER
 10
2799.838772232351
 20
-1727.188557310086
 30
0.0
 11
2799.838772232351
 21
-1733.891109694952
 31
0.0
  0
LINE
  5
19F8B
  8
1CENTER
 10
2803.190048424784
 20
-1730.539833502519
 30
0.0
 11
2796.487496039918
 21
-1730.539833502519
 31
0.0
  0
LINE
  5
19F8C
  8
01
 10
2799.386186499362
 20
-1728.288444311343
 30
0.0
 11
2800.291278562426
 21
-1728.288437993452
 31
0.0
  0
CIRCLE
  5
19F8D
  8
01
 10
2799.838772232351
 20
-1730.539833502519
 30
0.0
 40
3.0
  0
ARC
  5
19F8E
  8
01
 10
2881.041365286915
 20
-1731.742347153657
 30
0.0
 40
0.75
 50
90.00039994660993
 51
179.9996000534074
  0
LINE
  5
19F8F
  8
01
 10
2882.090167741419
 20
-1730.992339832595
 30
0.0
 11
2881.041360051627
 21
-1730.992347153676
 31
0.0
  0
LINE
  5
19F90
  8
01
 10
2880.291357965342
 20
-1732.791222693695
 30
0.0
 11
2880.291365286933
 21
-1731.742341918368
 31
0.0
  0
ARC
  5
19F91
  8
01
 10
2878.636258581215
 20
-1731.74242655708
 30
0.0
 40
0.75
 50
0.0003999466099272
 51
89.99960005345956
  0
LINE
  5
19F92
  8
01
 10
2879.386265902278
 20
-1732.791229011586
 30
0.0
 11
2879.386258581198
 21
-1731.742421321791
 31
0.0
  0
LINE
  5
19F93
  8
01
 10
2877.587383041174
 20
-1730.992419235508
 30
0.0
 11
2878.636263816504
 21
-1730.992426557098
 31
0.0
  0
ARC
  5
19F94
  8
01
 10
2878.63617917779
 20
-1729.337319851381
 30
0.0
 40
0.75
 50
270.0003999466099
 51
359.9996000534943
  0
LINE
  5
19F95
  8
01
 10
2877.587376723283
 20
-1730.087327172444
 30
0.0
 11
2878.636184413079
 21
-1730.087319851363
 31
0.0
  0
LINE
  5
19F96
  8
01
 10
2879.386186499362
 20
-1728.288444311343
 30
0.0
 11
2879.386179177773
 21
-1729.337325086668
 31
0.0
  0
ARC
  5
19F97
  8
01
 10
2881.041285883489
 20
-1729.337240447959
 30
0.0
 40
0.75
 50
180.0003999465926
 51
269.9996000534595
  0
LINE
  5
19F98
  8
01
 10
2882.090161423528
 20
-1730.087247769531
 30
0.0
 11
2881.0412806482
 21
-1730.08724044794
 31
0.0
  0
LINE
  5
19F99
  8
01
 10
2880.291278562426
 20
-1728.288437993452
 30
0.0
 11
2880.291285883507
 21
-1729.337245683248
 31
0.0
  0
LINE
  5
19F9A
  8
01
 10
2882.090161423528
 20
-1730.087247769531
 30
0.0
 11
2882.090167741419
 21
-1730.992339832595
 31
0.0
  0
LINE
  5
19F9B
  8
01
 10
2880.291357965342
 20
-1732.791222693695
 30
0.0
 11
2879.386265902278
 21
-1732.791229011586
 31
0.0
  0
LINE
  5
19F9C
  8
01
 10
2877.587383041174
 20
-1730.992419235508
 30
0.0
 11
2877.587376723283
 21
-1730.087327172444
 31
0.0
  0
LINE
  5
19F9D
  8
1CENTER
 10
2879.838772232351
 20
-1727.188557310086
 30
0.0
 11
2879.838772232351
 21
-1733.891109694952
 31
0.0
  0
LINE
  5
19F9E
  8
1CENTER
 10
2883.190048424784
 20
-1730.539833502519
 30
0.0
 11
2876.487496039918
 21
-1730.539833502519
 31
0.0
  0
LINE
  5
19F9F
  8
01
 10
2879.386186499362
 20
-1728.288444311343
 30
0.0
 11
2880.291278562426
 21
-1728.288437993452
 31
0.0
  0
CIRCLE
  5
19FA0
  8
01
 10
2879.838772232351
 20
-1730.539833502519
 30
0.0
 40
3.0
  0
SOLID
  5
19FA1
  8
1DIM
 10
2904.530384319932
 20
-1787.131651562478
 30
0.0
 11
2902.930555501642
 21
-1788.377307559645
 31
0.0
 12
2904.039910546889
 22
-1786.680120918555
 32
0.0
 13
2904.039910546889
 23
-1786.680120918555
 33
0.0
  0
LINE
  5
19FA2
  8
1DIM
 10
2904.28514743341
 20
-1786.905886240516
 30
0.0
 11
2926.119788320083
 21
-1763.188074741204
 31
0.0
  0
LINE
  5
19FA3
  8
1DIM
 10
2926.119788320083
 20
-1763.188074741204
 30
0.0
 11
2961.603121653416
 21
-1763.188074741204
 31
0.0
  0
TEXT
  5
19FA4
  8
1CENTER
  6
CONTINUOUS
 10
2928.58645498675
 20
-1756.654741407871
 30
0.0
 40
3.5
  1
材質：アルミ
  0
TEXT
  5
19FA5
  8
1CENTER
  6
CONTINUOUS
 10
2928.703121653416
 20
-1762.488074741204
 30
0.0
 40
3.5
  1
仕上げ：各種仕上
  0
LINE
  5
19FA6
  8
1CENTER
 10
2952.810617375535
 20
-1790.069890157086
 30
0.0
 11
2952.810617375535
 21
-1781.909446257087
 31
0.0
  0
LINE
  5
19FA8
  8
1HATCH
 10
2950.810617375535
 20
-1788.118215157087
 30
0.0
 11
2954.810617375535
 21
-1788.118215157087
 31
0.0
  0
LINE
  5
19FA9
  8
1HATCH
 10
2954.460617375535
 20
-1788.468215157086
 30
0.0
 11
2954.460617375535
 21
-1785.118215157087
 31
0.0
  0
LINE
  5
19FAA
  8
1HATCH
 10
2951.160617375534
 20
-1788.468215157086
 30
0.0
 11
2951.160617375534
 21
-1785.118215157087
 31
0.0
  0
LINE
  5
19FAB
  8
1HATCH
 10
2949.810617375535
 20
-1783.768215167087
 30
0.0
 11
2955.810617375535
 21
-1783.768215167087
 31
0.0
  0
LINE
  5
19FAC
  8
1HATCH
 10
2951.160617375534
 20
-1785.118215157087
 30
0.0
 11
2950.810617375535
 21
-1784.76821533116
 31
0.0
  0
LINE
  5
19FAD
  8
1HATCH
 10
2954.810617375535
 20
-1784.76821533116
 30
0.0
 11
2954.460617375535
 21
-1785.118215157087
 31
0.0
  0
LINE
  5
19FAE
  8
1DIM
 10
2952.810617375535
 20
-1781.909446257087
 30
0.0
 11
2952.810617375535
 21
-1775.736381348643
 31
0.0
  0
LINE
  5
19FAF
  8
1DIM
 10
2959.810617375535
 20
-1783.468215157086
 30
0.0
 11
2959.810617375535
 21
-1775.736381348643
 31
0.0
  0
LINE
  5
19FB0
  8
1DIM
 10
2954.810617375535
 20
-1776.736381348643
 30
0.0
 11
2957.810617375535
 21
-1776.736381348643
 31
0.0
  0
LINE
  5
19FB4
  8
1DIM
 10
2908.088772232351
 20
-1783.468215157086
 30
0.0
 11
2908.088772232351
 21
-1767.395553282428
 31
0.0
  0
LINE
  5
19FB5
  8
1DIM
 10
2771.588772232351
 20
-1783.468215157086
 30
0.0
 11
2771.588772232351
 21
-1767.395553282428
 31
0.0
  0
LINE
  5
19FB6
  8
1DIM
 10
2906.088772232351
 20
-1768.395553282428
 30
0.0
 11
2773.588772232351
 21
-1768.395553282428
 31
0.0
  0
LINE
  5
19FBA
  8
1DIM
 10
2908.088772232351
 20
-1823.468215157086
 30
0.0
 11
2930.77221708237
 21
-1823.468215157086
 31
0.0
  0
LINE
  5
19FBB
  8
1DIM
 10
2908.088772232351
 20
-1783.468215157086
 30
0.0
 11
2930.77221708237
 21
-1783.468215157086
 31
0.0
  0
LINE
  5
19FBC
  8
1DIM
 10
2929.77221708237
 20
-1821.468215157086
 30
0.0
 11
2929.77221708237
 21
-1785.468215157086
 31
0.0
  0
LINE
  5
19FC0
  8
1DIM
 10
2799.838772232353
 20
-1795.847677788505
 30
0.0
 11
2799.838772232353
 21
-1776.51413466726
 31
0.0
  0
LINE
  5
19FC1
  8
1DIM
 10
2879.838772232353
 20
-1795.847677788505
 30
0.0
 11
2879.838772232353
 21
-1776.51413466726
 31
0.0
  0
LINE
  5
19FC2
  8
1DIM
 10
2801.838772232353
 20
-1777.51413466726
 30
0.0
 11
2877.838772232353
 21
-1777.51413466726
 31
0.0
  0
LINE
  5
19FC6
  8
1DIM
 10
2883.856469252233
 20
-1803.468215157086
 30
0.0
 11
2919.734429639732
 21
-1803.468215157086
 31
0.0
  0
LINE
  5
19FC7
  8
1DIM
 10
2908.088772232351
 20
-1783.468215157086
 30
0.0
 11
2919.734429639732
 21
-1783.468215157086
 31
0.0
  0
LINE
  5
19FC8
  8
1DIM
 10
2918.734429639732
 20
-1801.468215157086
 30
0.0
 11
2918.734429639732
 21
-1785.468215157086
 31
0.0
  0
LINE
  5
19FCC
  8
1DIM
 10
2941.810617375535
 20
-1783.468215157086
 30
0.0
 11
2941.810617375535
 21
-1768.667454342292
 31
0.0
  0
LINE
  5
19FCD
  8
1DIM
 10
2959.810617375535
 20
-1778.583151565241
 30
0.0
 11
2959.810617375535
 21
-1768.667454342292
 31
0.0
  0
LINE
  5
19FCE
  8
1DIM
 10
2943.810617375535
 20
-1769.667454342292
 30
0.0
 11
2957.810617375535
 21
-1769.667454342292
 31
0.0
  0
LINE
  5
19FD2
  8
0
 10
2951.160617375534
 20
-1788.468215157086
 30
0.0
 11
2954.460617375535
 21
-1788.468215157086
 31
0.0
  0
LINE
  5
19FD3
  8
0
 10
2954.460617375535
 20
-1788.468215157086
 30
0.0
 11
2954.810617375535
 21
-1788.118215157087
 31
0.0
  0
LINE
  5
19FD4
  8
0
 10
2954.810617375535
 20
-1788.118215157087
 30
0.0
 11
2954.810617375535
 21
-1784.76821533116
 31
0.0
  0
LINE
  5
19FD5
  8
0
 10
2954.810617375535
 20
-1784.76821533116
 30
0.0
 11
2955.810617375535
 21
-1783.768215257086
 31
0.0
  0
LINE
  5
19FD6
  8
0
 10
2955.810617375535
 20
-1783.768215257086
 30
0.0
 11
2955.810617375535
 21
-1783.468215157086
 31
0.0
  0
LINE
  5
19FD7
  8
0
 10
2955.810617375535
 20
-1783.468215157086
 30
0.0
 11
2949.810617375535
 21
-1783.468215157086
 31
0.0
  0
LINE
  5
19FD8
  8
0
 10
2949.810617375535
 20
-1783.468215157086
 30
0.0
 11
2949.810617375535
 21
-1783.768215167087
 31
0.0
  0
LINE
  5
19FD9
  8
0
 10
2949.810617375535
 20
-1783.768215167087
 30
0.0
 11
2950.810617375535
 21
-1784.76821533116
 31
0.0
  0
LINE
  5
19FDA
  8
0
 10
2950.810617375535
 20
-1784.76821533116
 30
0.0
 11
2950.810617375535
 21
-1788.118215157087
 31
0.0
  0
LINE
  5
19FDB
  8
0
 10
2950.810617375535
 20
-1788.118215157087
 30
0.0
 11
2951.160617375534
 21
-1788.468215157086
 31
0.0
  0
LINE
  5
19FDC
  8
0
  6
BYBLOCK
 10
2954.810617375535
 20
-1777.272279728643
 30
0.0
 11
2952.810617375535
 21
-1776.736381348643
 31
0.0
  0
LINE
  5
19FDD
  8
0
  6
BYBLOCK
 10
2952.810617375535
 20
-1776.736381348643
 30
0.0
 11
2954.810617375535
 21
-1776.200482968643
 31
0.0
  0
LINE
  5
19FDE
  8
0
  6
BYBLOCK
 10
2952.810617375535
 20
-1776.736381348643
 30
0.0
 11
2954.810617375535
 21
-1776.736381348643
 31
0.0
  0
LINE
  5
19FDF
  8
0
  6
BYBLOCK
 10
2957.810617375535
 20
-1776.200482968643
 30
0.0
 11
2959.810617375535
 21
-1776.736381348643
 31
0.0
  0
LINE
  5
19FE0
  8
0
  6
BYBLOCK
 10
2959.810617375535
 20
-1776.736381348643
 30
0.0
 11
2957.810617375535
 21
-1777.272279728643
 31
0.0
  0
LINE
  5
19FE1
  8
0
  6
BYBLOCK
 10
2959.810617375535
 20
-1776.736381348643
 30
0.0
 11
2957.810617375535
 21
-1776.736381348643
 31
0.0
  0
TEXT
  5
19FE2
  8
1DIM
  6
CONTINUOUS
 10
2955.143950708868
 20
-1776.036381348643
 30
0.0
 40
3.5
  1
7
  0
LINE
  5
19FE3
  8
0
  6
BYBLOCK
 10
2906.088772232351
 20
-1767.859654902428
 30
0.0
 11
2908.088772232351
 21
-1768.395553282428
 31
0.0
  0
LINE
  5
19FE4
  8
0
  6
BYBLOCK
 10
2908.088772232351
 20
-1768.395553282428
 30
0.0
 11
2906.088772232351
 21
-1768.931451662428
 31
0.0
  0
LINE
  5
19FE5
  8
0
  6
BYBLOCK
 10
2908.088772232351
 20
-1768.395553282428
 30
0.0
 11
2906.088772232351
 21
-1768.395553282428
 31
0.0
  0
LINE
  5
19FE6
  8
0
  6
BYBLOCK
 10
2773.588772232351
 20
-1768.931451662428
 30
0.0
 11
2771.588772232351
 21
-1768.395553282428
 31
0.0
  0
LINE
  5
19FE7
  8
0
  6
BYBLOCK
 10
2771.588772232351
 20
-1768.395553282428
 30
0.0
 11
2773.588772232351
 21
-1767.859654902428
 31
0.0
  0
LINE
  5
19FE8
  8
0
  6
BYBLOCK
 10
2771.588772232351
 20
-1768.395553282428
 30
0.0
 11
2773.588772232351
 21
-1768.395553282428
 31
0.0
  0
TEXT
  5
19FE9
  8
1DIM
  6
CONTINUOUS
 10
2833.409952787907
 20
-1767.695553282428
 30
0.0
 40
3.5
  1
136.5
  0
LINE
  5
19FEA
  8
0
  6
BYBLOCK
 10
2930.30811546237
 20
-1821.468215157086
 30
0.0
 11
2929.77221708237
 21
-1823.468215157086
 31
0.0
  0
LINE
  5
19FEB
  8
0
  6
BYBLOCK
 10
2929.77221708237
 20
-1823.468215157086
 30
0.0
 11
2929.23631870237
 21
-1821.468215157086
 31
0.0
  0
LINE
  5
19FEC
  8
0
  6
BYBLOCK
 10
2929.77221708237
 20
-1823.468215157086
 30
0.0
 11
2929.77221708237
 21
-1821.468215157086
 31
0.0
  0
LINE
  5
19FED
  8
0
  6
BYBLOCK
 10
2929.23631870237
 20
-1785.468215157086
 30
0.0
 11
2929.77221708237
 21
-1783.468215157086
 31
0.0
  0
LINE
  5
19FEE
  8
0
  6
BYBLOCK
 10
2929.77221708237
 20
-1783.468215157086
 30
0.0
 11
2930.30811546237
 21
-1785.468215157086
 31
0.0
  0
LINE
  5
19FEF
  8
0
  6
BYBLOCK
 10
2929.77221708237
 20
-1783.468215157086
 30
0.0
 11
2929.77221708237
 21
-1785.468215157086
 31
0.0
  0
TEXT
  5
19FF0
  8
1DIM
  6
CONTINUOUS
 10
2929.072217082371
 20
-1806.166131823753
 30
0.0
 40
3.5
  1
40
 50
90.0
  0
LINE
  5
19FF1
  8
0
  6
BYBLOCK
 10
2801.838772232353
 20
-1778.05003304726
 30
0.0
 11
2799.838772232353
 21
-1777.51413466726
 31
0.0
  0
LINE
  5
19FF2
  8
0
  6
BYBLOCK
 10
2799.838772232353
 20
-1777.51413466726
 30
0.0
 11
2801.838772232353
 21
-1776.97823628726
 31
0.0
  0
LINE
  5
19FF3
  8
0
  6
BYBLOCK
 10
2799.838772232353
 20
-1777.51413466726
 30
0.0
 11
2801.838772232353
 21
-1777.51413466726
 31
0.0
  0
LINE
  5
19FF4
  8
0
  6
BYBLOCK
 10
2877.838772232353
 20
-1776.97823628726
 30
0.0
 11
2879.838772232353
 21
-1777.51413466726
 31
0.0
  0
LINE
  5
19FF5
  8
0
  6
BYBLOCK
 10
2879.838772232353
 20
-1777.51413466726
 30
0.0
 11
2877.838772232353
 21
-1778.05003304726
 31
0.0
  0
LINE
  5
19FF6
  8
0
  6
BYBLOCK
 10
2879.838772232353
 20
-1777.51413466726
 30
0.0
 11
2877.838772232353
 21
-1777.51413466726
 31
0.0
  0
TEXT
  5
19FF7
  8
1DIM
  6
CONTINUOUS
 10
2833.640855565687
 20
-1776.81413466726
 30
0.0
 40
3.5
  1
P=80
  0
LINE
  5
19FF8
  8
0
  6
BYBLOCK
 10
2919.270328019732
 20
-1801.468215157086
 30
0.0
 11
2918.734429639732
 21
-1803.468215157086
 31
0.0
  0
LINE
  5
19FF9
  8
0
  6
BYBLOCK
 10
2918.734429639732
 20
-1803.468215157086
 30
0.0
 11
2918.198531259732
 21
-1801.468215157086
 31
0.0
  0
LINE
  5
19FFA
  8
0
  6
BYBLOCK
 10
2918.734429639732
 20
-1803.468215157086
 30
0.0
 11
2918.734429639732
 21
-1801.468215157086
 31
0.0
  0
LINE
  5
19FFB
  8
0
  6
BYBLOCK
 10
2918.198531259732
 20
-1785.468215157086
 30
0.0
 11
2918.734429639732
 21
-1783.468215157086
 31
0.0
  0
LINE
  5
19FFC
  8
0
  6
BYBLOCK
 10
2918.734429639732
 20
-1783.468215157086
 30
0.0
 11
2919.270328019732
 21
-1785.468215157086
 31
0.0
  0
LINE
  5
19FFD
  8
0
  6
BYBLOCK
 10
2918.734429639732
 20
-1783.468215157086
 30
0.0
 11
2918.734429639732
 21
-1785.468215157086
 31
0.0
  0
TEXT
  5
19FFE
  8
1DIM
  6
CONTINUOUS
 10
2918.034429639733
 20
-1796.166131823753
 30
0.0
 40
3.5
  1
20
 50
90.0
  0
LINE
  5
19FFF
  8
0
  6
BYBLOCK
 10
2943.810617375535
 20
-1770.203352722292
 30
0.0
 11
2941.810617375535
 21
-1769.667454342292
 31
0.0
  0
LINE
  5
1A000
  8
0
  6
BYBLOCK
 10
2941.810617375535
 20
-1769.667454342292
 30
0.0
 11
2943.810617375535
 21
-1769.131555962292
 31
0.0
  0
LINE
  5
1A001
  8
0
  6
BYBLOCK
 10
2941.810617375535
 20
-1769.667454342292
 30
0.0
 11
2943.810617375535
 21
-1769.667454342292
 31
0.0
  0
LINE
  5
1A002
  8
0
  6
BYBLOCK
 10
2957.810617375535
 20
-1769.131555962292
 30
0.0
 11
2959.810617375535
 21
-1769.667454342292
 31
0.0
  0
LINE
  5
1A003
  8
0
  6
BYBLOCK
 10
2959.810617375535
 20
-1769.667454342292
 30
0.0
 11
2957.810617375535
 21
-1770.203352722292
 31
0.0
  0
LINE
  5
1A004
  8
0
  6
BYBLOCK
 10
2959.810617375535
 20
-1769.667454342292
 30
0.0
 11
2957.810617375535
 21
-1769.667454342292
 31
0.0
  0
TEXT
  5
1A005
  8
1DIM
  6
CONTINUOUS
 10
2948.477284042201
 20
-1768.967454342292
 30
0.0
 40
3.5
  1
18
  0
VIEWPORT
  5
57
 67
     1
  8
0
 10
0.0
 20
0.0
 30
0.0
 40
682.9844971599802
 41
282.743410750259
 68
     1
 69
     1
1001
ACAD
1000
MVIEW
1002
{
1070
    16
1010
0.0
1020
0.0
1030
0.0
1010
0.0
1020
0.0
1030
1.0
1040
0.0
1040
282.743410750259
1040
-13.65444252490679
1040
7.235646721095723
1040
50.0
1040
0.0
1040
0.0
1070
    16
1070
   100
1070
     0
1070
     1
1070
     0
1070
     0
1070
     0
1070
     0
1040
0.0
1040
0.0
1040
0.0
1040
10.0
1040
10.0
1040
10.0
1040
10.0
1070
     0
1002
{
1002
}
1002
}
  0
ENDSEC
  0
EOF
