  0
SECTION
  2
HEADER
  9
$ACADVER
  1
AC1009
  9
$DWGCODEPAGE
  3
ansi_932
  9
$INSBASE
 10
0.0
 20
0.0
 30
0.0
  9
$EXTMIN
 10
1.000000000000000E+20
 20
1.000000000000000E+20
 30
1.000000000000000E+20
  9
$EXTMAX
 10
-1.000000000000000E+20
 20
-1.000000000000000E+20
 30
-1.000000000000000E+20
  9
$LIMMIN
 10
0.0
 20
0.0
  9
$LIMMAX
 10
420.0
 20
297.0
  9
$ORTHOMODE
 70
     0
  9
$REGENMODE
 70
     1
  9
$FILLMODE
 70
     1
  9
$QTEXTMODE
 70
     0
  9
$MIRRTEXT
 70
     0
  9
$DRAGMODE
 70
     2
  9
$LTSCALE
 40
0.5
  9
$OSMODE
 70
 14591
  9
$ATTMODE
 70
     1
  9
$TEXTSIZE
 40
4.0
  9
$TRACEWID
 40
1.0
  9
$TEXTSTYLE
  7
STANDARD
  9
$CLAYER
  8
1TEXT
  9
$CELTYPE
  6
BYLAYER
  9
$CECOLOR
 62
   256
  9
$DIMSCALE
 40
2.0
  9
$DIMASZ
 40
2.0
  9
$DIMEXO
 40
0.0
  9
$DIMDLI
 40
7.0
  9
$DIMRND
 40
0.0
  9
$DIMDLE
 40
0.0
  9
$DIMEXE
 40
1.0
  9
$DIMTP
 40
0.0
  9
$DIMTM
 40
0.0
  9
$DIMTXT
 40
3.5
  9
$DIMCEN
 40
0.0
  9
$DIMTSZ
 40
0.0
  9
$DIMTOL
 70
     0
  9
$DIMLIM
 70
     0
  9
$DIMTIH
 70
     0
  9
$DIMTOH
 70
     0
  9
$DIMSE1
 70
     0
  9
$DIMSE2
 70
     0
  9
$DIMTAD
 70
     1
  9
$DIMZIN
 70
     8
  9
$DIMBLK
  1

  9
$DIMASO
 70
     1
  9
$DIMSHO
 70
     1
  9
$DIMPOST
  1
 
  9
$DIMAPOST
  1

  9
$DIMALT
 70
     0
  9
$DIMALTD
 70
     2
  9
$DIMALTF
 40
25.4
  9
$DIMLFAC
 40
1.0
  9
$DIMTOFL
 70
     1
  9
$DIMTVP
 40
0.0
  9
$DIMTIX
 70
     0
  9
$DIMSOXD
 70
     0
  9
$DIMSAH
 70
     1
  9
$DIMBLK1
  1
OPEN30
  9
$DIMBLK2
  1
OPEN30
  9
$DIMSTYLE
  2
NEWX10
  9
$DIMCLRD
 70
   256
  9
$DIMCLRE
 70
   256
  9
$DIMCLRT
 70
   201
  9
$DIMTFAC
 40
0.7
  9
$DIMGAP
 40
0.7
  9
$LUNITS
 70
     2
  9
$LUPREC
 70
     4
  9
$SKETCHINC
 40
1.0
  9
$FILLETRAD
 40
0.0
  9
$AUNITS
 70
     0
  9
$AUPREC
 70
     2
  9
$MENU
  1
acad
  9
$ELEVATION
 40
0.0
  9
$PELEVATION
 40
0.0
  9
$THICKNESS
 40
0.0
  9
$LIMCHECK
 70
     0
  9
$CHAMFERA
 40
10.0
  9
$CHAMFERB
 40
10.0
  9
$SKPOLY
 70
     0
  9
$TDCREATE
 40
2453033.732663484
  9
$TDUPDATE
 40
2457948.620714375
  9
$TDINDWG
 40
2.4636219792
  9
$TDUSRTIMER
 40
2.4636219792
  9
$USRTIMER
 70
     1
  9
$ANGBASE
 50
0.0
  9
$ANGDIR
 70
     0
  9
$PDMODE
 70
     0
  9
$PDSIZE
 40
0.0
  9
$PLINEWID
 40
0.0
  9
$COORDS
 70
     2
  9
$SPLFRAME
 70
     0
  9
$SPLINETYPE
 70
     6
  9
$SPLINESEGS
 70
     8
  9
$ATTDIA
 70
     0
  9
$ATTREQ
 70
     1
  9
$HANDLING
 70
     1
  9
$HANDSEED
  5
1A8A2
  9
$SURFTAB1
 70
     6
  9
$SURFTAB2
 70
     6
  9
$SURFTYPE
 70
     6
  9
$SURFU
 70
     6
  9
$SURFV
 70
     6
  9
$UCSNAME
  2

  9
$UCSORG
 10
0.0
 20
0.0
 30
0.0
  9
$UCSXDIR
 10
1.0
 20
0.0
 30
0.0
  9
$UCSYDIR
 10
0.0
 20
1.0
 30
0.0
  9
$PUCSNAME
  2

  9
$PUCSORG
 10
0.0
 20
0.0
 30
0.0
  9
$PUCSXDIR
 10
1.0
 20
0.0
 30
0.0
  9
$PUCSYDIR
 10
0.0
 20
1.0
 30
0.0
  9
$USERI1
 70
     0
  9
$USERI2
 70
     0
  9
$USERI3
 70
     0
  9
$USERI4
 70
     0
  9
$USERI5
 70
     0
  9
$USERR1
 40
0.0
  9
$USERR2
 40
0.0
  9
$USERR3
 40
0.0
  9
$USERR4
 40
0.0
  9
$USERR5
 40
0.0
  9
$WORLDVIEW
 70
     1
  9
$SHADEDGE
 70
     3
  9
$SHADEDIF
 70
    70
  9
$TILEMODE
 70
     1
  9
$MAXACTVP
 70
    48
  9
$PLIMCHECK
 70
     0
  9
$PEXTMIN
 10
1.000000000000000E+20
 20
1.000000000000000E+20
 30
1.000000000000000E+20
  9
$PEXTMAX
 10
-1.000000000000000E+20
 20
-1.000000000000000E+20
 30
-1.000000000000000E+20
  9
$PLIMMIN
 10
0.0
 20
0.0
  9
$PLIMMAX
 10
420.0
 20
297.0
  9
$UNITMODE
 70
     0
  9
$VISRETAIN
 70
     1
  9
$PLINEGEN
 70
     0
  9
$PSLTSCALE
 70
     1
  0
ENDSEC
  0
SECTION
  2
TABLES
  0
TABLE
  2
VPORT
 70
     1
  0
VPORT
  2
*ACTIVE
 70
     0
 10
0.0
 20
0.0
 11
1.0
 21
1.0
 12
3031.264709865468
 22
-1876.603731204658
 13
0.0
 23
0.0
 14
10.0
 24
10.0
 15
10.0
 25
10.0
 16
0.0
 26
0.0
 36
1.0
 17
0.0
 27
0.0
 37
0.0
 40
507.3430645184422
 41
2.020775623268698
 42
50.0
 43
0.0
 44
0.0
 50
0.0
 51
0.0
 71
    16
 72
   100
 73
     1
 74
     1
 75
     0
 76
     0
 77
     0
 78
     0
  0
ENDTAB
  0
TABLE
  2
LTYPE
 70
    15
  0
LTYPE
  2
CONTINUOUS
 70
     0
  3
Solid line
 72
    65
 73
     0
 40
0.0
  0
LTYPE
  2
CENTER2
 70
     0
  3
Center (.5x) ___ _ ___ _ ___ _ ___ _ ___ _ ___
 72
    65
 73
     4
 40
28.575
 49
19.05
 49
-3.175
 49
3.175
 49
-3.175
  0
LTYPE
  2
HIDDEN
 70
     0
  3
Hidden __ __ __ __ __ __ __ __ __ __ __ __ __ _
 72
    65
 73
     2
 40
9.524999999999999
 49
6.35
 49
-3.175
  0
LTYPE
  2
PHANTOM2
 70
     0
  3
Phantom (0.5x) ___ _ _ ___ _ _ ___ _ _ ___ _ _
 72
    65
 73
     6
 40
31.75
 49
15.875
 49
-3.175
 49
3.175
 49
-3.175
 49
3.175
 49
-3.175
  0
ENDTAB
  0
TABLE
  2
LAYER
 70
    46
  0
LAYER
  2
0
 70
     0
 62
     7
  6
CONTINUOUS
  0
LAYER
  2
1CENTER
 70
     0
 62
     7
  6
CENTER2
  0
LAYER
  2
1TEXT
 70
     0
 62
     7
  6
CONTINUOUS
  0
LAYER
  2
1DIM
 70
     0
 62
     7
  6
CONTINUOUS
  0
LAYER
  2
1HIDDEN
 70
     0
 62
     7
  6
HIDDEN
  0
LAYER
  2
1PHANTOM
 70
     0
 62
     7
  6
PHANTOM2
  0
LAYER
  2
01
 70
     0
 62
     1
  6
CONTINUOUS
  0
LAYER
  2
1HATCH
 70
     0
 62
     7
  6
CONTINUOUS
  0
ENDTAB
  0
TABLE
  2
STYLE
 70
    25
  0
STYLE
  2
STANDARD
 70
     0
 40
0.0
 41
1.0
 50
0.0
 71
     0
 42
4.0
  3
txt.shx
  4
extfont.shx
  0
STYLE
  2
SWISS
 70
     0
 40
0.0
 41
1.0
 50
0.0
 71
     0
 42
4.0
  3
txt.shx
  4
extfont.shx
  0
ENDTAB
  0
TABLE
  2
VIEW
 70
     0
  0
ENDTAB
  0
TABLE
  2
UCS
 70
     0
  0
ENDTAB
  0
TABLE
  2
APPID
 70
    15
  0
APPID
  2
ACAD
 70
     0
  0
APPID
  2
DRAWINGVARIABLESXDATA
 70
     0
  0
APPID
  2
CONTENTTABDATA
 70
     0
  0
APPID
  2
CONTENTCURRENTTAB
 70
     0
  0
APPID
  2
CONTENTBLOCKDESCRIPTION
 70
     0
  0
APPID
  2
CONTENTBLOCKICON
 70
     0
  0
APPID
  2
CONTENTLONGBLOCKNAME
 70
     0
  0
APPID
  2
ACAD_PSEXT
 70
     0
  0
APPID
  2
ACAD_DSTYLE_DIMTEXT_FILL
 70
     0
  0
APPID
  2
ACAD_MLEADERVER
 70
     0
  0
APPID
  2
ACAD_DSTYLE_DIMRADIAL_EXTE
 70
     0
  0
APPID
  2
ACAD_EXEMPT_FROM_CAD_STAND
 70
     0
  0
APPID
  2
ACADANNOTATIVE
 70
     0
  0
APPID
  2
ACLAYERTOOLS
 70
     0
  0
APPID
  2
ACAD_OBJECT_CHANGE_GUID
 70
     0
  0
ENDTAB
  0
TABLE
  2
DIMSTYLE
 70
    10
  0
DIMSTYLE
  2
NEWX10
 70
     0
  3
 
  4

  5

  6
OPEN30
  7
OPEN30
 40
1.0
 41
2.0
 42
0.0
 43
7.0
 44
1.0
 45
0.0
 46
0.0
 47
0.0
 48
0.0
140
3.5
141
0.0
142
0.0
143
25.4
144
1.0
145
0.0
146
0.7
147
0.7
 71
     0
 72
     0
 73
     0
 74
     0
 75
     0
 76
     0
 77
     1
 78
     8
170
     0
171
     2
172
     1
173
     1
174
     0
175
     0
176
   256
177
   256
178
   201
  0
ENDTAB
  0
ENDSEC
  0
SECTION
  2
BLOCKS
  0
BLOCK
  8
0
  2
$MODEL_SPACE
 70
     0
 10
0.0
 20
0.0
 30
0.0
  3
$MODEL_SPACE
  1

  0
ENDBLK
  5
1A
  8
0
  0
BLOCK
 67
     1
  8
0
  2
$PAPER_SPACE
 70
     0
 10
0.0
 20
0.0
 30
0.0
  3
$PAPER_SPACE
  1

  0
ENDBLK
  5
17
 67
     1
  8
0
  0
BLOCK
  8
0
  2
_OPEN30
 70
     0
 10
0.0
 20
0.0
 30
0.0
  3
_OPEN30
  1

  0
LINE
  5
44
  8
0
  6
BYBLOCK
 62
     0
 10
-1.0
 20
0.26794919
 30
0.0
 11
0.0
 21
0.0
 31
0.0
  0
LINE
  5
45
  8
0
  6
BYBLOCK
 62
     0
 10
0.0
 20
0.0
 30
0.0
 11
-1.0
 21
-0.26794919
 31
0.0
  0
LINE
  5
46
  8
0
  6
BYBLOCK
 62
     0
 10
0.0
 20
0.0
 30
0.0
 11
-1.0
 21
0.0
 31
0.0
  0
ENDBLK
  5
47
  8
0
  0
ENDSEC
  0
SECTION
  2
ENTITIES
  0
LINE
  5
17129
  8
1DIM
 10
2753.588772232351
 20
-1937.138153375188
 30
0.0
 11
2753.588772232351
 21
-2093.038279225269
 31
0.0
  0
LINE
  5
17D37
  8
01
 10
3001.988569322139
 20
-1981.788153375188
 30
0.0
 11
3001.988569322139
 21
-1976.488153375189
 31
0.0
  0
LINE
  5
17D3E
  8
01
  6
BYBLOCK
 10
2999.988569322139
 20
-1976.488153375187
 30
0.0
 11
3001.988569322139
 21
-1976.488153375189
 31
0.0
  0
LINE
  5
17D3F
  8
01
  6
BYBLOCK
 10
2999.988569322139
 20
-1981.788153375188
 30
0.0
 11
3001.988569322139
 21
-1981.788153375188
 31
0.0
  0
LINE
  5
17D40
  8
01
 10
2999.988569322139
 20
-1823.138153375188
 30
0.0
 11
2999.988569322139
 21
-2043.138153375188
 31
0.0
  0
LINE
  5
17D42
  8
01
 10
2981.988569322139
 20
-2043.138153375188
 30
0.0
 11
2999.988569322139
 21
-2043.138153375188
 31
0.0
  0
LINE
  5
17D44
  8
01
 10
2981.988569322139
 20
-1823.138153375188
 30
0.0
 11
2999.988569322139
 21
-1823.138153375188
 31
0.0
  0
LINE
  5
17D46
  8
01
 10
2981.988569322139
 20
-1823.138153375188
 30
0.0
 11
2981.988569322139
 21
-2043.138153375188
 31
0.0
  0
LINE
  5
17D47
  8
1HIDDEN
 10
2983.988569322139
 20
-1823.138153375188
 30
0.0
 11
2983.988569322139
 21
-2043.138153375188
 31
0.0
  0
LINE
  5
17D7E
  8
1CENTER
 10
2992.988569322139
 20
-1821.790919462782
 30
0.0
 11
2992.988569322139
 21
-1829.830130258512
 31
0.0
  0
LINE
  5
17E3B
  8
01
 10
3001.988569322139
 20
-1884.488153375189
 30
0.0
 11
3001.988569322139
 21
-1889.788153375188
 31
0.0
  0
LINE
  5
17E3C
  8
01
  6
BYBLOCK
 10
2999.988569322139
 20
-1889.78815337519
 30
0.0
 11
3001.988569322139
 21
-1889.788153375188
 31
0.0
  0
LINE
  5
17E3D
  8
01
  6
BYBLOCK
 10
2999.988569322139
 20
-1884.488153375189
 30
0.0
 11
3001.988569322139
 21
-1884.488153375189
 31
0.0
  0
LINE
  5
18545
  8
1DIM
 10
3116.790044725663
 20
-1678.945510265081
 30
0.0
 11
3326.790044725665
 21
-1678.945510265081
 31
0.0
  0
LINE
  5
18546
  8
1DIM
 10
3116.790044725663
 20
-1664.945510265081
 30
0.0
 11
3326.790044725665
 21
-1664.94551026508
 31
0.0
  0
TEXT
  5
18547
  8
1TEXT
 10
3207.856711392331
 20
-1675.945510265082
 30
0.0
 40
8.0
  1
コード
 72
     1
 11
3221.590044725664
 21
-1675.945510265082
 31
0.0
  0
TEXT
  5
18548
  8
1TEXT
 10
3134.910044725664
 20
-1675.945510265082
 30
0.0
 40
8.0
  1
表面処理
 41
0.9
 72
     1
 11
3151.590044725664
 21
-1675.945510265082
 31
0.0
  0
LINE
  5
18549
  8
1DIM
 10
3116.790044725664
 20
-1692.945510265082
 30
0.0
 11
3256.790044725665
 21
-1692.945510265082
 31
0.0
  0
LINE
  5
1854B
  8
1DIM
 10
3116.790044725664
 20
-1664.945510265082
 30
0.0
 11
3116.790044725664
 21
-1720.945510265084
 31
0.0
  0
LINE
  5
1854C
  8
1DIM
 10
3186.790044725664
 20
-1664.945510265081
 30
0.0
 11
3186.790044725664
 21
-1720.945510265084
 31
0.0
  0
LINE
  5
1854D
  8
1DIM
 10
3256.790044725665
 20
-1664.945510265081
 30
0.0
 11
3256.790044725664
 21
-1720.945510265084
 31
0.0
  0
TEXT
  5
1854E
  8
1TEXT
 10
3192.340044725666
 20
-1690.374224232381
 30
0.0
 40
8.0
  1
GP-162-036-35
 41
0.6
 72
     1
 11
3221.590044725666
 21
-1690.374224232381
 31
0.0
  0
TEXT
  5
1854F
  8
1TEXT
 10
3114.387465759545
 20
-1656.3632518129
 30
0.0
 40
16.0
  1
GP-162-X-35
  0
TEXT
  5
18551
  8
1TEXT
 10
3118.110044725664
 20
-1718.374224232382
 30
0.0
 40
8.0
  1
ブラストブラック
 41
0.9
 72
     1
 11
3151.590044725664
 21
-1718.374224232382
 31
0.0
  0
TEXT
  5
18552
  8
1TEXT
 10
3192.340044725664
 20
-1718.374224232382
 30
0.0
 40
8.0
  1
GP-162-062-35
 41
0.6
 72
     1
 11
3221.590044725664
 21
-1718.374224232382
 31
0.0
  0
LINE
  5
18553
  8
1DIM
 10
3116.790044725663
 20
-1706.945510265083
 30
0.0
 11
3256.790044725662
 21
-1706.945510265083
 31
0.0
  0
TEXT
  5
18554
  8
1TEXT
 10
3119.190044725665
 20
-1704.374224232381
 30
0.0
 40
8.0
  1
ダークアンバー
 72
     1
 11
3151.590044725665
 21
-1704.374224232381
 31
0.0
  0
TEXT
  5
18555
  8
1TEXT
 10
3193.156711392332
 20
-1704.374224232381
 30
0.0
 40
8.0
  1
GP-162-014-35
 41
0.6
 72
     1
 11
3221.590044725665
 21
-1704.374224232381
 31
0.0
  0
TEXT
  5
18556
  8
1TEXT
 10
3273.056711392332
 20
-1675.945510265082
 30
0.0
 40
8.0
  1
対応子機
 72
     1
 11
3291.590044725665
 21
-1675.945510265082
 31
0.0
  0
LINE
  5
18557
  8
1DIM
 10
3326.790044725666
 20
-1664.945510265081
 30
0.0
 11
3326.790044725664
 21
-1720.945510265084
 31
0.0
  0
TEXT
  5
18558
  8
1TEXT
 10
3270.633007688629
 20
-1704.374224232381
 30
0.0
 40
8.0
  1
EJD9520
 41
0.8
 72
     1
 11
3291.590044725666
 21
-1704.374224232381
 31
0.0
  0
TEXT
  5
18559
  8
1TEXT
 10
3264.123378059
 20
-1690.374224232381
 30
0.0
 40
8.0
  1
パナソニック
 72
     1
 11
3291.590044725666
 21
-1690.374224232381
 31
0.0
  0
TEXT
  5
1855B
  8
1TEXT
 10
3118.110044725665
 20
-1690.37422423238
 30
0.0
 40
8.0
  1
ブラストシルバー
 41
0.9
 72
     1
 11
3151.590044725665
 21
-1690.37422423238
 31
0.0
  0
LINE
  5
18704
  8
01
 10
3229.360222092252
 20
-1864.138153375188
 30
0.0
 11
3229.360222092252
 21
-2002.138153379746
 31
0.0
  0
ARC
  5
18705
  8
01
 10
3224.360222092252
 20
-1864.138153375188
 30
0.0
 40
5.0
 50
0.0
 51
90.0
  0
LINE
  5
18706
  8
01
 10
3139.360222092252
 20
-1864.138153375188
 30
0.0
 11
3139.360222092252
 21
-2002.138153375188
 31
0.0
  0
ARC
  5
18707
  8
01
 10
3144.360222092252
 20
-2002.138153375188
 30
0.0
 40
5.0
 50
180.0
 51
270.0
  0
LINE
  5
18708
  8
01
 10
3224.360435571411
 20
-2007.138153375189
 30
0.0
 11
3144.360222092252
 21
-2007.138153375188
 31
0.0
  0
ARC
  5
18709
  8
01
 10
3224.360222092252
 20
-2002.138153379746
 30
0.0
 40
5.0
 50
270.0
 51
0.0
  0
LINE
  5
1870A
  8
01
 10
3224.360222092252
 20
-1859.138153375188
 30
0.0
 11
3144.360222092252
 21
-1859.138153375188
 31
0.0
  0
ARC
  5
1870B
  8
01
 10
3144.360222092252
 20
-1864.138153375188
 30
0.0
 40
5.0
 50
90.0
 51
180.0
  0
CIRCLE
  5
18710
  8
01
 10
3184.360222090385
 20
-1833.138153375188
 30
0.0
 40
2.25
  0
CIRCLE
  5
18711
  8
01
 10
3184.360222090385
 20
-2033.138153375188
 30
0.0
 40
2.25
  0
LINE
  5
18712
  8
1CENTER
 10
3181.435222090388
 20
-2033.13815337519
 30
0.0
 11
3187.285222090388
 21
-2033.13815337519
 31
0.0
  0
LINE
  5
18713
  8
1CENTER
 10
3184.360222090388
 20
-2036.06315337519
 30
0.0
 11
3184.360222090388
 21
-2030.21315337519
 31
0.0
  0
LINE
  5
18714
  8
1CENTER
 10
3181.435222090388
 20
-1833.13815337519
 30
0.0
 11
3187.285222090388
 21
-1833.13815337519
 31
0.0
  0
LINE
  5
18715
  8
1CENTER
 10
3184.360222090388
 20
-1836.06315337519
 30
0.0
 11
3184.360222090388
 21
-1830.21315337519
 31
0.0
  0
LINE
  5
18716
  8
1DIM
 10
3270.610222090385
 20
-1937.138153375188
 30
0.0
 11
3270.610222090385
 21
-2104.781473443268
 31
0.0
  0
LINE
  5
1871A
  8
1CENTER
 10
3189.360222090385
 20
-1933.138153375188
 30
0.0
 11
3179.360222090385
 21
-1933.138153375188
 31
0.0
  0
LINE
  5
1871B
  8
1CENTER
 10
3184.360222092252
 20
-1928.138153379746
 30
0.0
 11
3184.360222092252
 21
-1938.138153379746
 31
0.0
  0
LINE
  5
18720
  8
01
 10
3014.988569322139
 20
-1793.688172619061
 30
0.0
 11
3014.98856932214
 21
-2072.588134131316
 31
0.0
  0
LINE
  5
18721
  8
01
 10
2999.988569322139
 20
-1793.688172619061
 30
0.0
 11
2999.98856932214
 21
-2072.588134131316
 31
0.0
  0
LINE
  5
18AA2
  8
01
 10
2878.938772232352
 20
-1736.610062031669
 30
0.0
 11
2884.238772232351
 21
-1736.610062031669
 31
0.0
  0
LINE
  5
18AA3
  8
01
  6
BYBLOCK
 10
2884.238772232353
 20
-1738.610062031669
 30
0.0
 11
2884.238772232351
 21
-1736.610062031669
 31
0.0
  0
LINE
  5
18AA4
  8
01
  6
BYBLOCK
 10
2878.938772232352
 20
-1738.610062031669
 30
0.0
 11
2878.938772232352
 21
-1736.610062031669
 31
0.0
  0
LINE
  5
18AC2
  8
01
 10
2800.738772232351
 20
-1736.610062031669
 30
0.0
 11
2795.438772232352
 21
-1736.610062031669
 31
0.0
  0
LINE
  5
18AC3
  8
01
  6
BYBLOCK
 10
2795.43877223235
 20
-1738.610062031669
 30
0.0
 11
2795.438772232352
 21
-1736.610062031669
 31
0.0
  0
LINE
  5
18AC4
  8
01
  6
BYBLOCK
 10
2800.738772232351
 20
-1738.610062031669
 30
0.0
 11
2800.738772232351
 21
-1736.610062031669
 31
0.0
  0
LINE
  5
18EE6
  8
01
 10
2771.588772232351
 20
-1823.138153375188
 30
0.0
 11
2771.588772232352
 21
-2043.138153375188
 31
0.0
  0
LINE
  5
18EE7
  8
01
 10
2908.088772232351
 20
-1823.138153375188
 30
0.0
 11
2908.088772232352
 21
-2043.138153375188
 31
0.0
  0
LINE
  5
18EE8
  8
01
 10
2773.588772232351
 20
-1738.610062031669
 30
0.0
 11
2771.588772232351
 21
-1738.610062031669
 31
0.0
  0
LINE
  5
18EE9
  8
01
 10
2771.588772232351
 20
-1756.110062031669
 30
0.0
 11
2771.588772232351
 21
-1738.610062031669
 31
0.0
  0
ARC
  5
18EEA
  8
01
 10
2772.088772232351
 20
-1756.110062031669
 30
0.0
 40
0.5
 50
180.0
 51
270.0
  0
LINE
  5
18EEB
  8
01
 10
2773.588772232351
 20
-1754.610062031669
 30
0.0
 11
2773.588772232351
 21
-1738.610062031669
 31
0.0
  0
LINE
  5
18EF1
  8
01
 10
2908.088772232351
 20
-1738.610062031669
 30
0.0
 11
2906.088772232351
 21
-1738.610062031669
 31
0.0
  0
LINE
  5
18EF2
  8
01
 10
2907.588772232351
 20
-1756.610062031669
 30
0.0
 11
2772.088772232351
 21
-1756.610062031669
 31
0.0
  0
ARC
  5
18EF3
  8
01
 10
2907.588772232351
 20
-1756.110062031669
 30
0.0
 40
0.5
 50
270.0
 51
0.0
  0
LINE
  5
18EF4
  8
01
 10
2906.088772232351
 20
-1754.610062031669
 30
0.0
 11
2773.588772232351
 21
-1754.610062031669
 31
0.0
  0
LINE
  5
18EF5
  8
01
 10
2908.088772232351
 20
-1756.110062031669
 30
0.0
 11
2908.088772232351
 21
-1738.610062031669
 31
0.0
  0
LINE
  5
18EF6
  8
01
 10
2906.088772232351
 20
-1754.610062031669
 30
0.0
 11
2906.088772232351
 21
-1738.610062031669
 31
0.0
  0
LINE
  5
18F09
  8
01
 10
2908.088772232351
 20
-1823.138153375188
 30
0.0
 11
2771.588772232351
 21
-1823.138153375188
 31
0.0
  0
LINE
  5
18F0A
  8
01
 10
2908.088772232352
 20
-2043.138153375188
 30
0.0
 11
2771.588772232352
 21
-2043.138153375188
 31
0.0
  0
ARC
  5
18F0B
  8
1PHANTOM
 10
2842.338772232351
 20
-2033.138153375188
 30
0.0
 40
2.5
 50
270.0
 51
90.0
  0
ARC
  5
18F0C
  8
1PHANTOM
 10
2837.33877223235
 20
-2033.138153375188
 30
0.0
 40
2.5
 50
90.0
 51
270.0
  0
LINE
  5
18F0D
  8
1PHANTOM
 10
2837.33877223235
 20
-2030.638153375188
 30
0.0
 11
2842.338772232351
 21
-2030.638153375188
 31
0.0
  0
LINE
  5
18F0E
  8
1PHANTOM
 10
2837.33877223235
 20
-2035.638153375188
 30
0.0
 11
2842.338772232351
 21
-2035.638153375188
 31
0.0
  0
ARC
  5
18F0F
  8
1PHANTOM
 10
2842.338772232351
 20
-1833.138153375188
 30
0.0
 40
2.5
 50
270.0
 51
90.0
  0
ARC
  5
18F10
  8
1PHANTOM
 10
2837.33877223235
 20
-1833.138153375188
 30
0.0
 40
2.5
 50
90.0
 51
270.0
  0
LINE
  5
18F11
  8
1PHANTOM
 10
2837.33877223235
 20
-1835.638153375188
 30
0.0
 11
2842.338772232351
 21
-1835.638153375188
 31
0.0
  0
LINE
  5
18F12
  8
1PHANTOM
 10
2837.33877223235
 20
-1830.638153375188
 30
0.0
 11
2842.338772232351
 21
-1830.638153375188
 31
0.0
  0
LINE
  5
18F13
  8
1CENTER
 10
2832.218234863769
 20
-1833.138153375188
 30
0.0
 11
2847.459309600932
 21
-1833.138153375188
 31
0.0
  0
LINE
  5
18F14
  8
1CENTER
 10
2832.218234863769
 20
-2033.138153375188
 30
0.0
 11
2847.459309600932
 21
-2033.138153375188
 31
0.0
  0
LINE
  5
18F29
  8
01
 10
2773.688772232352
 20
-1754.01006203167
 30
0.0
 11
2773.688772232352
 21
-1738.610062031669
 31
0.0
  0
LINE
  5
18F2A
  8
01
 10
2773.688772232352
 20
-1738.610062031669
 30
0.0
 11
2905.988772232351
 21
-1738.610062031669
 31
0.0
  0
LINE
  5
18F2B
  8
01
 10
2905.988772232351
 20
-1754.01006203167
 30
0.0
 11
2905.988772232351
 21
-1738.610062031669
 31
0.0
  0
LINE
  5
18F2C
  8
01
 10
2905.988772232351
 20
-1754.01006203167
 30
0.0
 11
2773.688772232352
 21
-1754.01006203167
 31
0.0
  0
LINE
  5
18F31
  8
1DIM
 10
3116.790044725663
 20
-1720.945510265084
 30
0.0
 11
3326.790044725663
 21
-1720.945510265084
 31
0.0
  0
LINE
  5
18FD8
  8
1CENTER
 10
2839.83877223235
 20
-1837.265783458308
 30
0.0
 11
2839.83877223235
 21
-1829.010523292069
 31
0.0
  0
LINE
  5
18FD9
  8
1CENTER
 10
2839.83877223235
 20
-2037.265783458308
 30
0.0
 11
2839.83877223235
 21
-2029.010523292069
 31
0.0
  0
LINE
  5
19301
  8
1HIDDEN
 10
3116.110222092252
 20
-1823.138153375188
 30
0.0
 11
3116.110222092253
 21
-2043.138153375188
 31
0.0
  0
LINE
  5
19302
  8
1HIDDEN
 10
3252.610222092252
 20
-1823.138153375188
 30
0.0
 11
3252.610222092253
 21
-2043.138153375188
 31
0.0
  0
LINE
  5
19303
  8
1HIDDEN
 10
3252.610222092252
 20
-1823.138153375188
 30
0.0
 11
3116.110222092252
 21
-1823.138153375188
 31
0.0
  0
LINE
  5
19304
  8
1HIDDEN
 10
3252.610222092253
 20
-2043.138153375188
 30
0.0
 11
3116.110222092253
 21
-2043.138153375188
 31
0.0
  0
LINE
  5
19305
  8
1CENTER
 10
2839.838772232351
 20
-1698.008387031669
 30
0.0
 11
2839.838772232351
 21
-1743.452492605638
 31
0.0
  0
LINE
  5
19306
  8
1PHANTOM
 10
2837.338772232351
 20
-1723.492196445623
 30
0.0
 11
2842.338772232351
 21
-1722.492196445623
 31
0.0
  0
LINE
  5
19307
  8
1PHANTOM
 10
2838.088772232351
 20
-1706.141150944915
 30
0.0
 11
2838.088772232351
 21
-1738.610062031669
 31
0.0
  0
LINE
  5
19308
  8
1PHANTOM
 10
2839.838772232351
 20
-1699.610062031669
 30
0.0
 11
2838.088772232351
 21
-1706.141150944915
 31
0.0
  0
LINE
  5
19309
  8
1PHANTOM
 10
2839.838772232351
 20
-1699.610062031669
 30
0.0
 11
2841.588772232351
 21
-1706.141150944915
 31
0.0
  0
LINE
  5
1930A
  8
1PHANTOM
 10
2841.588772232351
 20
-1706.141150944915
 30
0.0
 11
2841.588772232351
 21
-1738.610062031669
 31
0.0
  0
LINE
  5
1930B
  8
1PHANTOM
 10
2837.522505291316
 20
-1705.45544983383
 30
0.0
 11
2838.272505291316
 21
-1705.60544983383
 31
0.0
  0
LINE
  5
1930C
  8
1PHANTOM
 10
2837.522505291316
 20
-1705.45544983383
 30
0.0
 11
2841.919409772407
 21
-1704.576068937612
 31
0.0
  0
LINE
  5
1930D
  8
1PHANTOM
 10
2840.152128919295
 20
-1700.629525108234
 30
0.0
 11
2840.902128919295
 21
-1700.779525108235
 31
0.0
  0
LINE
  5
1930E
  8
1PHANTOM
 10
2838.654991831834
 20
-1701.228952525727
 30
0.0
 11
2839.404991831834
 21
-1701.378952525726
 31
0.0
  0
LINE
  5
1930F
  8
1PHANTOM
 10
2838.654991831834
 20
-1701.228952525727
 30
0.0
 11
2840.902128919295
 21
-1700.779525108235
 31
0.0
  0
LINE
  5
19310
  8
1PHANTOM
 10
2841.169409772407
 20
-1704.426068937613
 30
0.0
 11
2841.919409772407
 21
-1704.576068937612
 31
0.0
  0
LINE
  5
19311
  8
1PHANTOM
 10
2840.660769345851
 20
-1702.527797022923
 30
0.0
 11
2841.410769345851
 21
-1702.677797022923
 31
0.0
  0
LINE
  5
19312
  8
1PHANTOM
 10
2838.088748561575
 20
-1703.342201179779
 30
0.0
 11
2838.838748561575
 21
-1703.492201179778
 31
0.0
  0
LINE
  5
19313
  8
1PHANTOM
 10
2838.088748561575
 20
-1703.342201179779
 30
0.0
 11
2841.410769345851
 21
-1702.677797022923
 31
0.0
  0
LINE
  5
19314
  8
1PHANTOM
 10
2841.588772232351
 20
-1714.342196445623
 30
0.0
 11
2842.338772232351
 21
-1714.492196445623
 31
0.0
  0
LINE
  5
19315
  8
1PHANTOM
 10
2837.338772232351
 20
-1711.492196445623
 30
0.0
 11
2838.088772232351
 21
-1711.642196445623
 31
0.0
  0
LINE
  5
19316
  8
1PHANTOM
 10
2837.338772232351
 20
-1713.492196445623
 30
0.0
 11
2838.088772232351
 21
-1713.642196445623
 31
0.0
  0
LINE
  5
19317
  8
1PHANTOM
 10
2837.338772232351
 20
-1713.492196445623
 30
0.0
 11
2842.338772232351
 21
-1712.492196445623
 31
0.0
  0
LINE
  5
19318
  8
1PHANTOM
 10
2837.338772232351
 20
-1709.492196445623
 30
0.0
 11
2838.088772232351
 21
-1709.642196445623
 31
0.0
  0
LINE
  5
19319
  8
1PHANTOM
 10
2837.338772232351
 20
-1707.492196445623
 30
0.0
 11
2838.088772232351
 21
-1707.642196445623
 31
0.0
  0
LINE
  5
1931A
  8
1PHANTOM
 10
2837.338772232351
 20
-1707.492196445623
 30
0.0
 11
2842.338772232351
 21
-1706.492196445623
 31
0.0
  0
LINE
  5
1931B
  8
1PHANTOM
 10
2837.338772232351
 20
-1709.492196445623
 30
0.0
 11
2842.338772232351
 21
-1708.492196445623
 31
0.0
  0
LINE
  5
1931C
  8
1PHANTOM
 10
2837.338772232351
 20
-1711.492196445623
 30
0.0
 11
2842.338772232351
 21
-1710.492196445623
 31
0.0
  0
LINE
  5
1931D
  8
1PHANTOM
 10
2841.588772232351
 20
-1706.342196445623
 30
0.0
 11
2842.338772232351
 21
-1706.492196445623
 31
0.0
  0
LINE
  5
1931E
  8
1PHANTOM
 10
2841.588772232351
 20
-1708.342196445623
 30
0.0
 11
2842.338772232351
 21
-1708.492196445623
 31
0.0
  0
LINE
  5
1931F
  8
1PHANTOM
 10
2841.588772232351
 20
-1712.342196445623
 30
0.0
 11
2842.338772232351
 21
-1712.492196445623
 31
0.0
  0
LINE
  5
19320
  8
1PHANTOM
 10
2841.588772232351
 20
-1710.342196445623
 30
0.0
 11
2842.338772232351
 21
-1710.492196445623
 31
0.0
  0
LINE
  5
19321
  8
1PHANTOM
 10
2837.338772232351
 20
-1717.492196445623
 30
0.0
 11
2838.088772232351
 21
-1717.642196445623
 31
0.0
  0
LINE
  5
19322
  8
1PHANTOM
 10
2837.338772232351
 20
-1715.492196445623
 30
0.0
 11
2838.088772232351
 21
-1715.642196445623
 31
0.0
  0
LINE
  5
19323
  8
1PHANTOM
 10
2837.338772232351
 20
-1721.492196445623
 30
0.0
 11
2838.088772232351
 21
-1721.642196445623
 31
0.0
  0
LINE
  5
19324
  8
1PHANTOM
 10
2837.338772232351
 20
-1719.492196445623
 30
0.0
 11
2838.088772232351
 21
-1719.642196445623
 31
0.0
  0
LINE
  5
19325
  8
1PHANTOM
 10
2837.338772232351
 20
-1715.492196445623
 30
0.0
 11
2842.338772232351
 21
-1714.492196445623
 31
0.0
  0
LINE
  5
19326
  8
1PHANTOM
 10
2837.338772232351
 20
-1717.492196445623
 30
0.0
 11
2842.338772232351
 21
-1716.492196445623
 31
0.0
  0
LINE
  5
19327
  8
1PHANTOM
 10
2837.338772232351
 20
-1719.492196445623
 30
0.0
 11
2842.338772232351
 21
-1718.492196445623
 31
0.0
  0
LINE
  5
19328
  8
1PHANTOM
 10
2837.338772232351
 20
-1721.492196445623
 30
0.0
 11
2842.338772232351
 21
-1720.492196445623
 31
0.0
  0
LINE
  5
19329
  8
1PHANTOM
 10
2841.588772232351
 20
-1718.342196445623
 30
0.0
 11
2842.338772232351
 21
-1718.492196445623
 31
0.0
  0
LINE
  5
1932A
  8
1PHANTOM
 10
2841.588772232351
 20
-1716.342196445623
 30
0.0
 11
2842.338772232351
 21
-1716.492196445623
 31
0.0
  0
LINE
  5
1932B
  8
1PHANTOM
 10
2841.588772232351
 20
-1722.342196445623
 30
0.0
 11
2842.338772232351
 21
-1722.492196445623
 31
0.0
  0
LINE
  5
1932C
  8
1PHANTOM
 10
2841.588772232351
 20
-1720.342196445623
 30
0.0
 11
2842.338772232351
 21
-1720.492196445623
 31
0.0
  0
LINE
  5
1932D
  8
1PHANTOM
 10
2841.749444302118
 20
-1738.610062031669
 30
0.0
 11
2842.338772232351
 21
-1738.492196445623
 31
0.0
  0
LINE
  5
1932E
  8
1PHANTOM
 10
2837.338772232351
 20
-1731.492196445623
 30
0.0
 11
2842.338772232351
 21
-1730.492196445623
 31
0.0
  0
LINE
  5
1932F
  8
1PHANTOM
 10
2837.338772232351
 20
-1723.492196445623
 30
0.0
 11
2838.088772232351
 21
-1723.642196445623
 31
0.0
  0
LINE
  5
19330
  8
1PHANTOM
 10
2837.338772232351
 20
-1725.492196445623
 30
0.0
 11
2838.088772232351
 21
-1725.642196445623
 31
0.0
  0
LINE
  5
19331
  8
1PHANTOM
 10
2837.338772232351
 20
-1727.492196445623
 30
0.0
 11
2838.088772232351
 21
-1727.642196445623
 31
0.0
  0
LINE
  5
19332
  8
1PHANTOM
 10
2837.338772232351
 20
-1729.492196445623
 30
0.0
 11
2838.088772232351
 21
-1729.642196445623
 31
0.0
  0
LINE
  5
19333
  8
1PHANTOM
 10
2837.338772232351
 20
-1725.492196445623
 30
0.0
 11
2842.338772232351
 21
-1724.492196445623
 31
0.0
  0
LINE
  5
19334
  8
1PHANTOM
 10
2837.338772232351
 20
-1727.492196445623
 30
0.0
 11
2842.338772232351
 21
-1726.492196445623
 31
0.0
  0
LINE
  5
19335
  8
1PHANTOM
 10
2837.338772232351
 20
-1729.492196445623
 30
0.0
 11
2842.338772232351
 21
-1728.492196445623
 31
0.0
  0
LINE
  5
19336
  8
1PHANTOM
 10
2841.588772232351
 20
-1724.342196445623
 30
0.0
 11
2842.338772232351
 21
-1724.492196445623
 31
0.0
  0
LINE
  5
19337
  8
1PHANTOM
 10
2841.588772232351
 20
-1726.342196445623
 30
0.0
 11
2842.338772232351
 21
-1726.492196445623
 31
0.0
  0
LINE
  5
19338
  8
1PHANTOM
 10
2841.588772232351
 20
-1728.342196445623
 30
0.0
 11
2842.338772232351
 21
-1728.492196445623
 31
0.0
  0
LINE
  5
19339
  8
1PHANTOM
 10
2841.588772232351
 20
-1730.342196445623
 30
0.0
 11
2842.338772232351
 21
-1730.492196445623
 31
0.0
  0
LINE
  5
1933A
  8
1PHANTOM
 10
2837.338772232351
 20
-1735.492196445623
 30
0.0
 11
2838.088772232351
 21
-1735.642196445623
 31
0.0
  0
LINE
  5
1933B
  8
1PHANTOM
 10
2837.338772232351
 20
-1733.492196445623
 30
0.0
 11
2838.088772232351
 21
-1733.642196445623
 31
0.0
  0
LINE
  5
1933C
  8
1PHANTOM
 10
2837.338772232351
 20
-1731.492196445623
 30
0.0
 11
2838.088772232351
 21
-1731.642196445623
 31
0.0
  0
LINE
  5
1933D
  8
1PHANTOM
 10
2837.338772232351
 20
-1737.492196445623
 30
0.0
 11
2838.088772232351
 21
-1737.642196445623
 31
0.0
  0
LINE
  5
1933E
  8
1PHANTOM
 10
2837.338772232351
 20
-1733.492196445623
 30
0.0
 11
2842.338772232351
 21
-1732.492196445623
 31
0.0
  0
LINE
  5
1933F
  8
1PHANTOM
 10
2837.338772232351
 20
-1735.492196445623
 30
0.0
 11
2842.338772232351
 21
-1734.492196445623
 31
0.0
  0
LINE
  5
19340
  8
1PHANTOM
 10
2837.338772232351
 20
-1737.492196445623
 30
0.0
 11
2842.338772232351
 21
-1736.492196445623
 31
0.0
  0
LINE
  5
19341
  8
1PHANTOM
 10
2841.588772232351
 20
-1734.342196445623
 30
0.0
 11
2842.338772232351
 21
-1734.492196445623
 31
0.0
  0
LINE
  5
19342
  8
1PHANTOM
 10
2841.588772232351
 20
-1732.342196445623
 30
0.0
 11
2842.338772232351
 21
-1732.492196445623
 31
0.0
  0
LINE
  5
19343
  8
1PHANTOM
 10
2841.588772232351
 20
-1736.342196445623
 30
0.0
 11
2842.338772232351
 21
-1736.492196445623
 31
0.0
  0
LINE
  5
19344
  8
1PHANTOM
 10
2841.588772232351
 20
-1738.342196445623
 30
0.0
 11
2842.338772232351
 21
-1738.492196445623
 31
0.0
  0
LINE
  5
19345
  8
1PHANTOM
 10
2998.988569322031
 20
-2028.38810683929
 30
0.0
 11
2997.988569322031
 21
-2028.38810683929
 31
0.0
  0
ARC
  5
19346
  8
1PHANTOM
 10
3004.759402655365
 20
-2033.13810683929
 30
0.0
 40
8.270833333333439
 50
144.948863252545
 51
215.051136747455
  0
LINE
  5
19347
  8
1PHANTOM
 10
2998.988569322031
 20
-2037.88810683929
 30
0.0
 11
2997.988569322031
 21
-2037.88810683929
 31
0.0
  0
LINE
  5
19348
  8
1CENTER
 10
3040.590244322032
 20
-2033.13810683929
 30
0.0
 11
2995.146138748063
 21
-2033.13810683929
 31
0.0
  0
LINE
  5
19349
  8
1PHANTOM
 10
2997.988569322031
 20
-2028.605043659624
 30
0.0
 11
2997.988569322031
 21
-2037.643474624096
 31
0.0
  0
LINE
  5
1934A
  8
1PHANTOM
 10
3015.106434908078
 20
-2035.63810683929
 30
0.0
 11
3016.106434908078
 21
-2030.63810683929
 31
0.0
  0
LINE
  5
1934B
  8
1PHANTOM
 10
3032.457480408786
 20
-2034.88810683929
 30
0.0
 11
2998.988569322031
 21
-2034.88810683929
 31
0.0
  0
LINE
  5
1934C
  8
1PHANTOM
 10
3038.988569322031
 20
-2033.13810683929
 30
0.0
 11
3032.457480408786
 21
-2034.88810683929
 31
0.0
  0
LINE
  5
1934D
  8
1PHANTOM
 10
3038.988569322031
 20
-2033.13810683929
 30
0.0
 11
3032.457480408786
 21
-2031.38810683929
 31
0.0
  0
LINE
  5
1934E
  8
1PHANTOM
 10
3032.457480408786
 20
-2031.38810683929
 30
0.0
 11
2998.988569322031
 21
-2031.38810683929
 31
0.0
  0
LINE
  5
1934F
  8
1PHANTOM
 10
3033.14318151987
 20
-2035.454373780326
 30
0.0
 11
3032.993181519871
 21
-2034.704373780326
 31
0.0
  0
LINE
  5
19350
  8
1PHANTOM
 10
3033.14318151987
 20
-2035.454373780326
 30
0.0
 11
3034.022562416088
 21
-2031.057469299235
 31
0.0
  0
LINE
  5
19351
  8
1PHANTOM
 10
3037.969106245467
 20
-2032.824750152347
 30
0.0
 11
3037.819106245466
 21
-2032.074750152347
 31
0.0
  0
LINE
  5
19352
  8
1PHANTOM
 10
3037.369678827974
 20
-2034.321887239808
 30
0.0
 11
3037.219678827974
 21
-2033.571887239808
 31
0.0
  0
LINE
  5
19353
  8
1PHANTOM
 10
3037.369678827974
 20
-2034.321887239808
 30
0.0
 11
3037.819106245466
 21
-2032.074750152347
 31
0.0
  0
LINE
  5
19354
  8
1PHANTOM
 10
3034.172562416088
 20
-2031.807469299235
 30
0.0
 11
3034.022562416088
 21
-2031.057469299235
 31
0.0
  0
LINE
  5
19355
  8
1PHANTOM
 10
3036.070834330778
 20
-2032.316109725791
 30
0.0
 11
3035.920834330777
 21
-2031.566109725791
 31
0.0
  0
LINE
  5
19356
  8
1PHANTOM
 10
3035.256430173922
 20
-2034.888130510067
 30
0.0
 11
3035.106430173922
 21
-2034.138130510067
 31
0.0
  0
LINE
  5
19357
  8
1PHANTOM
 10
3035.256430173922
 20
-2034.888130510067
 30
0.0
 11
3035.920834330777
 21
-2031.566109725791
 31
0.0
  0
LINE
  5
19358
  8
1PHANTOM
 10
3024.256434908078
 20
-2031.38810683929
 30
0.0
 11
3024.106434908078
 21
-2030.63810683929
 31
0.0
  0
LINE
  5
19359
  8
1PHANTOM
 10
3027.106434908078
 20
-2035.63810683929
 30
0.0
 11
3026.956434908077
 21
-2034.88810683929
 31
0.0
  0
LINE
  5
1935A
  8
1PHANTOM
 10
3025.106434908078
 20
-2035.63810683929
 30
0.0
 11
3024.956434908077
 21
-2034.88810683929
 31
0.0
  0
LINE
  5
1935B
  8
1PHANTOM
 10
3025.106434908078
 20
-2035.63810683929
 30
0.0
 11
3026.106434908078
 21
-2030.63810683929
 31
0.0
  0
LINE
  5
1935C
  8
1PHANTOM
 10
3029.106434908078
 20
-2035.63810683929
 30
0.0
 11
3028.956434908077
 21
-2034.88810683929
 31
0.0
  0
LINE
  5
1935D
  8
1PHANTOM
 10
3031.106434908078
 20
-2035.63810683929
 30
0.0
 11
3030.956434908077
 21
-2034.88810683929
 31
0.0
  0
LINE
  5
1935E
  8
1PHANTOM
 10
3031.106434908078
 20
-2035.63810683929
 30
0.0
 11
3032.106434908078
 21
-2030.63810683929
 31
0.0
  0
LINE
  5
1935F
  8
1PHANTOM
 10
3029.106434908078
 20
-2035.63810683929
 30
0.0
 11
3030.106434908078
 21
-2030.63810683929
 31
0.0
  0
LINE
  5
19360
  8
1PHANTOM
 10
3027.106434908078
 20
-2035.63810683929
 30
0.0
 11
3028.106434908078
 21
-2030.63810683929
 31
0.0
  0
LINE
  5
19361
  8
1PHANTOM
 10
3032.256434908078
 20
-2031.38810683929
 30
0.0
 11
3032.106434908078
 21
-2030.63810683929
 31
0.0
  0
LINE
  5
19362
  8
1PHANTOM
 10
3030.256434908078
 20
-2031.38810683929
 30
0.0
 11
3030.106434908078
 21
-2030.63810683929
 31
0.0
  0
LINE
  5
19363
  8
1PHANTOM
 10
3026.256434908078
 20
-2031.38810683929
 30
0.0
 11
3026.106434908078
 21
-2030.63810683929
 31
0.0
  0
LINE
  5
19364
  8
1PHANTOM
 10
3028.256434908078
 20
-2031.38810683929
 30
0.0
 11
3028.106434908078
 21
-2030.63810683929
 31
0.0
  0
LINE
  5
19365
  8
1PHANTOM
 10
3021.106434908078
 20
-2035.63810683929
 30
0.0
 11
3020.956434908077
 21
-2034.88810683929
 31
0.0
  0
LINE
  5
19366
  8
1PHANTOM
 10
3023.106434908078
 20
-2035.63810683929
 30
0.0
 11
3022.956434908077
 21
-2034.88810683929
 31
0.0
  0
LINE
  5
19367
  8
1PHANTOM
 10
3017.106434908078
 20
-2035.63810683929
 30
0.0
 11
3016.956434908077
 21
-2034.88810683929
 31
0.0
  0
LINE
  5
19368
  8
1PHANTOM
 10
3019.106434908078
 20
-2035.63810683929
 30
0.0
 11
3018.956434908077
 21
-2034.88810683929
 31
0.0
  0
LINE
  5
19369
  8
1PHANTOM
 10
3023.106434908078
 20
-2035.63810683929
 30
0.0
 11
3024.106434908078
 21
-2030.63810683929
 31
0.0
  0
LINE
  5
1936A
  8
1PHANTOM
 10
3021.106434908078
 20
-2035.63810683929
 30
0.0
 11
3022.106434908078
 21
-2030.63810683929
 31
0.0
  0
LINE
  5
1936B
  8
1PHANTOM
 10
3019.106434908078
 20
-2035.63810683929
 30
0.0
 11
3020.106434908078
 21
-2030.63810683929
 31
0.0
  0
LINE
  5
1936C
  8
1PHANTOM
 10
3017.106434908078
 20
-2035.63810683929
 30
0.0
 11
3018.106434908078
 21
-2030.63810683929
 31
0.0
  0
LINE
  5
1936D
  8
1PHANTOM
 10
3020.256434908078
 20
-2031.38810683929
 30
0.0
 11
3020.106434908078
 21
-2030.63810683929
 31
0.0
  0
LINE
  5
1936E
  8
1PHANTOM
 10
3022.256434908078
 20
-2031.38810683929
 30
0.0
 11
3022.106434908078
 21
-2030.63810683929
 31
0.0
  0
LINE
  5
1936F
  8
1PHANTOM
 10
3016.256434908078
 20
-2031.38810683929
 30
0.0
 11
3016.106434908078
 21
-2030.63810683929
 31
0.0
  0
LINE
  5
19370
  8
1PHANTOM
 10
3018.256434908078
 20
-2031.38810683929
 30
0.0
 11
3018.106434908078
 21
-2030.63810683929
 31
0.0
  0
LINE
  5
19371
  8
1PHANTOM
 10
2999.106434908078
 20
-2035.63810683929
 30
0.0
 11
3000.106434908078
 21
-2030.63810683929
 31
0.0
  0
LINE
  5
19372
  8
1PHANTOM
 10
3007.106434908078
 20
-2035.63810683929
 30
0.0
 11
3008.106434908078
 21
-2030.63810683929
 31
0.0
  0
LINE
  5
19373
  8
1PHANTOM
 10
3015.106434908078
 20
-2035.63810683929
 30
0.0
 11
3014.956434908077
 21
-2034.88810683929
 31
0.0
  0
LINE
  5
19374
  8
1PHANTOM
 10
3013.106434908078
 20
-2035.63810683929
 30
0.0
 11
3012.956434908077
 21
-2034.88810683929
 31
0.0
  0
LINE
  5
19375
  8
1PHANTOM
 10
3011.106434908078
 20
-2035.63810683929
 30
0.0
 11
3010.956434908077
 21
-2034.88810683929
 31
0.0
  0
LINE
  5
19376
  8
1PHANTOM
 10
3009.106434908078
 20
-2035.63810683929
 30
0.0
 11
3008.956434908077
 21
-2034.88810683929
 31
0.0
  0
LINE
  5
19377
  8
1PHANTOM
 10
3013.106434908078
 20
-2035.63810683929
 30
0.0
 11
3014.106434908078
 21
-2030.63810683929
 31
0.0
  0
LINE
  5
19378
  8
1PHANTOM
 10
3011.106434908078
 20
-2035.63810683929
 30
0.0
 11
3012.106434908078
 21
-2030.63810683929
 31
0.0
  0
LINE
  5
19379
  8
1PHANTOM
 10
3009.106434908078
 20
-2035.63810683929
 30
0.0
 11
3010.106434908078
 21
-2030.63810683929
 31
0.0
  0
LINE
  5
1937A
  8
1PHANTOM
 10
3014.256434908078
 20
-2031.38810683929
 30
0.0
 11
3014.106434908078
 21
-2030.63810683929
 31
0.0
  0
LINE
  5
1937B
  8
1PHANTOM
 10
3012.256434908078
 20
-2031.38810683929
 30
0.0
 11
3012.106434908078
 21
-2030.63810683929
 31
0.0
  0
LINE
  5
1937C
  8
1PHANTOM
 10
3010.256434908078
 20
-2031.38810683929
 30
0.0
 11
3010.106434908078
 21
-2030.63810683929
 31
0.0
  0
LINE
  5
1937D
  8
1PHANTOM
 10
3008.256434908078
 20
-2031.38810683929
 30
0.0
 11
3008.106434908078
 21
-2030.63810683929
 31
0.0
  0
LINE
  5
1937E
  8
1PHANTOM
 10
3003.106434908078
 20
-2035.63810683929
 30
0.0
 11
3002.956434908077
 21
-2034.88810683929
 31
0.0
  0
LINE
  5
1937F
  8
1PHANTOM
 10
3005.106434908078
 20
-2035.63810683929
 30
0.0
 11
3004.956434908077
 21
-2034.88810683929
 31
0.0
  0
LINE
  5
19380
  8
1PHANTOM
 10
3007.106434908078
 20
-2035.63810683929
 30
0.0
 11
3006.956434908077
 21
-2034.88810683929
 31
0.0
  0
LINE
  5
19381
  8
1PHANTOM
 10
3001.106434908078
 20
-2035.63810683929
 30
0.0
 11
3000.956434908077
 21
-2034.88810683929
 31
0.0
  0
LINE
  5
19382
  8
1PHANTOM
 10
3005.106434908078
 20
-2035.63810683929
 30
0.0
 11
3006.106434908078
 21
-2030.63810683929
 31
0.0
  0
LINE
  5
19383
  8
1PHANTOM
 10
3003.106434908078
 20
-2035.63810683929
 30
0.0
 11
3004.106434908078
 21
-2030.63810683929
 31
0.0
  0
LINE
  5
19384
  8
1PHANTOM
 10
3001.106434908078
 20
-2035.63810683929
 30
0.0
 11
3002.106434908078
 21
-2030.63810683929
 31
0.0
  0
LINE
  5
19385
  8
1PHANTOM
 10
3004.256434908078
 20
-2031.38810683929
 30
0.0
 11
3004.106434908078
 21
-2030.63810683929
 31
0.0
  0
LINE
  5
19386
  8
1PHANTOM
 10
3006.256434908078
 20
-2031.38810683929
 30
0.0
 11
3006.106434908078
 21
-2030.63810683929
 31
0.0
  0
LINE
  5
19387
  8
1PHANTOM
 10
3002.256434908078
 20
-2031.38810683929
 30
0.0
 11
3002.106434908078
 21
-2030.63810683929
 31
0.0
  0
LINE
  5
19388
  8
1PHANTOM
 10
3000.256434908078
 20
-2031.38810683929
 30
0.0
 11
3000.106434908078
 21
-2030.63810683929
 31
0.0
  0
LINE
  5
19389
  8
1PHANTOM
 10
2999.106434908078
 20
-2035.63810683929
 30
0.0
 11
2998.956434908077
 21
-2034.88810683929
 31
0.0
  0
LINE
  5
1938A
  8
1PHANTOM
 10
2998.988569322031
 20
-2028.38810683929
 30
0.0
 11
2998.988569322031
 21
-2037.88810683929
 31
0.0
  0
LINE
  5
1938B
  8
1PHANTOM
 10
2998.988569322031
 20
-1837.888199911087
 30
0.0
 11
2997.988569322031
 21
-1837.888199911087
 31
0.0
  0
ARC
  5
1938C
  8
1PHANTOM
 10
3004.759402655365
 20
-1833.138199911087
 30
0.0
 40
8.270833333333439
 50
144.948863252545
 51
215.051136747455
  0
LINE
  5
1938D
  8
1PHANTOM
 10
2998.988569322031
 20
-1828.388199911087
 30
0.0
 11
2997.988569322031
 21
-1828.388199911087
 31
0.0
  0
LINE
  5
1938E
  8
1CENTER
 10
3040.590244322032
 20
-1833.138199911087
 30
0.0
 11
2995.146138748063
 21
-1833.138199911087
 31
0.0
  0
LINE
  5
1938F
  8
1PHANTOM
 10
2997.988569322031
 20
-1837.671263090753
 30
0.0
 11
2997.988569322031
 21
-1828.632832126281
 31
0.0
  0
LINE
  5
19390
  8
1PHANTOM
 10
3015.106434908078
 20
-1830.638199911087
 30
0.0
 11
3016.106434908078
 21
-1835.638199911087
 31
0.0
  0
LINE
  5
19391
  8
1PHANTOM
 10
3032.457480408786
 20
-1831.388199911087
 30
0.0
 11
2998.988569322031
 21
-1831.388199911087
 31
0.0
  0
LINE
  5
19392
  8
1PHANTOM
 10
3038.988569322031
 20
-1833.138199911087
 30
0.0
 11
3032.457480408786
 21
-1831.388199911087
 31
0.0
  0
LINE
  5
19393
  8
1PHANTOM
 10
3038.988569322031
 20
-1833.138199911087
 30
0.0
 11
3032.457480408786
 21
-1834.888199911087
 31
0.0
  0
LINE
  5
19394
  8
1PHANTOM
 10
3032.457480408786
 20
-1834.888199911087
 30
0.0
 11
2998.988569322031
 21
-1834.888199911087
 31
0.0
  0
LINE
  5
19395
  8
1PHANTOM
 10
3033.14318151987
 20
-1830.821932970051
 30
0.0
 11
3032.993181519871
 21
-1831.571932970051
 31
0.0
  0
LINE
  5
19396
  8
1PHANTOM
 10
3033.14318151987
 20
-1830.821932970051
 30
0.0
 11
3034.022562416088
 21
-1835.218837451142
 31
0.0
  0
LINE
  5
19397
  8
1PHANTOM
 10
3037.969106245467
 20
-1833.45155659803
 30
0.0
 11
3037.819106245466
 21
-1834.20155659803
 31
0.0
  0
LINE
  5
19398
  8
1PHANTOM
 10
3037.369678827974
 20
-1831.954419510569
 30
0.0
 11
3037.219678827974
 21
-1832.704419510569
 31
0.0
  0
LINE
  5
19399
  8
1PHANTOM
 10
3037.369678827974
 20
-1831.954419510569
 30
0.0
 11
3037.819106245466
 21
-1834.20155659803
 31
0.0
  0
LINE
  5
1939A
  8
1PHANTOM
 10
3034.172562416088
 20
-1834.468837451142
 30
0.0
 11
3034.022562416088
 21
-1835.218837451142
 31
0.0
  0
LINE
  5
1939B
  8
1PHANTOM
 10
3036.070834330778
 20
-1833.960197024586
 30
0.0
 11
3035.920834330777
 21
-1834.710197024586
 31
0.0
  0
LINE
  5
1939C
  8
1PHANTOM
 10
3035.256430173922
 20
-1831.38817624031
 30
0.0
 11
3035.106430173922
 21
-1832.13817624031
 31
0.0
  0
LINE
  5
1939D
  8
1PHANTOM
 10
3035.256430173922
 20
-1831.38817624031
 30
0.0
 11
3035.920834330777
 21
-1834.710197024586
 31
0.0
  0
LINE
  5
1939E
  8
1PHANTOM
 10
3024.256434908078
 20
-1834.888199911087
 30
0.0
 11
3024.106434908078
 21
-1835.638199911087
 31
0.0
  0
LINE
  5
1939F
  8
1PHANTOM
 10
3027.106434908078
 20
-1830.638199911087
 30
0.0
 11
3026.956434908077
 21
-1831.388199911087
 31
0.0
  0
LINE
  5
193A0
  8
1PHANTOM
 10
3025.106434908078
 20
-1830.638199911087
 30
0.0
 11
3024.956434908077
 21
-1831.388199911087
 31
0.0
  0
LINE
  5
193A1
  8
1PHANTOM
 10
3025.106434908078
 20
-1830.638199911087
 30
0.0
 11
3026.106434908078
 21
-1835.638199911087
 31
0.0
  0
LINE
  5
193A2
  8
1PHANTOM
 10
3029.106434908078
 20
-1830.638199911087
 30
0.0
 11
3028.956434908077
 21
-1831.388199911087
 31
0.0
  0
LINE
  5
193A3
  8
1PHANTOM
 10
3031.106434908078
 20
-1830.638199911087
 30
0.0
 11
3030.956434908077
 21
-1831.388199911087
 31
0.0
  0
LINE
  5
193A4
  8
1PHANTOM
 10
3031.106434908078
 20
-1830.638199911087
 30
0.0
 11
3032.106434908078
 21
-1835.638199911087
 31
0.0
  0
LINE
  5
193A5
  8
1PHANTOM
 10
3029.106434908078
 20
-1830.638199911087
 30
0.0
 11
3030.106434908078
 21
-1835.638199911087
 31
0.0
  0
LINE
  5
193A6
  8
1PHANTOM
 10
3027.106434908078
 20
-1830.638199911087
 30
0.0
 11
3028.106434908078
 21
-1835.638199911087
 31
0.0
  0
LINE
  5
193A7
  8
1PHANTOM
 10
3032.256434908078
 20
-1834.888199911087
 30
0.0
 11
3032.106434908078
 21
-1835.638199911087
 31
0.0
  0
LINE
  5
193A8
  8
1PHANTOM
 10
3030.256434908078
 20
-1834.888199911087
 30
0.0
 11
3030.106434908078
 21
-1835.638199911087
 31
0.0
  0
LINE
  5
193A9
  8
1PHANTOM
 10
3026.256434908078
 20
-1834.888199911087
 30
0.0
 11
3026.106434908078
 21
-1835.638199911087
 31
0.0
  0
LINE
  5
193AA
  8
1PHANTOM
 10
3028.256434908078
 20
-1834.888199911087
 30
0.0
 11
3028.106434908078
 21
-1835.638199911087
 31
0.0
  0
LINE
  5
193AB
  8
1PHANTOM
 10
3021.106434908078
 20
-1830.638199911087
 30
0.0
 11
3020.956434908077
 21
-1831.388199911087
 31
0.0
  0
LINE
  5
193AC
  8
1PHANTOM
 10
3023.106434908078
 20
-1830.638199911087
 30
0.0
 11
3022.956434908077
 21
-1831.388199911087
 31
0.0
  0
LINE
  5
193AD
  8
1PHANTOM
 10
3017.106434908078
 20
-1830.638199911087
 30
0.0
 11
3016.956434908077
 21
-1831.388199911087
 31
0.0
  0
LINE
  5
193AE
  8
1PHANTOM
 10
3019.106434908078
 20
-1830.638199911087
 30
0.0
 11
3018.956434908077
 21
-1831.388199911087
 31
0.0
  0
LINE
  5
193AF
  8
1PHANTOM
 10
3023.106434908078
 20
-1830.638199911087
 30
0.0
 11
3024.106434908078
 21
-1835.638199911087
 31
0.0
  0
LINE
  5
193B0
  8
1PHANTOM
 10
3021.106434908078
 20
-1830.638199911087
 30
0.0
 11
3022.106434908078
 21
-1835.638199911087
 31
0.0
  0
LINE
  5
193B1
  8
1PHANTOM
 10
3019.106434908078
 20
-1830.638199911087
 30
0.0
 11
3020.106434908078
 21
-1835.638199911087
 31
0.0
  0
LINE
  5
193B2
  8
1PHANTOM
 10
3017.106434908078
 20
-1830.638199911087
 30
0.0
 11
3018.106434908078
 21
-1835.638199911087
 31
0.0
  0
LINE
  5
193B3
  8
1PHANTOM
 10
3020.256434908078
 20
-1834.888199911087
 30
0.0
 11
3020.106434908078
 21
-1835.638199911087
 31
0.0
  0
LINE
  5
193B4
  8
1PHANTOM
 10
3022.256434908078
 20
-1834.888199911087
 30
0.0
 11
3022.106434908078
 21
-1835.638199911087
 31
0.0
  0
LINE
  5
193B5
  8
1PHANTOM
 10
3016.256434908078
 20
-1834.888199911087
 30
0.0
 11
3016.106434908078
 21
-1835.638199911087
 31
0.0
  0
LINE
  5
193B6
  8
1PHANTOM
 10
3018.256434908078
 20
-1834.888199911087
 30
0.0
 11
3018.106434908078
 21
-1835.638199911087
 31
0.0
  0
LINE
  5
193B7
  8
1PHANTOM
 10
2999.106434908078
 20
-1830.638199911087
 30
0.0
 11
3000.106434908078
 21
-1835.638199911087
 31
0.0
  0
LINE
  5
193B8
  8
1PHANTOM
 10
3007.106434908078
 20
-1830.638199911087
 30
0.0
 11
3008.106434908078
 21
-1835.638199911087
 31
0.0
  0
LINE
  5
193B9
  8
1PHANTOM
 10
3015.106434908078
 20
-1830.638199911087
 30
0.0
 11
3014.956434908077
 21
-1831.388199911087
 31
0.0
  0
LINE
  5
193BA
  8
1PHANTOM
 10
3013.106434908078
 20
-1830.638199911087
 30
0.0
 11
3012.956434908077
 21
-1831.388199911087
 31
0.0
  0
LINE
  5
193BB
  8
1PHANTOM
 10
3011.106434908078
 20
-1830.638199911087
 30
0.0
 11
3010.956434908077
 21
-1831.388199911087
 31
0.0
  0
LINE
  5
193BC
  8
1PHANTOM
 10
3009.106434908078
 20
-1830.638199911087
 30
0.0
 11
3008.956434908077
 21
-1831.388199911087
 31
0.0
  0
LINE
  5
193BD
  8
1PHANTOM
 10
3013.106434908078
 20
-1830.638199911087
 30
0.0
 11
3014.106434908078
 21
-1835.638199911087
 31
0.0
  0
LINE
  5
193BE
  8
1PHANTOM
 10
3011.106434908078
 20
-1830.638199911087
 30
0.0
 11
3012.106434908078
 21
-1835.638199911087
 31
0.0
  0
LINE
  5
193BF
  8
1PHANTOM
 10
3009.106434908078
 20
-1830.638199911087
 30
0.0
 11
3010.106434908078
 21
-1835.638199911087
 31
0.0
  0
LINE
  5
193C0
  8
1PHANTOM
 10
3014.256434908078
 20
-1834.888199911087
 30
0.0
 11
3014.106434908078
 21
-1835.638199911087
 31
0.0
  0
LINE
  5
193C1
  8
1PHANTOM
 10
3012.256434908078
 20
-1834.888199911087
 30
0.0
 11
3012.106434908078
 21
-1835.638199911087
 31
0.0
  0
LINE
  5
193C2
  8
1PHANTOM
 10
3010.256434908078
 20
-1834.888199911087
 30
0.0
 11
3010.106434908078
 21
-1835.638199911087
 31
0.0
  0
LINE
  5
193C3
  8
1PHANTOM
 10
3008.256434908078
 20
-1834.888199911087
 30
0.0
 11
3008.106434908078
 21
-1835.638199911087
 31
0.0
  0
LINE
  5
193C4
  8
1PHANTOM
 10
3003.106434908078
 20
-1830.638199911087
 30
0.0
 11
3002.956434908077
 21
-1831.388199911087
 31
0.0
  0
LINE
  5
193C5
  8
1PHANTOM
 10
3005.106434908078
 20
-1830.638199911087
 30
0.0
 11
3004.956434908077
 21
-1831.388199911087
 31
0.0
  0
LINE
  5
193C6
  8
1PHANTOM
 10
3007.106434908078
 20
-1830.638199911087
 30
0.0
 11
3006.956434908077
 21
-1831.388199911087
 31
0.0
  0
LINE
  5
193C7
  8
1PHANTOM
 10
3001.106434908078
 20
-1830.638199911087
 30
0.0
 11
3000.956434908077
 21
-1831.388199911087
 31
0.0
  0
LINE
  5
193C8
  8
1PHANTOM
 10
3005.106434908078
 20
-1830.638199911087
 30
0.0
 11
3006.106434908078
 21
-1835.638199911087
 31
0.0
  0
LINE
  5
193C9
  8
1PHANTOM
 10
3003.106434908078
 20
-1830.638199911087
 30
0.0
 11
3004.106434908078
 21
-1835.638199911087
 31
0.0
  0
LINE
  5
193CA
  8
1PHANTOM
 10
3001.106434908078
 20
-1830.638199911087
 30
0.0
 11
3002.106434908078
 21
-1835.638199911087
 31
0.0
  0
LINE
  5
193CB
  8
1PHANTOM
 10
3004.256434908078
 20
-1834.888199911087
 30
0.0
 11
3004.106434908078
 21
-1835.638199911087
 31
0.0
  0
LINE
  5
193CC
  8
1PHANTOM
 10
3006.256434908078
 20
-1834.888199911087
 30
0.0
 11
3006.106434908078
 21
-1835.638199911087
 31
0.0
  0
LINE
  5
193CD
  8
1PHANTOM
 10
3002.256434908078
 20
-1834.888199911087
 30
0.0
 11
3002.106434908078
 21
-1835.638199911087
 31
0.0
  0
LINE
  5
193CE
  8
1PHANTOM
 10
3000.256434908078
 20
-1834.888199911087
 30
0.0
 11
3000.106434908078
 21
-1835.638199911087
 31
0.0
  0
LINE
  5
193CF
  8
1PHANTOM
 10
2999.106434908078
 20
-1830.638199911087
 30
0.0
 11
2998.956434908077
 21
-1831.388199911087
 31
0.0
  0
LINE
  5
193D0
  8
1PHANTOM
 10
2998.988569322031
 20
-1837.888199911087
 30
0.0
 11
2998.988569322031
 21
-1828.388199911087
 31
0.0
  0
LINE
  5
1A476
  8
01
  6
CONTINUOUS
 10
2857.588772232351
 20
-1970.138153375188
 30
0.0
 11
2822.088772232351
 21
-1970.138153375188
 31
0.0
  0
LINE
  5
1A477
  8
01
  6
CONTINUOUS
 10
2824.588772232351
 20
-1992.138153375188
 30
0.0
 11
2855.088772232351
 21
-1992.138153375188
 31
0.0
  0
LINE
  5
1A478
  8
01
  6
CONTINUOUS
 10
2813.338772232351
 20
-1969.888153375188
 30
0.0
 11
2813.338772232351
 21
-1961.888153375188
 31
0.0
  0
LINE
  5
1A479
  8
01
  6
CONTINUOUS
 10
2811.338772232351
 20
-1961.888153375188
 30
0.0
 11
2811.338772232351
 21
-1969.888153375188
 31
0.0
  0
ARC
  5
1A47A
  8
01
  6
CONTINUOUS
 10
2824.588772232351
 20
-1988.638153375188
 30
0.0
 40
3.5
 50
180.0
 51
270.0
  0
ARC
  5
1A47B
  8
01
  6
CONTINUOUS
 10
2822.088772232351
 20
-1971.138153375188
 30
0.0
 40
1.0
 50
90.0
 51
180.0
  0
LINE
  5
1A47C
  8
01
  6
CONTINUOUS
 10
2821.088772232351
 20
-1971.138153375188
 30
0.0
 11
2821.088772232351
 21
-1988.638153375188
 31
0.0
  0
ARC
  5
1A47D
  8
01
  6
CONTINUOUS
 10
2855.088772232351
 20
-1988.638153375188
 30
0.0
 40
3.5
 50
270.0
 51
0.0
  0
ARC
  5
1A47E
  8
01
  6
CONTINUOUS
 10
2857.588772232351
 20
-1971.138153375188
 30
0.0
 40
1.0
 50
0.0
 51
90.0
  0
LINE
  5
1A47F
  8
01
  6
CONTINUOUS
 10
2858.588772232351
 20
-1988.638153375188
 30
0.0
 11
2858.588772232351
 21
-1971.138153375188
 31
0.0
  0
LINE
  5
1A480
  8
01
  6
CONTINUOUS
 10
2872.338772232351
 20
-1873.638153375188
 30
0.0
 11
2807.338772232351
 21
-1873.638153375188
 31
0.0
  0
LINE
  5
1A481
  8
01
  6
CONTINUOUS
 10
2807.338772232351
 20
-1903.638153375188
 30
0.0
 11
2872.338772232351
 21
-1903.638153375188
 31
0.0
  0
LINE
  5
1A482
  8
01
  6
CONTINUOUS
 10
2806.338772232351
 20
-1874.638153375188
 30
0.0
 11
2806.338772232351
 21
-1902.638153375188
 31
0.0
  0
ARC
  5
1A483
  8
01
  6
CONTINUOUS
 10
2807.338772232351
 20
-1902.638153375188
 30
0.0
 40
1.0
 50
180.0
 51
270.0
  0
ARC
  5
1A484
  8
01
  6
CONTINUOUS
 10
2807.338772232351
 20
-1874.638153375188
 30
0.0
 40
1.0
 50
90.0
 51
180.0
  0
LINE
  5
1A485
  8
01
  6
CONTINUOUS
 10
2873.338772232351
 20
-1902.638153375188
 30
0.0
 11
2873.338772232351
 21
-1874.638153375188
 31
0.0
  0
ARC
  5
1A486
  8
01
  6
CONTINUOUS
 10
2872.338772232351
 20
-1902.638153375188
 30
0.0
 40
1.0
 50
270.0
 51
0.0
  0
ARC
  5
1A487
  8
01
  6
CONTINUOUS
 10
2872.338772232351
 20
-1874.638153375188
 30
0.0
 40
1.0
 50
0.0
 51
90.0
  0
LINE
  5
1A488
  8
01
 10
2811.338772232351
 20
-1969.888153375188
 30
0.0
 11
2813.338772232351
 21
-1969.888153375188
 31
0.0
  0
LINE
  5
1A489
  8
01
 10
2811.338772232351
 20
-1961.888153375188
 30
0.0
 11
2813.338772232351
 21
-1961.888153375188
 31
0.0
  0
ARC
  5
1A48A
  8
01
 10
2861.838772232351
 20
-1957.137613375188
 30
0.0
 40
1.5
 50
180.0
 51
0.0
  0
ARC
  5
1A48B
  8
01
 10
2861.838772232351
 20
-1910.137613375188
 30
0.0
 40
1.5
 50
0.0
 51
180.0
  0
LINE
  5
1A48C
  8
01
 10
2860.338772232351
 20
-1957.137613375188
 30
0.0
 11
2860.338772232351
 21
-1910.137613375188
 31
0.0
  0
LINE
  5
1A48D
  8
01
 10
2863.338772232351
 20
-1957.137613375188
 30
0.0
 11
2863.338772232351
 21
-1910.137613375188
 31
0.0
  0
ARC
  5
1A48E
  8
01
 10
2853.838772232351
 20
-1957.137613375188
 30
0.0
 40
1.5
 50
180.0
 51
0.0
  0
ARC
  5
1A48F
  8
01
 10
2853.838772232351
 20
-1910.137613375188
 30
0.0
 40
1.5
 50
0.0
 51
180.0
  0
LINE
  5
1A490
  8
01
 10
2852.338772232351
 20
-1957.137613375188
 30
0.0
 11
2852.338772232351
 21
-1910.137613375188
 31
0.0
  0
LINE
  5
1A491
  8
01
 10
2855.338772232351
 20
-1957.137613375188
 30
0.0
 11
2855.338772232351
 21
-1910.137613375188
 31
0.0
  0
ARC
  5
1A492
  8
01
 10
2845.838772232351
 20
-1957.137613375188
 30
0.0
 40
1.5
 50
180.0
 51
0.0
  0
ARC
  5
1A493
  8
01
 10
2845.838772232351
 20
-1910.137613375188
 30
0.0
 40
1.5
 50
0.0
 51
180.0
  0
LINE
  5
1A494
  8
01
 10
2844.338772232351
 20
-1957.137613375188
 30
0.0
 11
2844.338772232351
 21
-1910.137613375188
 31
0.0
  0
LINE
  5
1A495
  8
01
 10
2847.338772232351
 20
-1957.137613375188
 30
0.0
 11
2847.338772232351
 21
-1910.137613375188
 31
0.0
  0
ARC
  5
1A496
  8
01
 10
2837.838772232351
 20
-1957.137613375188
 30
0.0
 40
1.5
 50
180.0
 51
0.0
  0
ARC
  5
1A497
  8
01
 10
2837.838772232351
 20
-1910.137613375188
 30
0.0
 40
1.5
 50
0.0
 51
180.0
  0
LINE
  5
1A498
  8
01
 10
2836.338772232351
 20
-1957.137613375188
 30
0.0
 11
2836.338772232351
 21
-1910.137613375188
 31
0.0
  0
LINE
  5
1A499
  8
01
 10
2839.338772232351
 20
-1957.137613375188
 30
0.0
 11
2839.338772232351
 21
-1910.137613375188
 31
0.0
  0
ARC
  5
1A49A
  8
01
 10
2829.838772232351
 20
-1957.137613375188
 30
0.0
 40
1.5
 50
180.0
 51
0.0
  0
ARC
  5
1A49B
  8
01
 10
2829.838772232351
 20
-1910.137613375188
 30
0.0
 40
1.5
 50
0.0
 51
180.0
  0
LINE
  5
1A49C
  8
01
 10
2828.338772232351
 20
-1957.137613375188
 30
0.0
 11
2828.338772232351
 21
-1910.137613375188
 31
0.0
  0
LINE
  5
1A49D
  8
01
 10
2831.338772232351
 20
-1957.137613375188
 30
0.0
 11
2831.338772232351
 21
-1910.137613375188
 31
0.0
  0
ARC
  5
1A49E
  8
01
 10
2821.838772232351
 20
-1957.137613375188
 30
0.0
 40
1.5
 50
180.0
 51
0.0
  0
ARC
  5
1A49F
  8
01
 10
2821.838772232351
 20
-1910.137613375188
 30
0.0
 40
1.5
 50
0.0
 51
180.0
  0
LINE
  5
1A4A0
  8
01
 10
2820.338772232351
 20
-1957.137613375188
 30
0.0
 11
2820.338772232351
 21
-1910.137613375188
 31
0.0
  0
LINE
  5
1A4A1
  8
01
 10
2823.338772232351
 20
-1957.137613375188
 30
0.0
 11
2823.338772232351
 21
-1910.137613375188
 31
0.0
  0
TEXT
  5
1A79C
  8
01
  6
CONTINUOUS
 10
3119.684131439855
 20
-1748.175923435928
 30
0.0
 40
7.0
  1
スイッチボックスを施工できない
  7
SWISS
  0
TEXT
  5
1A79D
  8
01
  6
CONTINUOUS
 10
3140.800798106522
 20
-1759.842590102595
 30
0.0
 40
7.0
  1
場合の壁面切欠き寸法
  7
SWISS
  0
ARC
  5
1A79E
  8
01
 10
2841.041365286915
 20
-1746.812575682808
 30
0.0
 40
0.75
 50
90.00039994660993
 51
179.9996000534074
  0
LINE
  5
1A79F
  8
01
 10
2842.090167741419
 20
-1746.062568361745
 30
0.0
 11
2841.041360051627
 21
-1746.062575682826
 31
0.0
  0
LINE
  5
1A7A0
  8
01
 10
2840.291357965342
 20
-1747.861451222846
 30
0.0
 11
2840.291365286933
 21
-1746.812570447519
 31
0.0
  0
ARC
  5
1A7A1
  8
01
 10
2838.636258581215
 20
-1746.81265508623
 30
0.0
 40
0.75
 50
0.0003999466099272
 51
89.99960005345956
  0
LINE
  5
1A7A2
  8
01
 10
2839.386265902278
 20
-1747.861457540736
 30
0.0
 11
2839.386258581198
 21
-1746.812649850941
 31
0.0
  0
LINE
  5
1A7A3
  8
01
 10
2837.587383041174
 20
-1746.062647764658
 30
0.0
 11
2838.636263816504
 21
-1746.062655086248
 31
0.0
  0
ARC
  5
1A7A4
  8
01
 10
2838.63617917779
 20
-1744.407548380531
 30
0.0
 40
0.75
 50
270.0003999466099
 51
359.9996000534943
  0
LINE
  5
1A7A5
  8
01
 10
2837.587376723283
 20
-1745.157555701595
 30
0.0
 11
2838.636184413079
 21
-1745.157548380513
 31
0.0
  0
LINE
  5
1A7A6
  8
01
 10
2839.386186499362
 20
-1743.358672840493
 30
0.0
 11
2839.386179177773
 21
-1744.407553615819
 31
0.0
  0
ARC
  5
1A7A7
  8
01
 10
2841.041285883489
 20
-1744.407468977109
 30
0.0
 40
0.75
 50
180.0003999465926
 51
269.9996000534595
  0
LINE
  5
1A7A8
  8
01
 10
2842.090161423528
 20
-1745.157476298682
 30
0.0
 11
2841.0412806482
 21
-1745.157468977091
 31
0.0
  0
LINE
  5
1A7A9
  8
01
 10
2840.291278562426
 20
-1743.358666522603
 30
0.0
 11
2840.291285883507
 21
-1744.407474212398
 31
0.0
  0
LINE
  5
1A7AA
  8
01
 10
2842.090161423528
 20
-1745.157476298682
 30
0.0
 11
2842.090167741419
 21
-1746.062568361745
 31
0.0
  0
LINE
  5
1A7AB
  8
01
 10
2840.291357965342
 20
-1747.861451222846
 30
0.0
 11
2839.386265902278
 21
-1747.861457540736
 31
0.0
  0
LINE
  5
1A7AC
  8
01
 10
2837.587383041174
 20
-1746.062647764658
 30
0.0
 11
2837.587376723283
 21
-1745.157555701595
 31
0.0
  0
LINE
  5
1A7AD
  8
1CENTER
 10
2839.838772232351
 20
-1742.258785839237
 30
0.0
 11
2839.838772232351
 21
-1748.961338224102
 31
0.0
  0
LINE
  5
1A7AE
  8
1CENTER
 10
2843.190048424784
 20
-1745.610062031669
 30
0.0
 11
2836.487496039918
 21
-1745.610062031669
 31
0.0
  0
LINE
  5
1A7AF
  8
01
 10
2839.386186499362
 20
-1743.358672840493
 30
0.0
 11
2840.291278562426
 21
-1743.358666522603
 31
0.0
  0
CIRCLE
  5
1A7B0
  8
01
 10
2839.838772232351
 20
-1745.610062031669
 30
0.0
 40
3.0
  0
SOLID
  5
1A7B1
  8
1DIM
 10
2894.321940283038
 20
-1824.898903329887
 30
0.0
 11
2891.458357546182
 21
-1827.770198917879
 31
0.0
 12
2893.235921025481
 22
-1824.125378960528
 32
0.0
 13
2893.235921025481
 23
-1824.125378960528
 33
0.0
1001
ACAD
1000
DSTYLE
1002
{
1070
    40
1040
2.0
1002
}
  0
LINE
  5
1A7B2
  8
1DIM
 10
2893.77893065426
 20
-1824.512141145207
 30
0.0
 11
2926.901993704229
 21
-1778.007744171465
 31
0.0
1001
ACAD
1000
DSTYLE
1002
{
1070
    40
1040
2.0
1002
}
  0
LINE
  5
1A7B3
  8
1DIM
 10
2926.901993704229
 20
-1778.007744171465
 30
0.0
 11
2997.868660370896
 21
-1778.007744171465
 31
0.0
1001
ACAD
1000
DSTYLE
1002
{
1070
    40
1040
2.0
1002
}
  0
TEXT
  5
1A7B4
  8
1DIM
  6
CONTINUOUS
 10
2931.835327037563
 20
-1764.941077504798
 30
0.0
 40
7.0
  1
材質：アルミ
  0
TEXT
  5
1A7B5
  8
1DIM
  6
CONTINUOUS
 10
2932.068660370896
 20
-1776.607744171465
 30
0.0
 40
7.0
  1
仕上げ：各種仕上
  0
LINE
  5
1A7B6
  8
0
  6
BYBLOCK
 10
2752.516975472352
 20
-1937.138153375188
 30
0.0
 11
2753.588772232351
 21
-1933.138153375188
 31
0.0
  0
LINE
  5
1A7B7
  8
0
  6
BYBLOCK
 10
2753.588772232351
 20
-1933.138153375188
 30
0.0
 11
2754.660568992351
 21
-1937.138153375188
 31
0.0
  0
LINE
  5
1A7B8
  8
0
  6
BYBLOCK
 10
2753.588772232351
 20
-1933.138153375188
 30
0.0
 11
2753.588772232351
 21
-1937.138153375188
 31
0.0
  0
TEXT
  5
1A7B9
  8
1DIM
  6
CONTINUOUS
 10
2742.739375005271
 20
-2112.866432818638
 30
0.0
 40
7.0
  1
JIS3個用スイッチボックス（カバー無し）
 50
90.0
  0
TEXT
  5
1A7BA
  8
1DIM
  6
CONTINUOUS
 10
2752.127249183906
 20
-2077.772492076541
 30
0.0
 40
7.0
  1
床面より1350（推奨位置）
 50
90.0
  0
LINE
  5
1A7BB
  8
1DIM
 10
2839.838772232351
 20
-1933.138153375188
 30
0.0
 11
2751.588772232351
 21
-1933.138153375188
 31
0.0
1001
ACAD
1000
DSTYLE
1002
{
1070
    40
1040
2.0
1002
}
  0
LINE
  5
1A7BC
  8
1DIM
 10
2832.218234863769
 20
-1833.138153375188
 30
0.0
 11
2751.588772232351
 21
-1833.138153375188
 31
0.0
1001
ACAD
1000
DSTYLE
1002
{
1070
    40
1040
2.0
1002
}
  0
LINE
  5
1A7BD
  8
1DIM
 10
2753.588772232351
 20
-1929.138153375188
 30
0.0
 11
2753.588772232351
 21
-1837.138153375188
 31
0.0
1001
ACAD
1000
DSTYLE
1002
{
1070
    40
1040
2.0
1002
}
  0
LINE
  5
1A7C1
  8
1CENTER
 10
2992.988569322139
 20
-1829.739828375189
 30
0.0
 11
2992.988569322139
 21
-1821.579384475189
 31
0.0
  0
LINE
  5
1A7C3
  8
1HATCH
 10
2990.988569322139
 20
-1827.788153375189
 30
0.0
 11
2994.988569322139
 21
-1827.788153375189
 31
0.0
  0
LINE
  5
1A7C4
  8
1HATCH
 10
2994.63856932214
 20
-1828.138153375188
 30
0.0
 11
2994.63856932214
 21
-1824.788153375189
 31
0.0
  0
LINE
  5
1A7C5
  8
1HATCH
 10
2991.338569322139
 20
-1828.138153375188
 30
0.0
 11
2991.338569322139
 21
-1824.788153375189
 31
0.0
  0
LINE
  5
1A7C6
  8
1HATCH
 10
2989.988569322139
 20
-1823.438153385189
 30
0.0
 11
2995.988569322139
 21
-1823.438153385189
 31
0.0
  0
LINE
  5
1A7C7
  8
1HATCH
 10
2991.338569322139
 20
-1824.788153375189
 30
0.0
 11
2990.988569322139
 21
-1824.438153549263
 31
0.0
  0
LINE
  5
1A7C8
  8
1HATCH
 10
2994.988569322139
 20
-1824.438153549263
 30
0.0
 11
2994.63856932214
 21
-1824.788153375189
 31
0.0
  0
LINE
  5
1A7D1
  8
1CENTER
 10
2992.988569322139
 20
-2036.536478375188
 30
0.0
 11
2992.988569322139
 21
-2044.696922275188
 31
0.0
  0
LINE
  5
1A7D3
  8
1HATCH
 10
2990.988569322139
 20
-2038.488153375188
 30
0.0
 11
2994.988569322139
 21
-2038.488153375188
 31
0.0
  0
LINE
  5
1A7D4
  8
1HATCH
 10
2994.63856932214
 20
-2038.138153375188
 30
0.0
 11
2994.63856932214
 21
-2041.488153375188
 31
0.0
  0
LINE
  5
1A7D5
  8
1HATCH
 10
2991.338569322139
 20
-2038.138153375188
 30
0.0
 11
2991.338569322139
 21
-2041.488153375188
 31
0.0
  0
LINE
  5
1A7D6
  8
1HATCH
 10
2989.988569322139
 20
-2042.838153365188
 30
0.0
 11
2995.988569322139
 21
-2042.838153365188
 31
0.0
  0
LINE
  5
1A7D7
  8
1HATCH
 10
2991.338569322139
 20
-2041.488153375188
 30
0.0
 11
2990.988569322139
 21
-2041.838153201114
 31
0.0
  0
LINE
  5
1A7D8
  8
1HATCH
 10
2994.988569322139
 20
-2041.838153201114
 30
0.0
 11
2994.63856932214
 21
-2041.488153375188
 31
0.0
  0
LINE
  5
1A7D9
  8
1DIM
 10
2771.588772232351
 20
-1823.138153375188
 30
0.0
 11
2771.588772232351
 21
-1801.456278290566
 31
0.0
1001
ACAD
1000
DSTYLE
1002
{
1070
    40
1040
2.0
1002
}
  0
LINE
  5
1A7DA
  8
1DIM
 10
2908.088772232351
 20
-1823.138153375188
 30
0.0
 11
2908.088772232351
 21
-1801.456278290566
 31
0.0
1001
ACAD
1000
DSTYLE
1002
{
1070
    40
1040
2.0
1002
}
  0
LINE
  5
1A7DB
  8
1DIM
 10
2775.588772232351
 20
-1803.456278290566
 30
0.0
 11
2904.088772232351
 21
-1803.456278290566
 31
0.0
1001
ACAD
1000
DSTYLE
1002
{
1070
    40
1040
2.0
1002
}
  0
LINE
  5
1A7DF
  8
1DIM
 10
2906.088772232351
 20
-2043.138153375188
 30
0.0
 11
2948.088772232351
 21
-2043.138153375188
 31
0.0
1001
ACAD
1000
DSTYLE
1002
{
1070
    40
1040
2.0
1002
}
  0
LINE
  5
1A7E0
  8
1DIM
 10
2906.088772232351
 20
-1823.138153375188
 30
0.0
 11
2948.088772232351
 21
-1823.138153375188
 31
0.0
1001
ACAD
1000
DSTYLE
1002
{
1070
    40
1040
2.0
1002
}
  0
LINE
  5
1A7E1
  8
1DIM
 10
2946.088772232351
 20
-2039.138153375188
 30
0.0
 11
2946.088772232351
 21
-1827.138153375188
 31
0.0
1001
ACAD
1000
DSTYLE
1002
{
1070
    40
1040
2.0
1002
}
  0
LINE
  5
1A7E5
  8
1DIM
 10
2999.988569322139
 20
-1823.138153375188
 30
0.0
 11
2999.988569322139
 21
-1801.456278290566
 31
0.0
1001
ACAD
1000
DSTYLE
1002
{
1070
    40
1040
2.0
1002
}
  0
LINE
  5
1A7E6
  8
1DIM
 10
2981.988569322139
 20
-1823.138153375188
 30
0.0
 11
2981.988569322139
 21
-1801.456278290566
 31
0.0
1001
ACAD
1000
DSTYLE
1002
{
1070
    40
1040
2.0
1002
}
  0
LINE
  5
1A7E7
  8
1DIM
 10
2995.988569322139
 20
-1803.456278290566
 30
0.0
 11
2985.988569322139
 21
-1803.456278290566
 31
0.0
1001
ACAD
1000
DSTYLE
1002
{
1070
    40
1040
2.0
1002
}
  0
LINE
  5
1A7EB
  8
1DIM
 10
2999.988569322139
 20
-2043.138153375188
 30
0.0
 11
2999.988569322139
 21
-2065.138153375188
 31
0.0
1001
ACAD
1000
DSTYLE
1002
{
1070
    40
1040
2.0
1002
}
  0
LINE
  5
1A7EC
  8
1DIM
 10
2992.988569322139
 20
-2044.696922275188
 30
0.0
 11
2992.988569322139
 21
-2065.138153375188
 31
0.0
1001
ACAD
1000
DSTYLE
1002
{
1070
    40
1040
2.0
1002
}
  0
LINE
  5
1A7ED
  8
1DIM
 10
3003.988569322139
 20
-2063.138153375188
 30
0.0
 11
3007.988569322139
 21
-2063.138153375188
 31
0.0
1001
ACAD
1000
DSTYLE
1002
{
1070
    40
1040
2.0
1002
}
  0
LINE
  5
1A7EE
  8
1DIM
 10
2988.988569322139
 20
-2063.138153375188
 30
0.0
 11
2977.521902655473
 21
-2063.138153375188
 31
0.0
1001
ACAD
1000
DSTYLE
1002
{
1070
    40
1040
2.0
1002
}
  0
LINE
  5
1A7EF
  8
1DIM
 10
2999.988569322139
 20
-2063.138153375188
 30
0.0
 11
2992.988569322139
 21
-2063.138153375188
 31
0.0
1001
ACAD
1000
DSTYLE
1002
{
1070
    40
1040
2.0
1002
}
  0
LINE
  5
1A7F3
  8
1DIM
 10
3139.360222092252
 20
-1864.138153375188
 30
0.0
 11
3139.360222092252
 21
-1801.138153379746
 31
0.0
1001
ACAD
1000
DSTYLE
1002
{
1070
    40
1040
2.0
1002
}
  0
LINE
  5
1A7F4
  8
1DIM
 10
3229.360222092252
 20
-1864.138153379746
 30
0.0
 11
3229.360222092252
 21
-1801.138153379746
 31
0.0
1001
ACAD
1000
DSTYLE
1002
{
1070
    40
1040
2.0
1002
}
  0
LINE
  5
1A7F5
  8
1DIM
 10
3143.360222092252
 20
-1803.138153379746
 30
0.0
 11
3225.360222092252
 21
-1803.138153379746
 31
0.0
1001
ACAD
1000
DSTYLE
1002
{
1070
    40
1040
2.0
1002
}
  0
LINE
  5
1A7F9
  8
1DIM
 10
3144.360222092252
 20
-2007.138153375188
 30
0.0
 11
3096.110222090385
 21
-2007.138153375188
 31
0.0
1001
ACAD
1000
DSTYLE
1002
{
1070
    40
1040
2.0
1002
}
  0
LINE
  5
1A7FA
  8
1DIM
 10
3144.360222092252
 20
-1859.138153375188
 30
0.0
 11
3096.110222090385
 21
-1859.138153375188
 31
0.0
1001
ACAD
1000
DSTYLE
1002
{
1070
    40
1040
2.0
1002
}
  0
LINE
  5
1A7FB
  8
1DIM
 10
3098.110222090385
 20
-2003.138153375188
 30
0.0
 11
3098.110222090385
 21
-1863.138153375188
 31
0.0
1001
ACAD
1000
DSTYLE
1002
{
1070
    40
1040
2.0
1002
}
  0
LINE
  5
1A7FF
  8
1DIM
 10
3122.839315943725
 20
-1845.660390740552
 30
0.0
 11
3137.53181781589
 21
-1858.275313189872
 31
0.0
1001
ACAD
1000
DSTYLE
1002
{
1070
    40
1040
2.0
1002
}
1001
ACAD_DSTYLE_DIMRADIAL_EXTE
1070
   387
1070
     1
1070
   388
1040
1.570796326794897
1070
   390
1040
3.141592653589793
  0
LINE
  5
1A802
  8
0
  6
BYBLOCK
 10
3269.538425330385
 20
-1937.138153375188
 30
0.0
 11
3270.610222090385
 21
-1933.138153375188
 31
0.0
  0
LINE
  5
1A803
  8
0
  6
BYBLOCK
 10
3270.610222090385
 20
-1933.138153375188
 30
0.0
 11
3271.682018850385
 21
-1937.138153375188
 31
0.0
  0
LINE
  5
1A804
  8
0
  6
BYBLOCK
 10
3270.610222090385
 20
-1933.138153375188
 30
0.0
 11
3270.610222090385
 21
-1937.138153375188
 31
0.0
  0
TEXT
  5
1A805
  8
1DIM
  6
CONTINUOUS
 10
3267.538173107587
 20
-2093.931322531393
 30
0.0
 40
7.0
  1
逃げ穴中心　床面より1350（推奨位置）
 50
90.0
  0
LINE
  5
1A806
  8
1DIM
 10
3186.05634548507
 20
-2033.138153375188
 30
0.0
 11
3292.610222090385
 21
-2033.138153375188
 31
0.0
1001
ACAD
1000
DSTYLE
1002
{
1070
    40
1040
2.0
1002
}
  0
LINE
  5
1A807
  8
1DIM
 10
3187.285222090388
 20
-1833.13815337519
 30
0.0
 11
3292.610222090385
 21
-1833.13815337519
 31
0.0
1001
ACAD
1000
DSTYLE
1002
{
1070
    40
1040
2.0
1002
}
  0
LINE
  5
1A808
  8
1DIM
 10
3290.610222090385
 20
-2029.138153375188
 30
0.0
 11
3290.610222090385
 21
-1837.13815337519
 31
0.0
1001
ACAD
1000
DSTYLE
1002
{
1070
    40
1040
2.0
1002
}
  0
LINE
  5
1A80C
  8
1DIM
 10
3189.360222090385
 20
-1933.138153375188
 30
0.0
 11
3272.610222090385
 21
-1933.138153375188
 31
0.0
1001
ACAD
1000
DSTYLE
1002
{
1070
    40
1040
2.0
1002
}
  0
LINE
  5
1A80D
  8
1DIM
 10
3187.285222090388
 20
-1833.13815337519
 30
0.0
 11
3272.610222090385
 21
-1833.13815337519
 31
0.0
1001
ACAD
1000
DSTYLE
1002
{
1070
    40
1040
2.0
1002
}
  0
LINE
  5
1A80E
  8
1DIM
 10
3270.610222090385
 20
-1929.138153375188
 30
0.0
 11
3270.610222090385
 21
-1837.13815337519
 31
0.0
1001
ACAD
1000
DSTYLE
1002
{
1070
    40
1040
2.0
1002
}
  0
LINE
  5
1A812
  8
1DIM
 10
3187.285222090388
 20
-1833.13815337519
 30
0.0
 11
3292.610222090385
 21
-1833.13815337519
 31
0.0
1001
ACAD
1000
DSTYLE
1002
{
1070
    40
1040
2.0
1002
}
  0
LINE
  5
1A813
  8
1DIM
 10
3252.610222092252
 20
-1823.138153375188
 30
0.0
 11
3292.610222090385
 21
-1823.138153375188
 31
0.0
1001
ACAD
1000
DSTYLE
1002
{
1070
    40
1040
2.0
1002
}
  0
LINE
  5
1A814
  8
1DIM
 10
3290.610222090385
 20
-1837.13815337519
 30
0.0
 11
3290.610222090385
 21
-1841.13815337519
 31
0.0
1001
ACAD
1000
DSTYLE
1002
{
1070
    40
1040
2.0
1002
}
  0
LINE
  5
1A815
  8
1DIM
 10
3290.610222090385
 20
-1819.138153375188
 30
0.0
 11
3290.610222090385
 21
-1802.004820041855
 31
0.0
1001
ACAD
1000
DSTYLE
1002
{
1070
    40
1040
2.0
1002
}
  0
LINE
  5
1A816
  8
1DIM
 10
3290.610222090385
 20
-1833.13815337519
 30
0.0
 11
3290.610222090385
 21
-1823.138153375188
 31
0.0
1001
ACAD
1000
DSTYLE
1002
{
1070
    40
1040
2.0
1002
}
  0
LINE
  5
1A81A
  8
1DIM
 10
3252.610222092253
 20
-2043.138153375188
 30
0.0
 11
3312.610222090385
 21
-2043.138153375188
 31
0.0
1001
ACAD
1000
DSTYLE
1002
{
1070
    40
1040
2.0
1002
}
  0
LINE
  5
1A81B
  8
1DIM
 10
3252.610222092252
 20
-1823.138153375188
 30
0.0
 11
3312.610222090385
 21
-1823.138153375188
 31
0.0
1001
ACAD
1000
DSTYLE
1002
{
1070
    40
1040
2.0
1002
}
  0
LINE
  5
1A81C
  8
1DIM
 10
3310.610222090385
 20
-2039.138153375188
 30
0.0
 11
3310.610222090385
 21
-1827.138153375188
 31
0.0
1001
ACAD
1000
DSTYLE
1002
{
1070
    40
1040
2.0
1002
}
  0
LINE
  5
1A820
  8
1DIM
 10
3116.110222092252
 20
-1823.138153375188
 30
0.0
 11
3116.110222092252
 21
-1781.138153375188
 31
0.0
1001
ACAD
1000
DSTYLE
1002
{
1070
    40
1040
2.0
1002
}
  0
LINE
  5
1A821
  8
1DIM
 10
3252.610222092252
 20
-1823.138153375188
 30
0.0
 11
3252.610222092252
 21
-1781.138153375188
 31
0.0
1001
ACAD
1000
DSTYLE
1002
{
1070
    40
1040
2.0
1002
}
  0
LINE
  5
1A822
  8
1DIM
 10
3120.110222092252
 20
-1783.138153375188
 30
0.0
 11
3248.610222092252
 21
-1783.138153375188
 31
0.0
1001
ACAD
1000
DSTYLE
1002
{
1070
    40
1040
2.0
1002
}
  0
LINE
  5
1A826
  8
1DIM
 10
2847.459309600932
 20
-2033.138153375188
 30
0.0
 11
2928.07715947387
 21
-2033.138153375188
 31
0.0
1001
ACAD
1000
DSTYLE
1002
{
1070
    40
1040
2.0
1002
}
  0
LINE
  5
1A827
  8
1DIM
 10
2847.459309600932
 20
-1833.138153375188
 30
0.0
 11
2928.07715947387
 21
-1833.138153375188
 31
0.0
1001
ACAD
1000
DSTYLE
1002
{
1070
    40
1040
2.0
1002
}
  0
LINE
  5
1A828
  8
1DIM
 10
2926.07715947387
 20
-2029.138153375188
 30
0.0
 11
2926.07715947387
 21
-1837.138153375188
 31
0.0
1001
ACAD
1000
DSTYLE
1002
{
1070
    40
1040
2.0
1002
}
  0
LINE
  5
1A82C
  8
0
  6
BYBLOCK
 10
2754.660568992351
 20
-1929.138153375188
 30
0.0
 11
2753.588772232351
 21
-1933.138153375188
 31
0.0
  0
LINE
  5
1A82D
  8
0
  6
BYBLOCK
 10
2753.588772232351
 20
-1933.138153375188
 30
0.0
 11
2752.516975472352
 21
-1929.138153375188
 31
0.0
  0
LINE
  5
1A82E
  8
0
  6
BYBLOCK
 10
2753.588772232351
 20
-1933.138153375188
 30
0.0
 11
2753.588772232351
 21
-1929.138153375188
 31
0.0
  0
LINE
  5
1A82F
  8
0
  6
BYBLOCK
 10
2752.516975472352
 20
-1837.138153375188
 30
0.0
 11
2753.588772232351
 21
-1833.138153375188
 31
0.0
  0
LINE
  5
1A830
  8
0
  6
BYBLOCK
 10
2753.588772232351
 20
-1833.138153375188
 30
0.0
 11
2754.660568992351
 21
-1837.138153375188
 31
0.0
  0
LINE
  5
1A831
  8
0
  6
BYBLOCK
 10
2753.588772232351
 20
-1833.138153375188
 30
0.0
 11
2753.588772232351
 21
-1837.138153375188
 31
0.0
  0
TEXT
  5
1A832
  8
1DIM
  6
CONTINUOUS
 10
2752.188772232352
 20
-1890.283986708522
 30
0.0
 40
7.0
  1
100
 50
90.0
1001
ACAD
1000
DSTYLE
1002
{
1070
    40
1040
2.0
1002
}
  0
LINE
  5
1A833
  8
0
 10
2991.338569322139
 20
-1828.138153375188
 30
0.0
 11
2994.638569322139
 21
-1828.138153375188
 31
0.0
  0
LINE
  5
1A834
  8
0
 10
2994.638569322139
 20
-1828.138153375188
 30
0.0
 11
2994.988569322139
 21
-1827.788153375189
 31
0.0
  0
LINE
  5
1A835
  8
0
 10
2994.988569322139
 20
-1827.788153375189
 30
0.0
 11
2994.988569322139
 21
-1824.438153549263
 31
0.0
  0
LINE
  5
1A836
  8
0
 10
2994.988569322139
 20
-1824.438153549263
 30
0.0
 11
2995.988569322139
 21
-1823.438153475189
 31
0.0
  0
LINE
  5
1A837
  8
0
 10
2995.988569322139
 20
-1823.438153475189
 30
0.0
 11
2995.988569322139
 21
-1823.138153375188
 31
0.0
  0
LINE
  5
1A838
  8
0
 10
2995.988569322139
 20
-1823.138153375188
 30
0.0
 11
2989.988569322139
 21
-1823.138153375188
 31
0.0
  0
LINE
  5
1A839
  8
0
 10
2989.988569322139
 20
-1823.138153375188
 30
0.0
 11
2989.988569322139
 21
-1823.438153385189
 31
0.0
  0
LINE
  5
1A83A
  8
0
 10
2989.988569322139
 20
-1823.438153385189
 30
0.0
 11
2990.988569322139
 21
-1824.438153549263
 31
0.0
  0
LINE
  5
1A83B
  8
0
 10
2990.988569322139
 20
-1824.438153549263
 30
0.0
 11
2990.988569322139
 21
-1827.788153375189
 31
0.0
  0
LINE
  5
1A83C
  8
0
 10
2990.988569322139
 20
-1827.788153375189
 30
0.0
 11
2991.338569322139
 21
-1828.138153375188
 31
0.0
  0
LINE
  5
1A83D
  8
0
 10
2994.638569322139
 20
-2038.138153375188
 30
0.0
 11
2991.338569322139
 21
-2038.138153375188
 31
0.0
  0
LINE
  5
1A83E
  8
0
 10
2991.338569322139
 20
-2038.138153375188
 30
0.0
 11
2990.988569322139
 21
-2038.488153375188
 31
0.0
  0
LINE
  5
1A83F
  8
0
 10
2990.988569322139
 20
-2038.488153375188
 30
0.0
 11
2990.988569322139
 21
-2041.838153201114
 31
0.0
  0
LINE
  5
1A840
  8
0
 10
2990.988569322139
 20
-2041.838153201114
 30
0.0
 11
2989.988569322139
 21
-2042.838153365188
 31
0.0
  0
LINE
  5
1A841
  8
0
 10
2989.988569322139
 20
-2042.838153365188
 30
0.0
 11
2989.988569322139
 21
-2043.138153375188
 31
0.0
  0
LINE
  5
1A842
  8
0
 10
2989.988569322139
 20
-2043.138153375188
 30
0.0
 11
2995.988569322139
 21
-2043.138153375188
 31
0.0
  0
LINE
  5
1A843
  8
0
 10
2995.988569322139
 20
-2043.138153375188
 30
0.0
 11
2995.988569322139
 21
-2042.838153275188
 31
0.0
  0
LINE
  5
1A844
  8
0
 10
2995.988569322139
 20
-2042.838153275188
 30
0.0
 11
2994.988569322139
 21
-2041.838153201114
 31
0.0
  0
LINE
  5
1A845
  8
0
 10
2994.988569322139
 20
-2041.838153201114
 30
0.0
 11
2994.988569322139
 21
-2038.488153375188
 31
0.0
  0
LINE
  5
1A846
  8
0
 10
2994.988569322139
 20
-2038.488153375188
 30
0.0
 11
2994.638569322139
 21
-2038.138153375188
 31
0.0
  0
LINE
  5
1A847
  8
0
  6
BYBLOCK
 10
2775.588772232351
 20
-1804.528075050566
 30
0.0
 11
2771.588772232351
 21
-1803.456278290566
 31
0.0
  0
LINE
  5
1A848
  8
0
  6
BYBLOCK
 10
2771.588772232351
 20
-1803.456278290566
 30
0.0
 11
2775.588772232351
 21
-1802.384481530566
 31
0.0
  0
LINE
  5
1A849
  8
0
  6
BYBLOCK
 10
2771.588772232351
 20
-1803.456278290566
 30
0.0
 11
2775.588772232351
 21
-1803.456278290566
 31
0.0
  0
LINE
  5
1A84A
  8
0
  6
BYBLOCK
 10
2904.088772232351
 20
-1802.384481530566
 30
0.0
 11
2908.088772232351
 21
-1803.456278290566
 31
0.0
  0
LINE
  5
1A84B
  8
0
  6
BYBLOCK
 10
2908.088772232351
 20
-1803.456278290566
 30
0.0
 11
2904.088772232351
 21
-1804.528075050566
 31
0.0
  0
LINE
  5
1A84C
  8
0
  6
BYBLOCK
 10
2908.088772232351
 20
-1803.456278290566
 30
0.0
 11
2904.088772232351
 21
-1803.456278290566
 31
0.0
  0
TEXT
  5
1A84D
  8
1DIM
  6
CONTINUOUS
 10
2826.981133343463
 20
-1802.056278290566
 30
0.0
 40
7.0
  1
136.5
1001
ACAD
1000
DSTYLE
1002
{
1070
    40
1040
2.0
1002
}
  0
LINE
  5
1A84E
  8
0
  6
BYBLOCK
 10
2947.160568992351
 20
-2039.138153375188
 30
0.0
 11
2946.088772232351
 21
-2043.138153375188
 31
0.0
  0
LINE
  5
1A84F
  8
0
  6
BYBLOCK
 10
2946.088772232351
 20
-2043.138153375188
 30
0.0
 11
2945.016975472352
 21
-2039.138153375188
 31
0.0
  0
LINE
  5
1A850
  8
0
  6
BYBLOCK
 10
2946.088772232351
 20
-2043.138153375188
 30
0.0
 11
2946.088772232351
 21
-2039.138153375188
 31
0.0
  0
LINE
  5
1A851
  8
0
  6
BYBLOCK
 10
2945.016975472352
 20
-1827.138153375188
 30
0.0
 11
2946.088772232351
 21
-1823.138153375188
 31
0.0
  0
LINE
  5
1A852
  8
0
  6
BYBLOCK
 10
2946.088772232351
 20
-1823.138153375188
 30
0.0
 11
2947.160568992351
 21
-1827.138153375188
 31
0.0
  0
LINE
  5
1A853
  8
0
  6
BYBLOCK
 10
2946.088772232351
 20
-1823.138153375188
 30
0.0
 11
2946.088772232351
 21
-1827.138153375188
 31
0.0
  0
TEXT
  5
1A854
  8
1DIM
  6
CONTINUOUS
 10
2944.688772232352
 20
-1942.033986708522
 30
0.0
 40
7.0
  1
220
 50
90.0
1001
ACAD
1000
DSTYLE
1002
{
1070
    40
1040
2.0
1002
}
  0
LINE
  5
1A855
  8
0
  6
BYBLOCK
 10
2995.988569322139
 20
-1802.384481530566
 30
0.0
 11
2999.988569322139
 21
-1803.456278290566
 31
0.0
  0
LINE
  5
1A856
  8
0
  6
BYBLOCK
 10
2999.988569322139
 20
-1803.456278290566
 30
0.0
 11
2995.988569322139
 21
-1804.528075050566
 31
0.0
  0
LINE
  5
1A857
  8
0
  6
BYBLOCK
 10
2999.988569322139
 20
-1803.456278290566
 30
0.0
 11
2995.988569322139
 21
-1803.456278290566
 31
0.0
  0
LINE
  5
1A858
  8
0
  6
BYBLOCK
 10
2985.988569322139
 20
-1804.528075050566
 30
0.0
 11
2981.988569322139
 21
-1803.456278290566
 31
0.0
  0
LINE
  5
1A859
  8
0
  6
BYBLOCK
 10
2981.988569322139
 20
-1803.456278290566
 30
0.0
 11
2985.988569322139
 21
-1802.384481530566
 31
0.0
  0
LINE
  5
1A85A
  8
0
  6
BYBLOCK
 10
2981.988569322139
 20
-1803.456278290566
 30
0.0
 11
2985.988569322139
 21
-1803.456278290566
 31
0.0
  0
TEXT
  5
1A85B
  8
1DIM
  6
CONTINUOUS
 10
2986.321902655473
 20
-1802.056278290566
 30
0.0
 40
7.0
  1
18
1001
ACAD
1000
DSTYLE
1002
{
1070
    40
1040
2.0
1002
}
  0
LINE
  5
1A85C
  8
0
  6
BYBLOCK
 10
3003.988569322139
 20
-2064.209950135188
 30
0.0
 11
2999.988569322139
 21
-2063.138153375188
 31
0.0
  0
LINE
  5
1A85D
  8
0
  6
BYBLOCK
 10
2999.988569322139
 20
-2063.138153375188
 30
0.0
 11
3003.988569322139
 21
-2062.066356615188
 31
0.0
  0
LINE
  5
1A85E
  8
0
  6
BYBLOCK
 10
2999.988569322139
 20
-2063.138153375188
 30
0.0
 11
3003.988569322139
 21
-2063.138153375188
 31
0.0
  0
LINE
  5
1A85F
  8
0
  6
BYBLOCK
 10
2988.988569322139
 20
-2062.066356615188
 30
0.0
 11
2992.988569322139
 21
-2063.138153375188
 31
0.0
  0
LINE
  5
1A860
  8
0
  6
BYBLOCK
 10
2992.988569322139
 20
-2063.138153375188
 30
0.0
 11
2988.988569322139
 21
-2064.209950135188
 31
0.0
  0
LINE
  5
1A861
  8
0
  6
BYBLOCK
 10
2992.988569322139
 20
-2063.138153375188
 30
0.0
 11
2988.988569322139
 21
-2063.138153375188
 31
0.0
  0
TEXT
  5
1A862
  8
1DIM
  6
CONTINUOUS
 10
2978.921902655473
 20
-2061.738153375188
 30
0.0
 40
7.0
  1
7
1001
ACAD
1000
DSTYLE
1002
{
1070
    40
1040
2.0
1002
}
  0
LINE
  5
1A863
  8
0
  6
BYBLOCK
 10
3143.360222092252
 20
-1804.209950139746
 30
0.0
 11
3139.360222092252
 21
-1803.138153379746
 31
0.0
  0
LINE
  5
1A864
  8
0
  6
BYBLOCK
 10
3139.360222092252
 20
-1803.138153379746
 30
0.0
 11
3143.360222092252
 21
-1802.066356619746
 31
0.0
  0
LINE
  5
1A865
  8
0
  6
BYBLOCK
 10
3139.360222092252
 20
-1803.138153379746
 30
0.0
 11
3143.360222092252
 21
-1803.138153379746
 31
0.0
  0
LINE
  5
1A866
  8
0
  6
BYBLOCK
 10
3225.360222092252
 20
-1802.066356619746
 30
0.0
 11
3229.360222092252
 21
-1803.138153379746
 31
0.0
  0
LINE
  5
1A867
  8
0
  6
BYBLOCK
 10
3229.360222092252
 20
-1803.138153379746
 30
0.0
 11
3225.360222092252
 21
-1804.209950139746
 31
0.0
  0
LINE
  5
1A868
  8
0
  6
BYBLOCK
 10
3229.360222092252
 20
-1803.138153379746
 30
0.0
 11
3225.360222092252
 21
-1803.138153379746
 31
0.0
  0
TEXT
  5
1A869
  8
1DIM
  6
CONTINUOUS
 10
3168.285485137887
 20
-1801.738153379746
 30
0.0
 40
7.0
  1
逃げ穴寸法90
1001
ACAD
1000
DSTYLE
1002
{
1070
    40
1040
2.0
1002
}
  0
LINE
  5
1A86A
  8
0
  6
BYBLOCK
 10
3099.182018850385
 20
-2003.138153375188
 30
0.0
 11
3098.110222090385
 21
-2007.138153375188
 31
0.0
  0
LINE
  5
1A86B
  8
0
  6
BYBLOCK
 10
3098.110222090385
 20
-2007.138153375188
 30
0.0
 11
3097.038425330385
 21
-2003.138153375188
 31
0.0
  0
LINE
  5
1A86C
  8
0
  6
BYBLOCK
 10
3098.110222090385
 20
-2007.138153375188
 30
0.0
 11
3098.110222090385
 21
-2003.138153375188
 31
0.0
  0
LINE
  5
1A86D
  8
0
  6
BYBLOCK
 10
3097.038425330385
 20
-1863.138153375188
 30
0.0
 11
3098.110222090385
 21
-1859.138153375188
 31
0.0
  0
LINE
  5
1A86E
  8
0
  6
BYBLOCK
 10
3098.110222090385
 20
-1859.138153375188
 30
0.0
 11
3099.182018850385
 21
-1863.138153375188
 31
0.0
  0
LINE
  5
1A86F
  8
0
  6
BYBLOCK
 10
3098.110222090385
 20
-1859.138153375188
 30
0.0
 11
3098.110222090385
 21
-1863.138153375188
 31
0.0
  0
TEXT
  5
1A870
  8
1DIM
  6
CONTINUOUS
 10
3096.710222090385
 20
-1966.474082989295
 30
0.0
 40
7.0
  1
逃げ穴寸法148
 50
90.0
1001
ACAD
1000
DSTYLE
1002
{
1070
    40
1040
2.0
1002
}
  0
TEXT
  5
1A871
  8
1DIM
  6
CONTINUOUS
 10
3124.687057595608
 20
-1845.401620767401
 30
0.0
 40
7.0
  1
R5
 50
319.3507454601576
1001
ACAD
1000
DSTYLE
1002
{
1070
    40
1040
2.0
1002
}
1001
ACAD_DSTYLE_DIMRADIAL_EXTE
1070
   387
1070
     1
1070
   388
1040
1.570796326794897
1070
   390
1040
3.141592653589793
  0
LINE
  5
1A872
  8
0
  6
BYBLOCK
 10
3138.23001482867
 20
-1857.462128569941
 30
0.0
 11
3140.566664160941
 21
-1860.881019938901
 31
0.0
  0
LINE
  5
1A873
  8
0
  6
BYBLOCK
 10
3140.566664160941
 20
-1860.881019938901
 30
0.0
 11
3136.833620803111
 21
-1859.088497809803
 31
0.0
  0
LINE
  5
1A874
  8
0
  6
BYBLOCK
 10
3140.566664160941
 20
-1860.881019938901
 30
0.0
 11
3137.53181781589
 21
-1858.275313189872
 31
0.0
  0
LINE
  5
1A875
  8
0
  6
BYBLOCK
 10
3291.682018850385
 20
-2029.138153375188
 30
0.0
 11
3290.610222090385
 21
-2033.138153375188
 31
0.0
  0
LINE
  5
1A876
  8
0
  6
BYBLOCK
 10
3290.610222090385
 20
-2033.138153375188
 30
0.0
 11
3289.538425330385
 21
-2029.138153375188
 31
0.0
  0
LINE
  5
1A877
  8
0
  6
BYBLOCK
 10
3290.610222090385
 20
-2033.138153375188
 30
0.0
 11
3290.610222090385
 21
-2029.138153375188
 31
0.0
  0
LINE
  5
1A878
  8
0
  6
BYBLOCK
 10
3289.538425330385
 20
-1837.13815337519
 30
0.0
 11
3290.610222090385
 21
-1833.13815337519
 31
0.0
  0
LINE
  5
1A879
  8
0
  6
BYBLOCK
 10
3290.610222090385
 20
-1833.13815337519
 30
0.0
 11
3291.682018850385
 21
-1837.13815337519
 31
0.0
  0
LINE
  5
1A87A
  8
0
  6
BYBLOCK
 10
3290.610222090385
 20
-1833.13815337519
 30
0.0
 11
3290.610222090385
 21
-1837.13815337519
 31
0.0
  0
TEXT
  5
1A87B
  8
1DIM
  6
CONTINUOUS
 10
3289.210222090385
 20
-1948.450653375188
 30
0.0
 40
7.0
  1
P=200
 50
90.0
1001
ACAD
1000
DSTYLE
1002
{
1070
    40
1040
2.0
1002
}
  0
LINE
  5
1A87C
  8
0
  6
BYBLOCK
 10
3271.682018850385
 20
-1929.138153375188
 30
0.0
 11
3270.610222090385
 21
-1933.138153375188
 31
0.0
  0
LINE
  5
1A87D
  8
0
  6
BYBLOCK
 10
3270.610222090385
 20
-1933.138153375188
 30
0.0
 11
3269.538425330385
 21
-1929.138153375188
 31
0.0
  0
LINE
  5
1A87E
  8
0
  6
BYBLOCK
 10
3270.610222090385
 20
-1933.138153375188
 30
0.0
 11
3270.610222090385
 21
-1929.138153375188
 31
0.0
  0
LINE
  5
1A87F
  8
0
  6
BYBLOCK
 10
3269.538425330385
 20
-1837.13815337519
 30
0.0
 11
3270.610222090385
 21
-1833.13815337519
 31
0.0
  0
LINE
  5
1A880
  8
0
  6
BYBLOCK
 10
3270.610222090385
 20
-1833.13815337519
 30
0.0
 11
3271.682018850385
 21
-1837.13815337519
 31
0.0
  0
LINE
  5
1A881
  8
0
  6
BYBLOCK
 10
3270.610222090385
 20
-1833.13815337519
 30
0.0
 11
3270.610222090385
 21
-1837.13815337519
 31
0.0
  0
TEXT
  5
1A882
  8
1DIM
  6
CONTINUOUS
 10
3269.210222090385
 20
-1890.283986708522
 30
0.0
 40
7.0
  1
100
 50
90.0
1001
ACAD
1000
DSTYLE
1002
{
1070
    40
1040
2.0
1002
}
  0
LINE
  5
1A883
  8
0
  6
BYBLOCK
 10
3289.538425330385
 20
-1837.13815337519
 30
0.0
 11
3290.610222090385
 21
-1833.13815337519
 31
0.0
  0
LINE
  5
1A884
  8
0
  6
BYBLOCK
 10
3290.610222090385
 20
-1833.13815337519
 30
0.0
 11
3291.682018850385
 21
-1837.13815337519
 31
0.0
  0
LINE
  5
1A885
  8
0
  6
BYBLOCK
 10
3290.610222090385
 20
-1833.13815337519
 30
0.0
 11
3290.610222090385
 21
-1837.13815337519
 31
0.0
  0
LINE
  5
1A886
  8
0
  6
BYBLOCK
 10
3291.682018850385
 20
-1819.138153375188
 30
0.0
 11
3290.610222090385
 21
-1823.138153375188
 31
0.0
  0
LINE
  5
1A887
  8
0
  6
BYBLOCK
 10
3290.610222090385
 20
-1823.138153375188
 30
0.0
 11
3289.538425330385
 21
-1819.138153375188
 31
0.0
  0
LINE
  5
1A888
  8
0
  6
BYBLOCK
 10
3290.610222090385
 20
-1823.138153375188
 30
0.0
 11
3290.610222090385
 21
-1819.138153375188
 31
0.0
  0
TEXT
  5
1A889
  8
1DIM
  6
CONTINUOUS
 10
3289.210222090385
 20
-1812.800653375188
 30
0.0
 40
7.0
  1
10
 50
90.0
1001
ACAD
1000
DSTYLE
1002
{
1070
    40
1040
2.0
1002
}
  0
LINE
  5
1A88A
  8
0
  6
BYBLOCK
 10
3311.682018850385
 20
-2039.138153375188
 30
0.0
 11
3310.610222090385
 21
-2043.138153375188
 31
0.0
  0
LINE
  5
1A88B
  8
0
  6
BYBLOCK
 10
3310.610222090385
 20
-2043.138153375188
 30
0.0
 11
3309.538425330385
 21
-2039.138153375188
 31
0.0
  0
LINE
  5
1A88C
  8
0
  6
BYBLOCK
 10
3310.610222090385
 20
-2043.138153375188
 30
0.0
 11
3310.610222090385
 21
-2039.138153375188
 31
0.0
  0
LINE
  5
1A88D
  8
0
  6
BYBLOCK
 10
3309.538425330385
 20
-1827.138153375188
 30
0.0
 11
3310.610222090385
 21
-1823.138153375188
 31
0.0
  0
LINE
  5
1A88E
  8
0
  6
BYBLOCK
 10
3310.610222090385
 20
-1823.138153375188
 30
0.0
 11
3311.682018850385
 21
-1827.138153375188
 31
0.0
  0
LINE
  5
1A88F
  8
0
  6
BYBLOCK
 10
3310.610222090385
 20
-1823.138153375188
 30
0.0
 11
3310.610222090385
 21
-1827.138153375188
 31
0.0
  0
TEXT
  5
1A890
  8
1DIM
  6
CONTINUOUS
 10
3309.210222090385
 20
-1942.033986708522
 30
0.0
 40
7.0
  1
220
 50
90.0
1001
ACAD
1000
DSTYLE
1002
{
1070
    40
1040
2.0
1002
}
  0
LINE
  5
1A891
  8
0
  6
BYBLOCK
 10
3120.110222092252
 20
-1784.209950135189
 30
0.0
 11
3116.110222092252
 21
-1783.138153375188
 31
0.0
  0
LINE
  5
1A892
  8
0
  6
BYBLOCK
 10
3116.110222092252
 20
-1783.138153375188
 30
0.0
 11
3120.110222092252
 21
-1782.066356615188
 31
0.0
  0
LINE
  5
1A893
  8
0
  6
BYBLOCK
 10
3116.110222092252
 20
-1783.138153375188
 30
0.0
 11
3120.110222092252
 21
-1783.138153375188
 31
0.0
  0
LINE
  5
1A894
  8
0
  6
BYBLOCK
 10
3248.610222092252
 20
-1782.066356615188
 30
0.0
 11
3252.610222092252
 21
-1783.138153375188
 31
0.0
  0
LINE
  5
1A895
  8
0
  6
BYBLOCK
 10
3252.610222092252
 20
-1783.138153375188
 30
0.0
 11
3248.610222092252
 21
-1784.209950135189
 31
0.0
  0
LINE
  5
1A896
  8
0
  6
BYBLOCK
 10
3252.610222092252
 20
-1783.138153375188
 30
0.0
 11
3248.610222092252
 21
-1783.138153375188
 31
0.0
  0
TEXT
  5
1A897
  8
1DIM
  6
CONTINUOUS
 10
3171.502583203363
 20
-1781.738153375189
 30
0.0
 40
7.0
  1
136.5
1001
ACAD
1000
DSTYLE
1002
{
1070
    40
1040
2.0
1002
}
  0
LINE
  5
1A898
  8
0
  6
BYBLOCK
 10
2927.14895623387
 20
-2029.138153375188
 30
0.0
 11
2926.07715947387
 21
-2033.138153375188
 31
0.0
  0
LINE
  5
1A899
  8
0
  6
BYBLOCK
 10
2926.07715947387
 20
-2033.138153375188
 30
0.0
 11
2925.00536271387
 21
-2029.138153375188
 31
0.0
  0
LINE
  5
1A89A
  8
0
  6
BYBLOCK
 10
2926.07715947387
 20
-2033.138153375188
 30
0.0
 11
2926.07715947387
 21
-2029.138153375188
 31
0.0
  0
LINE
  5
1A89B
  8
0
  6
BYBLOCK
 10
2925.00536271387
 20
-1837.138153375188
 30
0.0
 11
2926.07715947387
 21
-1833.138153375188
 31
0.0
  0
LINE
  5
1A89C
  8
0
  6
BYBLOCK
 10
2926.07715947387
 20
-1833.138153375188
 30
0.0
 11
2927.14895623387
 21
-1837.138153375188
 31
0.0
  0
LINE
  5
1A89D
  8
0
  6
BYBLOCK
 10
2926.07715947387
 20
-1833.138153375188
 30
0.0
 11
2926.07715947387
 21
-1837.138153375188
 31
0.0
  0
TEXT
  5
1A89E
  8
1DIM
  6
CONTINUOUS
 10
2924.677159473871
 20
-1948.450653375188
 30
0.0
 40
7.0
  1
P=200
 50
90.0
1001
ACAD
1000
DSTYLE
1002
{
1070
    40
1040
2.0
1002
}
  0
VIEWPORT
  5
57
 67
     1
  8
0
 10
0.0
 20
0.0
 30
0.0
 40
600.1703601108034
 41
297.0000000000001
 68
     1
 69
     1
1001
ACAD
1000
MVIEW
1002
{
1070
    16
1010
0.0
1020
0.0
1030
0.0
1010
0.0
1020
0.0
1030
1.0
1040
0.0
1040
297.0000000000001
1040
-4.272048862584541
1040
18.33904653606845
1040
50.0
1040
0.0
1040
0.0
1070
    16
1070
   100
1070
     0
1070
     1
1070
     0
1070
     0
1070
     0
1070
     0
1040
0.0
1040
0.0
1040
0.0
1040
10.0
1040
10.0
1040
10.0
1040
10.0
1070
     0
1002
{
1002
}
1002
}
  0
ENDSEC
  0
EOF
