  0
SECTION
  2
HEADER
  9
$ACADVER
  1
AC1009
  9
$DWGCODEPAGE
  3
ansi_932
  9
$INSBASE
 10
0.0
 20
0.0
 30
0.0
  9
$EXTMIN
 10
1.000000000000000E+20
 20
1.000000000000000E+20
 30
1.000000000000000E+20
  9
$EXTMAX
 10
-1.000000000000000E+20
 20
-1.000000000000000E+20
 30
-1.000000000000000E+20
  9
$LIMMIN
 10
0.0
 20
0.0
  9
$LIMMAX
 10
420.0
 20
297.0
  9
$ORTHOMODE
 70
     0
  9
$REGENMODE
 70
     1
  9
$FILLMODE
 70
     1
  9
$QTEXTMODE
 70
     0
  9
$MIRRTEXT
 70
     0
  9
$DRAGMODE
 70
     2
  9
$LTSCALE
 40
0.5
  9
$OSMODE
 70
 14591
  9
$ATTMODE
 70
     1
  9
$TEXTSIZE
 40
4.0
  9
$TRACEWID
 40
1.0
  9
$TEXTSTYLE
  7
STANDARD
  9
$CLAYER
  8
1TEXT
  9
$CELTYPE
  6
BYLAYER
  9
$CECOLOR
 62
   256
  9
$DIMSCALE
 40
1.0
  9
$DIMASZ
 40
2.0
  9
$DIMEXO
 40
0.0
  9
$DIMDLI
 40
7.0
  9
$DIMRND
 40
0.0
  9
$DIMDLE
 40
0.0
  9
$DIMEXE
 40
1.0
  9
$DIMTP
 40
0.0
  9
$DIMTM
 40
0.0
  9
$DIMTXT
 40
3.5
  9
$DIMCEN
 40
0.0
  9
$DIMTSZ
 40
0.0
  9
$DIMTOL
 70
     0
  9
$DIMLIM
 70
     0
  9
$DIMTIH
 70
     0
  9
$DIMTOH
 70
     0
  9
$DIMSE1
 70
     0
  9
$DIMSE2
 70
     0
  9
$DIMTAD
 70
     1
  9
$DIMZIN
 70
     8
  9
$DIMBLK
  1

  9
$DIMASO
 70
     1
  9
$DIMSHO
 70
     1
  9
$DIMPOST
  1
 
  9
$DIMAPOST
  1

  9
$DIMALT
 70
     0
  9
$DIMALTD
 70
     2
  9
$DIMALTF
 40
25.4
  9
$DIMLFAC
 40
1.0
  9
$DIMTOFL
 70
     1
  9
$DIMTVP
 40
0.0
  9
$DIMTIX
 70
     0
  9
$DIMSOXD
 70
     0
  9
$DIMSAH
 70
     1
  9
$DIMBLK1
  1
OPEN30
  9
$DIMBLK2
  1
OPEN30
  9
$DIMSTYLE
  2
NEWX10
  9
$DIMCLRD
 70
   256
  9
$DIMCLRE
 70
   256
  9
$DIMCLRT
 70
   201
  9
$DIMTFAC
 40
0.7
  9
$DIMGAP
 40
0.7
  9
$LUNITS
 70
     2
  9
$LUPREC
 70
     4
  9
$SKETCHINC
 40
1.0
  9
$FILLETRAD
 40
0.0
  9
$AUNITS
 70
     0
  9
$AUPREC
 70
     2
  9
$MENU
  1
acad
  9
$ELEVATION
 40
0.0
  9
$PELEVATION
 40
0.0
  9
$THICKNESS
 40
0.0
  9
$LIMCHECK
 70
     0
  9
$CHAMFERA
 40
10.0
  9
$CHAMFERB
 40
10.0
  9
$SKPOLY
 70
     0
  9
$TDCREATE
 40
2453033.732663484
  9
$TDUPDATE
 40
2457948.619523634
  9
$TDINDWG
 40
2.3435396065
  9
$TDUSRTIMER
 40
2.3435396065
  9
$USRTIMER
 70
     1
  9
$ANGBASE
 50
0.0
  9
$ANGDIR
 70
     0
  9
$PDMODE
 70
     0
  9
$PDSIZE
 40
0.0
  9
$PLINEWID
 40
0.0
  9
$COORDS
 70
     2
  9
$SPLFRAME
 70
     0
  9
$SPLINETYPE
 70
     6
  9
$SPLINESEGS
 70
     8
  9
$ATTDIA
 70
     0
  9
$ATTREQ
 70
     1
  9
$HANDLING
 70
     1
  9
$HANDSEED
  5
1A74F
  9
$SURFTAB1
 70
     6
  9
$SURFTAB2
 70
     6
  9
$SURFTYPE
 70
     6
  9
$SURFU
 70
     6
  9
$SURFV
 70
     6
  9
$UCSNAME
  2

  9
$UCSORG
 10
0.0
 20
0.0
 30
0.0
  9
$UCSXDIR
 10
1.0
 20
0.0
 30
0.0
  9
$UCSYDIR
 10
0.0
 20
1.0
 30
0.0
  9
$PUCSNAME
  2

  9
$PUCSORG
 10
0.0
 20
0.0
 30
0.0
  9
$PUCSXDIR
 10
1.0
 20
0.0
 30
0.0
  9
$PUCSYDIR
 10
0.0
 20
1.0
 30
0.0
  9
$USERI1
 70
     0
  9
$USERI2
 70
     0
  9
$USERI3
 70
     0
  9
$USERI4
 70
     0
  9
$USERI5
 70
     0
  9
$USERR1
 40
0.0
  9
$USERR2
 40
0.0
  9
$USERR3
 40
0.0
  9
$USERR4
 40
0.0
  9
$USERR5
 40
0.0
  9
$WORLDVIEW
 70
     1
  9
$SHADEDGE
 70
     3
  9
$SHADEDIF
 70
    70
  9
$TILEMODE
 70
     1
  9
$MAXACTVP
 70
    48
  9
$PLIMCHECK
 70
     0
  9
$PEXTMIN
 10
1.000000000000000E+20
 20
1.000000000000000E+20
 30
1.000000000000000E+20
  9
$PEXTMAX
 10
-1.000000000000000E+20
 20
-1.000000000000000E+20
 30
-1.000000000000000E+20
  9
$PLIMMIN
 10
0.0
 20
0.0
  9
$PLIMMAX
 10
420.0
 20
297.0
  9
$UNITMODE
 70
     0
  9
$VISRETAIN
 70
     1
  9
$PLINEGEN
 70
     0
  9
$PSLTSCALE
 70
     1
  0
ENDSEC
  0
SECTION
  2
TABLES
  0
TABLE
  2
VPORT
 70
     1
  0
VPORT
  2
*ACTIVE
 70
     0
 10
0.0
 20
0.0
 11
1.0
 21
1.0
 12
2921.126372817057
 22
-1805.060356151744
 13
0.0
 23
0.0
 14
10.0
 24
10.0
 15
10.0
 25
10.0
 16
0.0
 26
0.0
 36
1.0
 17
0.0
 27
0.0
 37
0.0
 40
300.8693946906473
 41
2.020775623268698
 42
50.0
 43
0.0
 44
0.0
 50
0.0
 51
0.0
 71
    16
 72
   100
 73
     1
 74
     1
 75
     0
 76
     0
 77
     0
 78
     0
  0
ENDTAB
  0
TABLE
  2
LTYPE
 70
    15
  0
LTYPE
  2
CONTINUOUS
 70
     0
  3
Solid line
 72
    65
 73
     0
 40
0.0
  0
LTYPE
  2
CENTER2
 70
     0
  3
Center (.5x) ___ _ ___ _ ___ _ ___ _ ___ _ ___
 72
    65
 73
     4
 40
28.575
 49
19.05
 49
-3.175
 49
3.175
 49
-3.175
  0
LTYPE
  2
PHANTOM2
 70
     0
  3
Phantom (0.5x) ___ _ _ ___ _ _ ___ _ _ ___ _ _
 72
    65
 73
     6
 40
31.75
 49
15.875
 49
-3.175
 49
3.175
 49
-3.175
 49
3.175
 49
-3.175
  0
ENDTAB
  0
TABLE
  2
LAYER
 70
    45
  0
LAYER
  2
0
 70
     0
 62
     7
  6
CONTINUOUS
  0
LAYER
  2
1CENTER
 70
     0
 62
     7
  6
CENTER2
  0
LAYER
  2
1TEXT
 70
     0
 62
     7
  6
CONTINUOUS
  0
LAYER
  2
1DIM
 70
     0
 62
     7
  6
CONTINUOUS
  0
LAYER
  2
1PHANTOM
 70
     0
 62
     7
  6
PHANTOM2
  0
LAYER
  2
01
 70
     0
 62
     1
  6
CONTINUOUS
  0
ENDTAB
  0
TABLE
  2
STYLE
 70
    25
  0
STYLE
  2
STANDARD
 70
     0
 40
0.0
 41
1.0
 50
0.0
 71
     0
 42
4.0
  3
txt.shx
  4
extfont.shx
  0
ENDTAB
  0
TABLE
  2
VIEW
 70
     0
  0
ENDTAB
  0
TABLE
  2
UCS
 70
     0
  0
ENDTAB
  0
TABLE
  2
APPID
 70
    15
  0
APPID
  2
ACAD
 70
     0
  0
APPID
  2
DRAWINGVARIABLESXDATA
 70
     0
  0
APPID
  2
CONTENTTABDATA
 70
     0
  0
APPID
  2
CONTENTCURRENTTAB
 70
     0
  0
APPID
  2
CONTENTBLOCKDESCRIPTION
 70
     0
  0
APPID
  2
CONTENTBLOCKICON
 70
     0
  0
APPID
  2
CONTENTLONGBLOCKNAME
 70
     0
  0
APPID
  2
ACAD_PSEXT
 70
     0
  0
APPID
  2
ACAD_DSTYLE_DIMTEXT_FILL
 70
     0
  0
APPID
  2
ACAD_MLEADERVER
 70
     0
  0
APPID
  2
ACAD_DSTYLE_DIMRADIAL_EXTE
 70
     0
  0
APPID
  2
ACAD_EXEMPT_FROM_CAD_STAND
 70
     0
  0
APPID
  2
ACADANNOTATIVE
 70
     0
  0
APPID
  2
ACLAYERTOOLS
 70
     0
  0
APPID
  2
ACAD_OBJECT_CHANGE_GUID
 70
     0
  0
ENDTAB
  0
TABLE
  2
DIMSTYLE
 70
    10
  0
DIMSTYLE
  2
NEWX10
 70
     0
  3
 
  4

  5

  6
OPEN30
  7
OPEN30
 40
1.0
 41
2.0
 42
0.0
 43
7.0
 44
1.0
 45
0.0
 46
0.0
 47
0.0
 48
0.0
140
3.5
141
0.0
142
0.0
143
25.4
144
1.0
145
0.0
146
0.7
147
0.7
 71
     0
 72
     0
 73
     0
 74
     0
 75
     0
 76
     0
 77
     1
 78
     8
170
     0
171
     2
172
     1
173
     1
174
     0
175
     0
176
   256
177
   256
178
   201
  0
ENDTAB
  0
ENDSEC
  0
SECTION
  2
BLOCKS
  0
BLOCK
  8
0
  2
$MODEL_SPACE
 70
     0
 10
0.0
 20
0.0
 30
0.0
  3
$MODEL_SPACE
  1

  0
ENDBLK
  5
1A
  8
0
  0
BLOCK
 67
     1
  8
0
  2
$PAPER_SPACE
 70
     0
 10
0.0
 20
0.0
 30
0.0
  3
$PAPER_SPACE
  1

  0
ENDBLK
  5
17
 67
     1
  8
0
  0
BLOCK
  8
0
  2
_OPEN30
 70
     0
 10
0.0
 20
0.0
 30
0.0
  3
_OPEN30
  1

  0
LINE
  5
44
  8
0
  6
BYBLOCK
 62
     0
 10
-1.0
 20
0.26794919
 30
0.0
 11
0.0
 21
0.0
 31
0.0
  0
LINE
  5
45
  8
0
  6
BYBLOCK
 62
     0
 10
0.0
 20
0.0
 30
0.0
 11
-1.0
 21
-0.26794919
 31
0.0
  0
LINE
  5
46
  8
0
  6
BYBLOCK
 62
     0
 10
0.0
 20
0.0
 30
0.0
 11
-1.0
 21
0.0
 31
0.0
  0
ENDBLK
  5
47
  8
0
  0
ENDSEC
  0
SECTION
  2
ENTITIES
  0
LINE
  5
18545
  8
1DIM
 10
2975.580423490022
 20
-1716.675292090592
 30
0.0
 11
3045.580423490023
 21
-1716.675292090592
 31
0.0
  0
LINE
  5
18546
  8
1DIM
 10
2975.580423490022
 20
-1709.675292090592
 30
0.0
 11
3045.580423490023
 21
-1709.675292090592
 31
0.0
  0
TEXT
  5
18547
  8
1TEXT
 10
3021.113756823356
 20
-1715.175292090592
 30
0.0
 40
4.0
  1
コード
 72
     1
 11
3027.980423490023
 21
-1715.175292090592
 31
0.0
  0
TEXT
  5
18548
  8
1TEXT
 10
2984.640423490022
 20
-1715.175292090592
 30
0.0
 40
4.0
  1
表面処理
 41
0.9
 72
     1
 11
2992.980423490023
 21
-1715.175292090592
 31
0.0
  0
LINE
  5
18549
  8
1DIM
 10
2975.580423490023
 20
-1723.675292090592
 30
0.0
 11
3045.580423490023
 21
-1723.675292090592
 31
0.0
  0
LINE
  5
1854B
  8
1DIM
 10
2975.580423490023
 20
-1709.675292090592
 30
0.0
 11
2975.580423490023
 21
-1737.675292090593
 31
0.0
  0
LINE
  5
1854C
  8
1DIM
 10
3010.580423490023
 20
-1709.675292090592
 30
0.0
 11
3010.580423490023
 21
-1737.675292090593
 31
0.0
  0
LINE
  5
1854D
  8
1DIM
 10
3045.580423490023
 20
-1709.675292090592
 30
0.0
 11
3045.580423490022
 21
-1737.675292090593
 31
0.0
  0
TEXT
  5
1854E
  8
1TEXT
 10
3015.127645712246
 20
-1722.389649074242
 30
0.0
 40
4.0
  1
GP-163-036
 41
0.7
 72
     1
 11
3027.980423490023
 21
-1722.389649074242
 31
0.0
  0
TEXT
  5
1854F
  8
1TEXT
 10
2974.379134006963
 20
-1705.384162864501
 30
0.0
 40
8.0
  1
GP-163-X
  0
TEXT
  5
18551
  8
1TEXT
 10
2976.240423490024
 20
-1736.389649074242
 30
0.0
 40
4.0
  1
ブラストブラック
 41
0.9
 72
     1
 11
2992.980423490023
 21
-1736.389649074242
 31
0.0
  0
TEXT
  5
18552
  8
1TEXT
 10
3015.117923490023
 20
-1736.389649074242
 30
0.0
 40
4.0
  1
GP-163-062
 41
0.7
 72
     1
 11
3027.980423490023
 21
-1736.389649074242
 31
0.0
  0
LINE
  5
18553
  8
1DIM
 10
2975.580423490023
 20
-1730.675292090593
 30
0.0
 11
3045.580423490022
 21
-1730.675292090593
 31
0.0
  0
TEXT
  5
18554
  8
1TEXT
 10
2976.780423490024
 20
-1729.389649074242
 30
0.0
 40
4.0
  1
ダークアンバー
 72
     1
 11
2992.980423490023
 21
-1729.389649074242
 31
0.0
  0
TEXT
  5
18555
  8
1TEXT
 10
3015.594312378912
 20
-1729.389649074242
 30
0.0
 40
4.0
  1
GP-163-014
 41
0.7
 72
     1
 11
3027.980423490023
 21
-1729.389649074242
 31
0.0
  0
TEXT
  5
1855B
  8
1TEXT
 10
2976.240423490024
 20
-1722.389649074241
 30
0.0
 40
4.0
  1
ブラストシルバー
 41
0.9
 72
     1
 11
2992.980423490023
 21
-1722.389649074241
 31
0.0
  0
LINE
  5
18F31
  8
1DIM
 10
2975.580423490023
 20
-1737.675292090593
 30
0.0
 11
3045.580423490022
 21
-1737.675292090593
 31
0.0
  0
LINE
  5
19305
  8
1CENTER
 10
2814.250303979093
 20
-1664.949608624237
 30
0.0
 11
2814.250303979093
 21
-1710.393714198206
 31
0.0
  0
LINE
  5
19306
  8
1PHANTOM
 10
2811.750303979093
 20
-1690.433418038191
 30
0.0
 11
2816.750303979093
 21
-1689.433418038191
 31
0.0
  0
LINE
  5
19307
  8
1PHANTOM
 10
2812.500303979093
 20
-1673.082372537483
 30
0.0
 11
2812.500303979092
 21
-1705.551283624237
 31
0.0
  0
LINE
  5
19308
  8
1PHANTOM
 10
2814.250303979093
 20
-1666.551283624237
 30
0.0
 11
2812.500303979093
 21
-1673.082372537483
 31
0.0
  0
LINE
  5
19309
  8
1PHANTOM
 10
2814.250303979093
 20
-1666.551283624237
 30
0.0
 11
2816.000303979093
 21
-1673.082372537483
 31
0.0
  0
LINE
  5
1930A
  8
1PHANTOM
 10
2816.000303979093
 20
-1673.082372537483
 30
0.0
 11
2816.000303979093
 21
-1705.551283624237
 31
0.0
  0
LINE
  5
1930B
  8
1PHANTOM
 10
2811.934037038057
 20
-1672.396671426398
 30
0.0
 11
2812.684037038057
 21
-1672.546671426398
 31
0.0
  0
LINE
  5
1930C
  8
1PHANTOM
 10
2811.934037038057
 20
-1672.396671426398
 30
0.0
 11
2816.330941519148
 21
-1671.51729053018
 31
0.0
  0
LINE
  5
1930D
  8
1PHANTOM
 10
2814.563660666036
 20
-1667.570746700802
 30
0.0
 11
2815.313660666036
 21
-1667.720746700802
 31
0.0
  0
LINE
  5
1930E
  8
1PHANTOM
 10
2813.066523578575
 20
-1668.170174118295
 30
0.0
 11
2813.816523578575
 21
-1668.320174118294
 31
0.0
  0
LINE
  5
1930F
  8
1PHANTOM
 10
2813.066523578575
 20
-1668.170174118295
 30
0.0
 11
2815.313660666036
 21
-1667.720746700802
 31
0.0
  0
LINE
  5
19310
  8
1PHANTOM
 10
2815.580941519148
 20
-1671.367290530181
 30
0.0
 11
2816.330941519148
 21
-1671.51729053018
 31
0.0
  0
LINE
  5
19311
  8
1PHANTOM
 10
2815.072301092592
 20
-1669.469018615491
 30
0.0
 11
2815.822301092592
 21
-1669.619018615491
 31
0.0
  0
LINE
  5
19312
  8
1PHANTOM
 10
2812.500280308316
 20
-1670.283422772347
 30
0.0
 11
2813.250280308316
 21
-1670.433422772346
 31
0.0
  0
LINE
  5
19313
  8
1PHANTOM
 10
2812.500280308316
 20
-1670.283422772347
 30
0.0
 11
2815.822301092592
 21
-1669.619018615491
 31
0.0
  0
LINE
  5
19314
  8
1PHANTOM
 10
2816.000303979093
 20
-1681.283418038191
 30
0.0
 11
2816.750303979093
 21
-1681.433418038191
 31
0.0
  0
LINE
  5
19315
  8
1PHANTOM
 10
2811.750303979093
 20
-1678.433418038191
 30
0.0
 11
2812.500303979093
 21
-1678.583418038191
 31
0.0
  0
LINE
  5
19316
  8
1PHANTOM
 10
2811.750303979093
 20
-1680.433418038191
 30
0.0
 11
2812.500303979093
 21
-1680.583418038191
 31
0.0
  0
LINE
  5
19317
  8
1PHANTOM
 10
2811.750303979093
 20
-1680.433418038191
 30
0.0
 11
2816.750303979093
 21
-1679.433418038191
 31
0.0
  0
LINE
  5
19318
  8
1PHANTOM
 10
2811.750303979093
 20
-1676.433418038191
 30
0.0
 11
2812.500303979093
 21
-1676.583418038191
 31
0.0
  0
LINE
  5
19319
  8
1PHANTOM
 10
2811.750303979093
 20
-1674.433418038191
 30
0.0
 11
2812.500303979093
 21
-1674.583418038191
 31
0.0
  0
LINE
  5
1931A
  8
1PHANTOM
 10
2811.750303979093
 20
-1674.433418038191
 30
0.0
 11
2816.750303979093
 21
-1673.433418038191
 31
0.0
  0
LINE
  5
1931B
  8
1PHANTOM
 10
2811.750303979093
 20
-1676.433418038191
 30
0.0
 11
2816.750303979093
 21
-1675.433418038191
 31
0.0
  0
LINE
  5
1931C
  8
1PHANTOM
 10
2811.750303979093
 20
-1678.433418038191
 30
0.0
 11
2816.750303979093
 21
-1677.433418038191
 31
0.0
  0
LINE
  5
1931D
  8
1PHANTOM
 10
2816.000303979093
 20
-1673.283418038191
 30
0.0
 11
2816.750303979093
 21
-1673.433418038191
 31
0.0
  0
LINE
  5
1931E
  8
1PHANTOM
 10
2816.000303979093
 20
-1675.283418038191
 30
0.0
 11
2816.750303979093
 21
-1675.433418038191
 31
0.0
  0
LINE
  5
1931F
  8
1PHANTOM
 10
2816.000303979093
 20
-1679.283418038191
 30
0.0
 11
2816.750303979093
 21
-1679.433418038191
 31
0.0
  0
LINE
  5
19320
  8
1PHANTOM
 10
2816.000303979093
 20
-1677.283418038191
 30
0.0
 11
2816.750303979093
 21
-1677.433418038191
 31
0.0
  0
LINE
  5
19321
  8
1PHANTOM
 10
2811.750303979093
 20
-1684.433418038191
 30
0.0
 11
2812.500303979093
 21
-1684.583418038191
 31
0.0
  0
LINE
  5
19322
  8
1PHANTOM
 10
2811.750303979093
 20
-1682.433418038191
 30
0.0
 11
2812.500303979093
 21
-1682.583418038191
 31
0.0
  0
LINE
  5
19323
  8
1PHANTOM
 10
2811.750303979093
 20
-1688.433418038191
 30
0.0
 11
2812.500303979093
 21
-1688.583418038191
 31
0.0
  0
LINE
  5
19324
  8
1PHANTOM
 10
2811.750303979093
 20
-1686.433418038191
 30
0.0
 11
2812.500303979093
 21
-1686.583418038191
 31
0.0
  0
LINE
  5
19325
  8
1PHANTOM
 10
2811.750303979093
 20
-1682.433418038191
 30
0.0
 11
2816.750303979093
 21
-1681.433418038191
 31
0.0
  0
LINE
  5
19326
  8
1PHANTOM
 10
2811.750303979093
 20
-1684.433418038191
 30
0.0
 11
2816.750303979093
 21
-1683.433418038191
 31
0.0
  0
LINE
  5
19327
  8
1PHANTOM
 10
2811.750303979093
 20
-1686.433418038191
 30
0.0
 11
2816.750303979093
 21
-1685.433418038191
 31
0.0
  0
LINE
  5
19328
  8
1PHANTOM
 10
2811.750303979093
 20
-1688.433418038191
 30
0.0
 11
2816.750303979093
 21
-1687.433418038191
 31
0.0
  0
LINE
  5
19329
  8
1PHANTOM
 10
2816.000303979093
 20
-1685.283418038191
 30
0.0
 11
2816.750303979093
 21
-1685.433418038191
 31
0.0
  0
LINE
  5
1932A
  8
1PHANTOM
 10
2816.000303979093
 20
-1683.283418038191
 30
0.0
 11
2816.750303979093
 21
-1683.433418038191
 31
0.0
  0
LINE
  5
1932B
  8
1PHANTOM
 10
2816.000303979093
 20
-1689.283418038191
 30
0.0
 11
2816.750303979093
 21
-1689.433418038191
 31
0.0
  0
LINE
  5
1932C
  8
1PHANTOM
 10
2816.000303979093
 20
-1687.283418038191
 30
0.0
 11
2816.750303979093
 21
-1687.433418038191
 31
0.0
  0
LINE
  5
1932D
  8
1PHANTOM
 10
2816.16097604886
 20
-1705.551283624237
 30
0.0
 11
2816.750303979093
 21
-1705.433418038191
 31
0.0
  0
LINE
  5
1932E
  8
1PHANTOM
 10
2811.750303979093
 20
-1698.433418038191
 30
0.0
 11
2816.750303979093
 21
-1697.433418038191
 31
0.0
  0
LINE
  5
1932F
  8
1PHANTOM
 10
2811.750303979093
 20
-1690.433418038191
 30
0.0
 11
2812.500303979093
 21
-1690.583418038191
 31
0.0
  0
LINE
  5
19330
  8
1PHANTOM
 10
2811.750303979093
 20
-1692.433418038191
 30
0.0
 11
2812.500303979093
 21
-1692.583418038191
 31
0.0
  0
LINE
  5
19331
  8
1PHANTOM
 10
2811.750303979093
 20
-1694.433418038191
 30
0.0
 11
2812.500303979093
 21
-1694.583418038191
 31
0.0
  0
LINE
  5
19332
  8
1PHANTOM
 10
2811.750303979093
 20
-1696.433418038191
 30
0.0
 11
2812.500303979093
 21
-1696.583418038191
 31
0.0
  0
LINE
  5
19333
  8
1PHANTOM
 10
2811.750303979093
 20
-1692.433418038191
 30
0.0
 11
2816.750303979093
 21
-1691.433418038191
 31
0.0
  0
LINE
  5
19334
  8
1PHANTOM
 10
2811.750303979093
 20
-1694.433418038191
 30
0.0
 11
2816.750303979093
 21
-1693.433418038191
 31
0.0
  0
LINE
  5
19335
  8
1PHANTOM
 10
2811.750303979093
 20
-1696.433418038191
 30
0.0
 11
2816.750303979093
 21
-1695.433418038191
 31
0.0
  0
LINE
  5
19336
  8
1PHANTOM
 10
2816.000303979093
 20
-1691.283418038191
 30
0.0
 11
2816.750303979093
 21
-1691.433418038191
 31
0.0
  0
LINE
  5
19337
  8
1PHANTOM
 10
2816.000303979093
 20
-1693.283418038191
 30
0.0
 11
2816.750303979093
 21
-1693.433418038191
 31
0.0
  0
LINE
  5
19338
  8
1PHANTOM
 10
2816.000303979093
 20
-1695.283418038191
 30
0.0
 11
2816.750303979093
 21
-1695.433418038191
 31
0.0
  0
LINE
  5
19339
  8
1PHANTOM
 10
2816.000303979093
 20
-1697.283418038191
 30
0.0
 11
2816.750303979093
 21
-1697.433418038191
 31
0.0
  0
LINE
  5
1933A
  8
1PHANTOM
 10
2811.750303979093
 20
-1702.433418038191
 30
0.0
 11
2812.500303979093
 21
-1702.583418038191
 31
0.0
  0
LINE
  5
1933B
  8
1PHANTOM
 10
2811.750303979093
 20
-1700.433418038191
 30
0.0
 11
2812.500303979093
 21
-1700.583418038191
 31
0.0
  0
LINE
  5
1933C
  8
1PHANTOM
 10
2811.750303979093
 20
-1698.433418038191
 30
0.0
 11
2812.500303979093
 21
-1698.583418038191
 31
0.0
  0
LINE
  5
1933D
  8
1PHANTOM
 10
2811.750303979093
 20
-1704.433418038191
 30
0.0
 11
2812.500303979093
 21
-1704.583418038191
 31
0.0
  0
LINE
  5
1933E
  8
1PHANTOM
 10
2811.750303979093
 20
-1700.433418038191
 30
0.0
 11
2816.750303979093
 21
-1699.433418038191
 31
0.0
  0
LINE
  5
1933F
  8
1PHANTOM
 10
2811.750303979093
 20
-1702.433418038191
 30
0.0
 11
2816.750303979093
 21
-1701.433418038191
 31
0.0
  0
LINE
  5
19340
  8
1PHANTOM
 10
2811.750303979093
 20
-1704.433418038191
 30
0.0
 11
2816.750303979093
 21
-1703.433418038191
 31
0.0
  0
LINE
  5
19341
  8
1PHANTOM
 10
2816.000303979093
 20
-1701.283418038191
 30
0.0
 11
2816.750303979093
 21
-1701.433418038191
 31
0.0
  0
LINE
  5
19342
  8
1PHANTOM
 10
2816.000303979093
 20
-1699.283418038191
 30
0.0
 11
2816.750303979093
 21
-1699.433418038191
 31
0.0
  0
LINE
  5
19343
  8
1PHANTOM
 10
2816.000303979093
 20
-1703.283418038191
 30
0.0
 11
2816.750303979093
 21
-1703.433418038191
 31
0.0
  0
LINE
  5
19344
  8
1PHANTOM
 10
2816.000303979093
 20
-1705.283418038191
 30
0.0
 11
2816.750303979093
 21
-1705.433418038191
 31
0.0
  0
LINE
  5
1938B
  8
1PHANTOM
 10
3024.650766655021
 20
-1867.470419257315
 30
0.0
 11
3023.650766655021
 21
-1867.470419257315
 31
0.0
  0
ARC
  5
1938C
  8
1PHANTOM
 10
3030.421599988355
 20
-1862.720419257315
 30
0.0
 40
8.270833333333439
 50
144.9488632525442
 51
215.0511367474557
  0
LINE
  5
1938D
  8
1PHANTOM
 10
3024.650766655021
 20
-1857.970419257315
 30
0.0
 11
3023.650766655021
 21
-1857.970419257315
 31
0.0
  0
LINE
  5
1938E
  8
1CENTER
 10
3066.252441655021
 20
-1862.720419257315
 30
0.0
 11
3020.808336081052
 21
-1862.720419257315
 31
0.0
  0
LINE
  5
1938F
  8
1PHANTOM
 10
3023.650766655021
 20
-1867.253482436982
 30
0.0
 11
3023.650766655021
 21
-1858.21505147251
 31
0.0
  0
LINE
  5
19390
  8
1PHANTOM
 10
3040.768632241067
 20
-1860.220419257315
 30
0.0
 11
3041.768632241067
 21
-1865.220419257315
 31
0.0
  0
LINE
  5
19391
  8
1PHANTOM
 10
3058.119677741775
 20
-1860.970419257315
 30
0.0
 11
3024.650766655021
 21
-1860.970419257315
 31
0.0
  0
LINE
  5
19392
  8
1PHANTOM
 10
3064.650766655021
 20
-1862.720419257315
 30
0.0
 11
3058.119677741775
 21
-1860.970419257315
 31
0.0
  0
LINE
  5
19393
  8
1PHANTOM
 10
3064.650766655021
 20
-1862.720419257315
 30
0.0
 11
3058.119677741775
 21
-1864.470419257315
 31
0.0
  0
LINE
  5
19394
  8
1PHANTOM
 10
3058.119677741775
 20
-1864.470419257315
 30
0.0
 11
3024.650766655021
 21
-1864.470419257315
 31
0.0
  0
LINE
  5
19395
  8
1PHANTOM
 10
3058.80537885286
 20
-1860.404152316279
 30
0.0
 11
3058.65537885286
 21
-1861.154152316279
 31
0.0
  0
LINE
  5
19396
  8
1PHANTOM
 10
3058.80537885286
 20
-1860.404152316279
 30
0.0
 11
3059.684759749078
 21
-1864.80105679737
 31
0.0
  0
LINE
  5
19397
  8
1PHANTOM
 10
3063.631303578456
 20
-1863.033775944259
 30
0.0
 11
3063.481303578455
 21
-1863.783775944259
 31
0.0
  0
LINE
  5
19398
  8
1PHANTOM
 10
3063.031876160963
 20
-1861.536638856798
 30
0.0
 11
3062.881876160964
 21
-1862.286638856798
 31
0.0
  0
LINE
  5
19399
  8
1PHANTOM
 10
3063.031876160963
 20
-1861.536638856798
 30
0.0
 11
3063.481303578455
 21
-1863.783775944259
 31
0.0
  0
LINE
  5
1939A
  8
1PHANTOM
 10
3059.834759749077
 20
-1864.05105679737
 30
0.0
 11
3059.684759749078
 21
-1864.80105679737
 31
0.0
  0
LINE
  5
1939B
  8
1PHANTOM
 10
3061.733031663767
 20
-1863.542416370815
 30
0.0
 11
3061.583031663767
 21
-1864.292416370815
 31
0.0
  0
LINE
  5
1939C
  8
1PHANTOM
 10
3060.918627506911
 20
-1860.970395586539
 30
0.0
 11
3060.768627506912
 21
-1861.720395586539
 31
0.0
  0
LINE
  5
1939D
  8
1PHANTOM
 10
3060.918627506911
 20
-1860.970395586539
 30
0.0
 11
3061.583031663767
 21
-1864.292416370815
 31
0.0
  0
LINE
  5
1939E
  8
1PHANTOM
 10
3049.918632241067
 20
-1864.470419257315
 30
0.0
 11
3049.768632241067
 21
-1865.220419257315
 31
0.0
  0
LINE
  5
1939F
  8
1PHANTOM
 10
3052.768632241067
 20
-1860.220419257315
 30
0.0
 11
3052.618632241067
 21
-1860.970419257315
 31
0.0
  0
LINE
  5
193A0
  8
1PHANTOM
 10
3050.768632241067
 20
-1860.220419257315
 30
0.0
 11
3050.618632241067
 21
-1860.970419257315
 31
0.0
  0
LINE
  5
193A1
  8
1PHANTOM
 10
3050.768632241067
 20
-1860.220419257315
 30
0.0
 11
3051.768632241067
 21
-1865.220419257315
 31
0.0
  0
LINE
  5
193A2
  8
1PHANTOM
 10
3054.768632241067
 20
-1860.220419257315
 30
0.0
 11
3054.618632241067
 21
-1860.970419257315
 31
0.0
  0
LINE
  5
193A3
  8
1PHANTOM
 10
3056.768632241067
 20
-1860.220419257315
 30
0.0
 11
3056.618632241067
 21
-1860.970419257315
 31
0.0
  0
LINE
  5
193A4
  8
1PHANTOM
 10
3056.768632241067
 20
-1860.220419257315
 30
0.0
 11
3057.768632241067
 21
-1865.220419257315
 31
0.0
  0
LINE
  5
193A5
  8
1PHANTOM
 10
3054.768632241067
 20
-1860.220419257315
 30
0.0
 11
3055.768632241067
 21
-1865.220419257315
 31
0.0
  0
LINE
  5
193A6
  8
1PHANTOM
 10
3052.768632241067
 20
-1860.220419257315
 30
0.0
 11
3053.768632241067
 21
-1865.220419257315
 31
0.0
  0
LINE
  5
193A7
  8
1PHANTOM
 10
3057.918632241067
 20
-1864.470419257315
 30
0.0
 11
3057.768632241067
 21
-1865.220419257315
 31
0.0
  0
LINE
  5
193A8
  8
1PHANTOM
 10
3055.918632241067
 20
-1864.470419257315
 30
0.0
 11
3055.768632241067
 21
-1865.220419257315
 31
0.0
  0
LINE
  5
193A9
  8
1PHANTOM
 10
3051.918632241067
 20
-1864.470419257315
 30
0.0
 11
3051.768632241067
 21
-1865.220419257315
 31
0.0
  0
LINE
  5
193AA
  8
1PHANTOM
 10
3053.918632241067
 20
-1864.470419257315
 30
0.0
 11
3053.768632241067
 21
-1865.220419257315
 31
0.0
  0
LINE
  5
193AB
  8
1PHANTOM
 10
3046.768632241067
 20
-1860.220419257315
 30
0.0
 11
3046.618632241067
 21
-1860.970419257315
 31
0.0
  0
LINE
  5
193AC
  8
1PHANTOM
 10
3048.768632241067
 20
-1860.220419257315
 30
0.0
 11
3048.618632241067
 21
-1860.970419257315
 31
0.0
  0
LINE
  5
193AD
  8
1PHANTOM
 10
3042.768632241067
 20
-1860.220419257315
 30
0.0
 11
3042.618632241067
 21
-1860.970419257315
 31
0.0
  0
LINE
  5
193AE
  8
1PHANTOM
 10
3044.768632241067
 20
-1860.220419257315
 30
0.0
 11
3044.618632241067
 21
-1860.970419257315
 31
0.0
  0
LINE
  5
193AF
  8
1PHANTOM
 10
3048.768632241067
 20
-1860.220419257315
 30
0.0
 11
3049.768632241067
 21
-1865.220419257315
 31
0.0
  0
LINE
  5
193B0
  8
1PHANTOM
 10
3046.768632241067
 20
-1860.220419257315
 30
0.0
 11
3047.768632241067
 21
-1865.220419257315
 31
0.0
  0
LINE
  5
193B1
  8
1PHANTOM
 10
3044.768632241067
 20
-1860.220419257315
 30
0.0
 11
3045.768632241067
 21
-1865.220419257315
 31
0.0
  0
LINE
  5
193B2
  8
1PHANTOM
 10
3042.768632241067
 20
-1860.220419257315
 30
0.0
 11
3043.768632241067
 21
-1865.220419257315
 31
0.0
  0
LINE
  5
193B3
  8
1PHANTOM
 10
3045.918632241067
 20
-1864.470419257315
 30
0.0
 11
3045.768632241067
 21
-1865.220419257315
 31
0.0
  0
LINE
  5
193B4
  8
1PHANTOM
 10
3047.918632241067
 20
-1864.470419257315
 30
0.0
 11
3047.768632241067
 21
-1865.220419257315
 31
0.0
  0
LINE
  5
193B5
  8
1PHANTOM
 10
3041.918632241067
 20
-1864.470419257315
 30
0.0
 11
3041.768632241067
 21
-1865.220419257315
 31
0.0
  0
LINE
  5
193B6
  8
1PHANTOM
 10
3043.918632241067
 20
-1864.470419257315
 30
0.0
 11
3043.768632241067
 21
-1865.220419257315
 31
0.0
  0
LINE
  5
193B7
  8
1PHANTOM
 10
3024.768632241067
 20
-1860.220419257315
 30
0.0
 11
3025.768632241067
 21
-1865.220419257315
 31
0.0
  0
LINE
  5
193B8
  8
1PHANTOM
 10
3032.768632241067
 20
-1860.220419257315
 30
0.0
 11
3033.768632241067
 21
-1865.220419257315
 31
0.0
  0
LINE
  5
193B9
  8
1PHANTOM
 10
3040.768632241067
 20
-1860.220419257315
 30
0.0
 11
3040.618632241067
 21
-1860.970419257315
 31
0.0
  0
LINE
  5
193BA
  8
1PHANTOM
 10
3038.768632241067
 20
-1860.220419257315
 30
0.0
 11
3038.618632241067
 21
-1860.970419257315
 31
0.0
  0
LINE
  5
193BB
  8
1PHANTOM
 10
3036.768632241067
 20
-1860.220419257315
 30
0.0
 11
3036.618632241067
 21
-1860.970419257315
 31
0.0
  0
LINE
  5
193BC
  8
1PHANTOM
 10
3034.768632241067
 20
-1860.220419257315
 30
0.0
 11
3034.618632241067
 21
-1860.970419257315
 31
0.0
  0
LINE
  5
193BD
  8
1PHANTOM
 10
3038.768632241067
 20
-1860.220419257315
 30
0.0
 11
3039.768632241067
 21
-1865.220419257315
 31
0.0
  0
LINE
  5
193BE
  8
1PHANTOM
 10
3036.768632241067
 20
-1860.220419257315
 30
0.0
 11
3037.768632241067
 21
-1865.220419257315
 31
0.0
  0
LINE
  5
193BF
  8
1PHANTOM
 10
3034.768632241067
 20
-1860.220419257315
 30
0.0
 11
3035.768632241067
 21
-1865.220419257315
 31
0.0
  0
LINE
  5
193C0
  8
1PHANTOM
 10
3039.918632241067
 20
-1864.470419257315
 30
0.0
 11
3039.768632241067
 21
-1865.220419257315
 31
0.0
  0
LINE
  5
193C1
  8
1PHANTOM
 10
3037.918632241067
 20
-1864.470419257315
 30
0.0
 11
3037.768632241067
 21
-1865.220419257315
 31
0.0
  0
LINE
  5
193C2
  8
1PHANTOM
 10
3035.918632241067
 20
-1864.470419257315
 30
0.0
 11
3035.768632241067
 21
-1865.220419257315
 31
0.0
  0
LINE
  5
193C3
  8
1PHANTOM
 10
3033.918632241067
 20
-1864.470419257315
 30
0.0
 11
3033.768632241067
 21
-1865.220419257315
 31
0.0
  0
LINE
  5
193C4
  8
1PHANTOM
 10
3028.768632241067
 20
-1860.220419257315
 30
0.0
 11
3028.618632241067
 21
-1860.970419257315
 31
0.0
  0
LINE
  5
193C5
  8
1PHANTOM
 10
3030.768632241067
 20
-1860.220419257315
 30
0.0
 11
3030.618632241067
 21
-1860.970419257315
 31
0.0
  0
LINE
  5
193C6
  8
1PHANTOM
 10
3032.768632241067
 20
-1860.220419257315
 30
0.0
 11
3032.618632241067
 21
-1860.970419257315
 31
0.0
  0
LINE
  5
193C7
  8
1PHANTOM
 10
3026.768632241067
 20
-1860.220419257315
 30
0.0
 11
3026.618632241067
 21
-1860.970419257315
 31
0.0
  0
LINE
  5
193C8
  8
1PHANTOM
 10
3030.768632241067
 20
-1860.220419257315
 30
0.0
 11
3031.768632241067
 21
-1865.220419257315
 31
0.0
  0
LINE
  5
193C9
  8
1PHANTOM
 10
3028.768632241067
 20
-1860.220419257315
 30
0.0
 11
3029.768632241067
 21
-1865.220419257315
 31
0.0
  0
LINE
  5
193CA
  8
1PHANTOM
 10
3026.768632241067
 20
-1860.220419257315
 30
0.0
 11
3027.768632241067
 21
-1865.220419257315
 31
0.0
  0
LINE
  5
193CB
  8
1PHANTOM
 10
3029.918632241067
 20
-1864.470419257315
 30
0.0
 11
3029.768632241067
 21
-1865.220419257315
 31
0.0
  0
LINE
  5
193CC
  8
1PHANTOM
 10
3031.918632241067
 20
-1864.470419257315
 30
0.0
 11
3031.768632241067
 21
-1865.220419257315
 31
0.0
  0
LINE
  5
193CD
  8
1PHANTOM
 10
3027.918632241067
 20
-1864.470419257315
 30
0.0
 11
3027.768632241067
 21
-1865.220419257315
 31
0.0
  0
LINE
  5
193CE
  8
1PHANTOM
 10
3025.918632241067
 20
-1864.470419257315
 30
0.0
 11
3025.768632241067
 21
-1865.220419257315
 31
0.0
  0
LINE
  5
193CF
  8
1PHANTOM
 10
3024.768632241067
 20
-1860.220419257315
 30
0.0
 11
3024.618632241067
 21
-1860.970419257315
 31
0.0
  0
LINE
  5
193D0
  8
1PHANTOM
 10
3024.650766655021
 20
-1867.470419257315
 30
0.0
 11
3024.650766655021
 21
-1857.970419257315
 31
0.0
  0
LINE
  5
19C1F
  8
1CENTER
 10
2874.250303979093
 20
-1664.949608624237
 30
0.0
 11
2874.250303979093
 21
-1710.393714198206
 31
0.0
  0
LINE
  5
19C20
  8
1PHANTOM
 10
2871.750303979093
 20
-1690.433418038191
 30
0.0
 11
2876.750303979093
 21
-1689.433418038191
 31
0.0
  0
LINE
  5
19C21
  8
1PHANTOM
 10
2872.500303979093
 20
-1673.082372537483
 30
0.0
 11
2872.500303979092
 21
-1705.551283624237
 31
0.0
  0
LINE
  5
19C22
  8
1PHANTOM
 10
2874.250303979093
 20
-1666.551283624237
 30
0.0
 11
2872.500303979093
 21
-1673.082372537483
 31
0.0
  0
LINE
  5
19C23
  8
1PHANTOM
 10
2874.250303979093
 20
-1666.551283624237
 30
0.0
 11
2876.000303979093
 21
-1673.082372537483
 31
0.0
  0
LINE
  5
19C24
  8
1PHANTOM
 10
2876.000303979093
 20
-1673.082372537483
 30
0.0
 11
2876.000303979093
 21
-1705.551283624237
 31
0.0
  0
LINE
  5
19C25
  8
1PHANTOM
 10
2871.934037038057
 20
-1672.396671426398
 30
0.0
 11
2872.684037038057
 21
-1672.546671426398
 31
0.0
  0
LINE
  5
19C26
  8
1PHANTOM
 10
2871.934037038057
 20
-1672.396671426398
 30
0.0
 11
2876.330941519148
 21
-1671.51729053018
 31
0.0
  0
LINE
  5
19C27
  8
1PHANTOM
 10
2874.563660666036
 20
-1667.570746700802
 30
0.0
 11
2875.313660666036
 21
-1667.720746700802
 31
0.0
  0
LINE
  5
19C28
  8
1PHANTOM
 10
2873.066523578575
 20
-1668.170174118295
 30
0.0
 11
2873.816523578575
 21
-1668.320174118294
 31
0.0
  0
LINE
  5
19C29
  8
1PHANTOM
 10
2873.066523578575
 20
-1668.170174118295
 30
0.0
 11
2875.313660666036
 21
-1667.720746700802
 31
0.0
  0
LINE
  5
19C2A
  8
1PHANTOM
 10
2875.580941519148
 20
-1671.367290530181
 30
0.0
 11
2876.330941519148
 21
-1671.51729053018
 31
0.0
  0
LINE
  5
19C2B
  8
1PHANTOM
 10
2875.072301092592
 20
-1669.469018615491
 30
0.0
 11
2875.822301092592
 21
-1669.619018615491
 31
0.0
  0
LINE
  5
19C2C
  8
1PHANTOM
 10
2872.500280308316
 20
-1670.283422772347
 30
0.0
 11
2873.250280308316
 21
-1670.433422772346
 31
0.0
  0
LINE
  5
19C2D
  8
1PHANTOM
 10
2872.500280308316
 20
-1670.283422772347
 30
0.0
 11
2875.822301092592
 21
-1669.619018615491
 31
0.0
  0
LINE
  5
19C2E
  8
1PHANTOM
 10
2876.000303979093
 20
-1681.283418038191
 30
0.0
 11
2876.750303979093
 21
-1681.433418038191
 31
0.0
  0
LINE
  5
19C2F
  8
1PHANTOM
 10
2871.750303979093
 20
-1678.433418038191
 30
0.0
 11
2872.500303979093
 21
-1678.583418038191
 31
0.0
  0
LINE
  5
19C30
  8
1PHANTOM
 10
2871.750303979093
 20
-1680.433418038191
 30
0.0
 11
2872.500303979093
 21
-1680.583418038191
 31
0.0
  0
LINE
  5
19C31
  8
1PHANTOM
 10
2871.750303979093
 20
-1680.433418038191
 30
0.0
 11
2876.750303979093
 21
-1679.433418038191
 31
0.0
  0
LINE
  5
19C32
  8
1PHANTOM
 10
2871.750303979093
 20
-1676.433418038191
 30
0.0
 11
2872.500303979093
 21
-1676.583418038191
 31
0.0
  0
LINE
  5
19C33
  8
1PHANTOM
 10
2871.750303979093
 20
-1674.433418038191
 30
0.0
 11
2872.500303979093
 21
-1674.583418038191
 31
0.0
  0
LINE
  5
19C34
  8
1PHANTOM
 10
2871.750303979093
 20
-1674.433418038191
 30
0.0
 11
2876.750303979093
 21
-1673.433418038191
 31
0.0
  0
LINE
  5
19C35
  8
1PHANTOM
 10
2871.750303979093
 20
-1676.433418038191
 30
0.0
 11
2876.750303979093
 21
-1675.433418038191
 31
0.0
  0
LINE
  5
19C36
  8
1PHANTOM
 10
2871.750303979093
 20
-1678.433418038191
 30
0.0
 11
2876.750303979093
 21
-1677.433418038191
 31
0.0
  0
LINE
  5
19C37
  8
1PHANTOM
 10
2876.000303979093
 20
-1673.283418038191
 30
0.0
 11
2876.750303979093
 21
-1673.433418038191
 31
0.0
  0
LINE
  5
19C38
  8
1PHANTOM
 10
2876.000303979093
 20
-1675.283418038191
 30
0.0
 11
2876.750303979093
 21
-1675.433418038191
 31
0.0
  0
LINE
  5
19C39
  8
1PHANTOM
 10
2876.000303979093
 20
-1679.283418038191
 30
0.0
 11
2876.750303979093
 21
-1679.433418038191
 31
0.0
  0
LINE
  5
19C3A
  8
1PHANTOM
 10
2876.000303979093
 20
-1677.283418038191
 30
0.0
 11
2876.750303979093
 21
-1677.433418038191
 31
0.0
  0
LINE
  5
19C3B
  8
1PHANTOM
 10
2871.750303979093
 20
-1684.433418038191
 30
0.0
 11
2872.500303979093
 21
-1684.583418038191
 31
0.0
  0
LINE
  5
19C3C
  8
1PHANTOM
 10
2871.750303979093
 20
-1682.433418038191
 30
0.0
 11
2872.500303979093
 21
-1682.583418038191
 31
0.0
  0
LINE
  5
19C3D
  8
1PHANTOM
 10
2871.750303979093
 20
-1688.433418038191
 30
0.0
 11
2872.500303979093
 21
-1688.583418038191
 31
0.0
  0
LINE
  5
19C3E
  8
1PHANTOM
 10
2871.750303979093
 20
-1686.433418038191
 30
0.0
 11
2872.500303979093
 21
-1686.583418038191
 31
0.0
  0
LINE
  5
19C3F
  8
1PHANTOM
 10
2871.750303979093
 20
-1682.433418038191
 30
0.0
 11
2876.750303979093
 21
-1681.433418038191
 31
0.0
  0
LINE
  5
19C40
  8
1PHANTOM
 10
2871.750303979093
 20
-1684.433418038191
 30
0.0
 11
2876.750303979093
 21
-1683.433418038191
 31
0.0
  0
LINE
  5
19C41
  8
1PHANTOM
 10
2871.750303979093
 20
-1686.433418038191
 30
0.0
 11
2876.750303979093
 21
-1685.433418038191
 31
0.0
  0
LINE
  5
19C42
  8
1PHANTOM
 10
2871.750303979093
 20
-1688.433418038191
 30
0.0
 11
2876.750303979093
 21
-1687.433418038191
 31
0.0
  0
LINE
  5
19C43
  8
1PHANTOM
 10
2876.000303979093
 20
-1685.283418038191
 30
0.0
 11
2876.750303979093
 21
-1685.433418038191
 31
0.0
  0
LINE
  5
19C44
  8
1PHANTOM
 10
2876.000303979093
 20
-1683.283418038191
 30
0.0
 11
2876.750303979093
 21
-1683.433418038191
 31
0.0
  0
LINE
  5
19C45
  8
1PHANTOM
 10
2876.000303979093
 20
-1689.283418038191
 30
0.0
 11
2876.750303979093
 21
-1689.433418038191
 31
0.0
  0
LINE
  5
19C46
  8
1PHANTOM
 10
2876.000303979093
 20
-1687.283418038191
 30
0.0
 11
2876.750303979093
 21
-1687.433418038191
 31
0.0
  0
LINE
  5
19C47
  8
1PHANTOM
 10
2876.16097604886
 20
-1705.551283624237
 30
0.0
 11
2876.750303979093
 21
-1705.433418038191
 31
0.0
  0
LINE
  5
19C48
  8
1PHANTOM
 10
2871.750303979093
 20
-1698.433418038191
 30
0.0
 11
2876.750303979093
 21
-1697.433418038191
 31
0.0
  0
LINE
  5
19C49
  8
1PHANTOM
 10
2871.750303979093
 20
-1690.433418038191
 30
0.0
 11
2872.500303979093
 21
-1690.583418038191
 31
0.0
  0
LINE
  5
19C4A
  8
1PHANTOM
 10
2871.750303979093
 20
-1692.433418038191
 30
0.0
 11
2872.500303979093
 21
-1692.583418038191
 31
0.0
  0
LINE
  5
19C4B
  8
1PHANTOM
 10
2871.750303979093
 20
-1694.433418038191
 30
0.0
 11
2872.500303979093
 21
-1694.583418038191
 31
0.0
  0
LINE
  5
19C4C
  8
1PHANTOM
 10
2871.750303979093
 20
-1696.433418038191
 30
0.0
 11
2872.500303979093
 21
-1696.583418038191
 31
0.0
  0
LINE
  5
19C4D
  8
1PHANTOM
 10
2871.750303979093
 20
-1692.433418038191
 30
0.0
 11
2876.750303979093
 21
-1691.433418038191
 31
0.0
  0
LINE
  5
19C4E
  8
1PHANTOM
 10
2871.750303979093
 20
-1694.433418038191
 30
0.0
 11
2876.750303979093
 21
-1693.433418038191
 31
0.0
  0
LINE
  5
19C4F
  8
1PHANTOM
 10
2871.750303979093
 20
-1696.433418038191
 30
0.0
 11
2876.750303979093
 21
-1695.433418038191
 31
0.0
  0
LINE
  5
19C50
  8
1PHANTOM
 10
2876.000303979093
 20
-1691.283418038191
 30
0.0
 11
2876.750303979093
 21
-1691.433418038191
 31
0.0
  0
LINE
  5
19C51
  8
1PHANTOM
 10
2876.000303979093
 20
-1693.283418038191
 30
0.0
 11
2876.750303979093
 21
-1693.433418038191
 31
0.0
  0
LINE
  5
19C52
  8
1PHANTOM
 10
2876.000303979093
 20
-1695.283418038191
 30
0.0
 11
2876.750303979093
 21
-1695.433418038191
 31
0.0
  0
LINE
  5
19C53
  8
1PHANTOM
 10
2876.000303979093
 20
-1697.283418038191
 30
0.0
 11
2876.750303979093
 21
-1697.433418038191
 31
0.0
  0
LINE
  5
19C54
  8
1PHANTOM
 10
2871.750303979093
 20
-1702.433418038191
 30
0.0
 11
2872.500303979093
 21
-1702.583418038191
 31
0.0
  0
LINE
  5
19C55
  8
1PHANTOM
 10
2871.750303979093
 20
-1700.433418038191
 30
0.0
 11
2872.500303979093
 21
-1700.583418038191
 31
0.0
  0
LINE
  5
19C56
  8
1PHANTOM
 10
2871.750303979093
 20
-1698.433418038191
 30
0.0
 11
2872.500303979093
 21
-1698.583418038191
 31
0.0
  0
LINE
  5
19C57
  8
1PHANTOM
 10
2871.750303979093
 20
-1704.433418038191
 30
0.0
 11
2872.500303979093
 21
-1704.583418038191
 31
0.0
  0
LINE
  5
19C58
  8
1PHANTOM
 10
2871.750303979093
 20
-1700.433418038191
 30
0.0
 11
2876.750303979093
 21
-1699.433418038191
 31
0.0
  0
LINE
  5
19C59
  8
1PHANTOM
 10
2871.750303979093
 20
-1702.433418038191
 30
0.0
 11
2876.750303979093
 21
-1701.433418038191
 31
0.0
  0
LINE
  5
19C5A
  8
1PHANTOM
 10
2871.750303979093
 20
-1704.433418038191
 30
0.0
 11
2876.750303979093
 21
-1703.433418038191
 31
0.0
  0
LINE
  5
19C5B
  8
1PHANTOM
 10
2876.000303979093
 20
-1701.283418038191
 30
0.0
 11
2876.750303979093
 21
-1701.433418038191
 31
0.0
  0
LINE
  5
19C5C
  8
1PHANTOM
 10
2876.000303979093
 20
-1699.283418038191
 30
0.0
 11
2876.750303979093
 21
-1699.433418038191
 31
0.0
  0
LINE
  5
19C5D
  8
1PHANTOM
 10
2876.000303979093
 20
-1703.283418038191
 30
0.0
 11
2876.750303979093
 21
-1703.433418038191
 31
0.0
  0
LINE
  5
19C5E
  8
1PHANTOM
 10
2876.000303979093
 20
-1705.283418038191
 30
0.0
 11
2876.750303979093
 21
-1705.433418038191
 31
0.0
  0
LINE
  5
19E69
  8
01
 10
2776.000303979094
 20
-1753.551283624237
 30
0.0
 11
2776.000303979094
 21
-1711.051283624237
 31
0.0
  0
ARC
  5
19E6A
  8
01
 10
2777.500303979094
 20
-1753.551283624237
 30
0.0
 40
1.5
 50
180.0
 51
270.0
  0
ARC
  5
19E6B
  8
01
 10
2777.000303979094
 20
-1711.051283624237
 30
0.0
 40
1.0
 50
90.0
 51
180.0
  0
LINE
  5
19E6C
  8
01
 10
2778.000303979094
 20
-1752.751283624237
 30
0.0
 11
2778.000303979094
 21
-1712.351283624238
 31
0.0
  0
ARC
  5
19E6D
  8
01
 10
2778.300303979093
 20
-1752.751283624237
 30
0.0
 40
0.3
 50
180.0
 51
270.0
  0
LINE
  5
19E6E
  8
01
 10
2777.000303979094
 20
-1710.051283624237
 30
0.0
 11
2798.950303979094
 21
-1710.051283624237
 31
0.0
  0
LINE
  5
19E6F
  8
01
 10
2806.250303979092
 20
-1707.051283624237
 30
0.0
 11
2799.550303979093
 21
-1707.051283624237
 31
0.0
  0
ARC
  5
19E70
  8
01
 10
2799.550303979093
 20
-1707.351283624238
 30
0.0
 40
0.3
 50
90.0
 51
180.0
  0
LINE
  5
19E71
  8
01
 10
2799.250303979094
 20
-1707.351283624238
 30
0.0
 11
2799.250303979094
 21
-1709.751283624237
 31
0.0
  0
ARC
  5
19E72
  8
01
 10
2798.950303979094
 20
-1709.751283624237
 30
0.0
 40
0.3
 50
270.0
 51
0.0
  0
LINE
  5
19E73
  8
01
 10
2806.250303979092
 20
-1708.551283624237
 30
0.0
 11
2806.250303979092
 21
-1707.051283624237
 31
0.0
  0
LINE
  5
19E74
  8
01
 10
2802.250303979094
 20
-1710.551283624237
 30
0.0
 11
2802.250303979094
 21
-1708.551283624237
 31
0.0
  0
LINE
  5
19E76
  8
01
 10
2802.250303979094
 20
-1708.551283624237
 30
0.0
 11
2806.250303979092
 21
-1708.551283624237
 31
0.0
  0
ARC
  5
19E7D
  8
01
 10
2778.300303979093
 20
-1712.351283624238
 30
0.0
 40
0.3
 50
90.0
 51
180.0
  0
LINE
  5
19E9C
  8
01
 10
2776.000303979094
 20
-1937.720419257317
 30
0.0
 11
2912.500303979094
 21
-1937.720419257317
 31
0.0
  0
LINE
  5
19E9D
  8
01
 10
2776.000303979094
 20
-1787.720419257317
 30
0.0
 11
2912.500303979094
 21
-1787.720419257319
 31
0.0
  0
LINE
  5
19E9F
  8
01
 10
2776.000303979094
 20
-1787.720419257318
 30
0.0
 11
2776.000303979094
 21
-1937.720419257318
 31
0.0
  0
LINE
  5
19EA0
  8
1PHANTOM
 10
2778.000303979094
 20
-1787.720419257318
 30
0.0
 11
2778.000303979094
 21
-1937.720419257318
 31
0.0
  0
LINE
  5
19EA1
  8
01
 10
2912.500303979094
 20
-1787.720419257317
 30
0.0
 11
2912.500303979094
 21
-1937.720419257317
 31
0.0
  0
LINE
  5
19EA2
  8
1PHANTOM
 10
2910.500303979094
 20
-1787.720419257317
 30
0.0
 11
2910.500303979094
 21
-1937.720419257317
 31
0.0
  0
LINE
  5
19EA7
  8
01
 10
3025.150766655129
 20
-1787.720419257317
 30
0.0
 11
3025.150766655129
 21
-1937.720419257317
 31
0.0
  0
LINE
  5
19EAB
  8
01
 10
2977.150766655129
 20
-1787.720419257317
 30
0.0
 11
2977.150766655127
 21
-1937.720419257318
 31
0.0
  0
LINE
  5
19EAC
  8
1PHANTOM
 10
2979.150766655131
 20
-1787.720419257317
 30
0.0
 11
2979.150766655131
 21
-1937.720419257318
 31
0.0
  0
LINE
  5
19EAD
  8
1PHANTOM
 10
3020.150766655129
 20
-1787.720419257317
 30
0.0
 11
3020.150766655129
 21
-1937.720419257317
 31
0.0
  0
LINE
  5
19EAE
  8
01
 10
2977.150766655127
 20
-1937.720419257318
 30
0.0
 11
3026.650766655128
 21
-1937.720419257317
 31
0.0
  0
LINE
  5
19EAF
  8
01
 10
2977.150766655127
 20
-1787.720419257317
 30
0.0
 11
3026.650766655128
 21
-1787.720419257317
 31
0.0
  0
LINE
  5
1A0DD
  8
01
 10
2806.650303979092
 20
-1708.851283624237
 30
0.0
 11
2806.650303979092
 21
-1705.551283624237
 31
0.0
  0
LINE
  5
1A0DE
  8
01
 10
2802.650303979094
 20
-1710.551283624237
 30
0.0
 11
2802.650303979094
 21
-1708.851283624237
 31
0.0
  0
LINE
  5
1A0DF
  8
01
 10
2802.650303979094
 20
-1708.851283624237
 30
0.0
 11
2806.650303979092
 21
-1708.851283624237
 31
0.0
  0
CIRCLE
  5
1A2E7
  8
1PHANTOM
 10
2844.250303979094
 20
-1930.220419257317
 30
0.0
 40
7.5
  0
LINE
  5
1A2F3
  8
01
 10
2837.050303979093
 20
-1745.051283624238
 30
0.0
 11
2851.450303979094
 21
-1745.051283624238
 31
0.0
  0
ARC
  5
1A2F4
  8
01
 10
2837.050303979093
 20
-1744.751283624238
 30
0.0
 40
0.3
 50
180.0
 51
270.0
  0
LINE
  5
1A2F6
  8
01
 10
2839.250303979094
 20
-1712.051283624237
 30
0.0
 11
2839.250303979094
 21
-1714.051283624237
 31
0.0
  0
LINE
  5
1A2F7
  8
01
 10
2851.750303979094
 20
-1714.051283624237
 30
0.0
 11
2851.750303979094
 21
-1744.751283624238
 31
0.0
  0
ARC
  5
1A2F8
  8
01
 10
2851.450303979094
 20
-1744.751283624238
 30
0.0
 40
0.3
 50
270.0
 51
0.0
  0
LINE
  5
1A2F9
  8
01
 10
2836.750303979094
 20
-1714.051283624237
 30
0.0
 11
2836.750303979094
 21
-1744.751283624238
 31
0.0
  0
LINE
  5
1A2FA
  8
01
 10
2839.250303979094
 20
-1712.051283624237
 30
0.0
 11
2849.250303979094
 21
-1712.051283624237
 31
0.0
  0
LINE
  5
1A2FB
  8
01
 10
2836.750303979094
 20
-1714.051283624237
 30
0.0
 11
2839.250303979094
 21
-1714.051283624237
 31
0.0
  0
LINE
  5
1A304
  8
01
 10
2849.250303979094
 20
-1712.051283624237
 30
0.0
 11
2849.250303979094
 21
-1714.051283624237
 31
0.0
  0
LINE
  5
1A305
  8
01
 10
2851.750303979094
 20
-1714.051283624237
 30
0.0
 11
2849.250303979094
 21
-1714.051283624237
 31
0.0
  0
LINE
  5
1A37F
  8
01
 10
2802.250303979094
 20
-1710.551283624237
 30
0.0
 11
2886.250303979094
 21
-1710.551283624237
 31
0.0
  0
LINE
  5
1A380
  8
01
 10
2882.250303979094
 20
-1708.551283624237
 30
0.0
 11
2886.250303979094
 21
-1708.551283624237
 31
0.0
  0
LINE
  5
1A381
  8
01
 10
2882.250303979094
 20
-1707.051283624237
 30
0.0
 11
2888.950303979094
 21
-1707.051283624237
 31
0.0
  0
ARC
  5
1A382
  8
01
 10
2888.950303979094
 20
-1707.351283624238
 30
0.0
 40
0.3
 50
0.0
 51
90.0
  0
LINE
  5
1A383
  8
01
 10
2889.550303979093
 20
-1710.051283624237
 30
0.0
 11
2911.500303979094
 21
-1710.051283624237
 31
0.0
  0
ARC
  5
1A384
  8
01
 10
2911.500303979094
 20
-1711.051283624237
 30
0.0
 40
1.0
 50
0.0
 51
90.0
  0
LINE
  5
1A385
  8
01
 10
2778.300303979093
 20
-1712.051283624237
 30
0.0
 11
2910.200303979094
 21
-1712.051283624237
 31
0.0
  0
LINE
  5
1A386
  8
01
 10
2777.500303979094
 20
-1755.051283624237
 30
0.0
 11
2911.000303979094
 21
-1755.051283624238
 31
0.0
  0
ARC
  5
1A387
  8
01
 10
2911.000303979094
 20
-1753.551283624238
 30
0.0
 40
1.5
 50
270.0
 51
0.0
  0
LINE
  5
1A388
  8
01
 10
2778.300303979093
 20
-1753.051283624237
 30
0.0
 11
2910.200303979094
 21
-1753.051283624238
 31
0.0
  0
ARC
  5
1A389
  8
01
 10
2910.200303979094
 20
-1752.751283624238
 30
0.0
 40
0.3
 50
270.0
 51
0.0
  0
LINE
  5
1A38A
  8
01
 10
2912.500303979094
 20
-1753.551283624238
 30
0.0
 11
2912.500303979094
 21
-1711.051283624237
 31
0.0
  0
LINE
  5
1A38B
  8
01
 10
2910.500303979094
 20
-1752.751283624238
 30
0.0
 11
2910.500303979094
 21
-1712.351283624238
 31
0.0
  0
ARC
  5
1A38C
  8
01
 10
2910.200303979094
 20
-1712.351283624238
 30
0.0
 40
0.3
 50
0.0
 51
90.0
  0
LINE
  5
1A38D
  8
01
 10
2889.250303979094
 20
-1707.351283624238
 30
0.0
 11
2889.250303979094
 21
-1709.751283624237
 31
0.0
  0
ARC
  5
1A38E
  8
01
 10
2889.550303979093
 20
-1709.751283624237
 30
0.0
 40
0.3
 50
180.0
 51
270.0
  0
LINE
  5
1A38F
  8
01
 10
2882.250303979094
 20
-1708.551283624237
 30
0.0
 11
2882.250303979094
 21
-1707.051283624237
 31
0.0
  0
LINE
  5
1A390
  8
01
 10
2886.250303979094
 20
-1710.551283624237
 30
0.0
 11
2886.250303979094
 21
-1708.551283624237
 31
0.0
  0
LINE
  5
1A391
  8
01
 10
2881.850303979094
 20
-1708.851283624237
 30
0.0
 11
2885.850303979094
 21
-1708.851283624237
 31
0.0
  0
LINE
  5
1A392
  8
01
 10
2881.850303979094
 20
-1708.851283624237
 30
0.0
 11
2881.850303979094
 21
-1705.551283624237
 31
0.0
  0
LINE
  5
1A393
  8
01
 10
2885.850303979094
 20
-1710.551283624237
 30
0.0
 11
2885.850303979094
 21
-1708.851283624237
 31
0.0
  0
LINE
  5
1A394
  8
01
 10
2806.650303979092
 20
-1705.551283624237
 30
0.0
 11
2881.850303979094
 21
-1705.551283624237
 31
0.0
  0
LINE
  5
1A395
  8
01
 10
2802.650303979094
 20
-1710.551283624237
 30
0.0
 11
2885.850303979094
 21
-1710.551283624237
 31
0.0
  0
LINE
  5
1A398
  8
01
 10
3022.150766655128
 20
-1787.720419257316
 30
0.0
 11
3022.150766655129
 21
-1937.720419257317
 31
0.0
  0
LINE
  5
1A399
  8
01
 10
3026.650766655128
 20
-1787.720419257317
 30
0.0
 11
3026.650766655128
 21
-1937.720419257317
 31
0.0
  0
LINE
  5
1A39A
  8
1PHANTOM
 10
2987.150766655128
 20
-1923.020419257315
 30
0.0
 11
2987.150766655128
 21
-1937.420419257316
 31
0.0
  0
ARC
  5
1A39B
  8
1PHANTOM
 10
2987.450766655129
 20
-1923.020419257315
 30
0.0
 40
0.3
 50
90.0
 51
180.0
  0
LINE
  5
1A39C
  8
1PHANTOM
 10
3020.150766655129
 20
-1937.720419257316
 30
0.0
 11
2987.450766655129
 21
-1937.720419257316
 31
0.0
  0
ARC
  5
1A39D
  8
1PHANTOM
 10
2987.450766655129
 20
-1937.420419257316
 30
0.0
 40
0.3
 50
180.0
 51
270.0
  0
LINE
  5
1A39E
  8
1PHANTOM
 10
3020.150766655129
 20
-1922.720419257316
 30
0.0
 11
2987.450766655129
 21
-1922.720419257316
 31
0.0
  0
LINE
  5
1A39F
  8
1PHANTOM
 10
3020.150766655129
 20
-1922.720419257316
 30
0.0
 11
3020.150766655129
 21
-1937.720419257316
 31
0.0
  0
LINE
  5
1A3A0
  8
1PHANTOM
 10
3018.150766655129
 20
-1924.63024931357
 30
0.0
 11
3020.150766655129
 21
-1924.63024931357
 31
0.0
  0
LINE
  5
1A3A1
  8
1PHANTOM
 10
3018.150766655129
 20
-1935.810589201066
 30
0.0
 11
3020.150766655129
 21
-1935.810589201066
 31
0.0
  0
LINE
  5
1A3A2
  8
1PHANTOM
 10
3018.150766655129
 20
-1935.810589201066
 30
0.0
 11
3018.150766655129
 21
-1924.63024931357
 31
0.0
  0
CIRCLE
  5
1A403
  8
1PHANTOM
 10
2814.250303979094
 20
-1862.720419257317
 30
0.0
 40
5.0
  0
CIRCLE
  5
1A404
  8
1PHANTOM
 10
2814.250303979094
 20
-1862.720419257317
 30
0.0
 40
3.0
  0
LINE
  5
1A405
  8
1CENTER
 10
2807.750303979092
 20
-1862.720419257315
 30
0.0
 11
2820.750303979092
 21
-1862.720419257315
 31
0.0
  0
LINE
  5
1A406
  8
1CENTER
 10
2814.250303979092
 20
-1869.220419257315
 30
0.0
 11
2814.250303979092
 21
-1856.220419257315
 31
0.0
  0
CIRCLE
  5
1A407
  8
1PHANTOM
 10
2874.250303979094
 20
-1862.720419257317
 30
0.0
 40
5.0
  0
CIRCLE
  5
1A408
  8
1PHANTOM
 10
2874.250303979094
 20
-1862.720419257317
 30
0.0
 40
3.0
  0
LINE
  5
1A409
  8
1CENTER
 10
2880.750303979095
 20
-1862.720419257315
 30
0.0
 11
2867.750303979095
 21
-1862.720419257315
 31
0.0
  0
LINE
  5
1A40A
  8
1CENTER
 10
2874.250303979095
 20
-1869.220419257315
 30
0.0
 11
2874.250303979095
 21
-1856.220419257315
 31
0.0
  0
LINE
  5
1A438
  8
01
 10
3041.650766655128
 20
-1780.269734835379
 30
0.0
 11
3041.650766655128
 21
-1945.171103679251
 31
0.0
  0
LINE
  5
1A439
  8
01
 10
3026.650766655128
 20
-1780.269734835379
 30
0.0
 11
3026.650766655128
 21
-1945.171103679251
 31
0.0
  0
SOLID
  5
1A6F9
  8
1DIM
 10
2906.816942741537
 20
-1794.682647157935
 30
0.0
 11
2905.217113923247
 21
-1795.928303155103
 31
0.0
 12
2906.326468968494
 22
-1794.231116514012
 32
0.0
 13
2906.326468968494
 23
-1794.231116514012
 33
0.0
  0
LINE
  5
1A6FA
  8
1DIM
 10
2906.571705855016
 20
-1794.456881835974
 30
0.0
 11
2928.406346741689
 21
-1770.739070336662
 31
0.0
  0
LINE
  5
1A6FB
  8
1DIM
 10
2928.406346741689
 20
-1770.739070336662
 30
0.0
 11
2963.889680075022
 21
-1770.739070336662
 31
0.0
  0
TEXT
  5
1A6FC
  8
1CENTER
  6
CONTINUOUS
 10
2930.873013408355
 20
-1764.205737003329
 30
0.0
 40
3.5
  1
材質：アルミ
  0
TEXT
  5
1A6FD
  8
1CENTER
  6
CONTINUOUS
 10
2930.989680075022
 20
-1770.039070336662
 30
0.0
 40
3.5
  1
仕上げ：各種仕上
  0
LINE
  5
1A6FE
  8
1DIM
 10
2912.500303979094
 20
-1787.720419257318
 30
0.0
 11
2912.500303979094
 21
-1771.64775738266
 31
0.0
  0
LINE
  5
1A6FF
  8
1DIM
 10
2776.000303979094
 20
-1787.720419257318
 30
0.0
 11
2776.000303979094
 21
-1771.64775738266
 31
0.0
  0
LINE
  5
1A700
  8
1DIM
 10
2910.500303979094
 20
-1772.64775738266
 30
0.0
 11
2778.000303979094
 21
-1772.64775738266
 31
0.0
  0
LINE
  5
1A704
  8
1DIM
 10
2814.250303979092
 20
-1856.220419257315
 30
0.0
 11
2814.250303979092
 21
-1780.766338767492
 31
0.0
  0
LINE
  5
1A705
  8
1DIM
 10
2874.250303979095
 20
-1856.220419257315
 30
0.0
 11
2874.250303979095
 21
-1780.766338767492
 31
0.0
  0
LINE
  5
1A706
  8
1DIM
 10
2816.250303979092
 20
-1781.766338767492
 30
0.0
 11
2872.250303979095
 21
-1781.766338767492
 31
0.0
  0
LINE
  5
1A70A
  8
1DIM
 10
2977.150766655127
 20
-1787.720419257317
 30
0.0
 11
2977.150766655127
 21
-1780.766338767492
 31
0.0
  0
LINE
  5
1A70B
  8
1DIM
 10
3026.650766655128
 20
-1787.720419257317
 30
0.0
 11
3026.650766655128
 21
-1780.766338767492
 31
0.0
  0
LINE
  5
1A70C
  8
1DIM
 10
2979.150766655127
 20
-1781.766338767492
 30
0.0
 11
3024.650766655128
 21
-1781.766338767492
 31
0.0
  0
LINE
  5
1A710
  8
1DIM
 10
2910.200303979094
 20
-1753.051283624238
 30
0.0
 11
2927.681644282753
 21
-1753.051283624238
 31
0.0
  0
LINE
  5
1A711
  8
1DIM
 10
2910.200303979094
 20
-1712.051283624237
 30
0.0
 11
2927.681644282753
 21
-1712.051283624237
 31
0.0
  0
LINE
  5
1A712
  8
1DIM
 10
2926.681644282753
 20
-1751.051283624238
 30
0.0
 11
2926.681644282753
 21
-1714.051283624237
 31
0.0
  0
LINE
  5
1A716
  8
1DIM
 10
2912.500303979094
 20
-1937.720419257317
 30
0.0
 11
2937.765658185867
 21
-1937.720419257317
 31
0.0
  0
LINE
  5
1A717
  8
1DIM
 10
2912.500303979094
 20
-1787.720419257319
 30
0.0
 11
2937.765658185867
 21
-1787.720419257319
 31
0.0
  0
LINE
  5
1A718
  8
1DIM
 10
2936.765658185867
 20
-1935.720419257317
 30
0.0
 11
2936.765658185867
 21
-1789.720419257319
 31
0.0
  0
LINE
  5
1A71C
  8
1DIM
 10
2912.500303979094
 20
-1937.720419257317
 30
0.0
 11
2925.174713290711
 21
-1937.720419257317
 31
0.0
  0
LINE
  5
1A71D
  8
1DIM
 10
2880.750303979095
 20
-1862.720419257315
 30
0.0
 11
2925.174713290711
 21
-1862.720419257315
 31
0.0
  0
LINE
  5
1A71E
  8
1DIM
 10
2924.174713290711
 20
-1935.720419257317
 30
0.0
 11
2924.174713290711
 21
-1864.720419257315
 31
0.0
  0
LINE
  5
1A722
  8
0
  6
BYBLOCK
 10
2910.500303979094
 20
-1772.11185900266
 30
0.0
 11
2912.500303979094
 21
-1772.64775738266
 31
0.0
  0
LINE
  5
1A723
  8
0
  6
BYBLOCK
 10
2912.500303979094
 20
-1772.64775738266
 30
0.0
 11
2910.500303979094
 21
-1773.18365576266
 31
0.0
  0
LINE
  5
1A724
  8
0
  6
BYBLOCK
 10
2912.500303979094
 20
-1772.64775738266
 30
0.0
 11
2910.500303979094
 21
-1772.64775738266
 31
0.0
  0
LINE
  5
1A725
  8
0
  6
BYBLOCK
 10
2778.000303979094
 20
-1773.18365576266
 30
0.0
 11
2776.000303979094
 21
-1772.64775738266
 31
0.0
  0
LINE
  5
1A726
  8
0
  6
BYBLOCK
 10
2776.000303979094
 20
-1772.64775738266
 30
0.0
 11
2778.000303979094
 21
-1772.11185900266
 31
0.0
  0
LINE
  5
1A727
  8
0
  6
BYBLOCK
 10
2776.000303979094
 20
-1772.64775738266
 30
0.0
 11
2778.000303979094
 21
-1772.64775738266
 31
0.0
  0
TEXT
  5
1A728
  8
1DIM
  6
CONTINUOUS
 10
2837.821484534649
 20
-1771.94775738266
 30
0.0
 40
3.5
  1
136.5
  0
LINE
  5
1A729
  8
0
  6
BYBLOCK
 10
2816.250303979092
 20
-1782.302237147491
 30
0.0
 11
2814.250303979092
 21
-1781.766338767492
 31
0.0
  0
LINE
  5
1A72A
  8
0
  6
BYBLOCK
 10
2814.250303979092
 20
-1781.766338767492
 30
0.0
 11
2816.250303979092
 21
-1781.230440387492
 31
0.0
  0
LINE
  5
1A72B
  8
0
  6
BYBLOCK
 10
2814.250303979092
 20
-1781.766338767492
 30
0.0
 11
2816.250303979092
 21
-1781.766338767492
 31
0.0
  0
LINE
  5
1A72C
  8
0
  6
BYBLOCK
 10
2872.250303979095
 20
-1781.230440387492
 30
0.0
 11
2874.250303979095
 21
-1781.766338767492
 31
0.0
  0
LINE
  5
1A72D
  8
0
  6
BYBLOCK
 10
2874.250303979095
 20
-1781.766338767492
 30
0.0
 11
2872.250303979095
 21
-1782.302237147491
 31
0.0
  0
LINE
  5
1A72E
  8
0
  6
BYBLOCK
 10
2874.250303979095
 20
-1781.766338767492
 30
0.0
 11
2872.250303979095
 21
-1781.766338767492
 31
0.0
  0
TEXT
  5
1A72F
  8
1DIM
  6
CONTINUOUS
 10
2838.040234534649
 20
-1781.066338767492
 30
0.0
 40
3.5
  1
P=60
  0
LINE
  5
1A730
  8
0
  6
BYBLOCK
 10
2979.150766655127
 20
-1782.302237147491
 30
0.0
 11
2977.150766655127
 21
-1781.766338767492
 31
0.0
  0
LINE
  5
1A731
  8
0
  6
BYBLOCK
 10
2977.150766655127
 20
-1781.766338767492
 30
0.0
 11
2979.150766655127
 21
-1781.230440387492
 31
0.0
  0
LINE
  5
1A732
  8
0
  6
BYBLOCK
 10
2977.150766655127
 20
-1781.766338767492
 30
0.0
 11
2979.150766655127
 21
-1781.766338767492
 31
0.0
  0
LINE
  5
1A733
  8
0
  6
BYBLOCK
 10
3024.650766655128
 20
-1781.230440387492
 30
0.0
 11
3026.650766655128
 21
-1781.766338767492
 31
0.0
  0
LINE
  5
1A734
  8
0
  6
BYBLOCK
 10
3026.650766655128
 20
-1781.766338767492
 30
0.0
 11
3024.650766655128
 21
-1782.302237147491
 31
0.0
  0
LINE
  5
1A735
  8
0
  6
BYBLOCK
 10
3026.650766655128
 20
-1781.766338767492
 30
0.0
 11
3024.650766655128
 21
-1781.766338767492
 31
0.0
  0
TEXT
  5
1A736
  8
1DIM
  6
CONTINUOUS
 10
2996.649956469942
 20
-1781.066338767492
 30
0.0
 40
3.5
  1
49.5
  0
LINE
  5
1A737
  8
0
  6
BYBLOCK
 10
2927.217542662753
 20
-1751.051283624238
 30
0.0
 11
2926.681644282753
 21
-1753.051283624238
 31
0.0
  0
LINE
  5
1A738
  8
0
  6
BYBLOCK
 10
2926.681644282753
 20
-1753.051283624238
 30
0.0
 11
2926.145745902753
 21
-1751.051283624238
 31
0.0
  0
LINE
  5
1A739
  8
0
  6
BYBLOCK
 10
2926.681644282753
 20
-1753.051283624238
 30
0.0
 11
2926.681644282753
 21
-1751.051283624238
 31
0.0
  0
LINE
  5
1A73A
  8
0
  6
BYBLOCK
 10
2926.145745902753
 20
-1714.051283624237
 30
0.0
 11
2926.681644282753
 21
-1712.051283624237
 31
0.0
  0
LINE
  5
1A73B
  8
0
  6
BYBLOCK
 10
2926.681644282753
 20
-1712.051283624237
 30
0.0
 11
2927.217542662753
 21
-1714.051283624237
 31
0.0
  0
LINE
  5
1A73C
  8
0
  6
BYBLOCK
 10
2926.681644282753
 20
-1712.051283624237
 30
0.0
 11
2926.681644282753
 21
-1714.051283624237
 31
0.0
  0
TEXT
  5
1A73D
  8
1DIM
  6
CONTINUOUS
 10
2925.981644282754
 20
-1734.884616957571
 30
0.0
 40
3.5
  1
41
 50
90.0
  0
LINE
  5
1A73E
  8
0
  6
BYBLOCK
 10
2937.301556565867
 20
-1935.720419257317
 30
0.0
 11
2936.765658185867
 21
-1937.720419257317
 31
0.0
  0
LINE
  5
1A73F
  8
0
  6
BYBLOCK
 10
2936.765658185867
 20
-1937.720419257317
 30
0.0
 11
2936.229759805867
 21
-1935.720419257317
 31
0.0
  0
LINE
  5
1A740
  8
0
  6
BYBLOCK
 10
2936.765658185867
 20
-1937.720419257317
 30
0.0
 11
2936.765658185867
 21
-1935.720419257317
 31
0.0
  0
LINE
  5
1A741
  8
0
  6
BYBLOCK
 10
2936.229759805867
 20
-1789.720419257319
 30
0.0
 11
2936.765658185867
 21
-1787.720419257319
 31
0.0
  0
LINE
  5
1A742
  8
0
  6
BYBLOCK
 10
2936.765658185867
 20
-1787.720419257319
 30
0.0
 11
2937.301556565867
 21
-1789.720419257319
 31
0.0
  0
LINE
  5
1A743
  8
0
  6
BYBLOCK
 10
2936.765658185867
 20
-1787.720419257319
 30
0.0
 11
2936.765658185867
 21
-1789.720419257319
 31
0.0
  0
TEXT
  5
1A744
  8
1DIM
  6
CONTINUOUS
 10
2936.065658185868
 20
-1866.597155368429
 30
0.0
 40
3.5
  1
150
 50
90.0
  0
LINE
  5
1A745
  8
0
  6
BYBLOCK
 10
2924.710611670711
 20
-1935.720419257317
 30
0.0
 11
2924.174713290711
 21
-1937.720419257317
 31
0.0
  0
LINE
  5
1A746
  8
0
  6
BYBLOCK
 10
2924.174713290711
 20
-1937.720419257317
 30
0.0
 11
2923.638814910711
 21
-1935.720419257317
 31
0.0
  0
LINE
  5
1A747
  8
0
  6
BYBLOCK
 10
2924.174713290711
 20
-1937.720419257317
 30
0.0
 11
2924.174713290711
 21
-1935.720419257317
 31
0.0
  0
LINE
  5
1A748
  8
0
  6
BYBLOCK
 10
2923.638814910711
 20
-1864.720419257315
 30
0.0
 11
2924.174713290711
 21
-1862.720419257315
 31
0.0
  0
LINE
  5
1A749
  8
0
  6
BYBLOCK
 10
2924.174713290711
 20
-1862.720419257315
 30
0.0
 11
2924.710611670711
 21
-1864.720419257315
 31
0.0
  0
LINE
  5
1A74A
  8
0
  6
BYBLOCK
 10
2924.174713290711
 20
-1862.720419257315
 30
0.0
 11
2924.174713290711
 21
-1864.720419257315
 31
0.0
  0
TEXT
  5
1A74B
  8
1DIM
  6
CONTINUOUS
 10
2923.474713290712
 20
-1903.137085923982
 30
0.0
 40
3.5
  1
75
 50
90.0
  0
VIEWPORT
  5
57
 67
     1
  8
0
 10
0.0
 20
0.0
 30
0.0
 40
600.1703601108032
 41
297.0
 68
     1
 69
     1
1001
ACAD
1000
MVIEW
1002
{
1070
    16
1010
0.0
1020
0.0
1030
0.0
1010
0.0
1020
0.0
1030
1.0
1040
0.0
1040
297.0
1040
-4.272048862584541
1040
18.33904653606845
1040
50.0
1040
0.0
1040
0.0
1070
    16
1070
   100
1070
     0
1070
     1
1070
     0
1070
     0
1070
     0
1070
     0
1040
0.0
1040
0.0
1040
0.0
1040
10.0
1040
10.0
1040
10.0
1040
10.0
1070
     0
1002
{
1002
}
1002
}
  0
ENDSEC
  0
EOF
