  0
SECTION
  2
HEADER
  9
$ACADVER
  1
AC1012
  9
$DWGCODEPAGE
  3
ansi_932
  9
$INSBASE
 10
0.0
 20
0.0
 30
0.0
  9
$EXTMIN
 10
2809.106276214756
 20
-1903.795592275291
 30
0.0
  9
$EXTMAX
 10
3065.478529233882
 20
-1697.37305175339
 30
0.0
  9
$LIMMIN
 10
0.0
 20
0.0
  9
$LIMMAX
 10
420.0
 20
297.0
  9
$ORTHOMODE
 70
     0
  9
$REGENMODE
 70
     1
  9
$FILLMODE
 70
     1
  9
$QTEXTMODE
 70
     0
  9
$MIRRTEXT
 70
     0
  9
$DRAGMODE
 70
     2
  9
$LTSCALE
 40
0.5
  9
$OSMODE
 70
 14431
  9
$ATTMODE
 70
     1
  9
$TEXTSIZE
 40
4.0
  9
$TRACEWID
 40
1.0
  9
$TEXTSTYLE
  7
STANDARD
  9
$CLAYER
  8
1TEXT
  9
$CELTYPE
  6
BYLAYER
  9
$CECOLOR
 62
   256
  9
$CELTSCALE
 40
1.0
  9
$DELOBJ
 70
     1
  9
$DISPSILH
 70
     0
  9
$DIMSCALE
 40
1.0
  9
$DIMASZ
 40
2.0
  9
$DIMEXO
 40
0.0
  9
$DIMDLI
 40
7.0
  9
$DIMRND
 40
0.0
  9
$DIMDLE
 40
0.0
  9
$DIMEXE
 40
1.0
  9
$DIMTP
 40
0.0
  9
$DIMTM
 40
0.0
  9
$DIMTXT
 40
3.5
  9
$DIMCEN
 40
0.0
  9
$DIMTSZ
 40
0.0
  9
$DIMTOL
 70
     0
  9
$DIMLIM
 70
     0
  9
$DIMTIH
 70
     0
  9
$DIMTOH
 70
     0
  9
$DIMSE1
 70
     0
  9
$DIMSE2
 70
     0
  9
$DIMTAD
 70
     1
  9
$DIMZIN
 70
     8
  9
$DIMBLK
  1

  9
$DIMASO
 70
     1
  9
$DIMSHO
 70
     1
  9
$DIMPOST
  1
 
  9
$DIMAPOST
  1

  9
$DIMALT
 70
     0
  9
$DIMALTD
 70
     2
  9
$DIMALTF
 40
25.4
  9
$DIMLFAC
 40
1.0
  9
$DIMTOFL
 70
     1
  9
$DIMTVP
 40
0.0
  9
$DIMTIX
 70
     0
  9
$DIMSOXD
 70
     0
  9
$DIMSAH
 70
     1
  9
$DIMBLK1
  1
OPEN30
  9
$DIMBLK2
  1
OPEN30
  9
$DIMSTYLE
  2
NEWX10
  9
$DIMCLRD
 70
   256
  9
$DIMCLRE
 70
   256
  9
$DIMCLRT
 70
   201
  9
$DIMTFAC
 40
0.7
  9
$DIMGAP
 40
0.7
  9
$DIMJUST
 70
     0
  9
$DIMSD1
 70
     0
  9
$DIMSD2
 70
     0
  9
$DIMTOLJ
 70
     1
  9
$DIMTZIN
 70
     8
  9
$DIMALTZ
 70
     0
  9
$DIMALTTZ
 70
     0
  9
$DIMFIT
 70
     2
  9
$DIMUPT
 70
     0
  9
$DIMUNIT
 70
     2
  9
$DIMDEC
 70
     2
  9
$DIMTDEC
 70
     4
  9
$DIMALTU
 70
     2
  9
$DIMALTTD
 70
     2
  9
$DIMTXSTY
  7
STANDARD
  9
$DIMAUNIT
 70
     0
  9
$LUNITS
 70
     2
  9
$LUPREC
 70
     4
  9
$SKETCHINC
 40
1.0
  9
$FILLETRAD
 40
0.0
  9
$AUNITS
 70
     0
  9
$AUPREC
 70
     2
  9
$MENU
  1
acad
  9
$ELEVATION
 40
0.0
  9
$PELEVATION
 40
0.0
  9
$THICKNESS
 40
0.0
  9
$LIMCHECK
 70
     0
  9
$CHAMFERA
 40
10.0
  9
$CHAMFERB
 40
10.0
  9
$CHAMFERC
 40
20.0
  9
$CHAMFERD
 40
0.0
  9
$SKPOLY
 70
     0
  9
$TDCREATE
 40
2453033.732663484
  9
$TDUPDATE
 40
2459562.674366944
  9
$TDINDWG
 40
2.4852688079
  9
$TDUSRTIMER
 40
2.4852688079
  9
$USRTIMER
 70
     1
  9
$ANGBASE
 50
0.0
  9
$ANGDIR
 70
     0
  9
$PDMODE
 70
     0
  9
$PDSIZE
 40
0.0
  9
$PLINEWID
 40
0.0
  9
$COORDS
 70
     2
  9
$SPLFRAME
 70
     0
  9
$SPLINETYPE
 70
     6
  9
$SPLINESEGS
 70
     8
  9
$ATTDIA
 70
     0
  9
$ATTREQ
 70
     1
  9
$HANDLING
 70
     1
  9
$HANDSEED
  5
1AEC9
  9
$SURFTAB1
 70
     6
  9
$SURFTAB2
 70
     6
  9
$SURFTYPE
 70
     6
  9
$SURFU
 70
     6
  9
$SURFV
 70
     6
  9
$UCSNAME
  2

  9
$UCSORG
 10
0.0
 20
0.0
 30
0.0
  9
$UCSXDIR
 10
1.0
 20
0.0
 30
0.0
  9
$UCSYDIR
 10
0.0
 20
1.0
 30
0.0
  9
$PUCSNAME
  2

  9
$PUCSORG
 10
0.0
 20
0.0
 30
0.0
  9
$PUCSXDIR
 10
1.0
 20
0.0
 30
0.0
  9
$PUCSYDIR
 10
0.0
 20
1.0
 30
0.0
  9
$USERI1
 70
     0
  9
$USERI2
 70
     0
  9
$USERI3
 70
     0
  9
$USERI4
 70
     0
  9
$USERI5
 70
     0
  9
$USERR1
 40
0.0
  9
$USERR2
 40
0.0
  9
$USERR3
 40
0.0
  9
$USERR4
 40
0.0
  9
$USERR5
 40
0.0
  9
$WORLDVIEW
 70
     1
  9
$SHADEDGE
 70
     3
  9
$SHADEDIF
 70
    70
  9
$TILEMODE
 70
     1
  9
$MAXACTVP
 70
    48
  9
$PINSBASE
 10
0.0
 20
0.0
 30
0.0
  9
$PLIMCHECK
 70
     0
  9
$PEXTMIN
 10
1.000000000000000E+20
 20
1.000000000000000E+20
 30
1.000000000000000E+20
  9
$PEXTMAX
 10
-1.000000000000000E+20
 20
-1.000000000000000E+20
 30
-1.000000000000000E+20
  9
$PLIMMIN
 10
0.0
 20
0.0
  9
$PLIMMAX
 10
420.0
 20
297.0
  9
$UNITMODE
 70
     0
  9
$VISRETAIN
 70
     1
  9
$PLINEGEN
 70
     0
  9
$PSLTSCALE
 70
     1
  9
$TREEDEPTH
 70
  3020
  9
$PICKSTYLE
 70
     1
  9
$CMLSTYLE
  2
STANDARD
  9
$CMLJUST
 70
     0
  9
$CMLSCALE
 40
20.0
  9
$SAVEIMAGES
 70
     1
  0
ENDSEC
  0
SECTION
  2
CLASSES
  0
CLASS
  1
DICTIONARYVAR
  2
AcDbDictionaryVar
  3
ObjectDBX Classes
 90
        0
280
     0
281
     0
  0
CLASS
  1
IDBUFFER
  2
AcDbIdBuffer
  3
ObjectDBX Classes
 90
    32768
280
     0
281
     0
  0
CLASS
  1
LWPOLYLINE
  2
AcDbPolyline
  3
ObjectDBX Classes
 90
    32768
280
     0
281
     1
  0
CLASS
  1
ACDBDICTIONARYWDFLT
  2
AcDbDictionaryWithDefault
  3
ObjectDBX Classes
 90
    32768
280
     0
281
     0
  0
CLASS
  1
ACDBPLACEHOLDER
  2
AcDbPlaceHolder
  3
ObjectDBX Classes
 90
        0
280
     0
281
     0
  0
CLASS
  1
LAYOUT
  2
AcDbLayout
  3
ObjectDBX Classes
 90
        0
280
     0
281
     0
  0
CLASS
  1
TABLESTYLE
  2
AcDbTableStyle
  3
ObjectDBX Classes
 90
     4095
280
     0
281
     0
  0
CLASS
  1
SORTENTSTABLE
  2
AcDbSortentsTable
  3
ObjectDBX Classes
 90
    32768
280
     0
281
     0
  0
CLASS
  1
DIMASSOC
  2
AcDbDimAssoc
  3
"AcDbDimAssoc|Product Desc:     AcDim ARX App For Dimension|Company:          Autodesk, Inc.|WEB Address:      www.autodesk.com"
 90
        0
280
     0
281
     0
  0
CLASS
  1
MATERIAL
  2
AcDbMaterial
  3
ObjectDBX Classes
 90
     1153
280
     0
281
     0
  0
CLASS
  1
VISUALSTYLE
  2
AcDbVisualStyle
  3
ObjectDBX Classes
 90
     4095
280
     0
281
     0
  0
CLASS
  1
SCALE
  2
AcDbScale
  3
ObjectDBX Classes
 90
     1153
280
     0
281
     0
  0
CLASS
  1
MLEADERSTYLE
  2
AcDbMLeaderStyle
  3
ACDB_MLEADERSTYLE_CLASS
 90
     4095
280
     0
281
     0
  0
CLASS
  1
CELLSTYLEMAP
  2
AcDbCellStyleMap
  3
ObjectDBX Classes
 90
     1152
280
     0
281
     0
  0
CLASS
  1
EXACXREFPANELOBJECT
  2
ExAcXREFPanelObject
  3
EXAC_ESW
 90
     1025
280
     1
281
     0
  0
CLASS
  1
NPOCOLLECTION
  2
AcDbImpNonPersistentObjectsCollection
  3
ObjectDBX Classes
 90
     1153
280
     1
281
     0
  0
CLASS
  1
AEC_REFEDIT_STATUS_TRACKER
  2
AecDbRefEditStatusTracker
  3
AecArchBase60|Product Desc: Autodesk Architectural Desktop 2007 |Company: Autodesk,Inc. |WEB Address: www.autodesk.com
 90
      129
280
     1
281
     0
  0
CLASS
  1
SUN
  2
AcDbSun
  3
SCENEOE
 90
     1153
280
     0
281
     0
  0
CLASS
  1
XRECORD
  2
AcDbXrecord
  3
ObjectDBX Classes
 90
    32768
280
     0
281
     0
  0
CLASS
  1
HATCH
  2
AcDbHatch
  3
ObjectDBX Classes
 90
    32768
280
     0
281
     1
  0
ENDSEC
  0
SECTION
  2
TABLES
  0
TABLE
  2
VPORT
  5
8
330
0
100
AcDbSymbolTable
 70
     1
  0
VPORT
  5
15B17
330
8
100
AcDbSymbolTableRecord
100
AcDbViewportTableRecord
  2
*ACTIVE
 70
     0
 10
0.0
 20
0.0
 11
1.0
 21
1.0
 12
2937.292402724319
 22
-1800.58432201434
 13
0.0
 23
0.0
 14
10.0
 24
10.0
 15
10.0
 25
10.0
 16
0.0
 26
0.0
 36
1.0
 17
0.0
 27
0.0
 37
0.0
 40
221.6326224550935
 41
1.844566712517194
 42
50.0
 43
0.0
 44
0.0
 50
0.0
 51
0.0
 71
    16
 72
   100
 73
     1
 74
     1
 75
     0
 76
     0
 77
     0
 78
     0
  0
ENDTAB
  0
TABLE
  2
LTYPE
  5
5
330
0
100
AcDbSymbolTable
 70
     3
  0
LTYPE
  5
12
330
5
100
AcDbSymbolTableRecord
100
AcDbLinetypeTableRecord
  2
BYBLOCK
 70
     0
  3

 72
    65
 73
     0
 40
0.0
  0
LTYPE
  5
13
330
5
100
AcDbSymbolTableRecord
100
AcDbLinetypeTableRecord
  2
BYLAYER
 70
     0
  3

 72
    65
 73
     0
 40
0.0
  0
LTYPE
  5
14
330
5
100
AcDbSymbolTableRecord
100
AcDbLinetypeTableRecord
  2
CONTINUOUS
 70
     0
  3
Solid line
 72
    65
 73
     0
 40
0.0
  0
LTYPE
  5
26
330
5
100
AcDbSymbolTableRecord
100
AcDbLinetypeTableRecord
  2
CENTER2
 70
     0
  3
Center (.5x) ___ _ ___ _ ___ _ ___ _ ___ _ ___
 72
    65
 73
     4
 40
28.575
 49
19.05
 74
     0
 49
-3.175
 74
     0
 49
3.175
 74
     0
 49
-3.175
 74
     0
  0
LTYPE
  5
100
330
5
100
AcDbSymbolTableRecord
100
AcDbLinetypeTableRecord
  2
PHANTOM2
 70
     0
  3
Phantom (0.5x) ___ _ _ ___ _ _ ___ _ _ ___ _ _
 72
    65
 73
     6
 40
31.75
 49
15.875
 74
     0
 49
-3.175
 74
     0
 49
3.175
 74
     0
 49
-3.175
 74
     0
 49
3.175
 74
     0
 49
-3.175
 74
     0
  0
ENDTAB
  0
TABLE
  2
LAYER
  5
2
102
{ACAD_XDICTIONARY
360
14EC2
102
}
330
0
100
AcDbSymbolTable
 70
     7
  0
LAYER
  5
E
102
{ACAD_XDICTIONARY
360
15BB5
102
}
330
2
100
AcDbSymbolTableRecord
100
AcDbLayerTableRecord
  2
0
 70
     0
 62
     7
  6
CONTINUOUS
  0
LAYER
  5
29
102
{ACAD_XDICTIONARY
360
15BB7
102
}
330
2
100
AcDbSymbolTableRecord
100
AcDbLayerTableRecord
  2
1CENTER
 70
     0
 62
     7
  6
CENTER2
  0
LAYER
  5
31
102
{ACAD_XDICTIONARY
360
15BB9
102
}
330
2
100
AcDbSymbolTableRecord
100
AcDbLayerTableRecord
  2
1TEXT
 70
     0
 62
     7
  6
CONTINUOUS
  0
LAYER
  5
101
102
{ACAD_XDICTIONARY
360
15BC3
102
}
330
2
100
AcDbSymbolTableRecord
100
AcDbLayerTableRecord
  2
1DIM
 70
     0
 62
     7
  6
CONTINUOUS
  0
LAYER
  5
103
102
{ACAD_XDICTIONARY
360
15BC7
102
}
330
2
100
AcDbSymbolTableRecord
100
AcDbLayerTableRecord
  2
1PHANTOM
 70
     0
 62
     7
  6
PHANTOM2
  0
LAYER
  5
25F
102
{ACAD_XDICTIONARY
360
15BCB
102
}
330
2
100
AcDbSymbolTableRecord
100
AcDbLayerTableRecord
  2
01
 70
     0
 62
     1
  6
CONTINUOUS
  0
LAYER
  5
26D
102
{ACAD_XDICTIONARY
360
15BE7
102
}
330
2
100
AcDbSymbolTableRecord
100
AcDbLayerTableRecord
  2
1HATCH
 70
     0
 62
     7
  6
CONTINUOUS
  0
ENDTAB
  0
TABLE
  2
STYLE
  5
3
330
0
100
AcDbSymbolTable
 70
     1
  0
STYLE
  5
F
330
3
100
AcDbSymbolTableRecord
100
AcDbTextStyleTableRecord
  2
STANDARD
 70
     0
 40
0.0
 41
1.0
 50
0.0
 71
     0
 42
4.0
  3
txt.shx
  4
extfont.shx
  0
ENDTAB
  0
TABLE
  2
VIEW
  5
6
330
0
100
AcDbSymbolTable
 70
     0
  0
ENDTAB
  0
TABLE
  2
UCS
  5
7
330
0
100
AcDbSymbolTable
 70
     0
  0
ENDTAB
  0
TABLE
  2
APPID
  5
9
330
0
100
AcDbSymbolTable
 70
    15
  0
APPID
  5
10
330
9
100
AcDbSymbolTableRecord
100
AcDbRegAppTableRecord
  2
ACAD
 70
     0
  0
APPID
  5
21
330
9
100
AcDbSymbolTableRecord
100
AcDbRegAppTableRecord
  2
DRAWINGVARIABLESXDATA
 70
     0
  0
APPID
  5
64
330
9
100
AcDbSymbolTableRecord
100
AcDbRegAppTableRecord
  2
CONTENTTABDATA
 70
     0
  0
APPID
  5
65
330
9
100
AcDbSymbolTableRecord
100
AcDbRegAppTableRecord
  2
CONTENTCURRENTTAB
 70
     0
  0
APPID
  5
66
330
9
100
AcDbSymbolTableRecord
100
AcDbRegAppTableRecord
  2
CONTENTBLOCKDESCRIPTION
 70
     0
  0
APPID
  5
67
330
9
100
AcDbSymbolTableRecord
100
AcDbRegAppTableRecord
  2
CONTENTBLOCKICON
 70
     0
  0
APPID
  5
68
330
9
100
AcDbSymbolTableRecord
100
AcDbRegAppTableRecord
  2
CONTENTLONGBLOCKNAME
 70
     0
  0
APPID
  5
5A9
330
9
100
AcDbSymbolTableRecord
100
AcDbRegAppTableRecord
  2
ACAD_PSEXT
 70
     0
  0
APPID
  5
18AC
330
9
100
AcDbSymbolTableRecord
100
AcDbRegAppTableRecord
  2
ACAD_DSTYLE_DIMTEXT_FILL
 70
     0
  0
APPID
  5
15B9A
330
9
100
AcDbSymbolTableRecord
100
AcDbRegAppTableRecord
  2
ACAD_MLEADERVER
 70
     0
  0
APPID
  5
170A1
330
9
100
AcDbSymbolTableRecord
100
AcDbRegAppTableRecord
  2
ACAD_DSTYLE_DIMRADIAL_EXTE
 70
     0
  0
APPID
  5
174F3
330
9
100
AcDbSymbolTableRecord
100
AcDbRegAppTableRecord
  2
ACAD_EXEMPT_FROM_CAD_STAND
 70
     0
  0
APPID
  5
1797B
330
9
100
AcDbSymbolTableRecord
100
AcDbRegAppTableRecord
  2
ACADANNOTATIVE
 70
     0
  0
APPID
  5
181DC
330
9
100
AcDbSymbolTableRecord
100
AcDbRegAppTableRecord
  2
ACLAYERTOOLS
 70
     0
  0
APPID
  5
1ACA2
330
9
100
AcDbSymbolTableRecord
100
AcDbRegAppTableRecord
  2
ACAD_OBJECT_CHANGE_GUID
 70
     0
  0
ENDTAB
  0
TABLE
  2
DIMSTYLE
  5
A
330
0
100
AcDbSymbolTable
 70
     1
  0
DIMSTYLE
105
48
330
A
100
AcDbSymbolTableRecord
100
AcDbDimStyleTableRecord
  2
NEWX10
 70
     0
  3
 
  4

  5

  6
OPEN30
  7
OPEN30
 40
1.0
 41
2.0
 42
0.0
 43
7.0
 44
1.0
 45
0.0
 46
0.0
 47
0.0
 48
0.0
140
3.5
141
0.0
142
0.0
143
25.4
144
1.0
145
0.0
146
0.7
147
0.7
 71
     0
 72
     0
 73
     0
 74
     0
 75
     0
 76
     0
 77
     1
 78
     8
170
     0
171
     2
172
     1
173
     1
174
     0
175
     0
176
   256
177
   256
178
   201
179
     2
270
     2
271
     2
272
     4
273
     2
274
     2
340
F
275
     0
280
     0
281
     0
282
     0
283
     1
284
     8
285
     0
286
     0
287
     2
288
     0
  0
ENDTAB
  0
TABLE
  2
BLOCK_RECORD
  5
1
330
0
100
AcDbSymbolTable
 70
     1
  0
BLOCK_RECORD
  5
18
102
{ACAD_XDICTIONARY
360
6E9
102
}
330
1
100
AcDbSymbolTableRecord
100
AcDbBlockTableRecord
  2
*MODEL_SPACE
  0
BLOCK_RECORD
  5
15
102
{ACAD_XDICTIONARY
360
59B
102
}
330
1
100
AcDbSymbolTableRecord
100
AcDbBlockTableRecord
  2
*PAPER_SPACE
  0
BLOCK_RECORD
  5
42
330
1
100
AcDbSymbolTableRecord
100
AcDbBlockTableRecord
  2
_OPEN30
  0
ENDTAB
  0
ENDSEC
  0
SECTION
  2
BLOCKS
  0
BLOCK
  5
19
330
18
100
AcDbEntity
  8
0
100
AcDbBlockBegin
  2
*MODEL_SPACE
 70
     0
 10
0.0
 20
0.0
 30
0.0
  3
*MODEL_SPACE
  1

  0
ENDBLK
  5
1A
330
18
100
AcDbEntity
  8
0
100
AcDbBlockEnd
  0
BLOCK
  5
16
330
15
100
AcDbEntity
 67
     1
  8
0
100
AcDbBlockBegin
  2
*PAPER_SPACE
 70
     0
 10
0.0
 20
0.0
 30
0.0
  3
*PAPER_SPACE
  1

  0
ENDBLK
  5
17
330
15
100
AcDbEntity
 67
     1
  8
0
100
AcDbBlockEnd
  0
BLOCK
  5
43
330
42
100
AcDbEntity
  8
0
100
AcDbBlockBegin
  2
_OPEN30
 70
     0
 10
0.0
 20
0.0
 30
0.0
  3
_OPEN30
  1

  0
LINE
  5
44
330
42
100
AcDbEntity
  8
0
  6
BYBLOCK
 62
     0
100
AcDbLine
 10
-1.0
 20
0.26794919
 30
0.0
 11
0.0
 21
0.0
 31
0.0
  0
LINE
  5
45
330
42
100
AcDbEntity
  8
0
  6
BYBLOCK
 62
     0
100
AcDbLine
 10
0.0
 20
0.0
 30
0.0
 11
-1.0
 21
-0.26794919
 31
0.0
  0
LINE
  5
46
330
42
100
AcDbEntity
  8
0
  6
BYBLOCK
 62
     0
100
AcDbLine
 10
0.0
 20
0.0
 30
0.0
 11
-1.0
 21
0.0
 31
0.0
  0
ENDBLK
  5
47
330
42
100
AcDbEntity
  8
0
100
AcDbBlockEnd
  0
ENDSEC
  0
SECTION
  2
ENTITIES
  0
LINE
  5
18545
330
18
100
AcDbEntity
  8
1DIM
100
AcDbLine
 10
2975.580423490022
 20
-1716.675292090592
 30
0.0
 11
3045.580423490023
 21
-1716.675292090592
 31
0.0
  0
LINE
  5
18546
330
18
100
AcDbEntity
  8
1DIM
100
AcDbLine
 10
2975.580423490022
 20
-1709.675292090592
 30
0.0
 11
3045.580423490023
 21
-1709.675292090592
 31
0.0
  0
TEXT
  5
18547
330
18
100
AcDbEntity
  8
1TEXT
100
AcDbText
 10
3021.113756823356
 20
-1715.175292090592
 30
0.0
 40
4.0
  1
コード
 72
     1
 11
3027.980423490023
 21
-1715.175292090592
 31
0.0
100
AcDbText
  0
TEXT
  5
18548
330
18
100
AcDbEntity
  8
1TEXT
100
AcDbText
 10
2984.640423490022
 20
-1715.175292090592
 30
0.0
 40
4.0
  1
表面処理
 41
0.9
 72
     1
 11
2992.980423490023
 21
-1715.175292090592
 31
0.0
100
AcDbText
  0
LINE
  5
18549
330
18
100
AcDbEntity
  8
1DIM
100
AcDbLine
 10
2975.580423490023
 20
-1723.675292090592
 30
0.0
 11
3045.580423490023
 21
-1723.675292090592
 31
0.0
  0
LINE
  5
1854B
330
18
100
AcDbEntity
  8
1DIM
100
AcDbLine
 10
2975.580423490023
 20
-1709.675292090592
 30
0.0
 11
2975.580423490023
 21
-1737.675292090593
 31
0.0
  0
LINE
  5
1854C
330
18
100
AcDbEntity
  8
1DIM
100
AcDbLine
 10
3010.580423490023
 20
-1709.675292090592
 30
0.0
 11
3010.580423490023
 21
-1737.675292090593
 31
0.0
  0
LINE
  5
1854D
330
18
100
AcDbEntity
  8
1DIM
100
AcDbLine
 10
3045.580423490023
 20
-1709.675292090592
 30
0.0
 11
3045.580423490022
 21
-1737.675292090593
 31
0.0
  0
TEXT
  5
1854E
330
18
100
AcDbEntity
  8
1TEXT
100
AcDbText
 10
3015.117923490023
 20
-1722.389649074242
 30
0.0
 40
4.0
  1
GP-165-036
 41
0.7
 72
     1
 11
3027.980423490023
 21
-1722.389649074242
 31
0.0
100
AcDbText
  0
TEXT
  5
1854F
330
18
100
AcDbEntity
  8
1TEXT
100
AcDbText
 10
2974.379134006963
 20
-1705.384162864501
 30
0.0
 40
8.0
  1
GP-165-X
100
AcDbText
  0
TEXT
  5
18551
330
18
100
AcDbEntity
  8
1TEXT
100
AcDbText
 10
2976.240423490024
 20
-1736.389649074242
 30
0.0
 40
4.0
  1
ブラストブラック
 41
0.9
 72
     1
 11
2992.980423490023
 21
-1736.389649074242
 31
0.0
100
AcDbText
  0
TEXT
  5
18552
330
18
100
AcDbEntity
  8
1TEXT
100
AcDbText
 10
3015.108201267801
 20
-1736.389649074242
 30
0.0
 40
4.0
  1
GP-165-062
 41
0.7
 72
     1
 11
3027.980423490023
 21
-1736.389649074242
 31
0.0
100
AcDbText
  0
LINE
  5
18553
330
18
100
AcDbEntity
  8
1DIM
100
AcDbLine
 10
2975.580423490023
 20
-1730.675292090593
 30
0.0
 11
3045.580423490022
 21
-1730.675292090593
 31
0.0
  0
TEXT
  5
18554
330
18
100
AcDbEntity
  8
1TEXT
100
AcDbText
 10
2976.780423490024
 20
-1729.389649074242
 30
0.0
 40
4.0
  1
ダークアンバー
 72
     1
 11
2992.980423490023
 21
-1729.389649074242
 31
0.0
100
AcDbText
  0
TEXT
  5
18555
330
18
100
AcDbEntity
  8
1TEXT
100
AcDbText
 10
3015.58459015669
 20
-1729.389649074242
 30
0.0
 40
4.0
  1
GP-165-014
 41
0.7
 72
     1
 11
3027.980423490023
 21
-1729.389649074242
 31
0.0
100
AcDbText
  0
TEXT
  5
1855B
330
18
100
AcDbEntity
  8
1TEXT
100
AcDbText
 10
2976.240423490024
 20
-1722.389649074241
 30
0.0
 40
4.0
  1
ブラストシルバー
 41
0.9
 72
     1
 11
2992.980423490023
 21
-1722.389649074241
 31
0.0
100
AcDbText
  0
LINE
  5
18F31
330
18
100
AcDbEntity
  8
1DIM
100
AcDbLine
 10
2975.580423490023
 20
-1737.675292090593
 30
0.0
 11
3045.580423490022
 21
-1737.675292090593
 31
0.0
  0
LINE
  5
1938B
102
{ACAD_REACTORS
330
1951D
102
}
330
18
100
AcDbEntity
  8
1PHANTOM
100
AcDbLine
 10
3023.876854233882
 20
-1867.943504527496
 30
0.0
 11
3022.876854233882
 21
-1867.943504527496
 31
0.0
  0
ARC
  5
1938C
102
{ACAD_REACTORS
330
1951D
102
}
330
18
100
AcDbEntity
  8
1PHANTOM
100
AcDbCircle
 10
3029.647687567216
 20
-1863.193504527496
 30
0.0
 40
8.270833333333439
100
AcDbArc
 50
144.9488632525444
 51
215.0511367474556
  0
LINE
  5
1938D
102
{ACAD_REACTORS
330
1951D
102
}
330
18
100
AcDbEntity
  8
1PHANTOM
100
AcDbLine
 10
3023.876854233882
 20
-1858.443504527496
 30
0.0
 11
3022.876854233882
 21
-1858.443504527496
 31
0.0
  0
LINE
  5
1938E
102
{ACAD_REACTORS
330
1951D
102
}
330
18
100
AcDbEntity
  8
1CENTER
100
AcDbLine
 10
3065.478529233882
 20
-1863.193504527496
 30
0.0
 11
3020.034423659914
 21
-1863.193504527496
 31
0.0
  0
LINE
  5
1938F
102
{ACAD_REACTORS
330
1951D
102
}
330
18
100
AcDbEntity
  8
1PHANTOM
100
AcDbLine
 10
3022.876854233882
 20
-1867.726567707163
 30
0.0
 11
3022.876854233882
 21
-1858.688136742691
 31
0.0
  0
LINE
  5
19390
102
{ACAD_REACTORS
330
1951D
102
}
330
18
100
AcDbEntity
  8
1PHANTOM
100
AcDbLine
 10
3039.994719819928
 20
-1860.693504527496
 30
0.0
 11
3040.994719819928
 21
-1865.693504527496
 31
0.0
  0
LINE
  5
19391
102
{ACAD_REACTORS
330
1951D
102
}
330
18
100
AcDbEntity
  8
1PHANTOM
100
AcDbLine
 10
3057.345765320636
 20
-1861.443504527496
 30
0.0
 11
3023.876854233882
 21
-1861.443504527496
 31
0.0
  0
LINE
  5
19392
102
{ACAD_REACTORS
330
1951D
102
}
330
18
100
AcDbEntity
  8
1PHANTOM
100
AcDbLine
 10
3063.876854233882
 20
-1863.193504527496
 30
0.0
 11
3057.345765320636
 21
-1861.443504527496
 31
0.0
  0
LINE
  5
19393
102
{ACAD_REACTORS
330
1951D
102
}
330
18
100
AcDbEntity
  8
1PHANTOM
100
AcDbLine
 10
3063.876854233882
 20
-1863.193504527496
 30
0.0
 11
3057.345765320636
 21
-1864.943504527496
 31
0.0
  0
LINE
  5
19394
102
{ACAD_REACTORS
330
1951D
102
}
330
18
100
AcDbEntity
  8
1PHANTOM
100
AcDbLine
 10
3057.345765320636
 20
-1864.943504527496
 30
0.0
 11
3023.876854233882
 21
-1864.943504527496
 31
0.0
  0
LINE
  5
19395
102
{ACAD_REACTORS
330
1951D
102
}
330
18
100
AcDbEntity
  8
1PHANTOM
100
AcDbLine
 10
3058.031466431721
 20
-1860.87723758646
 30
0.0
 11
3057.881466431721
 21
-1861.62723758646
 31
0.0
  0
LINE
  5
19396
102
{ACAD_REACTORS
330
1951D
102
}
330
18
100
AcDbEntity
  8
1PHANTOM
100
AcDbLine
 10
3058.031466431721
 20
-1860.87723758646
 30
0.0
 11
3058.910847327939
 21
-1865.274142067551
 31
0.0
  0
LINE
  5
19397
102
{ACAD_REACTORS
330
1951D
102
}
330
18
100
AcDbEntity
  8
1PHANTOM
100
AcDbLine
 10
3062.857391157317
 20
-1863.50686121444
 30
0.0
 11
3062.707391157317
 21
-1864.25686121444
 31
0.0
  0
LINE
  5
19398
102
{ACAD_REACTORS
330
1951D
102
}
330
18
100
AcDbEntity
  8
1PHANTOM
100
AcDbLine
 10
3062.257963739824
 20
-1862.009724126979
 30
0.0
 11
3062.107963739825
 21
-1862.759724126979
 31
0.0
  0
LINE
  5
19399
102
{ACAD_REACTORS
330
1951D
102
}
330
18
100
AcDbEntity
  8
1PHANTOM
100
AcDbLine
 10
3062.257963739824
 20
-1862.009724126979
 30
0.0
 11
3062.707391157317
 21
-1864.25686121444
 31
0.0
  0
LINE
  5
1939A
102
{ACAD_REACTORS
330
1951D
102
}
330
18
100
AcDbEntity
  8
1PHANTOM
100
AcDbLine
 10
3059.060847327939
 20
-1864.524142067551
 30
0.0
 11
3058.910847327939
 21
-1865.274142067551
 31
0.0
  0
LINE
  5
1939B
102
{ACAD_REACTORS
330
1951D
102
}
330
18
100
AcDbEntity
  8
1PHANTOM
100
AcDbLine
 10
3060.959119242628
 20
-1864.015501640996
 30
0.0
 11
3060.809119242628
 21
-1864.765501640996
 31
0.0
  0
LINE
  5
1939C
102
{ACAD_REACTORS
330
1951D
102
}
330
18
100
AcDbEntity
  8
1PHANTOM
100
AcDbLine
 10
3060.144715085773
 20
-1861.44348085672
 30
0.0
 11
3059.994715085773
 21
-1862.19348085672
 31
0.0
  0
LINE
  5
1939D
102
{ACAD_REACTORS
330
1951D
102
}
330
18
100
AcDbEntity
  8
1PHANTOM
100
AcDbLine
 10
3060.144715085773
 20
-1861.44348085672
 30
0.0
 11
3060.809119242628
 21
-1864.765501640996
 31
0.0
  0
LINE
  5
1939E
102
{ACAD_REACTORS
330
1951D
102
}
330
18
100
AcDbEntity
  8
1PHANTOM
100
AcDbLine
 10
3049.144719819928
 20
-1864.943504527496
 30
0.0
 11
3048.994719819928
 21
-1865.693504527496
 31
0.0
  0
LINE
  5
1939F
102
{ACAD_REACTORS
330
1951D
102
}
330
18
100
AcDbEntity
  8
1PHANTOM
100
AcDbLine
 10
3051.994719819928
 20
-1860.693504527496
 30
0.0
 11
3051.844719819928
 21
-1861.443504527496
 31
0.0
  0
LINE
  5
193A0
102
{ACAD_REACTORS
330
1951D
102
}
330
18
100
AcDbEntity
  8
1PHANTOM
100
AcDbLine
 10
3049.994719819928
 20
-1860.693504527496
 30
0.0
 11
3049.844719819928
 21
-1861.443504527496
 31
0.0
  0
LINE
  5
193A1
102
{ACAD_REACTORS
330
1951D
102
}
330
18
100
AcDbEntity
  8
1PHANTOM
100
AcDbLine
 10
3049.994719819928
 20
-1860.693504527496
 30
0.0
 11
3050.994719819928
 21
-1865.693504527496
 31
0.0
  0
LINE
  5
193A2
102
{ACAD_REACTORS
330
1951D
102
}
330
18
100
AcDbEntity
  8
1PHANTOM
100
AcDbLine
 10
3053.994719819928
 20
-1860.693504527496
 30
0.0
 11
3053.844719819928
 21
-1861.443504527496
 31
0.0
  0
LINE
  5
193A3
102
{ACAD_REACTORS
330
1951D
102
}
330
18
100
AcDbEntity
  8
1PHANTOM
100
AcDbLine
 10
3055.994719819928
 20
-1860.693504527496
 30
0.0
 11
3055.844719819928
 21
-1861.443504527496
 31
0.0
  0
LINE
  5
193A4
102
{ACAD_REACTORS
330
1951D
102
}
330
18
100
AcDbEntity
  8
1PHANTOM
100
AcDbLine
 10
3055.994719819928
 20
-1860.693504527496
 30
0.0
 11
3056.994719819928
 21
-1865.693504527496
 31
0.0
  0
LINE
  5
193A5
102
{ACAD_REACTORS
330
1951D
102
}
330
18
100
AcDbEntity
  8
1PHANTOM
100
AcDbLine
 10
3053.994719819928
 20
-1860.693504527496
 30
0.0
 11
3054.994719819928
 21
-1865.693504527496
 31
0.0
  0
LINE
  5
193A6
102
{ACAD_REACTORS
330
1951D
102
}
330
18
100
AcDbEntity
  8
1PHANTOM
100
AcDbLine
 10
3051.994719819928
 20
-1860.693504527496
 30
0.0
 11
3052.994719819928
 21
-1865.693504527496
 31
0.0
  0
LINE
  5
193A7
102
{ACAD_REACTORS
330
1951D
102
}
330
18
100
AcDbEntity
  8
1PHANTOM
100
AcDbLine
 10
3057.144719819928
 20
-1864.943504527496
 30
0.0
 11
3056.994719819928
 21
-1865.693504527496
 31
0.0
  0
LINE
  5
193A8
102
{ACAD_REACTORS
330
1951D
102
}
330
18
100
AcDbEntity
  8
1PHANTOM
100
AcDbLine
 10
3055.144719819928
 20
-1864.943504527496
 30
0.0
 11
3054.994719819928
 21
-1865.693504527496
 31
0.0
  0
LINE
  5
193A9
102
{ACAD_REACTORS
330
1951D
102
}
330
18
100
AcDbEntity
  8
1PHANTOM
100
AcDbLine
 10
3051.144719819928
 20
-1864.943504527496
 30
0.0
 11
3050.994719819928
 21
-1865.693504527496
 31
0.0
  0
LINE
  5
193AA
102
{ACAD_REACTORS
330
1951D
102
}
330
18
100
AcDbEntity
  8
1PHANTOM
100
AcDbLine
 10
3053.144719819928
 20
-1864.943504527496
 30
0.0
 11
3052.994719819928
 21
-1865.693504527496
 31
0.0
  0
LINE
  5
193AB
102
{ACAD_REACTORS
330
1951D
102
}
330
18
100
AcDbEntity
  8
1PHANTOM
100
AcDbLine
 10
3045.994719819928
 20
-1860.693504527496
 30
0.0
 11
3045.844719819928
 21
-1861.443504527496
 31
0.0
  0
LINE
  5
193AC
102
{ACAD_REACTORS
330
1951D
102
}
330
18
100
AcDbEntity
  8
1PHANTOM
100
AcDbLine
 10
3047.994719819928
 20
-1860.693504527496
 30
0.0
 11
3047.844719819928
 21
-1861.443504527496
 31
0.0
  0
LINE
  5
193AD
102
{ACAD_REACTORS
330
1951D
102
}
330
18
100
AcDbEntity
  8
1PHANTOM
100
AcDbLine
 10
3041.994719819928
 20
-1860.693504527496
 30
0.0
 11
3041.844719819928
 21
-1861.443504527496
 31
0.0
  0
LINE
  5
193AE
102
{ACAD_REACTORS
330
1951D
102
}
330
18
100
AcDbEntity
  8
1PHANTOM
100
AcDbLine
 10
3043.994719819928
 20
-1860.693504527496
 30
0.0
 11
3043.844719819928
 21
-1861.443504527496
 31
0.0
  0
LINE
  5
193AF
102
{ACAD_REACTORS
330
1951D
102
}
330
18
100
AcDbEntity
  8
1PHANTOM
100
AcDbLine
 10
3047.994719819928
 20
-1860.693504527496
 30
0.0
 11
3048.994719819928
 21
-1865.693504527496
 31
0.0
  0
LINE
  5
193B0
102
{ACAD_REACTORS
330
1951D
102
}
330
18
100
AcDbEntity
  8
1PHANTOM
100
AcDbLine
 10
3045.994719819928
 20
-1860.693504527496
 30
0.0
 11
3046.994719819928
 21
-1865.693504527496
 31
0.0
  0
LINE
  5
193B1
102
{ACAD_REACTORS
330
1951D
102
}
330
18
100
AcDbEntity
  8
1PHANTOM
100
AcDbLine
 10
3043.994719819928
 20
-1860.693504527496
 30
0.0
 11
3044.994719819928
 21
-1865.693504527496
 31
0.0
  0
LINE
  5
193B2
102
{ACAD_REACTORS
330
1951D
102
}
330
18
100
AcDbEntity
  8
1PHANTOM
100
AcDbLine
 10
3041.994719819928
 20
-1860.693504527496
 30
0.0
 11
3042.994719819928
 21
-1865.693504527496
 31
0.0
  0
LINE
  5
193B3
102
{ACAD_REACTORS
330
1951D
102
}
330
18
100
AcDbEntity
  8
1PHANTOM
100
AcDbLine
 10
3045.144719819928
 20
-1864.943504527496
 30
0.0
 11
3044.994719819928
 21
-1865.693504527496
 31
0.0
  0
LINE
  5
193B4
102
{ACAD_REACTORS
330
1951D
102
}
330
18
100
AcDbEntity
  8
1PHANTOM
100
AcDbLine
 10
3047.144719819928
 20
-1864.943504527496
 30
0.0
 11
3046.994719819928
 21
-1865.693504527496
 31
0.0
  0
LINE
  5
193B5
102
{ACAD_REACTORS
330
1951D
102
}
330
18
100
AcDbEntity
  8
1PHANTOM
100
AcDbLine
 10
3041.144719819928
 20
-1864.943504527496
 30
0.0
 11
3040.994719819928
 21
-1865.693504527496
 31
0.0
  0
LINE
  5
193B6
102
{ACAD_REACTORS
330
1951D
102
}
330
18
100
AcDbEntity
  8
1PHANTOM
100
AcDbLine
 10
3043.144719819928
 20
-1864.943504527496
 30
0.0
 11
3042.994719819928
 21
-1865.693504527496
 31
0.0
  0
LINE
  5
193B7
102
{ACAD_REACTORS
330
1951D
102
}
330
18
100
AcDbEntity
  8
1PHANTOM
100
AcDbLine
 10
3023.994719819928
 20
-1860.693504527496
 30
0.0
 11
3024.994719819928
 21
-1865.693504527496
 31
0.0
  0
LINE
  5
193B8
102
{ACAD_REACTORS
330
1951D
102
}
330
18
100
AcDbEntity
  8
1PHANTOM
100
AcDbLine
 10
3031.994719819928
 20
-1860.693504527496
 30
0.0
 11
3032.994719819928
 21
-1865.693504527496
 31
0.0
  0
LINE
  5
193B9
102
{ACAD_REACTORS
330
1951D
102
}
330
18
100
AcDbEntity
  8
1PHANTOM
100
AcDbLine
 10
3039.994719819928
 20
-1860.693504527496
 30
0.0
 11
3039.844719819928
 21
-1861.443504527496
 31
0.0
  0
LINE
  5
193BA
102
{ACAD_REACTORS
330
1951D
102
}
330
18
100
AcDbEntity
  8
1PHANTOM
100
AcDbLine
 10
3037.994719819928
 20
-1860.693504527496
 30
0.0
 11
3037.844719819928
 21
-1861.443504527496
 31
0.0
  0
LINE
  5
193BB
102
{ACAD_REACTORS
330
1951D
102
}
330
18
100
AcDbEntity
  8
1PHANTOM
100
AcDbLine
 10
3035.994719819928
 20
-1860.693504527496
 30
0.0
 11
3035.844719819928
 21
-1861.443504527496
 31
0.0
  0
LINE
  5
193BC
102
{ACAD_REACTORS
330
1951D
102
}
330
18
100
AcDbEntity
  8
1PHANTOM
100
AcDbLine
 10
3033.994719819928
 20
-1860.693504527496
 30
0.0
 11
3033.844719819928
 21
-1861.443504527496
 31
0.0
  0
LINE
  5
193BD
102
{ACAD_REACTORS
330
1951D
102
}
330
18
100
AcDbEntity
  8
1PHANTOM
100
AcDbLine
 10
3037.994719819928
 20
-1860.693504527496
 30
0.0
 11
3038.994719819928
 21
-1865.693504527496
 31
0.0
  0
LINE
  5
193BE
102
{ACAD_REACTORS
330
1951D
102
}
330
18
100
AcDbEntity
  8
1PHANTOM
100
AcDbLine
 10
3035.994719819928
 20
-1860.693504527496
 30
0.0
 11
3036.994719819928
 21
-1865.693504527496
 31
0.0
  0
LINE
  5
193BF
102
{ACAD_REACTORS
330
1951D
102
}
330
18
100
AcDbEntity
  8
1PHANTOM
100
AcDbLine
 10
3033.994719819928
 20
-1860.693504527496
 30
0.0
 11
3034.994719819928
 21
-1865.693504527496
 31
0.0
  0
LINE
  5
193C0
102
{ACAD_REACTORS
330
1951D
102
}
330
18
100
AcDbEntity
  8
1PHANTOM
100
AcDbLine
 10
3039.144719819928
 20
-1864.943504527496
 30
0.0
 11
3038.994719819928
 21
-1865.693504527496
 31
0.0
  0
LINE
  5
193C1
102
{ACAD_REACTORS
330
1951D
102
}
330
18
100
AcDbEntity
  8
1PHANTOM
100
AcDbLine
 10
3037.144719819928
 20
-1864.943504527496
 30
0.0
 11
3036.994719819928
 21
-1865.693504527496
 31
0.0
  0
LINE
  5
193C2
102
{ACAD_REACTORS
330
1951D
102
}
330
18
100
AcDbEntity
  8
1PHANTOM
100
AcDbLine
 10
3035.144719819928
 20
-1864.943504527496
 30
0.0
 11
3034.994719819928
 21
-1865.693504527496
 31
0.0
  0
LINE
  5
193C3
102
{ACAD_REACTORS
330
1951D
102
}
330
18
100
AcDbEntity
  8
1PHANTOM
100
AcDbLine
 10
3033.144719819928
 20
-1864.943504527496
 30
0.0
 11
3032.994719819928
 21
-1865.693504527496
 31
0.0
  0
LINE
  5
193C4
102
{ACAD_REACTORS
330
1951D
102
}
330
18
100
AcDbEntity
  8
1PHANTOM
100
AcDbLine
 10
3027.994719819928
 20
-1860.693504527496
 30
0.0
 11
3027.844719819928
 21
-1861.443504527496
 31
0.0
  0
LINE
  5
193C5
102
{ACAD_REACTORS
330
1951D
102
}
330
18
100
AcDbEntity
  8
1PHANTOM
100
AcDbLine
 10
3029.994719819928
 20
-1860.693504527496
 30
0.0
 11
3029.844719819928
 21
-1861.443504527496
 31
0.0
  0
LINE
  5
193C6
102
{ACAD_REACTORS
330
1951D
102
}
330
18
100
AcDbEntity
  8
1PHANTOM
100
AcDbLine
 10
3031.994719819928
 20
-1860.693504527496
 30
0.0
 11
3031.844719819928
 21
-1861.443504527496
 31
0.0
  0
LINE
  5
193C7
102
{ACAD_REACTORS
330
1951D
102
}
330
18
100
AcDbEntity
  8
1PHANTOM
100
AcDbLine
 10
3025.994719819928
 20
-1860.693504527496
 30
0.0
 11
3025.844719819928
 21
-1861.443504527496
 31
0.0
  0
LINE
  5
193C8
102
{ACAD_REACTORS
330
1951D
102
}
330
18
100
AcDbEntity
  8
1PHANTOM
100
AcDbLine
 10
3029.994719819928
 20
-1860.693504527496
 30
0.0
 11
3030.994719819928
 21
-1865.693504527496
 31
0.0
  0
LINE
  5
193C9
102
{ACAD_REACTORS
330
1951D
102
}
330
18
100
AcDbEntity
  8
1PHANTOM
100
AcDbLine
 10
3027.994719819928
 20
-1860.693504527496
 30
0.0
 11
3028.994719819928
 21
-1865.693504527496
 31
0.0
  0
LINE
  5
193CA
102
{ACAD_REACTORS
330
1951D
102
}
330
18
100
AcDbEntity
  8
1PHANTOM
100
AcDbLine
 10
3025.994719819928
 20
-1860.693504527496
 30
0.0
 11
3026.994719819928
 21
-1865.693504527496
 31
0.0
  0
LINE
  5
193CB
102
{ACAD_REACTORS
330
1951D
102
}
330
18
100
AcDbEntity
  8
1PHANTOM
100
AcDbLine
 10
3029.144719819928
 20
-1864.943504527496
 30
0.0
 11
3028.994719819928
 21
-1865.693504527496
 31
0.0
  0
LINE
  5
193CC
102
{ACAD_REACTORS
330
1951D
102
}
330
18
100
AcDbEntity
  8
1PHANTOM
100
AcDbLine
 10
3031.144719819928
 20
-1864.943504527496
 30
0.0
 11
3030.994719819928
 21
-1865.693504527496
 31
0.0
  0
LINE
  5
193CD
102
{ACAD_REACTORS
330
1951D
102
}
330
18
100
AcDbEntity
  8
1PHANTOM
100
AcDbLine
 10
3027.144719819928
 20
-1864.943504527496
 30
0.0
 11
3026.994719819928
 21
-1865.693504527496
 31
0.0
  0
LINE
  5
193CE
102
{ACAD_REACTORS
330
1951D
102
}
330
18
100
AcDbEntity
  8
1PHANTOM
100
AcDbLine
 10
3025.144719819928
 20
-1864.943504527496
 30
0.0
 11
3024.994719819928
 21
-1865.693504527496
 31
0.0
  0
LINE
  5
193CF
102
{ACAD_REACTORS
330
1951D
102
}
330
18
100
AcDbEntity
  8
1PHANTOM
100
AcDbLine
 10
3023.994719819928
 20
-1860.693504527496
 30
0.0
 11
3023.844719819928
 21
-1861.443504527496
 31
0.0
  0
LINE
  5
193D0
102
{ACAD_REACTORS
330
1951D
102
}
330
18
100
AcDbEntity
  8
1PHANTOM
100
AcDbLine
 10
3023.876854233882
 20
-1867.943504527496
 30
0.0
 11
3023.876854233882
 21
-1858.443504527496
 31
0.0
  0
LINE
  5
1A438
330
18
100
AcDbEntity
  8
01
100
AcDbLine
 10
3039.876854233989
 20
-1822.591416779707
 30
0.0
 11
3039.876854233989
 21
-1903.795592275291
 31
0.0
  0
LINE
  5
1A439
330
18
100
AcDbEntity
  8
01
100
AcDbLine
 10
3024.876854233989
 20
-1822.591416779707
 30
0.0
 11
3024.876854233989
 21
-1903.795592275291
 31
0.0
  0
ARC
  5
1A762
330
18
100
AcDbEntity
  8
1PHANTOM
100
AcDbCircle
 10
2835.606276214756
 20
-1860.693504527498
 30
0.0
 40
2.5
100
AcDbArc
 50
0.0
 51
180.0
  0
ARC
  5
1A763
330
18
100
AcDbEntity
  8
1PHANTOM
100
AcDbCircle
 10
2835.606276214756
 20
-1865.6935045275
 30
0.0
 40
2.5
100
AcDbArc
 50
180.0
 51
0.0
  0
LINE
  5
1A764
330
18
100
AcDbEntity
  8
1PHANTOM
100
AcDbLine
 10
2838.106276214756
 20
-1865.6935045275
 30
0.0
 11
2838.106276214756
 21
-1860.693504527498
 31
0.0
  0
LINE
  5
1A765
330
18
100
AcDbEntity
  8
1PHANTOM
100
AcDbLine
 10
2833.106276214756
 20
-1865.6935045275
 30
0.0
 11
2833.106276214756
 21
-1860.693504527498
 31
0.0
  0
LINE
  5
1A76A
330
18
100
AcDbEntity
  8
1CENTER
100
AcDbLine
 10
2835.606276214756
 20
-1869.772055484287
 30
0.0
 11
2835.606276214756
 21
-1856.614953570711
 31
0.0
  0
LINE
  5
1A99D
330
18
100
AcDbEntity
  8
01
100
AcDbLine
 10
2945.606276214756
 20
-1829.193504527499
 30
0.0
 11
2809.106276214756
 21
-1829.193504527499
 31
0.0
  0
LINE
  5
1A99E
330
18
100
AcDbEntity
  8
01
100
AcDbLine
 10
2945.606276214756
 20
-1897.193504527499
 30
0.0
 11
2809.106276214756
 21
-1897.193504527499
 31
0.0
  0
LINE
  5
1A99F
330
18
100
AcDbEntity
  8
01
100
AcDbLine
 10
2809.106276214756
 20
-1829.193504527499
 30
0.0
 11
2809.106276214756
 21
-1897.193504527498
 31
0.0
  0
LINE
  5
1A9A0
330
18
100
AcDbEntity
  8
01
100
AcDbLine
 10
2945.606276214756
 20
-1829.193504527499
 30
0.0
 11
2945.606276214756
 21
-1897.193504527498
 31
0.0
  0
LINE
  5
1A9A1
330
18
100
AcDbEntity
  8
01
100
AcDbLine
 10
2811.106276214756
 20
-1741.602124600516
 30
0.0
 11
2809.106276214756
 21
-1741.602124600516
 31
0.0
  0
LINE
  5
1A9A2
330
18
100
AcDbEntity
  8
01
100
AcDbLine
 10
2809.106276214756
 20
-1779.102124600516
 30
0.0
 11
2809.106276214756
 21
-1741.602124600516
 31
0.0
  0
ARC
  5
1A9A4
330
18
100
AcDbEntity
  8
01
100
AcDbCircle
 10
2809.606276214756
 20
-1779.102124600516
 30
0.0
 40
0.5
100
AcDbArc
 50
180.0
 51
270.0
  0
LINE
  5
1A9A6
330
18
100
AcDbEntity
  8
01
100
AcDbLine
 10
2811.106276214756
 20
-1777.602124600516
 30
0.0
 11
2811.106276214756
 21
-1741.602124600516
 31
0.0
  0
LINE
  5
1A9AA
330
18
100
AcDbEntity
  8
01
100
AcDbLine
 10
2986.87685423399
 20
-1897.193504527499
 30
0.0
 11
3024.876854233987
 21
-1897.193504527499
 31
0.0
  0
LINE
  5
1A9AC
330
18
100
AcDbEntity
  8
01
100
AcDbLine
 10
2986.87685423399
 20
-1829.193504527499
 30
0.0
 11
3024.876854233992
 21
-1829.193504527499
 31
0.0
  0
LINE
  5
1A9AE
330
18
100
AcDbEntity
  8
01
100
AcDbLine
 10
2986.87685423399
 20
-1829.193504527499
 30
0.0
 11
2986.876854233989
 21
-1897.193504527499
 31
0.0
  0
LINE
  5
1A9AF
330
18
100
AcDbEntity
  8
01
100
AcDbLine
 10
3024.87685423399
 20
-1829.193504527499
 30
0.0
 11
3024.876854233989
 21
-1897.193504527499
 31
0.0
  0
LINE
  5
1A9B5
330
18
100
AcDbEntity
  8
01
100
AcDbLine
 10
2945.606276214756
 20
-1741.602124600516
 30
0.0
 11
2943.606276214756
 21
-1741.602124600516
 31
0.0
  0
LINE
  5
1A9B6
330
18
100
AcDbEntity
  8
01
100
AcDbLine
 10
2945.106276214756
 20
-1779.602124600516
 30
0.0
 11
2809.606276214756
 21
-1779.602124600516
 31
0.0
  0
ARC
  5
1A9B8
330
18
100
AcDbEntity
  8
01
100
AcDbCircle
 10
2945.106276214756
 20
-1779.102124600516
 30
0.0
 40
0.5
100
AcDbArc
 50
270.0
 51
0.0
  0
LINE
  5
1A9BA
330
18
100
AcDbEntity
  8
01
100
AcDbLine
 10
2943.606276214756
 20
-1777.602124600516
 30
0.0
 11
2811.106276214756
 21
-1777.602124600516
 31
0.0
  0
LINE
  5
1A9BB
330
18
100
AcDbEntity
  8
01
100
AcDbLine
 10
2945.606276214756
 20
-1779.102124600516
 30
0.0
 11
2945.606276214756
 21
-1741.602124600516
 31
0.0
  0
LINE
  5
1A9BD
330
18
100
AcDbEntity
  8
01
100
AcDbLine
 10
2943.606276214756
 20
-1777.602124600516
 30
0.0
 11
2943.606276214756
 21
-1741.602124600516
 31
0.0
  0
LINE
  5
1AAB6
330
18
100
AcDbEntity
  8
01
100
AcDbLine
 10
2811.206276214756
 20
-1777.002124600516
 30
0.0
 11
2811.206276214756
 21
-1741.602124600516
 31
0.0
  0
LINE
  5
1AAB7
330
18
100
AcDbEntity
  8
01
100
AcDbLine
 10
2811.206276214756
 20
-1741.602124600516
 30
0.0
 11
2943.506276214755
 21
-1741.602124600516
 31
0.0
  0
LINE
  5
1AAB8
330
18
100
AcDbEntity
  8
01
100
AcDbLine
 10
2943.506276214755
 20
-1777.002124600516
 30
0.0
 11
2943.506276214756
 21
-1741.602124600516
 31
0.0
  0
LINE
  5
1AAB9
330
18
100
AcDbEntity
  8
01
100
AcDbLine
 10
2943.506276214755
 20
-1777.002124600516
 30
0.0
 11
2811.206276214756
 21
-1777.002124600516
 31
0.0
  0
LINE
  5
1AABA
330
18
100
AcDbEntity
  8
1CENTER
100
AcDbLine
 10
2839.356276214756
 20
-1701.000449600515
 30
0.0
 11
2839.356276214756
 21
-1746.444555174484
 31
0.0
  0
LINE
  5
1AABB
330
18
100
AcDbEntity
  8
1PHANTOM
100
AcDbLine
 10
2836.856276214756
 20
-1726.484259014469
 30
0.0
 11
2841.856276214756
 21
-1725.484259014469
 31
0.0
  0
LINE
  5
1AABC
330
18
100
AcDbEntity
  8
1PHANTOM
100
AcDbLine
 10
2837.606276214756
 20
-1709.133213513761
 30
0.0
 11
2837.606276214755
 21
-1741.602124600516
 31
0.0
  0
LINE
  5
1AABD
330
18
100
AcDbEntity
  8
1PHANTOM
100
AcDbLine
 10
2839.356276214756
 20
-1702.602124600516
 30
0.0
 11
2837.606276214756
 21
-1709.133213513761
 31
0.0
  0
LINE
  5
1AABE
330
18
100
AcDbEntity
  8
1PHANTOM
100
AcDbLine
 10
2839.356276214756
 20
-1702.602124600516
 30
0.0
 11
2841.106276214756
 21
-1709.133213513761
 31
0.0
  0
LINE
  5
1AABF
330
18
100
AcDbEntity
  8
1PHANTOM
100
AcDbLine
 10
2841.106276214756
 20
-1709.133213513761
 30
0.0
 11
2841.106276214756
 21
-1741.602124600515
 31
0.0
  0
LINE
  5
1AAC0
330
18
100
AcDbEntity
  8
1PHANTOM
100
AcDbLine
 10
2837.04000927372
 20
-1708.447512402677
 30
0.0
 11
2837.79000927372
 21
-1708.597512402676
 31
0.0
  0
LINE
  5
1AAC1
330
18
100
AcDbEntity
  8
1PHANTOM
100
AcDbLine
 10
2837.04000927372
 20
-1708.447512402677
 30
0.0
 11
2841.436913754811
 21
-1707.568131506458
 31
0.0
  0
LINE
  5
1AAC2
330
18
100
AcDbEntity
  8
1PHANTOM
100
AcDbLine
 10
2839.6696329017
 20
-1703.62158767708
 30
0.0
 11
2840.4196329017
 21
-1703.771587677081
 31
0.0
  0
LINE
  5
1AAC3
330
18
100
AcDbEntity
  8
1PHANTOM
100
AcDbLine
 10
2838.172495814239
 20
-1704.221015094573
 30
0.0
 11
2838.922495814239
 21
-1704.371015094573
 31
0.0
  0
LINE
  5
1AAC4
330
18
100
AcDbEntity
  8
1PHANTOM
100
AcDbLine
 10
2838.172495814239
 20
-1704.221015094573
 30
0.0
 11
2840.4196329017
 21
-1703.771587677081
 31
0.0
  0
LINE
  5
1AAC5
330
18
100
AcDbEntity
  8
1PHANTOM
100
AcDbLine
 10
2840.686913754811
 20
-1707.418131506459
 30
0.0
 11
2841.436913754811
 21
-1707.568131506458
 31
0.0
  0
LINE
  5
1AAC6
330
18
100
AcDbEntity
  8
1PHANTOM
100
AcDbLine
 10
2840.178273328255
 20
-1705.519859591769
 30
0.0
 11
2840.928273328255
 21
-1705.66985959177
 31
0.0
  0
LINE
  5
1AAC7
330
18
100
AcDbEntity
  8
1PHANTOM
100
AcDbLine
 10
2837.606252543979
 20
-1706.334263748625
 30
0.0
 11
2838.356252543979
 21
-1706.484263748624
 31
0.0
  0
LINE
  5
1AAC8
330
18
100
AcDbEntity
  8
1PHANTOM
100
AcDbLine
 10
2837.606252543979
 20
-1706.334263748625
 30
0.0
 11
2840.928273328255
 21
-1705.66985959177
 31
0.0
  0
LINE
  5
1AAC9
330
18
100
AcDbEntity
  8
1PHANTOM
100
AcDbLine
 10
2841.106276214756
 20
-1717.334259014469
 30
0.0
 11
2841.856276214756
 21
-1717.484259014469
 31
0.0
  0
LINE
  5
1AACA
330
18
100
AcDbEntity
  8
1PHANTOM
100
AcDbLine
 10
2836.856276214756
 20
-1714.484259014469
 30
0.0
 11
2837.606276214756
 21
-1714.63425901447
 31
0.0
  0
LINE
  5
1AACB
330
18
100
AcDbEntity
  8
1PHANTOM
100
AcDbLine
 10
2836.856276214756
 20
-1716.484259014469
 30
0.0
 11
2837.606276214756
 21
-1716.63425901447
 31
0.0
  0
LINE
  5
1AACC
330
18
100
AcDbEntity
  8
1PHANTOM
100
AcDbLine
 10
2836.856276214756
 20
-1716.484259014469
 30
0.0
 11
2841.856276214756
 21
-1715.484259014469
 31
0.0
  0
LINE
  5
1AACD
330
18
100
AcDbEntity
  8
1PHANTOM
100
AcDbLine
 10
2836.856276214756
 20
-1712.484259014469
 30
0.0
 11
2837.606276214756
 21
-1712.63425901447
 31
0.0
  0
LINE
  5
1AACE
330
18
100
AcDbEntity
  8
1PHANTOM
100
AcDbLine
 10
2836.856276214756
 20
-1710.484259014469
 30
0.0
 11
2837.606276214756
 21
-1710.63425901447
 31
0.0
  0
LINE
  5
1AACF
330
18
100
AcDbEntity
  8
1PHANTOM
100
AcDbLine
 10
2836.856276214756
 20
-1710.484259014469
 30
0.0
 11
2841.856276214756
 21
-1709.484259014469
 31
0.0
  0
LINE
  5
1AAD0
330
18
100
AcDbEntity
  8
1PHANTOM
100
AcDbLine
 10
2836.856276214756
 20
-1712.484259014469
 30
0.0
 11
2841.856276214756
 21
-1711.484259014469
 31
0.0
  0
LINE
  5
1AAD1
330
18
100
AcDbEntity
  8
1PHANTOM
100
AcDbLine
 10
2836.856276214756
 20
-1714.484259014469
 30
0.0
 11
2841.856276214756
 21
-1713.484259014469
 31
0.0
  0
LINE
  5
1AAD2
330
18
100
AcDbEntity
  8
1PHANTOM
100
AcDbLine
 10
2841.106276214756
 20
-1709.334259014469
 30
0.0
 11
2841.856276214756
 21
-1709.484259014469
 31
0.0
  0
LINE
  5
1AAD3
330
18
100
AcDbEntity
  8
1PHANTOM
100
AcDbLine
 10
2841.106276214756
 20
-1711.334259014469
 30
0.0
 11
2841.856276214756
 21
-1711.484259014469
 31
0.0
  0
LINE
  5
1AAD4
330
18
100
AcDbEntity
  8
1PHANTOM
100
AcDbLine
 10
2841.106276214756
 20
-1715.334259014469
 30
0.0
 11
2841.856276214756
 21
-1715.484259014469
 31
0.0
  0
LINE
  5
1AAD5
330
18
100
AcDbEntity
  8
1PHANTOM
100
AcDbLine
 10
2841.106276214756
 20
-1713.334259014469
 30
0.0
 11
2841.856276214756
 21
-1713.484259014469
 31
0.0
  0
LINE
  5
1AAD6
330
18
100
AcDbEntity
  8
1PHANTOM
100
AcDbLine
 10
2836.856276214756
 20
-1720.484259014469
 30
0.0
 11
2837.606276214756
 21
-1720.63425901447
 31
0.0
  0
LINE
  5
1AAD7
330
18
100
AcDbEntity
  8
1PHANTOM
100
AcDbLine
 10
2836.856276214756
 20
-1718.484259014469
 30
0.0
 11
2837.606276214756
 21
-1718.63425901447
 31
0.0
  0
LINE
  5
1AAD8
330
18
100
AcDbEntity
  8
1PHANTOM
100
AcDbLine
 10
2836.856276214756
 20
-1724.484259014469
 30
0.0
 11
2837.606276214756
 21
-1724.63425901447
 31
0.0
  0
LINE
  5
1AAD9
330
18
100
AcDbEntity
  8
1PHANTOM
100
AcDbLine
 10
2836.856276214756
 20
-1722.484259014469
 30
0.0
 11
2837.606276214756
 21
-1722.63425901447
 31
0.0
  0
LINE
  5
1AADA
330
18
100
AcDbEntity
  8
1PHANTOM
100
AcDbLine
 10
2836.856276214756
 20
-1718.484259014469
 30
0.0
 11
2841.856276214756
 21
-1717.484259014469
 31
0.0
  0
LINE
  5
1AADB
330
18
100
AcDbEntity
  8
1PHANTOM
100
AcDbLine
 10
2836.856276214756
 20
-1720.484259014469
 30
0.0
 11
2841.856276214756
 21
-1719.484259014469
 31
0.0
  0
LINE
  5
1AADC
330
18
100
AcDbEntity
  8
1PHANTOM
100
AcDbLine
 10
2836.856276214756
 20
-1722.484259014469
 30
0.0
 11
2841.856276214756
 21
-1721.484259014469
 31
0.0
  0
LINE
  5
1AADD
330
18
100
AcDbEntity
  8
1PHANTOM
100
AcDbLine
 10
2836.856276214756
 20
-1724.484259014469
 30
0.0
 11
2841.856276214756
 21
-1723.484259014469
 31
0.0
  0
LINE
  5
1AADE
330
18
100
AcDbEntity
  8
1PHANTOM
100
AcDbLine
 10
2841.106276214756
 20
-1721.334259014469
 30
0.0
 11
2841.856276214756
 21
-1721.484259014469
 31
0.0
  0
LINE
  5
1AADF
330
18
100
AcDbEntity
  8
1PHANTOM
100
AcDbLine
 10
2841.106276214756
 20
-1719.334259014469
 30
0.0
 11
2841.856276214756
 21
-1719.484259014469
 31
0.0
  0
LINE
  5
1AAE0
330
18
100
AcDbEntity
  8
1PHANTOM
100
AcDbLine
 10
2841.106276214756
 20
-1725.334259014469
 30
0.0
 11
2841.856276214756
 21
-1725.484259014469
 31
0.0
  0
LINE
  5
1AAE1
330
18
100
AcDbEntity
  8
1PHANTOM
100
AcDbLine
 10
2841.106276214756
 20
-1723.334259014469
 30
0.0
 11
2841.856276214756
 21
-1723.484259014469
 31
0.0
  0
LINE
  5
1AAE2
330
18
100
AcDbEntity
  8
1PHANTOM
100
AcDbLine
 10
2841.266948284523
 20
-1741.602124600516
 30
0.0
 11
2841.856276214756
 21
-1741.484259014469
 31
0.0
  0
LINE
  5
1AAE3
330
18
100
AcDbEntity
  8
1PHANTOM
100
AcDbLine
 10
2836.856276214756
 20
-1734.484259014469
 30
0.0
 11
2841.856276214756
 21
-1733.484259014469
 31
0.0
  0
LINE
  5
1AAE4
330
18
100
AcDbEntity
  8
1PHANTOM
100
AcDbLine
 10
2836.856276214756
 20
-1726.484259014469
 30
0.0
 11
2837.606276214756
 21
-1726.63425901447
 31
0.0
  0
LINE
  5
1AAE5
330
18
100
AcDbEntity
  8
1PHANTOM
100
AcDbLine
 10
2836.856276214756
 20
-1728.484259014469
 30
0.0
 11
2837.606276214756
 21
-1728.63425901447
 31
0.0
  0
LINE
  5
1AAE6
330
18
100
AcDbEntity
  8
1PHANTOM
100
AcDbLine
 10
2836.856276214756
 20
-1730.484259014469
 30
0.0
 11
2837.606276214756
 21
-1730.63425901447
 31
0.0
  0
LINE
  5
1AAE7
330
18
100
AcDbEntity
  8
1PHANTOM
100
AcDbLine
 10
2836.856276214756
 20
-1732.484259014469
 30
0.0
 11
2837.606276214756
 21
-1732.63425901447
 31
0.0
  0
LINE
  5
1AAE8
330
18
100
AcDbEntity
  8
1PHANTOM
100
AcDbLine
 10
2836.856276214756
 20
-1728.484259014469
 30
0.0
 11
2841.856276214756
 21
-1727.484259014469
 31
0.0
  0
LINE
  5
1AAE9
330
18
100
AcDbEntity
  8
1PHANTOM
100
AcDbLine
 10
2836.856276214756
 20
-1730.484259014469
 30
0.0
 11
2841.856276214756
 21
-1729.484259014469
 31
0.0
  0
LINE
  5
1AAEA
330
18
100
AcDbEntity
  8
1PHANTOM
100
AcDbLine
 10
2836.856276214756
 20
-1732.484259014469
 30
0.0
 11
2841.856276214756
 21
-1731.484259014469
 31
0.0
  0
LINE
  5
1AAEB
330
18
100
AcDbEntity
  8
1PHANTOM
100
AcDbLine
 10
2841.106276214756
 20
-1727.334259014469
 30
0.0
 11
2841.856276214756
 21
-1727.484259014469
 31
0.0
  0
LINE
  5
1AAEC
330
18
100
AcDbEntity
  8
1PHANTOM
100
AcDbLine
 10
2841.106276214756
 20
-1729.334259014469
 30
0.0
 11
2841.856276214756
 21
-1729.484259014469
 31
0.0
  0
LINE
  5
1AAED
330
18
100
AcDbEntity
  8
1PHANTOM
100
AcDbLine
 10
2841.106276214756
 20
-1731.334259014469
 30
0.0
 11
2841.856276214756
 21
-1731.484259014469
 31
0.0
  0
LINE
  5
1AAEE
330
18
100
AcDbEntity
  8
1PHANTOM
100
AcDbLine
 10
2841.106276214756
 20
-1733.334259014469
 30
0.0
 11
2841.856276214756
 21
-1733.484259014469
 31
0.0
  0
LINE
  5
1AAEF
330
18
100
AcDbEntity
  8
1PHANTOM
100
AcDbLine
 10
2836.856276214756
 20
-1738.484259014469
 30
0.0
 11
2837.606276214756
 21
-1738.63425901447
 31
0.0
  0
LINE
  5
1AAF0
330
18
100
AcDbEntity
  8
1PHANTOM
100
AcDbLine
 10
2836.856276214756
 20
-1736.484259014469
 30
0.0
 11
2837.606276214756
 21
-1736.63425901447
 31
0.0
  0
LINE
  5
1AAF1
330
18
100
AcDbEntity
  8
1PHANTOM
100
AcDbLine
 10
2836.856276214756
 20
-1734.484259014469
 30
0.0
 11
2837.606276214756
 21
-1734.63425901447
 31
0.0
  0
LINE
  5
1AAF2
330
18
100
AcDbEntity
  8
1PHANTOM
100
AcDbLine
 10
2836.856276214756
 20
-1740.484259014469
 30
0.0
 11
2837.606276214756
 21
-1740.63425901447
 31
0.0
  0
LINE
  5
1AAF3
330
18
100
AcDbEntity
  8
1PHANTOM
100
AcDbLine
 10
2836.856276214756
 20
-1736.484259014469
 30
0.0
 11
2841.856276214756
 21
-1735.484259014469
 31
0.0
  0
LINE
  5
1AAF4
330
18
100
AcDbEntity
  8
1PHANTOM
100
AcDbLine
 10
2836.856276214756
 20
-1738.484259014469
 30
0.0
 11
2841.856276214756
 21
-1737.484259014469
 31
0.0
  0
LINE
  5
1AAF5
330
18
100
AcDbEntity
  8
1PHANTOM
100
AcDbLine
 10
2836.856276214756
 20
-1740.484259014469
 30
0.0
 11
2841.856276214756
 21
-1739.484259014469
 31
0.0
  0
LINE
  5
1AAF6
330
18
100
AcDbEntity
  8
1PHANTOM
100
AcDbLine
 10
2841.106276214756
 20
-1737.334259014469
 30
0.0
 11
2841.856276214756
 21
-1737.484259014469
 31
0.0
  0
LINE
  5
1AAF7
330
18
100
AcDbEntity
  8
1PHANTOM
100
AcDbLine
 10
2841.106276214756
 20
-1735.334259014469
 30
0.0
 11
2841.856276214756
 21
-1735.484259014469
 31
0.0
  0
LINE
  5
1AAF8
330
18
100
AcDbEntity
  8
1PHANTOM
100
AcDbLine
 10
2841.106276214756
 20
-1739.334259014469
 30
0.0
 11
2841.856276214756
 21
-1739.484259014469
 31
0.0
  0
LINE
  5
1AAF9
330
18
100
AcDbEntity
  8
1PHANTOM
100
AcDbLine
 10
2841.106276214756
 20
-1741.334259014469
 30
0.0
 11
2841.856276214756
 21
-1741.484259014469
 31
0.0
  0
LINE
  5
1AAFB
330
18
100
AcDbEntity
  8
1CENTER
100
AcDbLine
 10
2917.356276214756
 20
-1701.000449600515
 30
0.0
 11
2917.356276214756
 21
-1746.444555174484
 31
0.0
  0
LINE
  5
1AAFC
330
18
100
AcDbEntity
  8
1PHANTOM
100
AcDbLine
 10
2914.856276214756
 20
-1726.484259014469
 30
0.0
 11
2919.856276214756
 21
-1725.484259014469
 31
0.0
  0
LINE
  5
1AAFD
330
18
100
AcDbEntity
  8
1PHANTOM
100
AcDbLine
 10
2915.606276214756
 20
-1709.133213513761
 30
0.0
 11
2915.606276214755
 21
-1741.602124600516
 31
0.0
  0
LINE
  5
1AAFE
330
18
100
AcDbEntity
  8
1PHANTOM
100
AcDbLine
 10
2917.356276214756
 20
-1702.602124600516
 30
0.0
 11
2915.606276214756
 21
-1709.133213513761
 31
0.0
  0
LINE
  5
1AAFF
330
18
100
AcDbEntity
  8
1PHANTOM
100
AcDbLine
 10
2917.356276214756
 20
-1702.602124600516
 30
0.0
 11
2919.106276214756
 21
-1709.133213513761
 31
0.0
  0
LINE
  5
1AB00
330
18
100
AcDbEntity
  8
1PHANTOM
100
AcDbLine
 10
2919.106276214756
 20
-1709.133213513761
 30
0.0
 11
2919.106276214756
 21
-1741.602124600515
 31
0.0
  0
LINE
  5
1AB01
330
18
100
AcDbEntity
  8
1PHANTOM
100
AcDbLine
 10
2915.04000927372
 20
-1708.447512402677
 30
0.0
 11
2915.79000927372
 21
-1708.597512402676
 31
0.0
  0
LINE
  5
1AB02
330
18
100
AcDbEntity
  8
1PHANTOM
100
AcDbLine
 10
2915.04000927372
 20
-1708.447512402677
 30
0.0
 11
2919.436913754811
 21
-1707.568131506458
 31
0.0
  0
LINE
  5
1AB03
330
18
100
AcDbEntity
  8
1PHANTOM
100
AcDbLine
 10
2917.6696329017
 20
-1703.62158767708
 30
0.0
 11
2918.4196329017
 21
-1703.771587677081
 31
0.0
  0
LINE
  5
1AB04
330
18
100
AcDbEntity
  8
1PHANTOM
100
AcDbLine
 10
2916.172495814239
 20
-1704.221015094573
 30
0.0
 11
2916.922495814239
 21
-1704.371015094573
 31
0.0
  0
LINE
  5
1AB05
330
18
100
AcDbEntity
  8
1PHANTOM
100
AcDbLine
 10
2916.172495814239
 20
-1704.221015094573
 30
0.0
 11
2918.4196329017
 21
-1703.771587677081
 31
0.0
  0
LINE
  5
1AB06
330
18
100
AcDbEntity
  8
1PHANTOM
100
AcDbLine
 10
2918.686913754811
 20
-1707.418131506459
 30
0.0
 11
2919.436913754811
 21
-1707.568131506458
 31
0.0
  0
LINE
  5
1AB07
330
18
100
AcDbEntity
  8
1PHANTOM
100
AcDbLine
 10
2918.178273328255
 20
-1705.519859591769
 30
0.0
 11
2918.928273328255
 21
-1705.66985959177
 31
0.0
  0
LINE
  5
1AB08
330
18
100
AcDbEntity
  8
1PHANTOM
100
AcDbLine
 10
2915.606252543979
 20
-1706.334263748625
 30
0.0
 11
2916.356252543979
 21
-1706.484263748624
 31
0.0
  0
LINE
  5
1AB09
330
18
100
AcDbEntity
  8
1PHANTOM
100
AcDbLine
 10
2915.606252543979
 20
-1706.334263748625
 30
0.0
 11
2918.928273328255
 21
-1705.66985959177
 31
0.0
  0
LINE
  5
1AB0A
330
18
100
AcDbEntity
  8
1PHANTOM
100
AcDbLine
 10
2919.106276214756
 20
-1717.334259014469
 30
0.0
 11
2919.856276214756
 21
-1717.484259014469
 31
0.0
  0
LINE
  5
1AB0B
330
18
100
AcDbEntity
  8
1PHANTOM
100
AcDbLine
 10
2914.856276214756
 20
-1714.484259014469
 30
0.0
 11
2915.606276214756
 21
-1714.63425901447
 31
0.0
  0
LINE
  5
1AB0C
330
18
100
AcDbEntity
  8
1PHANTOM
100
AcDbLine
 10
2914.856276214756
 20
-1716.484259014469
 30
0.0
 11
2915.606276214756
 21
-1716.63425901447
 31
0.0
  0
LINE
  5
1AB0D
330
18
100
AcDbEntity
  8
1PHANTOM
100
AcDbLine
 10
2914.856276214756
 20
-1716.484259014469
 30
0.0
 11
2919.856276214756
 21
-1715.484259014469
 31
0.0
  0
LINE
  5
1AB0E
330
18
100
AcDbEntity
  8
1PHANTOM
100
AcDbLine
 10
2914.856276214756
 20
-1712.484259014469
 30
0.0
 11
2915.606276214756
 21
-1712.63425901447
 31
0.0
  0
LINE
  5
1AB0F
330
18
100
AcDbEntity
  8
1PHANTOM
100
AcDbLine
 10
2914.856276214756
 20
-1710.484259014469
 30
0.0
 11
2915.606276214756
 21
-1710.63425901447
 31
0.0
  0
LINE
  5
1AB10
330
18
100
AcDbEntity
  8
1PHANTOM
100
AcDbLine
 10
2914.856276214756
 20
-1710.484259014469
 30
0.0
 11
2919.856276214756
 21
-1709.484259014469
 31
0.0
  0
LINE
  5
1AB11
330
18
100
AcDbEntity
  8
1PHANTOM
100
AcDbLine
 10
2914.856276214756
 20
-1712.484259014469
 30
0.0
 11
2919.856276214756
 21
-1711.484259014469
 31
0.0
  0
LINE
  5
1AB12
330
18
100
AcDbEntity
  8
1PHANTOM
100
AcDbLine
 10
2914.856276214756
 20
-1714.484259014469
 30
0.0
 11
2919.856276214756
 21
-1713.484259014469
 31
0.0
  0
LINE
  5
1AB13
330
18
100
AcDbEntity
  8
1PHANTOM
100
AcDbLine
 10
2919.106276214756
 20
-1709.334259014469
 30
0.0
 11
2919.856276214756
 21
-1709.484259014469
 31
0.0
  0
LINE
  5
1AB14
330
18
100
AcDbEntity
  8
1PHANTOM
100
AcDbLine
 10
2919.106276214756
 20
-1711.334259014469
 30
0.0
 11
2919.856276214756
 21
-1711.484259014469
 31
0.0
  0
LINE
  5
1AB15
330
18
100
AcDbEntity
  8
1PHANTOM
100
AcDbLine
 10
2919.106276214756
 20
-1715.334259014469
 30
0.0
 11
2919.856276214756
 21
-1715.484259014469
 31
0.0
  0
LINE
  5
1AB16
330
18
100
AcDbEntity
  8
1PHANTOM
100
AcDbLine
 10
2919.106276214756
 20
-1713.334259014469
 30
0.0
 11
2919.856276214756
 21
-1713.484259014469
 31
0.0
  0
LINE
  5
1AB17
330
18
100
AcDbEntity
  8
1PHANTOM
100
AcDbLine
 10
2914.856276214756
 20
-1720.484259014469
 30
0.0
 11
2915.606276214756
 21
-1720.63425901447
 31
0.0
  0
LINE
  5
1AB18
330
18
100
AcDbEntity
  8
1PHANTOM
100
AcDbLine
 10
2914.856276214756
 20
-1718.484259014469
 30
0.0
 11
2915.606276214756
 21
-1718.63425901447
 31
0.0
  0
LINE
  5
1AB19
330
18
100
AcDbEntity
  8
1PHANTOM
100
AcDbLine
 10
2914.856276214756
 20
-1724.484259014469
 30
0.0
 11
2915.606276214756
 21
-1724.63425901447
 31
0.0
  0
LINE
  5
1AB1A
330
18
100
AcDbEntity
  8
1PHANTOM
100
AcDbLine
 10
2914.856276214756
 20
-1722.484259014469
 30
0.0
 11
2915.606276214756
 21
-1722.63425901447
 31
0.0
  0
LINE
  5
1AB1B
330
18
100
AcDbEntity
  8
1PHANTOM
100
AcDbLine
 10
2914.856276214756
 20
-1718.484259014469
 30
0.0
 11
2919.856276214756
 21
-1717.484259014469
 31
0.0
  0
LINE
  5
1AB1C
330
18
100
AcDbEntity
  8
1PHANTOM
100
AcDbLine
 10
2914.856276214756
 20
-1720.484259014469
 30
0.0
 11
2919.856276214756
 21
-1719.484259014469
 31
0.0
  0
LINE
  5
1AB1D
330
18
100
AcDbEntity
  8
1PHANTOM
100
AcDbLine
 10
2914.856276214756
 20
-1722.484259014469
 30
0.0
 11
2919.856276214756
 21
-1721.484259014469
 31
0.0
  0
LINE
  5
1AB1E
330
18
100
AcDbEntity
  8
1PHANTOM
100
AcDbLine
 10
2914.856276214756
 20
-1724.484259014469
 30
0.0
 11
2919.856276214756
 21
-1723.484259014469
 31
0.0
  0
LINE
  5
1AB1F
330
18
100
AcDbEntity
  8
1PHANTOM
100
AcDbLine
 10
2919.106276214756
 20
-1721.334259014469
 30
0.0
 11
2919.856276214756
 21
-1721.484259014469
 31
0.0
  0
LINE
  5
1AB20
330
18
100
AcDbEntity
  8
1PHANTOM
100
AcDbLine
 10
2919.106276214756
 20
-1719.334259014469
 30
0.0
 11
2919.856276214756
 21
-1719.484259014469
 31
0.0
  0
LINE
  5
1AB21
330
18
100
AcDbEntity
  8
1PHANTOM
100
AcDbLine
 10
2919.106276214756
 20
-1725.334259014469
 30
0.0
 11
2919.856276214756
 21
-1725.484259014469
 31
0.0
  0
LINE
  5
1AB22
330
18
100
AcDbEntity
  8
1PHANTOM
100
AcDbLine
 10
2919.106276214756
 20
-1723.334259014469
 30
0.0
 11
2919.856276214756
 21
-1723.484259014469
 31
0.0
  0
LINE
  5
1AB23
330
18
100
AcDbEntity
  8
1PHANTOM
100
AcDbLine
 10
2919.266948284523
 20
-1741.602124600516
 30
0.0
 11
2919.856276214756
 21
-1741.484259014469
 31
0.0
  0
LINE
  5
1AB24
330
18
100
AcDbEntity
  8
1PHANTOM
100
AcDbLine
 10
2914.856276214756
 20
-1734.484259014469
 30
0.0
 11
2919.856276214756
 21
-1733.484259014469
 31
0.0
  0
LINE
  5
1AB25
330
18
100
AcDbEntity
  8
1PHANTOM
100
AcDbLine
 10
2914.856276214756
 20
-1726.484259014469
 30
0.0
 11
2915.606276214756
 21
-1726.63425901447
 31
0.0
  0
LINE
  5
1AB26
330
18
100
AcDbEntity
  8
1PHANTOM
100
AcDbLine
 10
2914.856276214756
 20
-1728.484259014469
 30
0.0
 11
2915.606276214756
 21
-1728.63425901447
 31
0.0
  0
LINE
  5
1AB27
330
18
100
AcDbEntity
  8
1PHANTOM
100
AcDbLine
 10
2914.856276214756
 20
-1730.484259014469
 30
0.0
 11
2915.606276214756
 21
-1730.63425901447
 31
0.0
  0
LINE
  5
1AB28
330
18
100
AcDbEntity
  8
1PHANTOM
100
AcDbLine
 10
2914.856276214756
 20
-1732.484259014469
 30
0.0
 11
2915.606276214756
 21
-1732.63425901447
 31
0.0
  0
LINE
  5
1AB29
330
18
100
AcDbEntity
  8
1PHANTOM
100
AcDbLine
 10
2914.856276214756
 20
-1728.484259014469
 30
0.0
 11
2919.856276214756
 21
-1727.484259014469
 31
0.0
  0
LINE
  5
1AB2A
330
18
100
AcDbEntity
  8
1PHANTOM
100
AcDbLine
 10
2914.856276214756
 20
-1730.484259014469
 30
0.0
 11
2919.856276214756
 21
-1729.484259014469
 31
0.0
  0
LINE
  5
1AB2B
330
18
100
AcDbEntity
  8
1PHANTOM
100
AcDbLine
 10
2914.856276214756
 20
-1732.484259014469
 30
0.0
 11
2919.856276214756
 21
-1731.484259014469
 31
0.0
  0
LINE
  5
1AB2C
330
18
100
AcDbEntity
  8
1PHANTOM
100
AcDbLine
 10
2919.106276214756
 20
-1727.334259014469
 30
0.0
 11
2919.856276214756
 21
-1727.484259014469
 31
0.0
  0
LINE
  5
1AB2D
330
18
100
AcDbEntity
  8
1PHANTOM
100
AcDbLine
 10
2919.106276214756
 20
-1729.334259014469
 30
0.0
 11
2919.856276214756
 21
-1729.484259014469
 31
0.0
  0
LINE
  5
1AB2E
330
18
100
AcDbEntity
  8
1PHANTOM
100
AcDbLine
 10
2919.106276214756
 20
-1731.334259014469
 30
0.0
 11
2919.856276214756
 21
-1731.484259014469
 31
0.0
  0
LINE
  5
1AB2F
330
18
100
AcDbEntity
  8
1PHANTOM
100
AcDbLine
 10
2919.106276214756
 20
-1733.334259014469
 30
0.0
 11
2919.856276214756
 21
-1733.484259014469
 31
0.0
  0
LINE
  5
1AB30
330
18
100
AcDbEntity
  8
1PHANTOM
100
AcDbLine
 10
2914.856276214756
 20
-1738.484259014469
 30
0.0
 11
2915.606276214756
 21
-1738.63425901447
 31
0.0
  0
LINE
  5
1AB31
330
18
100
AcDbEntity
  8
1PHANTOM
100
AcDbLine
 10
2914.856276214756
 20
-1736.484259014469
 30
0.0
 11
2915.606276214756
 21
-1736.63425901447
 31
0.0
  0
LINE
  5
1AB32
330
18
100
AcDbEntity
  8
1PHANTOM
100
AcDbLine
 10
2914.856276214756
 20
-1734.484259014469
 30
0.0
 11
2915.606276214756
 21
-1734.63425901447
 31
0.0
  0
LINE
  5
1AB33
330
18
100
AcDbEntity
  8
1PHANTOM
100
AcDbLine
 10
2914.856276214756
 20
-1740.484259014469
 30
0.0
 11
2915.606276214756
 21
-1740.63425901447
 31
0.0
  0
LINE
  5
1AB34
330
18
100
AcDbEntity
  8
1PHANTOM
100
AcDbLine
 10
2914.856276214756
 20
-1736.484259014469
 30
0.0
 11
2919.856276214756
 21
-1735.484259014469
 31
0.0
  0
LINE
  5
1AB35
330
18
100
AcDbEntity
  8
1PHANTOM
100
AcDbLine
 10
2914.856276214756
 20
-1738.484259014469
 30
0.0
 11
2919.856276214756
 21
-1737.484259014469
 31
0.0
  0
LINE
  5
1AB36
330
18
100
AcDbEntity
  8
1PHANTOM
100
AcDbLine
 10
2914.856276214756
 20
-1740.484259014469
 30
0.0
 11
2919.856276214756
 21
-1739.484259014469
 31
0.0
  0
LINE
  5
1AB37
330
18
100
AcDbEntity
  8
1PHANTOM
100
AcDbLine
 10
2919.106276214756
 20
-1737.334259014469
 30
0.0
 11
2919.856276214756
 21
-1737.484259014469
 31
0.0
  0
LINE
  5
1AB38
330
18
100
AcDbEntity
  8
1PHANTOM
100
AcDbLine
 10
2919.106276214756
 20
-1735.334259014469
 30
0.0
 11
2919.856276214756
 21
-1735.484259014469
 31
0.0
  0
LINE
  5
1AB39
330
18
100
AcDbEntity
  8
1PHANTOM
100
AcDbLine
 10
2919.106276214756
 20
-1739.334259014469
 30
0.0
 11
2919.856276214756
 21
-1739.484259014469
 31
0.0
  0
LINE
  5
1AB3A
330
18
100
AcDbEntity
  8
1PHANTOM
100
AcDbLine
 10
2919.106276214756
 20
-1741.334259014469
 30
0.0
 11
2919.856276214756
 21
-1741.484259014469
 31
0.0
  0
LINE
  5
1AB55
330
18
100
AcDbEntity
  8
01
100
AcDbLine
 10
2843.356276214759
 20
-1829.193504527499
 30
0.0
 11
2842.856276214759
 21
-1824.193504527499
 31
0.0
  0
LINE
  5
1AB56
330
18
100
AcDbEntity
  8
1HATCH
100
AcDbLine
 10
2841.356276214759
 20
-1829.193504527499
 30
0.0
 11
2841.356276214759
 21
-1824.193504527499
 31
0.0
  0
LINE
  5
1AB57
330
18
100
AcDbEntity
  8
1HATCH
100
AcDbLine
 10
2842.356276214759
 20
-1829.193504527499
 30
0.0
 11
2842.356276214759
 21
-1824.193504527499
 31
0.0
  0
LINE
  5
1AB58
330
18
100
AcDbEntity
  8
01
100
AcDbLine
 10
2831.356276214759
 20
-1829.193504527499
 30
0.0
 11
2831.856276214759
 21
-1824.193504527499
 31
0.0
  0
LINE
  5
1AB59
330
18
100
AcDbEntity
  8
1HATCH
100
AcDbLine
 10
2832.356276214759
 20
-1829.193504527499
 30
0.0
 11
2832.356276214759
 21
-1824.193504527499
 31
0.0
  0
LINE
  5
1AB5A
330
18
100
AcDbEntity
  8
1HATCH
100
AcDbLine
 10
2833.356276214759
 20
-1829.193504527499
 30
0.0
 11
2833.356276214759
 21
-1824.193504527499
 31
0.0
  0
LINE
  5
1AB5B
330
18
100
AcDbEntity
  8
1HATCH
100
AcDbLine
 10
2834.356276214759
 20
-1829.193504527499
 30
0.0
 11
2834.356276214759
 21
-1824.193504527499
 31
0.0
  0
LINE
  5
1AB5C
330
18
100
AcDbEntity
  8
1HATCH
100
AcDbLine
 10
2835.356276214759
 20
-1829.193504527499
 30
0.0
 11
2835.356276214759
 21
-1824.193504527499
 31
0.0
  0
LINE
  5
1AB5D
330
18
100
AcDbEntity
  8
1HATCH
100
AcDbLine
 10
2836.356276214759
 20
-1829.193504527499
 30
0.0
 11
2836.356276214759
 21
-1824.193504527499
 31
0.0
  0
LINE
  5
1AB5E
330
18
100
AcDbEntity
  8
1HATCH
100
AcDbLine
 10
2838.356276214759
 20
-1829.193504527499
 30
0.0
 11
2838.356276214759
 21
-1824.193504527499
 31
0.0
  0
LINE
  5
1AB5F
330
18
100
AcDbEntity
  8
1HATCH
100
AcDbLine
 10
2839.356276214759
 20
-1829.193504527499
 30
0.0
 11
2839.356276214759
 21
-1824.193504527499
 31
0.0
  0
LINE
  5
1AB60
330
18
100
AcDbEntity
  8
1HATCH
100
AcDbLine
 10
2840.356276214759
 20
-1829.193504527499
 30
0.0
 11
2840.356276214759
 21
-1824.193504527499
 31
0.0
  0
LINE
  5
1AB61
330
18
100
AcDbEntity
  8
1HATCH
100
AcDbLine
 10
2837.356276214759
 20
-1824.193504527499
 30
0.0
 11
2837.356276214759
 21
-1829.193504527499
 31
0.0
  0
LINE
  5
1AB62
330
18
100
AcDbEntity
  8
01
100
AcDbLine
 10
2842.856276214759
 20
-1824.193504527499
 30
0.0
 11
2831.856276214759
 21
-1824.193504527499
 31
0.0
  0
LINE
  5
1AB63
330
18
100
AcDbEntity
  8
01
100
AcDbLine
 10
2843.356276214759
 20
-1829.193504527499
 30
0.0
 11
2831.356276214759
 21
-1829.193504527499
 31
0.0
  0
CIRCLE
  5
1AB64
330
18
100
AcDbEntity
  8
01
100
AcDbCircle
 10
2839.356276214756
 20
-1761.602124600516
 30
0.0
 40
5.5
  0
CIRCLE
  5
1AB65
330
18
100
AcDbEntity
  8
01
100
AcDbCircle
 10
2839.356276214756
 20
-1761.602124600516
 30
0.0
 40
6.0
  0
LINE
  5
1AB66
330
18
100
AcDbEntity
  8
01
100
AcDbLine
 10
2911.356276214753
 20
-1829.193504527499
 30
0.0
 11
2911.856276214753
 21
-1824.193504527499
 31
0.0
  0
LINE
  5
1AB67
330
18
100
AcDbEntity
  8
1HATCH
100
AcDbLine
 10
2913.356276214753
 20
-1829.193504527499
 30
0.0
 11
2913.356276214753
 21
-1824.193504527499
 31
0.0
  0
LINE
  5
1AB68
330
18
100
AcDbEntity
  8
1HATCH
100
AcDbLine
 10
2912.356276214753
 20
-1829.193504527499
 30
0.0
 11
2912.356276214753
 21
-1824.193504527499
 31
0.0
  0
LINE
  5
1AB69
330
18
100
AcDbEntity
  8
01
100
AcDbLine
 10
2923.356276214753
 20
-1829.193504527499
 30
0.0
 11
2922.856276214753
 21
-1824.193504527499
 31
0.0
  0
LINE
  5
1AB6A
330
18
100
AcDbEntity
  8
1HATCH
100
AcDbLine
 10
2922.356276214753
 20
-1829.193504527499
 30
0.0
 11
2922.356276214753
 21
-1824.193504527499
 31
0.0
  0
LINE
  5
1AB6B
330
18
100
AcDbEntity
  8
1HATCH
100
AcDbLine
 10
2921.356276214753
 20
-1829.193504527499
 30
0.0
 11
2921.356276214753
 21
-1824.193504527499
 31
0.0
  0
LINE
  5
1AB6C
330
18
100
AcDbEntity
  8
1HATCH
100
AcDbLine
 10
2920.356276214753
 20
-1829.193504527499
 30
0.0
 11
2920.356276214753
 21
-1824.193504527499
 31
0.0
  0
LINE
  5
1AB6D
330
18
100
AcDbEntity
  8
1HATCH
100
AcDbLine
 10
2919.356276214753
 20
-1829.193504527499
 30
0.0
 11
2919.356276214753
 21
-1824.193504527499
 31
0.0
  0
LINE
  5
1AB6E
330
18
100
AcDbEntity
  8
1HATCH
100
AcDbLine
 10
2918.356276214753
 20
-1829.193504527499
 30
0.0
 11
2918.356276214753
 21
-1824.193504527499
 31
0.0
  0
LINE
  5
1AB6F
330
18
100
AcDbEntity
  8
1HATCH
100
AcDbLine
 10
2916.356276214753
 20
-1829.193504527499
 30
0.0
 11
2916.356276214753
 21
-1824.193504527499
 31
0.0
  0
LINE
  5
1AB70
330
18
100
AcDbEntity
  8
1HATCH
100
AcDbLine
 10
2915.356276214753
 20
-1829.193504527499
 30
0.0
 11
2915.356276214753
 21
-1824.193504527499
 31
0.0
  0
LINE
  5
1AB71
330
18
100
AcDbEntity
  8
1HATCH
100
AcDbLine
 10
2914.356276214753
 20
-1829.193504527499
 30
0.0
 11
2914.356276214753
 21
-1824.193504527499
 31
0.0
  0
LINE
  5
1AB72
330
18
100
AcDbEntity
  8
1HATCH
100
AcDbLine
 10
2917.356276214753
 20
-1824.193504527499
 30
0.0
 11
2917.356276214753
 21
-1829.193504527499
 31
0.0
  0
LINE
  5
1AB73
330
18
100
AcDbEntity
  8
01
100
AcDbLine
 10
2911.856276214753
 20
-1824.193504527499
 30
0.0
 11
2922.856276214753
 21
-1824.193504527499
 31
0.0
  0
LINE
  5
1AB74
330
18
100
AcDbEntity
  8
01
100
AcDbLine
 10
2911.356276214753
 20
-1829.193504527499
 30
0.0
 11
2923.356276214753
 21
-1829.193504527499
 31
0.0
  0
CIRCLE
  5
1AB75
330
18
100
AcDbEntity
  8
01
100
AcDbCircle
 10
2917.356276214756
 20
-1761.602124600516
 30
0.0
 40
5.5
  0
CIRCLE
  5
1AB76
330
18
100
AcDbEntity
  8
01
100
AcDbCircle
 10
2917.356276214756
 20
-1761.602124600516
 30
0.0
 40
6.0
  0
LINE
  5
1AB78
330
18
100
AcDbEntity
  8
01
100
AcDbLine
 10
2998.87685423399
 20
-1829.193504527498
 30
0.0
 11
2999.37685423399
 21
-1824.193504527498
 31
0.0
  0
LINE
  5
1AB79
330
18
100
AcDbEntity
  8
1HATCH
100
AcDbLine
 10
3000.87685423399
 20
-1829.193504527498
 30
0.0
 11
3000.87685423399
 21
-1824.193504527498
 31
0.0
  0
LINE
  5
1AB7A
330
18
100
AcDbEntity
  8
1HATCH
100
AcDbLine
 10
2999.87685423399
 20
-1829.193504527498
 30
0.0
 11
2999.87685423399
 21
-1824.193504527498
 31
0.0
  0
LINE
  5
1AB7B
330
18
100
AcDbEntity
  8
01
100
AcDbLine
 10
3010.87685423399
 20
-1829.193504527498
 30
0.0
 11
3010.37685423399
 21
-1824.193504527498
 31
0.0
  0
LINE
  5
1AB7C
330
18
100
AcDbEntity
  8
1HATCH
100
AcDbLine
 10
3009.87685423399
 20
-1829.193504527498
 30
0.0
 11
3009.87685423399
 21
-1824.193504527498
 31
0.0
  0
LINE
  5
1AB7D
330
18
100
AcDbEntity
  8
1HATCH
100
AcDbLine
 10
3008.87685423399
 20
-1829.193504527498
 30
0.0
 11
3008.87685423399
 21
-1824.193504527498
 31
0.0
  0
LINE
  5
1AB7E
330
18
100
AcDbEntity
  8
1HATCH
100
AcDbLine
 10
3007.87685423399
 20
-1829.193504527498
 30
0.0
 11
3007.87685423399
 21
-1824.193504527498
 31
0.0
  0
LINE
  5
1AB7F
330
18
100
AcDbEntity
  8
1HATCH
100
AcDbLine
 10
3006.87685423399
 20
-1829.193504527498
 30
0.0
 11
3006.87685423399
 21
-1824.193504527498
 31
0.0
  0
LINE
  5
1AB80
330
18
100
AcDbEntity
  8
1HATCH
100
AcDbLine
 10
3005.87685423399
 20
-1829.193504527498
 30
0.0
 11
3005.87685423399
 21
-1824.193504527498
 31
0.0
  0
LINE
  5
1AB81
330
18
100
AcDbEntity
  8
1HATCH
100
AcDbLine
 10
3003.87685423399
 20
-1829.193504527498
 30
0.0
 11
3003.87685423399
 21
-1824.193504527498
 31
0.0
  0
LINE
  5
1AB82
330
18
100
AcDbEntity
  8
1HATCH
100
AcDbLine
 10
3002.87685423399
 20
-1829.193504527498
 30
0.0
 11
3002.87685423399
 21
-1824.193504527498
 31
0.0
  0
LINE
  5
1AB83
330
18
100
AcDbEntity
  8
1HATCH
100
AcDbLine
 10
3001.87685423399
 20
-1829.193504527498
 30
0.0
 11
3001.87685423399
 21
-1824.193504527498
 31
0.0
  0
LINE
  5
1AB84
330
18
100
AcDbEntity
  8
1HATCH
100
AcDbLine
 10
3004.87685423399
 20
-1824.193504527498
 30
0.0
 11
3004.87685423399
 21
-1829.193504527498
 31
0.0
  0
LINE
  5
1AB85
330
18
100
AcDbEntity
  8
01
100
AcDbLine
 10
2999.37685423399
 20
-1824.193504527498
 30
0.0
 11
3010.37685423399
 21
-1824.193504527498
 31
0.0
  0
LINE
  5
1AB86
330
18
100
AcDbEntity
  8
01
100
AcDbLine
 10
2998.87685423399
 20
-1829.193504527498
 30
0.0
 11
3010.87685423399
 21
-1829.193504527498
 31
0.0
  0
LINE
  5
1AB87
330
18
100
AcDbEntity
  8
1CENTER
100
AcDbLine
 10
2830.687085998283
 20
-1863.193504527499
 30
0.0
 11
2840.525466431228
 21
-1863.193504527499
 31
0.0
  0
ARC
  5
1AB88
330
18
100
AcDbEntity
  8
1PHANTOM
100
AcDbCircle
 10
2919.106276214756
 20
-1860.693504527498
 30
0.0
 40
2.5
100
AcDbArc
 50
0.0
 51
180.0
  0
ARC
  5
1AB89
330
18
100
AcDbEntity
  8
1PHANTOM
100
AcDbCircle
 10
2919.106276214756
 20
-1865.6935045275
 30
0.0
 40
2.5
100
AcDbArc
 50
180.0
 51
0.0
  0
LINE
  5
1AB8A
330
18
100
AcDbEntity
  8
1PHANTOM
100
AcDbLine
 10
2916.606276214756
 20
-1865.6935045275
 30
0.0
 11
2916.606276214756
 21
-1860.693504527498
 31
0.0
  0
LINE
  5
1AB8B
330
18
100
AcDbEntity
  8
1PHANTOM
100
AcDbLine
 10
2921.606276214756
 20
-1865.6935045275
 30
0.0
 11
2921.606276214756
 21
-1860.693504527498
 31
0.0
  0
LINE
  5
1AB8C
330
18
100
AcDbEntity
  8
1CENTER
100
AcDbLine
 10
2919.106276214756
 20
-1869.772055484287
 30
0.0
 11
2919.106276214756
 21
-1856.614953570711
 31
0.0
  0
LINE
  5
1AB8D
330
18
100
AcDbEntity
  8
1CENTER
100
AcDbLine
 10
2924.025466431228
 20
-1863.193504527499
 30
0.0
 11
2914.187085998283
 21
-1863.193504527499
 31
0.0
  0
SOLID
  5
1AE79
330
18
100
AcDbEntity
  8
1DIM
100
AcDbTrace
 10
2937.527624624253
 20
-1836.695293217937
 30
0.0
 11
2936.200772161263
 21
-1838.228451283033
 31
0.0
 12
2936.958662415952
 22
-1836.347836098323
 32
0.0
 13
2936.958662415952
 23
-1836.347836098323
 33
0.0
  0
LINE
  5
1AE7A
330
18
100
AcDbEntity
  8
1DIM
100
AcDbLine
 10
2937.243143520102
 20
-1836.52156465813
 30
0.0
 11
2959.390004979704
 21
-1800.256004127897
 31
0.0
  0
LINE
  5
1AE7B
330
18
100
AcDbEntity
  8
1DIM
100
AcDbLine
 10
2959.390004979704
 20
-1800.256004127897
 30
0.0
 11
2994.873338313037
 21
-1800.256004127897
 31
0.0
  0
TEXT
  5
1AE7C
330
18
100
AcDbEntity
  8
1CENTER
  6
CONTINUOUS
100
AcDbText
 10
2961.856671646371
 20
-1793.722670794563
 30
0.0
 40
3.5
  1
材質：アルミ
100
AcDbText
  0
TEXT
  5
1AE7D
330
18
100
AcDbEntity
  8
1CENTER
  6
CONTINUOUS
100
AcDbText
 10
2961.973338313037
 20
-1799.556004127897
 30
0.0
 40
3.5
  1
仕上げ：各種仕上
100
AcDbText
  0
LINE
  5
1AE7E
330
18
100
AcDbEntity
  8
1DIM
100
AcDbLine
 10
2835.606276214756
 20
-1856.614953570711
 30
0.0
 11
2835.606276214756
 21
-1818.20878958954
 31
0.0
  0
LINE
  5
1AE7F
330
18
100
AcDbEntity
  8
1DIM
100
AcDbLine
 10
2919.106276214756
 20
-1856.614953570711
 30
0.0
 11
2919.106276214756
 21
-1818.20878958954
 31
0.0
  0
LINE
  5
1AE80
330
18
100
AcDbEntity
  8
1DIM
100
AcDbLine
 10
2837.606276214756
 20
-1819.20878958954
 30
0.0
 11
2917.106276214756
 21
-1819.20878958954
 31
0.0
  0
LINE
  5
1AE84
330
18
100
AcDbEntity
  8
1DIM
100
AcDbLine
 10
2809.106276214756
 20
-1829.193504527499
 30
0.0
 11
2809.106276214756
 21
-1809.012124888144
 31
0.0
  0
LINE
  5
1AE85
330
18
100
AcDbEntity
  8
1DIM
100
AcDbLine
 10
2945.606276214756
 20
-1829.193504527499
 30
0.0
 11
2945.606276214756
 21
-1809.012124888144
 31
0.0
  0
LINE
  5
1AE86
330
18
100
AcDbEntity
  8
1DIM
100
AcDbLine
 10
2811.106276214756
 20
-1810.012124888144
 30
0.0
 11
2943.606276214756
 21
-1810.012124888144
 31
0.0
  0
LINE
  5
1AE8A
330
18
100
AcDbEntity
  8
1DIM
100
AcDbLine
 10
2945.606276214756
 20
-1897.193504527499
 30
0.0
 11
2965.563458514691
 21
-1897.193504527499
 31
0.0
  0
LINE
  5
1AE8B
330
18
100
AcDbEntity
  8
1DIM
100
AcDbLine
 10
2945.606276214756
 20
-1829.193504527499
 30
0.0
 11
2965.563458514691
 21
-1829.193504527499
 31
0.0
  0
LINE
  5
1AE8C
330
18
100
AcDbEntity
  8
1DIM
100
AcDbLine
 10
2964.563458514691
 20
-1895.193504527499
 30
0.0
 11
2964.563458514691
 21
-1831.193504527499
 31
0.0
  0
LINE
  5
1AE90
330
18
100
AcDbEntity
  8
1DIM
100
AcDbLine
 10
2945.606276214756
 20
-1897.193504527498
 30
0.0
 11
2956.295171863142
 21
-1897.193504527498
 31
0.0
  0
LINE
  5
1AE91
330
18
100
AcDbEntity
  8
1DIM
100
AcDbLine
 10
2924.025466431228
 20
-1863.193504527499
 30
0.0
 11
2956.295171863142
 21
-1863.193504527499
 31
0.0
  0
LINE
  5
1AE92
330
18
100
AcDbEntity
  8
1DIM
100
AcDbLine
 10
2955.295171863142
 20
-1895.193504527498
 30
0.0
 11
2955.295171863142
 21
-1865.193504527499
 31
0.0
  0
LINE
  5
1AE96
330
18
100
AcDbEntity
  8
1DIM
100
AcDbLine
 10
2986.87685423399
 20
-1829.193504527499
 30
0.0
 11
2986.87685423399
 21
-1809.012124888144
 31
0.0
  0
LINE
  5
1AE97
330
18
100
AcDbEntity
  8
1DIM
100
AcDbLine
 10
3024.876854233989
 20
-1822.591416779707
 30
0.0
 11
3024.876854233989
 21
-1809.012124888144
 31
0.0
  0
LINE
  5
1AE98
330
18
100
AcDbEntity
  8
1DIM
100
AcDbLine
 10
2988.87685423399
 20
-1810.012124888144
 30
0.0
 11
3022.876854233989
 21
-1810.012124888144
 31
0.0
  0
LINE
  5
1AE9C
330
18
100
AcDbEntity
  8
0
  6
BYBLOCK
100
AcDbLine
 10
2837.606276214756
 20
-1819.74468796954
 30
0.0
 11
2835.606276214756
 21
-1819.20878958954
 31
0.0
  0
LINE
  5
1AE9D
330
18
100
AcDbEntity
  8
0
  6
BYBLOCK
100
AcDbLine
 10
2835.606276214756
 20
-1819.20878958954
 30
0.0
 11
2837.606276214756
 21
-1818.67289120954
 31
0.0
  0
LINE
  5
1AE9E
330
18
100
AcDbEntity
  8
0
  6
BYBLOCK
100
AcDbLine
 10
2835.606276214756
 20
-1819.20878958954
 30
0.0
 11
2837.606276214756
 21
-1819.20878958954
 31
0.0
  0
LINE
  5
1AE9F
330
18
100
AcDbEntity
  8
0
  6
BYBLOCK
100
AcDbLine
 10
2917.106276214756
 20
-1818.67289120954
 30
0.0
 11
2919.106276214756
 21
-1819.20878958954
 31
0.0
  0
LINE
  5
1AEA0
330
18
100
AcDbEntity
  8
0
  6
BYBLOCK
100
AcDbLine
 10
2919.106276214756
 20
-1819.20878958954
 30
0.0
 11
2917.106276214756
 21
-1819.74468796954
 31
0.0
  0
LINE
  5
1AEA1
330
18
100
AcDbEntity
  8
0
  6
BYBLOCK
100
AcDbLine
 10
2919.106276214756
 20
-1819.20878958954
 30
0.0
 11
2917.106276214756
 21
-1819.20878958954
 31
0.0
  0
TEXT
  5
1AEA2
330
18
100
AcDbEntity
  8
1DIM
  6
CONTINUOUS
100
AcDbText
 10
2868.606276214756
 20
-1818.50878958954
 30
0.0
 40
3.5
  1
P=83.5
100
AcDbText
  0
LINE
  5
1AEA3
330
18
100
AcDbEntity
  8
0
  6
BYBLOCK
100
AcDbLine
 10
2811.106276214756
 20
-1810.548023268144
 30
0.0
 11
2809.106276214756
 21
-1810.012124888144
 31
0.0
  0
LINE
  5
1AEA4
330
18
100
AcDbEntity
  8
0
  6
BYBLOCK
100
AcDbLine
 10
2809.106276214756
 20
-1810.012124888144
 30
0.0
 11
2811.106276214756
 21
-1809.476226508144
 31
0.0
  0
LINE
  5
1AEA5
330
18
100
AcDbEntity
  8
0
  6
BYBLOCK
100
AcDbLine
 10
2809.106276214756
 20
-1810.012124888144
 30
0.0
 11
2811.106276214756
 21
-1810.012124888144
 31
0.0
  0
LINE
  5
1AEA6
330
18
100
AcDbEntity
  8
0
  6
BYBLOCK
100
AcDbLine
 10
2943.606276214756
 20
-1809.476226508144
 30
0.0
 11
2945.606276214756
 21
-1810.012124888144
 31
0.0
  0
LINE
  5
1AEA7
330
18
100
AcDbEntity
  8
0
  6
BYBLOCK
100
AcDbLine
 10
2945.606276214756
 20
-1810.012124888144
 30
0.0
 11
2943.606276214756
 21
-1810.548023268144
 31
0.0
  0
LINE
  5
1AEA8
330
18
100
AcDbEntity
  8
0
  6
BYBLOCK
100
AcDbLine
 10
2945.606276214756
 20
-1810.012124888144
 30
0.0
 11
2943.606276214756
 21
-1810.012124888144
 31
0.0
  0
TEXT
  5
1AEA9
330
18
100
AcDbEntity
  8
1DIM
  6
CONTINUOUS
100
AcDbText
 10
2870.927456770311
 20
-1809.312124888144
 30
0.0
 40
3.5
  1
136.5
100
AcDbText
  0
LINE
  5
1AEAA
330
18
100
AcDbEntity
  8
0
  6
BYBLOCK
100
AcDbLine
 10
2965.099356894691
 20
-1895.193504527499
 30
0.0
 11
2964.563458514691
 21
-1897.193504527499
 31
0.0
  0
LINE
  5
1AEAB
330
18
100
AcDbEntity
  8
0
  6
BYBLOCK
100
AcDbLine
 10
2964.563458514691
 20
-1897.193504527499
 30
0.0
 11
2964.027560134691
 21
-1895.193504527499
 31
0.0
  0
LINE
  5
1AEAC
330
18
100
AcDbEntity
  8
0
  6
BYBLOCK
100
AcDbLine
 10
2964.563458514691
 20
-1897.193504527499
 30
0.0
 11
2964.563458514691
 21
-1895.193504527499
 31
0.0
  0
LINE
  5
1AEAD
330
18
100
AcDbEntity
  8
0
  6
BYBLOCK
100
AcDbLine
 10
2964.027560134691
 20
-1831.193504527499
 30
0.0
 11
2964.563458514691
 21
-1829.193504527499
 31
0.0
  0
LINE
  5
1AEAE
330
18
100
AcDbEntity
  8
0
  6
BYBLOCK
100
AcDbLine
 10
2964.563458514691
 20
-1829.193504527499
 30
0.0
 11
2965.099356894691
 21
-1831.193504527499
 31
0.0
  0
LINE
  5
1AEAF
330
18
100
AcDbEntity
  8
0
  6
BYBLOCK
100
AcDbLine
 10
2964.563458514691
 20
-1829.193504527499
 30
0.0
 11
2964.563458514691
 21
-1831.193504527499
 31
0.0
  0
TEXT
  5
1AEB0
330
18
100
AcDbEntity
  8
1DIM
  6
CONTINUOUS
100
AcDbText
 10
2963.863458514692
 20
-1866.122323971943
 30
0.0
 40
3.5
  1
68
 50
90.0
100
AcDbText
  0
LINE
  5
1AEB1
330
18
100
AcDbEntity
  8
0
  6
BYBLOCK
100
AcDbLine
 10
2955.831070243142
 20
-1895.193504527498
 30
0.0
 11
2955.295171863142
 21
-1897.193504527498
 31
0.0
  0
LINE
  5
1AEB2
330
18
100
AcDbEntity
  8
0
  6
BYBLOCK
100
AcDbLine
 10
2955.295171863142
 20
-1897.193504527498
 30
0.0
 11
2954.759273483141
 21
-1895.193504527498
 31
0.0
  0
LINE
  5
1AEB3
330
18
100
AcDbEntity
  8
0
  6
BYBLOCK
100
AcDbLine
 10
2955.295171863142
 20
-1897.193504527498
 30
0.0
 11
2955.295171863142
 21
-1895.193504527498
 31
0.0
  0
LINE
  5
1AEB4
330
18
100
AcDbEntity
  8
0
  6
BYBLOCK
100
AcDbLine
 10
2954.759273483141
 20
-1865.193504527499
 30
0.0
 11
2955.295171863142
 21
-1863.193504527499
 31
0.0
  0
LINE
  5
1AEB5
330
18
100
AcDbEntity
  8
0
  6
BYBLOCK
100
AcDbLine
 10
2955.295171863142
 20
-1863.193504527499
 30
0.0
 11
2955.831070243142
 21
-1865.193504527499
 31
0.0
  0
LINE
  5
1AEB6
330
18
100
AcDbEntity
  8
0
  6
BYBLOCK
100
AcDbLine
 10
2955.295171863142
 20
-1863.193504527499
 30
0.0
 11
2955.295171863142
 21
-1865.193504527499
 31
0.0
  0
TEXT
  5
1AEB7
330
18
100
AcDbEntity
  8
1DIM
  6
CONTINUOUS
100
AcDbText
 10
2954.595171863142
 20
-1883.110171194165
 30
0.0
 40
3.5
  1
34
 50
90.0
100
AcDbText
  0
LINE
  5
1AEB8
330
18
100
AcDbEntity
  8
0
  6
BYBLOCK
100
AcDbLine
 10
2988.87685423399
 20
-1810.548023268144
 30
0.0
 11
2986.87685423399
 21
-1810.012124888144
 31
0.0
  0
LINE
  5
1AEB9
330
18
100
AcDbEntity
  8
0
  6
BYBLOCK
100
AcDbLine
 10
2986.87685423399
 20
-1810.012124888144
 30
0.0
 11
2988.87685423399
 21
-1809.476226508144
 31
0.0
  0
LINE
  5
1AEBA
330
18
100
AcDbEntity
  8
0
  6
BYBLOCK
100
AcDbLine
 10
2986.87685423399
 20
-1810.012124888144
 30
0.0
 11
2988.87685423399
 21
-1810.012124888144
 31
0.0
  0
LINE
  5
1AEBB
330
18
100
AcDbEntity
  8
0
  6
BYBLOCK
100
AcDbLine
 10
3022.876854233989
 20
-1809.476226508144
 30
0.0
 11
3024.876854233989
 21
-1810.012124888144
 31
0.0
  0
LINE
  5
1AEBC
330
18
100
AcDbEntity
  8
0
  6
BYBLOCK
100
AcDbLine
 10
3024.876854233989
 20
-1810.012124888144
 30
0.0
 11
3022.876854233989
 21
-1810.548023268144
 31
0.0
  0
LINE
  5
1AEBD
330
18
100
AcDbEntity
  8
0
  6
BYBLOCK
100
AcDbLine
 10
3024.876854233989
 20
-1810.012124888144
 30
0.0
 11
3022.876854233989
 21
-1810.012124888144
 31
0.0
  0
TEXT
  5
1AEBE
330
18
100
AcDbEntity
  8
1DIM
  6
CONTINUOUS
100
AcDbText
 10
3002.960187567323
 20
-1809.312124888144
 30
0.0
 40
3.5
  1
38
100
AcDbText
  0
VIEWPORT
  5
57
330
15
100
AcDbEntity
 67
     1
  8
0
100
AcDbViewport
 68
     1
 10
0.0
 20
0.0
 30
0.0
 40
547.8363136176066
 41
297.0
 68
     1
 69
     1
1001
ACAD
1000
MVIEW
1002
{
1070
    16
1010
0.0
1020
0.0
1030
0.0
1010
0.0
1020
0.0
1030
1.0
1040
0.0
1040
297.0
1040
-4.272048862584541
1040
18.33904653606845
1040
50.0
1040
0.0
1040
0.0
1070
    16
1070
   100
1070
     0
1070
     1
1070
     0
1070
     0
1070
     0
1070
     0
1040
0.0
1040
0.0
1040
0.0
1040
10.0
1040
10.0
1040
10.0
1040
10.0
1070
     0
1002
{
1002
}
1002
}
  0
ENDSEC
  0
SECTION
  2
OBJECTS
  0
DICTIONARY
  5
C
330
0
100
AcDbDictionary
  3
ACAD_COLOR
350
2D0
  3
ACAD_GROUP
350
D
  3
ACAD_LAYOUT
350
2D1
  3
ACAD_MATERIAL
350
2CF
  3
ACAD_MLEADERSTYLE
350
15B98
  3
ACAD_MLINESTYLE
350
1B
  3
ACAD_PLOTSETTINGS
350
2D2
  3
ACAD_SCALELIST
350
15B76
  3
ACAD_VISUALSTYLE
350
15B65
  3
ACDBHEADERROUNDTRIPXREC
350
1AEBF
  3
ACDBVARIABLEDICTIONARY
350
37
  3
AEC_PROPERTY_SET_DEFS
350
1767D
  3
CONTENTDICTIONARY
350
D8
  3
DRAWINGVARIABLESDICT
350
20
  3
DWGPROPS
350
1AEC2
1001
ACAD
1000
TREAT_AS_HARD
1070
     0
  0
DICTIONARY
  5
14EC2
330
2
100
AcDbDictionary
  3
ACAD_LAYERSTATES
360
14EC3
1001
ACAD
1000
TREAT_AS_HARD
1070
     1
  0
DICTIONARY
  5
15BB5
330
E
100
AcDbDictionary
  3
ADSK_XREC_LAYER_RECONCILED
360
15BB6
1001
ACAD
1000
TREAT_AS_HARD
1070
     1
  0
DICTIONARY
  5
15BB7
330
29
100
AcDbDictionary
  3
ADSK_XREC_LAYER_RECONCILED
360
15BB8
1001
ACAD
1000
TREAT_AS_HARD
1070
     1
  0
DICTIONARY
  5
15BB9
330
31
100
AcDbDictionary
  3
ADSK_XREC_LAYER_RECONCILED
360
15BBA
1001
ACAD
1000
TREAT_AS_HARD
1070
     1
  0
DICTIONARY
  5
15BC3
330
101
100
AcDbDictionary
  3
ADSK_XREC_LAYER_RECONCILED
360
15BC4
1001
ACAD
1000
TREAT_AS_HARD
1070
     1
  0
DICTIONARY
  5
15BC7
330
103
100
AcDbDictionary
  3
ADSK_XREC_LAYER_RECONCILED
360
15BC8
1001
ACAD
1000
TREAT_AS_HARD
1070
     1
  0
DICTIONARY
  5
15BCB
330
25F
100
AcDbDictionary
  3
ADSK_XREC_LAYER_RECONCILED
360
15BCC
1001
ACAD
1000
TREAT_AS_HARD
1070
     1
  0
DICTIONARY
  5
15BE7
330
26D
100
AcDbDictionary
  3
ADSK_XREC_LAYER_RECONCILED
360
15BE8
1001
ACAD
1000
TREAT_AS_HARD
1070
     1
  0
DICTIONARY
  5
6E9
330
18
100
AcDbDictionary
  3
ACAD_SORTENTS
360
6EA
1001
ACAD
1000
TREAT_AS_HARD
1070
     1
  0
DICTIONARY
  5
59B
330
15
100
AcDbDictionary
  3
ACAD_SORTENTS
360
59C
1001
ACAD
1000
TREAT_AS_HARD
1070
     1
  0
DICTIONARY
  5
2D0
102
{ACAD_REACTORS
330
C
102
}
330
C
100
AcDbDictionary
1001
ACAD
1000
TREAT_AS_HARD
1070
     0
  0
DICTIONARY
  5
D
102
{ACAD_REACTORS
330
C
102
}
330
C
100
AcDbDictionary
  3
*A1
350
1951D
1001
ACAD
1000
TREAT_AS_HARD
1070
     0
  0
DICTIONARY
  5
2D1
102
{ACAD_REACTORS
330
C
102
}
330
C
100
AcDbDictionary
1001
ACAD
1000
TREAT_AS_HARD
1070
     0
  0
DICTIONARY
  5
2CF
102
{ACAD_REACTORS
330
C
102
}
330
C
100
AcDbDictionary
  3
BYBLOCK
350
15B55
  3
BYLAYER
350
15B4D
  3
GLOBAL
350
15B5D
1001
ACAD
1000
TREAT_AS_HARD
1070
     0
  0
DICTIONARY
  5
15B98
102
{ACAD_REACTORS
330
C
102
}
330
C
100
AcDbDictionary
  3
STANDARD
350
15B99
1001
ACAD
1000
TREAT_AS_HARD
1070
     0
  0
DICTIONARY
  5
1B
102
{ACAD_REACTORS
330
C
102
}
330
C
100
AcDbDictionary
  3
STANDARD
350
1C
1001
ACAD
1000
TREAT_AS_HARD
1070
     0
  0
DICTIONARY
  5
2D2
102
{ACAD_REACTORS
330
C
102
}
330
C
100
AcDbDictionary
1001
ACAD
1000
TREAT_AS_HARD
1070
     0
  0
DICTIONARY
  5
15B76
102
{ACAD_REACTORS
330
C
102
}
330
C
100
AcDbDictionary
  3
A0
350
15B77
  3
A1
350
15B78
  3
A2
350
15B79
  3
A3
350
15B7A
  3
A4
350
15B7B
  3
A5
350
15B7C
  3
A6
350
15B7D
  3
A7
350
15B7E
  3
A8
350
15B7F
  3
A9
350
15B80
  3
B0
350
15B81
  3
B1
350
15B82
  3
B2
350
15B83
  3
B3
350
15B84
  3
B4
350
15B85
  3
B5
350
15B86
  3
B6
350
15B87
  3
B7
350
15B88
  3
B8
350
15B89
  3
B9
350
15B8A
  3
C0
350
15B8B
  3
C1
350
15B8C
  3
C2
350
15B8D
  3
C3
350
15B8E
  3
C4
350
15B8F
  3
C5
350
15B90
  3
C6
350
15B91
  3
C7
350
15B92
  3
C8
350
15B93
  3
C9
350
15B94
  3
D0
350
15B95
  3
D1
350
15B96
  3
D2
350
15B97
1001
ACAD
1000
TREAT_AS_HARD
1070
     0
  0
DICTIONARY
  5
15B65
102
{ACAD_REACTORS
330
C
102
}
330
C
100
AcDbDictionary
  3
2DWIREFRAME
350
15B6B
  3
3D_HIDDEN
350
15B6D
  3
3DWIREFRAME
350
15B6C
  3
BASIC
350
15B6A
  3
BRIGHTEN
350
15B71
  3
COLORCHANGE
350
15B75
  3
CONCEPTUAL
350
15B6E
  3
DIM
350
15B70
  3
EDGECOLOROFF
350
174DB
  3
FACEPATTERN
350
15B74
  3
FLAT
350
15B66
  3
FLATWITHEDGES
350
15B67
  3
GOURAUD
350
15B68
  3
GOURAUDWITHEDGES
350
15B69
  3
HIDDEN
350
1AC91
  3
JITTEROFF
350
174D9
  3
LINEPATTERN
350
15B73
  3
MODELING
350
1AC97
  3
OVERHANGOFF
350
174DA
  3
REALISTIC
350
15B6F
  3
SHADED
350
1AC96
  3
SHADED_WITH_EDGES
350
1AC95
  3
SHADES_OF_GRAY
350
1AC92
  3
SKETCHY
350
1AC93
  3
THICKEN
350
15B72
  3
WIREFRAME
350
1AC90
  3
X-RAY
350
1AC94
1001
ACAD
1000
TREAT_AS_HARD
1070
     0
  0
DICTIONARY
  5
1AEBF
102
{ACAD_REACTORS
330
C
102
}
330
C
100
AcDbDictionary
  3
COLORDICT
350
1AEC0
  3
MATERIALDICT
350
1AEC1
1001
ACAD
1000
TREAT_AS_HARD
1070
     0
  0
DICTIONARY
  5
37
102
{ACAD_REACTORS
330
C
102
}
330
C
100
AcDbDictionary
  3
CANNOSCALE
350
1AC99
  3
CMLEADERSTYLE
350
15C4B
  3
CTABLESTYLE
350
4F1
  3
DIMADEC
350
38
  3
DIMASSOC
350
408
  3
HIDETEXT
350
1891
  3
INDEXCTL
350
15C4E
  3
INTERSECTIONCOLOR
350
1895
  3
INTERSECTIONDISPLAY
350
1894
  3
MSLTSCALE
350
1AC9A
  3
OBSCOLOR
350
1892
  3
OBSLTYPE
350
1893
  3
PROJECTNAME
350
409
  3
SORTENTS
350
15C4D
  3
XCLIPFRAME
350
1AC8F
1001
ACAD
1000
TREAT_AS_HARD
1070
     0
  0
DICTIONARY
  5
1767D
102
{ACAD_REACTORS
330
C
102
}
330
C
100
AcDbDictionary
1001
ACAD
1000
TREAT_AS_HARD
1070
     0
  0
DICTIONARY
  5
D8
102
{ACAD_REACTORS
330
C
102
}
330
C
100
AcDbDictionary
1001
CONTENTTABDATA
1070
    11
1000
Child
1000
D:\ACLT\TABset\CHILDREN.dwg
1070
     0
1070
     0
1070
     1
1000
PK
1000
D:\ACLT\TABset\PK.dwg
1070
     0
1070
     0
1070
     1
1000
Lev1
1000
D:\ACLT\TABset\Lever01.dwg
1070
     0
1070
     0
1070
     1
1000
Lev2
1000
D:\ACLT\TABset\Lever02.dwg
1070
     0
1070
     0
1070
     1
1000
L3
1000
D:\Aclt\TABset\Lever03.dwg
1070
     0
1070
     0
1070
     1
1000
Form
1000
D:\ACLT\FORMAT
1070
     1
1070
     0
1070
     1
1000
Jnt
1000
D:\ACLT\TABset\JOINTPARTS.dwg
1070
     0
1070
     0
1070
     1
1000
ISO
1000
D:\ACLT\TABset\Isome01.dwg
1070
     0
1070
     0
1070
     1
1000
R
1000
D:\ACLT\TABset\REGION.dwg
1070
     0
1070
     0
1070
     1
1000
std
1000
D:\ACLT\TABset\std_sym_all.dwg
1070
     0
1070
     0
1070
     1
1000
丸
1000
D:\Aclt\TABset\MARU.dwg
1070
     0
1070
     0
1070
     1
1001
CONTENTCURRENTTAB
1070
     0
1001
ACAD
1000
TREAT_AS_HARD
1070
     0
  0
DICTIONARY
  5
20
102
{ACAD_REACTORS
330
C
102
}
330
C
100
AcDbDictionary
1001
DRAWINGVARIABLESXDATA
1000
POLARANG
1000
0.261799387799149410000000
1000
POLARMODE
1000
1
1000
POLARSTYLE
1000
1
1001
ACAD
1000
TREAT_AS_HARD
1070
     0
  0
XRECORD
  5
1AEC2
102
{ACAD_REACTORS
330
C
102
}
330
C
100
AcDbXrecord
  1
DWGPROPS COOKIE
  2

  3

  4

  6

  7

  8
619
  9

300
=
301
=
302
=
303
=
304
=
305
=
306
=
307
=
308
=
309
=
 40
0.0
 41
2453033.357663484
 42
2459562.299366944
  1

 90
        0
  0
DICTIONARY
  5
14EC3
102
{ACAD_REACTORS
330
14EC2
102
}
330
14EC2
100
AcDbDictionary
1001
ACAD
1000
TREAT_AS_HARD
1070
     0
  0
ACAD_PROXY_OBJECT
  5
15BB6
102
{ACAD_REACTORS
330
15BB5
102
}
330
15BB5
100
AcDbZombieObject
 90
      499
 91
      518
 93
       34
310
40C8804040
  0
ACAD_PROXY_OBJECT
  5
15BB8
102
{ACAD_REACTORS
330
15BB7
102
}
330
15BB7
100
AcDbZombieObject
 90
      499
 91
      518
 93
       34
310
40C8804040
  0
ACAD_PROXY_OBJECT
  5
15BBA
102
{ACAD_REACTORS
330
15BB9
102
}
330
15BB9
100
AcDbZombieObject
 90
      499
 91
      518
 93
       34
310
40C8804040
  0
ACAD_PROXY_OBJECT
  5
15BC4
102
{ACAD_REACTORS
330
15BC3
102
}
330
15BC3
100
AcDbZombieObject
 90
      499
 91
      518
 93
       34
310
40C8804040
  0
ACAD_PROXY_OBJECT
  5
15BC8
102
{ACAD_REACTORS
330
15BC7
102
}
330
15BC7
100
AcDbZombieObject
 90
      499
 91
      518
 93
       34
310
40C8804040
  0
ACAD_PROXY_OBJECT
  5
15BCC
102
{ACAD_REACTORS
330
15BCB
102
}
330
15BCB
100
AcDbZombieObject
 90
      499
 91
      518
 93
       34
310
40C8804040
  0
ACAD_PROXY_OBJECT
  5
15BE8
102
{ACAD_REACTORS
330
15BE7
102
}
330
15BE7
100
AcDbZombieObject
 90
      499
 91
      518
 93
       34
310
40C8804040
  0
SORTENTSTABLE
  5
6EA
102
{ACAD_REACTORS
330
6E9
102
}
330
6E9
100
AcDbSortentsTable
330
18
331
1A438
  5
1A765
331
1A439
  5
1A76A
331
1A762
  5
1A99D
331
1A763
  5
1A99E
331
1A764
  5
1A99F
331
1A765
  5
1A9A0
331
1A76A
  5
1A9A1
331
1A99D
  5
1A9A2
331
1A99E
  5
1A9A4
331
1A99F
  5
1A9A6
331
1A9A0
  5
1A9AA
331
1A9A1
  5
1A9AC
331
1A9A2
  5
1A9AE
331
1A9A4
  5
1A9AF
331
1A9A6
  5
1A9B6
331
1A9AA
  5
1A9B8
331
1A9AC
  5
1A9BA
331
1A9AE
  5
1A9BB
331
1A9AF
  5
1A9BD
331
1A9B5
  5
1A9C1
331
1A9B6
  5
1AAB7
331
1A9B8
  5
1AAB9
331
1A9BA
  5
1AABA
331
1A9BB
  5
1AABB
331
1A9BD
  5
1AABC
331
1AAB6
  5
1AABD
331
1AAB7
  5
1AABE
331
1AAB8
  5
1AABF
331
1AAB9
  5
1AAC0
331
1AABA
  5
1AAC1
331
1AABB
  5
1AAC2
331
1AABC
  5
1AAC3
331
1AABD
  5
1AAC4
331
1AABE
  5
1AAC5
331
1AABF
  5
1AAC6
331
1AAC0
  5
1AAC7
331
1AAC1
  5
1AAC8
331
1AAC2
  5
1AAC9
331
1AAC3
  5
1AACA
331
1AAC4
  5
1AACB
331
1AAC5
  5
1AACC
331
1AAC6
  5
1AACD
331
1AAC7
  5
1AACE
331
1AAC8
  5
1AACF
331
1AAC9
  5
1AAD0
331
1AACA
  5
1AAD1
331
1AACB
  5
1AAD2
331
1AACC
  5
1AAD3
331
1AACD
  5
1AAD4
331
1AACE
  5
1AAD5
331
1AACF
  5
1AAD6
331
1AAD0
  5
1AAD7
331
1AAD1
  5
1AAD8
331
1AAD2
  5
1AAD9
331
1AAD3
  5
1AADA
331
1AAD4
  5
1AADB
331
1AAD5
  5
1AADC
331
1AAD6
  5
1AADD
331
1AAD7
  5
1AADE
331
1AAD8
  5
1AADF
331
1AAD9
  5
1AAE0
331
1AADA
  5
1AAE1
331
1AADB
  5
1AAE2
331
1AADC
  5
1AAE3
331
1AADD
  5
1AAE4
331
1AADE
  5
1AAE5
331
1AADF
  5
1AAE6
331
1AAE0
  5
1AAE7
331
1AAE1
  5
1AAE8
331
1AAE2
  5
1AAE9
331
1AAE3
  5
1AAEA
331
1AAE4
  5
1AAEB
331
1AAE5
  5
1AAEC
331
1AAE6
  5
1AAED
331
1AAE7
  5
1AAEE
331
1AAE8
  5
1AAEF
331
1AAE9
  5
1AAF0
331
1AAEA
  5
1AAF1
331
1AAEB
  5
1AAF2
331
1AAEC
  5
1AAF3
331
1AAED
  5
1AAF4
331
1AAEE
  5
1AAF5
331
1AAEF
  5
1AAF6
331
1AAF0
  5
1AAF7
331
1AAF1
  5
1AAF8
331
1AAF2
  5
1AAF9
331
1AAF3
  5
1AAFB
331
1AAF4
  5
1AAFC
331
1AAF5
  5
1AAFD
331
1AAF6
  5
1AAFE
331
1AAF7
  5
1AAFF
331
1AAF8
  5
1AB00
331
1AAF9
  5
1AB01
331
1AAFB
  5
1AB02
331
1AAFC
  5
1AB03
331
1AAFD
  5
1AB04
331
1AAFE
  5
1AB05
331
1AAFF
  5
1AB06
331
1AB00
  5
1AB07
331
1AB01
  5
1AB08
331
1AB02
  5
1AB09
331
1AB03
  5
1AB0A
331
1AB04
  5
1AB0B
331
1AB05
  5
1AB0C
331
1AB06
  5
1AB0D
331
1AB07
  5
1AB0E
331
1AB08
  5
1AB0F
331
1AB09
  5
1AB10
331
1AB0A
  5
1AB11
331
1AB0B
  5
1AB12
331
1AB0C
  5
1AB13
331
1AB0D
  5
1AB14
331
1AB0E
  5
1AB15
331
1AB0F
  5
1AB16
331
1AB10
  5
1AB17
331
1AB11
  5
1AB18
331
1AB12
  5
1AB19
331
1AB13
  5
1AB1A
331
1AB14
  5
1AB1B
331
1AB15
  5
1AB1C
331
1AB16
  5
1AB1D
331
1AB17
  5
1AB1E
331
1AB18
  5
1AB1F
331
1AB19
  5
1AB20
331
1AB1A
  5
1AB21
331
1AB1B
  5
1AB22
331
1AB1C
  5
1AB23
331
1AB1D
  5
1AB24
331
1AB1E
  5
1AB25
331
1AB1F
  5
1AB26
331
1AB20
  5
1AB27
331
1AB21
  5
1AB28
331
1AB22
  5
1AB29
331
1AB23
  5
1AB2A
331
1AB24
  5
1AB2B
331
1AB25
  5
1AB2C
331
1AB26
  5
1AB2D
331
1AB27
  5
1AB2E
331
1AB28
  5
1AB2F
331
1AB29
  5
1AB30
331
1AB2A
  5
1AB31
331
1AB2B
  5
1AB32
331
1AB2C
  5
1AB33
331
1AB2D
  5
1AB34
331
1AB2E
  5
1AB35
331
1AB2F
  5
1AB36
331
1AB30
  5
1AB37
331
1AB31
  5
1AB38
331
1AB32
  5
1AB39
331
1AB33
  5
1AB3A
331
1AB34
  5
1AB3C
331
1AB35
  5
1AB55
331
1AB36
  5
1AB56
331
1AB37
  5
1AB57
331
1AB38
  5
1AB58
331
1AB39
  5
1AB59
331
1AB3A
  5
1AB5A
331
1AB55
  5
1AB5B
331
1AB56
  5
1AB5C
331
1AB57
  5
1AB5D
331
1AB58
  5
1AB5E
331
1AB59
  5
1AB5F
331
1AB5A
  5
1AB60
331
1AB5B
  5
1AB61
331
1AB5C
  5
1AB62
331
1AB5D
  5
1AB63
331
1AB5E
  5
1AB64
331
1AB5F
  5
1AB65
331
1AB60
  5
1AB66
331
1AB61
  5
1AB67
331
1AB62
  5
1AB68
331
1AB63
  5
1AB69
331
1AB64
  5
1AB6A
331
1AB65
  5
1AB6B
331
1AB66
  5
1AB6C
331
1AB67
  5
1AB6D
331
1AB68
  5
1AB6E
331
1AB69
  5
1AB6F
331
1AB6A
  5
1AB70
331
1AB6B
  5
1AB71
331
1AB6C
  5
1AB72
331
1AB6D
  5
1AB73
331
1AB6E
  5
1AB74
331
1AB6F
  5
1AB75
331
1AB70
  5
1AB76
331
1AB71
  5
1AB77
331
1AB72
  5
1AB78
331
1AB73
  5
1AB79
331
1AB74
  5
1AB7A
331
1AB75
  5
1AB7B
331
1AB76
  5
1AB7C
331
1AB78
  5
1AB7D
331
1AB79
  5
1AB7E
331
1AB7A
  5
1AB7F
331
1AB7B
  5
1AB80
331
1AB7C
  5
1AB81
331
1AB7D
  5
1AB82
331
1AB7E
  5
1AB83
331
1AB7F
  5
1AB84
331
1AB80
  5
1AB85
331
1AB81
  5
1AB86
331
1AB82
  5
1AB87
331
1AB83
  5
1AB88
331
1AB84
  5
1AB89
331
1AB85
  5
1AB8A
331
1AB86
  5
1AB8B
331
1AB87
  5
1AB8C
331
1AB88
  5
1AB8D
331
1AB89
  5
1AE79
331
1AB8A
  5
1AE7A
331
1AB8B
  5
1AE7B
331
1AB8C
  5
1AE7C
331
1AB8D
  5
1AE7D
331
1AE79
  5
1A438
331
1AE7A
  5
1A439
331
1AE7B
  5
1A762
331
1AE7C
  5
1A763
331
1AE7D
  5
1A764
331
1AE84
  5
1AE91
331
1AE85
  5
1AE92
331
1AE86
  5
1AE96
331
1AE8A
  5
1AEA1
331
1AE8B
  5
1AEA2
331
1AE8C
  5
1AEA3
331
1AE90
  5
1AEAB
331
1AE91
  5
1AEAC
331
1AE92
  5
1AEAD
331
1AE96
  5
1AEB5
331
1AE97
  5
1AEB6
331
1AE98
  5
1AEB7
331
1AE9C
  5
1AE84
331
1AE9D
  5
1AE85
331
1AE9E
  5
1AE86
331
1AE9F
  5
1AE8A
331
1AEA0
  5
1AE8B
331
1AEA1
  5
1AE8C
331
1AEA2
  5
1AE90
331
1AEA3
  5
1AE97
331
1AEA4
  5
1AE98
331
1AEA5
  5
1AE9C
331
1AEA6
  5
1AE9D
331
1AEA7
  5
1AE9E
331
1AEA8
  5
1AE9F
331
1AEA9
  5
1AEA0
331
1AEAA
  5
1AEA4
331
1AEAB
  5
1AEA5
331
1AEAC
  5
1AEA6
331
1AEAD
  5
1AEA7
331
1AEAE
  5
1AEA8
331
1AEAF
  5
1AEA9
331
1AEB0
  5
1AEAA
331
1AEB1
  5
1AEAE
331
1AEB2
  5
1AEAF
331
1AEB3
  5
1AEB0
331
1AEB4
  5
1AEB1
331
1AEB5
  5
1AEB2
331
1AEB6
  5
1AEB3
331
1AEB7
  5
1AEB4
  0
SORTENTSTABLE
  5
59C
102
{ACAD_REACTORS
330
59B
102
}
330
59B
100
AcDbSortentsTable
330
15
331
57
  5
57
331
0
  5
70
331
0
  5
15E0C
331
0
  5
15E0D
331
0
  5
15E0E
331
0
  5
15E0F
331
0
  5
15E10
331
0
  5
15E11
331
0
  5
15E12
331
0
  5
15E13
331
0
  5
15E14
331
0
  5
15E15
331
0
  5
15E16
331
0
  5
15E17
331
0
  5
15E18
331
0
  5
15E19
331
0
  5
15E1A
331
0
  5
15FEC
331
0
  5
15FED
331
0
  5
15FEE
331
0
  5
15FEF
331
0
  5
15E1C
331
0
  5
15E1D
331
0
  5
15E1E
331
0
  5
15E1F
331
0
  5
15E20
331
0
  5
15E21
331
0
  5
15E22
331
0
  5
15E23
331
0
  5
15E24
331
0
  5
15E25
331
0
  5
15E26
331
0
  5
15E27
331
0
  5
15E28
331
0
  5
15E29
331
0
  5
15E2A
331
0
  5
15E2B
331
0
  5
15E2C
331
0
  5
15E2D
331
0
  5
15E2E
331
0
  5
15E2F
331
0
  5
15E30
331
0
  5
15E31
331
0
  5
15E32
331
0
  5
15E33
331
0
  5
15E34
331
0
  5
15E35
331
0
  5
15E36
331
0
  5
15E37
331
0
  5
15E38
331
0
  5
15E39
331
0
  5
15E3A
331
0
  5
15E3B
331
0
  5
15E3C
331
0
  5
15E3D
331
0
  5
15E3E
331
0
  5
15E3F
331
0
  5
15E40
331
0
  5
15E41
331
0
  5
15E42
331
0
  5
15E43
331
0
  5
15E44
331
0
  5
15E45
331
0
  5
15E46
331
0
  5
15E47
331
0
  5
15E48
331
0
  5
15E49
331
0
  5
15E4A
331
0
  5
15E4B
331
0
  5
15E4C
331
0
  5
15E4D
331
0
  5
15E4E
331
0
  5
15E4F
331
0
  5
15E50
331
0
  5
15E51
331
0
  5
15E52
331
0
  5
15E53
331
0
  5
15E54
331
0
  5
15E55
331
0
  5
15E56
331
0
  5
15E57
331
0
  5
15E58
331
0
  5
15E59
331
0
  5
15E5A
331
0
  5
15E5B
331
0
  5
15E5C
331
0
  5
15FCD
331
0
  5
15FCE
331
0
  5
15FCF
331
0
  5
15FD0
331
0
  5
15FD1
331
0
  5
15FD2
331
0
  5
15FD3
331
0
  5
15FD4
331
0
  5
15FD5
331
0
  5
15FD6
331
0
  5
15FD7
331
0
  5
15FD8
331
0
  5
15FD9
331
0
  5
15FDA
331
0
  5
15FDB
331
0
  5
15FDC
331
0
  5
15FDD
331
0
  5
15FDE
331
0
  5
15FDF
331
0
  5
15FE0
331
0
  5
15FE1
331
0
  5
15FE2
331
0
  5
15FE3
331
0
  5
15FE4
331
0
  5
15FE5
331
0
  5
15FE6
331
0
  5
15FE7
331
0
  5
15FE8
331
0
  5
15FE9
331
0
  5
15FEA
331
0
  5
15FEB
331
0
  5
15F8E
331
0
  5
15F8F
331
0
  5
15F90
331
0
  5
15F91
331
0
  5
15F92
331
0
  5
15F93
331
0
  5
15F94
331
0
  5
15F95
331
0
  5
15F96
331
0
  5
15F97
331
0
  5
15F98
331
0
  5
15F99
331
0
  5
15F9A
331
0
  5
15F9B
331
0
  5
15F9C
331
0
  5
15F9D
331
0
  5
15F9E
331
0
  5
15F9F
331
0
  5
15FA0
331
0
  5
15FA1
331
0
  5
15FA2
331
0
  5
15FA3
331
0
  5
15FA4
331
0
  5
15FA5
331
0
  5
15FA6
331
0
  5
15FA7
331
0
  5
15FA8
331
0
  5
15FA9
331
0
  5
15FAA
331
0
  5
15FAB
331
0
  5
15FAC
331
0
  5
15FAD
331
0
  5
15FAE
331
0
  5
15FAF
331
0
  5
15FB0
331
0
  5
15FB1
331
0
  5
15FB2
331
0
  5
15FB3
331
0
  5
15FB4
331
0
  5
15FB5
331
0
  5
15FB6
331
0
  5
15FB7
331
0
  5
15FB8
331
0
  5
15FB9
331
0
  5
15FBA
331
0
  5
15FBB
331
0
  5
15FBC
331
0
  5
15FBD
331
0
  5
15FBE
331
0
  5
15FBF
331
0
  5
15FC0
331
0
  5
15FC1
331
0
  5
15FC2
331
0
  5
15FC3
331
0
  5
15FC4
331
0
  5
15FC5
331
0
  5
15FC6
331
0
  5
15FC7
331
0
  5
15FC8
331
0
  5
15FC9
331
0
  5
15FCA
331
0
  5
15FCB
331
0
  5
15FCC
331
0
  5
15F51
331
0
  5
15F52
331
0
  5
15F53
331
0
  5
15F54
331
0
  5
15F55
331
0
  5
15F56
331
0
  5
15F57
331
0
  5
15F58
331
0
  5
15F59
331
0
  5
15F5A
331
0
  5
15F5B
331
0
  5
15F5C
331
0
  5
15F5D
331
0
  5
15F5E
331
0
  5
15F5F
331
0
  5
15F60
331
0
  5
15F61
331
0
  5
15F62
331
0
  5
15F63
331
0
  5
15F64
331
0
  5
15F65
331
0
  5
15F66
331
0
  5
15F67
331
0
  5
15F68
331
0
  5
15F69
331
0
  5
15F6A
331
0
  5
15F6B
331
0
  5
15F6C
331
0
  5
15F6D
331
0
  5
15F6E
331
0
  5
15F6F
331
0
  5
15F70
331
0
  5
15F71
331
0
  5
15F72
331
0
  5
15F73
331
0
  5
15F74
331
0
  5
15F75
331
0
  5
15F76
331
0
  5
15F77
331
0
  5
15F78
331
0
  5
15F79
331
0
  5
15F7A
331
0
  5
15F7B
331
0
  5
15F7C
331
0
  5
15F7D
331
0
  5
15F7E
331
0
  5
15F7F
331
0
  5
15F80
331
0
  5
15F81
331
0
  5
15F82
331
0
  5
15F83
331
0
  5
15F84
331
0
  5
15F85
331
0
  5
15F86
331
0
  5
15F87
331
0
  5
15F88
331
0
  5
15F89
331
0
  5
15F8A
331
0
  5
15F8B
331
0
  5
15F8C
331
0
  5
15F8D
331
0
  5
15F01
331
0
  5
15F02
331
0
  5
15F03
331
0
  5
15F04
331
0
  5
15F05
331
0
  5
15F06
331
0
  5
15F07
331
0
  5
15F08
331
0
  5
15F09
331
0
  5
15F0A
331
0
  5
15F0B
331
0
  5
15F0C
331
0
  5
15F0D
331
0
  5
15F0E
331
0
  5
15F0F
331
0
  5
15F10
331
0
  5
15F11
331
0
  5
15F12
331
0
  5
15F13
331
0
  5
15F14
331
0
  5
15F15
331
0
  5
15F16
331
0
  5
15F17
331
0
  5
15F18
331
0
  5
15F19
331
0
  5
15F1A
331
0
  5
15F1B
331
0
  5
15F1C
331
0
  5
15F1D
331
0
  5
15F1E
331
0
  5
15F1F
331
0
  5
15F20
331
0
  5
15F21
331
0
  5
15F22
331
0
  5
15F23
331
0
  5
15F24
331
0
  5
15F25
331
0
  5
15F26
331
0
  5
15F27
331
0
  5
15F28
331
0
  5
15F29
331
0
  5
15F2A
331
0
  5
15F2B
331
0
  5
15F2C
331
0
  5
15F2D
331
0
  5
15F2E
331
0
  5
15F2F
331
0
  5
15F30
331
0
  5
15F31
331
0
  5
15F32
331
0
  5
15F33
331
0
  5
15F34
331
0
  5
15F35
331
0
  5
15F36
331
0
  5
15F37
331
0
  5
15F38
331
0
  5
15F39
331
0
  5
15F3A
331
0
  5
15F3B
331
0
  5
15F3C
331
0
  5
15F3D
331
0
  5
15F3E
331
0
  5
15F3F
331
0
  5
15F40
331
0
  5
15F41
331
0
  5
15F42
331
0
  5
15F43
331
0
  5
15F44
331
0
  5
15F45
331
0
  5
15F46
331
0
  5
15F47
331
0
  5
15F48
331
0
  5
15F49
331
0
  5
15F4A
331
0
  5
15F4B
331
0
  5
15F4C
331
0
  5
15F4D
331
0
  5
15F4E
331
0
  5
15F4F
331
0
  5
15F50
331
0
  5
15EB0
331
0
  5
15EB1
331
0
  5
15EB2
331
0
  5
15EB3
331
0
  5
15EB4
331
0
  5
15EB5
331
0
  5
15EB6
331
0
  5
15EB7
331
0
  5
15EB8
331
0
  5
15EB9
331
0
  5
15EBA
331
0
  5
15EBB
331
0
  5
15EBC
331
0
  5
15EBD
331
0
  5
15EBE
331
0
  5
15EBF
331
0
  5
15EC0
331
0
  5
15EC1
331
0
  5
15EC2
331
0
  5
15EC3
331
0
  5
15EC4
331
0
  5
15EC5
331
0
  5
15EC6
331
0
  5
15EC7
331
0
  5
15EC8
331
0
  5
15EC9
331
0
  5
15ECA
331
0
  5
15ECB
331
0
  5
15ECC
331
0
  5
15ECD
331
0
  5
15ECE
331
0
  5
15ECF
331
0
  5
15ED0
331
0
  5
15ED1
331
0
  5
15ED2
331
0
  5
15ED3
331
0
  5
15ED4
331
0
  5
15ED5
331
0
  5
15ED6
331
0
  5
15ED7
331
0
  5
15ED8
331
0
  5
15ED9
331
0
  5
15EDA
331
0
  5
15EDB
331
0
  5
15EDC
331
0
  5
15EDD
331
0
  5
15EDE
331
0
  5
15EDF
331
0
  5
15EE0
331
0
  5
15EE1
331
0
  5
15EE2
331
0
  5
15EE3
331
0
  5
15EE4
331
0
  5
15EE5
331
0
  5
15EE6
331
0
  5
15EE7
331
0
  5
15EE8
331
0
  5
15EE9
331
0
  5
15EEA
331
0
  5
15EEB
331
0
  5
15EEC
331
0
  5
15EED
331
0
  5
15EEE
331
0
  5
15EEF
331
0
  5
15EF0
331
0
  5
15EF1
331
0
  5
15EF2
331
0
  5
15EF3
331
0
  5
15EF4
331
0
  5
15EF5
331
0
  5
15EF6
331
0
  5
15EF7
331
0
  5
15EF8
331
0
  5
15EF9
331
0
  5
15EFA
331
0
  5
15EFB
331
0
  5
15EFC
331
0
  5
15EFD
331
0
  5
15EFE
331
0
  5
15EFF
331
0
  5
15F00
331
0
  5
15E63
331
0
  5
15E64
331
0
  5
15E65
331
0
  5
15E66
331
0
  5
15E67
331
0
  5
15E68
331
0
  5
15E69
331
0
  5
15E6A
331
0
  5
15E6B
331
0
  5
15E6C
331
0
  5
15E6D
331
0
  5
15E6E
331
0
  5
15E6F
331
0
  5
15E70
331
0
  5
15E71
331
0
  5
15E72
331
0
  5
15E73
331
0
  5
15E74
331
0
  5
15E75
331
0
  5
15E76
331
0
  5
15E77
331
0
  5
15E78
331
0
  5
15E79
331
0
  5
15E7A
331
0
  5
15E7B
331
0
  5
15E7C
331
0
  5
15E7D
331
0
  5
15E7E
331
0
  5
15E7F
331
0
  5
15E80
331
0
  5
15E81
331
0
  5
15E82
331
0
  5
15E83
331
0
  5
15E84
331
0
  5
15E85
331
0
  5
15E86
331
0
  5
15E87
331
0
  5
15E88
331
0
  5
15E89
331
0
  5
15E8A
331
0
  5
15E8B
331
0
  5
15E8C
331
0
  5
15E8D
331
0
  5
15E8E
331
0
  5
15E8F
331
0
  5
15E90
331
0
  5
15E91
331
0
  5
15E92
331
0
  5
15E93
331
0
  5
15E94
331
0
  5
15E95
331
0
  5
15E96
331
0
  5
15E97
331
0
  5
15E98
331
0
  5
15E99
331
0
  5
15E9A
331
0
  5
15E9B
331
0
  5
15E9C
331
0
  5
15E9D
331
0
  5
15E9E
331
0
  5
15E9F
331
0
  5
15EA0
331
0
  5
15EA1
331
0
  5
15EA2
331
0
  5
15EA3
331
0
  5
15EA4
331
0
  5
15EA5
331
0
  5
15EA6
331
0
  5
15EA7
331
0
  5
15EA8
331
0
  5
15EA9
331
0
  5
15EAA
331
0
  5
15EAB
331
0
  5
15EAC
331
0
  5
15EAD
331
0
  5
15EAE
331
0
  5
15EAF
  0
GROUP
  5
1951D
102
{ACAD_REACTORS
330
D
102
}
330
D
100
AcDbGroup
300

 70
     1
 71
     1
340
1938C
340
193B6
340
193B4
340
193B3
340
193B2
340
193B1
340
193B0
340
193AF
340
193AE
340
193AD
340
193AC
340
193AB
340
193AA
340
193A9
340
193A8
340
193A7
340
193A6
340
193A5
340
193A4
340
193A3
340
193A2
340
193A1
340
193A0
340
1939F
340
1939E
340
1939D
340
1939C
340
1939B
340
1939A
340
19399
340
19398
340
19397
340
19396
340
19395
340
19394
340
19393
340
19392
340
19391
340
1938E
340
193D0
340
193CF
340
193CE
340
193CD
340
193CC
340
193CB
340
193CA
340
193C9
340
193C8
340
193C7
340
193C6
340
193C5
340
193C4
340
193C3
340
193C2
340
193C1
340
193C0
340
193BF
340
193BE
340
193BD
340
193BC
340
193BB
340
193BA
340
193B9
340
193B8
340
193B7
340
193B5
340
19390
340
1938F
340
1938D
340
1938B
  0
MATERIAL
  5
15B55
102
{ACAD_REACTORS
330
2CF
102
}
102
{ACAD_XDICTIONARY
360
1AEC3
102
}
330
2CF
100
AcDbMaterial
  1
BYBLOCK
 72
     0
 73
     2
 43
0.0208333333333333
 43
0.0
 43
0.0
 43
0.0
 43
0.0
 43
0.0208333333333333
 43
0.0
 43
0.0
 43
0.0
 43
0.0
 43
1.0
 43
0.0
 43
0.0
 43
0.0
 43
0.0
 43
1.0
 77
     0
 78
     2
 47
0.0208333333333333
 47
0.0
 47
0.0
 47
0.0
 47
0.0
 47
0.0208333333333333
 47
0.0
 47
0.0
 47
0.0
 47
0.0
 47
1.0
 47
0.0
 47
0.0
 47
0.0
 47
0.0
 47
1.0
171
     0
172
     2
 49
0.0208333333333333
 49
0.0
 49
0.0
 49
0.0
 49
0.0
 49
0.0208333333333333
 49
0.0
 49
0.0
 49
0.0
 49
0.0
 49
1.0
 49
0.0
 49
0.0
 49
0.0
 49
0.0
 49
1.0
175
     0
176
     2
142
0.0208333333333333
142
0.0
142
0.0
142
0.0
142
0.0
142
0.0208333333333333
142
0.0
142
0.0
142
0.0
142
0.0
142
1.0
142
0.0
142
0.0
142
0.0
142
0.0
142
1.0
179
     0
270
     2
144
0.0208333333333333
144
0.0
144
0.0
144
0.0
144
0.0
144
0.0208333333333333
144
0.0
144
0.0
144
0.0
144
0.0
144
1.0
144
0.0
144
0.0
144
0.0
144
0.0
144
1.0
274
     2
147
0.0208333333333333
147
0.0
147
0.0
147
0.0
147
0.0
147
0.0208333333333333
147
0.0
147
0.0
147
0.0
147
0.0
147
1.0
147
0.0
147
0.0
147
0.0
147
0.0
147
1.0
  0
MATERIAL
  5
15B4D
102
{ACAD_REACTORS
330
2CF
102
}
102
{ACAD_XDICTIONARY
360
1AEC5
102
}
330
2CF
100
AcDbMaterial
  1
BYLAYER
 72
     0
 73
     2
 43
0.0208333333333333
 43
0.0
 43
0.0
 43
0.0
 43
0.0
 43
0.0208333333333333
 43
0.0
 43
0.0
 43
0.0
 43
0.0
 43
1.0
 43
0.0
 43
0.0
 43
0.0
 43
0.0
 43
1.0
 77
     0
 78
     2
 47
0.0208333333333333
 47
0.0
 47
0.0
 47
0.0
 47
0.0
 47
0.0208333333333333
 47
0.0
 47
0.0
 47
0.0
 47
0.0
 47
1.0
 47
0.0
 47
0.0
 47
0.0
 47
0.0
 47
1.0
171
     0
172
     2
 49
0.0208333333333333
 49
0.0
 49
0.0
 49
0.0
 49
0.0
 49
0.0208333333333333
 49
0.0
 49
0.0
 49
0.0
 49
0.0
 49
1.0
 49
0.0
 49
0.0
 49
0.0
 49
0.0
 49
1.0
175
     0
176
     2
142
0.0208333333333333
142
0.0
142
0.0
142
0.0
142
0.0
142
0.0208333333333333
142
0.0
142
0.0
142
0.0
142
0.0
142
1.0
142
0.0
142
0.0
142
0.0
142
0.0
142
1.0
179
     0
270
     2
144
0.0208333333333333
144
0.0
144
0.0
144
0.0
144
0.0
144
0.0208333333333333
144
0.0
144
0.0
144
0.0
144
0.0
144
1.0
144
0.0
144
0.0
144
0.0
144
0.0
144
1.0
274
     2
147
0.0208333333333333
147
0.0
147
0.0
147
0.0
147
0.0
147
0.0208333333333333
147
0.0
147
0.0
147
0.0
147
0.0
147
1.0
147
0.0
147
0.0
147
0.0
147
0.0
147
1.0
  0
MATERIAL
  5
15B5D
102
{ACAD_REACTORS
330
2CF
102
}
102
{ACAD_XDICTIONARY
360
1AEC7
102
}
330
2CF
100
AcDbMaterial
  1
GLOBAL
 72
     0
 73
     2
 43
0.0208333333333333
 43
0.0
 43
0.0
 43
0.0
 43
0.0
 43
0.0208333333333333
 43
0.0
 43
0.0
 43
0.0
 43
0.0
 43
1.0
 43
0.0
 43
0.0
 43
0.0
 43
0.0
 43
1.0
 77
     0
 78
     2
 47
0.0208333333333333
 47
0.0
 47
0.0
 47
0.0
 47
0.0
 47
0.0208333333333333
 47
0.0
 47
0.0
 47
0.0
 47
0.0
 47
1.0
 47
0.0
 47
0.0
 47
0.0
 47
0.0
 47
1.0
171
     0
172
     2
 49
0.0208333333333333
 49
0.0
 49
0.0
 49
0.0
 49
0.0
 49
0.0208333333333333
 49
0.0
 49
0.0
 49
0.0
 49
0.0
 49
1.0
 49
0.0
 49
0.0
 49
0.0
 49
0.0
 49
1.0
175
     0
176
     2
142
0.0208333333333333
142
0.0
142
0.0
142
0.0
142
0.0
142
0.0208333333333333
142
0.0
142
0.0
142
0.0
142
0.0
142
1.0
142
0.0
142
0.0
142
0.0
142
0.0
142
1.0
179
     0
270
     2
144
0.0208333333333333
144
0.0
144
0.0
144
0.0
144
0.0
144
0.0208333333333333
144
0.0
144
0.0
144
0.0
144
0.0
144
1.0
144
0.0
144
0.0
144
0.0
144
0.0
144
1.0
274
     2
147
0.0208333333333333
147
0.0
147
0.0
147
0.0
147
0.0
147
0.0208333333333333
147
0.0
147
0.0
147
0.0
147
0.0
147
1.0
147
0.0
147
0.0
147
0.0
147
0.0
147
1.0
  0
ACAD_PROXY_OBJECT
  5
15B99
102
{ACAD_REACTORS
330
15B98
102
}
330
15B98
100
AcDbZombieObject
 90
      499
 91
      512
 93
      610
310
40901902A4063FBFFFFFE000000000000002040AD7A3703D0AD73F4214DD185B99185C990000000000000104090141901A00000000000004100000000000000041025764000000000000300FC0
340
12
340
0
340
F
340
0
 94
        0
1001
ACAD_MLEADERVER
1070
     2
  0
MLINESTYLE
  5
1C
102
{ACAD_REACTORS
330
1B
102
}
330
1B
100
AcDbMlineStyle
  2
STANDARD
 70
     0
  3

 62
   256
 51
90.0
 52
90.0
 71
     2
 49
0.5
 62
   256
  6
BYLAYER
 49
-0.5
 62
   256
  6
BYLAYER
  0
ACAD_PROXY_OBJECT
  5
15B77
102
{ACAD_REACTORS
330
15B76
102
}
330
15B76
100
AcDbZombieObject
 90
      499
 91
      511
 93
       41
310
903313A31580
  0
ACAD_PROXY_OBJECT
  5
15B78
102
{ACAD_REACTORS
330
15B76
102
}
330
15B76
100
AcDbZombieObject
 90
      499
 91
      511
 93
      105
310
903313A324000000000000004000
  0
ACAD_PROXY_OBJECT
  5
15B79
102
{ACAD_REACTORS
330
15B76
102
}
330
15B76
100
AcDbZombieObject
 90
      499
 91
      511
 93
      105
310
903313A344000000000000104000
  0
ACAD_PROXY_OBJECT
  5
15B7A
102
{ACAD_REACTORS
330
15B76
102
}
330
15B76
100
AcDbZombieObject
 90
      499
 91
      511
 93
      105
310
903313A354000000000000144000
  0
ACAD_PROXY_OBJECT
  5
15B7B
102
{ACAD_REACTORS
330
15B76
102
}
330
15B76
100
AcDbZombieObject
 90
      499
 91
      511
 93
      105
310
903313A384000000000000204000
  0
ACAD_PROXY_OBJECT
  5
15B7C
102
{ACAD_REACTORS
330
15B76
102
}
330
15B76
100
AcDbZombieObject
 90
      499
 91
      511
 93
      113
310
904313A31304000000000000244000
  0
ACAD_PROXY_OBJECT
  5
15B7D
102
{ACAD_REACTORS
330
15B76
102
}
330
15B76
100
AcDbZombieObject
 90
      499
 91
      511
 93
      113
310
904313A31364000000000000304000
  0
ACAD_PROXY_OBJECT
  5
15B7E
102
{ACAD_REACTORS
330
15B76
102
}
330
15B76
100
AcDbZombieObject
 90
      499
 91
      511
 93
      113
310
904313A32304000000000000344000
  0
ACAD_PROXY_OBJECT
  5
15B7F
102
{ACAD_REACTORS
330
15B76
102
}
330
15B76
100
AcDbZombieObject
 90
      499
 91
      511
 93
      113
310
904313A333040000000000003E4000
  0
ACAD_PROXY_OBJECT
  5
15B80
102
{ACAD_REACTORS
330
15B76
102
}
330
15B76
100
AcDbZombieObject
 90
      499
 91
      511
 93
      113
310
904313A34304000000000000444000
  0
ACAD_PROXY_OBJECT
  5
15B81
102
{ACAD_REACTORS
330
15B76
102
}
330
15B76
100
AcDbZombieObject
 90
      499
 91
      511
 93
      113
310
904313A35304000000000000494000
  0
ACAD_PROXY_OBJECT
  5
15B82
102
{ACAD_REACTORS
330
15B76
102
}
330
15B76
100
AcDbZombieObject
 90
      499
 91
      511
 93
      121
310
905313A3130304000000000000594000
  0
ACAD_PROXY_OBJECT
  5
15B83
102
{ACAD_REACTORS
330
15B76
102
}
330
15B76
100
AcDbZombieObject
 90
      499
 91
      511
 93
      105
310
903323A310000000000000010100
  0
ACAD_PROXY_OBJECT
  5
15B84
102
{ACAD_REACTORS
330
15B76
102
}
330
15B76
100
AcDbZombieObject
 90
      499
 91
      511
 93
      105
310
903343A310000000000000410100
  0
ACAD_PROXY_OBJECT
  5
15B85
102
{ACAD_REACTORS
330
15B76
102
}
330
15B76
100
AcDbZombieObject
 90
      499
 91
      511
 93
      105
310
903383A310000000000000810100
  0
ACAD_PROXY_OBJECT
  5
15B86
102
{ACAD_REACTORS
330
15B76
102
}
330
15B76
100
AcDbZombieObject
 90
      499
 91
      511
 93
      113
310
90431303A310000000000000910100
  0
ACAD_PROXY_OBJECT
  5
15B87
102
{ACAD_REACTORS
330
15B76
102
}
330
15B76
100
AcDbZombieObject
 90
      499
 91
      511
 93
      121
310
9053130303A310000000000001650100
  0
ACAD_PROXY_OBJECT
  5
15B88
102
{ACAD_REACTORS
330
15B76
102
}
330
15B76
100
AcDbZombieObject
 90
      499
 91
      511
 93
      257
310
90E312F31323822203D2031272D3022000000000000200FC000000000000284000
  0
ACAD_PROXY_OBJECT
  5
15B89
102
{ACAD_REACTORS
330
15B76
102
}
330
15B76
100
AcDbZombieObject
 90
      499
 91
      511
 93
      249
310
90D312F363422203D2031272D3022000000000000240FC000000000000284000
  0
ACAD_PROXY_OBJECT
  5
15B8A
102
{ACAD_REACTORS
330
15B76
102
}
330
15B76
100
AcDbZombieObject
 90
      499
 91
      511
 93
      249
310
90D312F333222203D2031272D3022000000000000280FC000000000000284000
  0
ACAD_PROXY_OBJECT
  5
15B8B
102
{ACAD_REACTORS
330
15B76
102
}
330
15B76
100
AcDbZombieObject
 90
      499
 91
      511
 93
      249
310
90D312F313622203D2031272D30220000000000002C0FC000000000000284000
  0
ACAD_PROXY_OBJECT
  5
15B8C
102
{ACAD_REACTORS
330
15B76
102
}
330
15B76
100
AcDbZombieObject
 90
      499
 91
      511
 93
      249
310
90D332F333222203D2031272D30220000000000002E0FC000000000000284000
  0
ACAD_PROXY_OBJECT
  5
15B8D
102
{ACAD_REACTORS
330
15B76
102
}
330
15B76
100
AcDbZombieObject
 90
      499
 91
      511
 93
      241
310
90C312F3822203D2031272D3022000000000000300FC000000000000284000
  0
ACAD_PROXY_OBJECT
  5
15B8E
102
{ACAD_REACTORS
330
15B76
102
}
330
15B76
100
AcDbZombieObject
 90
      499
 91
      511
 93
      249
310
90D332F313622203D2031272D3022000000000000320FC000000000000284000
  0
ACAD_PROXY_OBJECT
  5
15B8F
102
{ACAD_REACTORS
330
15B76
102
}
330
15B76
100
AcDbZombieObject
 90
      499
 91
      511
 93
      241
310
90C312F3422203D2031272D3022000000000000340FC000000000000284000
  0
ACAD_PROXY_OBJECT
  5
15B90
102
{ACAD_REACTORS
330
15B76
102
}
330
15B76
100
AcDbZombieObject
 90
      499
 91
      511
 93
      241
310
90C332F3822203D2031272D3022000000000000360FC000000000000284000
  0
ACAD_PROXY_OBJECT
  5
15B91
102
{ACAD_REACTORS
330
15B76
102
}
330
15B76
100
AcDbZombieObject
 90
      499
 91
      511
 93
      241
310
90C312F3222203D2031272D3022000000000000380FC000000000000284000
  0
ACAD_PROXY_OBJECT
  5
15B92
102
{ACAD_REACTORS
330
15B76
102
}
330
15B76
100
AcDbZombieObject
 90
      499
 91
      511
 93
      241
310
90C332F3422203D2031272D30220000000000003A0FC000000000000284000
  0
ACAD_PROXY_OBJECT
  5
15B93
102
{ACAD_REACTORS
330
15B76
102
}
330
15B76
100
AcDbZombieObject
 90
      499
 91
      511
 93
      161
310
90A3122203D2031272D30224000000000000284000
  0
ACAD_PROXY_OBJECT
  5
15B94
102
{ACAD_REACTORS
330
15B76
102
}
330
15B76
100
AcDbZombieObject
 90
      499
 91
      511
 93
      257
310
90E312D312F3222203D2031272D30220000000000003E0FC000000000000284000
  0
ACAD_PROXY_OBJECT
  5
15B95
102
{ACAD_REACTORS
330
15B76
102
}
330
15B76
100
AcDbZombieObject
 90
      499
 91
      511
 93
      225
310
90A3322203D2031272D302200000000000002100000000000000284000
  0
ACAD_PROXY_OBJECT
  5
15B96
102
{ACAD_REACTORS
330
15B76
102
}
330
15B76
100
AcDbZombieObject
 90
      499
 91
      511
 93
      225
310
90A3622203D2031272D302200000000000006100000000000000284000
  0
ACAD_PROXY_OBJECT
  5
15B97
102
{ACAD_REACTORS
330
15B76
102
}
330
15B76
100
AcDbZombieObject
 90
      499
 91
      511
 93
      249
310
90D31272D3022203D2031272D30220000000000000A100000000000000284000
  0
ACAD_PROXY_OBJECT
  5
15B6B
102
{ACAD_REACTORS
330
15B65
102
}
330
15B65
100
AcDbZombieObject
 90
      499
 91
      510
 93
      436
310
42CC9915DA5C99599C985B595049028333333333333E3BF0000000000000FB0107901411070040501600405405064090741402480A0340
1001
ACAD
1000
AcDbSavedByObjectVersion
1070
     0
  0
ACAD_PROXY_OBJECT
  5
15B6D
102
{ACAD_REACTORS
330
15B65
102
}
330
15B65
100
AcDbZombieObject
 90
      499
 91
      510
 93
      500
310
424CD108121A5919195B90640502408333333333333E3BF0000000000000FB01079024090700405020000000000001110200405405064090740C02480A0340
1001
ACAD
1000
AcDbSavedByObjectVersion
1070
     0
  0
ACAD_PROXY_OBJECT
  5
15B6C
102
{ACAD_REACTORS
330
15B65
102
}
330
15B65
100
AcDbZombieObject
 90
      499
 91
      510
 93
      436
310
42CCD915DA5C99599C985B595059028333333333333E3BF0000000000000FB0107901411070040501600405405064090741402480A0340
1001
ACAD
1000
AcDbSavedByObjectVersion
1070
     0
  0
ACAD_PROXY_OBJECT
  5
15B6A
102
{ACAD_REACTORS
330
15B65
102
}
330
15B65
100
AcDbZombieObject
 90
      499
 91
      510
 93
      388
310
4150985CDA58D07406404333333333333E3BF0000000000000FB0107A41107004050150841D405064090741402480A0350
1001
ACAD
1000
AcDbSavedByObjectVersion
1070
     0
  0
ACAD_PROXY_OBJECT
  5
15B71
102
{ACAD_REACTORS
330
15B65
102
}
330
15B65
100
AcDbZombieObject
 90
      499
 91
      510
 93
      428
310
42109C9A59DA1D195B90C409028333333333333E3BF0000000000000FB010790141107004050150841D405064090741402480A029950
1001
ACAD
1000
AcDbSavedByObjectVersion
1070
     0
  0
ACAD_PROXY_OBJECT
  5
15B75
102
{ACAD_REACTORS
330
15B65
102
}
330
15B65
100
AcDbZombieObject
 90
      499
 91
      510
 93
      452
310
42D0DBDB1BDC90DA185B99D95104090240C333333333333E3BF0000000000000FB0108901411070040501508421405064090741402480A0350
1001
ACAD
1000
AcDbSavedByObjectVersion
1070
     0
  0
ACAD_PROXY_OBJECT
  5
15B6E
102
{ACAD_REACTORS
330
15B65
102
}
330
15B65
100
AcDbZombieObject
 90
      499
 91
      510
 93
      500
310
4290DBDB98D95C1D1D585B10940D028333333333333E3BF0000000000000FB0107902409070040501000000000000111010841D405064090740C02480A0340
1001
ACAD
1000
AcDbSavedByObjectVersion
1070
     0
  0
ACAD_PROXY_OBJECT
  5
15B70
102
{ACAD_REACTORS
330
15B65
102
}
330
15B65
100
AcDbZombieObject
 90
      499
 91
      510
 93
      412
310
40D11A5B50B409028333333333333E3BF0000000000000FB010790141107004050150841D405064090741402480A02677FFFFFD0
1001
ACAD
1000
AcDbSavedByObjectVersion
1070
     0
  0
ACAD_PROXY_OBJECT
  5
174DB
102
{ACAD_REACTORS
330
15B65
102
}
330
15B65
100
AcDbZombieObject
 90
      499
 91
      510
 93
      452
310
43115919D950DBDB1BDC93D999916409028333333333333E3BF0000000000000FB010790141107004050150841D405064090741402480A0350
1001
ACAD
1000
AcDbSavedByObjectVersion
1070
     0
  0
ACAD_PROXY_OBJECT
  5
15B74
102
{ACAD_REACTORS
330
15B65
102
}
330
15B65
100
AcDbZombieObject
 90
      499
 91
      510
 93
      444
310
42D19858D95C185D1D195C9B90F409028333333333333E3BF0000000000000FB010790141107004050150841D405064090741402480A0350
1001
ACAD
1000
AcDbSavedByObjectVersion
1070
     0
  0
ACAD_PROXY_OBJECT
  5
15B66
102
{ACAD_REACTORS
330
15B65
102
}
330
15B65
100
AcDbZombieObject
 90
      499
 91
      510
 93
      388
310
41119B185D240901404333333333333E3BF0000000000000F9010740A41107004050150841D405064090741402480A1B50
1001
ACAD
1000
AcDbSavedByObjectVersion
1070
     0
  0
ACAD_PROXY_OBJECT
  5
15B67
102
{ACAD_REACTORS
330
15B65
102
}
330
15B65
100
AcDbZombieObject
 90
      499
 91
      510
 93
      476
310
43519B185D15DA5D1A115919D95CD0140901404333333333333E3BF0000000000000F9010740901411070040501600405405064090741402480A1B50
1001
ACAD
1000
AcDbSavedByObjectVersion
1070
     0
  0
ACAD_PROXY_OBJECT
  5
15B68
102
{ACAD_REACTORS
330
15B65
102
}
330
15B65
100
AcDbZombieObject
 90
      499
 91
      510
 93
      412
310
41D1DBDD5C985D5910240902404333333333333E3BF0000000000000F9010740A411070040501641D405064090741402480A1B50
1001
ACAD
1000
AcDbSavedByObjectVersion
1070
     0
  0
ACAD_PROXY_OBJECT
  5
15B69
102
{ACAD_REACTORS
330
15B65
102
}
330
15B65
100
AcDbZombieObject
 90
      499
 91
      510
 93
      500
310
4411DBDD5C985D5915DA5D1A115919D95CD0340902404333333333333E3BF0000000000000F9010740901411070040501600405405064090741402480A1B50
1001
ACAD
1000
AcDbSavedByObjectVersion
1070
     0
  0
ACAD_PROXY_OBJECT
  5
1AC91
102
{ACAD_REACTORS
330
15B65
102
}
330
15B65
100
AcDbZombieObject
 90
      499
 91
      510
 93
      476
310
41921A5919195B90640502408333333333333E33F0000000000000F901079024090700405020000000000001110200405405064090740C02480A0340
1001
ACAD
1000
AcDbSavedByObjectVersion
1070
     0
  0
ACAD_PROXY_OBJECT
  5
174D9
102
{ACAD_REACTORS
330
15B65
102
}
330
15B65
100
AcDbZombieObject
 90
      499
 91
      510
 93
      428
310
42529A5D1D195C93D999914409028333333333333E3BF0000000000000FB010790141107004050150A41D405064090741402480A0350
1001
ACAD
1000
AcDbSavedByObjectVersion
1070
     0
  0
ACAD_PROXY_OBJECT
  5
15B73
102
{ACAD_REACTORS
330
15B65
102
}
330
15B65
100
AcDbZombieObject
 90
      499
 91
      510
 93
      444
310
42D31A5B995C185D1D195C9B90E409028333333333333E3BF0000000000000FB010790141107004050750841D405064090741402483A0350
1001
ACAD
1000
AcDbSavedByObjectVersion
1070
     0
  0
ACAD_PROXY_OBJECT
  5
1AC97
102
{ACAD_REACTORS
330
15B65
102
}
330
15B65
100
AcDbZombieObject
 90
      499
 91
      510
 93
      484
310
42135BD9195B1A5B99D0A409038333333333333E33F0000000000000F901074090290700405010000000000201990108421405064090741402480A1B40
1001
ACAD
1000
AcDbSavedByObjectVersion
1070
     0
  0
ACAD_PROXY_OBJECT
  5
174DA
102
{ACAD_REACTORS
330
15B65
102
}
330
15B65
100
AcDbZombieObject
 90
      499
 91
      510
 93
      444
310
42D3DD995C9A185B99D3D999915409028333333333333E3BF0000000000000FB010790141107004050150941D405064090741402480A0350
1001
ACAD
1000
AcDbSavedByObjectVersion
1070
     0
  0
ACAD_PROXY_OBJECT
  5
15B6F
102
{ACAD_REACTORS
330
15B65
102
}
330
15B65
100
AcDbZombieObject
 90
      499
 91
      510
 93
      420
310
425499585B1A5CDD1A58D08409028333333333333E3BF0000000000000FB01079019070040501508421405064090741402480A1B40
1001
ACAD
1000
AcDbSavedByObjectVersion
1070
     0
  0
ACAD_PROXY_OBJECT
  5
1AC96
102
{ACAD_REACTORS
330
15B65
102
}
330
15B65
100
AcDbZombieObject
 90
      499
 91
      510
 93
      420
310
4194DA1859195911B40902404333333333333E33F0000000000000F9010740A41107004050150800405405064090840C02480A0B40
1001
ACAD
1000
AcDbSavedByObjectVersion
1070
     0
  0
ACAD_PROXY_OBJECT
  5
1AC95
102
{ACAD_REACTORS
330
15B65
102
}
330
15B65
100
AcDbZombieObject
 90
      499
 91
      510
 93
      516
310
4454DA18591959081DDA5D1A08195919D95CD1A40902404333333333333E33F0000000000000F901074090142907004050250800405405064090740C02480A0B40
1001
ACAD
1000
AcDbSavedByObjectVersion
1070
     0
  0
ACAD_PROXY_OBJECT
  5
1AC92
102
{ACAD_REACTORS
330
15B65
102
}
330
15B65
100
AcDbZombieObject
 90
      499
 91
      510
 93
      532
310
4394DA1859195CC81BD98811DC985E5174090240C333333333333E33F0000000000000F901079024090741D01000000000000111010841D405064090740C02480A0340
1001
ACAD
1000
AcDbSavedByObjectVersion
1070
     0
  0
ACAD_PROXY_OBJECT
  5
1AC93
102
{ACAD_REACTORS
330
15B65
102
}
330
15B65
100
AcDbZombieObject
 90
      499
 91
      510
 93
      476
310
41D4DAD95D18DA1E51840502408333333333333E33F0000000000000F901079024090741D01000000000000111010B41D405064090741802480A0340
1001
ACAD
1000
AcDbSavedByObjectVersion
1070
     0
  0
ACAD_PROXY_OBJECT
  5
15B72
102
{ACAD_REACTORS
330
15B65
102
}
330
15B65
100
AcDbZombieObject
 90
      499
 91
      510
 93
      412
310
41D51A1A58DAD95B90D409028333333333333E3BF0000000000000FB010790141107004050150C41D405064090741402480A0350
1001
ACAD
1000
AcDbSavedByObjectVersion
1070
     0
  0
ACAD_PROXY_OBJECT
  5
1AC90
102
{ACAD_REACTORS
330
15B65
102
}
330
15B65
100
AcDbZombieObject
 90
      499
 91
      510
 93
      420
310
4255DA5C99599C985B595059028333333333333E33F0000000000000F90107901411070040501600405405064090740C02480A0340
1001
ACAD
1000
AcDbSavedByObjectVersion
1070
     0
  0
ACAD_PROXY_OBJECT
  5
1AC94
102
{ACAD_REACTORS
330
15B65
102
}
330
15B65
100
AcDbZombieObject
 90
      499
 91
      510
 93
      404
310
41560B54985E51940902404000000000000E03F0000000000000F9010740501907004050150841D405064090740C02480A1B40
1001
ACAD
1000
AcDbSavedByObjectVersion
1070
     0
  0
XRECORD
  5
1AEC0
102
{ACAD_REACTORS
330
1AEBF
102
}
330
1AEBF
100
AcDbXrecord
340
2D0
  0
XRECORD
  5
1AEC1
102
{ACAD_REACTORS
330
1AEBF
102
}
330
1AEBF
100
AcDbXrecord
340
2CF
  0
DICTIONARYVAR
  5
1AC99
102
{ACAD_REACTORS
330
37
102
}
330
37
100
DictionaryVariables
280
     0
  1
1:1
  0
DICTIONARYVAR
  5
15C4B
102
{ACAD_REACTORS
330
37
102
}
330
37
100
DictionaryVariables
280
     0
  1
Standard
  0
DICTIONARYVAR
  5
4F1
102
{ACAD_REACTORS
330
37
102
}
330
37
100
DictionaryVariables
280
     0
  1
Standard
  0
DICTIONARYVAR
  5
38
102
{ACAD_REACTORS
330
37
102
}
330
37
100
DictionaryVariables
280
     0
  1
-1
  0
DICTIONARYVAR
  5
408
102
{ACAD_REACTORS
330
37
102
}
330
37
100
DictionaryVariables
280
     0
  1
2
  0
DICTIONARYVAR
  5
1891
102
{ACAD_REACTORS
330
37
102
}
330
37
100
DictionaryVariables
280
     0
  1
1
  0
DICTIONARYVAR
  5
15C4E
102
{ACAD_REACTORS
330
37
102
}
330
37
100
DictionaryVariables
280
     0
  1
0
  0
DICTIONARYVAR
  5
1895
102
{ACAD_REACTORS
330
37
102
}
330
37
100
DictionaryVariables
280
     0
  1
8
  0
DICTIONARYVAR
  5
1894
102
{ACAD_REACTORS
330
37
102
}
330
37
100
DictionaryVariables
280
     0
  1
1
  0
DICTIONARYVAR
  5
1AC9A
102
{ACAD_REACTORS
330
37
102
}
330
37
100
DictionaryVariables
280
     0
  1
0
  0
DICTIONARYVAR
  5
1892
102
{ACAD_REACTORS
330
37
102
}
330
37
100
DictionaryVariables
280
     0
  1
8
  0
DICTIONARYVAR
  5
1893
102
{ACAD_REACTORS
330
37
102
}
330
37
100
DictionaryVariables
280
     0
  1
2
  0
DICTIONARYVAR
  5
409
102
{ACAD_REACTORS
330
37
102
}
330
37
100
DictionaryVariables
280
     0
  1

  0
DICTIONARYVAR
  5
15C4D
102
{ACAD_REACTORS
330
37
102
}
330
37
100
DictionaryVariables
280
     0
  1
127
  0
DICTIONARYVAR
  5
1AC8F
102
{ACAD_REACTORS
330
37
102
}
330
37
100
DictionaryVariables
280
     0
  1
2
  0
DICTIONARY
  5
1AEC3
330
15B55
100
AcDbDictionary
  3
ACAD_XREC_ROUNDTRIP
360
1AEC4
1001
ACAD
1000
TREAT_AS_HARD
1070
     1
  0
DICTIONARY
  5
1AEC5
330
15B4D
100
AcDbDictionary
  3
ACAD_XREC_ROUNDTRIP
360
1AEC6
1001
ACAD
1000
TREAT_AS_HARD
1070
     1
  0
DICTIONARY
  5
1AEC7
330
15B5D
100
AcDbDictionary
  3
ACAD_XREC_ROUNDTRIP
360
1AEC8
1001
ACAD
1000
TREAT_AS_HARD
1070
     1
  0
XRECORD
  5
1AEC4
102
{ACAD_REACTORS
330
1AEC3
102
}
330
1AEC3
100
AcDbXrecord
102
MATERIAL
148
0.0
149
0.0
149
0.0
 93
        0
 94
      127
282
     0
 72
     0
 77
     0
171
     0
175
     0
179
     0
273
     0
  0
XRECORD
  5
1AEC6
102
{ACAD_REACTORS
330
1AEC5
102
}
330
1AEC5
100
AcDbXrecord
102
MATERIAL
148
0.0
149
0.0
149
0.0
 93
        0
 94
      127
282
     0
 72
     0
 77
     0
171
     0
175
     0
179
     0
273
     0
  0
XRECORD
  5
1AEC8
102
{ACAD_REACTORS
330
1AEC7
102
}
330
1AEC7
100
AcDbXrecord
102
MATERIAL
148
0.0
149
0.0
149
0.0
 93
        0
 94
      127
282
     0
 72
     0
 77
     0
171
     0
175
     0
179
     0
273
     0
  0
ENDSEC
  0
EOF
