  0
SECTION
  2
HEADER
  9
$ACADVER
  1
AC1012
  9
$DWGCODEPAGE
  3
ansi_932
  9
$INSBASE
 10
0.0
 20
0.0
 30
0.0
  9
$EXTMIN
 10
3623.577481493668
 20
-2365.364043664112
 30
0.0
  9
$EXTMAX
 10
4665.726163353149
 20
-1576.780547260896
 30
0.0
  9
$LIMMIN
 10
0.0
 20
0.0
  9
$LIMMAX
 10
420.0
 20
297.0
  9
$ORTHOMODE
 70
     0
  9
$REGENMODE
 70
     1
  9
$FILLMODE
 70
     1
  9
$QTEXTMODE
 70
     0
  9
$MIRRTEXT
 70
     0
  9
$DRAGMODE
 70
     2
  9
$LTSCALE
 40
0.5
  9
$OSMODE
 70
 14591
  9
$ATTMODE
 70
     1
  9
$TEXTSIZE
 40
4.0
  9
$TRACEWID
 40
1.0
  9
$TEXTSTYLE
  7
STANDARD
  9
$CLAYER
  8
1TEXT
  9
$CELTYPE
  6
BYLAYER
  9
$CECOLOR
 62
   256
  9
$CELTSCALE
 40
1.0
  9
$DELOBJ
 70
     1
  9
$DISPSILH
 70
     0
  9
$DIMSCALE
 40
3.0
  9
$DIMASZ
 40
2.0
  9
$DIMEXO
 40
0.0
  9
$DIMDLI
 40
7.0
  9
$DIMRND
 40
0.0
  9
$DIMDLE
 40
0.0
  9
$DIMEXE
 40
1.0
  9
$DIMTP
 40
0.0
  9
$DIMTM
 40
0.0
  9
$DIMTXT
 40
3.5
  9
$DIMCEN
 40
0.0
  9
$DIMTSZ
 40
0.0
  9
$DIMTOL
 70
     0
  9
$DIMLIM
 70
     0
  9
$DIMTIH
 70
     0
  9
$DIMTOH
 70
     0
  9
$DIMSE1
 70
     0
  9
$DIMSE2
 70
     0
  9
$DIMTAD
 70
     1
  9
$DIMZIN
 70
     8
  9
$DIMBLK
  1

  9
$DIMASO
 70
     1
  9
$DIMSHO
 70
     1
  9
$DIMPOST
  1
 
  9
$DIMAPOST
  1

  9
$DIMALT
 70
     0
  9
$DIMALTD
 70
     2
  9
$DIMALTF
 40
25.4
  9
$DIMLFAC
 40
1.0
  9
$DIMTOFL
 70
     1
  9
$DIMTVP
 40
0.0
  9
$DIMTIX
 70
     0
  9
$DIMSOXD
 70
     0
  9
$DIMSAH
 70
     1
  9
$DIMBLK1
  1
OPEN30
  9
$DIMBLK2
  1
OPEN30
  9
$DIMSTYLE
  2
NEWX10
  9
$DIMCLRD
 70
   256
  9
$DIMCLRE
 70
   256
  9
$DIMCLRT
 70
   201
  9
$DIMTFAC
 40
0.7
  9
$DIMGAP
 40
0.7
  9
$DIMJUST
 70
     0
  9
$DIMSD1
 70
     0
  9
$DIMSD2
 70
     0
  9
$DIMTOLJ
 70
     1
  9
$DIMTZIN
 70
     8
  9
$DIMALTZ
 70
     0
  9
$DIMALTTZ
 70
     0
  9
$DIMFIT
 70
     2
  9
$DIMUPT
 70
     0
  9
$DIMUNIT
 70
     2
  9
$DIMDEC
 70
     2
  9
$DIMTDEC
 70
     4
  9
$DIMALTU
 70
     2
  9
$DIMALTTD
 70
     2
  9
$DIMTXSTY
  7
STANDARD
  9
$DIMAUNIT
 70
     0
  9
$LUNITS
 70
     2
  9
$LUPREC
 70
     4
  9
$SKETCHINC
 40
1.0
  9
$FILLETRAD
 40
0.0
  9
$AUNITS
 70
     0
  9
$AUPREC
 70
     2
  9
$MENU
  1
acad
  9
$ELEVATION
 40
0.0
  9
$PELEVATION
 40
0.0
  9
$THICKNESS
 40
0.0
  9
$LIMCHECK
 70
     0
  9
$CHAMFERA
 40
10.0
  9
$CHAMFERB
 40
10.0
  9
$CHAMFERC
 40
20.0
  9
$CHAMFERD
 40
0.0
  9
$SKPOLY
 70
     0
  9
$TDCREATE
 40
2453033.732663484
  9
$TDUPDATE
 40
2458396.42914162
  9
$TDINDWG
 40
2.3995052662
  9
$TDUSRTIMER
 40
2.3995052662
  9
$USRTIMER
 70
     1
  9
$ANGBASE
 50
0.0
  9
$ANGDIR
 70
     0
  9
$PDMODE
 70
     0
  9
$PDSIZE
 40
0.0
  9
$PLINEWID
 40
0.0
  9
$COORDS
 70
     2
  9
$SPLFRAME
 70
     0
  9
$SPLINETYPE
 70
     6
  9
$SPLINESEGS
 70
     8
  9
$ATTDIA
 70
     0
  9
$ATTREQ
 70
     1
  9
$HANDLING
 70
     1
  9
$HANDSEED
  5
1B304
  9
$SURFTAB1
 70
     6
  9
$SURFTAB2
 70
     6
  9
$SURFTYPE
 70
     6
  9
$SURFU
 70
     6
  9
$SURFV
 70
     6
  9
$UCSNAME
  2

  9
$UCSORG
 10
0.0
 20
0.0
 30
0.0
  9
$UCSXDIR
 10
1.0
 20
0.0
 30
0.0
  9
$UCSYDIR
 10
0.0
 20
1.0
 30
0.0
  9
$PUCSNAME
  2

  9
$PUCSORG
 10
0.0
 20
0.0
 30
0.0
  9
$PUCSXDIR
 10
1.0
 20
0.0
 30
0.0
  9
$PUCSYDIR
 10
0.0
 20
1.0
 30
0.0
  9
$USERI1
 70
     0
  9
$USERI2
 70
     0
  9
$USERI3
 70
     0
  9
$USERI4
 70
     0
  9
$USERI5
 70
     0
  9
$USERR1
 40
0.0
  9
$USERR2
 40
0.0
  9
$USERR3
 40
0.0
  9
$USERR4
 40
0.0
  9
$USERR5
 40
0.0
  9
$WORLDVIEW
 70
     1
  9
$SHADEDGE
 70
     3
  9
$SHADEDIF
 70
    70
  9
$TILEMODE
 70
     1
  9
$MAXACTVP
 70
    48
  9
$PINSBASE
 10
0.0
 20
0.0
 30
0.0
  9
$PLIMCHECK
 70
     0
  9
$PEXTMIN
 10
1.000000000000000E+20
 20
1.000000000000000E+20
 30
1.000000000000000E+20
  9
$PEXTMAX
 10
-1.000000000000000E+20
 20
-1.000000000000000E+20
 30
-1.000000000000000E+20
  9
$PLIMMIN
 10
0.0
 20
0.0
  9
$PLIMMAX
 10
420.0
 20
297.0
  9
$UNITMODE
 70
     0
  9
$VISRETAIN
 70
     1
  9
$PLINEGEN
 70
     0
  9
$PSLTSCALE
 70
     1
  9
$TREEDEPTH
 70
  3020
  9
$PICKSTYLE
 70
     1
  9
$CMLSTYLE
  2
STANDARD
  9
$CMLJUST
 70
     0
  9
$CMLSCALE
 40
20.0
  9
$SAVEIMAGES
 70
     1
  0
ENDSEC
  0
SECTION
  2
CLASSES
  0
CLASS
  1
DICTIONARYVAR
  2
AcDbDictionaryVar
  3
ObjectDBX Classes
 90
        0
280
     0
281
     0
  0
CLASS
  1
IDBUFFER
  2
AcDbIdBuffer
  3
ObjectDBX Classes
 90
    32768
280
     0
281
     0
  0
CLASS
  1
LWPOLYLINE
  2
AcDbPolyline
  3
ObjectDBX Classes
 90
    32768
280
     0
281
     1
  0
CLASS
  1
ACDBDICTIONARYWDFLT
  2
AcDbDictionaryWithDefault
  3
ObjectDBX Classes
 90
    32768
280
     0
281
     0
  0
CLASS
  1
ACDBPLACEHOLDER
  2
AcDbPlaceHolder
  3
ObjectDBX Classes
 90
        0
280
     0
281
     0
  0
CLASS
  1
LAYOUT
  2
AcDbLayout
  3
ObjectDBX Classes
 90
        0
280
     0
281
     0
  0
CLASS
  1
TABLESTYLE
  2
AcDbTableStyle
  3
ObjectDBX Classes
 90
     4095
280
     0
281
     0
  0
CLASS
  1
SORTENTSTABLE
  2
AcDbSortentsTable
  3
ObjectDBX Classes
 90
    32768
280
     0
281
     0
  0
CLASS
  1
DIMASSOC
  2
AcDbDimAssoc
  3
"AcDbDimAssoc|Product Desc:     AcDim ARX App For Dimension|Company:          Autodesk, Inc.|WEB Address:      www.autodesk.com"
 90
        0
280
     0
281
     0
  0
CLASS
  1
MATERIAL
  2
AcDbMaterial
  3
ObjectDBX Classes
 90
     1153
280
     0
281
     0
  0
CLASS
  1
VISUALSTYLE
  2
AcDbVisualStyle
  3
ObjectDBX Classes
 90
     4095
280
     0
281
     0
  0
CLASS
  1
SCALE
  2
AcDbScale
  3
ObjectDBX Classes
 90
     1153
280
     0
281
     0
  0
CLASS
  1
MLEADERSTYLE
  2
AcDbMLeaderStyle
  3
ACDB_MLEADERSTYLE_CLASS
 90
     4095
280
     0
281
     0
  0
CLASS
  1
CELLSTYLEMAP
  2
AcDbCellStyleMap
  3
ObjectDBX Classes
 90
     1152
280
     0
281
     0
  0
CLASS
  1
EXACXREFPANELOBJECT
  2
ExAcXREFPanelObject
  3
EXAC_ESW
 90
     1025
280
     1
281
     0
  0
CLASS
  1
NPOCOLLECTION
  2
AcDbImpNonPersistentObjectsCollection
  3
ObjectDBX Classes
 90
     1153
280
     1
281
     0
  0
CLASS
  1
AEC_REFEDIT_STATUS_TRACKER
  2
AecDbRefEditStatusTracker
  3
AecArchBase60|Product Desc: Autodesk Architectural Desktop 2007 |Company: Autodesk,Inc. |WEB Address: www.autodesk.com
 90
      129
280
     1
281
     0
  0
CLASS
  1
SUN
  2
AcDbSun
  3
SCENEOE
 90
     1153
280
     0
281
     0
  0
CLASS
  1
XRECORD
  2
AcDbXrecord
  3
ObjectDBX Classes
 90
    32768
280
     0
281
     0
  0
CLASS
  1
HATCH
  2
AcDbHatch
  3
ObjectDBX Classes
 90
    32768
280
     0
281
     1
  0
ENDSEC
  0
SECTION
  2
TABLES
  0
TABLE
  2
VPORT
  5
8
330
0
100
AcDbSymbolTable
 70
     1
  0
VPORT
  5
15B17
330
8
100
AcDbSymbolTableRecord
100
AcDbViewportTableRecord
  2
*ACTIVE
 70
     0
 10
0.0
 20
0.0
 11
1.0
 21
1.0
 12
4144.651822423408
 22
-1971.072295462504
 13
0.0
 23
0.0
 14
10.0
 24
10.0
 15
10.0
 25
10.0
 16
0.0
 26
0.0
 36
1.0
 17
0.0
 27
0.0
 37
0.0
 40
846.6896487697688
 41
1.8875
 42
50.0
 43
0.0
 44
0.0
 50
0.0
 51
0.0
 71
    16
 72
   100
 73
     1
 74
     1
 75
     0
 76
     0
 77
     0
 78
     0
  0
ENDTAB
  0
TABLE
  2
LTYPE
  5
5
330
0
100
AcDbSymbolTable
 70
     4
  0
LTYPE
  5
12
330
5
100
AcDbSymbolTableRecord
100
AcDbLinetypeTableRecord
  2
BYBLOCK
 70
     0
  3

 72
    65
 73
     0
 40
0.0
  0
LTYPE
  5
13
330
5
100
AcDbSymbolTableRecord
100
AcDbLinetypeTableRecord
  2
BYLAYER
 70
     0
  3

 72
    65
 73
     0
 40
0.0
  0
LTYPE
  5
14
330
5
100
AcDbSymbolTableRecord
100
AcDbLinetypeTableRecord
  2
CONTINUOUS
 70
     0
  3
Solid line
 72
    65
 73
     0
 40
0.0
  0
LTYPE
  5
26
330
5
100
AcDbSymbolTableRecord
100
AcDbLinetypeTableRecord
  2
CENTER2
 70
     0
  3
Center (.5x) ___ _ ___ _ ___ _ ___ _ ___ _ ___
 72
    65
 73
     4
 40
28.575
 49
19.05
 74
     0
 49
-3.175
 74
     0
 49
3.175
 74
     0
 49
-3.175
 74
     0
  0
LTYPE
  5
FF
330
5
100
AcDbSymbolTableRecord
100
AcDbLinetypeTableRecord
  2
HIDDEN
 70
     0
  3
Hidden __ __ __ __ __ __ __ __ __ __ __ __ __ _
 72
    65
 73
     2
 40
9.524999999999999
 49
6.35
 74
     0
 49
-3.175
 74
     0
  0
LTYPE
  5
100
330
5
100
AcDbSymbolTableRecord
100
AcDbLinetypeTableRecord
  2
PHANTOM2
 70
     0
  3
Phantom (0.5x) ___ _ _ ___ _ _ ___ _ _ ___ _ _
 72
    65
 73
     6
 40
31.75
 49
15.875
 74
     0
 49
-3.175
 74
     0
 49
3.175
 74
     0
 49
-3.175
 74
     0
 49
3.175
 74
     0
 49
-3.175
 74
     0
  0
ENDTAB
  0
TABLE
  2
LAYER
  5
2
102
{ACAD_XDICTIONARY
360
14EC2
102
}
330
0
100
AcDbSymbolTable
 70
     7
  0
LAYER
  5
E
102
{ACAD_XDICTIONARY
360
15BB5
102
}
330
2
100
AcDbSymbolTableRecord
100
AcDbLayerTableRecord
  2
0
 70
     0
 62
     7
  6
CONTINUOUS
  0
LAYER
  5
29
102
{ACAD_XDICTIONARY
360
15BB7
102
}
330
2
100
AcDbSymbolTableRecord
100
AcDbLayerTableRecord
  2
1CENTER
 70
     0
 62
     7
  6
CENTER2
  0
LAYER
  5
31
102
{ACAD_XDICTIONARY
360
15BB9
102
}
330
2
100
AcDbSymbolTableRecord
100
AcDbLayerTableRecord
  2
1TEXT
 70
     0
 62
     7
  6
CONTINUOUS
  0
LAYER
  5
101
102
{ACAD_XDICTIONARY
360
15BC3
102
}
330
2
100
AcDbSymbolTableRecord
100
AcDbLayerTableRecord
  2
1DIM
 70
     0
 62
     7
  6
CONTINUOUS
  0
LAYER
  5
102
102
{ACAD_XDICTIONARY
360
15BC5
102
}
330
2
100
AcDbSymbolTableRecord
100
AcDbLayerTableRecord
  2
1HIDDEN
 70
     0
 62
     7
  6
HIDDEN
  0
LAYER
  5
103
102
{ACAD_XDICTIONARY
360
15BC7
102
}
330
2
100
AcDbSymbolTableRecord
100
AcDbLayerTableRecord
  2
1PHANTOM
 70
     0
 62
     7
  6
PHANTOM2
  0
LAYER
  5
25F
102
{ACAD_XDICTIONARY
360
15BCB
102
}
330
2
100
AcDbSymbolTableRecord
100
AcDbLayerTableRecord
  2
01
 70
     0
 62
     1
  6
CONTINUOUS
  0
ENDTAB
  0
TABLE
  2
STYLE
  5
3
330
0
100
AcDbSymbolTable
 70
     2
  0
STYLE
  5
F
330
3
100
AcDbSymbolTableRecord
100
AcDbTextStyleTableRecord
  2
STANDARD
 70
     0
 40
0.0
 41
1.0
 50
0.0
 71
     0
 42
4.0
  3
txt.shx
  4
extfont.shx
  0
STYLE
  5
14B6B
330
3
100
AcDbSymbolTableRecord
100
AcDbTextStyleTableRecord
  2
SWISS
 70
     0
 40
0.0
 41
1.0
 50
0.0
 71
     0
 42
4.0
  3
txt.shx
  4
extfont.shx
  0
ENDTAB
  0
TABLE
  2
VIEW
  5
6
330
0
100
AcDbSymbolTable
 70
     0
  0
ENDTAB
  0
TABLE
  2
UCS
  5
7
330
0
100
AcDbSymbolTable
 70
     0
  0
ENDTAB
  0
TABLE
  2
APPID
  5
9
330
0
100
AcDbSymbolTable
 70
    15
  0
APPID
  5
10
330
9
100
AcDbSymbolTableRecord
100
AcDbRegAppTableRecord
  2
ACAD
 70
     0
  0
APPID
  5
21
330
9
100
AcDbSymbolTableRecord
100
AcDbRegAppTableRecord
  2
DRAWINGVARIABLESXDATA
 70
     0
  0
APPID
  5
64
330
9
100
AcDbSymbolTableRecord
100
AcDbRegAppTableRecord
  2
CONTENTTABDATA
 70
     0
  0
APPID
  5
65
330
9
100
AcDbSymbolTableRecord
100
AcDbRegAppTableRecord
  2
CONTENTCURRENTTAB
 70
     0
  0
APPID
  5
66
330
9
100
AcDbSymbolTableRecord
100
AcDbRegAppTableRecord
  2
CONTENTBLOCKDESCRIPTION
 70
     0
  0
APPID
  5
67
330
9
100
AcDbSymbolTableRecord
100
AcDbRegAppTableRecord
  2
CONTENTBLOCKICON
 70
     0
  0
APPID
  5
68
330
9
100
AcDbSymbolTableRecord
100
AcDbRegAppTableRecord
  2
CONTENTLONGBLOCKNAME
 70
     0
  0
APPID
  5
5A9
330
9
100
AcDbSymbolTableRecord
100
AcDbRegAppTableRecord
  2
ACAD_PSEXT
 70
     0
  0
APPID
  5
18AC
330
9
100
AcDbSymbolTableRecord
100
AcDbRegAppTableRecord
  2
ACAD_DSTYLE_DIMTEXT_FILL
 70
     0
  0
APPID
  5
15B9A
330
9
100
AcDbSymbolTableRecord
100
AcDbRegAppTableRecord
  2
ACAD_MLEADERVER
 70
     0
  0
APPID
  5
170A1
330
9
100
AcDbSymbolTableRecord
100
AcDbRegAppTableRecord
  2
ACAD_DSTYLE_DIMRADIAL_EXTE
 70
     0
  0
APPID
  5
174F3
330
9
100
AcDbSymbolTableRecord
100
AcDbRegAppTableRecord
  2
ACAD_EXEMPT_FROM_CAD_STAND
 70
     0
  0
APPID
  5
1797B
330
9
100
AcDbSymbolTableRecord
100
AcDbRegAppTableRecord
  2
ACADANNOTATIVE
 70
     0
  0
APPID
  5
181DC
330
9
100
AcDbSymbolTableRecord
100
AcDbRegAppTableRecord
  2
ACLAYERTOOLS
 70
     0
  0
APPID
  5
1AE06
330
9
100
AcDbSymbolTableRecord
100
AcDbRegAppTableRecord
  2
ACAD_OBJECT_CHANGE_GUID
 70
     0
  0
ENDTAB
  0
TABLE
  2
DIMSTYLE
  5
A
330
0
100
AcDbSymbolTable
 70
     1
  0
DIMSTYLE
105
48
330
A
100
AcDbSymbolTableRecord
100
AcDbDimStyleTableRecord
  2
NEWX10
 70
     0
  3
 
  4

  5

  6
OPEN30
  7
OPEN30
 40
1.0
 41
2.0
 42
0.0
 43
7.0
 44
1.0
 45
0.0
 46
0.0
 47
0.0
 48
0.0
140
3.5
141
0.0
142
0.0
143
25.4
144
1.0
145
0.0
146
0.7
147
0.7
 71
     0
 72
     0
 73
     0
 74
     0
 75
     0
 76
     0
 77
     1
 78
     8
170
     0
171
     2
172
     1
173
     1
174
     0
175
     0
176
   256
177
   256
178
   201
179
     2
270
     2
271
     2
272
     4
273
     2
274
     2
340
F
275
     0
280
     0
281
     0
282
     0
283
     1
284
     8
285
     0
286
     0
287
     2
288
     0
  0
ENDTAB
  0
TABLE
  2
BLOCK_RECORD
  5
1
330
0
100
AcDbSymbolTable
 70
     1
  0
BLOCK_RECORD
  5
18
102
{ACAD_XDICTIONARY
360
6E9
102
}
330
1
100
AcDbSymbolTableRecord
100
AcDbBlockTableRecord
  2
*MODEL_SPACE
  0
BLOCK_RECORD
  5
15
102
{ACAD_XDICTIONARY
360
59B
102
}
330
1
100
AcDbSymbolTableRecord
100
AcDbBlockTableRecord
  2
*PAPER_SPACE
  0
BLOCK_RECORD
  5
42
330
1
100
AcDbSymbolTableRecord
100
AcDbBlockTableRecord
  2
_OPEN30
  0
ENDTAB
  0
ENDSEC
  0
SECTION
  2
BLOCKS
  0
BLOCK
  5
19
330
18
100
AcDbEntity
  8
0
100
AcDbBlockBegin
  2
*MODEL_SPACE
 70
     0
 10
0.0
 20
0.0
 30
0.0
  3
*MODEL_SPACE
  1

  0
ENDBLK
  5
1A
330
18
100
AcDbEntity
  8
0
100
AcDbBlockEnd
  0
BLOCK
  5
16
330
15
100
AcDbEntity
 67
     1
  8
0
100
AcDbBlockBegin
  2
*PAPER_SPACE
 70
     0
 10
0.0
 20
0.0
 30
0.0
  3
*PAPER_SPACE
  1

  0
ENDBLK
  5
17
330
15
100
AcDbEntity
 67
     1
  8
0
100
AcDbBlockEnd
  0
BLOCK
  5
43
330
42
100
AcDbEntity
  8
0
100
AcDbBlockBegin
  2
_OPEN30
 70
     0
 10
0.0
 20
0.0
 30
0.0
  3
_OPEN30
  1

  0
LINE
  5
44
330
42
100
AcDbEntity
  8
0
  6
BYBLOCK
 62
     0
100
AcDbLine
 10
-1.0
 20
0.26794919
 30
0.0
 11
0.0
 21
0.0
 31
0.0
  0
LINE
  5
45
330
42
100
AcDbEntity
  8
0
  6
BYBLOCK
 62
     0
100
AcDbLine
 10
0.0
 20
0.0
 30
0.0
 11
-1.0
 21
-0.26794919
 31
0.0
  0
LINE
  5
46
330
42
100
AcDbEntity
  8
0
  6
BYBLOCK
 62
     0
100
AcDbLine
 10
0.0
 20
0.0
 30
0.0
 11
-1.0
 21
0.0
 31
0.0
  0
ENDBLK
  5
47
330
42
100
AcDbEntity
  8
0
100
AcDbBlockEnd
  0
ENDSEC
  0
SECTION
  2
ENTITIES
  0
LINE
  5
18545
330
18
100
AcDbEntity
  8
1DIM
100
AcDbLine
 10
4350.726163353142
 20
-1758.453945740433
 30
0.0
 11
4665.726163353145
 21
-1758.453945740432
 31
0.0
  0
LINE
  5
18546
330
18
100
AcDbEntity
  8
1DIM
100
AcDbLine
 10
4350.726163353142
 20
-1737.453945740433
 30
0.0
 11
4665.726163353147
 21
-1737.453945740432
 31
0.0
  0
TEXT
  5
18547
330
18
100
AcDbEntity
  8
1TEXT
100
AcDbText
 10
4487.326163353144
 20
-1753.953945740433
 30
0.0
 40
12.0
  1
コード
 72
     1
 11
4507.926163353144
 21
-1753.953945740433
 31
0.0
100
AcDbText
  0
TEXT
  5
18548
330
18
100
AcDbEntity
  8
1TEXT
100
AcDbText
 10
4377.906163353144
 20
-1753.953945740433
 30
0.0
 40
12.0
  1
表面処理
 41
0.9
 72
     1
 11
4402.926163353144
 21
-1753.953945740433
 31
0.0
100
AcDbText
  0
LINE
  5
18549
330
18
100
AcDbEntity
  8
1DIM
100
AcDbLine
 10
4350.726163353145
 20
-1779.453945740433
 30
0.0
 11
4560.726163353145
 21
-1779.453945740433
 31
0.0
  0
LINE
  5
1854B
330
18
100
AcDbEntity
  8
1DIM
100
AcDbLine
 10
4350.726163353145
 20
-1737.453945740433
 30
0.0
 11
4350.726163353145
 21
-1821.453945740437
 31
0.0
  0
LINE
  5
1854C
330
18
100
AcDbEntity
  8
1DIM
100
AcDbLine
 10
4455.726163353145
 20
-1737.453945740432
 30
0.0
 11
4455.726163353145
 21
-1821.453945740437
 31
0.0
  0
LINE
  5
1854D
330
18
100
AcDbEntity
  8
1DIM
100
AcDbLine
 10
4560.726163353145
 20
-1737.453945740432
 30
0.0
 11
4560.726163353143
 21
-1821.453945740437
 31
0.0
  0
TEXT
  5
1854E
330
18
100
AcDbEntity
  8
1TEXT
100
AcDbText
 10
4464.676163353146
 20
-1775.597016691381
 30
0.0
 40
12.0
  1
GP-170-036-35
 41
0.6
 72
     1
 11
4507.926163353146
 21
-1775.597016691381
 31
0.0
100
AcDbText
  0
TEXT
  5
1854F
330
18
100
AcDbEntity
  8
1TEXT
100
AcDbText
 10
4347.122294903966
 20
-1724.58055806216
 30
0.0
 40
24.0
  1
GP-170-X-35
100
AcDbText
  0
TEXT
  5
18551
330
18
100
AcDbEntity
  8
1TEXT
100
AcDbText
 10
4352.706163353149
 20
-1817.597016691384
 30
0.0
 40
12.0
  1
ブラストブラック
 41
0.9
 72
     1
 11
4402.92616335315
 21
-1817.597016691384
 31
0.0
100
AcDbText
  0
TEXT
  5
18552
330
18
100
AcDbEntity
  8
1TEXT
100
AcDbText
 10
4464.67616335315
 20
-1817.597016691384
 30
0.0
 40
12.0
  1
GP-170-062-35
 41
0.6
 72
     1
 11
4507.92616335315
 21
-1817.597016691384
 31
0.0
100
AcDbText
  0
LINE
  5
18553
330
18
100
AcDbEntity
  8
1DIM
100
AcDbLine
 10
4350.726163353149
 20
-1800.453945740435
 30
0.0
 11
4560.726163353147
 21
-1800.453945740435
 31
0.0
  0
TEXT
  5
18554
330
18
100
AcDbEntity
  8
1TEXT
100
AcDbText
 10
4354.326163353149
 20
-1796.597016691384
 30
0.0
 40
12.0
  1
ダークアンバー
 72
     1
 11
4402.92616335315
 21
-1796.597016691384
 31
0.0
100
AcDbText
  0
TEXT
  5
18555
330
18
100
AcDbEntity
  8
1TEXT
100
AcDbText
 10
4465.90116335315
 20
-1796.597016691384
 30
0.0
 40
12.0
  1
GP-170-014-35
 41
0.6
 72
     1
 11
4507.92616335315
 21
-1796.597016691384
 31
0.0
100
AcDbText
  0
TEXT
  5
18556
330
18
100
AcDbEntity
  8
1TEXT
100
AcDbText
 10
4585.126163353146
 20
-1753.953945740433
 30
0.0
 40
12.0
  1
対応子機
 72
     1
 11
4612.926163353146
 21
-1753.953945740433
 31
0.0
100
AcDbText
  0
LINE
  5
18557
330
18
100
AcDbEntity
  8
1DIM
100
AcDbLine
 10
4665.726163353149
 20
-1737.453945740432
 30
0.0
 11
4665.726163353146
 21
-1821.453945740437
 31
0.0
  0
TEXT
  5
18558
330
18
100
AcDbEntity
  8
1TEXT
100
AcDbText
 10
4581.49060779759
 20
-1796.597016691382
 30
0.0
 40
12.0
  1
EJD9520
 41
0.8
 72
     1
 11
4612.926163353146
 21
-1796.597016691382
 31
0.0
100
AcDbText
  0
TEXT
  5
18559
330
18
100
AcDbEntity
  8
1TEXT
100
AcDbText
 10
4571.726163353148
 20
-1775.597016691381
 30
0.0
 40
12.0
  1
パナソニック
 72
     1
 11
4612.926163353148
 21
-1775.597016691381
 31
0.0
100
AcDbText
  0
TEXT
  5
1855B
330
18
100
AcDbEntity
  8
1TEXT
100
AcDbText
 10
4352.706163353146
 20
-1775.597016691381
 30
0.0
 40
12.0
  1
ブラストシルバー
 41
0.9
 72
     1
 11
4402.926163353146
 21
-1775.597016691381
 31
0.0
100
AcDbText
  0
LINE
  5
18AA3
330
18
100
AcDbEntity
  8
01
  6
BYBLOCK
100
AcDbLine
 10
3784.824837362935
 20
-1617.382222260896
 30
0.0
 11
3784.824837362934
 21
-1615.382222260896
 31
0.0
  0
LINE
  5
18AC3
330
18
100
AcDbEntity
  8
01
  6
BYBLOCK
100
AcDbLine
 10
3696.024837362932
 20
-1617.382222260896
 30
0.0
 11
3696.024837362934
 21
-1615.382222260896
 31
0.0
  0
LINE
  5
18EE8
330
18
100
AcDbEntity
  8
01
100
AcDbLine
 10
3674.174837362934
 20
-1617.382222260896
 30
0.0
 11
3672.174837362934
 21
-1617.382222260896
 31
0.0
  0
LINE
  5
18EE9
330
18
100
AcDbEntity
  8
01
100
AcDbLine
 10
3672.174837362934
 20
-1676.882222260896
 30
0.0
 11
3672.174837362934
 21
-1617.382222260896
 31
0.0
  0
ARC
  5
18EEA
330
18
100
AcDbEntity
  8
01
100
AcDbCircle
 10
3672.674837362934
 20
-1634.882222260896
 30
0.0
 40
0.5
100
AcDbArc
 50
180.0
 51
270.0
  0
LINE
  5
18EEB
330
18
100
AcDbEntity
  8
01
100
AcDbLine
 10
3674.174837362934
 20
-1633.382222260896
 30
0.0
 11
3674.174837362934
 21
-1617.382222260896
 31
0.0
  0
LINE
  5
18EF1
330
18
100
AcDbEntity
  8
01
100
AcDbLine
 10
3808.674837362934
 20
-1617.382222260896
 30
0.0
 11
3806.674837362934
 21
-1617.382222260896
 31
0.0
  0
LINE
  5
18EF2
330
18
100
AcDbEntity
  8
01
100
AcDbLine
 10
3808.174837362934
 20
-1635.382222260896
 30
0.0
 11
3672.674837362934
 21
-1635.382222260896
 31
0.0
  0
ARC
  5
18EF3
330
18
100
AcDbEntity
  8
01
100
AcDbCircle
 10
3808.174837362934
 20
-1634.882222260896
 30
0.0
 40
0.5
100
AcDbArc
 50
270.0
 51
0.0
  0
LINE
  5
18EF4
330
18
100
AcDbEntity
  8
01
100
AcDbLine
 10
3806.674837362934
 20
-1633.382222260896
 30
0.0
 11
3674.174837362934
 21
-1633.382222260896
 31
0.0
  0
LINE
  5
18EF5
330
18
100
AcDbEntity
  8
01
100
AcDbLine
 10
3808.674837362934
 20
-1676.882222260896
 30
0.0
 11
3808.674837362934
 21
-1617.382222260896
 31
0.0
  0
LINE
  5
18EF6
330
18
100
AcDbEntity
  8
01
100
AcDbLine
 10
3806.674837362934
 20
-1633.382222260896
 30
0.0
 11
3806.674837362934
 21
-1617.382222260896
 31
0.0
  0
LINE
  5
18F29
330
18
100
AcDbEntity
  8
01
100
AcDbLine
 10
3674.274837362934
 20
-1632.782222260897
 30
0.0
 11
3674.274837362934
 21
-1617.382222260896
 31
0.0
  0
LINE
  5
18F2A
330
18
100
AcDbEntity
  8
01
100
AcDbLine
 10
3674.274837362934
 20
-1617.382222260896
 30
0.0
 11
3806.574837362934
 21
-1617.382222260896
 31
0.0
  0
LINE
  5
18F2B
330
18
100
AcDbEntity
  8
01
100
AcDbLine
 10
3806.574837362934
 20
-1632.782222260897
 30
0.0
 11
3806.574837362934
 21
-1617.382222260896
 31
0.0
  0
LINE
  5
18F2C
330
18
100
AcDbEntity
  8
01
100
AcDbLine
 10
3806.574837362934
 20
-1632.782222260897
 30
0.0
 11
3674.274837362934
 21
-1632.782222260897
 31
0.0
  0
LINE
  5
18F31
330
18
100
AcDbEntity
  8
1DIM
100
AcDbLine
 10
4350.726163353149
 20
-1821.453945740437
 30
0.0
 11
4665.726163353149
 21
-1821.453945740437
 31
0.0
  0
LINE
  5
19305
102
{ACAD_REACTORS
330
1A11B
102
}
330
18
100
AcDbEntity
  8
1CENTER
100
AcDbLine
 10
3700.424837362935
 20
-1576.780547260896
 30
0.0
 11
3700.424837362935
 21
-1622.224652834865
 31
0.0
  0
LINE
  5
19306
102
{ACAD_REACTORS
330
1A11B
102
}
330
18
100
AcDbEntity
  8
1PHANTOM
100
AcDbLine
 10
3697.924837362935
 20
-1602.26435667485
 30
0.0
 11
3702.924837362935
 21
-1601.26435667485
 31
0.0
  0
LINE
  5
19307
102
{ACAD_REACTORS
330
1A11B
102
}
330
18
100
AcDbEntity
  8
1PHANTOM
100
AcDbLine
 10
3698.674837362935
 20
-1584.913311174142
 30
0.0
 11
3698.674837362935
 21
-1617.382222260896
 31
0.0
  0
LINE
  5
19308
102
{ACAD_REACTORS
330
1A11B
102
}
330
18
100
AcDbEntity
  8
1PHANTOM
100
AcDbLine
 10
3700.424837362935
 20
-1578.382222260896
 30
0.0
 11
3698.674837362935
 21
-1584.913311174142
 31
0.0
  0
LINE
  5
19309
102
{ACAD_REACTORS
330
1A11B
102
}
330
18
100
AcDbEntity
  8
1PHANTOM
100
AcDbLine
 10
3700.424837362935
 20
-1578.382222260896
 30
0.0
 11
3702.174837362935
 21
-1584.913311174142
 31
0.0
  0
LINE
  5
1930A
102
{ACAD_REACTORS
330
1A11B
102
}
330
18
100
AcDbEntity
  8
1PHANTOM
100
AcDbLine
 10
3702.174837362935
 20
-1584.913311174142
 30
0.0
 11
3702.174837362935
 21
-1617.382222260896
 31
0.0
  0
LINE
  5
1930B
102
{ACAD_REACTORS
330
1A11B
102
}
330
18
100
AcDbEntity
  8
1PHANTOM
100
AcDbLine
 10
3698.108570421899
 20
-1584.227610063057
 30
0.0
 11
3698.858570421899
 21
-1584.377610063057
 31
0.0
  0
LINE
  5
1930C
102
{ACAD_REACTORS
330
1A11B
102
}
330
18
100
AcDbEntity
  8
1PHANTOM
100
AcDbLine
 10
3698.108570421899
 20
-1584.227610063057
 30
0.0
 11
3702.50547490299
 21
-1583.348229166839
 31
0.0
  0
LINE
  5
1930D
102
{ACAD_REACTORS
330
1A11B
102
}
330
18
100
AcDbEntity
  8
1PHANTOM
100
AcDbLine
 10
3700.738194049879
 20
-1579.401685337461
 30
0.0
 11
3701.488194049879
 21
-1579.551685337462
 31
0.0
  0
LINE
  5
1930E
102
{ACAD_REACTORS
330
1A11B
102
}
330
18
100
AcDbEntity
  8
1PHANTOM
100
AcDbLine
 10
3699.241056962418
 20
-1580.001112754954
 30
0.0
 11
3699.991056962418
 21
-1580.151112754953
 31
0.0
  0
LINE
  5
1930F
102
{ACAD_REACTORS
330
1A11B
102
}
330
18
100
AcDbEntity
  8
1PHANTOM
100
AcDbLine
 10
3699.241056962418
 20
-1580.001112754954
 30
0.0
 11
3701.488194049879
 21
-1579.551685337462
 31
0.0
  0
LINE
  5
19310
102
{ACAD_REACTORS
330
1A11B
102
}
330
18
100
AcDbEntity
  8
1PHANTOM
100
AcDbLine
 10
3701.75547490299
 20
-1583.19822916684
 30
0.0
 11
3702.50547490299
 21
-1583.348229166839
 31
0.0
  0
LINE
  5
19311
102
{ACAD_REACTORS
330
1A11B
102
}
330
18
100
AcDbEntity
  8
1PHANTOM
100
AcDbLine
 10
3701.246834476435
 20
-1581.29995725215
 30
0.0
 11
3701.996834476435
 21
-1581.44995725215
 31
0.0
  0
LINE
  5
19312
102
{ACAD_REACTORS
330
1A11B
102
}
330
18
100
AcDbEntity
  8
1PHANTOM
100
AcDbLine
 10
3698.674813692159
 20
-1582.114361409006
 30
0.0
 11
3699.424813692159
 21
-1582.264361409005
 31
0.0
  0
LINE
  5
19313
102
{ACAD_REACTORS
330
1A11B
102
}
330
18
100
AcDbEntity
  8
1PHANTOM
100
AcDbLine
 10
3698.674813692159
 20
-1582.114361409006
 30
0.0
 11
3701.996834476435
 21
-1581.44995725215
 31
0.0
  0
LINE
  5
19314
102
{ACAD_REACTORS
330
1A11B
102
}
330
18
100
AcDbEntity
  8
1PHANTOM
100
AcDbLine
 10
3702.174837362935
 20
-1593.11435667485
 30
0.0
 11
3702.924837362935
 21
-1593.26435667485
 31
0.0
  0
LINE
  5
19315
102
{ACAD_REACTORS
330
1A11B
102
}
330
18
100
AcDbEntity
  8
1PHANTOM
100
AcDbLine
 10
3697.924837362935
 20
-1590.26435667485
 30
0.0
 11
3698.674837362935
 21
-1590.41435667485
 31
0.0
  0
LINE
  5
19316
102
{ACAD_REACTORS
330
1A11B
102
}
330
18
100
AcDbEntity
  8
1PHANTOM
100
AcDbLine
 10
3697.924837362935
 20
-1592.26435667485
 30
0.0
 11
3698.674837362935
 21
-1592.41435667485
 31
0.0
  0
LINE
  5
19317
102
{ACAD_REACTORS
330
1A11B
102
}
330
18
100
AcDbEntity
  8
1PHANTOM
100
AcDbLine
 10
3697.924837362935
 20
-1592.26435667485
 30
0.0
 11
3702.924837362935
 21
-1591.26435667485
 31
0.0
  0
LINE
  5
19318
102
{ACAD_REACTORS
330
1A11B
102
}
330
18
100
AcDbEntity
  8
1PHANTOM
100
AcDbLine
 10
3697.924837362935
 20
-1588.26435667485
 30
0.0
 11
3698.674837362935
 21
-1588.41435667485
 31
0.0
  0
LINE
  5
19319
102
{ACAD_REACTORS
330
1A11B
102
}
330
18
100
AcDbEntity
  8
1PHANTOM
100
AcDbLine
 10
3697.924837362935
 20
-1586.26435667485
 30
0.0
 11
3698.674837362935
 21
-1586.41435667485
 31
0.0
  0
LINE
  5
1931A
102
{ACAD_REACTORS
330
1A11B
102
}
330
18
100
AcDbEntity
  8
1PHANTOM
100
AcDbLine
 10
3697.924837362935
 20
-1586.26435667485
 30
0.0
 11
3702.924837362935
 21
-1585.26435667485
 31
0.0
  0
LINE
  5
1931B
102
{ACAD_REACTORS
330
1A11B
102
}
330
18
100
AcDbEntity
  8
1PHANTOM
100
AcDbLine
 10
3697.924837362935
 20
-1588.26435667485
 30
0.0
 11
3702.924837362935
 21
-1587.26435667485
 31
0.0
  0
LINE
  5
1931C
102
{ACAD_REACTORS
330
1A11B
102
}
330
18
100
AcDbEntity
  8
1PHANTOM
100
AcDbLine
 10
3697.924837362935
 20
-1590.26435667485
 30
0.0
 11
3702.924837362935
 21
-1589.26435667485
 31
0.0
  0
LINE
  5
1931D
102
{ACAD_REACTORS
330
1A11B
102
}
330
18
100
AcDbEntity
  8
1PHANTOM
100
AcDbLine
 10
3702.174837362935
 20
-1585.11435667485
 30
0.0
 11
3702.924837362935
 21
-1585.26435667485
 31
0.0
  0
LINE
  5
1931E
102
{ACAD_REACTORS
330
1A11B
102
}
330
18
100
AcDbEntity
  8
1PHANTOM
100
AcDbLine
 10
3702.174837362935
 20
-1587.11435667485
 30
0.0
 11
3702.924837362935
 21
-1587.26435667485
 31
0.0
  0
LINE
  5
1931F
102
{ACAD_REACTORS
330
1A11B
102
}
330
18
100
AcDbEntity
  8
1PHANTOM
100
AcDbLine
 10
3702.174837362935
 20
-1591.11435667485
 30
0.0
 11
3702.924837362935
 21
-1591.26435667485
 31
0.0
  0
LINE
  5
19320
102
{ACAD_REACTORS
330
1A11B
102
}
330
18
100
AcDbEntity
  8
1PHANTOM
100
AcDbLine
 10
3702.174837362935
 20
-1589.11435667485
 30
0.0
 11
3702.924837362935
 21
-1589.26435667485
 31
0.0
  0
LINE
  5
19321
102
{ACAD_REACTORS
330
1A11B
102
}
330
18
100
AcDbEntity
  8
1PHANTOM
100
AcDbLine
 10
3697.924837362935
 20
-1596.26435667485
 30
0.0
 11
3698.674837362935
 21
-1596.41435667485
 31
0.0
  0
LINE
  5
19322
102
{ACAD_REACTORS
330
1A11B
102
}
330
18
100
AcDbEntity
  8
1PHANTOM
100
AcDbLine
 10
3697.924837362935
 20
-1594.26435667485
 30
0.0
 11
3698.674837362935
 21
-1594.41435667485
 31
0.0
  0
LINE
  5
19323
102
{ACAD_REACTORS
330
1A11B
102
}
330
18
100
AcDbEntity
  8
1PHANTOM
100
AcDbLine
 10
3697.924837362935
 20
-1600.26435667485
 30
0.0
 11
3698.674837362935
 21
-1600.41435667485
 31
0.0
  0
LINE
  5
19324
102
{ACAD_REACTORS
330
1A11B
102
}
330
18
100
AcDbEntity
  8
1PHANTOM
100
AcDbLine
 10
3697.924837362935
 20
-1598.26435667485
 30
0.0
 11
3698.674837362935
 21
-1598.41435667485
 31
0.0
  0
LINE
  5
19325
102
{ACAD_REACTORS
330
1A11B
102
}
330
18
100
AcDbEntity
  8
1PHANTOM
100
AcDbLine
 10
3697.924837362935
 20
-1594.26435667485
 30
0.0
 11
3702.924837362935
 21
-1593.26435667485
 31
0.0
  0
LINE
  5
19326
102
{ACAD_REACTORS
330
1A11B
102
}
330
18
100
AcDbEntity
  8
1PHANTOM
100
AcDbLine
 10
3697.924837362935
 20
-1596.26435667485
 30
0.0
 11
3702.924837362935
 21
-1595.26435667485
 31
0.0
  0
LINE
  5
19327
102
{ACAD_REACTORS
330
1A11B
102
}
330
18
100
AcDbEntity
  8
1PHANTOM
100
AcDbLine
 10
3697.924837362935
 20
-1598.26435667485
 30
0.0
 11
3702.924837362935
 21
-1597.26435667485
 31
0.0
  0
LINE
  5
19328
102
{ACAD_REACTORS
330
1A11B
102
}
330
18
100
AcDbEntity
  8
1PHANTOM
100
AcDbLine
 10
3697.924837362935
 20
-1600.26435667485
 30
0.0
 11
3702.924837362935
 21
-1599.26435667485
 31
0.0
  0
LINE
  5
19329
102
{ACAD_REACTORS
330
1A11B
102
}
330
18
100
AcDbEntity
  8
1PHANTOM
100
AcDbLine
 10
3702.174837362935
 20
-1597.11435667485
 30
0.0
 11
3702.924837362935
 21
-1597.26435667485
 31
0.0
  0
LINE
  5
1932A
102
{ACAD_REACTORS
330
1A11B
102
}
330
18
100
AcDbEntity
  8
1PHANTOM
100
AcDbLine
 10
3702.174837362935
 20
-1595.11435667485
 30
0.0
 11
3702.924837362935
 21
-1595.26435667485
 31
0.0
  0
LINE
  5
1932B
102
{ACAD_REACTORS
330
1A11B
102
}
330
18
100
AcDbEntity
  8
1PHANTOM
100
AcDbLine
 10
3702.174837362935
 20
-1601.11435667485
 30
0.0
 11
3702.924837362935
 21
-1601.26435667485
 31
0.0
  0
LINE
  5
1932C
102
{ACAD_REACTORS
330
1A11B
102
}
330
18
100
AcDbEntity
  8
1PHANTOM
100
AcDbLine
 10
3702.174837362935
 20
-1599.11435667485
 30
0.0
 11
3702.924837362935
 21
-1599.26435667485
 31
0.0
  0
LINE
  5
1932D
102
{ACAD_REACTORS
330
1A11B
102
}
330
18
100
AcDbEntity
  8
1PHANTOM
100
AcDbLine
 10
3702.335509432702
 20
-1617.382222260896
 30
0.0
 11
3702.924837362935
 21
-1617.26435667485
 31
0.0
  0
LINE
  5
1932E
102
{ACAD_REACTORS
330
1A11B
102
}
330
18
100
AcDbEntity
  8
1PHANTOM
100
AcDbLine
 10
3697.924837362935
 20
-1610.26435667485
 30
0.0
 11
3702.924837362935
 21
-1609.26435667485
 31
0.0
  0
LINE
  5
1932F
102
{ACAD_REACTORS
330
1A11B
102
}
330
18
100
AcDbEntity
  8
1PHANTOM
100
AcDbLine
 10
3697.924837362935
 20
-1602.26435667485
 30
0.0
 11
3698.674837362935
 21
-1602.41435667485
 31
0.0
  0
LINE
  5
19330
102
{ACAD_REACTORS
330
1A11B
102
}
330
18
100
AcDbEntity
  8
1PHANTOM
100
AcDbLine
 10
3697.924837362935
 20
-1604.26435667485
 30
0.0
 11
3698.674837362935
 21
-1604.41435667485
 31
0.0
  0
LINE
  5
19331
102
{ACAD_REACTORS
330
1A11B
102
}
330
18
100
AcDbEntity
  8
1PHANTOM
100
AcDbLine
 10
3697.924837362935
 20
-1606.26435667485
 30
0.0
 11
3698.674837362935
 21
-1606.41435667485
 31
0.0
  0
LINE
  5
19332
102
{ACAD_REACTORS
330
1A11B
102
}
330
18
100
AcDbEntity
  8
1PHANTOM
100
AcDbLine
 10
3697.924837362935
 20
-1608.26435667485
 30
0.0
 11
3698.674837362935
 21
-1608.41435667485
 31
0.0
  0
LINE
  5
19333
102
{ACAD_REACTORS
330
1A11B
102
}
330
18
100
AcDbEntity
  8
1PHANTOM
100
AcDbLine
 10
3697.924837362935
 20
-1604.26435667485
 30
0.0
 11
3702.924837362935
 21
-1603.26435667485
 31
0.0
  0
LINE
  5
19334
102
{ACAD_REACTORS
330
1A11B
102
}
330
18
100
AcDbEntity
  8
1PHANTOM
100
AcDbLine
 10
3697.924837362935
 20
-1606.26435667485
 30
0.0
 11
3702.924837362935
 21
-1605.26435667485
 31
0.0
  0
LINE
  5
19335
102
{ACAD_REACTORS
330
1A11B
102
}
330
18
100
AcDbEntity
  8
1PHANTOM
100
AcDbLine
 10
3697.924837362935
 20
-1608.26435667485
 30
0.0
 11
3702.924837362935
 21
-1607.26435667485
 31
0.0
  0
LINE
  5
19336
102
{ACAD_REACTORS
330
1A11B
102
}
330
18
100
AcDbEntity
  8
1PHANTOM
100
AcDbLine
 10
3702.174837362935
 20
-1603.11435667485
 30
0.0
 11
3702.924837362935
 21
-1603.26435667485
 31
0.0
  0
LINE
  5
19337
102
{ACAD_REACTORS
330
1A11B
102
}
330
18
100
AcDbEntity
  8
1PHANTOM
100
AcDbLine
 10
3702.174837362935
 20
-1605.11435667485
 30
0.0
 11
3702.924837362935
 21
-1605.26435667485
 31
0.0
  0
LINE
  5
19338
102
{ACAD_REACTORS
330
1A11B
102
}
330
18
100
AcDbEntity
  8
1PHANTOM
100
AcDbLine
 10
3702.174837362935
 20
-1607.11435667485
 30
0.0
 11
3702.924837362935
 21
-1607.26435667485
 31
0.0
  0
LINE
  5
19339
102
{ACAD_REACTORS
330
1A11B
102
}
330
18
100
AcDbEntity
  8
1PHANTOM
100
AcDbLine
 10
3702.174837362935
 20
-1609.11435667485
 30
0.0
 11
3702.924837362935
 21
-1609.26435667485
 31
0.0
  0
LINE
  5
1933A
102
{ACAD_REACTORS
330
1A11B
102
}
330
18
100
AcDbEntity
  8
1PHANTOM
100
AcDbLine
 10
3697.924837362935
 20
-1614.26435667485
 30
0.0
 11
3698.674837362935
 21
-1614.41435667485
 31
0.0
  0
LINE
  5
1933B
102
{ACAD_REACTORS
330
1A11B
102
}
330
18
100
AcDbEntity
  8
1PHANTOM
100
AcDbLine
 10
3697.924837362935
 20
-1612.26435667485
 30
0.0
 11
3698.674837362935
 21
-1612.41435667485
 31
0.0
  0
LINE
  5
1933C
102
{ACAD_REACTORS
330
1A11B
102
}
330
18
100
AcDbEntity
  8
1PHANTOM
100
AcDbLine
 10
3697.924837362935
 20
-1610.26435667485
 30
0.0
 11
3698.674837362935
 21
-1610.41435667485
 31
0.0
  0
LINE
  5
1933D
102
{ACAD_REACTORS
330
1A11B
102
}
330
18
100
AcDbEntity
  8
1PHANTOM
100
AcDbLine
 10
3697.924837362935
 20
-1616.26435667485
 30
0.0
 11
3698.674837362935
 21
-1616.41435667485
 31
0.0
  0
LINE
  5
1933E
102
{ACAD_REACTORS
330
1A11B
102
}
330
18
100
AcDbEntity
  8
1PHANTOM
100
AcDbLine
 10
3697.924837362935
 20
-1612.26435667485
 30
0.0
 11
3702.924837362935
 21
-1611.26435667485
 31
0.0
  0
LINE
  5
1933F
102
{ACAD_REACTORS
330
1A11B
102
}
330
18
100
AcDbEntity
  8
1PHANTOM
100
AcDbLine
 10
3697.924837362935
 20
-1614.26435667485
 30
0.0
 11
3702.924837362935
 21
-1613.26435667485
 31
0.0
  0
LINE
  5
19340
102
{ACAD_REACTORS
330
1A11B
102
}
330
18
100
AcDbEntity
  8
1PHANTOM
100
AcDbLine
 10
3697.924837362935
 20
-1616.26435667485
 30
0.0
 11
3702.924837362935
 21
-1615.26435667485
 31
0.0
  0
LINE
  5
19341
102
{ACAD_REACTORS
330
1A11B
102
}
330
18
100
AcDbEntity
  8
1PHANTOM
100
AcDbLine
 10
3702.174837362935
 20
-1613.11435667485
 30
0.0
 11
3702.924837362935
 21
-1613.26435667485
 31
0.0
  0
LINE
  5
19342
102
{ACAD_REACTORS
330
1A11B
102
}
330
18
100
AcDbEntity
  8
1PHANTOM
100
AcDbLine
 10
3702.174837362935
 20
-1611.11435667485
 30
0.0
 11
3702.924837362935
 21
-1611.26435667485
 31
0.0
  0
LINE
  5
19343
102
{ACAD_REACTORS
330
1A11B
102
}
330
18
100
AcDbEntity
  8
1PHANTOM
100
AcDbLine
 10
3702.174837362935
 20
-1615.11435667485
 30
0.0
 11
3702.924837362935
 21
-1615.26435667485
 31
0.0
  0
LINE
  5
19344
102
{ACAD_REACTORS
330
1A11B
102
}
330
18
100
AcDbEntity
  8
1PHANTOM
100
AcDbLine
 10
3702.174837362935
 20
-1617.11435667485
 30
0.0
 11
3702.924837362935
 21
-1617.26435667485
 31
0.0
  0
LINE
  5
19E9B
330
18
100
AcDbEntity
  8
1CENTER
100
AcDbLine
 10
3696.524837362936
 20
-1791.138153377467
 30
0.0
 11
3704.324837362935
 21
-1791.138153377467
 31
0.0
  0
LINE
  5
19E9C
330
18
100
AcDbEntity
  8
01
100
AcDbLine
 10
3961.410611085057
 20
-2207.138153377466
 30
0.0
 11
3961.410611085057
 21
-2357.138153377467
 31
0.0
  0
LINE
  5
19E9D
330
18
100
AcDbEntity
  8
01
100
AcDbLine
 10
3900.410611085056
 20
-2207.138153377466
 30
0.0
 11
3900.410611085056
 21
-2357.138153377467
 31
0.0
  0
LINE
  5
19E9E
330
18
100
AcDbEntity
  8
01
100
AcDbLine
 10
3943.410611085057
 20
-2207.138153377466
 30
0.0
 11
3943.410611085057
 21
-2357.138153377467
 31
0.0
  0
LINE
  5
19EA0
330
18
100
AcDbEntity
  8
01
100
AcDbLine
 10
3900.410611085056
 20
-2207.138153377466
 30
0.0
 11
3943.410611085057
 21
-2207.138153377466
 31
0.0
  0
LINE
  5
19EA1
330
18
100
AcDbEntity
  8
01
100
AcDbLine
 10
3900.410611085056
 20
-2357.138153377467
 30
0.0
 11
3961.410611085057
 21
-2357.138153377467
 31
0.0
  0
ARC
  5
19EAA
330
18
100
AcDbEntity
  8
1PHANTOM
100
AcDbCircle
 10
3700.424837362935
 20
-1788.638153377466
 30
0.0
 40
2.5
100
AcDbArc
 50
0.0
 51
180.0
  0
ARC
  5
19EAB
330
18
100
AcDbEntity
  8
1PHANTOM
100
AcDbCircle
 10
3700.424837362935
 20
-1793.638153377468
 30
0.0
 40
2.5
100
AcDbArc
 50
180.0
 51
0.0
  0
LINE
  5
19EAC
330
18
100
AcDbEntity
  8
1PHANTOM
100
AcDbLine
 10
3697.924837362935
 20
-1793.638153377468
 30
0.0
 11
3697.924837362935
 21
-1788.638153377466
 31
0.0
  0
LINE
  5
19EAD
330
18
100
AcDbEntity
  8
1PHANTOM
100
AcDbLine
 10
3702.924837362935
 20
-1793.638153377468
 30
0.0
 11
3702.924837362935
 21
-1788.638153377466
 31
0.0
  0
LINE
  5
19EAE
330
18
100
AcDbEntity
  8
1CENTER
100
AcDbLine
 10
3700.424837362935
 20
-1797.716704334255
 30
0.0
 11
3700.424837362935
 21
-1784.559602420679
 31
0.0
  0
LINE
  5
19EAF
330
18
100
AcDbEntity
  8
1CENTER
100
AcDbLine
 10
3784.324837362933
 20
-1791.138153377467
 30
0.0
 11
3776.524837362934
 21
-1791.138153377467
 31
0.0
  0
ARC
  5
19EB0
330
18
100
AcDbEntity
  8
1PHANTOM
100
AcDbCircle
 10
3780.424837362933
 20
-1788.638153377466
 30
0.0
 40
2.5
100
AcDbArc
 50
0.0
 51
180.0
  0
ARC
  5
19EB1
330
18
100
AcDbEntity
  8
1PHANTOM
100
AcDbCircle
 10
3780.424837362933
 20
-1793.638153377468
 30
0.0
 40
2.5
100
AcDbArc
 50
180.0
 51
0.0
  0
LINE
  5
19EB2
330
18
100
AcDbEntity
  8
1PHANTOM
100
AcDbLine
 10
3782.924837362933
 20
-1793.638153377468
 30
0.0
 11
3782.924837362933
 21
-1788.638153377466
 31
0.0
  0
LINE
  5
19EB3
330
18
100
AcDbEntity
  8
1PHANTOM
100
AcDbLine
 10
3777.924837362933
 20
-1793.638153377468
 30
0.0
 11
3777.924837362933
 21
-1788.638153377466
 31
0.0
  0
LINE
  5
19EB4
330
18
100
AcDbEntity
  8
1CENTER
100
AcDbLine
 10
3780.424837362933
 20
-1797.716704334255
 30
0.0
 11
3780.424837362933
 21
-1784.559602420679
 31
0.0
  0
LINE
  5
19EB5
330
18
100
AcDbEntity
  8
1CENTER
100
AcDbLine
 10
3696.524837362936
 20
-2191.138153377467
 30
0.0
 11
3704.324837362935
 21
-2191.138153377467
 31
0.0
  0
ARC
  5
19EB6
330
18
100
AcDbEntity
  8
1PHANTOM
100
AcDbCircle
 10
3700.424837362935
 20
-2188.638153377467
 30
0.0
 40
2.5
100
AcDbArc
 50
0.0
 51
180.0
  0
ARC
  5
19EB7
330
18
100
AcDbEntity
  8
1PHANTOM
100
AcDbCircle
 10
3700.424837362935
 20
-2193.638153377468
 30
0.0
 40
2.5
100
AcDbArc
 50
180.0
 51
0.0
  0
LINE
  5
19EB8
330
18
100
AcDbEntity
  8
1PHANTOM
100
AcDbLine
 10
3697.924837362935
 20
-2193.638153377468
 30
0.0
 11
3697.924837362935
 21
-2188.638153377467
 31
0.0
  0
LINE
  5
19EB9
330
18
100
AcDbEntity
  8
1PHANTOM
100
AcDbLine
 10
3702.924837362935
 20
-2193.638153377468
 30
0.0
 11
3702.924837362935
 21
-2188.638153377467
 31
0.0
  0
LINE
  5
19EBA
330
18
100
AcDbEntity
  8
1CENTER
100
AcDbLine
 10
3700.424837362935
 20
-2197.716704334255
 30
0.0
 11
3700.424837362935
 21
-2184.559602420679
 31
0.0
  0
LINE
  5
19EBB
330
18
100
AcDbEntity
  8
1CENTER
100
AcDbLine
 10
3784.324837362933
 20
-2191.138153377467
 30
0.0
 11
3776.524837362934
 21
-2191.138153377467
 31
0.0
  0
ARC
  5
19EBC
330
18
100
AcDbEntity
  8
1PHANTOM
100
AcDbCircle
 10
3780.424837362933
 20
-2188.638153377467
 30
0.0
 40
2.5
100
AcDbArc
 50
0.0
 51
180.0
  0
ARC
  5
19EBD
330
18
100
AcDbEntity
  8
1PHANTOM
100
AcDbCircle
 10
3780.424837362933
 20
-2193.638153377468
 30
0.0
 40
2.5
100
AcDbArc
 50
180.0
 51
0.0
  0
LINE
  5
19EBE
330
18
100
AcDbEntity
  8
1PHANTOM
100
AcDbLine
 10
3782.924837362933
 20
-2193.638153377468
 30
0.0
 11
3782.924837362933
 21
-2188.638153377467
 31
0.0
  0
LINE
  5
19EBF
330
18
100
AcDbEntity
  8
1PHANTOM
100
AcDbLine
 10
3777.924837362933
 20
-2193.638153377468
 30
0.0
 11
3777.924837362933
 21
-2188.638153377467
 31
0.0
  0
LINE
  5
19EC0
330
18
100
AcDbEntity
  8
1CENTER
100
AcDbLine
 10
3780.424837362933
 20
-2197.716704334255
 30
0.0
 11
3780.424837362933
 21
-2184.559602420679
 31
0.0
  0
LINE
  5
19EF9
330
18
100
AcDbEntity
  8
01
100
AcDbLine
 10
3961.410611085057
 20
-1752.138153377467
 30
0.0
 11
3961.410611085057
 21
-2307.138153377467
 31
0.0
  0
LINE
  5
19F38
330
18
100
AcDbEntity
  8
01
100
AcDbLine
 10
3808.674837362935
 20
-2207.138153377466
 30
0.0
 11
3672.174837362934
 21
-2207.138153377466
 31
0.0
  0
LINE
  5
19F39
330
18
100
AcDbEntity
  8
01
100
AcDbLine
 10
3808.674837362935
 20
-2357.138153377467
 30
0.0
 11
3672.174837362934
 21
-2357.138153377467
 31
0.0
  0
LINE
  5
19F3A
330
18
100
AcDbEntity
  8
01
100
AcDbLine
 10
3672.174837362934
 20
-2207.138153377466
 30
0.0
 11
3672.174837362934
 21
-2357.138153377467
 31
0.0
  0
LINE
  5
19F3B
330
18
100
AcDbEntity
  8
01
100
AcDbLine
 10
3808.674837362935
 20
-2207.138153377466
 30
0.0
 11
3808.674837362935
 21
-2357.138153377467
 31
0.0
  0
LINE
  5
19F50
330
18
100
AcDbEntity
  8
01
100
AcDbLine
 10
3672.174837362935
 20
-1741.638153377467
 30
0.0
 11
3672.174837362935
 21
-1781.638153377467
 31
0.0
  0
LINE
  5
19F51
330
18
100
AcDbEntity
  8
01
100
AcDbLine
 10
3672.174837362935
 20
-1781.638153377467
 30
0.0
 11
3808.674837362933
 21
-1781.638153377467
 31
0.0
  0
LINE
  5
19F52
330
18
100
AcDbEntity
  8
01
100
AcDbLine
 10
3672.174837362935
 20
-1741.638153377467
 30
0.0
 11
3808.674837362933
 21
-1741.638153377467
 31
0.0
  0
LINE
  5
19F53
330
18
100
AcDbEntity
  8
01
100
AcDbLine
 10
3808.674837362935
 20
-1741.638153377467
 30
0.0
 11
3808.674837362935
 21
-1781.638153377467
 31
0.0
  0
LINE
  5
19F54
330
18
100
AcDbEntity
  8
01
100
AcDbLine
 10
3961.410611085057
 20
-1741.638153377467
 30
0.0
 11
3961.410611085057
 21
-1781.638153377467
 31
0.0
  0
LINE
  5
19F56
330
18
100
AcDbEntity
  8
01
100
AcDbLine
 10
3943.410611085057
 20
-1741.638153377467
 30
0.0
 11
3961.410611085057
 21
-1741.638153377467
 31
0.0
  0
LINE
  5
19F58
330
18
100
AcDbEntity
  8
01
100
AcDbLine
 10
3943.410611085057
 20
-1741.638153377467
 30
0.0
 11
3943.410611085057
 21
-1781.638153377467
 31
0.0
  0
LINE
  5
19F5B
330
18
100
AcDbEntity
  8
01
100
AcDbLine
 10
3943.410611085057
 20
-1781.638153377467
 30
0.0
 11
3961.410611085058
 21
-1781.638153377467
 31
0.0
  0
LINE
  5
19F85
330
18
100
AcDbEntity
  8
01
100
AcDbLine
 10
3808.674837362934
 20
-1822.138153377465
 30
0.0
 11
3672.174837362934
 21
-1822.138153377465
 31
0.0
  0
LINE
  5
19F86
330
18
100
AcDbEntity
  8
01
100
AcDbLine
 10
3672.174837362934
 20
-1822.138153377465
 30
0.0
 11
3672.174837362935
 21
-2207.138153377466
 31
0.0
  0
LINE
  5
19F87
330
18
100
AcDbEntity
  8
01
100
AcDbLine
 10
3808.674837362934
 20
-1822.138153377465
 30
0.0
 11
3808.674837362934
 21
-2207.138153377466
 31
0.0
  0
LINE
  5
19F8B
330
18
100
AcDbEntity
  8
01
100
AcDbLine
 10
3943.410611085057
 20
-2207.138153377467
 30
0.0
 11
3961.410611085057
 21
-2207.138153377467
 31
0.0
  0
LINE
  5
19F8C
330
18
100
AcDbEntity
  8
01
100
AcDbLine
 10
3943.410611085057
 20
-1822.138153377467
 30
0.0
 11
3961.410611085057
 21
-1822.138153377467
 31
0.0
  0
LINE
  5
19F8D
330
18
100
AcDbEntity
  8
01
100
AcDbLine
 10
3943.410611085058
 20
-1822.138153377467
 30
0.0
 11
3943.410611085057
 21
-2207.138153377467
 31
0.0
  0
LINE
  5
19FAB
330
18
100
AcDbEntity
  8
01
100
AcDbLine
 10
3700.424837362934
 20
-1822.138153377465
 30
0.0
 11
3784.424837362934
 21
-1822.138153377466
 31
0.0
  0
LINE
  5
19FC5
330
18
100
AcDbEntity
  8
01
100
AcDbLine
 10
3672.174837362934
 20
-1781.888153377467
 30
0.0
 11
3672.174837362934
 21
-1821.888153377467
 31
0.0
  0
LINE
  5
19FC6
330
18
100
AcDbEntity
  8
01
100
AcDbLine
 10
3672.174837362934
 20
-1821.888153377467
 30
0.0
 11
3808.674837362934
 21
-1821.888153377467
 31
0.0
  0
LINE
  5
19FC7
330
18
100
AcDbEntity
  8
01
100
AcDbLine
 10
3672.174837362934
 20
-1781.888153377467
 30
0.0
 11
3808.674837362934
 21
-1781.888153377467
 31
0.0
  0
LINE
  5
19FC8
330
18
100
AcDbEntity
  8
01
100
AcDbLine
 10
3808.674837362934
 20
-1781.888153377467
 30
0.0
 11
3808.674837362934
 21
-1821.888153377467
 31
0.0
  0
LINE
  5
19FEA
330
18
100
AcDbEntity
  8
01
100
AcDbLine
 10
3733.224837362933
 20
-1668.382222260897
 30
0.0
 11
3747.624837362935
 21
-1668.382222260897
 31
0.0
  0
ARC
  5
19FEB
330
18
100
AcDbEntity
  8
01
100
AcDbCircle
 10
3733.224837362933
 20
-1668.082222260897
 30
0.0
 40
0.3
100
AcDbArc
 50
180.0
 51
270.0
  0
LINE
  5
19FEC
330
18
100
AcDbEntity
  8
01
100
AcDbLine
 10
3747.924837362934
 20
-1637.382222260896
 30
0.0
 11
3747.924837362934
 21
-1668.082222260897
 31
0.0
  0
ARC
  5
19FED
330
18
100
AcDbEntity
  8
01
100
AcDbCircle
 10
3747.624837362935
 20
-1668.082222260897
 30
0.0
 40
0.3
100
AcDbArc
 50
270.0
 51
0.0
  0
LINE
  5
19FEE
330
18
100
AcDbEntity
  8
01
100
AcDbLine
 10
3732.924837362934
 20
-1637.382222260896
 30
0.0
 11
3732.924837362934
 21
-1668.082222260897
 31
0.0
  0
LINE
  5
19FEF
330
18
100
AcDbEntity
  8
01
100
AcDbLine
 10
3735.424837362934
 20
-1635.382222260896
 30
0.0
 11
3735.424837362934
 21
-1637.382222260896
 31
0.0
  0
LINE
  5
19FF0
330
18
100
AcDbEntity
  8
01
100
AcDbLine
 10
3732.924837362934
 20
-1637.382222260896
 30
0.0
 11
3735.424837362934
 21
-1637.382222260896
 31
0.0
  0
LINE
  5
19FF1
330
18
100
AcDbEntity
  8
01
100
AcDbLine
 10
3745.424837362934
 20
-1635.382222260896
 30
0.0
 11
3745.424837362934
 21
-1637.382222260896
 31
0.0
  0
LINE
  5
19FF2
330
18
100
AcDbEntity
  8
01
100
AcDbLine
 10
3747.924837362934
 20
-1637.382222260896
 30
0.0
 11
3745.424837362934
 21
-1637.382222260896
 31
0.0
  0
LINE
  5
1A0DE
330
18
100
AcDbEntity
  8
01
100
AcDbLine
 10
3963.410611085057
 20
-1981.788153377467
 30
0.0
 11
3963.410611085057
 21
-1976.488153377468
 31
0.0
  0
LINE
  5
1A0DF
330
18
100
AcDbEntity
  8
01
  6
BYBLOCK
100
AcDbLine
 10
3961.410611085057
 20
-1976.488153377466
 30
0.0
 11
3963.410611085057
 21
-1976.488153377468
 31
0.0
  0
LINE
  5
1A0E0
330
18
100
AcDbEntity
  8
01
  6
BYBLOCK
100
AcDbLine
 10
3961.410611085057
 20
-1981.788153377467
 30
0.0
 11
3963.410611085057
 21
-1981.788153377467
 31
0.0
  0
LINE
  5
1A0E1
330
18
100
AcDbEntity
  8
01
100
AcDbLine
 10
3963.410611085057
 20
-1884.488153377468
 30
0.0
 11
3963.410611085057
 21
-1889.788153377467
 31
0.0
  0
LINE
  5
1A0E2
330
18
100
AcDbEntity
  8
01
  6
BYBLOCK
100
AcDbLine
 10
3961.410611085057
 20
-1889.788153377469
 30
0.0
 11
3963.410611085057
 21
-1889.788153377467
 31
0.0
  0
LINE
  5
1A0E3
330
18
100
AcDbEntity
  8
01
  6
BYBLOCK
100
AcDbLine
 10
3961.410611085057
 20
-1884.488153377468
 30
0.0
 11
3963.410611085057
 21
-1884.488153377468
 31
0.0
  0
LINE
  5
1A109
330
18
100
AcDbEntity
  8
01
100
AcDbLine
 10
3943.410611085057
 20
-1781.888153377467
 30
0.0
 11
3961.410611085058
 21
-1781.888153377467
 31
0.0
  0
LINE
  5
1A10A
330
18
100
AcDbEntity
  8
01
100
AcDbLine
 10
3943.410611085057
 20
-1821.888153377467
 30
0.0
 11
3961.410611085057
 21
-1821.888153377467
 31
0.0
  0
LINE
  5
1A10B
330
18
100
AcDbEntity
  8
01
100
AcDbLine
 10
3943.410611085057
 20
-1821.888153377467
 30
0.0
 11
3943.410611085057
 21
-1781.888153377467
 31
0.0
  0
LINE
  5
1A10F
330
18
100
AcDbEntity
  8
01
100
AcDbLine
 10
3807.174837362934
 20
-1678.382222260896
 30
0.0
 11
3673.674837362934
 21
-1678.382222260896
 31
0.0
  0
ARC
  5
1A110
330
18
100
AcDbEntity
  8
01
100
AcDbCircle
 10
3807.174837362934
 20
-1676.882222260896
 30
0.0
 40
1.5
100
AcDbArc
 50
270.0
 51
0.0
  0
ARC
  5
1A111
330
18
100
AcDbEntity
  8
01
100
AcDbCircle
 10
3673.674837362934
 20
-1676.882222260896
 30
0.0
 40
1.5
100
AcDbArc
 50
180.0
 51
270.0
  0
LINE
  5
1A112
330
18
100
AcDbEntity
  8
01
100
AcDbLine
 10
3806.674837362934
 20
-1676.382222260896
 30
0.0
 11
3674.174837362934
 21
-1676.382222260896
 31
0.0
  0
LINE
  5
1A113
330
18
100
AcDbEntity
  8
01
100
AcDbLine
 10
3674.174837362934
 20
-1676.382222260896
 30
0.0
 11
3674.174837362934
 21
-1635.382222260896
 31
0.0
  0
LINE
  5
1A118
330
18
100
AcDbEntity
  8
01
100
AcDbLine
 10
3806.674837362934
 20
-1676.382222260896
 30
0.0
 11
3806.674837362934
 21
-1635.382222260896
 31
0.0
  0
LINE
  5
1A11A
330
18
100
AcDbEntity
  8
01
100
AcDbLine
 10
3698.674837362935
 20
-1615.382222260896
 30
0.0
 11
3696.024837362934
 21
-1615.382222260896
 31
0.0
  0
LINE
  5
1A11C
102
{ACAD_REACTORS
330
1A15C
102
}
330
18
100
AcDbEntity
  8
1CENTER
100
AcDbLine
 10
3780.424837362935
 20
-1576.780547260896
 30
0.0
 11
3780.424837362935
 21
-1622.224652834865
 31
0.0
  0
LINE
  5
1A11D
102
{ACAD_REACTORS
330
1A15C
102
}
330
18
100
AcDbEntity
  8
1PHANTOM
100
AcDbLine
 10
3777.924837362935
 20
-1602.26435667485
 30
0.0
 11
3782.924837362935
 21
-1601.26435667485
 31
0.0
  0
LINE
  5
1A11E
102
{ACAD_REACTORS
330
1A15C
102
}
330
18
100
AcDbEntity
  8
1PHANTOM
100
AcDbLine
 10
3778.674837362935
 20
-1584.913311174142
 30
0.0
 11
3778.674837362935
 21
-1617.382222260896
 31
0.0
  0
LINE
  5
1A11F
102
{ACAD_REACTORS
330
1A15C
102
}
330
18
100
AcDbEntity
  8
1PHANTOM
100
AcDbLine
 10
3780.424837362935
 20
-1578.382222260896
 30
0.0
 11
3778.674837362935
 21
-1584.913311174142
 31
0.0
  0
LINE
  5
1A120
102
{ACAD_REACTORS
330
1A15C
102
}
330
18
100
AcDbEntity
  8
1PHANTOM
100
AcDbLine
 10
3780.424837362935
 20
-1578.382222260896
 30
0.0
 11
3782.174837362935
 21
-1584.913311174142
 31
0.0
  0
LINE
  5
1A121
102
{ACAD_REACTORS
330
1A15C
102
}
330
18
100
AcDbEntity
  8
1PHANTOM
100
AcDbLine
 10
3782.174837362935
 20
-1584.913311174142
 30
0.0
 11
3782.174837362935
 21
-1617.382222260896
 31
0.0
  0
LINE
  5
1A122
102
{ACAD_REACTORS
330
1A15C
102
}
330
18
100
AcDbEntity
  8
1PHANTOM
100
AcDbLine
 10
3778.108570421899
 20
-1584.227610063057
 30
0.0
 11
3778.858570421899
 21
-1584.377610063057
 31
0.0
  0
LINE
  5
1A123
102
{ACAD_REACTORS
330
1A15C
102
}
330
18
100
AcDbEntity
  8
1PHANTOM
100
AcDbLine
 10
3778.108570421899
 20
-1584.227610063057
 30
0.0
 11
3782.50547490299
 21
-1583.348229166839
 31
0.0
  0
LINE
  5
1A124
102
{ACAD_REACTORS
330
1A15C
102
}
330
18
100
AcDbEntity
  8
1PHANTOM
100
AcDbLine
 10
3780.738194049879
 20
-1579.401685337461
 30
0.0
 11
3781.488194049879
 21
-1579.551685337462
 31
0.0
  0
LINE
  5
1A125
102
{ACAD_REACTORS
330
1A15C
102
}
330
18
100
AcDbEntity
  8
1PHANTOM
100
AcDbLine
 10
3779.241056962418
 20
-1580.001112754954
 30
0.0
 11
3779.991056962418
 21
-1580.151112754953
 31
0.0
  0
LINE
  5
1A126
102
{ACAD_REACTORS
330
1A15C
102
}
330
18
100
AcDbEntity
  8
1PHANTOM
100
AcDbLine
 10
3779.241056962418
 20
-1580.001112754954
 30
0.0
 11
3781.488194049879
 21
-1579.551685337462
 31
0.0
  0
LINE
  5
1A127
102
{ACAD_REACTORS
330
1A15C
102
}
330
18
100
AcDbEntity
  8
1PHANTOM
100
AcDbLine
 10
3781.75547490299
 20
-1583.19822916684
 30
0.0
 11
3782.50547490299
 21
-1583.348229166839
 31
0.0
  0
LINE
  5
1A128
102
{ACAD_REACTORS
330
1A15C
102
}
330
18
100
AcDbEntity
  8
1PHANTOM
100
AcDbLine
 10
3781.246834476435
 20
-1581.29995725215
 30
0.0
 11
3781.996834476435
 21
-1581.44995725215
 31
0.0
  0
LINE
  5
1A129
102
{ACAD_REACTORS
330
1A15C
102
}
330
18
100
AcDbEntity
  8
1PHANTOM
100
AcDbLine
 10
3778.674813692159
 20
-1582.114361409006
 30
0.0
 11
3779.424813692159
 21
-1582.264361409005
 31
0.0
  0
LINE
  5
1A12A
102
{ACAD_REACTORS
330
1A15C
102
}
330
18
100
AcDbEntity
  8
1PHANTOM
100
AcDbLine
 10
3778.674813692159
 20
-1582.114361409006
 30
0.0
 11
3781.996834476435
 21
-1581.44995725215
 31
0.0
  0
LINE
  5
1A12B
102
{ACAD_REACTORS
330
1A15C
102
}
330
18
100
AcDbEntity
  8
1PHANTOM
100
AcDbLine
 10
3782.174837362935
 20
-1593.11435667485
 30
0.0
 11
3782.924837362935
 21
-1593.26435667485
 31
0.0
  0
LINE
  5
1A12C
102
{ACAD_REACTORS
330
1A15C
102
}
330
18
100
AcDbEntity
  8
1PHANTOM
100
AcDbLine
 10
3777.924837362935
 20
-1590.26435667485
 30
0.0
 11
3778.674837362935
 21
-1590.41435667485
 31
0.0
  0
LINE
  5
1A12D
102
{ACAD_REACTORS
330
1A15C
102
}
330
18
100
AcDbEntity
  8
1PHANTOM
100
AcDbLine
 10
3777.924837362935
 20
-1592.26435667485
 30
0.0
 11
3778.674837362935
 21
-1592.41435667485
 31
0.0
  0
LINE
  5
1A12E
102
{ACAD_REACTORS
330
1A15C
102
}
330
18
100
AcDbEntity
  8
1PHANTOM
100
AcDbLine
 10
3777.924837362935
 20
-1592.26435667485
 30
0.0
 11
3782.924837362935
 21
-1591.26435667485
 31
0.0
  0
LINE
  5
1A12F
102
{ACAD_REACTORS
330
1A15C
102
}
330
18
100
AcDbEntity
  8
1PHANTOM
100
AcDbLine
 10
3777.924837362935
 20
-1588.26435667485
 30
0.0
 11
3778.674837362935
 21
-1588.41435667485
 31
0.0
  0
LINE
  5
1A130
102
{ACAD_REACTORS
330
1A15C
102
}
330
18
100
AcDbEntity
  8
1PHANTOM
100
AcDbLine
 10
3777.924837362935
 20
-1586.26435667485
 30
0.0
 11
3778.674837362935
 21
-1586.41435667485
 31
0.0
  0
LINE
  5
1A131
102
{ACAD_REACTORS
330
1A15C
102
}
330
18
100
AcDbEntity
  8
1PHANTOM
100
AcDbLine
 10
3777.924837362935
 20
-1586.26435667485
 30
0.0
 11
3782.924837362935
 21
-1585.26435667485
 31
0.0
  0
LINE
  5
1A132
102
{ACAD_REACTORS
330
1A15C
102
}
330
18
100
AcDbEntity
  8
1PHANTOM
100
AcDbLine
 10
3777.924837362935
 20
-1588.26435667485
 30
0.0
 11
3782.924837362935
 21
-1587.26435667485
 31
0.0
  0
LINE
  5
1A133
102
{ACAD_REACTORS
330
1A15C
102
}
330
18
100
AcDbEntity
  8
1PHANTOM
100
AcDbLine
 10
3777.924837362935
 20
-1590.26435667485
 30
0.0
 11
3782.924837362935
 21
-1589.26435667485
 31
0.0
  0
LINE
  5
1A134
102
{ACAD_REACTORS
330
1A15C
102
}
330
18
100
AcDbEntity
  8
1PHANTOM
100
AcDbLine
 10
3782.174837362935
 20
-1585.11435667485
 30
0.0
 11
3782.924837362935
 21
-1585.26435667485
 31
0.0
  0
LINE
  5
1A135
102
{ACAD_REACTORS
330
1A15C
102
}
330
18
100
AcDbEntity
  8
1PHANTOM
100
AcDbLine
 10
3782.174837362935
 20
-1587.11435667485
 30
0.0
 11
3782.924837362935
 21
-1587.26435667485
 31
0.0
  0
LINE
  5
1A136
102
{ACAD_REACTORS
330
1A15C
102
}
330
18
100
AcDbEntity
  8
1PHANTOM
100
AcDbLine
 10
3782.174837362935
 20
-1591.11435667485
 30
0.0
 11
3782.924837362935
 21
-1591.26435667485
 31
0.0
  0
LINE
  5
1A137
102
{ACAD_REACTORS
330
1A15C
102
}
330
18
100
AcDbEntity
  8
1PHANTOM
100
AcDbLine
 10
3782.174837362935
 20
-1589.11435667485
 30
0.0
 11
3782.924837362935
 21
-1589.26435667485
 31
0.0
  0
LINE
  5
1A138
102
{ACAD_REACTORS
330
1A15C
102
}
330
18
100
AcDbEntity
  8
1PHANTOM
100
AcDbLine
 10
3777.924837362935
 20
-1596.26435667485
 30
0.0
 11
3778.674837362935
 21
-1596.41435667485
 31
0.0
  0
LINE
  5
1A139
102
{ACAD_REACTORS
330
1A15C
102
}
330
18
100
AcDbEntity
  8
1PHANTOM
100
AcDbLine
 10
3777.924837362935
 20
-1594.26435667485
 30
0.0
 11
3778.674837362935
 21
-1594.41435667485
 31
0.0
  0
LINE
  5
1A13A
102
{ACAD_REACTORS
330
1A15C
102
}
330
18
100
AcDbEntity
  8
1PHANTOM
100
AcDbLine
 10
3777.924837362935
 20
-1600.26435667485
 30
0.0
 11
3778.674837362935
 21
-1600.41435667485
 31
0.0
  0
LINE
  5
1A13B
102
{ACAD_REACTORS
330
1A15C
102
}
330
18
100
AcDbEntity
  8
1PHANTOM
100
AcDbLine
 10
3777.924837362935
 20
-1598.26435667485
 30
0.0
 11
3778.674837362935
 21
-1598.41435667485
 31
0.0
  0
LINE
  5
1A13C
102
{ACAD_REACTORS
330
1A15C
102
}
330
18
100
AcDbEntity
  8
1PHANTOM
100
AcDbLine
 10
3777.924837362935
 20
-1594.26435667485
 30
0.0
 11
3782.924837362935
 21
-1593.26435667485
 31
0.0
  0
LINE
  5
1A13D
102
{ACAD_REACTORS
330
1A15C
102
}
330
18
100
AcDbEntity
  8
1PHANTOM
100
AcDbLine
 10
3777.924837362935
 20
-1596.26435667485
 30
0.0
 11
3782.924837362935
 21
-1595.26435667485
 31
0.0
  0
LINE
  5
1A13E
102
{ACAD_REACTORS
330
1A15C
102
}
330
18
100
AcDbEntity
  8
1PHANTOM
100
AcDbLine
 10
3777.924837362935
 20
-1598.26435667485
 30
0.0
 11
3782.924837362935
 21
-1597.26435667485
 31
0.0
  0
LINE
  5
1A13F
102
{ACAD_REACTORS
330
1A15C
102
}
330
18
100
AcDbEntity
  8
1PHANTOM
100
AcDbLine
 10
3777.924837362935
 20
-1600.26435667485
 30
0.0
 11
3782.924837362935
 21
-1599.26435667485
 31
0.0
  0
LINE
  5
1A140
102
{ACAD_REACTORS
330
1A15C
102
}
330
18
100
AcDbEntity
  8
1PHANTOM
100
AcDbLine
 10
3782.174837362935
 20
-1597.11435667485
 30
0.0
 11
3782.924837362935
 21
-1597.26435667485
 31
0.0
  0
LINE
  5
1A141
102
{ACAD_REACTORS
330
1A15C
102
}
330
18
100
AcDbEntity
  8
1PHANTOM
100
AcDbLine
 10
3782.174837362935
 20
-1595.11435667485
 30
0.0
 11
3782.924837362935
 21
-1595.26435667485
 31
0.0
  0
LINE
  5
1A142
102
{ACAD_REACTORS
330
1A15C
102
}
330
18
100
AcDbEntity
  8
1PHANTOM
100
AcDbLine
 10
3782.174837362935
 20
-1601.11435667485
 30
0.0
 11
3782.924837362935
 21
-1601.26435667485
 31
0.0
  0
LINE
  5
1A143
102
{ACAD_REACTORS
330
1A15C
102
}
330
18
100
AcDbEntity
  8
1PHANTOM
100
AcDbLine
 10
3782.174837362935
 20
-1599.11435667485
 30
0.0
 11
3782.924837362935
 21
-1599.26435667485
 31
0.0
  0
LINE
  5
1A144
102
{ACAD_REACTORS
330
1A15C
102
}
330
18
100
AcDbEntity
  8
1PHANTOM
100
AcDbLine
 10
3782.335509432702
 20
-1617.382222260896
 30
0.0
 11
3782.924837362935
 21
-1617.26435667485
 31
0.0
  0
LINE
  5
1A145
102
{ACAD_REACTORS
330
1A15C
102
}
330
18
100
AcDbEntity
  8
1PHANTOM
100
AcDbLine
 10
3777.924837362935
 20
-1610.26435667485
 30
0.0
 11
3782.924837362935
 21
-1609.26435667485
 31
0.0
  0
LINE
  5
1A146
102
{ACAD_REACTORS
330
1A15C
102
}
330
18
100
AcDbEntity
  8
1PHANTOM
100
AcDbLine
 10
3777.924837362935
 20
-1602.26435667485
 30
0.0
 11
3778.674837362935
 21
-1602.41435667485
 31
0.0
  0
LINE
  5
1A147
102
{ACAD_REACTORS
330
1A15C
102
}
330
18
100
AcDbEntity
  8
1PHANTOM
100
AcDbLine
 10
3777.924837362935
 20
-1604.26435667485
 30
0.0
 11
3778.674837362935
 21
-1604.41435667485
 31
0.0
  0
LINE
  5
1A148
102
{ACAD_REACTORS
330
1A15C
102
}
330
18
100
AcDbEntity
  8
1PHANTOM
100
AcDbLine
 10
3777.924837362935
 20
-1606.26435667485
 30
0.0
 11
3778.674837362935
 21
-1606.41435667485
 31
0.0
  0
LINE
  5
1A149
102
{ACAD_REACTORS
330
1A15C
102
}
330
18
100
AcDbEntity
  8
1PHANTOM
100
AcDbLine
 10
3777.924837362935
 20
-1608.26435667485
 30
0.0
 11
3778.674837362935
 21
-1608.41435667485
 31
0.0
  0
LINE
  5
1A14A
102
{ACAD_REACTORS
330
1A15C
102
}
330
18
100
AcDbEntity
  8
1PHANTOM
100
AcDbLine
 10
3777.924837362935
 20
-1604.26435667485
 30
0.0
 11
3782.924837362935
 21
-1603.26435667485
 31
0.0
  0
LINE
  5
1A14B
102
{ACAD_REACTORS
330
1A15C
102
}
330
18
100
AcDbEntity
  8
1PHANTOM
100
AcDbLine
 10
3777.924837362935
 20
-1606.26435667485
 30
0.0
 11
3782.924837362935
 21
-1605.26435667485
 31
0.0
  0
LINE
  5
1A14C
102
{ACAD_REACTORS
330
1A15C
102
}
330
18
100
AcDbEntity
  8
1PHANTOM
100
AcDbLine
 10
3777.924837362935
 20
-1608.26435667485
 30
0.0
 11
3782.924837362935
 21
-1607.26435667485
 31
0.0
  0
LINE
  5
1A14D
102
{ACAD_REACTORS
330
1A15C
102
}
330
18
100
AcDbEntity
  8
1PHANTOM
100
AcDbLine
 10
3782.174837362935
 20
-1603.11435667485
 30
0.0
 11
3782.924837362935
 21
-1603.26435667485
 31
0.0
  0
LINE
  5
1A14E
102
{ACAD_REACTORS
330
1A15C
102
}
330
18
100
AcDbEntity
  8
1PHANTOM
100
AcDbLine
 10
3782.174837362935
 20
-1605.11435667485
 30
0.0
 11
3782.924837362935
 21
-1605.26435667485
 31
0.0
  0
LINE
  5
1A14F
102
{ACAD_REACTORS
330
1A15C
102
}
330
18
100
AcDbEntity
  8
1PHANTOM
100
AcDbLine
 10
3782.174837362935
 20
-1607.11435667485
 30
0.0
 11
3782.924837362935
 21
-1607.26435667485
 31
0.0
  0
LINE
  5
1A150
102
{ACAD_REACTORS
330
1A15C
102
}
330
18
100
AcDbEntity
  8
1PHANTOM
100
AcDbLine
 10
3782.174837362935
 20
-1609.11435667485
 30
0.0
 11
3782.924837362935
 21
-1609.26435667485
 31
0.0
  0
LINE
  5
1A151
102
{ACAD_REACTORS
330
1A15C
102
}
330
18
100
AcDbEntity
  8
1PHANTOM
100
AcDbLine
 10
3777.924837362935
 20
-1614.26435667485
 30
0.0
 11
3778.674837362935
 21
-1614.41435667485
 31
0.0
  0
LINE
  5
1A152
102
{ACAD_REACTORS
330
1A15C
102
}
330
18
100
AcDbEntity
  8
1PHANTOM
100
AcDbLine
 10
3777.924837362935
 20
-1612.26435667485
 30
0.0
 11
3778.674837362935
 21
-1612.41435667485
 31
0.0
  0
LINE
  5
1A153
102
{ACAD_REACTORS
330
1A15C
102
}
330
18
100
AcDbEntity
  8
1PHANTOM
100
AcDbLine
 10
3777.924837362935
 20
-1610.26435667485
 30
0.0
 11
3778.674837362935
 21
-1610.41435667485
 31
0.0
  0
LINE
  5
1A154
102
{ACAD_REACTORS
330
1A15C
102
}
330
18
100
AcDbEntity
  8
1PHANTOM
100
AcDbLine
 10
3777.924837362935
 20
-1616.26435667485
 30
0.0
 11
3778.674837362935
 21
-1616.41435667485
 31
0.0
  0
LINE
  5
1A155
102
{ACAD_REACTORS
330
1A15C
102
}
330
18
100
AcDbEntity
  8
1PHANTOM
100
AcDbLine
 10
3777.924837362935
 20
-1612.26435667485
 30
0.0
 11
3782.924837362935
 21
-1611.26435667485
 31
0.0
  0
LINE
  5
1A156
102
{ACAD_REACTORS
330
1A15C
102
}
330
18
100
AcDbEntity
  8
1PHANTOM
100
AcDbLine
 10
3777.924837362935
 20
-1614.26435667485
 30
0.0
 11
3782.924837362935
 21
-1613.26435667485
 31
0.0
  0
LINE
  5
1A157
102
{ACAD_REACTORS
330
1A15C
102
}
330
18
100
AcDbEntity
  8
1PHANTOM
100
AcDbLine
 10
3777.924837362935
 20
-1616.26435667485
 30
0.0
 11
3782.924837362935
 21
-1615.26435667485
 31
0.0
  0
LINE
  5
1A158
102
{ACAD_REACTORS
330
1A15C
102
}
330
18
100
AcDbEntity
  8
1PHANTOM
100
AcDbLine
 10
3782.174837362935
 20
-1613.11435667485
 30
0.0
 11
3782.924837362935
 21
-1613.26435667485
 31
0.0
  0
LINE
  5
1A159
102
{ACAD_REACTORS
330
1A15C
102
}
330
18
100
AcDbEntity
  8
1PHANTOM
100
AcDbLine
 10
3782.174837362935
 20
-1611.11435667485
 30
0.0
 11
3782.924837362935
 21
-1611.26435667485
 31
0.0
  0
LINE
  5
1A15A
102
{ACAD_REACTORS
330
1A15C
102
}
330
18
100
AcDbEntity
  8
1PHANTOM
100
AcDbLine
 10
3782.174837362935
 20
-1615.11435667485
 30
0.0
 11
3782.924837362935
 21
-1615.26435667485
 31
0.0
  0
LINE
  5
1A15B
102
{ACAD_REACTORS
330
1A15C
102
}
330
18
100
AcDbEntity
  8
1PHANTOM
100
AcDbLine
 10
3782.174837362935
 20
-1617.11435667485
 30
0.0
 11
3782.924837362935
 21
-1617.26435667485
 31
0.0
  0
LINE
  5
1A15D
330
18
100
AcDbEntity
  8
01
100
AcDbLine
 10
3782.174837362935
 20
-1615.382222260896
 30
0.0
 11
3784.824837362934
 21
-1615.382222260896
 31
0.0
  0
LINE
  5
1A188
330
18
100
AcDbEntity
  8
1PHANTOM
100
AcDbLine
 10
3910.410611085056
 20
-2332.438153377467
 30
0.0
 11
3910.410611085056
 21
-2346.838153377468
 31
0.0
  0
ARC
  5
1A189
330
18
100
AcDbEntity
  8
1PHANTOM
100
AcDbCircle
 10
3910.710611085056
 20
-2332.438153377467
 30
0.0
 40
0.3
100
AcDbArc
 50
90.0
 51
180.0
  0
LINE
  5
1A18A
330
18
100
AcDbEntity
  8
1PHANTOM
100
AcDbLine
 10
3943.410611085057
 20
-2347.138153377467
 30
0.0
 11
3910.710611085056
 21
-2347.138153377467
 31
0.0
  0
ARC
  5
1A18B
330
18
100
AcDbEntity
  8
1PHANTOM
100
AcDbCircle
 10
3910.710611085056
 20
-2346.838153377468
 30
0.0
 40
0.3
100
AcDbArc
 50
180.0
 51
270.0
  0
LINE
  5
1A18C
330
18
100
AcDbEntity
  8
1PHANTOM
100
AcDbLine
 10
3943.410611085057
 20
-2332.138153377467
 30
0.0
 11
3910.710611085056
 21
-2332.138153377467
 31
0.0
  0
LINE
  5
1A1D5
330
18
100
AcDbEntity
  8
01
100
AcDbLine
 10
3976.410611085057
 20
-1731.968286817484
 30
0.0
 11
3976.41061108506
 21
-2365.364043664112
 31
0.0
  0
LINE
  5
1A1D6
330
18
100
AcDbEntity
  8
01
100
AcDbLine
 10
3961.410611085057
 20
-1731.968286817484
 30
0.0
 11
3961.410611085058
 21
-2365.364043664112
 31
0.0
  0
LINE
  5
1A1D7
102
{ACAD_REACTORS
330
1A263
102
}
330
18
100
AcDbEntity
  8
1PHANTOM
100
AcDbLine
 10
3960.41061108495
 20
-2186.388153377467
 30
0.0
 11
3959.41061108495
 21
-2186.388153377467
 31
0.0
  0
ARC
  5
1A1D8
102
{ACAD_REACTORS
330
1A263
102
}
330
18
100
AcDbEntity
  8
1PHANTOM
100
AcDbCircle
 10
3966.181444418284
 20
-2191.138153377467
 30
0.0
 40
8.270833333333439
100
AcDbArc
 50
144.9488632525446
 51
215.0511367474554
  0
LINE
  5
1A1D9
102
{ACAD_REACTORS
330
1A263
102
}
330
18
100
AcDbEntity
  8
1PHANTOM
100
AcDbLine
 10
3960.41061108495
 20
-2195.888153377467
 30
0.0
 11
3959.41061108495
 21
-2195.888153377467
 31
0.0
  0
LINE
  5
1A1DA
102
{ACAD_REACTORS
330
1A263
102
}
330
18
100
AcDbEntity
  8
1CENTER
100
AcDbLine
 10
4002.012286084951
 20
-2191.138153377467
 30
0.0
 11
3956.568180510982
 21
-2191.138153377467
 31
0.0
  0
LINE
  5
1A1DB
102
{ACAD_REACTORS
330
1A263
102
}
330
18
100
AcDbEntity
  8
1PHANTOM
100
AcDbLine
 10
3959.41061108495
 20
-2186.605090197801
 30
0.0
 11
3959.41061108495
 21
-2195.643521162273
 31
0.0
  0
LINE
  5
1A1DC
102
{ACAD_REACTORS
330
1A263
102
}
330
18
100
AcDbEntity
  8
1PHANTOM
100
AcDbLine
 10
3976.528476670996
 20
-2193.638153377467
 30
0.0
 11
3977.528476670996
 21
-2188.638153377467
 31
0.0
  0
LINE
  5
1A1DD
102
{ACAD_REACTORS
330
1A263
102
}
330
18
100
AcDbEntity
  8
1PHANTOM
100
AcDbLine
 10
3993.879522171705
 20
-2192.888153377467
 30
0.0
 11
3960.41061108495
 21
-2192.888153377467
 31
0.0
  0
LINE
  5
1A1DE
102
{ACAD_REACTORS
330
1A263
102
}
330
18
100
AcDbEntity
  8
1PHANTOM
100
AcDbLine
 10
4000.41061108495
 20
-2191.138153377467
 30
0.0
 11
3993.879522171705
 21
-2192.888153377467
 31
0.0
  0
LINE
  5
1A1DF
102
{ACAD_REACTORS
330
1A263
102
}
330
18
100
AcDbEntity
  8
1PHANTOM
100
AcDbLine
 10
4000.41061108495
 20
-2191.138153377467
 30
0.0
 11
3993.879522171705
 21
-2189.388153377467
 31
0.0
  0
LINE
  5
1A1E0
102
{ACAD_REACTORS
330
1A263
102
}
330
18
100
AcDbEntity
  8
1PHANTOM
100
AcDbLine
 10
3993.879522171705
 20
-2189.388153377467
 30
0.0
 11
3960.41061108495
 21
-2189.388153377467
 31
0.0
  0
LINE
  5
1A1E1
102
{ACAD_REACTORS
330
1A263
102
}
330
18
100
AcDbEntity
  8
1PHANTOM
100
AcDbLine
 10
3994.565223282789
 20
-2193.454420318503
 30
0.0
 11
3994.415223282789
 21
-2192.704420318503
 31
0.0
  0
LINE
  5
1A1E2
102
{ACAD_REACTORS
330
1A263
102
}
330
18
100
AcDbEntity
  8
1PHANTOM
100
AcDbLine
 10
3994.565223282789
 20
-2193.454420318503
 30
0.0
 11
3995.444604179007
 21
-2189.057515837412
 31
0.0
  0
LINE
  5
1A1E3
102
{ACAD_REACTORS
330
1A263
102
}
330
18
100
AcDbEntity
  8
1PHANTOM
100
AcDbLine
 10
3999.391148008385
 20
-2190.824796690524
 30
0.0
 11
3999.241148008385
 21
-2190.074796690524
 31
0.0
  0
LINE
  5
1A1E4
102
{ACAD_REACTORS
330
1A263
102
}
330
18
100
AcDbEntity
  8
1PHANTOM
100
AcDbLine
 10
3998.791720590893
 20
-2192.321933777985
 30
0.0
 11
3998.641720590893
 21
-2191.571933777985
 31
0.0
  0
LINE
  5
1A1E5
102
{ACAD_REACTORS
330
1A263
102
}
330
18
100
AcDbEntity
  8
1PHANTOM
100
AcDbLine
 10
3998.791720590893
 20
-2192.321933777985
 30
0.0
 11
3999.241148008385
 21
-2190.074796690524
 31
0.0
  0
LINE
  5
1A1E6
102
{ACAD_REACTORS
330
1A263
102
}
330
18
100
AcDbEntity
  8
1PHANTOM
100
AcDbLine
 10
3995.594604179007
 20
-2189.807515837412
 30
0.0
 11
3995.444604179007
 21
-2189.057515837412
 31
0.0
  0
LINE
  5
1A1E7
102
{ACAD_REACTORS
330
1A263
102
}
330
18
100
AcDbEntity
  8
1PHANTOM
100
AcDbLine
 10
3997.492876093696
 20
-2190.316156263968
 30
0.0
 11
3997.342876093696
 21
-2189.566156263968
 31
0.0
  0
LINE
  5
1A1E8
102
{ACAD_REACTORS
330
1A263
102
}
330
18
100
AcDbEntity
  8
1PHANTOM
100
AcDbLine
 10
3996.678471936841
 20
-2192.888177048244
 30
0.0
 11
3996.528471936841
 21
-2192.138177048244
 31
0.0
  0
LINE
  5
1A1E9
102
{ACAD_REACTORS
330
1A263
102
}
330
18
100
AcDbEntity
  8
1PHANTOM
100
AcDbLine
 10
3996.678471936841
 20
-2192.888177048244
 30
0.0
 11
3997.342876093696
 21
-2189.566156263968
 31
0.0
  0
LINE
  5
1A1EA
102
{ACAD_REACTORS
330
1A263
102
}
330
18
100
AcDbEntity
  8
1PHANTOM
100
AcDbLine
 10
3985.678476670996
 20
-2189.388153377467
 30
0.0
 11
3985.528476670996
 21
-2188.638153377467
 31
0.0
  0
LINE
  5
1A1EB
102
{ACAD_REACTORS
330
1A263
102
}
330
18
100
AcDbEntity
  8
1PHANTOM
100
AcDbLine
 10
3988.528476670996
 20
-2193.638153377467
 30
0.0
 11
3988.378476670996
 21
-2192.888153377467
 31
0.0
  0
LINE
  5
1A1EC
102
{ACAD_REACTORS
330
1A263
102
}
330
18
100
AcDbEntity
  8
1PHANTOM
100
AcDbLine
 10
3986.528476670996
 20
-2193.638153377467
 30
0.0
 11
3986.378476670996
 21
-2192.888153377467
 31
0.0
  0
LINE
  5
1A1ED
102
{ACAD_REACTORS
330
1A263
102
}
330
18
100
AcDbEntity
  8
1PHANTOM
100
AcDbLine
 10
3986.528476670996
 20
-2193.638153377467
 30
0.0
 11
3987.528476670996
 21
-2188.638153377467
 31
0.0
  0
LINE
  5
1A1EE
102
{ACAD_REACTORS
330
1A263
102
}
330
18
100
AcDbEntity
  8
1PHANTOM
100
AcDbLine
 10
3990.528476670996
 20
-2193.638153377467
 30
0.0
 11
3990.378476670996
 21
-2192.888153377467
 31
0.0
  0
LINE
  5
1A1EF
102
{ACAD_REACTORS
330
1A263
102
}
330
18
100
AcDbEntity
  8
1PHANTOM
100
AcDbLine
 10
3992.528476670996
 20
-2193.638153377467
 30
0.0
 11
3992.378476670996
 21
-2192.888153377467
 31
0.0
  0
LINE
  5
1A1F0
102
{ACAD_REACTORS
330
1A263
102
}
330
18
100
AcDbEntity
  8
1PHANTOM
100
AcDbLine
 10
3992.528476670996
 20
-2193.638153377467
 30
0.0
 11
3993.528476670996
 21
-2188.638153377467
 31
0.0
  0
LINE
  5
1A1F1
102
{ACAD_REACTORS
330
1A263
102
}
330
18
100
AcDbEntity
  8
1PHANTOM
100
AcDbLine
 10
3990.528476670996
 20
-2193.638153377467
 30
0.0
 11
3991.528476670996
 21
-2188.638153377467
 31
0.0
  0
LINE
  5
1A1F2
102
{ACAD_REACTORS
330
1A263
102
}
330
18
100
AcDbEntity
  8
1PHANTOM
100
AcDbLine
 10
3988.528476670996
 20
-2193.638153377467
 30
0.0
 11
3989.528476670996
 21
-2188.638153377467
 31
0.0
  0
LINE
  5
1A1F3
102
{ACAD_REACTORS
330
1A263
102
}
330
18
100
AcDbEntity
  8
1PHANTOM
100
AcDbLine
 10
3993.678476670996
 20
-2189.388153377467
 30
0.0
 11
3993.528476670996
 21
-2188.638153377467
 31
0.0
  0
LINE
  5
1A1F4
102
{ACAD_REACTORS
330
1A263
102
}
330
18
100
AcDbEntity
  8
1PHANTOM
100
AcDbLine
 10
3991.678476670996
 20
-2189.388153377467
 30
0.0
 11
3991.528476670996
 21
-2188.638153377467
 31
0.0
  0
LINE
  5
1A1F5
102
{ACAD_REACTORS
330
1A263
102
}
330
18
100
AcDbEntity
  8
1PHANTOM
100
AcDbLine
 10
3987.678476670996
 20
-2189.388153377467
 30
0.0
 11
3987.528476670996
 21
-2188.638153377467
 31
0.0
  0
LINE
  5
1A1F6
102
{ACAD_REACTORS
330
1A263
102
}
330
18
100
AcDbEntity
  8
1PHANTOM
100
AcDbLine
 10
3989.678476670996
 20
-2189.388153377467
 30
0.0
 11
3989.528476670996
 21
-2188.638153377467
 31
0.0
  0
LINE
  5
1A1F7
102
{ACAD_REACTORS
330
1A263
102
}
330
18
100
AcDbEntity
  8
1PHANTOM
100
AcDbLine
 10
3982.528476670996
 20
-2193.638153377467
 30
0.0
 11
3982.378476670996
 21
-2192.888153377467
 31
0.0
  0
LINE
  5
1A1F8
102
{ACAD_REACTORS
330
1A263
102
}
330
18
100
AcDbEntity
  8
1PHANTOM
100
AcDbLine
 10
3984.528476670996
 20
-2193.638153377467
 30
0.0
 11
3984.378476670996
 21
-2192.888153377467
 31
0.0
  0
LINE
  5
1A1F9
102
{ACAD_REACTORS
330
1A263
102
}
330
18
100
AcDbEntity
  8
1PHANTOM
100
AcDbLine
 10
3978.528476670996
 20
-2193.638153377467
 30
0.0
 11
3978.378476670996
 21
-2192.888153377467
 31
0.0
  0
LINE
  5
1A1FA
102
{ACAD_REACTORS
330
1A263
102
}
330
18
100
AcDbEntity
  8
1PHANTOM
100
AcDbLine
 10
3980.528476670996
 20
-2193.638153377467
 30
0.0
 11
3980.378476670996
 21
-2192.888153377467
 31
0.0
  0
LINE
  5
1A1FB
102
{ACAD_REACTORS
330
1A263
102
}
330
18
100
AcDbEntity
  8
1PHANTOM
100
AcDbLine
 10
3984.528476670996
 20
-2193.638153377467
 30
0.0
 11
3985.528476670996
 21
-2188.638153377467
 31
0.0
  0
LINE
  5
1A1FC
102
{ACAD_REACTORS
330
1A263
102
}
330
18
100
AcDbEntity
  8
1PHANTOM
100
AcDbLine
 10
3982.528476670996
 20
-2193.638153377467
 30
0.0
 11
3983.528476670996
 21
-2188.638153377467
 31
0.0
  0
LINE
  5
1A1FD
102
{ACAD_REACTORS
330
1A263
102
}
330
18
100
AcDbEntity
  8
1PHANTOM
100
AcDbLine
 10
3980.528476670996
 20
-2193.638153377467
 30
0.0
 11
3981.528476670996
 21
-2188.638153377467
 31
0.0
  0
LINE
  5
1A1FE
102
{ACAD_REACTORS
330
1A263
102
}
330
18
100
AcDbEntity
  8
1PHANTOM
100
AcDbLine
 10
3978.528476670996
 20
-2193.638153377467
 30
0.0
 11
3979.528476670996
 21
-2188.638153377467
 31
0.0
  0
LINE
  5
1A1FF
102
{ACAD_REACTORS
330
1A263
102
}
330
18
100
AcDbEntity
  8
1PHANTOM
100
AcDbLine
 10
3981.678476670996
 20
-2189.388153377467
 30
0.0
 11
3981.528476670996
 21
-2188.638153377467
 31
0.0
  0
LINE
  5
1A200
102
{ACAD_REACTORS
330
1A263
102
}
330
18
100
AcDbEntity
  8
1PHANTOM
100
AcDbLine
 10
3983.678476670996
 20
-2189.388153377467
 30
0.0
 11
3983.528476670996
 21
-2188.638153377467
 31
0.0
  0
LINE
  5
1A201
102
{ACAD_REACTORS
330
1A263
102
}
330
18
100
AcDbEntity
  8
1PHANTOM
100
AcDbLine
 10
3977.678476670996
 20
-2189.388153377467
 30
0.0
 11
3977.528476670996
 21
-2188.638153377467
 31
0.0
  0
LINE
  5
1A202
102
{ACAD_REACTORS
330
1A263
102
}
330
18
100
AcDbEntity
  8
1PHANTOM
100
AcDbLine
 10
3979.678476670996
 20
-2189.388153377467
 30
0.0
 11
3979.528476670996
 21
-2188.638153377467
 31
0.0
  0
LINE
  5
1A203
102
{ACAD_REACTORS
330
1A263
102
}
330
18
100
AcDbEntity
  8
1PHANTOM
100
AcDbLine
 10
3960.528476670996
 20
-2193.638153377467
 30
0.0
 11
3961.528476670996
 21
-2188.638153377467
 31
0.0
  0
LINE
  5
1A204
102
{ACAD_REACTORS
330
1A263
102
}
330
18
100
AcDbEntity
  8
1PHANTOM
100
AcDbLine
 10
3968.528476670996
 20
-2193.638153377467
 30
0.0
 11
3969.528476670996
 21
-2188.638153377467
 31
0.0
  0
LINE
  5
1A205
102
{ACAD_REACTORS
330
1A263
102
}
330
18
100
AcDbEntity
  8
1PHANTOM
100
AcDbLine
 10
3976.528476670996
 20
-2193.638153377467
 30
0.0
 11
3976.378476670996
 21
-2192.888153377467
 31
0.0
  0
LINE
  5
1A206
102
{ACAD_REACTORS
330
1A263
102
}
330
18
100
AcDbEntity
  8
1PHANTOM
100
AcDbLine
 10
3974.528476670996
 20
-2193.638153377467
 30
0.0
 11
3974.378476670996
 21
-2192.888153377467
 31
0.0
  0
LINE
  5
1A207
102
{ACAD_REACTORS
330
1A263
102
}
330
18
100
AcDbEntity
  8
1PHANTOM
100
AcDbLine
 10
3972.528476670996
 20
-2193.638153377467
 30
0.0
 11
3972.378476670996
 21
-2192.888153377467
 31
0.0
  0
LINE
  5
1A208
102
{ACAD_REACTORS
330
1A263
102
}
330
18
100
AcDbEntity
  8
1PHANTOM
100
AcDbLine
 10
3970.528476670996
 20
-2193.638153377467
 30
0.0
 11
3970.378476670996
 21
-2192.888153377467
 31
0.0
  0
LINE
  5
1A209
102
{ACAD_REACTORS
330
1A263
102
}
330
18
100
AcDbEntity
  8
1PHANTOM
100
AcDbLine
 10
3974.528476670996
 20
-2193.638153377467
 30
0.0
 11
3975.528476670996
 21
-2188.638153377467
 31
0.0
  0
LINE
  5
1A20A
102
{ACAD_REACTORS
330
1A263
102
}
330
18
100
AcDbEntity
  8
1PHANTOM
100
AcDbLine
 10
3972.528476670996
 20
-2193.638153377467
 30
0.0
 11
3973.528476670996
 21
-2188.638153377467
 31
0.0
  0
LINE
  5
1A20B
102
{ACAD_REACTORS
330
1A263
102
}
330
18
100
AcDbEntity
  8
1PHANTOM
100
AcDbLine
 10
3970.528476670996
 20
-2193.638153377467
 30
0.0
 11
3971.528476670996
 21
-2188.638153377467
 31
0.0
  0
LINE
  5
1A20C
102
{ACAD_REACTORS
330
1A263
102
}
330
18
100
AcDbEntity
  8
1PHANTOM
100
AcDbLine
 10
3975.678476670996
 20
-2189.388153377467
 30
0.0
 11
3975.528476670996
 21
-2188.638153377467
 31
0.0
  0
LINE
  5
1A20D
102
{ACAD_REACTORS
330
1A263
102
}
330
18
100
AcDbEntity
  8
1PHANTOM
100
AcDbLine
 10
3973.678476670996
 20
-2189.388153377467
 30
0.0
 11
3973.528476670996
 21
-2188.638153377467
 31
0.0
  0
LINE
  5
1A20E
102
{ACAD_REACTORS
330
1A263
102
}
330
18
100
AcDbEntity
  8
1PHANTOM
100
AcDbLine
 10
3971.678476670996
 20
-2189.388153377467
 30
0.0
 11
3971.528476670996
 21
-2188.638153377467
 31
0.0
  0
LINE
  5
1A20F
102
{ACAD_REACTORS
330
1A263
102
}
330
18
100
AcDbEntity
  8
1PHANTOM
100
AcDbLine
 10
3969.678476670996
 20
-2189.388153377467
 30
0.0
 11
3969.528476670996
 21
-2188.638153377467
 31
0.0
  0
LINE
  5
1A210
102
{ACAD_REACTORS
330
1A263
102
}
330
18
100
AcDbEntity
  8
1PHANTOM
100
AcDbLine
 10
3964.528476670996
 20
-2193.638153377467
 30
0.0
 11
3964.378476670996
 21
-2192.888153377467
 31
0.0
  0
LINE
  5
1A211
102
{ACAD_REACTORS
330
1A263
102
}
330
18
100
AcDbEntity
  8
1PHANTOM
100
AcDbLine
 10
3966.528476670996
 20
-2193.638153377467
 30
0.0
 11
3966.378476670996
 21
-2192.888153377467
 31
0.0
  0
LINE
  5
1A212
102
{ACAD_REACTORS
330
1A263
102
}
330
18
100
AcDbEntity
  8
1PHANTOM
100
AcDbLine
 10
3968.528476670996
 20
-2193.638153377467
 30
0.0
 11
3968.378476670996
 21
-2192.888153377467
 31
0.0
  0
LINE
  5
1A213
102
{ACAD_REACTORS
330
1A263
102
}
330
18
100
AcDbEntity
  8
1PHANTOM
100
AcDbLine
 10
3962.528476670996
 20
-2193.638153377467
 30
0.0
 11
3962.378476670996
 21
-2192.888153377467
 31
0.0
  0
LINE
  5
1A214
102
{ACAD_REACTORS
330
1A263
102
}
330
18
100
AcDbEntity
  8
1PHANTOM
100
AcDbLine
 10
3966.528476670996
 20
-2193.638153377467
 30
0.0
 11
3967.528476670996
 21
-2188.638153377467
 31
0.0
  0
LINE
  5
1A215
102
{ACAD_REACTORS
330
1A263
102
}
330
18
100
AcDbEntity
  8
1PHANTOM
100
AcDbLine
 10
3964.528476670996
 20
-2193.638153377467
 30
0.0
 11
3965.528476670996
 21
-2188.638153377467
 31
0.0
  0
LINE
  5
1A216
102
{ACAD_REACTORS
330
1A263
102
}
330
18
100
AcDbEntity
  8
1PHANTOM
100
AcDbLine
 10
3962.528476670996
 20
-2193.638153377467
 30
0.0
 11
3963.528476670996
 21
-2188.638153377467
 31
0.0
  0
LINE
  5
1A217
102
{ACAD_REACTORS
330
1A263
102
}
330
18
100
AcDbEntity
  8
1PHANTOM
100
AcDbLine
 10
3965.678476670996
 20
-2189.388153377467
 30
0.0
 11
3965.528476670996
 21
-2188.638153377467
 31
0.0
  0
LINE
  5
1A218
102
{ACAD_REACTORS
330
1A263
102
}
330
18
100
AcDbEntity
  8
1PHANTOM
100
AcDbLine
 10
3967.678476670996
 20
-2189.388153377467
 30
0.0
 11
3967.528476670996
 21
-2188.638153377467
 31
0.0
  0
LINE
  5
1A219
102
{ACAD_REACTORS
330
1A263
102
}
330
18
100
AcDbEntity
  8
1PHANTOM
100
AcDbLine
 10
3963.678476670996
 20
-2189.388153377467
 30
0.0
 11
3963.528476670996
 21
-2188.638153377467
 31
0.0
  0
LINE
  5
1A21A
102
{ACAD_REACTORS
330
1A263
102
}
330
18
100
AcDbEntity
  8
1PHANTOM
100
AcDbLine
 10
3961.678476670996
 20
-2189.388153377467
 30
0.0
 11
3961.528476670996
 21
-2188.638153377467
 31
0.0
  0
LINE
  5
1A21B
102
{ACAD_REACTORS
330
1A263
102
}
330
18
100
AcDbEntity
  8
1PHANTOM
100
AcDbLine
 10
3960.528476670996
 20
-2193.638153377467
 30
0.0
 11
3960.378476670996
 21
-2192.888153377467
 31
0.0
  0
LINE
  5
1A21C
102
{ACAD_REACTORS
330
1A263
102
}
330
18
100
AcDbEntity
  8
1PHANTOM
100
AcDbLine
 10
3960.41061108495
 20
-2186.388153377467
 30
0.0
 11
3960.41061108495
 21
-2195.888153377467
 31
0.0
  0
LINE
  5
1A21D
102
{ACAD_REACTORS
330
1A264
102
}
330
18
100
AcDbEntity
  8
1PHANTOM
100
AcDbLine
 10
3960.410611084949
 20
-1795.888153377467
 30
0.0
 11
3959.410611084949
 21
-1795.888153377467
 31
0.0
  0
ARC
  5
1A21E
102
{ACAD_REACTORS
330
1A264
102
}
330
18
100
AcDbEntity
  8
1PHANTOM
100
AcDbCircle
 10
3966.181444418283
 20
-1791.138153377467
 30
0.0
 40
8.270833333333439
100
AcDbArc
 50
144.9488632525447
 51
215.0511367474553
  0
LINE
  5
1A21F
102
{ACAD_REACTORS
330
1A264
102
}
330
18
100
AcDbEntity
  8
1PHANTOM
100
AcDbLine
 10
3960.410611084949
 20
-1786.388153377467
 30
0.0
 11
3959.410611084949
 21
-1786.388153377467
 31
0.0
  0
LINE
  5
1A220
102
{ACAD_REACTORS
330
1A264
102
}
330
18
100
AcDbEntity
  8
1CENTER
100
AcDbLine
 10
4002.01228608495
 20
-1791.138153377467
 30
0.0
 11
3956.568180510981
 21
-1791.138153377467
 31
0.0
  0
LINE
  5
1A221
102
{ACAD_REACTORS
330
1A264
102
}
330
18
100
AcDbEntity
  8
1PHANTOM
100
AcDbLine
 10
3959.410611084949
 20
-1795.671216557134
 30
0.0
 11
3959.410611084949
 21
-1786.632785592662
 31
0.0
  0
LINE
  5
1A222
102
{ACAD_REACTORS
330
1A264
102
}
330
18
100
AcDbEntity
  8
1PHANTOM
100
AcDbLine
 10
3976.528476670996
 20
-1788.638153377467
 30
0.0
 11
3977.528476670996
 21
-1793.638153377467
 31
0.0
  0
LINE
  5
1A223
102
{ACAD_REACTORS
330
1A264
102
}
330
18
100
AcDbEntity
  8
1PHANTOM
100
AcDbLine
 10
3993.879522171704
 20
-1789.388153377467
 30
0.0
 11
3960.410611084949
 21
-1789.388153377467
 31
0.0
  0
LINE
  5
1A224
102
{ACAD_REACTORS
330
1A264
102
}
330
18
100
AcDbEntity
  8
1PHANTOM
100
AcDbLine
 10
4000.410611084949
 20
-1791.138153377467
 30
0.0
 11
3993.879522171704
 21
-1789.388153377467
 31
0.0
  0
LINE
  5
1A225
102
{ACAD_REACTORS
330
1A264
102
}
330
18
100
AcDbEntity
  8
1PHANTOM
100
AcDbLine
 10
4000.410611084949
 20
-1791.138153377467
 30
0.0
 11
3993.879522171704
 21
-1792.888153377467
 31
0.0
  0
LINE
  5
1A226
102
{ACAD_REACTORS
330
1A264
102
}
330
18
100
AcDbEntity
  8
1PHANTOM
100
AcDbLine
 10
3993.879522171704
 20
-1792.888153377467
 30
0.0
 11
3960.410611084949
 21
-1792.888153377467
 31
0.0
  0
LINE
  5
1A227
102
{ACAD_REACTORS
330
1A264
102
}
330
18
100
AcDbEntity
  8
1PHANTOM
100
AcDbLine
 10
3994.565223282788
 20
-1788.821886436431
 30
0.0
 11
3994.415223282789
 21
-1789.571886436431
 31
0.0
  0
LINE
  5
1A228
102
{ACAD_REACTORS
330
1A264
102
}
330
18
100
AcDbEntity
  8
1PHANTOM
100
AcDbLine
 10
3994.565223282788
 20
-1788.821886436431
 30
0.0
 11
3995.444604179007
 21
-1793.218790917522
 31
0.0
  0
LINE
  5
1A229
102
{ACAD_REACTORS
330
1A264
102
}
330
18
100
AcDbEntity
  8
1PHANTOM
100
AcDbLine
 10
3999.391148008385
 20
-1791.451510064411
 30
0.0
 11
3999.241148008384
 21
-1792.201510064411
 31
0.0
  0
LINE
  5
1A22A
102
{ACAD_REACTORS
330
1A264
102
}
330
18
100
AcDbEntity
  8
1PHANTOM
100
AcDbLine
 10
3998.791720590892
 20
-1789.95437297695
 30
0.0
 11
3998.641720590892
 21
-1790.70437297695
 31
0.0
  0
LINE
  5
1A22B
102
{ACAD_REACTORS
330
1A264
102
}
330
18
100
AcDbEntity
  8
1PHANTOM
100
AcDbLine
 10
3998.791720590892
 20
-1789.95437297695
 30
0.0
 11
3999.241148008384
 21
-1792.201510064411
 31
0.0
  0
LINE
  5
1A22C
102
{ACAD_REACTORS
330
1A264
102
}
330
18
100
AcDbEntity
  8
1PHANTOM
100
AcDbLine
 10
3995.594604179006
 20
-1792.468790917522
 30
0.0
 11
3995.444604179007
 21
-1793.218790917522
 31
0.0
  0
LINE
  5
1A22D
102
{ACAD_REACTORS
330
1A264
102
}
330
18
100
AcDbEntity
  8
1PHANTOM
100
AcDbLine
 10
3997.492876093696
 20
-1791.960150490967
 30
0.0
 11
3997.342876093695
 21
-1792.710150490967
 31
0.0
  0
LINE
  5
1A22E
102
{ACAD_REACTORS
330
1A264
102
}
330
18
100
AcDbEntity
  8
1PHANTOM
100
AcDbLine
 10
3996.67847193684
 20
-1789.388129706691
 30
0.0
 11
3996.528471936841
 21
-1790.138129706691
 31
0.0
  0
LINE
  5
1A22F
102
{ACAD_REACTORS
330
1A264
102
}
330
18
100
AcDbEntity
  8
1PHANTOM
100
AcDbLine
 10
3996.67847193684
 20
-1789.388129706691
 30
0.0
 11
3997.342876093695
 21
-1792.710150490967
 31
0.0
  0
LINE
  5
1A230
102
{ACAD_REACTORS
330
1A264
102
}
330
18
100
AcDbEntity
  8
1PHANTOM
100
AcDbLine
 10
3985.678476670996
 20
-1792.888153377467
 30
0.0
 11
3985.528476670996
 21
-1793.638153377467
 31
0.0
  0
LINE
  5
1A231
102
{ACAD_REACTORS
330
1A264
102
}
330
18
100
AcDbEntity
  8
1PHANTOM
100
AcDbLine
 10
3988.528476670996
 20
-1788.638153377467
 30
0.0
 11
3988.378476670995
 21
-1789.388153377467
 31
0.0
  0
LINE
  5
1A232
102
{ACAD_REACTORS
330
1A264
102
}
330
18
100
AcDbEntity
  8
1PHANTOM
100
AcDbLine
 10
3986.528476670996
 20
-1788.638153377467
 30
0.0
 11
3986.378476670995
 21
-1789.388153377467
 31
0.0
  0
LINE
  5
1A233
102
{ACAD_REACTORS
330
1A264
102
}
330
18
100
AcDbEntity
  8
1PHANTOM
100
AcDbLine
 10
3986.528476670996
 20
-1788.638153377467
 30
0.0
 11
3987.528476670996
 21
-1793.638153377467
 31
0.0
  0
LINE
  5
1A234
102
{ACAD_REACTORS
330
1A264
102
}
330
18
100
AcDbEntity
  8
1PHANTOM
100
AcDbLine
 10
3990.528476670996
 20
-1788.638153377467
 30
0.0
 11
3990.378476670995
 21
-1789.388153377467
 31
0.0
  0
LINE
  5
1A235
102
{ACAD_REACTORS
330
1A264
102
}
330
18
100
AcDbEntity
  8
1PHANTOM
100
AcDbLine
 10
3992.528476670996
 20
-1788.638153377467
 30
0.0
 11
3992.378476670995
 21
-1789.388153377467
 31
0.0
  0
LINE
  5
1A236
102
{ACAD_REACTORS
330
1A264
102
}
330
18
100
AcDbEntity
  8
1PHANTOM
100
AcDbLine
 10
3992.528476670996
 20
-1788.638153377467
 30
0.0
 11
3993.528476670996
 21
-1793.638153377467
 31
0.0
  0
LINE
  5
1A237
102
{ACAD_REACTORS
330
1A264
102
}
330
18
100
AcDbEntity
  8
1PHANTOM
100
AcDbLine
 10
3990.528476670996
 20
-1788.638153377467
 30
0.0
 11
3991.528476670996
 21
-1793.638153377467
 31
0.0
  0
LINE
  5
1A238
102
{ACAD_REACTORS
330
1A264
102
}
330
18
100
AcDbEntity
  8
1PHANTOM
100
AcDbLine
 10
3988.528476670996
 20
-1788.638153377467
 30
0.0
 11
3989.528476670996
 21
-1793.638153377467
 31
0.0
  0
LINE
  5
1A239
102
{ACAD_REACTORS
330
1A264
102
}
330
18
100
AcDbEntity
  8
1PHANTOM
100
AcDbLine
 10
3993.678476670996
 20
-1792.888153377467
 30
0.0
 11
3993.528476670996
 21
-1793.638153377467
 31
0.0
  0
LINE
  5
1A23A
102
{ACAD_REACTORS
330
1A264
102
}
330
18
100
AcDbEntity
  8
1PHANTOM
100
AcDbLine
 10
3991.678476670996
 20
-1792.888153377467
 30
0.0
 11
3991.528476670996
 21
-1793.638153377467
 31
0.0
  0
LINE
  5
1A23B
102
{ACAD_REACTORS
330
1A264
102
}
330
18
100
AcDbEntity
  8
1PHANTOM
100
AcDbLine
 10
3987.678476670996
 20
-1792.888153377467
 30
0.0
 11
3987.528476670996
 21
-1793.638153377467
 31
0.0
  0
LINE
  5
1A23C
102
{ACAD_REACTORS
330
1A264
102
}
330
18
100
AcDbEntity
  8
1PHANTOM
100
AcDbLine
 10
3989.678476670996
 20
-1792.888153377467
 30
0.0
 11
3989.528476670996
 21
-1793.638153377467
 31
0.0
  0
LINE
  5
1A23D
102
{ACAD_REACTORS
330
1A264
102
}
330
18
100
AcDbEntity
  8
1PHANTOM
100
AcDbLine
 10
3982.528476670996
 20
-1788.638153377467
 30
0.0
 11
3982.378476670995
 21
-1789.388153377467
 31
0.0
  0
LINE
  5
1A23E
102
{ACAD_REACTORS
330
1A264
102
}
330
18
100
AcDbEntity
  8
1PHANTOM
100
AcDbLine
 10
3984.528476670996
 20
-1788.638153377467
 30
0.0
 11
3984.378476670995
 21
-1789.388153377467
 31
0.0
  0
LINE
  5
1A23F
102
{ACAD_REACTORS
330
1A264
102
}
330
18
100
AcDbEntity
  8
1PHANTOM
100
AcDbLine
 10
3978.528476670996
 20
-1788.638153377467
 30
0.0
 11
3978.378476670995
 21
-1789.388153377467
 31
0.0
  0
LINE
  5
1A240
102
{ACAD_REACTORS
330
1A264
102
}
330
18
100
AcDbEntity
  8
1PHANTOM
100
AcDbLine
 10
3980.528476670996
 20
-1788.638153377467
 30
0.0
 11
3980.378476670995
 21
-1789.388153377467
 31
0.0
  0
LINE
  5
1A241
102
{ACAD_REACTORS
330
1A264
102
}
330
18
100
AcDbEntity
  8
1PHANTOM
100
AcDbLine
 10
3984.528476670996
 20
-1788.638153377467
 30
0.0
 11
3985.528476670996
 21
-1793.638153377467
 31
0.0
  0
LINE
  5
1A242
102
{ACAD_REACTORS
330
1A264
102
}
330
18
100
AcDbEntity
  8
1PHANTOM
100
AcDbLine
 10
3982.528476670996
 20
-1788.638153377467
 30
0.0
 11
3983.528476670996
 21
-1793.638153377467
 31
0.0
  0
LINE
  5
1A243
102
{ACAD_REACTORS
330
1A264
102
}
330
18
100
AcDbEntity
  8
1PHANTOM
100
AcDbLine
 10
3980.528476670996
 20
-1788.638153377467
 30
0.0
 11
3981.528476670996
 21
-1793.638153377467
 31
0.0
  0
LINE
  5
1A244
102
{ACAD_REACTORS
330
1A264
102
}
330
18
100
AcDbEntity
  8
1PHANTOM
100
AcDbLine
 10
3978.528476670996
 20
-1788.638153377467
 30
0.0
 11
3979.528476670996
 21
-1793.638153377467
 31
0.0
  0
LINE
  5
1A245
102
{ACAD_REACTORS
330
1A264
102
}
330
18
100
AcDbEntity
  8
1PHANTOM
100
AcDbLine
 10
3981.678476670996
 20
-1792.888153377467
 30
0.0
 11
3981.528476670996
 21
-1793.638153377467
 31
0.0
  0
LINE
  5
1A246
102
{ACAD_REACTORS
330
1A264
102
}
330
18
100
AcDbEntity
  8
1PHANTOM
100
AcDbLine
 10
3983.678476670996
 20
-1792.888153377467
 30
0.0
 11
3983.528476670996
 21
-1793.638153377467
 31
0.0
  0
LINE
  5
1A247
102
{ACAD_REACTORS
330
1A264
102
}
330
18
100
AcDbEntity
  8
1PHANTOM
100
AcDbLine
 10
3977.678476670996
 20
-1792.888153377467
 30
0.0
 11
3977.528476670996
 21
-1793.638153377467
 31
0.0
  0
LINE
  5
1A248
102
{ACAD_REACTORS
330
1A264
102
}
330
18
100
AcDbEntity
  8
1PHANTOM
100
AcDbLine
 10
3979.678476670996
 20
-1792.888153377467
 30
0.0
 11
3979.528476670996
 21
-1793.638153377467
 31
0.0
  0
LINE
  5
1A249
102
{ACAD_REACTORS
330
1A264
102
}
330
18
100
AcDbEntity
  8
1PHANTOM
100
AcDbLine
 10
3960.528476670996
 20
-1788.638153377467
 30
0.0
 11
3961.528476670996
 21
-1793.638153377467
 31
0.0
  0
LINE
  5
1A24A
102
{ACAD_REACTORS
330
1A264
102
}
330
18
100
AcDbEntity
  8
1PHANTOM
100
AcDbLine
 10
3968.528476670996
 20
-1788.638153377467
 30
0.0
 11
3969.528476670996
 21
-1793.638153377467
 31
0.0
  0
LINE
  5
1A24B
102
{ACAD_REACTORS
330
1A264
102
}
330
18
100
AcDbEntity
  8
1PHANTOM
100
AcDbLine
 10
3976.528476670996
 20
-1788.638153377467
 30
0.0
 11
3976.378476670995
 21
-1789.388153377467
 31
0.0
  0
LINE
  5
1A24C
102
{ACAD_REACTORS
330
1A264
102
}
330
18
100
AcDbEntity
  8
1PHANTOM
100
AcDbLine
 10
3974.528476670996
 20
-1788.638153377467
 30
0.0
 11
3974.378476670995
 21
-1789.388153377467
 31
0.0
  0
LINE
  5
1A24D
102
{ACAD_REACTORS
330
1A264
102
}
330
18
100
AcDbEntity
  8
1PHANTOM
100
AcDbLine
 10
3972.528476670996
 20
-1788.638153377467
 30
0.0
 11
3972.378476670995
 21
-1789.388153377467
 31
0.0
  0
LINE
  5
1A24E
102
{ACAD_REACTORS
330
1A264
102
}
330
18
100
AcDbEntity
  8
1PHANTOM
100
AcDbLine
 10
3970.528476670996
 20
-1788.638153377467
 30
0.0
 11
3970.378476670995
 21
-1789.388153377467
 31
0.0
  0
LINE
  5
1A24F
102
{ACAD_REACTORS
330
1A264
102
}
330
18
100
AcDbEntity
  8
1PHANTOM
100
AcDbLine
 10
3974.528476670996
 20
-1788.638153377467
 30
0.0
 11
3975.528476670996
 21
-1793.638153377467
 31
0.0
  0
LINE
  5
1A250
102
{ACAD_REACTORS
330
1A264
102
}
330
18
100
AcDbEntity
  8
1PHANTOM
100
AcDbLine
 10
3972.528476670996
 20
-1788.638153377467
 30
0.0
 11
3973.528476670996
 21
-1793.638153377467
 31
0.0
  0
LINE
  5
1A251
102
{ACAD_REACTORS
330
1A264
102
}
330
18
100
AcDbEntity
  8
1PHANTOM
100
AcDbLine
 10
3970.528476670996
 20
-1788.638153377467
 30
0.0
 11
3971.528476670996
 21
-1793.638153377467
 31
0.0
  0
LINE
  5
1A252
102
{ACAD_REACTORS
330
1A264
102
}
330
18
100
AcDbEntity
  8
1PHANTOM
100
AcDbLine
 10
3975.678476670996
 20
-1792.888153377467
 30
0.0
 11
3975.528476670996
 21
-1793.638153377467
 31
0.0
  0
LINE
  5
1A253
102
{ACAD_REACTORS
330
1A264
102
}
330
18
100
AcDbEntity
  8
1PHANTOM
100
AcDbLine
 10
3973.678476670996
 20
-1792.888153377467
 30
0.0
 11
3973.528476670996
 21
-1793.638153377467
 31
0.0
  0
LINE
  5
1A254
102
{ACAD_REACTORS
330
1A264
102
}
330
18
100
AcDbEntity
  8
1PHANTOM
100
AcDbLine
 10
3971.678476670996
 20
-1792.888153377467
 30
0.0
 11
3971.528476670996
 21
-1793.638153377467
 31
0.0
  0
LINE
  5
1A255
102
{ACAD_REACTORS
330
1A264
102
}
330
18
100
AcDbEntity
  8
1PHANTOM
100
AcDbLine
 10
3969.678476670996
 20
-1792.888153377467
 30
0.0
 11
3969.528476670996
 21
-1793.638153377467
 31
0.0
  0
LINE
  5
1A256
102
{ACAD_REACTORS
330
1A264
102
}
330
18
100
AcDbEntity
  8
1PHANTOM
100
AcDbLine
 10
3964.528476670996
 20
-1788.638153377467
 30
0.0
 11
3964.378476670995
 21
-1789.388153377467
 31
0.0
  0
LINE
  5
1A257
102
{ACAD_REACTORS
330
1A264
102
}
330
18
100
AcDbEntity
  8
1PHANTOM
100
AcDbLine
 10
3966.528476670996
 20
-1788.638153377467
 30
0.0
 11
3966.378476670995
 21
-1789.388153377467
 31
0.0
  0
LINE
  5
1A258
102
{ACAD_REACTORS
330
1A264
102
}
330
18
100
AcDbEntity
  8
1PHANTOM
100
AcDbLine
 10
3968.528476670996
 20
-1788.638153377467
 30
0.0
 11
3968.378476670995
 21
-1789.388153377467
 31
0.0
  0
LINE
  5
1A259
102
{ACAD_REACTORS
330
1A264
102
}
330
18
100
AcDbEntity
  8
1PHANTOM
100
AcDbLine
 10
3962.528476670996
 20
-1788.638153377467
 30
0.0
 11
3962.378476670995
 21
-1789.388153377467
 31
0.0
  0
LINE
  5
1A25A
102
{ACAD_REACTORS
330
1A264
102
}
330
18
100
AcDbEntity
  8
1PHANTOM
100
AcDbLine
 10
3966.528476670996
 20
-1788.638153377467
 30
0.0
 11
3967.528476670996
 21
-1793.638153377467
 31
0.0
  0
LINE
  5
1A25B
102
{ACAD_REACTORS
330
1A264
102
}
330
18
100
AcDbEntity
  8
1PHANTOM
100
AcDbLine
 10
3964.528476670996
 20
-1788.638153377467
 30
0.0
 11
3965.528476670996
 21
-1793.638153377467
 31
0.0
  0
LINE
  5
1A25C
102
{ACAD_REACTORS
330
1A264
102
}
330
18
100
AcDbEntity
  8
1PHANTOM
100
AcDbLine
 10
3962.528476670996
 20
-1788.638153377467
 30
0.0
 11
3963.528476670996
 21
-1793.638153377467
 31
0.0
  0
LINE
  5
1A25D
102
{ACAD_REACTORS
330
1A264
102
}
330
18
100
AcDbEntity
  8
1PHANTOM
100
AcDbLine
 10
3965.678476670996
 20
-1792.888153377467
 30
0.0
 11
3965.528476670996
 21
-1793.638153377467
 31
0.0
  0
LINE
  5
1A25E
102
{ACAD_REACTORS
330
1A264
102
}
330
18
100
AcDbEntity
  8
1PHANTOM
100
AcDbLine
 10
3967.678476670996
 20
-1792.888153377467
 30
0.0
 11
3967.528476670996
 21
-1793.638153377467
 31
0.0
  0
LINE
  5
1A25F
102
{ACAD_REACTORS
330
1A264
102
}
330
18
100
AcDbEntity
  8
1PHANTOM
100
AcDbLine
 10
3963.678476670996
 20
-1792.888153377467
 30
0.0
 11
3963.528476670996
 21
-1793.638153377467
 31
0.0
  0
LINE
  5
1A260
102
{ACAD_REACTORS
330
1A264
102
}
330
18
100
AcDbEntity
  8
1PHANTOM
100
AcDbLine
 10
3961.678476670996
 20
-1792.888153377467
 30
0.0
 11
3961.528476670996
 21
-1793.638153377467
 31
0.0
  0
LINE
  5
1A261
102
{ACAD_REACTORS
330
1A264
102
}
330
18
100
AcDbEntity
  8
1PHANTOM
100
AcDbLine
 10
3960.528476670996
 20
-1788.638153377467
 30
0.0
 11
3960.378476670995
 21
-1789.388153377467
 31
0.0
  0
LINE
  5
1A262
102
{ACAD_REACTORS
330
1A264
102
}
330
18
100
AcDbEntity
  8
1PHANTOM
100
AcDbLine
 10
3960.410611084949
 20
-1795.888153377467
 30
0.0
 11
3960.410611084949
 21
-1786.388153377467
 31
0.0
  0
LINE
  5
1A360
330
18
100
AcDbEntity
  8
1DIM
100
AcDbLine
 10
3654.174837362934
 20
-2114.971539758277
 30
0.0
 11
3654.174837362934
 21
-1939.138153375188
 31
0.0
  0
LINE
  5
1AD01
330
18
100
AcDbEntity
  8
01
  6
CONTINUOUS
100
AcDbLine
 10
3758.174837362934
 20
-1970.138153375188
 30
0.0
 11
3722.674837362934
 21
-1970.138153375188
 31
0.0
  0
LINE
  5
1AD02
330
18
100
AcDbEntity
  8
01
  6
CONTINUOUS
100
AcDbLine
 10
3725.174837362934
 20
-1992.138153375188
 30
0.0
 11
3755.674837362934
 21
-1992.138153375188
 31
0.0
  0
LINE
  5
1AD03
330
18
100
AcDbEntity
  8
01
  6
CONTINUOUS
100
AcDbLine
 10
3713.924837362934
 20
-1969.888153375188
 30
0.0
 11
3713.924837362934
 21
-1961.888153375188
 31
0.0
  0
LINE
  5
1AD04
330
18
100
AcDbEntity
  8
01
  6
CONTINUOUS
100
AcDbLine
 10
3711.924837362934
 20
-1961.888153375188
 30
0.0
 11
3711.924837362934
 21
-1969.888153375188
 31
0.0
  0
ARC
  5
1AD05
330
18
100
AcDbEntity
  8
01
  6
CONTINUOUS
100
AcDbCircle
 10
3725.174837362934
 20
-1988.638153375188
 30
0.0
 40
3.5
100
AcDbArc
 50
180.0
 51
270.0
  0
ARC
  5
1AD06
330
18
100
AcDbEntity
  8
01
  6
CONTINUOUS
100
AcDbCircle
 10
3722.674837362934
 20
-1971.138153375188
 30
0.0
 40
1.0
100
AcDbArc
 50
90.0
 51
180.0
  0
LINE
  5
1AD07
330
18
100
AcDbEntity
  8
01
  6
CONTINUOUS
100
AcDbLine
 10
3721.674837362934
 20
-1971.138153375188
 30
0.0
 11
3721.674837362934
 21
-1988.638153375188
 31
0.0
  0
ARC
  5
1AD08
330
18
100
AcDbEntity
  8
01
  6
CONTINUOUS
100
AcDbCircle
 10
3755.674837362934
 20
-1988.638153375188
 30
0.0
 40
3.5
100
AcDbArc
 50
270.0
 51
0.0
  0
ARC
  5
1AD09
330
18
100
AcDbEntity
  8
01
  6
CONTINUOUS
100
AcDbCircle
 10
3758.174837362934
 20
-1971.138153375188
 30
0.0
 40
1.0
100
AcDbArc
 50
0.0
 51
90.0
  0
LINE
  5
1AD0A
330
18
100
AcDbEntity
  8
01
  6
CONTINUOUS
100
AcDbLine
 10
3759.174837362934
 20
-1988.638153375188
 30
0.0
 11
3759.174837362934
 21
-1971.138153375188
 31
0.0
  0
LINE
  5
1AD0B
330
18
100
AcDbEntity
  8
01
  6
CONTINUOUS
100
AcDbLine
 10
3772.924837362934
 20
-1873.638153375188
 30
0.0
 11
3707.924837362934
 21
-1873.638153375188
 31
0.0
  0
LINE
  5
1AD0C
330
18
100
AcDbEntity
  8
01
  6
CONTINUOUS
100
AcDbLine
 10
3707.924837362934
 20
-1903.638153375188
 30
0.0
 11
3772.924837362934
 21
-1903.638153375188
 31
0.0
  0
LINE
  5
1AD0D
330
18
100
AcDbEntity
  8
01
  6
CONTINUOUS
100
AcDbLine
 10
3706.924837362934
 20
-1874.638153375188
 30
0.0
 11
3706.924837362934
 21
-1902.638153375188
 31
0.0
  0
ARC
  5
1AD0E
330
18
100
AcDbEntity
  8
01
  6
CONTINUOUS
100
AcDbCircle
 10
3707.924837362934
 20
-1902.638153375188
 30
0.0
 40
1.0
100
AcDbArc
 50
180.0
 51
270.0
  0
ARC
  5
1AD0F
330
18
100
AcDbEntity
  8
01
  6
CONTINUOUS
100
AcDbCircle
 10
3707.924837362934
 20
-1874.638153375188
 30
0.0
 40
1.0
100
AcDbArc
 50
90.0
 51
180.0
  0
LINE
  5
1AD10
330
18
100
AcDbEntity
  8
01
  6
CONTINUOUS
100
AcDbLine
 10
3773.924837362934
 20
-1902.638153375188
 30
0.0
 11
3773.924837362934
 21
-1874.638153375188
 31
0.0
  0
ARC
  5
1AD11
330
18
100
AcDbEntity
  8
01
  6
CONTINUOUS
100
AcDbCircle
 10
3772.924837362934
 20
-1902.638153375188
 30
0.0
 40
1.0
100
AcDbArc
 50
270.0
 51
0.0
  0
ARC
  5
1AD12
330
18
100
AcDbEntity
  8
01
  6
CONTINUOUS
100
AcDbCircle
 10
3772.924837362934
 20
-1874.638153375188
 30
0.0
 40
1.0
100
AcDbArc
 50
0.0
 51
90.0
  0
LINE
  5
1AD13
330
18
100
AcDbEntity
  8
01
100
AcDbLine
 10
3711.924837362934
 20
-1969.888153375188
 30
0.0
 11
3713.924837362934
 21
-1969.888153375188
 31
0.0
  0
LINE
  5
1AD14
330
18
100
AcDbEntity
  8
01
100
AcDbLine
 10
3711.924837362934
 20
-1961.888153375188
 30
0.0
 11
3713.924837362934
 21
-1961.888153375188
 31
0.0
  0
ARC
  5
1AD15
330
18
100
AcDbEntity
  8
01
100
AcDbCircle
 10
3762.424837362934
 20
-1957.137613375188
 30
0.0
 40
1.5
100
AcDbArc
 50
180.0
 51
0.0
  0
ARC
  5
1AD16
330
18
100
AcDbEntity
  8
01
100
AcDbCircle
 10
3762.424837362934
 20
-1910.137613375188
 30
0.0
 40
1.5
100
AcDbArc
 50
0.0
 51
180.0
  0
LINE
  5
1AD17
330
18
100
AcDbEntity
  8
01
100
AcDbLine
 10
3760.924837362934
 20
-1957.137613375188
 30
0.0
 11
3760.924837362934
 21
-1910.137613375188
 31
0.0
  0
LINE
  5
1AD18
330
18
100
AcDbEntity
  8
01
100
AcDbLine
 10
3763.924837362934
 20
-1957.137613375188
 30
0.0
 11
3763.924837362934
 21
-1910.137613375188
 31
0.0
  0
ARC
  5
1AD19
330
18
100
AcDbEntity
  8
01
100
AcDbCircle
 10
3754.424837362934
 20
-1957.137613375188
 30
0.0
 40
1.5
100
AcDbArc
 50
180.0
 51
0.0
  0
ARC
  5
1AD1A
330
18
100
AcDbEntity
  8
01
100
AcDbCircle
 10
3754.424837362934
 20
-1910.137613375188
 30
0.0
 40
1.5
100
AcDbArc
 50
0.0
 51
180.0
  0
LINE
  5
1AD1B
330
18
100
AcDbEntity
  8
01
100
AcDbLine
 10
3752.924837362934
 20
-1957.137613375188
 30
0.0
 11
3752.924837362934
 21
-1910.137613375188
 31
0.0
  0
LINE
  5
1AD1C
330
18
100
AcDbEntity
  8
01
100
AcDbLine
 10
3755.924837362934
 20
-1957.137613375188
 30
0.0
 11
3755.924837362934
 21
-1910.137613375188
 31
0.0
  0
ARC
  5
1AD1D
330
18
100
AcDbEntity
  8
01
100
AcDbCircle
 10
3746.424837362934
 20
-1957.137613375188
 30
0.0
 40
1.5
100
AcDbArc
 50
180.0
 51
0.0
  0
ARC
  5
1AD1E
330
18
100
AcDbEntity
  8
01
100
AcDbCircle
 10
3746.424837362934
 20
-1910.137613375188
 30
0.0
 40
1.5
100
AcDbArc
 50
0.0
 51
180.0
  0
LINE
  5
1AD1F
330
18
100
AcDbEntity
  8
01
100
AcDbLine
 10
3744.924837362934
 20
-1957.137613375188
 30
0.0
 11
3744.924837362934
 21
-1910.137613375188
 31
0.0
  0
LINE
  5
1AD20
330
18
100
AcDbEntity
  8
01
100
AcDbLine
 10
3747.924837362934
 20
-1957.137613375188
 30
0.0
 11
3747.924837362934
 21
-1910.137613375188
 31
0.0
  0
ARC
  5
1AD21
330
18
100
AcDbEntity
  8
01
100
AcDbCircle
 10
3738.424837362934
 20
-1957.137613375188
 30
0.0
 40
1.5
100
AcDbArc
 50
180.0
 51
0.0
  0
ARC
  5
1AD22
330
18
100
AcDbEntity
  8
01
100
AcDbCircle
 10
3738.424837362934
 20
-1910.137613375188
 30
0.0
 40
1.5
100
AcDbArc
 50
0.0
 51
180.0
  0
LINE
  5
1AD23
330
18
100
AcDbEntity
  8
01
100
AcDbLine
 10
3736.924837362934
 20
-1957.137613375188
 30
0.0
 11
3736.924837362934
 21
-1910.137613375188
 31
0.0
  0
LINE
  5
1AD24
330
18
100
AcDbEntity
  8
01
100
AcDbLine
 10
3739.924837362934
 20
-1957.137613375188
 30
0.0
 11
3739.924837362934
 21
-1910.137613375188
 31
0.0
  0
ARC
  5
1AD25
330
18
100
AcDbEntity
  8
01
100
AcDbCircle
 10
3730.424837362934
 20
-1957.137613375188
 30
0.0
 40
1.5
100
AcDbArc
 50
180.0
 51
0.0
  0
ARC
  5
1AD26
330
18
100
AcDbEntity
  8
01
100
AcDbCircle
 10
3730.424837362934
 20
-1910.137613375188
 30
0.0
 40
1.5
100
AcDbArc
 50
0.0
 51
180.0
  0
LINE
  5
1AD27
330
18
100
AcDbEntity
  8
01
100
AcDbLine
 10
3728.924837362934
 20
-1957.137613375188
 30
0.0
 11
3728.924837362934
 21
-1910.137613375188
 31
0.0
  0
LINE
  5
1AD28
330
18
100
AcDbEntity
  8
01
100
AcDbLine
 10
3731.924837362934
 20
-1957.137613375188
 30
0.0
 11
3731.924837362934
 21
-1910.137613375188
 31
0.0
  0
ARC
  5
1AD29
330
18
100
AcDbEntity
  8
01
100
AcDbCircle
 10
3722.424837362934
 20
-1957.137613375188
 30
0.0
 40
1.5
100
AcDbArc
 50
180.0
 51
0.0
  0
ARC
  5
1AD2A
330
18
100
AcDbEntity
  8
01
100
AcDbCircle
 10
3722.424837362934
 20
-1910.137613375188
 30
0.0
 40
1.5
100
AcDbArc
 50
0.0
 51
180.0
  0
LINE
  5
1AD2B
330
18
100
AcDbEntity
  8
01
100
AcDbLine
 10
3720.924837362934
 20
-1957.137613375188
 30
0.0
 11
3720.924837362934
 21
-1910.137613375188
 31
0.0
  0
LINE
  5
1AD2C
330
18
100
AcDbEntity
  8
01
100
AcDbLine
 10
3723.924837362934
 20
-1957.137613375188
 30
0.0
 11
3723.924837362934
 21
-1910.137613375188
 31
0.0
  0
LINE
  5
1B010
330
18
100
AcDbEntity
  8
1CENTER
100
AcDbLine
 10
4102.383104794706
 20
-1791.138153377467
 30
0.0
 11
4110.183104794705
 21
-1791.138153377467
 31
0.0
  0
ARC
  5
1B011
330
18
100
AcDbEntity
  8
01
100
AcDbCircle
 10
4106.283104794706
 20
-1788.638153377466
 30
0.0
 40
2.5
100
AcDbArc
 50
0.0
 51
180.0
  0
ARC
  5
1B012
330
18
100
AcDbEntity
  8
01
100
AcDbCircle
 10
4106.283104794706
 20
-1793.638153377468
 30
0.0
 40
2.5
100
AcDbArc
 50
180.0
 51
0.0
  0
LINE
  5
1B013
330
18
100
AcDbEntity
  8
01
100
AcDbLine
 10
4103.783104794706
 20
-1793.638153377468
 30
0.0
 11
4103.783104794706
 21
-1788.638153377466
 31
0.0
  0
LINE
  5
1B014
330
18
100
AcDbEntity
  8
01
100
AcDbLine
 10
4108.783104794706
 20
-1793.638153377468
 30
0.0
 11
4108.783104794706
 21
-1788.638153377466
 31
0.0
  0
LINE
  5
1B015
330
18
100
AcDbEntity
  8
1CENTER
100
AcDbLine
 10
4106.283104794706
 20
-1797.716704334255
 30
0.0
 11
4106.283104794706
 21
-1784.559602420679
 31
0.0
  0
LINE
  5
1B016
330
18
100
AcDbEntity
  8
1CENTER
100
AcDbLine
 10
4190.183104794703
 20
-1791.138153377467
 30
0.0
 11
4182.383104794704
 21
-1791.138153377467
 31
0.0
  0
ARC
  5
1B017
330
18
100
AcDbEntity
  8
01
100
AcDbCircle
 10
4186.283104794704
 20
-1788.638153377466
 30
0.0
 40
2.5
100
AcDbArc
 50
0.0
 51
180.0
  0
ARC
  5
1B018
330
18
100
AcDbEntity
  8
01
100
AcDbCircle
 10
4186.283104794704
 20
-1793.638153377468
 30
0.0
 40
2.5
100
AcDbArc
 50
180.0
 51
0.0
  0
LINE
  5
1B019
330
18
100
AcDbEntity
  8
01
100
AcDbLine
 10
4188.783104794704
 20
-1793.638153377468
 30
0.0
 11
4188.783104794704
 21
-1788.638153377466
 31
0.0
  0
LINE
  5
1B01A
330
18
100
AcDbEntity
  8
01
100
AcDbLine
 10
4183.783104794704
 20
-1793.638153377468
 30
0.0
 11
4183.783104794704
 21
-1788.638153377466
 31
0.0
  0
LINE
  5
1B01B
330
18
100
AcDbEntity
  8
1CENTER
100
AcDbLine
 10
4186.283104794704
 20
-1797.716704334255
 30
0.0
 11
4186.283104794704
 21
-1784.559602420679
 31
0.0
  0
LINE
  5
1B01C
330
18
100
AcDbEntity
  8
1CENTER
100
AcDbLine
 10
4102.383104794706
 20
-2191.138153377467
 30
0.0
 11
4110.183104794705
 21
-2191.138153377467
 31
0.0
  0
ARC
  5
1B01D
330
18
100
AcDbEntity
  8
01
100
AcDbCircle
 10
4106.283104794706
 20
-2188.638153377467
 30
0.0
 40
2.5
100
AcDbArc
 50
0.0
 51
180.0
  0
ARC
  5
1B01E
330
18
100
AcDbEntity
  8
01
100
AcDbCircle
 10
4106.283104794706
 20
-2193.638153377468
 30
0.0
 40
2.5
100
AcDbArc
 50
180.0
 51
0.0
  0
LINE
  5
1B01F
330
18
100
AcDbEntity
  8
01
100
AcDbLine
 10
4103.783104794706
 20
-2193.638153377468
 30
0.0
 11
4103.783104794706
 21
-2188.638153377467
 31
0.0
  0
LINE
  5
1B020
330
18
100
AcDbEntity
  8
01
100
AcDbLine
 10
4108.783104794706
 20
-2193.638153377468
 30
0.0
 11
4108.783104794706
 21
-2188.638153377467
 31
0.0
  0
LINE
  5
1B021
330
18
100
AcDbEntity
  8
1CENTER
100
AcDbLine
 10
4106.283104794706
 20
-2197.716704334255
 30
0.0
 11
4106.283104794706
 21
-2184.559602420679
 31
0.0
  0
LINE
  5
1B022
330
18
100
AcDbEntity
  8
1CENTER
100
AcDbLine
 10
4190.183104794703
 20
-2191.138153377467
 30
0.0
 11
4182.383104794704
 21
-2191.138153377467
 31
0.0
  0
ARC
  5
1B023
330
18
100
AcDbEntity
  8
01
100
AcDbCircle
 10
4186.283104794704
 20
-2188.638153377467
 30
0.0
 40
2.5
100
AcDbArc
 50
0.0
 51
180.0
  0
ARC
  5
1B024
330
18
100
AcDbEntity
  8
01
100
AcDbCircle
 10
4186.283104794704
 20
-2193.638153377468
 30
0.0
 40
2.5
100
AcDbArc
 50
180.0
 51
0.0
  0
LINE
  5
1B025
330
18
100
AcDbEntity
  8
01
100
AcDbLine
 10
4188.783104794704
 20
-2193.638153377468
 30
0.0
 11
4188.783104794704
 21
-2188.638153377467
 31
0.0
  0
LINE
  5
1B026
330
18
100
AcDbEntity
  8
01
100
AcDbLine
 10
4183.783104794704
 20
-2193.638153377468
 30
0.0
 11
4183.783104794704
 21
-2188.638153377467
 31
0.0
  0
LINE
  5
1B027
330
18
100
AcDbEntity
  8
1CENTER
100
AcDbLine
 10
4186.283104794704
 20
-2197.716704334255
 30
0.0
 11
4186.283104794704
 21
-2184.559602420679
 31
0.0
  0
LINE
  5
1B028
330
18
100
AcDbEntity
  8
1HIDDEN
100
AcDbLine
 10
4214.533104794706
 20
-2357.138153377467
 30
0.0
 11
4078.033104794704
 21
-2357.138153377467
 31
0.0
  0
LINE
  5
1B029
330
18
100
AcDbEntity
  8
1HIDDEN
100
AcDbLine
 10
4078.033104794704
 20
-1741.638153377467
 30
0.0
 11
4078.033104794704
 21
-2357.138153377467
 31
0.0
  0
LINE
  5
1B02A
330
18
100
AcDbEntity
  8
1HIDDEN
100
AcDbLine
 10
4214.533104794706
 20
-1741.638153377467
 30
0.0
 11
4214.533104794706
 21
-2357.138153377467
 31
0.0
  0
LINE
  5
1B02B
330
18
100
AcDbEntity
  8
1HIDDEN
100
AcDbLine
 10
4078.033104794706
 20
-1741.638153377467
 30
0.0
 11
4214.533104794704
 21
-1741.638153377467
 31
0.0
  0
LINE
  5
1B035
330
18
100
AcDbEntity
  8
1DIM
100
AcDbLine
 10
4151.283104792838
 20
-1933.138153375188
 30
0.0
 11
4240.427584255949
 21
-1933.138153375188
 31
0.0
  0
LINE
  5
1B036
330
18
100
AcDbEntity
  8
1DIM
100
AcDbLine
 10
4237.427584255949
 20
-1939.138153375188
 30
0.0
 11
4237.427584255948
 21
-2176.330661066283
 31
0.0
  0
LINE
  5
1B03A
330
18
100
AcDbEntity
  8
01
100
AcDbLine
 10
4201.283104794705
 20
-1839.138153375188
 30
0.0
 11
4201.283104794705
 21
-2027.138153379746
 31
0.0
  0
ARC
  5
1B03B
330
18
100
AcDbEntity
  8
01
100
AcDbCircle
 10
4196.283104794705
 20
-1839.138153375188
 30
0.0
 40
5.0
100
AcDbArc
 50
0.0
 51
90.0
  0
LINE
  5
1B03C
330
18
100
AcDbEntity
  8
01
100
AcDbLine
 10
4091.283104794705
 20
-1839.138153375188
 30
0.0
 11
4091.283104794705
 21
-2027.138153375188
 31
0.0
  0
ARC
  5
1B03D
330
18
100
AcDbEntity
  8
01
100
AcDbCircle
 10
4096.283104794705
 20
-2027.138153375188
 30
0.0
 40
5.0
100
AcDbArc
 50
180.0
 51
270.0
  0
LINE
  5
1B03E
330
18
100
AcDbEntity
  8
01
100
AcDbLine
 10
4196.283318273997
 20
-2032.138153375189
 30
0.0
 11
4096.283104794705
 21
-2032.138153375188
 31
0.0
  0
ARC
  5
1B03F
330
18
100
AcDbEntity
  8
01
100
AcDbCircle
 10
4196.283104794705
 20
-2027.138153379746
 30
0.0
 40
5.0
100
AcDbArc
 50
270.0
 51
0.0
  0
LINE
  5
1B040
330
18
100
AcDbEntity
  8
01
100
AcDbLine
 10
4196.283104794705
 20
-1834.138153375188
 30
0.0
 11
4096.283104794705
 21
-1834.138153375188
 31
0.0
  0
ARC
  5
1B041
330
18
100
AcDbEntity
  8
01
100
AcDbCircle
 10
4096.283104794705
 20
-1839.138153375188
 30
0.0
 40
5.0
100
AcDbArc
 50
90.0
 51
180.0
  0
LINE
  5
1B042
330
18
100
AcDbEntity
  8
1CENTER
100
AcDbLine
 10
4151.283104792838
 20
-1933.138153375188
 30
0.0
 11
4141.283104792838
 21
-1933.138153375188
 31
0.0
  0
LINE
  5
1B043
330
18
100
AcDbEntity
  8
1CENTER
100
AcDbLine
 10
4146.283104794705
 20
-1928.138153379746
 30
0.0
 11
4146.283104794705
 21
-1938.138153379746
 31
0.0
  0
ARC
  5
1B1FF
330
18
100
AcDbEntity
  8
01
100
AcDbCircle
 10
3741.627430417498
 20
-1627.484735912035
 30
0.0
 40
0.75
100
AcDbArc
 50
90.00039994660993
 51
179.9996000534074
  0
LINE
  5
1B200
330
18
100
AcDbEntity
  8
01
100
AcDbLine
 10
3742.676232872001
 20
-1626.734728590972
 30
0.0
 11
3741.627425182209
 21
-1626.734735912053
 31
0.0
  0
LINE
  5
1B201
330
18
100
AcDbEntity
  8
01
100
AcDbLine
 10
3740.877423095924
 20
-1628.533611452072
 30
0.0
 11
3740.877430417515
 21
-1627.484730676746
 31
0.0
  0
ARC
  5
1B202
330
18
100
AcDbEntity
  8
01
100
AcDbCircle
 10
3739.222323711798
 20
-1627.484815315457
 30
0.0
 40
0.75
100
AcDbArc
 50
0.0003999465925571
 51
89.99960005345956
  0
LINE
  5
1B203
330
18
100
AcDbEntity
  8
01
100
AcDbLine
 10
3739.972331032861
 20
-1628.533617769963
 30
0.0
 11
3739.97232371178
 21
-1627.484810080168
 31
0.0
  0
LINE
  5
1B204
330
18
100
AcDbEntity
  8
01
100
AcDbLine
 10
3738.173448171756
 20
-1626.734807993885
 30
0.0
 11
3739.222328947086
 21
-1626.734815315476
 31
0.0
  0
ARC
  5
1B205
330
18
100
AcDbEntity
  8
01
100
AcDbCircle
 10
3739.222244308373
 20
-1625.079708609758
 30
0.0
 40
0.75
100
AcDbArc
 50
270.0003999466099
 51
359.9996000534943
  0
LINE
  5
1B206
330
18
100
AcDbEntity
  8
01
100
AcDbLine
 10
3738.173441853865
 20
-1625.829715930822
 30
0.0
 11
3739.222249543661
 21
-1625.82970860974
 31
0.0
  0
LINE
  5
1B207
330
18
100
AcDbEntity
  8
01
100
AcDbLine
 10
3739.972251629945
 20
-1624.030833069721
 30
0.0
 11
3739.972244308355
 21
-1625.079713845046
 31
0.0
  0
ARC
  5
1B208
330
18
100
AcDbEntity
  8
01
100
AcDbCircle
 10
3741.627351014071
 20
-1625.079629206336
 30
0.0
 40
0.75
100
AcDbArc
 50
180.0003999465926
 51
269.9996000534595
  0
LINE
  5
1B209
330
18
100
AcDbEntity
  8
01
100
AcDbLine
 10
3742.67622655411
 20
-1625.829636527908
 30
0.0
 11
3741.627345778783
 21
-1625.829629206318
 31
0.0
  0
LINE
  5
1B20A
330
18
100
AcDbEntity
  8
01
100
AcDbLine
 10
3740.877343693008
 20
-1624.03082675183
 30
0.0
 11
3740.877351014089
 21
-1625.079634441625
 31
0.0
  0
LINE
  5
1B20B
330
18
100
AcDbEntity
  8
01
100
AcDbLine
 10
3742.67622655411
 20
-1625.829636527908
 30
0.0
 11
3742.676232872001
 21
-1626.734728590972
 31
0.0
  0
LINE
  5
1B20C
330
18
100
AcDbEntity
  8
01
100
AcDbLine
 10
3740.877423095924
 20
-1628.533611452072
 30
0.0
 11
3739.972331032861
 21
-1628.533617769963
 31
0.0
  0
LINE
  5
1B20D
330
18
100
AcDbEntity
  8
01
100
AcDbLine
 10
3738.173448171756
 20
-1626.734807993885
 30
0.0
 11
3738.173441853865
 21
-1625.829715930822
 31
0.0
  0
LINE
  5
1B20E
330
18
100
AcDbEntity
  8
1CENTER
100
AcDbLine
 10
3740.424837362934
 20
-1622.930946068464
 30
0.0
 11
3740.424837362934
 21
-1629.633498453329
 31
0.0
  0
LINE
  5
1B20F
330
18
100
AcDbEntity
  8
1CENTER
100
AcDbLine
 10
3743.776113555367
 20
-1626.282222260897
 30
0.0
 11
3737.073561170501
 21
-1626.282222260897
 31
0.0
  0
LINE
  5
1B210
330
18
100
AcDbEntity
  8
01
100
AcDbLine
 10
3739.972251629945
 20
-1624.030833069721
 30
0.0
 11
3740.877343693008
 21
-1624.03082675183
 31
0.0
  0
CIRCLE
  5
1B211
330
18
100
AcDbEntity
  8
01
100
AcDbCircle
 10
3740.424837362934
 20
-1626.282222260897
 30
0.0
 40
3.0
  0
TEXT
  5
1B212
330
18
100
AcDbEntity
  8
01
  6
CONTINUOUS
100
AcDbText
 10
4051.983207715568
 20
-1665.884870725582
 30
0.0
 40
10.5
  1
スイッチボックスを施工できない
  7
SWISS
100
AcDbText
  0
TEXT
  5
1B213
330
18
100
AcDbEntity
  8
01
  6
CONTINUOUS
100
AcDbText
 10
4083.658207715568
 20
-1683.384870725582
 30
0.0
 40
10.5
  1
場合の壁面切欠き寸法
  7
SWISS
100
AcDbText
  0
LINE
  5
1B214
330
18
100
AcDbEntity
  8
1DIM
100
AcDbLine
 10
3943.410611085057
 20
-1741.638153377467
 30
0.0
 11
3943.410611085057
 21
-1720.179589566535
 31
0.0
1001
ACAD
1000
DSTYLE
1002
{
1070
    40
1040
3.0
1002
}
  0
LINE
  5
1B215
330
18
100
AcDbEntity
  8
1DIM
100
AcDbLine
 10
3961.410611085057
 20
-1741.638153377467
 30
0.0
 11
3961.410611085057
 21
-1720.179589566535
 31
0.0
1001
ACAD
1000
DSTYLE
1002
{
1070
    40
1040
3.0
1002
}
  0
LINE
  5
1B216
330
18
100
AcDbEntity
  8
1DIM
100
AcDbLine
 10
3949.410611085057
 20
-1723.179589566535
 30
0.0
 11
3955.410611085057
 21
-1723.179589566535
 31
0.0
1001
ACAD
1000
DSTYLE
1002
{
1070
    40
1040
3.0
1002
}
  0
LINE
  5
1B217
330
18
100
AcDbEntity
  8
1DIM
100
AcDbLine
 10
3961.410611085057
 20
-1723.179589566535
 30
0.0
 11
3987.110611085057
 21
-1723.179589566535
 31
0.0
1001
ACAD
1000
DSTYLE
1002
{
1070
    40
1040
3.0
1002
}
  0
LINE
  5
1B21B
330
18
100
AcDbEntity
  8
1DIM
100
AcDbLine
 10
3900.410611085056
 20
-2207.138153377466
 30
0.0
 11
3900.410611085056
 21
-1696.727864986773
 31
0.0
1001
ACAD
1000
DSTYLE
1002
{
1070
    40
1040
3.0
1002
}
  0
LINE
  5
1B21C
330
18
100
AcDbEntity
  8
1DIM
100
AcDbLine
 10
3961.410611085057
 20
-1741.638153377467
 30
0.0
 11
3961.410611085057
 21
-1696.727864986773
 31
0.0
1001
ACAD
1000
DSTYLE
1002
{
1070
    40
1040
3.0
1002
}
  0
LINE
  5
1B21D
330
18
100
AcDbEntity
  8
1DIM
100
AcDbLine
 10
3906.410611085056
 20
-1699.727864986773
 30
0.0
 11
3955.410611085057
 21
-1699.727864986773
 31
0.0
1001
ACAD
1000
DSTYLE
1002
{
1070
    40
1040
3.0
1002
}
  0
LINE
  5
1B221
330
18
100
AcDbEntity
  8
1DIM
100
AcDbLine
 10
3740.424837362934
 20
-1933.138153375188
 30
0.0
 11
3651.174837362934
 21
-1933.138153375188
 31
0.0
1001
ACAD
1000
DSTYLE
1002
{
1070
    40
1040
3.0
1002
}
  0
LINE
  5
1B222
330
18
100
AcDbEntity
  8
1DIM
100
AcDbLine
 10
3696.524837362936
 20
-1791.138153377467
 30
0.0
 11
3651.174837362934
 21
-1791.138153377467
 31
0.0
1001
ACAD
1000
DSTYLE
1002
{
1070
    40
1040
3.0
1002
}
  0
LINE
  5
1B223
330
18
100
AcDbEntity
  8
1DIM
100
AcDbLine
 10
3654.174837362934
 20
-1927.138153375188
 30
0.0
 11
3654.174837362934
 21
-1797.138153377467
 31
0.0
1001
ACAD
1000
DSTYLE
1002
{
1070
    40
1040
3.0
1002
}
  0
LINE
  5
1B227
330
18
100
AcDbEntity
  8
1DIM
100
AcDbLine
 10
3784.324837362933
 20
-2191.138153377467
 30
0.0
 11
3838.896610738051
 21
-2191.138153377467
 31
0.0
1001
ACAD
1000
DSTYLE
1002
{
1070
    40
1040
3.0
1002
}
  0
LINE
  5
1B228
330
18
100
AcDbEntity
  8
1DIM
100
AcDbLine
 10
3784.324837362933
 20
-1791.138153377467
 30
0.0
 11
3838.896610738051
 21
-1791.138153377467
 31
0.0
1001
ACAD
1000
DSTYLE
1002
{
1070
    40
1040
3.0
1002
}
  0
LINE
  5
1B229
330
18
100
AcDbEntity
  8
1DIM
100
AcDbLine
 10
3835.896610738051
 20
-2185.138153377467
 30
0.0
 11
3835.896610738051
 21
-1797.138153377467
 31
0.0
1001
ACAD
1000
DSTYLE
1002
{
1070
    40
1040
3.0
1002
}
  0
LINE
  5
1B22D
330
18
100
AcDbEntity
  8
1DIM
100
AcDbLine
 10
3808.674837362935
 20
-2357.138153377467
 30
0.0
 11
3868.005218527999
 21
-2357.138153377467
 31
0.0
1001
ACAD
1000
DSTYLE
1002
{
1070
    40
1040
3.0
1002
}
  0
LINE
  5
1B22E
330
18
100
AcDbEntity
  8
1DIM
100
AcDbLine
 10
3808.674837362933
 20
-1741.638153377467
 30
0.0
 11
3868.005218527999
 21
-1741.638153377467
 31
0.0
1001
ACAD
1000
DSTYLE
1002
{
1070
    40
1040
3.0
1002
}
  0
LINE
  5
1B22F
330
18
100
AcDbEntity
  8
1DIM
100
AcDbLine
 10
3865.005218527999
 20
-2351.138153377467
 30
0.0
 11
3865.005218527999
 21
-1747.638153377467
 31
0.0
1001
ACAD
1000
DSTYLE
1002
{
1070
    40
1040
3.0
1002
}
  0
LINE
  5
1B233
330
18
100
AcDbEntity
  8
1DIM
100
AcDbLine
 10
3784.324837362933
 20
-1791.138153377467
 30
0.0
 11
3838.896610738051
 21
-1791.138153377467
 31
0.0
1001
ACAD
1000
DSTYLE
1002
{
1070
    40
1040
3.0
1002
}
  0
LINE
  5
1B234
330
18
100
AcDbEntity
  8
1DIM
100
AcDbLine
 10
3808.674837362935
 20
-1741.638153377467
 30
0.0
 11
3838.896610738051
 21
-1741.638153377467
 31
0.0
1001
ACAD
1000
DSTYLE
1002
{
1070
    40
1040
3.0
1002
}
  0
LINE
  5
1B235
330
18
100
AcDbEntity
  8
1DIM
100
AcDbLine
 10
3835.896610738051
 20
-1785.138153377467
 30
0.0
 11
3835.896610738051
 21
-1747.638153377467
 31
0.0
1001
ACAD
1000
DSTYLE
1002
{
1070
    40
1040
3.0
1002
}
  0
LINE
  5
1B239
330
18
100
AcDbEntity
  8
1DIM
100
AcDbLine
 10
3672.174837362935
 20
-1741.638153377467
 30
0.0
 11
3672.174837362935
 21
-1709.915406242189
 31
0.0
1001
ACAD
1000
DSTYLE
1002
{
1070
    40
1040
3.0
1002
}
  0
LINE
  5
1B23A
330
18
100
AcDbEntity
  8
1DIM
100
AcDbLine
 10
3808.674837362935
 20
-1741.638153377467
 30
0.0
 11
3808.674837362935
 21
-1709.915406242189
 31
0.0
1001
ACAD
1000
DSTYLE
1002
{
1070
    40
1040
3.0
1002
}
  0
LINE
  5
1B23B
330
18
100
AcDbEntity
  8
1DIM
100
AcDbLine
 10
3678.174837362935
 20
-1712.915406242189
 30
0.0
 11
3802.674837362935
 21
-1712.915406242189
 31
0.0
1001
ACAD
1000
DSTYLE
1002
{
1070
    40
1040
3.0
1002
}
  0
LINE
  5
1B23F
330
18
100
AcDbEntity
  8
1DIM
100
AcDbLine
 10
3700.424837362935
 20
-1784.559602420679
 30
0.0
 11
3700.424837362935
 21
-1730.405132916765
 31
0.0
1001
ACAD
1000
DSTYLE
1002
{
1070
    40
1040
3.0
1002
}
  0
LINE
  5
1B240
330
18
100
AcDbEntity
  8
1DIM
100
AcDbLine
 10
3780.424837362933
 20
-1784.559602420679
 30
0.0
 11
3780.424837362933
 21
-1730.405132916765
 31
0.0
1001
ACAD
1000
DSTYLE
1002
{
1070
    40
1040
3.0
1002
}
  0
LINE
  5
1B241
330
18
100
AcDbEntity
  8
1DIM
100
AcDbLine
 10
3706.424837362935
 20
-1733.405132916765
 30
0.0
 11
3774.424837362933
 21
-1733.405132916765
 31
0.0
1001
ACAD
1000
DSTYLE
1002
{
1070
    40
1040
3.0
1002
}
  0
LINE
  5
1B245
330
18
100
AcDbEntity
  8
0
  6
BYBLOCK
100
AcDbLine
 10
3652.567142222934
 20
-1939.138153375188
 30
0.0
 11
3654.174837362934
 21
-1933.138153375188
 31
0.0
  0
LINE
  5
1B246
330
18
100
AcDbEntity
  8
0
  6
BYBLOCK
100
AcDbLine
 10
3654.174837362934
 20
-1933.138153375188
 30
0.0
 11
3655.782532502934
 21
-1939.138153375188
 31
0.0
  0
LINE
  5
1B247
330
18
100
AcDbEntity
  8
0
  6
BYBLOCK
100
AcDbLine
 10
3654.174837362934
 20
-1933.138153375188
 30
0.0
 11
3654.174837362934
 21
-1939.138153375188
 31
0.0
  0
SOLID
  5
1B248
330
18
100
AcDbEntity
  8
1DIM
100
AcDbTrace
 10
3801.005140242089
 20
-1746.961396009841
 30
0.0
 11
3797.419088221951
 21
-1751.874666907
 31
0.0
 12
3799.217806328408
 22
-1746.063934322076
 32
0.0
 13
3799.217806328408
 23
-1746.063934322076
 33
0.0
1001
ACAD
1000
DSTYLE
1002
{
1070
    40
1040
3.0
1002
}
  0
LINE
  5
1B249
330
18
100
AcDbEntity
  8
1DIM
100
AcDbLine
 10
3800.111473285248
 20
-1746.512665165958
 30
0.0
 11
3837.46764676926
 21
-1672.11622388775
 31
0.0
1001
ACAD
1000
DSTYLE
1002
{
1070
    40
1040
3.0
1002
}
  0
LINE
  5
1B24A
330
18
100
AcDbEntity
  8
1DIM
100
AcDbLine
 10
3837.46764676926
 20
-1672.11622388775
 30
0.0
 11
3943.91764676926
 21
-1672.11622388775
 31
0.0
1001
ACAD
1000
DSTYLE
1002
{
1070
    40
1040
3.0
1002
}
  0
TEXT
  5
1B24B
330
18
100
AcDbEntity
  8
1DIM
  6
CONTINUOUS
100
AcDbText
 10
3844.86764676926
 20
-1652.51622388775
 30
0.0
 40
10.5
  1
材質：アルミ
100
AcDbText
  0
TEXT
  5
1B24C
330
18
100
AcDbEntity
  8
1DIM
  6
CONTINUOUS
100
AcDbText
 10
3845.21764676926
 20
-1670.01622388775
 30
0.0
 40
10.5
  1
仕上げ：各種仕上
100
AcDbText
  0
TEXT
  5
1B24D
330
18
100
AcDbEntity
  8
1DIM
  6
CONTINUOUS
100
AcDbText
 10
3634.077481493668
 20
-2150.930446984346
 30
0.0
 40
10.5
  1
JIS4個用スイッチボックス（カバー無し）
 50
90.0
100
AcDbText
1001
ACADANNOTATIVE
1000
AnnotativeData
1002
{
1070
     1
1070
     0
1002
}
  0
TEXT
  5
1B24E
330
18
100
AcDbEntity
  8
1DIM
  6
CONTINUOUS
100
AcDbText
 10
3651.584773160334
 20
-2105.991905317679
 30
0.0
 40
10.5
  1
床面より1350（推奨位置）
 50
90.0
100
AcDbText
1001
ACADANNOTATIVE
1000
AnnotativeData
1002
{
1070
     1
1070
     0
1002
}
  0
LINE
  5
1B24F
330
18
100
AcDbEntity
  8
1DIM
100
AcDbLine
 10
4190.183104794703
 20
-2191.138153377467
 30
0.0
 11
4284.67273060624
 21
-2191.138153377467
 31
0.0
1001
ACAD
1000
DSTYLE
1002
{
1070
    40
1040
3.0
1002
}
  0
LINE
  5
1B250
330
18
100
AcDbEntity
  8
1DIM
100
AcDbLine
 10
4190.183104794703
 20
-1791.138153377467
 30
0.0
 11
4284.67273060624
 21
-1791.138153377467
 31
0.0
1001
ACAD
1000
DSTYLE
1002
{
1070
    40
1040
3.0
1002
}
  0
LINE
  5
1B251
330
18
100
AcDbEntity
  8
1DIM
100
AcDbLine
 10
4281.67273060624
 20
-2185.138153377467
 30
0.0
 11
4281.67273060624
 21
-1797.138153377467
 31
0.0
1001
ACAD
1000
DSTYLE
1002
{
1070
    40
1040
3.0
1002
}
  0
LINE
  5
1B255
330
18
100
AcDbEntity
  8
1DIM
100
AcDbLine
 10
4214.533104794706
 20
-2357.138153377467
 30
0.0
 11
4307.853930790291
 21
-2357.138153377467
 31
0.0
1001
ACAD
1000
DSTYLE
1002
{
1070
    40
1040
3.0
1002
}
  0
LINE
  5
1B256
330
18
100
AcDbEntity
  8
1DIM
100
AcDbLine
 10
4214.533104794704
 20
-1741.638153377467
 30
0.0
 11
4307.853930790291
 21
-1741.638153377467
 31
0.0
1001
ACAD
1000
DSTYLE
1002
{
1070
    40
1040
3.0
1002
}
  0
LINE
  5
1B257
330
18
100
AcDbEntity
  8
1DIM
100
AcDbLine
 10
4304.853930790291
 20
-2351.138153377467
 30
0.0
 11
4304.853930790291
 21
-1747.638153377467
 31
0.0
1001
ACAD
1000
DSTYLE
1002
{
1070
    40
1040
3.0
1002
}
  0
LINE
  5
1B25B
330
18
100
AcDbEntity
  8
1DIM
100
AcDbLine
 10
4190.183104794703
 20
-1791.138153377467
 30
0.0
 11
4284.67273060624
 21
-1791.138153377467
 31
0.0
1001
ACAD
1000
DSTYLE
1002
{
1070
    40
1040
3.0
1002
}
  0
LINE
  5
1B25C
330
18
100
AcDbEntity
  8
1DIM
100
AcDbLine
 10
4214.533104794706
 20
-1741.638153377467
 30
0.0
 11
4284.67273060624
 21
-1741.638153377467
 31
0.0
1001
ACAD
1000
DSTYLE
1002
{
1070
    40
1040
3.0
1002
}
  0
LINE
  5
1B25D
330
18
100
AcDbEntity
  8
1DIM
100
AcDbLine
 10
4281.67273060624
 20
-1785.138153377467
 30
0.0
 11
4281.67273060624
 21
-1747.638153377467
 31
0.0
1001
ACAD
1000
DSTYLE
1002
{
1070
    40
1040
3.0
1002
}
  0
LINE
  5
1B261
330
18
100
AcDbEntity
  8
1DIM
100
AcDbLine
 10
4078.033104794706
 20
-1741.638153377467
 30
0.0
 11
4078.033104794706
 21
-1709.915406242189
 31
0.0
1001
ACAD
1000
DSTYLE
1002
{
1070
    40
1040
3.0
1002
}
  0
LINE
  5
1B262
330
18
100
AcDbEntity
  8
1DIM
100
AcDbLine
 10
4214.533104794706
 20
-1741.638153377467
 30
0.0
 11
4214.533104794706
 21
-1709.915406242189
 31
0.0
1001
ACAD
1000
DSTYLE
1002
{
1070
    40
1040
3.0
1002
}
  0
LINE
  5
1B263
330
18
100
AcDbEntity
  8
1DIM
100
AcDbLine
 10
4084.033104794706
 20
-1712.915406242189
 30
0.0
 11
4208.533104794706
 21
-1712.915406242189
 31
0.0
1001
ACAD
1000
DSTYLE
1002
{
1070
    40
1040
3.0
1002
}
  0
LINE
  5
1B267
330
18
100
AcDbEntity
  8
1DIM
100
AcDbLine
 10
4106.283104794706
 20
-1784.559602420679
 30
0.0
 11
4106.283104794706
 21
-1730.405132916765
 31
0.0
1001
ACAD
1000
DSTYLE
1002
{
1070
    40
1040
3.0
1002
}
  0
LINE
  5
1B268
330
18
100
AcDbEntity
  8
1DIM
100
AcDbLine
 10
4186.283104794704
 20
-1784.559602420679
 30
0.0
 11
4186.283104794704
 21
-1730.405132916765
 31
0.0
1001
ACAD
1000
DSTYLE
1002
{
1070
    40
1040
3.0
1002
}
  0
LINE
  5
1B269
330
18
100
AcDbEntity
  8
1DIM
100
AcDbLine
 10
4112.283104794706
 20
-1733.405132916765
 30
0.0
 11
4180.283104794704
 21
-1733.405132916765
 31
0.0
1001
ACAD
1000
DSTYLE
1002
{
1070
    40
1040
3.0
1002
}
  0
LINE
  5
1B26D
330
18
100
AcDbEntity
  8
0
  6
BYBLOCK
100
AcDbLine
 10
4235.819889115949
 20
-1939.138153375188
 30
0.0
 11
4237.427584255949
 21
-1933.138153375188
 31
0.0
  0
LINE
  5
1B26E
330
18
100
AcDbEntity
  8
0
  6
BYBLOCK
100
AcDbLine
 10
4237.427584255949
 20
-1933.138153375188
 30
0.0
 11
4239.035279395949
 21
-1939.138153375188
 31
0.0
  0
LINE
  5
1B26F
330
18
100
AcDbEntity
  8
0
  6
BYBLOCK
100
AcDbLine
 10
4237.427584255949
 20
-1933.138153375188
 30
0.0
 11
4237.427584255949
 21
-1939.138153375188
 31
0.0
  0
TEXT
  5
1B270
330
18
100
AcDbEntity
  8
1DIM
  6
CONTINUOUS
100
AcDbText
 10
4235.327584255949
 20
-2168.202485085558
 30
0.0
 40
10.5
  1
逃げ穴中心　床面より1350（推奨位置）
 50
90.0
100
AcDbText
  0
LINE
  5
1B271
330
18
100
AcDbEntity
  8
1DIM
100
AcDbLine
 10
4151.283104792838
 20
-1933.138153375188
 30
0.0
 11
4240.427584255949
 21
-1933.138153375188
 31
0.0
1001
ACAD
1000
DSTYLE
1002
{
1070
    40
1040
3.0
1002
}
  0
LINE
  5
1B272
330
18
100
AcDbEntity
  8
1DIM
100
AcDbLine
 10
4190.183104794703
 20
-1791.138153377467
 30
0.0
 11
4240.427584255949
 21
-1791.138153377467
 31
0.0
1001
ACAD
1000
DSTYLE
1002
{
1070
    40
1040
3.0
1002
}
  0
LINE
  5
1B273
330
18
100
AcDbEntity
  8
1DIM
100
AcDbLine
 10
4237.427584255949
 20
-1927.138153375188
 30
0.0
 11
4237.427584255949
 21
-1797.138153377467
 31
0.0
1001
ACAD
1000
DSTYLE
1002
{
1070
    40
1040
3.0
1002
}
  0
LINE
  5
1B277
330
18
100
AcDbEntity
  8
1DIM
100
AcDbLine
 10
4096.283104794705
 20
-2032.138153375188
 30
0.0
 11
4056.368784436242
 21
-2032.138153375188
 31
0.0
1001
ACAD
1000
DSTYLE
1002
{
1070
    40
1040
3.0
1002
}
  0
LINE
  5
1B278
330
18
100
AcDbEntity
  8
1DIM
100
AcDbLine
 10
4096.283104794705
 20
-1834.138153375188
 30
0.0
 11
4056.368784436242
 21
-1834.138153375188
 31
0.0
1001
ACAD
1000
DSTYLE
1002
{
1070
    40
1040
3.0
1002
}
  0
LINE
  5
1B279
330
18
100
AcDbEntity
  8
1DIM
100
AcDbLine
 10
4059.368784436242
 20
-2026.138153375188
 30
0.0
 11
4059.368784436242
 21
-1840.138153375188
 31
0.0
1001
ACAD
1000
DSTYLE
1002
{
1070
    40
1040
3.0
1002
}
  0
LINE
  5
1B27D
330
18
100
AcDbEntity
  8
1DIM
100
AcDbLine
 10
4091.283104794705
 20
-1839.138153375188
 30
0.0
 11
4091.283104794705
 21
-1816.87269122283
 31
0.0
1001
ACAD
1000
DSTYLE
1002
{
1070
    40
1040
3.0
1002
}
  0
LINE
  5
1B27E
330
18
100
AcDbEntity
  8
1DIM
100
AcDbLine
 10
4201.283104794705
 20
-1839.138153375188
 30
0.0
 11
4201.283104794705
 21
-1816.87269122283
 31
0.0
1001
ACAD
1000
DSTYLE
1002
{
1070
    40
1040
3.0
1002
}
  0
LINE
  5
1B27F
330
18
100
AcDbEntity
  8
1DIM
100
AcDbLine
 10
4097.283104794705
 20
-1819.87269122283
 30
0.0
 11
4195.283104794705
 21
-1819.87269122283
 31
0.0
1001
ACAD
1000
DSTYLE
1002
{
1070
    40
1040
3.0
1002
}
  0
LINE
  5
1B283
330
18
100
AcDbEntity
  8
1DIM
100
AcDbLine
 10
4086.660191962503
 20
-1833.809030687179
 30
0.0
 11
4042.898244967487
 21
-1809.573875628701
 31
0.0
1001
ACAD
1000
DSTYLE
1002
{
1070
    40
1040
3.0
1002
}
1001
ACAD_DSTYLE_DIMRADIAL_EXTE
1070
   387
1070
     1
1070
   388
1040
1.570796326794897
1070
   390
1040
3.141592653589793
  0
LINE
  5
1B286
330
18
100
AcDbEntity
  8
0
  6
BYBLOCK
100
AcDbLine
 10
3949.410611085057
 20
-1724.787284706536
 30
0.0
 11
3943.410611085057
 21
-1723.179589566535
 31
0.0
  0
LINE
  5
1B287
330
18
100
AcDbEntity
  8
0
  6
BYBLOCK
100
AcDbLine
 10
3943.410611085057
 20
-1723.179589566535
 30
0.0
 11
3949.410611085057
 21
-1721.571894426535
 31
0.0
  0
LINE
  5
1B288
330
18
100
AcDbEntity
  8
0
  6
BYBLOCK
100
AcDbLine
 10
3943.410611085057
 20
-1723.179589566535
 30
0.0
 11
3949.410611085057
 21
-1723.179589566535
 31
0.0
  0
LINE
  5
1B289
330
18
100
AcDbEntity
  8
0
  6
BYBLOCK
100
AcDbLine
 10
3955.410611085057
 20
-1721.571894426535
 30
0.0
 11
3961.410611085057
 21
-1723.179589566535
 31
0.0
  0
LINE
  5
1B28A
330
18
100
AcDbEntity
  8
0
  6
BYBLOCK
100
AcDbLine
 10
3961.410611085057
 20
-1723.179589566535
 30
0.0
 11
3955.410611085057
 21
-1724.787284706536
 31
0.0
  0
LINE
  5
1B28B
330
18
100
AcDbEntity
  8
0
  6
BYBLOCK
100
AcDbLine
 10
3961.410611085057
 20
-1723.179589566535
 30
0.0
 11
3955.410611085057
 21
-1723.179589566535
 31
0.0
  0
TEXT
  5
1B28C
330
18
100
AcDbEntity
  8
1DIM
  6
CONTINUOUS
100
AcDbText
 10
3970.260611085057
 20
-1721.079589566536
 30
0.0
 40
10.5
  1
18
100
AcDbText
1001
ACAD
1000
DSTYLE
1002
{
1070
    40
1040
3.0
1002
}
  0
LINE
  5
1B28D
330
18
100
AcDbEntity
  8
0
  6
BYBLOCK
100
AcDbLine
 10
3906.410611085056
 20
-1701.335560126773
 30
0.0
 11
3900.410611085056
 21
-1699.727864986773
 31
0.0
  0
LINE
  5
1B28E
330
18
100
AcDbEntity
  8
0
  6
BYBLOCK
100
AcDbLine
 10
3900.410611085056
 20
-1699.727864986773
 30
0.0
 11
3906.410611085056
 21
-1698.120169846773
 31
0.0
  0
LINE
  5
1B28F
330
18
100
AcDbEntity
  8
0
  6
BYBLOCK
100
AcDbLine
 10
3900.410611085056
 20
-1699.727864986773
 30
0.0
 11
3906.410611085056
 21
-1699.727864986773
 31
0.0
  0
LINE
  5
1B290
330
18
100
AcDbEntity
  8
0
  6
BYBLOCK
100
AcDbLine
 10
3955.410611085057
 20
-1698.120169846773
 30
0.0
 11
3961.410611085057
 21
-1699.727864986773
 31
0.0
  0
LINE
  5
1B291
330
18
100
AcDbEntity
  8
0
  6
BYBLOCK
100
AcDbLine
 10
3961.410611085057
 20
-1699.727864986773
 30
0.0
 11
3955.410611085057
 21
-1701.335560126773
 31
0.0
  0
LINE
  5
1B292
330
18
100
AcDbEntity
  8
0
  6
BYBLOCK
100
AcDbLine
 10
3961.410611085057
 20
-1699.727864986773
 30
0.0
 11
3955.410611085057
 21
-1699.727864986773
 31
0.0
  0
TEXT
  5
1B293
330
18
100
AcDbEntity
  8
1DIM
  6
CONTINUOUS
100
AcDbText
 10
3923.874152751723
 20
-1697.627864986773
 30
0.0
 40
10.5
  1
61
100
AcDbText
1001
ACAD
1000
DSTYLE
1002
{
1070
    40
1040
3.0
1002
}
  0
LINE
  5
1B294
330
18
100
AcDbEntity
  8
0
  6
BYBLOCK
100
AcDbLine
 10
3655.782532502934
 20
-1927.138153375188
 30
0.0
 11
3654.174837362934
 21
-1933.138153375188
 31
0.0
  0
LINE
  5
1B295
330
18
100
AcDbEntity
  8
0
  6
BYBLOCK
100
AcDbLine
 10
3654.174837362934
 20
-1933.138153375188
 30
0.0
 11
3652.567142222934
 21
-1927.138153375188
 31
0.0
  0
LINE
  5
1B296
330
18
100
AcDbEntity
  8
0
  6
BYBLOCK
100
AcDbLine
 10
3654.174837362934
 20
-1933.138153375188
 30
0.0
 11
3654.174837362934
 21
-1927.138153375188
 31
0.0
  0
LINE
  5
1B297
330
18
100
AcDbEntity
  8
0
  6
BYBLOCK
100
AcDbLine
 10
3652.567142222934
 20
-1797.138153377467
 30
0.0
 11
3654.174837362934
 21
-1791.138153377467
 31
0.0
  0
LINE
  5
1B298
330
18
100
AcDbEntity
  8
0
  6
BYBLOCK
100
AcDbLine
 10
3654.174837362934
 20
-1791.138153377467
 30
0.0
 11
3655.782532502934
 21
-1797.138153377467
 31
0.0
  0
LINE
  5
1B299
330
18
100
AcDbEntity
  8
0
  6
BYBLOCK
100
AcDbLine
 10
3654.174837362934
 20
-1791.138153377467
 30
0.0
 11
3654.174837362934
 21
-1797.138153377467
 31
0.0
  0
TEXT
  5
1B29A
330
18
100
AcDbEntity
  8
1DIM
  6
CONTINUOUS
100
AcDbText
 10
3652.074837362935
 20
-1874.388153376327
 30
0.0
 40
10.5
  1
142
 50
90.0
100
AcDbText
1001
ACAD
1000
DSTYLE
1002
{
1070
    40
1040
3.0
1002
}
  0
LINE
  5
1B29B
330
18
100
AcDbEntity
  8
0
  6
BYBLOCK
100
AcDbLine
 10
3837.504305878051
 20
-2185.138153377467
 30
0.0
 11
3835.896610738051
 21
-2191.138153377467
 31
0.0
  0
LINE
  5
1B29C
330
18
100
AcDbEntity
  8
0
  6
BYBLOCK
100
AcDbLine
 10
3835.896610738051
 20
-2191.138153377467
 30
0.0
 11
3834.288915598051
 21
-2185.138153377467
 31
0.0
  0
LINE
  5
1B29D
330
18
100
AcDbEntity
  8
0
  6
BYBLOCK
100
AcDbLine
 10
3835.896610738051
 20
-2191.138153377467
 30
0.0
 11
3835.896610738051
 21
-2185.138153377467
 31
0.0
  0
LINE
  5
1B29E
330
18
100
AcDbEntity
  8
0
  6
BYBLOCK
100
AcDbLine
 10
3834.288915598051
 20
-1797.138153377467
 30
0.0
 11
3835.896610738051
 21
-1791.138153377467
 31
0.0
  0
LINE
  5
1B29F
330
18
100
AcDbEntity
  8
0
  6
BYBLOCK
100
AcDbLine
 10
3835.896610738051
 20
-1791.138153377467
 30
0.0
 11
3837.504305878051
 21
-1797.138153377467
 31
0.0
  0
LINE
  5
1B2A0
330
18
100
AcDbEntity
  8
0
  6
BYBLOCK
100
AcDbLine
 10
3835.896610738051
 20
-1791.138153377467
 30
0.0
 11
3835.896610738051
 21
-1797.138153377467
 31
0.0
  0
TEXT
  5
1B2A1
330
18
100
AcDbEntity
  8
1DIM
  6
CONTINUOUS
100
AcDbText
 10
3833.796610738052
 20
-2014.106903377467
 30
0.0
 40
10.5
  1
P=400
 50
90.0
100
AcDbText
1001
ACAD
1000
DSTYLE
1002
{
1070
    40
1040
3.0
1002
}
  0
LINE
  5
1B2A2
330
18
100
AcDbEntity
  8
0
  6
BYBLOCK
100
AcDbLine
 10
3866.612913667999
 20
-2351.138153377467
 30
0.0
 11
3865.005218527999
 21
-2357.138153377467
 31
0.0
  0
LINE
  5
1B2A3
330
18
100
AcDbEntity
  8
0
  6
BYBLOCK
100
AcDbLine
 10
3865.005218527999
 20
-2357.138153377467
 30
0.0
 11
3863.397523387999
 21
-2351.138153377467
 31
0.0
  0
LINE
  5
1B2A4
330
18
100
AcDbEntity
  8
0
  6
BYBLOCK
100
AcDbLine
 10
3865.005218527999
 20
-2357.138153377467
 30
0.0
 11
3865.005218527999
 21
-2351.138153377467
 31
0.0
  0
LINE
  5
1B2A5
330
18
100
AcDbEntity
  8
0
  6
BYBLOCK
100
AcDbLine
 10
3863.397523387999
 20
-1747.638153377467
 30
0.0
 11
3865.005218527999
 21
-1741.638153377467
 31
0.0
  0
LINE
  5
1B2A6
330
18
100
AcDbEntity
  8
0
  6
BYBLOCK
100
AcDbLine
 10
3865.005218527999
 20
-1741.638153377467
 30
0.0
 11
3866.612913667999
 21
-1747.638153377467
 31
0.0
  0
LINE
  5
1B2A7
330
18
100
AcDbEntity
  8
0
  6
BYBLOCK
100
AcDbLine
 10
3865.005218527999
 20
-1741.638153377467
 30
0.0
 11
3865.005218527999
 21
-1747.638153377467
 31
0.0
  0
TEXT
  5
1B2A8
330
18
100
AcDbEntity
  8
1DIM
  6
CONTINUOUS
100
AcDbText
 10
3862.905218528
 20
-2068.711070044134
 30
0.0
 40
10.5
  1
615.5
 50
90.0
100
AcDbText
1001
ACAD
1000
DSTYLE
1002
{
1070
    40
1040
3.0
1002
}
  0
LINE
  5
1B2A9
330
18
100
AcDbEntity
  8
0
  6
BYBLOCK
100
AcDbLine
 10
3837.504305878051
 20
-1785.138153377467
 30
0.0
 11
3835.896610738051
 21
-1791.138153377467
 31
0.0
  0
LINE
  5
1B2AA
330
18
100
AcDbEntity
  8
0
  6
BYBLOCK
100
AcDbLine
 10
3835.896610738051
 20
-1791.138153377467
 30
0.0
 11
3834.288915598051
 21
-1785.138153377467
 31
0.0
  0
LINE
  5
1B2AB
330
18
100
AcDbEntity
  8
0
  6
BYBLOCK
100
AcDbLine
 10
3835.896610738051
 20
-1791.138153377467
 30
0.0
 11
3835.896610738051
 21
-1785.138153377467
 31
0.0
  0
LINE
  5
1B2AC
330
18
100
AcDbEntity
  8
0
  6
BYBLOCK
100
AcDbLine
 10
3834.288915598051
 20
-1747.638153377467
 30
0.0
 11
3835.896610738051
 21
-1741.638153377467
 31
0.0
  0
LINE
  5
1B2AD
330
18
100
AcDbEntity
  8
0
  6
BYBLOCK
100
AcDbLine
 10
3835.896610738051
 20
-1741.638153377467
 30
0.0
 11
3837.504305878051
 21
-1747.638153377467
 31
0.0
  0
LINE
  5
1B2AE
330
18
100
AcDbEntity
  8
0
  6
BYBLOCK
100
AcDbLine
 10
3835.896610738051
 20
-1741.638153377467
 30
0.0
 11
3835.896610738051
 21
-1747.638153377467
 31
0.0
  0
TEXT
  5
1B2AF
330
18
100
AcDbEntity
  8
1DIM
  6
CONTINUOUS
100
AcDbText
 10
3833.796610738052
 20
-1782.140583933022
 30
0.0
 40
10.5
  1
49.5
 50
90.0
100
AcDbText
1001
ACAD
1000
DSTYLE
1002
{
1070
    40
1040
3.0
1002
}
  0
LINE
  5
1B2B0
330
18
100
AcDbEntity
  8
0
  6
BYBLOCK
100
AcDbLine
 10
3678.174837362935
 20
-1714.523101382189
 30
0.0
 11
3672.174837362935
 21
-1712.915406242189
 31
0.0
  0
LINE
  5
1B2B1
330
18
100
AcDbEntity
  8
0
  6
BYBLOCK
100
AcDbLine
 10
3672.174837362935
 20
-1712.915406242189
 30
0.0
 11
3678.174837362935
 21
-1711.307711102189
 31
0.0
  0
LINE
  5
1B2B2
330
18
100
AcDbEntity
  8
0
  6
BYBLOCK
100
AcDbLine
 10
3672.174837362935
 20
-1712.915406242189
 30
0.0
 11
3678.174837362935
 21
-1712.915406242189
 31
0.0
  0
LINE
  5
1B2B3
330
18
100
AcDbEntity
  8
0
  6
BYBLOCK
100
AcDbLine
 10
3802.674837362935
 20
-1711.307711102189
 30
0.0
 11
3808.674837362935
 21
-1712.915406242189
 31
0.0
  0
LINE
  5
1B2B4
330
18
100
AcDbEntity
  8
0
  6
BYBLOCK
100
AcDbLine
 10
3808.674837362935
 20
-1712.915406242189
 30
0.0
 11
3802.674837362935
 21
-1714.523101382189
 31
0.0
  0
LINE
  5
1B2B5
330
18
100
AcDbEntity
  8
0
  6
BYBLOCK
100
AcDbLine
 10
3808.674837362935
 20
-1712.915406242189
 30
0.0
 11
3802.674837362935
 21
-1712.915406242189
 31
0.0
  0
TEXT
  5
1B2B6
330
18
100
AcDbEntity
  8
1DIM
  6
CONTINUOUS
100
AcDbText
 10
3721.138379029602
 20
-1710.81540624219
 30
0.0
 40
10.5
  1
136.5
100
AcDbText
1001
ACAD
1000
DSTYLE
1002
{
1070
    40
1040
3.0
1002
}
  0
LINE
  5
1B2B7
330
18
100
AcDbEntity
  8
0
  6
BYBLOCK
100
AcDbLine
 10
3706.424837362935
 20
-1735.012828056765
 30
0.0
 11
3700.424837362935
 21
-1733.405132916765
 31
0.0
  0
LINE
  5
1B2B8
330
18
100
AcDbEntity
  8
0
  6
BYBLOCK
100
AcDbLine
 10
3700.424837362935
 20
-1733.405132916765
 30
0.0
 11
3706.424837362935
 21
-1731.797437776765
 31
0.0
  0
LINE
  5
1B2B9
330
18
100
AcDbEntity
  8
0
  6
BYBLOCK
100
AcDbLine
 10
3700.424837362935
 20
-1733.405132916765
 30
0.0
 11
3706.424837362935
 21
-1733.405132916765
 31
0.0
  0
LINE
  5
1B2BA
330
18
100
AcDbEntity
  8
0
  6
BYBLOCK
100
AcDbLine
 10
3774.424837362933
 20
-1731.797437776765
 30
0.0
 11
3780.424837362933
 21
-1733.405132916765
 31
0.0
  0
LINE
  5
1B2BB
330
18
100
AcDbEntity
  8
0
  6
BYBLOCK
100
AcDbLine
 10
3780.424837362933
 20
-1733.405132916765
 30
0.0
 11
3774.424837362933
 21
-1735.012828056765
 31
0.0
  0
LINE
  5
1B2BC
330
18
100
AcDbEntity
  8
0
  6
BYBLOCK
100
AcDbLine
 10
3780.424837362933
 20
-1733.405132916765
 30
0.0
 11
3774.424837362933
 21
-1733.405132916765
 31
0.0
  0
TEXT
  5
1B2BD
330
18
100
AcDbEntity
  8
1DIM
  6
CONTINUOUS
100
AcDbText
 10
3721.831087362934
 20
-1731.305132916765
 30
0.0
 40
10.5
  1
P=80
100
AcDbText
1001
ACAD
1000
DSTYLE
1002
{
1070
    40
1040
3.0
1002
}
  0
LINE
  5
1B2BE
330
18
100
AcDbEntity
  8
0
  6
BYBLOCK
100
AcDbLine
 10
4283.28042574624
 20
-2185.138153377467
 30
0.0
 11
4281.67273060624
 21
-2191.138153377467
 31
0.0
  0
LINE
  5
1B2BF
330
18
100
AcDbEntity
  8
0
  6
BYBLOCK
100
AcDbLine
 10
4281.67273060624
 20
-2191.138153377467
 30
0.0
 11
4280.06503546624
 21
-2185.138153377467
 31
0.0
  0
LINE
  5
1B2C0
330
18
100
AcDbEntity
  8
0
  6
BYBLOCK
100
AcDbLine
 10
4281.67273060624
 20
-2191.138153377467
 30
0.0
 11
4281.67273060624
 21
-2185.138153377467
 31
0.0
  0
LINE
  5
1B2C1
330
18
100
AcDbEntity
  8
0
  6
BYBLOCK
100
AcDbLine
 10
4280.06503546624
 20
-1797.138153377467
 30
0.0
 11
4281.67273060624
 21
-1791.138153377467
 31
0.0
  0
LINE
  5
1B2C2
330
18
100
AcDbEntity
  8
0
  6
BYBLOCK
100
AcDbLine
 10
4281.67273060624
 20
-1791.138153377467
 30
0.0
 11
4283.28042574624
 21
-1797.138153377467
 31
0.0
  0
LINE
  5
1B2C3
330
18
100
AcDbEntity
  8
0
  6
BYBLOCK
100
AcDbLine
 10
4281.67273060624
 20
-1791.138153377467
 30
0.0
 11
4281.67273060624
 21
-1797.138153377467
 31
0.0
  0
TEXT
  5
1B2C4
330
18
100
AcDbEntity
  8
1DIM
  6
CONTINUOUS
100
AcDbText
 10
4279.57273060624
 20
-2014.106903377467
 30
0.0
 40
10.5
  1
P=400
 50
90.0
100
AcDbText
1001
ACAD
1000
DSTYLE
1002
{
1070
    40
1040
3.0
1002
}
  0
LINE
  5
1B2C5
330
18
100
AcDbEntity
  8
0
  6
BYBLOCK
100
AcDbLine
 10
4306.461625930291
 20
-2351.138153377467
 30
0.0
 11
4304.853930790291
 21
-2357.138153377467
 31
0.0
  0
LINE
  5
1B2C6
330
18
100
AcDbEntity
  8
0
  6
BYBLOCK
100
AcDbLine
 10
4304.853930790291
 20
-2357.138153377467
 30
0.0
 11
4303.246235650291
 21
-2351.138153377467
 31
0.0
  0
LINE
  5
1B2C7
330
18
100
AcDbEntity
  8
0
  6
BYBLOCK
100
AcDbLine
 10
4304.853930790291
 20
-2357.138153377467
 30
0.0
 11
4304.853930790291
 21
-2351.138153377467
 31
0.0
  0
LINE
  5
1B2C8
330
18
100
AcDbEntity
  8
0
  6
BYBLOCK
100
AcDbLine
 10
4303.246235650291
 20
-1747.638153377467
 30
0.0
 11
4304.853930790291
 21
-1741.638153377467
 31
0.0
  0
LINE
  5
1B2C9
330
18
100
AcDbEntity
  8
0
  6
BYBLOCK
100
AcDbLine
 10
4304.853930790291
 20
-1741.638153377467
 30
0.0
 11
4306.461625930291
 21
-1747.638153377467
 31
0.0
  0
LINE
  5
1B2CA
330
18
100
AcDbEntity
  8
0
  6
BYBLOCK
100
AcDbLine
 10
4304.853930790291
 20
-1741.638153377467
 30
0.0
 11
4304.853930790291
 21
-1747.638153377467
 31
0.0
  0
TEXT
  5
1B2CB
330
18
100
AcDbEntity
  8
1DIM
  6
CONTINUOUS
100
AcDbText
 10
4302.753930790291
 20
-2068.711070044134
 30
0.0
 40
10.5
  1
615.5
 50
90.0
100
AcDbText
1001
ACAD
1000
DSTYLE
1002
{
1070
    40
1040
3.0
1002
}
  0
LINE
  5
1B2CC
330
18
100
AcDbEntity
  8
0
  6
BYBLOCK
100
AcDbLine
 10
4283.28042574624
 20
-1785.138153377467
 30
0.0
 11
4281.67273060624
 21
-1791.138153377467
 31
0.0
  0
LINE
  5
1B2CD
330
18
100
AcDbEntity
  8
0
  6
BYBLOCK
100
AcDbLine
 10
4281.67273060624
 20
-1791.138153377467
 30
0.0
 11
4280.06503546624
 21
-1785.138153377467
 31
0.0
  0
LINE
  5
1B2CE
330
18
100
AcDbEntity
  8
0
  6
BYBLOCK
100
AcDbLine
 10
4281.67273060624
 20
-1791.138153377467
 30
0.0
 11
4281.67273060624
 21
-1785.138153377467
 31
0.0
  0
LINE
  5
1B2CF
330
18
100
AcDbEntity
  8
0
  6
BYBLOCK
100
AcDbLine
 10
4280.06503546624
 20
-1747.638153377467
 30
0.0
 11
4281.67273060624
 21
-1741.638153377467
 31
0.0
  0
LINE
  5
1B2D0
330
18
100
AcDbEntity
  8
0
  6
BYBLOCK
100
AcDbLine
 10
4281.67273060624
 20
-1741.638153377467
 30
0.0
 11
4283.28042574624
 21
-1747.638153377467
 31
0.0
  0
LINE
  5
1B2D1
330
18
100
AcDbEntity
  8
0
  6
BYBLOCK
100
AcDbLine
 10
4281.67273060624
 20
-1741.638153377467
 30
0.0
 11
4281.67273060624
 21
-1747.638153377467
 31
0.0
  0
TEXT
  5
1B2D2
330
18
100
AcDbEntity
  8
1DIM
  6
CONTINUOUS
100
AcDbText
 10
4279.57273060624
 20
-1782.140583933023
 30
0.0
 40
10.5
  1
49.5
 50
90.0
100
AcDbText
1001
ACAD
1000
DSTYLE
1002
{
1070
    40
1040
3.0
1002
}
  0
LINE
  5
1B2D3
330
18
100
AcDbEntity
  8
0
  6
BYBLOCK
100
AcDbLine
 10
4084.033104794706
 20
-1714.523101382189
 30
0.0
 11
4078.033104794706
 21
-1712.915406242189
 31
0.0
  0
LINE
  5
1B2D4
330
18
100
AcDbEntity
  8
0
  6
BYBLOCK
100
AcDbLine
 10
4078.033104794706
 20
-1712.915406242189
 30
0.0
 11
4084.033104794706
 21
-1711.307711102189
 31
0.0
  0
LINE
  5
1B2D5
330
18
100
AcDbEntity
  8
0
  6
BYBLOCK
100
AcDbLine
 10
4078.033104794706
 20
-1712.915406242189
 30
0.0
 11
4084.033104794706
 21
-1712.915406242189
 31
0.0
  0
LINE
  5
1B2D6
330
18
100
AcDbEntity
  8
0
  6
BYBLOCK
100
AcDbLine
 10
4208.533104794706
 20
-1711.307711102189
 30
0.0
 11
4214.533104794706
 21
-1712.915406242189
 31
0.0
  0
LINE
  5
1B2D7
330
18
100
AcDbEntity
  8
0
  6
BYBLOCK
100
AcDbLine
 10
4214.533104794706
 20
-1712.915406242189
 30
0.0
 11
4208.533104794706
 21
-1714.523101382189
 31
0.0
  0
LINE
  5
1B2D8
330
18
100
AcDbEntity
  8
0
  6
BYBLOCK
100
AcDbLine
 10
4214.533104794706
 20
-1712.915406242189
 30
0.0
 11
4208.533104794706
 21
-1712.915406242189
 31
0.0
  0
TEXT
  5
1B2D9
330
18
100
AcDbEntity
  8
1DIM
  6
CONTINUOUS
100
AcDbText
 10
4126.996646461373
 20
-1710.81540624219
 30
0.0
 40
10.5
  1
136.5
100
AcDbText
1001
ACAD
1000
DSTYLE
1002
{
1070
    40
1040
3.0
1002
}
  0
LINE
  5
1B2DA
330
18
100
AcDbEntity
  8
0
  6
BYBLOCK
100
AcDbLine
 10
4112.283104794706
 20
-1735.012828056765
 30
0.0
 11
4106.283104794706
 21
-1733.405132916765
 31
0.0
  0
LINE
  5
1B2DB
330
18
100
AcDbEntity
  8
0
  6
BYBLOCK
100
AcDbLine
 10
4106.283104794706
 20
-1733.405132916765
 30
0.0
 11
4112.283104794706
 21
-1731.797437776765
 31
0.0
  0
LINE
  5
1B2DC
330
18
100
AcDbEntity
  8
0
  6
BYBLOCK
100
AcDbLine
 10
4106.283104794706
 20
-1733.405132916765
 30
0.0
 11
4112.283104794706
 21
-1733.405132916765
 31
0.0
  0
LINE
  5
1B2DD
330
18
100
AcDbEntity
  8
0
  6
BYBLOCK
100
AcDbLine
 10
4180.283104794704
 20
-1731.797437776765
 30
0.0
 11
4186.283104794704
 21
-1733.405132916765
 31
0.0
  0
LINE
  5
1B2DE
330
18
100
AcDbEntity
  8
0
  6
BYBLOCK
100
AcDbLine
 10
4186.283104794704
 20
-1733.405132916765
 30
0.0
 11
4180.283104794704
 21
-1735.012828056765
 31
0.0
  0
LINE
  5
1B2DF
330
18
100
AcDbEntity
  8
0
  6
BYBLOCK
100
AcDbLine
 10
4186.283104794704
 20
-1733.405132916765
 30
0.0
 11
4180.283104794704
 21
-1733.405132916765
 31
0.0
  0
TEXT
  5
1B2E0
330
18
100
AcDbEntity
  8
1DIM
  6
CONTINUOUS
100
AcDbText
 10
4127.689354794705
 20
-1731.305132916765
 30
0.0
 40
10.5
  1
P=80
100
AcDbText
1001
ACAD
1000
DSTYLE
1002
{
1070
    40
1040
3.0
1002
}
  0
LINE
  5
1B2E1
330
18
100
AcDbEntity
  8
0
  6
BYBLOCK
100
AcDbLine
 10
4239.035279395949
 20
-1927.138153375188
 30
0.0
 11
4237.427584255949
 21
-1933.138153375188
 31
0.0
  0
LINE
  5
1B2E2
330
18
100
AcDbEntity
  8
0
  6
BYBLOCK
100
AcDbLine
 10
4237.427584255949
 20
-1933.138153375188
 30
0.0
 11
4235.819889115949
 21
-1927.138153375188
 31
0.0
  0
LINE
  5
1B2E3
330
18
100
AcDbEntity
  8
0
  6
BYBLOCK
100
AcDbLine
 10
4237.427584255949
 20
-1933.138153375188
 30
0.0
 11
4237.427584255949
 21
-1927.138153375188
 31
0.0
  0
LINE
  5
1B2E4
330
18
100
AcDbEntity
  8
0
  6
BYBLOCK
100
AcDbLine
 10
4235.819889115949
 20
-1797.138153377467
 30
0.0
 11
4237.427584255949
 21
-1791.138153377467
 31
0.0
  0
LINE
  5
1B2E5
330
18
100
AcDbEntity
  8
0
  6
BYBLOCK
100
AcDbLine
 10
4237.427584255949
 20
-1791.138153377467
 30
0.0
 11
4239.035279395949
 21
-1797.138153377467
 31
0.0
  0
LINE
  5
1B2E6
330
18
100
AcDbEntity
  8
0
  6
BYBLOCK
100
AcDbLine
 10
4237.427584255949
 20
-1791.138153377467
 30
0.0
 11
4237.427584255949
 21
-1797.138153377467
 31
0.0
  0
TEXT
  5
1B2E7
330
18
100
AcDbEntity
  8
1DIM
  6
CONTINUOUS
100
AcDbText
 10
4235.327584255949
 20
-1874.388153376328
 30
0.0
 40
10.5
  1
142
 50
90.0
100
AcDbText
1001
ACAD
1000
DSTYLE
1002
{
1070
    40
1040
3.0
1002
}
  0
LINE
  5
1B2E8
330
18
100
AcDbEntity
  8
0
  6
BYBLOCK
100
AcDbLine
 10
4060.976479576242
 20
-2026.138153375188
 30
0.0
 11
4059.368784436242
 21
-2032.138153375188
 31
0.0
  0
LINE
  5
1B2E9
330
18
100
AcDbEntity
  8
0
  6
BYBLOCK
100
AcDbLine
 10
4059.368784436242
 20
-2032.138153375188
 30
0.0
 11
4057.761089296242
 21
-2026.138153375188
 31
0.0
  0
LINE
  5
1B2EA
330
18
100
AcDbEntity
  8
0
  6
BYBLOCK
100
AcDbLine
 10
4059.368784436242
 20
-2032.138153375188
 30
0.0
 11
4059.368784436242
 21
-2026.138153375188
 31
0.0
  0
LINE
  5
1B2EB
330
18
100
AcDbEntity
  8
0
  6
BYBLOCK
100
AcDbLine
 10
4057.761089296242
 20
-1840.138153375188
 30
0.0
 11
4059.368784436242
 21
-1834.138153375188
 31
0.0
  0
LINE
  5
1B2EC
330
18
100
AcDbEntity
  8
0
  6
BYBLOCK
100
AcDbLine
 10
4059.368784436242
 20
-1834.138153375188
 30
0.0
 11
4060.976479576242
 21
-1840.138153375188
 31
0.0
  0
LINE
  5
1B2ED
330
18
100
AcDbEntity
  8
0
  6
BYBLOCK
100
AcDbLine
 10
4059.368784436242
 20
-1834.138153375188
 30
0.0
 11
4059.368784436242
 21
-1840.138153375188
 31
0.0
  0
TEXT
  5
1B2EE
330
18
100
AcDbEntity
  8
1DIM
  6
CONTINUOUS
100
AcDbText
 10
4057.268784436242
 20
-1977.065583930744
 30
0.0
 40
10.5
  1
逃げ穴寸法198
 50
90.0
100
AcDbText
1001
ACAD
1000
DSTYLE
1002
{
1070
    40
1040
3.0
1002
}
  0
LINE
  5
1B2EF
330
18
100
AcDbEntity
  8
0
  6
BYBLOCK
100
AcDbLine
 10
4097.283104794705
 20
-1821.48038636283
 30
0.0
 11
4091.283104794705
 21
-1819.87269122283
 31
0.0
  0
LINE
  5
1B2F0
330
18
100
AcDbEntity
  8
0
  6
BYBLOCK
100
AcDbLine
 10
4091.283104794705
 20
-1819.87269122283
 30
0.0
 11
4097.283104794705
 21
-1818.26499608283
 31
0.0
  0
LINE
  5
1B2F1
330
18
100
AcDbEntity
  8
0
  6
BYBLOCK
100
AcDbLine
 10
4091.283104794705
 20
-1819.87269122283
 30
0.0
 11
4097.283104794705
 21
-1819.87269122283
 31
0.0
  0
LINE
  5
1B2F2
330
18
100
AcDbEntity
  8
0
  6
BYBLOCK
100
AcDbLine
 10
4195.283104794705
 20
-1818.26499608283
 30
0.0
 11
4201.283104794705
 21
-1819.87269122283
 31
0.0
  0
LINE
  5
1B2F3
330
18
100
AcDbEntity
  8
0
  6
BYBLOCK
100
AcDbLine
 10
4201.283104794705
 20
-1819.87269122283
 30
0.0
 11
4195.283104794705
 21
-1821.48038636283
 31
0.0
  0
LINE
  5
1B2F4
330
18
100
AcDbEntity
  8
0
  6
BYBLOCK
100
AcDbLine
 10
4201.283104794705
 20
-1819.87269122283
 30
0.0
 11
4195.283104794705
 21
-1819.87269122283
 31
0.0
  0
TEXT
  5
1B2F5
330
18
100
AcDbEntity
  8
1DIM
  6
CONTINUOUS
100
AcDbText
 10
4104.764354794705
 20
-1817.77269122283
 30
0.0
 40
10.5
  1
逃げ穴寸法110
100
AcDbText
1001
ACAD
1000
DSTYLE
1002
{
1070
    40
1040
3.0
1002
}
  0
TEXT
  5
1B2F6
330
18
100
AcDbEntity
  8
1DIM
  6
CONTINUOUS
100
AcDbText
 10
4045.534021911523
 20
-1808.633035630992
 30
0.0
 40
10.5
  1
R5
 50
331.0225276132263
100
AcDbText
1001
ACAD
1000
DSTYLE
1002
{
1070
    40
1040
3.0
1002
}
1001
ACAD_DSTYLE_DIMRADIAL_EXTE
1070
   387
1070
     1
1070
   388
1040
1.570796326794897
1070
   390
1040
3.141592653589793
  0
LINE
  5
1B2F7
330
18
100
AcDbEntity
  8
0
  6
BYBLOCK
100
AcDbLine
 10
4087.439065112138
 20
-1832.402602487818
 30
0.0
 11
4091.90905350734
 21
-1836.715824880639
 31
0.0
  0
LINE
  5
1B2F8
330
18
100
AcDbEntity
  8
0
  6
BYBLOCK
100
AcDbLine
 10
4091.90905350734
 20
-1836.715824880639
 30
0.0
 11
4085.881318812869
 21
-1835.21545888654
 31
0.0
  0
LINE
  5
1B2F9
330
18
100
AcDbEntity
  8
0
  6
BYBLOCK
100
AcDbLine
 10
4091.90905350734
 20
-1836.715824880639
 30
0.0
 11
4086.660191962503
 21
-1833.809030687179
 31
0.0
  0
VIEWPORT
  5
57
330
15
100
AcDbEntity
 67
     1
  8
0
100
AcDbViewport
 68
     1
 10
0.0
 20
0.0
 30
0.0
 40
560.5875
 41
297.0
 68
     1
 69
     1
1001
ACAD
1000
MVIEW
1002
{
1070
    16
1010
0.0
1020
0.0
1030
0.0
1010
0.0
1020
0.0
1030
1.0
1040
0.0
1040
297.0
1040
-4.272048862584541
1040
18.33904653606845
1040
50.0
1040
0.0
1040
0.0
1070
    16
1070
   100
1070
     0
1070
     1
1070
     0
1070
     0
1070
     0
1070
     0
1040
0.0
1040
0.0
1040
0.0
1040
10.0
1040
10.0
1040
10.0
1040
10.0
1070
     0
1002
{
1002
}
1002
}
  0
ENDSEC
  0
SECTION
  2
OBJECTS
  0
DICTIONARY
  5
C
330
0
100
AcDbDictionary
  3
ACAD_COLOR
350
2D0
  3
ACAD_GROUP
350
D
  3
ACAD_LAYOUT
350
2D1
  3
ACAD_MATERIAL
350
2CF
  3
ACAD_MLEADERSTYLE
350
15B98
  3
ACAD_MLINESTYLE
350
1B
  3
ACAD_PLOTSETTINGS
350
2D2
  3
ACAD_SCALELIST
350
15B76
  3
ACAD_VISUALSTYLE
350
15B65
  3
ACDBHEADERROUNDTRIPXREC
350
1B2FA
  3
ACDBVARIABLEDICTIONARY
350
37
  3
AEC_PROPERTY_SET_DEFS
350
1767D
  3
CONTENTDICTIONARY
350
D8
  3
DRAWINGVARIABLESDICT
350
20
  3
DWGPROPS
350
1B2FD
1001
ACAD
1000
TREAT_AS_HARD
1070
     0
  0
DICTIONARY
  5
14EC2
330
2
100
AcDbDictionary
  3
ACAD_LAYERSTATES
360
14EC3
1001
ACAD
1000
TREAT_AS_HARD
1070
     1
  0
DICTIONARY
  5
15BB5
330
E
100
AcDbDictionary
  3
ADSK_XREC_LAYER_RECONCILED
360
15BB6
1001
ACAD
1000
TREAT_AS_HARD
1070
     1
  0
DICTIONARY
  5
15BB7
330
29
100
AcDbDictionary
  3
ADSK_XREC_LAYER_RECONCILED
360
15BB8
1001
ACAD
1000
TREAT_AS_HARD
1070
     1
  0
DICTIONARY
  5
15BB9
330
31
100
AcDbDictionary
  3
ADSK_XREC_LAYER_RECONCILED
360
15BBA
1001
ACAD
1000
TREAT_AS_HARD
1070
     1
  0
DICTIONARY
  5
15BC3
330
101
100
AcDbDictionary
  3
ADSK_XREC_LAYER_RECONCILED
360
15BC4
1001
ACAD
1000
TREAT_AS_HARD
1070
     1
  0
DICTIONARY
  5
15BC5
330
102
100
AcDbDictionary
  3
ADSK_XREC_LAYER_RECONCILED
360
15BC6
1001
ACAD
1000
TREAT_AS_HARD
1070
     1
  0
DICTIONARY
  5
15BC7
330
103
100
AcDbDictionary
  3
ADSK_XREC_LAYER_RECONCILED
360
15BC8
1001
ACAD
1000
TREAT_AS_HARD
1070
     1
  0
DICTIONARY
  5
15BCB
330
25F
100
AcDbDictionary
  3
ADSK_XREC_LAYER_RECONCILED
360
15BCC
1001
ACAD
1000
TREAT_AS_HARD
1070
     1
  0
DICTIONARY
  5
6E9
330
18
100
AcDbDictionary
  3
ACAD_SORTENTS
360
6EA
1001
ACAD
1000
TREAT_AS_HARD
1070
     1
  0
DICTIONARY
  5
59B
330
15
100
AcDbDictionary
  3
ACAD_SORTENTS
360
59C
1001
ACAD
1000
TREAT_AS_HARD
1070
     1
  0
DICTIONARY
  5
2D0
102
{ACAD_REACTORS
330
C
102
}
330
C
100
AcDbDictionary
1001
ACAD
1000
TREAT_AS_HARD
1070
     0
  0
DICTIONARY
  5
D
102
{ACAD_REACTORS
330
C
102
}
330
C
100
AcDbDictionary
  3
*A1
350
1A11B
  3
*A2
350
1A15C
  3
*A3
350
1A263
  3
*A4
350
1A264
1001
ACAD
1000
TREAT_AS_HARD
1070
     0
  0
DICTIONARY
  5
2D1
102
{ACAD_REACTORS
330
C
102
}
330
C
100
AcDbDictionary
1001
ACAD
1000
TREAT_AS_HARD
1070
     0
  0
DICTIONARY
  5
2CF
102
{ACAD_REACTORS
330
C
102
}
330
C
100
AcDbDictionary
  3
BYBLOCK
350
15B55
  3
BYLAYER
350
15B4D
  3
GLOBAL
350
15B5D
1001
ACAD
1000
TREAT_AS_HARD
1070
     0
  0
DICTIONARY
  5
15B98
102
{ACAD_REACTORS
330
C
102
}
330
C
100
AcDbDictionary
  3
STANDARD
350
15B99
1001
ACAD
1000
TREAT_AS_HARD
1070
     0
  0
DICTIONARY
  5
1B
102
{ACAD_REACTORS
330
C
102
}
330
C
100
AcDbDictionary
  3
STANDARD
350
1C
1001
ACAD
1000
TREAT_AS_HARD
1070
     0
  0
DICTIONARY
  5
2D2
102
{ACAD_REACTORS
330
C
102
}
330
C
100
AcDbDictionary
1001
ACAD
1000
TREAT_AS_HARD
1070
     0
  0
DICTIONARY
  5
15B76
102
{ACAD_REACTORS
330
C
102
}
330
C
100
AcDbDictionary
  3
A0
350
15B77
  3
A1
350
15B78
  3
A2
350
15B79
  3
A3
350
15B7A
  3
A4
350
15B7B
  3
A5
350
15B7C
  3
A6
350
15B7D
  3
A7
350
15B7E
  3
A8
350
15B7F
  3
A9
350
15B80
  3
B0
350
15B81
  3
B1
350
15B82
  3
B2
350
15B83
  3
B3
350
15B84
  3
B4
350
15B85
  3
B5
350
15B86
  3
B6
350
15B87
  3
B7
350
15B88
  3
B8
350
15B89
  3
B9
350
15B8A
  3
C0
350
15B8B
  3
C1
350
15B8C
  3
C2
350
15B8D
  3
C3
350
15B8E
  3
C4
350
15B8F
  3
C5
350
15B90
  3
C6
350
15B91
  3
C7
350
15B92
  3
C8
350
15B93
  3
C9
350
15B94
  3
D0
350
15B95
  3
D1
350
15B96
  3
D2
350
15B97
1001
ACAD
1000
TREAT_AS_HARD
1070
     0
  0
DICTIONARY
  5
15B65
102
{ACAD_REACTORS
330
C
102
}
330
C
100
AcDbDictionary
  3
2DWIREFRAME
350
15B6B
  3
3D_HIDDEN
350
15B6D
  3
3DWIREFRAME
350
15B6C
  3
BASIC
350
15B6A
  3
BRIGHTEN
350
15B71
  3
COLORCHANGE
350
15B75
  3
CONCEPTUAL
350
15B6E
  3
DIM
350
15B70
  3
EDGECOLOROFF
350
174DB
  3
FACEPATTERN
350
15B74
  3
FLAT
350
15B66
  3
FLATWITHEDGES
350
15B67
  3
GOURAUD
350
15B68
  3
GOURAUDWITHEDGES
350
15B69
  3
HIDDEN
350
1ADBE
  3
JITTEROFF
350
174D9
  3
LINEPATTERN
350
15B73
  3
MODELING
350
1ADC4
  3
OVERHANGOFF
350
174DA
  3
REALISTIC
350
15B6F
  3
SHADED
350
1ADC3
  3
SHADED_WITH_EDGES
350
1ADC2
  3
SHADES_OF_GRAY
350
1ADBF
  3
SKETCHY
350
1ADC0
  3
THICKEN
350
15B72
  3
WIREFRAME
350
1ADBD
  3
X-RAY
350
1ADC1
1001
ACAD
1000
TREAT_AS_HARD
1070
     0
  0
DICTIONARY
  5
1B2FA
102
{ACAD_REACTORS
330
C
102
}
330
C
100
AcDbDictionary
  3
COLORDICT
350
1B2FB
  3
MATERIALDICT
350
1B2FC
1001
ACAD
1000
TREAT_AS_HARD
1070
     0
  0
DICTIONARY
  5
37
102
{ACAD_REACTORS
330
C
102
}
330
C
100
AcDbDictionary
  3
CANNOSCALE
350
1ADC6
  3
CMLEADERSTYLE
350
15C4B
  3
CTABLESTYLE
350
4F1
  3
DIMADEC
350
38
  3
DIMASSOC
350
408
  3
HIDETEXT
350
1891
  3
INDEXCTL
350
15C4E
  3
INTERSECTIONCOLOR
350
1895
  3
INTERSECTIONDISPLAY
350
1894
  3
MSLTSCALE
350
1ADC7
  3
OBSCOLOR
350
1892
  3
OBSLTYPE
350
1893
  3
PROJECTNAME
350
409
  3
SORTENTS
350
15C4D
  3
XCLIPFRAME
350
1ADBC
1001
ACAD
1000
TREAT_AS_HARD
1070
     0
  0
DICTIONARY
  5
1767D
102
{ACAD_REACTORS
330
C
102
}
330
C
100
AcDbDictionary
1001
ACAD
1000
TREAT_AS_HARD
1070
     0
  0
DICTIONARY
  5
D8
102
{ACAD_REACTORS
330
C
102
}
330
C
100
AcDbDictionary
1001
CONTENTTABDATA
1070
    11
1000
Child
1000
D:\ACLT\TABset\CHILDREN.dwg
1070
     0
1070
     0
1070
     1
1000
PK
1000
D:\ACLT\TABset\PK.dwg
1070
     0
1070
     0
1070
     1
1000
Lev1
1000
D:\ACLT\TABset\Lever01.dwg
1070
     0
1070
     0
1070
     1
1000
Lev2
1000
D:\ACLT\TABset\Lever02.dwg
1070
     0
1070
     0
1070
     1
1000
L3
1000
D:\Aclt\TABset\Lever03.dwg
1070
     0
1070
     0
1070
     1
1000
Form
1000
D:\ACLT\FORMAT
1070
     1
1070
     0
1070
     1
1000
Jnt
1000
D:\ACLT\TABset\JOINTPARTS.dwg
1070
     0
1070
     0
1070
     1
1000
ISO
1000
D:\ACLT\TABset\Isome01.dwg
1070
     0
1070
     0
1070
     1
1000
R
1000
D:\ACLT\TABset\REGION.dwg
1070
     0
1070
     0
1070
     1
1000
std
1000
D:\ACLT\TABset\std_sym_all.dwg
1070
     0
1070
     0
1070
     1
1000
丸
1000
D:\Aclt\TABset\MARU.dwg
1070
     0
1070
     0
1070
     1
1001
CONTENTCURRENTTAB
1070
     0
1001
ACAD
1000
TREAT_AS_HARD
1070
     0
  0
DICTIONARY
  5
20
102
{ACAD_REACTORS
330
C
102
}
330
C
100
AcDbDictionary
1001
DRAWINGVARIABLESXDATA
1000
POLARANG
1000
0.261799387799149410000000
1000
POLARMODE
1000
1
1000
POLARSTYLE
1000
1
1001
ACAD
1000
TREAT_AS_HARD
1070
     0
  0
XRECORD
  5
1B2FD
102
{ACAD_REACTORS
330
C
102
}
330
C
100
AcDbXrecord
  1
DWGPROPS COOKIE
  2

  3

  4

  6

  7

  8
619
  9

300
=
301
=
302
=
303
=
304
=
305
=
306
=
307
=
308
=
309
=
 40
0.0
 41
2453033.357663484
 42
2458396.05414162
  1

 90
        0
  0
DICTIONARY
  5
14EC3
102
{ACAD_REACTORS
330
14EC2
102
}
330
14EC2
100
AcDbDictionary
1001
ACAD
1000
TREAT_AS_HARD
1070
     0
  0
ACAD_PROXY_OBJECT
  5
15BB6
102
{ACAD_REACTORS
330
15BB5
102
}
330
15BB5
100
AcDbZombieObject
 90
      499
 91
      518
 93
       34
310
40C8804040
  0
ACAD_PROXY_OBJECT
  5
15BB8
102
{ACAD_REACTORS
330
15BB7
102
}
330
15BB7
100
AcDbZombieObject
 90
      499
 91
      518
 93
       34
310
40C8804040
  0
ACAD_PROXY_OBJECT
  5
15BBA
102
{ACAD_REACTORS
330
15BB9
102
}
330
15BB9
100
AcDbZombieObject
 90
      499
 91
      518
 93
       34
310
40C8804040
  0
ACAD_PROXY_OBJECT
  5
15BC4
102
{ACAD_REACTORS
330
15BC3
102
}
330
15BC3
100
AcDbZombieObject
 90
      499
 91
      518
 93
       34
310
40C8804040
  0
ACAD_PROXY_OBJECT
  5
15BC6
102
{ACAD_REACTORS
330
15BC5
102
}
330
15BC5
100
AcDbZombieObject
 90
      499
 91
      518
 93
       34
310
40C8804040
  0
ACAD_PROXY_OBJECT
  5
15BC8
102
{ACAD_REACTORS
330
15BC7
102
}
330
15BC7
100
AcDbZombieObject
 90
      499
 91
      518
 93
       34
310
40C8804040
  0
ACAD_PROXY_OBJECT
  5
15BCC
102
{ACAD_REACTORS
330
15BCB
102
}
330
15BCB
100
AcDbZombieObject
 90
      499
 91
      518
 93
       34
310
40C8804040
  0
SORTENTSTABLE
  5
6EA
102
{ACAD_REACTORS
330
6E9
102
}
330
6E9
100
AcDbSortentsTable
330
18
331
0
  5
17E40
331
18545
  5
1855B
331
18546
  5
18AA3
331
18547
  5
18AC3
331
18548
  5
18AC4
331
18549
  5
18EE7
331
1854B
  5
18EEA
331
1854C
  5
18EEB
331
1854D
  5
18EF1
331
1854E
  5
18EF2
331
1854F
  5
18EF3
331
18551
  5
18EF4
331
18552
  5
18EF5
331
18553
  5
18EF6
331
18554
  5
18F09
331
18555
  5
18F0A
331
18556
  5
18F0B
331
18557
  5
18F0C
331
18558
  5
18F0D
331
18559
  5
18F0E
331
1855B
  5
18F0F
331
18AA3
  5
18FD9
331
18AC3
  5
19301
331
18EE8
  5
19302
331
18EE9
  5
1930C
331
18EEA
  5
1930F
331
18EEB
  5
19310
331
18EF1
  5
19311
331
18EF2
  5
19312
331
18EF3
  5
19316
331
18EF4
  5
19317
331
18EF5
  5
19318
331
18EF6
  5
19319
331
18F29
  5
1931A
331
18F2A
  5
1931B
331
18F2B
  5
1931C
331
18F2C
  5
1931D
331
18F31
  5
1931E
331
19305
  5
1931F
331
19306
  5
19320
331
19307
  5
19321
331
19308
  5
19322
331
19309
  5
19323
331
1930A
  5
19324
331
1930B
  5
19325
331
1930C
  5
19326
331
1930D
  5
19327
331
1930E
  5
19328
331
1930F
  5
19329
331
19310
  5
1932A
331
19311
  5
1932B
331
19312
  5
1932C
331
19313
  5
1932D
331
19314
  5
1932E
331
19315
  5
1932F
331
19316
  5
19330
331
19317
  5
19331
331
19318
  5
19332
331
19319
  5
19333
331
1931A
  5
19334
331
1931B
  5
19335
331
1931C
  5
19336
331
1931D
  5
19337
331
1931E
  5
19338
331
1931F
  5
19339
331
19320
  5
1933A
331
19321
  5
1933B
331
19322
  5
1933C
331
19323
  5
1933D
331
19324
  5
1933E
331
19325
  5
1933F
331
19326
  5
19340
331
19327
  5
19341
331
19328
  5
19342
331
19329
  5
19343
331
1932A
  5
19344
331
1932B
  5
19345
331
1932C
  5
19346
331
1932D
  5
19347
331
1932E
  5
19348
331
1932F
  5
19349
331
19330
  5
1934A
331
19331
  5
1934B
331
19332
  5
19EA2
331
19333
  5
19EAA
331
19334
  5
19EAB
331
19335
  5
19EAC
331
19336
  5
19EAE
331
19337
  5
19EAF
331
19338
  5
19EB1
331
19339
  5
19EB2
331
1933A
  5
19EB3
331
1933B
  5
19EB4
331
1933C
  5
19EB5
331
1933D
  5
19EB6
331
1933E
  5
19EB7
331
1933F
  5
19EB8
331
19340
  5
19EB9
331
19341
  5
19EBA
331
19342
  5
19EBB
331
19343
  5
19EBC
331
19344
  5
19EBD
331
19E9B
  5
19EBE
331
19E9C
  5
19EBF
331
19E9D
  5
19EC0
331
19E9E
  5
19EF9
331
19EA0
  5
19F38
331
19EA1
  5
19F39
331
19EAA
  5
19F3A
331
19EAB
  5
19F3B
331
19EAC
  5
19F50
331
19EAD
  5
19F51
331
19EAE
  5
19F52
331
19EAF
  5
19F53
331
19EB0
  5
19F54
331
19EB1
  5
19F56
331
19EB2
  5
19F58
331
19EB3
  5
19F5B
331
19EB4
  5
19F85
331
19EB5
  5
19F86
331
19EB6
  5
19F87
331
19EB7
  5
19F88
331
19EB8
  5
19F8C
331
19EB9
  5
19F8D
331
19EBA
  5
19F90
331
19EBB
  5
19F91
331
19EBC
  5
19FC6
331
19EBD
  5
19FC7
331
19EBE
  5
19FC8
331
19EBF
  5
19FC9
331
19EC0
  5
19FCA
331
19EF9
  5
19FDE
331
19F38
  5
19FEA
331
19F39
  5
19FEB
331
19F3A
  5
19FEC
331
19F3B
  5
19FED
331
19F50
  5
19FEE
331
19F51
  5
19FEF
331
19F52
  5
1A0DE
331
19F53
  5
1A0DF
331
19F54
  5
1A0E0
331
19F56
  5
1A0E1
331
19F58
  5
1A0E2
331
19F5B
  5
1A0E3
331
19F85
  5
1A10A
331
19F86
  5
1A10B
331
19F87
  5
1A10F
331
19F8B
  5
1A110
331
19F8C
  5
1A111
331
19F8D
  5
1A113
331
19FAB
  5
1A118
331
19FC5
  5
1A119
331
19FC6
  5
1A11C
331
19FC7
  5
1A11D
331
19FC8
  5
1A11E
331
19FEA
  5
1A11F
331
19FEB
  5
1A120
331
19FEC
  5
1A121
331
19FED
  5
1A122
331
19FEE
  5
1A123
331
19FEF
  5
1A124
331
19FF0
  5
1A125
331
19FF1
  5
1A126
331
19FF2
  5
1A127
331
1A0DE
  5
1A128
331
1A0DF
  5
1A129
331
1A0E0
  5
1A12A
331
1A0E1
  5
1A12B
331
1A0E2
  5
1A12C
331
1A0E3
  5
1A12D
331
1A10A
  5
1A112
331
1A10B
  5
1A12E
331
1A10F
  5
19313
331
1A110
  5
19315
331
1A111
  5
1930E
331
1A112
  5
19314
331
1A113
  5
1930D
331
1A118
  5
1A12F
331
1A11A
  5
192D3
331
1A11C
  5
1A130
331
1A11D
  5
1A131
331
1A11E
  5
1A132
331
1A11F
  5
1A133
331
1A120
  5
1A134
331
1A121
  5
1A135
331
1A122
  5
1A136
331
1A123
  5
1A137
331
1A124
  5
1A138
331
1A125
  5
1A139
331
1A126
  5
1A13A
331
1A127
  5
1A13B
331
1A128
  5
1A13C
331
1A129
  5
1A13D
331
1A12A
  5
1A13E
331
1A12B
  5
1A13F
331
1A12C
  5
1A140
331
1A12D
  5
1A141
331
1A12E
  5
1A142
331
1A12F
  5
1A143
331
1A130
  5
1A144
331
1A131
  5
1A145
331
1A132
  5
1A146
331
1A133
  5
1A147
331
1A134
  5
1A148
331
1A135
  5
1A149
331
1A136
  5
1A14A
331
1A137
  5
1A14B
331
1A138
  5
1A14C
331
1A139
  5
1A14D
331
1A13A
  5
1A14E
331
1A13B
  5
1A14F
331
1A13C
  5
1A150
331
1A13D
  5
1A151
331
1A13E
  5
1A152
331
1A13F
  5
1A153
331
1A140
  5
1A154
331
1A141
  5
1A155
331
1A142
  5
1A156
331
1A143
  5
1A157
331
1A144
  5
1A158
331
1A145
  5
1A159
331
1A146
  5
1A15A
331
1A147
  5
1A15B
331
1A148
  5
1A15D
331
1A149
  5
1A16C
331
1A14A
  5
1A17A
331
1A14B
  5
1A188
331
1A14C
  5
1A189
331
1A14D
  5
1A18A
331
1A14E
  5
1A18B
331
1A14F
  5
1A18C
331
1A150
  5
1A1AB
331
1A151
  5
1A1D5
331
1A152
  5
1A1D6
331
1A153
  5
1A1D7
331
1A154
  5
1A1D8
331
1A155
  5
1A1D9
331
1A156
  5
1A1DA
331
1A157
  5
1A1DB
331
1A158
  5
1A1DC
331
1A159
  5
1A1DD
331
1A15A
  5
1A1DE
331
1A15B
  5
1A1DF
331
1A15D
  5
18FD8
331
0
  5
1A1E0
331
0
  5
1A1E1
331
1A188
  5
1A201
331
1A189
  5
1A202
331
1A18A
  5
1A203
331
1A18B
  5
1A204
331
1A18C
  5
1A205
331
0
  5
1A1E7
331
1A1D5
  5
1A210
331
1A1D6
  5
1A211
331
1A1D7
  5
1A212
331
1A1D8
  5
1A213
331
1A1D9
  5
1A214
331
1A1DA
  5
1A215
331
1A1DB
  5
1A216
331
1A1DC
  5
1A217
331
1A1DD
  5
1A218
331
1A1DE
  5
1A219
331
1A1DF
  5
1A21A
331
1A1E0
  5
1A21B
331
1A1E1
  5
1A21C
331
1A1E2
  5
1A21D
331
1A1E3
  5
1A21E
331
1A1E4
  5
1A21F
331
1A1E5
  5
1A220
331
1A1E6
  5
1A221
331
1A1E7
  5
1A222
331
1A1E8
  5
1A223
331
1A1E9
  5
1A224
331
1A1EA
  5
1A225
331
1A1EB
  5
1A226
331
1A1EC
  5
1A227
331
1A1ED
  5
1A228
331
1A1EE
  5
1A229
331
1A1EF
  5
1A22A
331
1A1F0
  5
1A22B
331
1A1F1
  5
1A22C
331
1A1F2
  5
1A22D
331
1A1F3
  5
1A22E
331
1A1F4
  5
1A22F
331
1A1F5
  5
1A230
331
1A1F6
  5
1A231
331
1A1F7
  5
1A232
331
1A1F8
  5
1A233
331
1A1F9
  5
1A234
331
1A1FA
  5
1A235
331
1A1FB
  5
1A236
331
1A1FC
  5
1A237
331
1A1FD
  5
1A238
331
1A1FE
  5
1A239
331
1A1FF
  5
1A23A
331
1A200
  5
1A23B
331
1A201
  5
1A23C
331
1A202
  5
1A23D
331
1A203
  5
1A23E
331
1A204
  5
1A23F
331
1A205
  5
1A240
331
1A206
  5
1A241
331
1A207
  5
1A242
331
1A208
  5
1A243
331
1A209
  5
1A244
331
1A20A
  5
1A245
331
1A20B
  5
1A246
331
1A20C
  5
1A247
331
1A20D
  5
1A248
331
1A20E
  5
1A249
331
1A20F
  5
1A24A
331
1A210
  5
1A24B
331
1A211
  5
1A24C
331
1A212
  5
1A24D
331
1A213
  5
1A24E
331
1A214
  5
1A24F
331
1A215
  5
1A250
331
1A216
  5
1A251
331
1A217
  5
1A252
331
1A218
  5
1A253
331
1A219
  5
1A254
331
1A21A
  5
1A255
331
1A21B
  5
1A256
331
1A21C
  5
1A257
331
1A21D
  5
1A258
331
1A21E
  5
1A259
331
1A21F
  5
1A25A
331
1A220
  5
1A25B
331
1A221
  5
1A25C
331
1A222
  5
1A25D
331
1A223
  5
1A25E
331
1A224
  5
1A25F
331
1A225
  5
1A260
331
1A226
  5
1A261
331
1A227
  5
1A262
331
1A228
  5
1A28B
331
1A229
  5
1A29C
331
1A22A
  5
1A2A9
331
1A22B
  5
1A2B6
331
1A22C
  5
1A2CC
331
1A22D
  5
1A360
331
1A22E
  5
1A362
331
1A22F
  5
1A472
331
1A230
  5
1A473
331
1A231
  5
1AD01
331
1A232
  5
1AD02
331
1A233
  5
1AD03
331
1A234
  5
1AD04
331
1A235
  5
1AD05
331
1A236
  5
1AD06
331
1A237
  5
1AD07
331
1A238
  5
1AD08
331
1A239
  5
1AD09
331
1A23A
  5
1AD0A
331
1A23B
  5
1AD10
331
1A23C
  5
1AD14
331
1A23D
  5
1AD15
331
1A23E
  5
1AD16
331
1A23F
  5
1AD17
331
1A240
  5
1AD18
331
1A241
  5
1AD19
331
1A242
  5
1AD1A
331
1A243
  5
1AD1B
331
1A244
  5
1AD1C
331
1A245
  5
1AD1D
331
1A246
  5
1AD1E
331
1A247
  5
1AD1F
331
1A248
  5
1AD20
331
1A249
  5
1AD21
331
1A24A
  5
1AD22
331
1A24B
  5
1AD23
331
1A24C
  5
1AD24
331
1A24D
  5
1AD25
331
1A24E
  5
1AD26
331
1A24F
  5
1AD27
331
1A250
  5
1AD28
331
1A251
  5
1AD2C
331
1A252
  5
1B010
331
1A253
  5
1B011
331
1A254
  5
1B015
331
1A255
  5
1B016
331
1A256
  5
1B017
331
1A257
  5
1B01B
331
1A258
  5
1B01C
331
1A259
  5
1B01D
331
1A25A
  5
1B021
331
1A25B
  5
1B022
331
1A25C
  5
1B023
331
1A25D
  5
1B027
331
1A25E
  5
1B028
331
1A25F
  5
1B029
331
1A260
  5
1B02A
331
1A261
  5
1B02B
331
1A262
  5
1B02C
331
0
  5
1AD0B
331
0
  5
1AD0C
331
0
  5
1AD0D
331
0
  5
1AD0E
331
0
  5
1AD0F
331
1A360
  5
1B226
331
0
  5
1AD11
331
0
  5
1AD12
331
0
  5
1AD13
331
1AD01
  5
1B22F
331
1AD02
  5
1B230
331
1AD03
  5
1B231
331
1AD04
  5
1B232
331
1AD05
  5
1B233
331
1AD06
  5
1B234
331
1AD07
  5
1B235
331
1AD08
  5
1B236
331
1AD09
  5
1B237
331
1AD0A
  5
1B238
331
1AD0B
  5
1B239
331
1AD0C
  5
1B23A
331
1AD0D
  5
1B23B
331
1AD0E
  5
1B23C
331
1AD0F
  5
1B23D
331
1AD10
  5
1B23E
331
1AD11
  5
1B23F
331
1AD12
  5
1B240
331
1AD13
  5
1B241
331
1AD14
  5
1B242
331
1AD15
  5
1B243
331
1AD16
  5
1B244
331
1AD17
  5
1B245
331
1AD18
  5
1B249
331
1AD19
  5
1B24A
331
1AD1A
  5
1B24B
331
1AD1B
  5
1B24F
331
1AD1C
  5
1B250
331
1AD1D
  5
1B251
331
1AD1E
  5
1B255
331
1AD1F
  5
1B256
331
1AD20
  5
1B257
331
1AD21
  5
1B25B
331
1AD22
  5
1B25C
331
1AD23
  5
1B25D
331
1AD24
  5
1B261
331
1AD25
  5
1B262
331
1AD26
  5
1B263
331
1AD27
  5
1B264
331
1AD28
  5
1B265
331
1AD29
  5
1B266
331
1AD2A
  5
1B267
331
1AD2B
  5
1B268
331
1AD2C
  5
1B269
331
1B010
  5
1B26F
331
1B011
  5
1B270
331
1B012
  5
1B271
331
1B013
  5
1B272
331
1B014
  5
1B273
331
1B015
  5
1B274
331
1B016
  5
1B275
331
1B017
  5
1B276
331
1B018
  5
1B277
331
1B019
  5
1B278
331
1B01A
  5
1B279
331
1B01B
  5
1B27D
331
1B01C
  5
1B27E
331
1B01D
  5
1B27F
331
1B01E
  5
1B283
331
1B01F
  5
1B286
331
1B020
  5
1B287
331
1B021
  5
1B288
331
1B022
  5
1B289
331
1B023
  5
1B28A
331
1B024
  5
1B28B
331
1B025
  5
1B28C
331
1B026
  5
1B28D
331
1B027
  5
1B28E
331
1B028
  5
1B28F
331
1B029
  5
1B290
331
1B02A
  5
1B291
331
1B02B
  5
1B292
331
0
  5
1B044
331
0
  5
1B045
331
0
  5
1B046
331
0
  5
1B1FF
331
0
  5
1B200
331
0
  5
1B201
331
1B035
  5
1B2C7
331
1B036
  5
1B2C8
331
0
  5
1B204
331
0
  5
1B205
331
0
  5
1B206
331
1B03A
  5
1B2D7
331
1B03B
  5
1B2D8
331
1B03C
  5
1B2D9
331
1B03D
  5
1B2DA
331
1B03E
  5
1B2DB
331
1B03F
  5
1B2DC
331
1B040
  5
1B2DD
331
1B041
  5
1B2DE
331
1B042
  5
1B2DF
331
1B043
  5
1B2E0
331
0
  5
1B211
331
0
  5
1B212
331
0
  5
1B213
331
1B1FF
  5
18545
331
1B200
  5
18546
331
1B201
  5
18547
331
1B202
  5
18548
331
1B203
  5
18549
331
1B204
  5
1854B
331
1B205
  5
1854C
331
1B206
  5
1854D
331
1B207
  5
1854E
331
1B208
  5
1854F
331
1B209
  5
18551
331
1B20A
  5
18552
331
1B20B
  5
18553
331
1B20C
  5
18554
331
1B20D
  5
18555
331
1B20E
  5
18556
331
1B20F
  5
18557
331
1B210
  5
18558
331
1B211
  5
18559
331
1B212
  5
1B26D
331
1B213
  5
1B26E
331
1B214
  5
1A1E2
331
1B215
  5
1A1E3
331
1B216
  5
1A1E4
331
1B217
  5
1A1E5
331
0
  5
1A1E6
331
0
  5
1A1E8
331
0
  5
1A1E9
331
1B21B
  5
1A1F4
331
1B21C
  5
1A1F5
331
1B21D
  5
1A1F6
331
0
  5
1A1ED
331
0
  5
1A1EE
331
0
  5
1A1EF
331
1B221
  5
1A206
331
1B222
  5
1A207
331
1B223
  5
1A208
331
0
  5
1A1F8
331
0
  5
1A1F9
331
0
  5
1A1FA
331
1B227
  5
1B030
331
1B228
  5
1B031
331
1B229
  5
1B032
331
0
  5
1AD29
331
0
  5
1AD2A
331
0
  5
1AD2B
331
1B22D
  5
1B03A
331
1B22E
  5
1B03B
331
1B22F
  5
1B03C
331
0
  5
1B012
331
0
  5
1B013
331
0
  5
1B014
331
1B233
  5
1B202
331
1B234
  5
1B203
331
1B235
  5
1B207
331
0
  5
1B018
331
0
  5
1B019
331
0
  5
1B01A
331
1B239
  5
1B20F
331
1B23A
  5
1B210
331
1B23B
  5
1B214
331
0
  5
1B01E
331
0
  5
1B01F
331
0
  5
1B020
331
1B23F
  5
1B21C
331
1B240
  5
1B21D
331
1B241
  5
1B21E
331
0
  5
1B024
331
0
  5
1B025
331
0
  5
1B026
331
1B245
  5
1B227
331
1B246
  5
1B228
331
1B247
  5
1B229
331
1B248
  5
1B22A
331
1B249
  5
1B22B
331
1B24A
  5
1B22C
331
1B24B
  5
1B22D
331
1B24C
  5
1B22E
331
1B24D
  5
1B293
331
1B24E
  5
1B294
331
1B24F
  5
1B295
331
1B250
  5
1B296
331
1B251
  5
1B297
331
0
  5
1B246
331
0
  5
1B247
331
0
  5
1B248
331
1B255
  5
1B29F
331
1B256
  5
1B2A0
331
1B257
  5
1B2A1
331
0
  5
1B24C
331
0
  5
1B24D
331
0
  5
1B24E
331
1B25B
  5
1B2A9
331
1B25C
  5
1B2AA
331
1B25D
  5
1B2AB
331
0
  5
1B252
331
0
  5
1B253
331
0
  5
1B254
331
1B261
  5
1B2B3
331
1B262
  5
1B2B4
331
1B263
  5
1B2B5
331
0
  5
1B258
331
0
  5
1B259
331
0
  5
1B25A
331
1B267
  5
1B2BD
331
1B268
  5
1B2BE
331
1B269
  5
1B2BF
331
0
  5
1B25E
331
0
  5
1B25F
331
0
  5
1B260
331
1B26D
  5
1B2C9
331
1B26E
  5
1B2CA
331
1B26F
  5
1B2CB
331
1B270
  5
1B2CC
331
1B271
  5
1B2CD
331
1B272
  5
1B2CE
331
1B273
  5
1B2CF
331
0
  5
1B26A
331
0
  5
1B26B
331
0
  5
1B26C
331
1B277
  5
1B2E1
331
1B278
  5
1B2E2
331
1B279
  5
1B2E3
331
1B27D
  5
1B2EB
331
1B27E
  5
1B2EC
331
1B27F
  5
1B2ED
331
1B283
  5
1B2F5
331
1B286
  5
1A1EA
331
1B287
  5
1A1EB
331
1B288
  5
1A1EC
331
1B289
  5
1A1F0
331
1B28A
  5
1A1F1
331
1B28B
  5
1A1F2
331
1B28C
  5
1A1F3
331
1B28D
  5
1A1F7
331
1B28E
  5
1A1FB
331
1B28F
  5
1A1FC
331
1B290
  5
1A1FD
331
1B291
  5
1A1FE
331
1B292
  5
1A1FF
331
1B293
  5
1A200
331
1B294
  5
1A209
331
1B295
  5
1A20A
331
1B296
  5
1A20B
331
1B297
  5
1A20C
331
1B298
  5
1A20D
331
1B299
  5
1A20E
331
1B29A
  5
1A20F
331
1B29B
  5
1B033
331
1B29C
  5
1B034
331
1B29D
  5
1B035
331
1B29E
  5
1B036
331
1B29F
  5
1B037
331
1B2A0
  5
1B038
331
1B2A1
  5
1B039
331
1B2A2
  5
1B03D
331
1B2A3
  5
1B03E
331
1B2A4
  5
1B03F
331
1B2A5
  5
1B040
331
1B2A6
  5
1B041
331
1B2A7
  5
1B042
331
1B2A8
  5
1B043
331
1B2A9
  5
1B208
331
1B2AA
  5
1B209
331
1B2AB
  5
1B20A
331
1B2AC
  5
1B20B
331
1B2AD
  5
1B20C
331
1B2AE
  5
1B20D
331
1B2AF
  5
1B20E
331
1B2B0
  5
1B215
331
1B2B1
  5
1B216
331
1B2B2
  5
1B217
331
1B2B3
  5
1B218
331
1B2B4
  5
1B219
331
1B2B5
  5
1B21A
331
1B2B6
  5
1B21B
331
1B2B7
  5
1B21F
331
1B2B8
  5
1B220
331
1B2B9
  5
1B221
331
1B2BA
  5
1B222
331
1B2BB
  5
1B223
331
1B2BC
  5
1B224
331
1B2BD
  5
1B225
331
1B2BE
  5
1B298
331
1B2BF
  5
1B299
331
1B2C0
  5
1B29A
331
1B2C1
  5
1B29B
331
1B2C2
  5
1B29C
331
1B2C3
  5
1B29D
331
1B2C4
  5
1B29E
331
1B2C5
  5
1B2A2
331
1B2C6
  5
1B2A3
331
1B2C7
  5
1B2A4
331
1B2C8
  5
1B2A5
331
1B2C9
  5
1B2A6
331
1B2CA
  5
1B2A7
331
1B2CB
  5
1B2A8
331
1B2CC
  5
1B2AC
331
1B2CD
  5
1B2AD
331
1B2CE
  5
1B2AE
331
1B2CF
  5
1B2AF
331
1B2D0
  5
1B2B0
331
1B2D1
  5
1B2B1
331
1B2D2
  5
1B2B2
331
1B2D3
  5
1B2B6
331
1B2D4
  5
1B2B7
331
1B2D5
  5
1B2B8
331
1B2D6
  5
1B2B9
331
1B2D7
  5
1B2BA
331
1B2D8
  5
1B2BB
331
1B2D9
  5
1B2BC
331
1B2DA
  5
1B2C0
331
1B2DB
  5
1B2C1
331
1B2DC
  5
1B2C2
331
1B2DD
  5
1B2C3
331
1B2DE
  5
1B2C4
331
1B2DF
  5
1B2C5
331
1B2E0
  5
1B2C6
331
1B2E1
  5
1B2D0
331
1B2E2
  5
1B2D1
331
1B2E3
  5
1B2D2
331
1B2E4
  5
1B2D3
331
1B2E5
  5
1B2D4
331
1B2E6
  5
1B2D5
331
1B2E7
  5
1B2D6
331
1B2E8
  5
1B2E4
331
1B2E9
  5
1B2E5
331
1B2EA
  5
1B2E6
331
1B2EB
  5
1B2E7
331
1B2EC
  5
1B2E8
331
1B2ED
  5
1B2E9
331
1B2EE
  5
1B2EA
331
1B2EF
  5
1B2EE
331
1B2F0
  5
1B2EF
331
1B2F1
  5
1B2F0
331
1B2F2
  5
1B2F1
331
1B2F3
  5
1B2F2
331
1B2F4
  5
1B2F3
331
1B2F5
  5
1B2F4
  0
SORTENTSTABLE
  5
59C
102
{ACAD_REACTORS
330
59B
102
}
330
59B
100
AcDbSortentsTable
330
15
331
57
  5
57
331
0
  5
70
331
0
  5
15E0C
331
0
  5
15E0D
331
0
  5
15E0E
331
0
  5
15E0F
331
0
  5
15E10
331
0
  5
15E11
331
0
  5
15E12
331
0
  5
15E13
331
0
  5
15E14
331
0
  5
15E15
331
0
  5
15E16
331
0
  5
15E17
331
0
  5
15E18
331
0
  5
15E19
331
0
  5
15E1A
331
0
  5
15FEC
331
0
  5
15FED
331
0
  5
15FEE
331
0
  5
15FEF
331
0
  5
15E1C
331
0
  5
15E1D
331
0
  5
15E1E
331
0
  5
15E1F
331
0
  5
15E20
331
0
  5
15E21
331
0
  5
15E22
331
0
  5
15E23
331
0
  5
15E24
331
0
  5
15E25
331
0
  5
15E26
331
0
  5
15E27
331
0
  5
15E28
331
0
  5
15E29
331
0
  5
15E2A
331
0
  5
15E2B
331
0
  5
15E2C
331
0
  5
15E2D
331
0
  5
15E2E
331
0
  5
15E2F
331
0
  5
15E30
331
0
  5
15E31
331
0
  5
15E32
331
0
  5
15E33
331
0
  5
15E34
331
0
  5
15E35
331
0
  5
15E36
331
0
  5
15E37
331
0
  5
15E38
331
0
  5
15E39
331
0
  5
15E3A
331
0
  5
15E3B
331
0
  5
15E3C
331
0
  5
15E3D
331
0
  5
15E3E
331
0
  5
15E3F
331
0
  5
15E40
331
0
  5
15E41
331
0
  5
15E42
331
0
  5
15E43
331
0
  5
15E44
331
0
  5
15E45
331
0
  5
15E46
331
0
  5
15E47
331
0
  5
15E48
331
0
  5
15E49
331
0
  5
15E4A
331
0
  5
15E4B
331
0
  5
15E4C
331
0
  5
15E4D
331
0
  5
15E4E
331
0
  5
15E4F
331
0
  5
15E50
331
0
  5
15E51
331
0
  5
15E52
331
0
  5
15E53
331
0
  5
15E54
331
0
  5
15E55
331
0
  5
15E56
331
0
  5
15E57
331
0
  5
15E58
331
0
  5
15E59
331
0
  5
15E5A
331
0
  5
15E5B
331
0
  5
15E5C
331
0
  5
15FCD
331
0
  5
15FCE
331
0
  5
15FCF
331
0
  5
15FD0
331
0
  5
15FD1
331
0
  5
15FD2
331
0
  5
15FD3
331
0
  5
15FD4
331
0
  5
15FD5
331
0
  5
15FD6
331
0
  5
15FD7
331
0
  5
15FD8
331
0
  5
15FD9
331
0
  5
15FDA
331
0
  5
15FDB
331
0
  5
15FDC
331
0
  5
15FDD
331
0
  5
15FDE
331
0
  5
15FDF
331
0
  5
15FE0
331
0
  5
15FE1
331
0
  5
15FE2
331
0
  5
15FE3
331
0
  5
15FE4
331
0
  5
15FE5
331
0
  5
15FE6
331
0
  5
15FE7
331
0
  5
15FE8
331
0
  5
15FE9
331
0
  5
15FEA
331
0
  5
15FEB
331
0
  5
15F8E
331
0
  5
15F8F
331
0
  5
15F90
331
0
  5
15F91
331
0
  5
15F92
331
0
  5
15F93
331
0
  5
15F94
331
0
  5
15F95
331
0
  5
15F96
331
0
  5
15F97
331
0
  5
15F98
331
0
  5
15F99
331
0
  5
15F9A
331
0
  5
15F9B
331
0
  5
15F9C
331
0
  5
15F9D
331
0
  5
15F9E
331
0
  5
15F9F
331
0
  5
15FA0
331
0
  5
15FA1
331
0
  5
15FA2
331
0
  5
15FA3
331
0
  5
15FA4
331
0
  5
15FA5
331
0
  5
15FA6
331
0
  5
15FA7
331
0
  5
15FA8
331
0
  5
15FA9
331
0
  5
15FAA
331
0
  5
15FAB
331
0
  5
15FAC
331
0
  5
15FAD
331
0
  5
15FAE
331
0
  5
15FAF
331
0
  5
15FB0
331
0
  5
15FB1
331
0
  5
15FB2
331
0
  5
15FB3
331
0
  5
15FB4
331
0
  5
15FB5
331
0
  5
15FB6
331
0
  5
15FB7
331
0
  5
15FB8
331
0
  5
15FB9
331
0
  5
15FBA
331
0
  5
15FBB
331
0
  5
15FBC
331
0
  5
15FBD
331
0
  5
15FBE
331
0
  5
15FBF
331
0
  5
15FC0
331
0
  5
15FC1
331
0
  5
15FC2
331
0
  5
15FC3
331
0
  5
15FC4
331
0
  5
15FC5
331
0
  5
15FC6
331
0
  5
15FC7
331
0
  5
15FC8
331
0
  5
15FC9
331
0
  5
15FCA
331
0
  5
15FCB
331
0
  5
15FCC
331
0
  5
15F51
331
0
  5
15F52
331
0
  5
15F53
331
0
  5
15F54
331
0
  5
15F55
331
0
  5
15F56
331
0
  5
15F57
331
0
  5
15F58
331
0
  5
15F59
331
0
  5
15F5A
331
0
  5
15F5B
331
0
  5
15F5C
331
0
  5
15F5D
331
0
  5
15F5E
331
0
  5
15F5F
331
0
  5
15F60
331
0
  5
15F61
331
0
  5
15F62
331
0
  5
15F63
331
0
  5
15F64
331
0
  5
15F65
331
0
  5
15F66
331
0
  5
15F67
331
0
  5
15F68
331
0
  5
15F69
331
0
  5
15F6A
331
0
  5
15F6B
331
0
  5
15F6C
331
0
  5
15F6D
331
0
  5
15F6E
331
0
  5
15F6F
331
0
  5
15F70
331
0
  5
15F71
331
0
  5
15F72
331
0
  5
15F73
331
0
  5
15F74
331
0
  5
15F75
331
0
  5
15F76
331
0
  5
15F77
331
0
  5
15F78
331
0
  5
15F79
331
0
  5
15F7A
331
0
  5
15F7B
331
0
  5
15F7C
331
0
  5
15F7D
331
0
  5
15F7E
331
0
  5
15F7F
331
0
  5
15F80
331
0
  5
15F81
331
0
  5
15F82
331
0
  5
15F83
331
0
  5
15F84
331
0
  5
15F85
331
0
  5
15F86
331
0
  5
15F87
331
0
  5
15F88
331
0
  5
15F89
331
0
  5
15F8A
331
0
  5
15F8B
331
0
  5
15F8C
331
0
  5
15F8D
331
0
  5
15F01
331
0
  5
15F02
331
0
  5
15F03
331
0
  5
15F04
331
0
  5
15F05
331
0
  5
15F06
331
0
  5
15F07
331
0
  5
15F08
331
0
  5
15F09
331
0
  5
15F0A
331
0
  5
15F0B
331
0
  5
15F0C
331
0
  5
15F0D
331
0
  5
15F0E
331
0
  5
15F0F
331
0
  5
15F10
331
0
  5
15F11
331
0
  5
15F12
331
0
  5
15F13
331
0
  5
15F14
331
0
  5
15F15
331
0
  5
15F16
331
0
  5
15F17
331
0
  5
15F18
331
0
  5
15F19
331
0
  5
15F1A
331
0
  5
15F1B
331
0
  5
15F1C
331
0
  5
15F1D
331
0
  5
15F1E
331
0
  5
15F1F
331
0
  5
15F20
331
0
  5
15F21
331
0
  5
15F22
331
0
  5
15F23
331
0
  5
15F24
331
0
  5
15F25
331
0
  5
15F26
331
0
  5
15F27
331
0
  5
15F28
331
0
  5
15F29
331
0
  5
15F2A
331
0
  5
15F2B
331
0
  5
15F2C
331
0
  5
15F2D
331
0
  5
15F2E
331
0
  5
15F2F
331
0
  5
15F30
331
0
  5
15F31
331
0
  5
15F32
331
0
  5
15F33
331
0
  5
15F34
331
0
  5
15F35
331
0
  5
15F36
331
0
  5
15F37
331
0
  5
15F38
331
0
  5
15F39
331
0
  5
15F3A
331
0
  5
15F3B
331
0
  5
15F3C
331
0
  5
15F3D
331
0
  5
15F3E
331
0
  5
15F3F
331
0
  5
15F40
331
0
  5
15F41
331
0
  5
15F42
331
0
  5
15F43
331
0
  5
15F44
331
0
  5
15F45
331
0
  5
15F46
331
0
  5
15F47
331
0
  5
15F48
331
0
  5
15F49
331
0
  5
15F4A
331
0
  5
15F4B
331
0
  5
15F4C
331
0
  5
15F4D
331
0
  5
15F4E
331
0
  5
15F4F
331
0
  5
15F50
331
0
  5
15EB0
331
0
  5
15EB1
331
0
  5
15EB2
331
0
  5
15EB3
331
0
  5
15EB4
331
0
  5
15EB5
331
0
  5
15EB6
331
0
  5
15EB7
331
0
  5
15EB8
331
0
  5
15EB9
331
0
  5
15EBA
331
0
  5
15EBB
331
0
  5
15EBC
331
0
  5
15EBD
331
0
  5
15EBE
331
0
  5
15EBF
331
0
  5
15EC0
331
0
  5
15EC1
331
0
  5
15EC2
331
0
  5
15EC3
331
0
  5
15EC4
331
0
  5
15EC5
331
0
  5
15EC6
331
0
  5
15EC7
331
0
  5
15EC8
331
0
  5
15EC9
331
0
  5
15ECA
331
0
  5
15ECB
331
0
  5
15ECC
331
0
  5
15ECD
331
0
  5
15ECE
331
0
  5
15ECF
331
0
  5
15ED0
331
0
  5
15ED1
331
0
  5
15ED2
331
0
  5
15ED3
331
0
  5
15ED4
331
0
  5
15ED5
331
0
  5
15ED6
331
0
  5
15ED7
331
0
  5
15ED8
331
0
  5
15ED9
331
0
  5
15EDA
331
0
  5
15EDB
331
0
  5
15EDC
331
0
  5
15EDD
331
0
  5
15EDE
331
0
  5
15EDF
331
0
  5
15EE0
331
0
  5
15EE1
331
0
  5
15EE2
331
0
  5
15EE3
331
0
  5
15EE4
331
0
  5
15EE5
331
0
  5
15EE6
331
0
  5
15EE7
331
0
  5
15EE8
331
0
  5
15EE9
331
0
  5
15EEA
331
0
  5
15EEB
331
0
  5
15EEC
331
0
  5
15EED
331
0
  5
15EEE
331
0
  5
15EEF
331
0
  5
15EF0
331
0
  5
15EF1
331
0
  5
15EF2
331
0
  5
15EF3
331
0
  5
15EF4
331
0
  5
15EF5
331
0
  5
15EF6
331
0
  5
15EF7
331
0
  5
15EF8
331
0
  5
15EF9
331
0
  5
15EFA
331
0
  5
15EFB
331
0
  5
15EFC
331
0
  5
15EFD
331
0
  5
15EFE
331
0
  5
15EFF
331
0
  5
15F00
331
0
  5
15E63
331
0
  5
15E64
331
0
  5
15E65
331
0
  5
15E66
331
0
  5
15E67
331
0
  5
15E68
331
0
  5
15E69
331
0
  5
15E6A
331
0
  5
15E6B
331
0
  5
15E6C
331
0
  5
15E6D
331
0
  5
15E6E
331
0
  5
15E6F
331
0
  5
15E70
331
0
  5
15E71
331
0
  5
15E72
331
0
  5
15E73
331
0
  5
15E74
331
0
  5
15E75
331
0
  5
15E76
331
0
  5
15E77
331
0
  5
15E78
331
0
  5
15E79
331
0
  5
15E7A
331
0
  5
15E7B
331
0
  5
15E7C
331
0
  5
15E7D
331
0
  5
15E7E
331
0
  5
15E7F
331
0
  5
15E80
331
0
  5
15E81
331
0
  5
15E82
331
0
  5
15E83
331
0
  5
15E84
331
0
  5
15E85
331
0
  5
15E86
331
0
  5
15E87
331
0
  5
15E88
331
0
  5
15E89
331
0
  5
15E8A
331
0
  5
15E8B
331
0
  5
15E8C
331
0
  5
15E8D
331
0
  5
15E8E
331
0
  5
15E8F
331
0
  5
15E90
331
0
  5
15E91
331
0
  5
15E92
331
0
  5
15E93
331
0
  5
15E94
331
0
  5
15E95
331
0
  5
15E96
331
0
  5
15E97
331
0
  5
15E98
331
0
  5
15E99
331
0
  5
15E9A
331
0
  5
15E9B
331
0
  5
15E9C
331
0
  5
15E9D
331
0
  5
15E9E
331
0
  5
15E9F
331
0
  5
15EA0
331
0
  5
15EA1
331
0
  5
15EA2
331
0
  5
15EA3
331
0
  5
15EA4
331
0
  5
15EA5
331
0
  5
15EA6
331
0
  5
15EA7
331
0
  5
15EA8
331
0
  5
15EA9
331
0
  5
15EAA
331
0
  5
15EAB
331
0
  5
15EAC
331
0
  5
15EAD
331
0
  5
15EAE
331
0
  5
15EAF
  0
GROUP
  5
1A11B
102
{ACAD_REACTORS
330
D
102
}
330
D
100
AcDbGroup
300

 70
     1
 71
     1
340
19344
340
19343
340
19342
340
19341
340
19340
340
1933F
340
1933E
340
1933D
340
1933C
340
1933B
340
1933A
340
19339
340
19338
340
19337
340
19336
340
19335
340
19334
340
19333
340
19332
340
19331
340
19330
340
1932F
340
1932E
340
1932D
340
1932C
340
1932B
340
1932A
340
19329
340
19328
340
19327
340
19326
340
19325
340
19324
340
19323
340
19322
340
19321
340
19320
340
1931F
340
1931E
340
1931D
340
1931C
340
1931B
340
1931A
340
19319
340
19318
340
19317
340
19316
340
19315
340
19314
340
19313
340
19312
340
19311
340
19310
340
1930F
340
1930E
340
1930D
340
1930C
340
1930B
340
1930A
340
19309
340
19308
340
19307
340
19306
340
19305
  0
GROUP
  5
1A15C
102
{ACAD_REACTORS
330
D
102
}
330
D
100
AcDbGroup
300

 70
     1
 71
     1
340
1A15B
340
1A15A
340
1A159
340
1A158
340
1A157
340
1A156
340
1A155
340
1A154
340
1A153
340
1A152
340
1A151
340
1A150
340
1A14F
340
1A14E
340
1A14D
340
1A14C
340
1A14B
340
1A14A
340
1A149
340
1A148
340
1A147
340
1A146
340
1A145
340
1A144
340
1A143
340
1A142
340
1A141
340
1A140
340
1A13F
340
1A13E
340
1A13D
340
1A13C
340
1A13B
340
1A13A
340
1A139
340
1A138
340
1A137
340
1A136
340
1A135
340
1A134
340
1A133
340
1A132
340
1A131
340
1A130
340
1A12F
340
1A12E
340
1A12D
340
1A12C
340
1A12B
340
1A12A
340
1A129
340
1A128
340
1A127
340
1A126
340
1A125
340
1A124
340
1A123
340
1A122
340
1A121
340
1A120
340
1A11F
340
1A11E
340
1A11D
340
1A11C
  0
GROUP
  5
1A263
102
{ACAD_REACTORS
330
D
102
}
330
D
100
AcDbGroup
300

 70
     1
 71
     1
340
1A21C
340
1A21B
340
1A21A
340
1A219
340
1A218
340
1A217
340
1A216
340
1A215
340
1A214
340
1A213
340
1A212
340
1A211
340
1A210
340
1A20F
340
1A20E
340
1A20D
340
1A20C
340
1A20B
340
1A20A
340
1A209
340
1A208
340
1A207
340
1A206
340
1A205
340
1A204
340
1A203
340
1A202
340
1A201
340
1A200
340
1A1FF
340
1A1FE
340
1A1FD
340
1A1FC
340
1A1FB
340
1A1FA
340
1A1F9
340
1A1F8
340
1A1F7
340
1A1F6
340
1A1F5
340
1A1F4
340
1A1F3
340
1A1F2
340
1A1F1
340
1A1F0
340
1A1EF
340
1A1EE
340
1A1ED
340
1A1EC
340
1A1EB
340
1A1EA
340
1A1E9
340
1A1E8
340
1A1E7
340
1A1E6
340
1A1E5
340
1A1E4
340
1A1E3
340
1A1E2
340
1A1E1
340
1A1E0
340
1A1DF
340
1A1DE
340
1A1DD
340
1A1DC
340
1A1DB
340
1A1DA
340
1A1D9
340
1A1D8
340
1A1D7
  0
GROUP
  5
1A264
102
{ACAD_REACTORS
330
D
102
}
330
D
100
AcDbGroup
300

 70
     1
 71
     1
340
1A21E
340
1A248
340
1A246
340
1A245
340
1A244
340
1A243
340
1A242
340
1A241
340
1A240
340
1A23F
340
1A23E
340
1A23D
340
1A23C
340
1A23B
340
1A23A
340
1A239
340
1A238
340
1A237
340
1A236
340
1A235
340
1A234
340
1A233
340
1A232
340
1A231
340
1A230
340
1A22F
340
1A22E
340
1A22D
340
1A22C
340
1A22B
340
1A22A
340
1A229
340
1A228
340
1A227
340
1A226
340
1A225
340
1A224
340
1A223
340
1A220
340
1A262
340
1A261
340
1A260
340
1A25F
340
1A25E
340
1A25D
340
1A25C
340
1A25B
340
1A25A
340
1A259
340
1A258
340
1A257
340
1A256
340
1A255
340
1A254
340
1A253
340
1A252
340
1A251
340
1A250
340
1A24F
340
1A24E
340
1A24D
340
1A24C
340
1A24B
340
1A24A
340
1A249
340
1A247
340
1A222
340
1A221
340
1A21F
340
1A21D
  0
MATERIAL
  5
15B55
102
{ACAD_REACTORS
330
2CF
102
}
102
{ACAD_XDICTIONARY
360
1B2FE
102
}
330
2CF
100
AcDbMaterial
  1
BYBLOCK
 72
     0
 73
     2
 43
0.0208333333333333
 43
0.0
 43
0.0
 43
0.0
 43
0.0
 43
0.0208333333333333
 43
0.0
 43
0.0
 43
0.0
 43
0.0
 43
1.0
 43
0.0
 43
0.0
 43
0.0
 43
0.0
 43
1.0
 77
     0
 78
     2
 47
0.0208333333333333
 47
0.0
 47
0.0
 47
0.0
 47
0.0
 47
0.0208333333333333
 47
0.0
 47
0.0
 47
0.0
 47
0.0
 47
1.0
 47
0.0
 47
0.0
 47
0.0
 47
0.0
 47
1.0
171
     0
172
     2
 49
0.0208333333333333
 49
0.0
 49
0.0
 49
0.0
 49
0.0
 49
0.0208333333333333
 49
0.0
 49
0.0
 49
0.0
 49
0.0
 49
1.0
 49
0.0
 49
0.0
 49
0.0
 49
0.0
 49
1.0
175
     0
176
     2
142
0.0208333333333333
142
0.0
142
0.0
142
0.0
142
0.0
142
0.0208333333333333
142
0.0
142
0.0
142
0.0
142
0.0
142
1.0
142
0.0
142
0.0
142
0.0
142
0.0
142
1.0
179
     0
270
     2
144
0.0208333333333333
144
0.0
144
0.0
144
0.0
144
0.0
144
0.0208333333333333
144
0.0
144
0.0
144
0.0
144
0.0
144
1.0
144
0.0
144
0.0
144
0.0
144
0.0
144
1.0
274
     2
147
0.0208333333333333
147
0.0
147
0.0
147
0.0
147
0.0
147
0.0208333333333333
147
0.0
147
0.0
147
0.0
147
0.0
147
1.0
147
0.0
147
0.0
147
0.0
147
0.0
147
1.0
  0
MATERIAL
  5
15B4D
102
{ACAD_REACTORS
330
2CF
102
}
102
{ACAD_XDICTIONARY
360
1B300
102
}
330
2CF
100
AcDbMaterial
  1
BYLAYER
 72
     0
 73
     2
 43
0.0208333333333333
 43
0.0
 43
0.0
 43
0.0
 43
0.0
 43
0.0208333333333333
 43
0.0
 43
0.0
 43
0.0
 43
0.0
 43
1.0
 43
0.0
 43
0.0
 43
0.0
 43
0.0
 43
1.0
 77
     0
 78
     2
 47
0.0208333333333333
 47
0.0
 47
0.0
 47
0.0
 47
0.0
 47
0.0208333333333333
 47
0.0
 47
0.0
 47
0.0
 47
0.0
 47
1.0
 47
0.0
 47
0.0
 47
0.0
 47
0.0
 47
1.0
171
     0
172
     2
 49
0.0208333333333333
 49
0.0
 49
0.0
 49
0.0
 49
0.0
 49
0.0208333333333333
 49
0.0
 49
0.0
 49
0.0
 49
0.0
 49
1.0
 49
0.0
 49
0.0
 49
0.0
 49
0.0
 49
1.0
175
     0
176
     2
142
0.0208333333333333
142
0.0
142
0.0
142
0.0
142
0.0
142
0.0208333333333333
142
0.0
142
0.0
142
0.0
142
0.0
142
1.0
142
0.0
142
0.0
142
0.0
142
0.0
142
1.0
179
     0
270
     2
144
0.0208333333333333
144
0.0
144
0.0
144
0.0
144
0.0
144
0.0208333333333333
144
0.0
144
0.0
144
0.0
144
0.0
144
1.0
144
0.0
144
0.0
144
0.0
144
0.0
144
1.0
274
     2
147
0.0208333333333333
147
0.0
147
0.0
147
0.0
147
0.0
147
0.0208333333333333
147
0.0
147
0.0
147
0.0
147
0.0
147
1.0
147
0.0
147
0.0
147
0.0
147
0.0
147
1.0
  0
MATERIAL
  5
15B5D
102
{ACAD_REACTORS
330
2CF
102
}
102
{ACAD_XDICTIONARY
360
1B302
102
}
330
2CF
100
AcDbMaterial
  1
GLOBAL
 72
     0
 73
     2
 43
0.0208333333333333
 43
0.0
 43
0.0
 43
0.0
 43
0.0
 43
0.0208333333333333
 43
0.0
 43
0.0
 43
0.0
 43
0.0
 43
1.0
 43
0.0
 43
0.0
 43
0.0
 43
0.0
 43
1.0
 77
     0
 78
     2
 47
0.0208333333333333
 47
0.0
 47
0.0
 47
0.0
 47
0.0
 47
0.0208333333333333
 47
0.0
 47
0.0
 47
0.0
 47
0.0
 47
1.0
 47
0.0
 47
0.0
 47
0.0
 47
0.0
 47
1.0
171
     0
172
     2
 49
0.0208333333333333
 49
0.0
 49
0.0
 49
0.0
 49
0.0
 49
0.0208333333333333
 49
0.0
 49
0.0
 49
0.0
 49
0.0
 49
1.0
 49
0.0
 49
0.0
 49
0.0
 49
0.0
 49
1.0
175
     0
176
     2
142
0.0208333333333333
142
0.0
142
0.0
142
0.0
142
0.0
142
0.0208333333333333
142
0.0
142
0.0
142
0.0
142
0.0
142
1.0
142
0.0
142
0.0
142
0.0
142
0.0
142
1.0
179
     0
270
     2
144
0.0208333333333333
144
0.0
144
0.0
144
0.0
144
0.0
144
0.0208333333333333
144
0.0
144
0.0
144
0.0
144
0.0
144
1.0
144
0.0
144
0.0
144
0.0
144
0.0
144
1.0
274
     2
147
0.0208333333333333
147
0.0
147
0.0
147
0.0
147
0.0
147
0.0208333333333333
147
0.0
147
0.0
147
0.0
147
0.0
147
1.0
147
0.0
147
0.0
147
0.0
147
0.0
147
1.0
  0
ACAD_PROXY_OBJECT
  5
15B99
102
{ACAD_REACTORS
330
15B98
102
}
330
15B98
100
AcDbZombieObject
 90
      499
 91
      512
 93
      610
310
40901902A4063FBFFFFFE000000000000002040AD7A3703D0AD73F4214DD185B99185C990000000000000104090141901A00000000000004100000000000000041025764000000000000300FC0
340
12
340
0
340
F
340
0
 94
        0
1001
ACAD_MLEADERVER
1070
     2
  0
MLINESTYLE
  5
1C
102
{ACAD_REACTORS
330
1B
102
}
330
1B
100
AcDbMlineStyle
  2
STANDARD
 70
     0
  3

 62
   256
 51
90.0
 52
90.0
 71
     2
 49
0.5
 62
   256
  6
BYLAYER
 49
-0.5
 62
   256
  6
BYLAYER
  0
ACAD_PROXY_OBJECT
  5
15B77
102
{ACAD_REACTORS
330
15B76
102
}
330
15B76
100
AcDbZombieObject
 90
      499
 91
      511
 93
       41
310
903313A31580
  0
ACAD_PROXY_OBJECT
  5
15B78
102
{ACAD_REACTORS
330
15B76
102
}
330
15B76
100
AcDbZombieObject
 90
      499
 91
      511
 93
      105
310
903313A324000000000000004000
  0
ACAD_PROXY_OBJECT
  5
15B79
102
{ACAD_REACTORS
330
15B76
102
}
330
15B76
100
AcDbZombieObject
 90
      499
 91
      511
 93
      105
310
903313A344000000000000104000
  0
ACAD_PROXY_OBJECT
  5
15B7A
102
{ACAD_REACTORS
330
15B76
102
}
330
15B76
100
AcDbZombieObject
 90
      499
 91
      511
 93
      105
310
903313A354000000000000144000
  0
ACAD_PROXY_OBJECT
  5
15B7B
102
{ACAD_REACTORS
330
15B76
102
}
330
15B76
100
AcDbZombieObject
 90
      499
 91
      511
 93
      105
310
903313A384000000000000204000
  0
ACAD_PROXY_OBJECT
  5
15B7C
102
{ACAD_REACTORS
330
15B76
102
}
330
15B76
100
AcDbZombieObject
 90
      499
 91
      511
 93
      113
310
904313A31304000000000000244000
  0
ACAD_PROXY_OBJECT
  5
15B7D
102
{ACAD_REACTORS
330
15B76
102
}
330
15B76
100
AcDbZombieObject
 90
      499
 91
      511
 93
      113
310
904313A31364000000000000304000
  0
ACAD_PROXY_OBJECT
  5
15B7E
102
{ACAD_REACTORS
330
15B76
102
}
330
15B76
100
AcDbZombieObject
 90
      499
 91
      511
 93
      113
310
904313A32304000000000000344000
  0
ACAD_PROXY_OBJECT
  5
15B7F
102
{ACAD_REACTORS
330
15B76
102
}
330
15B76
100
AcDbZombieObject
 90
      499
 91
      511
 93
      113
310
904313A333040000000000003E4000
  0
ACAD_PROXY_OBJECT
  5
15B80
102
{ACAD_REACTORS
330
15B76
102
}
330
15B76
100
AcDbZombieObject
 90
      499
 91
      511
 93
      113
310
904313A34304000000000000444000
  0
ACAD_PROXY_OBJECT
  5
15B81
102
{ACAD_REACTORS
330
15B76
102
}
330
15B76
100
AcDbZombieObject
 90
      499
 91
      511
 93
      113
310
904313A35304000000000000494000
  0
ACAD_PROXY_OBJECT
  5
15B82
102
{ACAD_REACTORS
330
15B76
102
}
330
15B76
100
AcDbZombieObject
 90
      499
 91
      511
 93
      121
310
905313A3130304000000000000594000
  0
ACAD_PROXY_OBJECT
  5
15B83
102
{ACAD_REACTORS
330
15B76
102
}
330
15B76
100
AcDbZombieObject
 90
      499
 91
      511
 93
      105
310
903323A310000000000000010100
  0
ACAD_PROXY_OBJECT
  5
15B84
102
{ACAD_REACTORS
330
15B76
102
}
330
15B76
100
AcDbZombieObject
 90
      499
 91
      511
 93
      105
310
903343A310000000000000410100
  0
ACAD_PROXY_OBJECT
  5
15B85
102
{ACAD_REACTORS
330
15B76
102
}
330
15B76
100
AcDbZombieObject
 90
      499
 91
      511
 93
      105
310
903383A310000000000000810100
  0
ACAD_PROXY_OBJECT
  5
15B86
102
{ACAD_REACTORS
330
15B76
102
}
330
15B76
100
AcDbZombieObject
 90
      499
 91
      511
 93
      113
310
90431303A310000000000000910100
  0
ACAD_PROXY_OBJECT
  5
15B87
102
{ACAD_REACTORS
330
15B76
102
}
330
15B76
100
AcDbZombieObject
 90
      499
 91
      511
 93
      121
310
9053130303A310000000000001650100
  0
ACAD_PROXY_OBJECT
  5
15B88
102
{ACAD_REACTORS
330
15B76
102
}
330
15B76
100
AcDbZombieObject
 90
      499
 91
      511
 93
      257
310
90E312F31323822203D2031272D3022000000000000200FC000000000000284000
  0
ACAD_PROXY_OBJECT
  5
15B89
102
{ACAD_REACTORS
330
15B76
102
}
330
15B76
100
AcDbZombieObject
 90
      499
 91
      511
 93
      249
310
90D312F363422203D2031272D3022000000000000240FC000000000000284000
  0
ACAD_PROXY_OBJECT
  5
15B8A
102
{ACAD_REACTORS
330
15B76
102
}
330
15B76
100
AcDbZombieObject
 90
      499
 91
      511
 93
      249
310
90D312F333222203D2031272D3022000000000000280FC000000000000284000
  0
ACAD_PROXY_OBJECT
  5
15B8B
102
{ACAD_REACTORS
330
15B76
102
}
330
15B76
100
AcDbZombieObject
 90
      499
 91
      511
 93
      249
310
90D312F313622203D2031272D30220000000000002C0FC000000000000284000
  0
ACAD_PROXY_OBJECT
  5
15B8C
102
{ACAD_REACTORS
330
15B76
102
}
330
15B76
100
AcDbZombieObject
 90
      499
 91
      511
 93
      249
310
90D332F333222203D2031272D30220000000000002E0FC000000000000284000
  0
ACAD_PROXY_OBJECT
  5
15B8D
102
{ACAD_REACTORS
330
15B76
102
}
330
15B76
100
AcDbZombieObject
 90
      499
 91
      511
 93
      241
310
90C312F3822203D2031272D3022000000000000300FC000000000000284000
  0
ACAD_PROXY_OBJECT
  5
15B8E
102
{ACAD_REACTORS
330
15B76
102
}
330
15B76
100
AcDbZombieObject
 90
      499
 91
      511
 93
      249
310
90D332F313622203D2031272D3022000000000000320FC000000000000284000
  0
ACAD_PROXY_OBJECT
  5
15B8F
102
{ACAD_REACTORS
330
15B76
102
}
330
15B76
100
AcDbZombieObject
 90
      499
 91
      511
 93
      241
310
90C312F3422203D2031272D3022000000000000340FC000000000000284000
  0
ACAD_PROXY_OBJECT
  5
15B90
102
{ACAD_REACTORS
330
15B76
102
}
330
15B76
100
AcDbZombieObject
 90
      499
 91
      511
 93
      241
310
90C332F3822203D2031272D3022000000000000360FC000000000000284000
  0
ACAD_PROXY_OBJECT
  5
15B91
102
{ACAD_REACTORS
330
15B76
102
}
330
15B76
100
AcDbZombieObject
 90
      499
 91
      511
 93
      241
310
90C312F3222203D2031272D3022000000000000380FC000000000000284000
  0
ACAD_PROXY_OBJECT
  5
15B92
102
{ACAD_REACTORS
330
15B76
102
}
330
15B76
100
AcDbZombieObject
 90
      499
 91
      511
 93
      241
310
90C332F3422203D2031272D30220000000000003A0FC000000000000284000
  0
ACAD_PROXY_OBJECT
  5
15B93
102
{ACAD_REACTORS
330
15B76
102
}
330
15B76
100
AcDbZombieObject
 90
      499
 91
      511
 93
      161
310
90A3122203D2031272D30224000000000000284000
  0
ACAD_PROXY_OBJECT
  5
15B94
102
{ACAD_REACTORS
330
15B76
102
}
330
15B76
100
AcDbZombieObject
 90
      499
 91
      511
 93
      257
310
90E312D312F3222203D2031272D30220000000000003E0FC000000000000284000
  0
ACAD_PROXY_OBJECT
  5
15B95
102
{ACAD_REACTORS
330
15B76
102
}
330
15B76
100
AcDbZombieObject
 90
      499
 91
      511
 93
      225
310
90A3322203D2031272D302200000000000002100000000000000284000
  0
ACAD_PROXY_OBJECT
  5
15B96
102
{ACAD_REACTORS
330
15B76
102
}
330
15B76
100
AcDbZombieObject
 90
      499
 91
      511
 93
      225
310
90A3622203D2031272D302200000000000006100000000000000284000
  0
ACAD_PROXY_OBJECT
  5
15B97
102
{ACAD_REACTORS
330
15B76
102
}
330
15B76
100
AcDbZombieObject
 90
      499
 91
      511
 93
      249
310
90D31272D3022203D2031272D30220000000000000A100000000000000284000
  0
ACAD_PROXY_OBJECT
  5
15B6B
102
{ACAD_REACTORS
330
15B65
102
}
330
15B65
100
AcDbZombieObject
 90
      499
 91
      510
 93
      436
310
42CC9915DA5C99599C985B595049028333333333333E3BF0000000000000FB0107901411070040501600405405064090741402480A0340
1001
ACAD
1000
AcDbSavedByObjectVersion
1070
     0
  0
ACAD_PROXY_OBJECT
  5
15B6D
102
{ACAD_REACTORS
330
15B65
102
}
330
15B65
100
AcDbZombieObject
 90
      499
 91
      510
 93
      500
310
424CD108121A5919195B90640502408333333333333E3BF0000000000000FB01079024090700405020000000000001110200405405064090740C02480A0340
1001
ACAD
1000
AcDbSavedByObjectVersion
1070
     0
  0
ACAD_PROXY_OBJECT
  5
15B6C
102
{ACAD_REACTORS
330
15B65
102
}
330
15B65
100
AcDbZombieObject
 90
      499
 91
      510
 93
      436
310
42CCD915DA5C99599C985B595059028333333333333E3BF0000000000000FB0107901411070040501600405405064090741402480A0340
1001
ACAD
1000
AcDbSavedByObjectVersion
1070
     0
  0
ACAD_PROXY_OBJECT
  5
15B6A
102
{ACAD_REACTORS
330
15B65
102
}
330
15B65
100
AcDbZombieObject
 90
      499
 91
      510
 93
      388
310
4150985CDA58D07406404333333333333E3BF0000000000000FB0107A41107004050150841D405064090741402480A0350
1001
ACAD
1000
AcDbSavedByObjectVersion
1070
     0
  0
ACAD_PROXY_OBJECT
  5
15B71
102
{ACAD_REACTORS
330
15B65
102
}
330
15B65
100
AcDbZombieObject
 90
      499
 91
      510
 93
      428
310
42109C9A59DA1D195B90C409028333333333333E3BF0000000000000FB010790141107004050150841D405064090741402480A029950
1001
ACAD
1000
AcDbSavedByObjectVersion
1070
     0
  0
ACAD_PROXY_OBJECT
  5
15B75
102
{ACAD_REACTORS
330
15B65
102
}
330
15B65
100
AcDbZombieObject
 90
      499
 91
      510
 93
      452
310
42D0DBDB1BDC90DA185B99D95104090240C333333333333E3BF0000000000000FB0108901411070040501508421405064090741402480A0350
1001
ACAD
1000
AcDbSavedByObjectVersion
1070
     0
  0
ACAD_PROXY_OBJECT
  5
15B6E
102
{ACAD_REACTORS
330
15B65
102
}
330
15B65
100
AcDbZombieObject
 90
      499
 91
      510
 93
      500
310
4290DBDB98D95C1D1D585B10940D028333333333333E3BF0000000000000FB0107902409070040501000000000000111010841D405064090740C02480A0340
1001
ACAD
1000
AcDbSavedByObjectVersion
1070
     0
  0
ACAD_PROXY_OBJECT
  5
15B70
102
{ACAD_REACTORS
330
15B65
102
}
330
15B65
100
AcDbZombieObject
 90
      499
 91
      510
 93
      412
310
40D11A5B50B409028333333333333E3BF0000000000000FB010790141107004050150841D405064090741402480A02677FFFFFD0
1001
ACAD
1000
AcDbSavedByObjectVersion
1070
     0
  0
ACAD_PROXY_OBJECT
  5
174DB
102
{ACAD_REACTORS
330
15B65
102
}
330
15B65
100
AcDbZombieObject
 90
      499
 91
      510
 93
      452
310
43115919D950DBDB1BDC93D999916409028333333333333E3BF0000000000000FB010790141107004050150841D405064090741402480A0350
1001
ACAD
1000
AcDbSavedByObjectVersion
1070
     0
  0
ACAD_PROXY_OBJECT
  5
15B74
102
{ACAD_REACTORS
330
15B65
102
}
330
15B65
100
AcDbZombieObject
 90
      499
 91
      510
 93
      444
310
42D19858D95C185D1D195C9B90F409028333333333333E3BF0000000000000FB010790141107004050150841D405064090741402480A0350
1001
ACAD
1000
AcDbSavedByObjectVersion
1070
     0
  0
ACAD_PROXY_OBJECT
  5
15B66
102
{ACAD_REACTORS
330
15B65
102
}
330
15B65
100
AcDbZombieObject
 90
      499
 91
      510
 93
      388
310
41119B185D240901404333333333333E3BF0000000000000F9010740A41107004050150841D405064090741402480A1B50
1001
ACAD
1000
AcDbSavedByObjectVersion
1070
     0
  0
ACAD_PROXY_OBJECT
  5
15B67
102
{ACAD_REACTORS
330
15B65
102
}
330
15B65
100
AcDbZombieObject
 90
      499
 91
      510
 93
      476
310
43519B185D15DA5D1A115919D95CD0140901404333333333333E3BF0000000000000F9010740901411070040501600405405064090741402480A1B50
1001
ACAD
1000
AcDbSavedByObjectVersion
1070
     0
  0
ACAD_PROXY_OBJECT
  5
15B68
102
{ACAD_REACTORS
330
15B65
102
}
330
15B65
100
AcDbZombieObject
 90
      499
 91
      510
 93
      412
310
41D1DBDD5C985D5910240902404333333333333E3BF0000000000000F9010740A411070040501641D405064090741402480A1B50
1001
ACAD
1000
AcDbSavedByObjectVersion
1070
     0
  0
ACAD_PROXY_OBJECT
  5
15B69
102
{ACAD_REACTORS
330
15B65
102
}
330
15B65
100
AcDbZombieObject
 90
      499
 91
      510
 93
      500
310
4411DBDD5C985D5915DA5D1A115919D95CD0340902404333333333333E3BF0000000000000F9010740901411070040501600405405064090741402480A1B50
1001
ACAD
1000
AcDbSavedByObjectVersion
1070
     0
  0
ACAD_PROXY_OBJECT
  5
1ADBE
102
{ACAD_REACTORS
330
15B65
102
}
330
15B65
100
AcDbZombieObject
 90
      499
 91
      510
 93
      476
310
41921A5919195B90640502408333333333333E33F0000000000000F901079024090700405020000000000001110200405405064090740C02480A0340
1001
ACAD
1000
AcDbSavedByObjectVersion
1070
     0
  0
ACAD_PROXY_OBJECT
  5
174D9
102
{ACAD_REACTORS
330
15B65
102
}
330
15B65
100
AcDbZombieObject
 90
      499
 91
      510
 93
      428
310
42529A5D1D195C93D999914409028333333333333E3BF0000000000000FB010790141107004050150A41D405064090741402480A0350
1001
ACAD
1000
AcDbSavedByObjectVersion
1070
     0
  0
ACAD_PROXY_OBJECT
  5
15B73
102
{ACAD_REACTORS
330
15B65
102
}
330
15B65
100
AcDbZombieObject
 90
      499
 91
      510
 93
      444
310
42D31A5B995C185D1D195C9B90E409028333333333333E3BF0000000000000FB010790141107004050750841D405064090741402483A0350
1001
ACAD
1000
AcDbSavedByObjectVersion
1070
     0
  0
ACAD_PROXY_OBJECT
  5
1ADC4
102
{ACAD_REACTORS
330
15B65
102
}
330
15B65
100
AcDbZombieObject
 90
      499
 91
      510
 93
      484
310
42135BD9195B1A5B99D0A409038333333333333E33F0000000000000F901074090290700405010000000000201990108421405064090741402480A1B40
1001
ACAD
1000
AcDbSavedByObjectVersion
1070
     0
  0
ACAD_PROXY_OBJECT
  5
174DA
102
{ACAD_REACTORS
330
15B65
102
}
330
15B65
100
AcDbZombieObject
 90
      499
 91
      510
 93
      444
310
42D3DD995C9A185B99D3D999915409028333333333333E3BF0000000000000FB010790141107004050150941D405064090741402480A0350
1001
ACAD
1000
AcDbSavedByObjectVersion
1070
     0
  0
ACAD_PROXY_OBJECT
  5
15B6F
102
{ACAD_REACTORS
330
15B65
102
}
330
15B65
100
AcDbZombieObject
 90
      499
 91
      510
 93
      420
310
425499585B1A5CDD1A58D08409028333333333333E3BF0000000000000FB01079019070040501508421405064090741402480A1B40
1001
ACAD
1000
AcDbSavedByObjectVersion
1070
     0
  0
ACAD_PROXY_OBJECT
  5
1ADC3
102
{ACAD_REACTORS
330
15B65
102
}
330
15B65
100
AcDbZombieObject
 90
      499
 91
      510
 93
      420
310
4194DA1859195911B40902404333333333333E33F0000000000000F9010740A41107004050150800405405064090840C02480A0B40
1001
ACAD
1000
AcDbSavedByObjectVersion
1070
     0
  0
ACAD_PROXY_OBJECT
  5
1ADC2
102
{ACAD_REACTORS
330
15B65
102
}
330
15B65
100
AcDbZombieObject
 90
      499
 91
      510
 93
      516
310
4454DA18591959081DDA5D1A08195919D95CD1A40902404333333333333E33F0000000000000F901074090142907004050250800405405064090740C02480A0B40
1001
ACAD
1000
AcDbSavedByObjectVersion
1070
     0
  0
ACAD_PROXY_OBJECT
  5
1ADBF
102
{ACAD_REACTORS
330
15B65
102
}
330
15B65
100
AcDbZombieObject
 90
      499
 91
      510
 93
      532
310
4394DA1859195CC81BD98811DC985E5174090240C333333333333E33F0000000000000F901079024090741D01000000000000111010841D405064090740C02480A0340
1001
ACAD
1000
AcDbSavedByObjectVersion
1070
     0
  0
ACAD_PROXY_OBJECT
  5
1ADC0
102
{ACAD_REACTORS
330
15B65
102
}
330
15B65
100
AcDbZombieObject
 90
      499
 91
      510
 93
      476
310
41D4DAD95D18DA1E51840502408333333333333E33F0000000000000F901079024090741D01000000000000111010B41D405064090741802480A0340
1001
ACAD
1000
AcDbSavedByObjectVersion
1070
     0
  0
ACAD_PROXY_OBJECT
  5
15B72
102
{ACAD_REACTORS
330
15B65
102
}
330
15B65
100
AcDbZombieObject
 90
      499
 91
      510
 93
      412
310
41D51A1A58DAD95B90D409028333333333333E3BF0000000000000FB010790141107004050150C41D405064090741402480A0350
1001
ACAD
1000
AcDbSavedByObjectVersion
1070
     0
  0
ACAD_PROXY_OBJECT
  5
1ADBD
102
{ACAD_REACTORS
330
15B65
102
}
330
15B65
100
AcDbZombieObject
 90
      499
 91
      510
 93
      420
310
4255DA5C99599C985B595059028333333333333E33F0000000000000F90107901411070040501600405405064090740C02480A0340
1001
ACAD
1000
AcDbSavedByObjectVersion
1070
     0
  0
ACAD_PROXY_OBJECT
  5
1ADC1
102
{ACAD_REACTORS
330
15B65
102
}
330
15B65
100
AcDbZombieObject
 90
      499
 91
      510
 93
      404
310
41560B54985E51940902404000000000000E03F0000000000000F9010740501907004050150841D405064090740C02480A1B40
1001
ACAD
1000
AcDbSavedByObjectVersion
1070
     0
  0
XRECORD
  5
1B2FB
102
{ACAD_REACTORS
330
1B2FA
102
}
330
1B2FA
100
AcDbXrecord
340
2D0
  0
XRECORD
  5
1B2FC
102
{ACAD_REACTORS
330
1B2FA
102
}
330
1B2FA
100
AcDbXrecord
340
2CF
  0
DICTIONARYVAR
  5
1ADC6
102
{ACAD_REACTORS
330
37
102
}
330
37
100
DictionaryVariables
280
     0
  1
1:1
  0
DICTIONARYVAR
  5
15C4B
102
{ACAD_REACTORS
330
37
102
}
330
37
100
DictionaryVariables
280
     0
  1
Standard
  0
DICTIONARYVAR
  5
4F1
102
{ACAD_REACTORS
330
37
102
}
330
37
100
DictionaryVariables
280
     0
  1
Standard
  0
DICTIONARYVAR
  5
38
102
{ACAD_REACTORS
330
37
102
}
330
37
100
DictionaryVariables
280
     0
  1
-1
  0
DICTIONARYVAR
  5
408
102
{ACAD_REACTORS
330
37
102
}
330
37
100
DictionaryVariables
280
     0
  1
2
  0
DICTIONARYVAR
  5
1891
102
{ACAD_REACTORS
330
37
102
}
330
37
100
DictionaryVariables
280
     0
  1
1
  0
DICTIONARYVAR
  5
15C4E
102
{ACAD_REACTORS
330
37
102
}
330
37
100
DictionaryVariables
280
     0
  1
0
  0
DICTIONARYVAR
  5
1895
102
{ACAD_REACTORS
330
37
102
}
330
37
100
DictionaryVariables
280
     0
  1
8
  0
DICTIONARYVAR
  5
1894
102
{ACAD_REACTORS
330
37
102
}
330
37
100
DictionaryVariables
280
     0
  1
1
  0
DICTIONARYVAR
  5
1ADC7
102
{ACAD_REACTORS
330
37
102
}
330
37
100
DictionaryVariables
280
     0
  1
0
  0
DICTIONARYVAR
  5
1892
102
{ACAD_REACTORS
330
37
102
}
330
37
100
DictionaryVariables
280
     0
  1
8
  0
DICTIONARYVAR
  5
1893
102
{ACAD_REACTORS
330
37
102
}
330
37
100
DictionaryVariables
280
     0
  1
2
  0
DICTIONARYVAR
  5
409
102
{ACAD_REACTORS
330
37
102
}
330
37
100
DictionaryVariables
280
     0
  1

  0
DICTIONARYVAR
  5
15C4D
102
{ACAD_REACTORS
330
37
102
}
330
37
100
DictionaryVariables
280
     0
  1
127
  0
DICTIONARYVAR
  5
1ADBC
102
{ACAD_REACTORS
330
37
102
}
330
37
100
DictionaryVariables
280
     0
  1
2
  0
DICTIONARY
  5
1B2FE
330
15B55
100
AcDbDictionary
  3
ACAD_XREC_ROUNDTRIP
360
1B2FF
1001
ACAD
1000
TREAT_AS_HARD
1070
     1
  0
DICTIONARY
  5
1B300
330
15B4D
100
AcDbDictionary
  3
ACAD_XREC_ROUNDTRIP
360
1B301
1001
ACAD
1000
TREAT_AS_HARD
1070
     1
  0
DICTIONARY
  5
1B302
330
15B5D
100
AcDbDictionary
  3
ACAD_XREC_ROUNDTRIP
360
1B303
1001
ACAD
1000
TREAT_AS_HARD
1070
     1
  0
XRECORD
  5
1B2FF
102
{ACAD_REACTORS
330
1B2FE
102
}
330
1B2FE
100
AcDbXrecord
102
MATERIAL
148
0.0
149
0.0
149
0.0
 93
        0
 94
      127
282
     0
 72
     0
 77
     0
171
     0
175
     0
179
     0
273
     0
  0
XRECORD
  5
1B301
102
{ACAD_REACTORS
330
1B300
102
}
330
1B300
100
AcDbXrecord
102
MATERIAL
148
0.0
149
0.0
149
0.0
 93
        0
 94
      127
282
     0
 72
     0
 77
     0
171
     0
175
     0
179
     0
273
     0
  0
XRECORD
  5
1B303
102
{ACAD_REACTORS
330
1B302
102
}
330
1B302
100
AcDbXrecord
102
MATERIAL
148
0.0
149
0.0
149
0.0
 93
        0
 94
      127
282
     0
 72
     0
 77
     0
171
     0
175
     0
179
     0
273
     0
  0
ENDSEC
  0
EOF
