  0
SECTION
  2
HEADER
  9
$ACADVER
  1
AC1012
  9
$DWGCODEPAGE
  3
ansi_932
  9
$INSBASE
 10
0.0
 20
0.0
 30
0.0
  9
$EXTMIN
 10
3521.832460340912
 20
-2365.364043664112
 30
0.0
  9
$EXTMAX
 10
4785.006468341
 20
-1281.566173794089
 30
0.0
  9
$LIMMIN
 10
0.0
 20
0.0
  9
$LIMMAX
 10
420.0
 20
297.0
  9
$ORTHOMODE
 70
     0
  9
$REGENMODE
 70
     1
  9
$FILLMODE
 70
     1
  9
$QTEXTMODE
 70
     0
  9
$MIRRTEXT
 70
     0
  9
$DRAGMODE
 70
     2
  9
$LTSCALE
 40
0.5
  9
$OSMODE
 70
 14591
  9
$ATTMODE
 70
     1
  9
$TEXTSIZE
 40
4.0
  9
$TRACEWID
 40
1.0
  9
$TEXTSTYLE
  7
STANDARD
  9
$CLAYER
  8
1TEXT
  9
$CELTYPE
  6
BYLAYER
  9
$CECOLOR
 62
   256
  9
$CELTSCALE
 40
1.0
  9
$DELOBJ
 70
     1
  9
$DISPSILH
 70
     0
  9
$DIMSCALE
 40
4.0
  9
$DIMASZ
 40
2.0
  9
$DIMEXO
 40
0.0
  9
$DIMDLI
 40
7.0
  9
$DIMRND
 40
0.0
  9
$DIMDLE
 40
0.0
  9
$DIMEXE
 40
1.0
  9
$DIMTP
 40
0.0
  9
$DIMTM
 40
0.0
  9
$DIMTXT
 40
3.5
  9
$DIMCEN
 40
0.0
  9
$DIMTSZ
 40
0.0
  9
$DIMTOL
 70
     0
  9
$DIMLIM
 70
     0
  9
$DIMTIH
 70
     0
  9
$DIMTOH
 70
     0
  9
$DIMSE1
 70
     0
  9
$DIMSE2
 70
     0
  9
$DIMTAD
 70
     1
  9
$DIMZIN
 70
     8
  9
$DIMBLK
  1

  9
$DIMASO
 70
     1
  9
$DIMSHO
 70
     1
  9
$DIMPOST
  1
 
  9
$DIMAPOST
  1

  9
$DIMALT
 70
     0
  9
$DIMALTD
 70
     2
  9
$DIMALTF
 40
25.4
  9
$DIMLFAC
 40
1.0
  9
$DIMTOFL
 70
     1
  9
$DIMTVP
 40
0.0
  9
$DIMTIX
 70
     0
  9
$DIMSOXD
 70
     0
  9
$DIMSAH
 70
     1
  9
$DIMBLK1
  1
OPEN30
  9
$DIMBLK2
  1
OPEN30
  9
$DIMSTYLE
  2
NEWX10
  9
$DIMCLRD
 70
   256
  9
$DIMCLRE
 70
   256
  9
$DIMCLRT
 70
   201
  9
$DIMTFAC
 40
0.7
  9
$DIMGAP
 40
0.7
  9
$DIMJUST
 70
     0
  9
$DIMSD1
 70
     0
  9
$DIMSD2
 70
     0
  9
$DIMTOLJ
 70
     1
  9
$DIMTZIN
 70
     8
  9
$DIMALTZ
 70
     0
  9
$DIMALTTZ
 70
     0
  9
$DIMFIT
 70
     2
  9
$DIMUPT
 70
     0
  9
$DIMUNIT
 70
     2
  9
$DIMDEC
 70
     2
  9
$DIMTDEC
 70
     4
  9
$DIMALTU
 70
     2
  9
$DIMALTTD
 70
     2
  9
$DIMTXSTY
  7
STANDARD
  9
$DIMAUNIT
 70
     0
  9
$LUNITS
 70
     2
  9
$LUPREC
 70
     4
  9
$SKETCHINC
 40
1.0
  9
$FILLETRAD
 40
0.0
  9
$AUNITS
 70
     0
  9
$AUPREC
 70
     2
  9
$MENU
  1
acad
  9
$ELEVATION
 40
0.0
  9
$PELEVATION
 40
0.0
  9
$THICKNESS
 40
0.0
  9
$LIMCHECK
 70
     0
  9
$CHAMFERA
 40
10.0
  9
$CHAMFERB
 40
10.0
  9
$CHAMFERC
 40
20.0
  9
$CHAMFERD
 40
0.0
  9
$SKPOLY
 70
     0
  9
$TDCREATE
 40
2453033.732663484
  9
$TDUPDATE
 40
2458829.471093495
  9
$TDINDWG
 40
2.3886878472
  9
$TDUSRTIMER
 40
2.3886878472
  9
$USRTIMER
 70
     1
  9
$ANGBASE
 50
0.0
  9
$ANGDIR
 70
     0
  9
$PDMODE
 70
     0
  9
$PDSIZE
 40
0.0
  9
$PLINEWID
 40
0.0
  9
$COORDS
 70
     1
  9
$SPLFRAME
 70
     0
  9
$SPLINETYPE
 70
     6
  9
$SPLINESEGS
 70
     8
  9
$ATTDIA
 70
     0
  9
$ATTREQ
 70
     1
  9
$HANDLING
 70
     1
  9
$HANDSEED
  5
1CCD8
  9
$SURFTAB1
 70
     6
  9
$SURFTAB2
 70
     6
  9
$SURFTYPE
 70
     6
  9
$SURFU
 70
     6
  9
$SURFV
 70
     6
  9
$UCSNAME
  2

  9
$UCSORG
 10
0.0
 20
0.0
 30
0.0
  9
$UCSXDIR
 10
1.0
 20
0.0
 30
0.0
  9
$UCSYDIR
 10
0.0
 20
1.0
 30
0.0
  9
$PUCSNAME
  2

  9
$PUCSORG
 10
0.0
 20
0.0
 30
0.0
  9
$PUCSXDIR
 10
1.0
 20
0.0
 30
0.0
  9
$PUCSYDIR
 10
0.0
 20
1.0
 30
0.0
  9
$USERI1
 70
     0
  9
$USERI2
 70
     0
  9
$USERI3
 70
     0
  9
$USERI4
 70
     0
  9
$USERI5
 70
     0
  9
$USERR1
 40
0.0
  9
$USERR2
 40
0.0
  9
$USERR3
 40
0.0
  9
$USERR4
 40
0.0
  9
$USERR5
 40
0.0
  9
$WORLDVIEW
 70
     1
  9
$SHADEDGE
 70
     3
  9
$SHADEDIF
 70
    70
  9
$TILEMODE
 70
     1
  9
$MAXACTVP
 70
    48
  9
$PINSBASE
 10
0.0
 20
0.0
 30
0.0
  9
$PLIMCHECK
 70
     0
  9
$PEXTMIN
 10
1.000000000000000E+20
 20
1.000000000000000E+20
 30
1.000000000000000E+20
  9
$PEXTMAX
 10
-1.000000000000000E+20
 20
-1.000000000000000E+20
 30
-1.000000000000000E+20
  9
$PLIMMIN
 10
0.0
 20
0.0
  9
$PLIMMAX
 10
420.0
 20
297.0
  9
$UNITMODE
 70
     0
  9
$VISRETAIN
 70
     1
  9
$PLINEGEN
 70
     0
  9
$PSLTSCALE
 70
     1
  9
$TREEDEPTH
 70
  3020
  9
$PICKSTYLE
 70
     1
  9
$CMLSTYLE
  2
STANDARD
  9
$CMLJUST
 70
     0
  9
$CMLSCALE
 40
20.0
  9
$SAVEIMAGES
 70
     1
  0
ENDSEC
  0
SECTION
  2
CLASSES
  0
CLASS
  1
DICTIONARYVAR
  2
AcDbDictionaryVar
  3
ObjectDBX Classes
 90
        0
280
     0
281
     0
  0
CLASS
  1
IDBUFFER
  2
AcDbIdBuffer
  3
ObjectDBX Classes
 90
    32768
280
     0
281
     0
  0
CLASS
  1
LWPOLYLINE
  2
AcDbPolyline
  3
ObjectDBX Classes
 90
    32768
280
     0
281
     1
  0
CLASS
  1
ACDBDICTIONARYWDFLT
  2
AcDbDictionaryWithDefault
  3
ObjectDBX Classes
 90
    32768
280
     0
281
     0
  0
CLASS
  1
ACDBPLACEHOLDER
  2
AcDbPlaceHolder
  3
ObjectDBX Classes
 90
        0
280
     0
281
     0
  0
CLASS
  1
LAYOUT
  2
AcDbLayout
  3
ObjectDBX Classes
 90
        0
280
     0
281
     0
  0
CLASS
  1
TABLESTYLE
  2
AcDbTableStyle
  3
ObjectDBX Classes
 90
     4095
280
     0
281
     0
  0
CLASS
  1
SORTENTSTABLE
  2
AcDbSortentsTable
  3
ObjectDBX Classes
 90
    32768
280
     0
281
     0
  0
CLASS
  1
DIMASSOC
  2
AcDbDimAssoc
  3
"AcDbDimAssoc|Product Desc:     AcDim ARX App For Dimension|Company:          Autodesk, Inc.|WEB Address:      www.autodesk.com"
 90
        0
280
     0
281
     0
  0
CLASS
  1
MATERIAL
  2
AcDbMaterial
  3
ObjectDBX Classes
 90
     1153
280
     0
281
     0
  0
CLASS
  1
VISUALSTYLE
  2
AcDbVisualStyle
  3
ObjectDBX Classes
 90
     4095
280
     0
281
     0
  0
CLASS
  1
SCALE
  2
AcDbScale
  3
ObjectDBX Classes
 90
     1153
280
     0
281
     0
  0
CLASS
  1
MLEADERSTYLE
  2
AcDbMLeaderStyle
  3
ACDB_MLEADERSTYLE_CLASS
 90
     4095
280
     0
281
     0
  0
CLASS
  1
CELLSTYLEMAP
  2
AcDbCellStyleMap
  3
ObjectDBX Classes
 90
     1152
280
     0
281
     0
  0
CLASS
  1
EXACXREFPANELOBJECT
  2
ExAcXREFPanelObject
  3
EXAC_ESW
 90
     1025
280
     1
281
     0
  0
CLASS
  1
NPOCOLLECTION
  2
AcDbImpNonPersistentObjectsCollection
  3
ObjectDBX Classes
 90
     1153
280
     1
281
     0
  0
CLASS
  1
AEC_REFEDIT_STATUS_TRACKER
  2
AecDbRefEditStatusTracker
  3
AecArchBase60|Product Desc: Autodesk Architectural Desktop 2007 |Company: Autodesk,Inc. |WEB Address: www.autodesk.com
 90
      129
280
     1
281
     0
  0
CLASS
  1
SUN
  2
AcDbSun
  3
SCENEOE
 90
     1153
280
     0
281
     0
  0
CLASS
  1
XRECORD
  2
AcDbXrecord
  3
ObjectDBX Classes
 90
    32768
280
     0
281
     0
  0
CLASS
  1
HATCH
  2
AcDbHatch
  3
ObjectDBX Classes
 90
    32768
280
     0
281
     1
  0
ENDSEC
  0
SECTION
  2
TABLES
  0
TABLE
  2
VPORT
  5
8
330
0
100
AcDbSymbolTable
 70
     1
  0
VPORT
  5
15B17
330
8
100
AcDbSymbolTableRecord
100
AcDbViewportTableRecord
  2
*ACTIVE
 70
     0
 10
0.0
 20
0.0
 11
1.0
 21
1.0
 12
4153.419464340956
 22
-1823.4651087291
 13
0.0
 23
0.0
 14
10.0
 24
10.0
 15
10.0
 25
10.0
 16
0.0
 26
0.0
 36
1.0
 17
0.0
 27
0.0
 37
0.0
 40
1163.656660281498
 41
1.863888888888889
 42
50.0
 43
0.0
 44
0.0
 50
0.0
 51
0.0
 71
    16
 72
   100
 73
     1
 74
     1
 75
     0
 76
     0
 77
     0
 78
     0
  0
ENDTAB
  0
TABLE
  2
LTYPE
  5
5
330
0
100
AcDbSymbolTable
 70
     4
  0
LTYPE
  5
12
330
5
100
AcDbSymbolTableRecord
100
AcDbLinetypeTableRecord
  2
BYBLOCK
 70
     0
  3

 72
    65
 73
     0
 40
0.0
  0
LTYPE
  5
13
330
5
100
AcDbSymbolTableRecord
100
AcDbLinetypeTableRecord
  2
BYLAYER
 70
     0
  3

 72
    65
 73
     0
 40
0.0
  0
LTYPE
  5
14
330
5
100
AcDbSymbolTableRecord
100
AcDbLinetypeTableRecord
  2
CONTINUOUS
 70
     0
  3
Solid line
 72
    65
 73
     0
 40
0.0
  0
LTYPE
  5
26
330
5
100
AcDbSymbolTableRecord
100
AcDbLinetypeTableRecord
  2
CENTER2
 70
     0
  3
Center (.5x) ___ _ ___ _ ___ _ ___ _ ___ _ ___
 72
    65
 73
     4
 40
28.575
 49
19.05
 74
     0
 49
-3.175
 74
     0
 49
3.175
 74
     0
 49
-3.175
 74
     0
  0
LTYPE
  5
FF
330
5
100
AcDbSymbolTableRecord
100
AcDbLinetypeTableRecord
  2
HIDDEN
 70
     0
  3
Hidden __ __ __ __ __ __ __ __ __ __ __ __ __ _
 72
    65
 73
     2
 40
9.524999999999999
 49
6.35
 74
     0
 49
-3.175
 74
     0
  0
LTYPE
  5
100
330
5
100
AcDbSymbolTableRecord
100
AcDbLinetypeTableRecord
  2
PHANTOM2
 70
     0
  3
Phantom (0.5x) ___ _ _ ___ _ _ ___ _ _ ___ _ _
 72
    65
 73
     6
 40
31.75
 49
15.875
 74
     0
 49
-3.175
 74
     0
 49
3.175
 74
     0
 49
-3.175
 74
     0
 49
3.175
 74
     0
 49
-3.175
 74
     0
  0
ENDTAB
  0
TABLE
  2
LAYER
  5
2
102
{ACAD_XDICTIONARY
360
14EC2
102
}
330
0
100
AcDbSymbolTable
 70
     8
  0
LAYER
  5
E
102
{ACAD_XDICTIONARY
360
15BB5
102
}
330
2
100
AcDbSymbolTableRecord
100
AcDbLayerTableRecord
  2
0
 70
     0
 62
     7
  6
CONTINUOUS
  0
LAYER
  5
29
102
{ACAD_XDICTIONARY
360
15BB7
102
}
330
2
100
AcDbSymbolTableRecord
100
AcDbLayerTableRecord
  2
1CENTER
 70
     0
 62
     7
  6
CENTER2
  0
LAYER
  5
31
102
{ACAD_XDICTIONARY
360
15BB9
102
}
330
2
100
AcDbSymbolTableRecord
100
AcDbLayerTableRecord
  2
1TEXT
 70
     0
 62
     7
  6
CONTINUOUS
  0
LAYER
  5
101
102
{ACAD_XDICTIONARY
360
15BC3
102
}
330
2
100
AcDbSymbolTableRecord
100
AcDbLayerTableRecord
  2
1DIM
 70
     0
 62
     7
  6
CONTINUOUS
  0
LAYER
  5
102
102
{ACAD_XDICTIONARY
360
15BC5
102
}
330
2
100
AcDbSymbolTableRecord
100
AcDbLayerTableRecord
  2
1HIDDEN
 70
     0
 62
     7
  6
HIDDEN
  0
LAYER
  5
103
102
{ACAD_XDICTIONARY
360
15BC7
102
}
330
2
100
AcDbSymbolTableRecord
100
AcDbLayerTableRecord
  2
1PHANTOM
 70
     0
 62
     7
  6
PHANTOM2
  0
LAYER
  5
25F
102
{ACAD_XDICTIONARY
360
15BCB
102
}
330
2
100
AcDbSymbolTableRecord
100
AcDbLayerTableRecord
  2
01
 70
     0
 62
     1
  6
CONTINUOUS
  0
LAYER
  5
26D
102
{ACAD_XDICTIONARY
360
15BE7
102
}
330
2
100
AcDbSymbolTableRecord
100
AcDbLayerTableRecord
  2
1HATCH
 70
     0
 62
     7
  6
CONTINUOUS
  0
ENDTAB
  0
TABLE
  2
STYLE
  5
3
330
0
100
AcDbSymbolTable
 70
     2
  0
STYLE
  5
F
330
3
100
AcDbSymbolTableRecord
100
AcDbTextStyleTableRecord
  2
STANDARD
 70
     0
 40
0.0
 41
1.0
 50
0.0
 71
     0
 42
4.0
  3
txt.shx
  4
extfont.shx
  0
STYLE
  5
14B6B
330
3
100
AcDbSymbolTableRecord
100
AcDbTextStyleTableRecord
  2
SWISS
 70
     0
 40
0.0
 41
1.0
 50
0.0
 71
     0
 42
4.0
  3
txt.shx
  4
extfont.shx
  0
ENDTAB
  0
TABLE
  2
VIEW
  5
6
330
0
100
AcDbSymbolTable
 70
     0
  0
ENDTAB
  0
TABLE
  2
UCS
  5
7
330
0
100
AcDbSymbolTable
 70
     0
  0
ENDTAB
  0
TABLE
  2
APPID
  5
9
330
0
100
AcDbSymbolTable
 70
    16
  0
APPID
  5
10
330
9
100
AcDbSymbolTableRecord
100
AcDbRegAppTableRecord
  2
ACAD
 70
     0
  0
APPID
  5
21
330
9
100
AcDbSymbolTableRecord
100
AcDbRegAppTableRecord
  2
DRAWINGVARIABLESXDATA
 70
     0
  0
APPID
  5
64
330
9
100
AcDbSymbolTableRecord
100
AcDbRegAppTableRecord
  2
CONTENTTABDATA
 70
     0
  0
APPID
  5
65
330
9
100
AcDbSymbolTableRecord
100
AcDbRegAppTableRecord
  2
CONTENTCURRENTTAB
 70
     0
  0
APPID
  5
66
330
9
100
AcDbSymbolTableRecord
100
AcDbRegAppTableRecord
  2
CONTENTBLOCKDESCRIPTION
 70
     0
  0
APPID
  5
67
330
9
100
AcDbSymbolTableRecord
100
AcDbRegAppTableRecord
  2
CONTENTBLOCKICON
 70
     0
  0
APPID
  5
68
330
9
100
AcDbSymbolTableRecord
100
AcDbRegAppTableRecord
  2
CONTENTLONGBLOCKNAME
 70
     0
  0
APPID
  5
5A9
330
9
100
AcDbSymbolTableRecord
100
AcDbRegAppTableRecord
  2
ACAD_PSEXT
 70
     0
  0
APPID
  5
18AC
330
9
100
AcDbSymbolTableRecord
100
AcDbRegAppTableRecord
  2
ACAD_DSTYLE_DIMTEXT_FILL
 70
     0
  0
APPID
  5
15B9A
330
9
100
AcDbSymbolTableRecord
100
AcDbRegAppTableRecord
  2
ACAD_MLEADERVER
 70
     0
  0
APPID
  5
170A1
330
9
100
AcDbSymbolTableRecord
100
AcDbRegAppTableRecord
  2
ACAD_DSTYLE_DIMRADIAL_EXTE
 70
     0
  0
APPID
  5
174F3
330
9
100
AcDbSymbolTableRecord
100
AcDbRegAppTableRecord
  2
ACAD_EXEMPT_FROM_CAD_STAND
 70
     0
  0
APPID
  5
1797B
330
9
100
AcDbSymbolTableRecord
100
AcDbRegAppTableRecord
  2
ACADANNOTATIVE
 70
     0
  0
APPID
  5
181DC
330
9
100
AcDbSymbolTableRecord
100
AcDbRegAppTableRecord
  2
ACLAYERTOOLS
 70
     0
  0
APPID
  5
1A57D
330
9
100
AcDbSymbolTableRecord
100
AcDbRegAppTableRecord
  2
ACAECLAYERSTANDARD
 70
     0
  0
APPID
  5
1BC63
330
9
100
AcDbSymbolTableRecord
100
AcDbRegAppTableRecord
  2
ACAD_OBJECT_CHANGE_GUID
 70
     0
  0
ENDTAB
  0
TABLE
  2
DIMSTYLE
  5
A
330
0
100
AcDbSymbolTable
 70
     1
  0
DIMSTYLE
105
48
330
A
100
AcDbSymbolTableRecord
100
AcDbDimStyleTableRecord
  2
NEWX10
 70
     0
  3
 
  4

  5

  6
OPEN30
  7
OPEN30
 40
1.0
 41
2.0
 42
0.0
 43
7.0
 44
1.0
 45
0.0
 46
0.0
 47
0.0
 48
0.0
140
3.5
141
0.0
142
0.0
143
25.4
144
1.0
145
0.0
146
0.7
147
0.7
 71
     0
 72
     0
 73
     0
 74
     0
 75
     0
 76
     0
 77
     1
 78
     8
170
     0
171
     2
172
     1
173
     1
174
     0
175
     0
176
   256
177
   256
178
   201
179
     2
270
     2
271
     2
272
     4
273
     2
274
     2
340
F
275
     0
280
     0
281
     0
282
     0
283
     1
284
     8
285
     0
286
     0
287
     2
288
     0
  0
ENDTAB
  0
TABLE
  2
BLOCK_RECORD
  5
1
330
0
100
AcDbSymbolTable
 70
     1
  0
BLOCK_RECORD
  5
18
102
{ACAD_XDICTIONARY
360
6E9
102
}
330
1
100
AcDbSymbolTableRecord
100
AcDbBlockTableRecord
  2
*MODEL_SPACE
  0
BLOCK_RECORD
  5
15
102
{ACAD_XDICTIONARY
360
59B
102
}
330
1
100
AcDbSymbolTableRecord
100
AcDbBlockTableRecord
  2
*PAPER_SPACE
  0
BLOCK_RECORD
  5
42
330
1
100
AcDbSymbolTableRecord
100
AcDbBlockTableRecord
  2
_OPEN30
  0
ENDTAB
  0
ENDSEC
  0
SECTION
  2
BLOCKS
  0
BLOCK
  5
19
330
18
100
AcDbEntity
  8
0
100
AcDbBlockBegin
  2
*MODEL_SPACE
 70
     0
 10
0.0
 20
0.0
 30
0.0
  3
*MODEL_SPACE
  1

  0
ENDBLK
  5
1A
330
18
100
AcDbEntity
  8
0
100
AcDbBlockEnd
  0
BLOCK
  5
16
330
15
100
AcDbEntity
 67
     1
  8
0
100
AcDbBlockBegin
  2
*PAPER_SPACE
 70
     0
 10
0.0
 20
0.0
 30
0.0
  3
*PAPER_SPACE
  1

  0
ENDBLK
  5
17
330
15
100
AcDbEntity
 67
     1
  8
0
100
AcDbBlockEnd
  0
BLOCK
  5
43
330
42
100
AcDbEntity
  8
0
100
AcDbBlockBegin
  2
_OPEN30
 70
     0
 10
0.0
 20
0.0
 30
0.0
  3
_OPEN30
  1

  0
LINE
  5
44
330
42
100
AcDbEntity
  8
0
  6
BYBLOCK
 62
     0
100
AcDbLine
 10
-1.0
 20
0.26794919
 30
0.0
 11
0.0
 21
0.0
 31
0.0
  0
LINE
  5
45
330
42
100
AcDbEntity
  8
0
  6
BYBLOCK
 62
     0
100
AcDbLine
 10
0.0
 20
0.0
 30
0.0
 11
-1.0
 21
-0.26794919
 31
0.0
  0
LINE
  5
46
330
42
100
AcDbEntity
  8
0
  6
BYBLOCK
 62
     0
100
AcDbLine
 10
0.0
 20
0.0
 30
0.0
 11
-1.0
 21
0.0
 31
0.0
  0
ENDBLK
  5
47
330
42
100
AcDbEntity
  8
0
100
AcDbBlockEnd
  0
ENDSEC
  0
SECTION
  2
ENTITIES
  0
LINE
  5
18AA3
330
18
100
AcDbEntity
  8
01
  6
BYBLOCK
100
AcDbLine
 10
3784.824837362935
 20
-1322.167848794089
 30
0.0
 11
3784.824837362934
 21
-1320.167848794089
 31
0.0
  0
LINE
  5
18AC3
330
18
100
AcDbEntity
  8
01
  6
BYBLOCK
100
AcDbLine
 10
3696.024837362932
 20
-1322.167848794089
 30
0.0
 11
3696.024837362934
 21
-1320.167848794089
 31
0.0
  0
LINE
  5
18EE8
330
18
100
AcDbEntity
  8
01
100
AcDbLine
 10
3674.174837362934
 20
-1322.167848794089
 30
0.0
 11
3672.174837362934
 21
-1322.167848794089
 31
0.0
  0
LINE
  5
18EE9
330
18
100
AcDbEntity
  8
01
100
AcDbLine
 10
3672.174837362934
 20
-1381.667848794089
 30
0.0
 11
3672.174837362934
 21
-1322.167848794089
 31
0.0
  0
ARC
  5
18EEA
330
18
100
AcDbEntity
  8
01
100
AcDbCircle
 10
3672.674837362934
 20
-1339.667848794089
 30
0.0
 40
0.5
100
AcDbArc
 50
180.0
 51
270.0
  0
LINE
  5
18EEB
330
18
100
AcDbEntity
  8
01
100
AcDbLine
 10
3674.174837362934
 20
-1338.167848794089
 30
0.0
 11
3674.174837362934
 21
-1322.167848794089
 31
0.0
  0
LINE
  5
18EF1
330
18
100
AcDbEntity
  8
01
100
AcDbLine
 10
3808.674837362934
 20
-1322.167848794089
 30
0.0
 11
3806.674837362934
 21
-1322.167848794089
 31
0.0
  0
LINE
  5
18EF2
330
18
100
AcDbEntity
  8
01
100
AcDbLine
 10
3808.174837362934
 20
-1340.167848794089
 30
0.0
 11
3672.674837362934
 21
-1340.167848794089
 31
0.0
  0
ARC
  5
18EF3
330
18
100
AcDbEntity
  8
01
100
AcDbCircle
 10
3808.174837362934
 20
-1339.667848794089
 30
0.0
 40
0.5
100
AcDbArc
 50
270.0
 51
0.0
  0
LINE
  5
18EF4
330
18
100
AcDbEntity
  8
01
100
AcDbLine
 10
3806.674837362934
 20
-1338.167848794089
 30
0.0
 11
3674.174837362934
 21
-1338.167848794089
 31
0.0
  0
LINE
  5
18EF5
330
18
100
AcDbEntity
  8
01
100
AcDbLine
 10
3808.674837362934
 20
-1381.667848794089
 30
0.0
 11
3808.674837362934
 21
-1322.167848794089
 31
0.0
  0
LINE
  5
18EF6
330
18
100
AcDbEntity
  8
01
100
AcDbLine
 10
3806.674837362934
 20
-1338.167848794089
 30
0.0
 11
3806.674837362934
 21
-1322.167848794089
 31
0.0
  0
LINE
  5
18F29
330
18
100
AcDbEntity
  8
01
100
AcDbLine
 10
3674.274837362934
 20
-1337.56784879409
 30
0.0
 11
3674.274837362934
 21
-1322.167848794089
 31
0.0
  0
LINE
  5
18F2A
330
18
100
AcDbEntity
  8
01
100
AcDbLine
 10
3674.274837362934
 20
-1322.167848794089
 30
0.0
 11
3806.574837362934
 21
-1322.167848794089
 31
0.0
  0
LINE
  5
18F2B
330
18
100
AcDbEntity
  8
01
100
AcDbLine
 10
3806.574837362934
 20
-1337.56784879409
 30
0.0
 11
3806.574837362934
 21
-1322.167848794089
 31
0.0
  0
LINE
  5
18F2C
330
18
100
AcDbEntity
  8
01
100
AcDbLine
 10
3806.574837362934
 20
-1337.56784879409
 30
0.0
 11
3674.274837362934
 21
-1337.56784879409
 31
0.0
  0
LINE
  5
19305
102
{ACAD_REACTORS
330
1A11B
102
}
330
18
100
AcDbEntity
  8
1CENTER
100
AcDbLine
 10
3700.424837362935
 20
-1281.566173794089
 30
0.0
 11
3700.424837362935
 21
-1327.010279368058
 31
0.0
  0
LINE
  5
19306
102
{ACAD_REACTORS
330
1A11B
102
}
330
18
100
AcDbEntity
  8
1PHANTOM
100
AcDbLine
 10
3697.924837362935
 20
-1307.049983208043
 30
0.0
 11
3702.924837362935
 21
-1306.049983208043
 31
0.0
  0
LINE
  5
19307
102
{ACAD_REACTORS
330
1A11B
102
}
330
18
100
AcDbEntity
  8
1PHANTOM
100
AcDbLine
 10
3698.674837362935
 20
-1289.698937707335
 30
0.0
 11
3698.674837362935
 21
-1322.167848794089
 31
0.0
  0
LINE
  5
19308
102
{ACAD_REACTORS
330
1A11B
102
}
330
18
100
AcDbEntity
  8
1PHANTOM
100
AcDbLine
 10
3700.424837362935
 20
-1283.167848794089
 30
0.0
 11
3698.674837362935
 21
-1289.698937707335
 31
0.0
  0
LINE
  5
19309
102
{ACAD_REACTORS
330
1A11B
102
}
330
18
100
AcDbEntity
  8
1PHANTOM
100
AcDbLine
 10
3700.424837362935
 20
-1283.167848794089
 30
0.0
 11
3702.174837362935
 21
-1289.698937707335
 31
0.0
  0
LINE
  5
1930A
102
{ACAD_REACTORS
330
1A11B
102
}
330
18
100
AcDbEntity
  8
1PHANTOM
100
AcDbLine
 10
3702.174837362935
 20
-1289.698937707335
 30
0.0
 11
3702.174837362935
 21
-1322.167848794089
 31
0.0
  0
LINE
  5
1930B
102
{ACAD_REACTORS
330
1A11B
102
}
330
18
100
AcDbEntity
  8
1PHANTOM
100
AcDbLine
 10
3698.108570421899
 20
-1289.01323659625
 30
0.0
 11
3698.858570421899
 21
-1289.16323659625
 31
0.0
  0
LINE
  5
1930C
102
{ACAD_REACTORS
330
1A11B
102
}
330
18
100
AcDbEntity
  8
1PHANTOM
100
AcDbLine
 10
3698.108570421899
 20
-1289.01323659625
 30
0.0
 11
3702.50547490299
 21
-1288.133855700032
 31
0.0
  0
LINE
  5
1930D
102
{ACAD_REACTORS
330
1A11B
102
}
330
18
100
AcDbEntity
  8
1PHANTOM
100
AcDbLine
 10
3700.738194049879
 20
-1284.187311870654
 30
0.0
 11
3701.488194049879
 21
-1284.337311870655
 31
0.0
  0
LINE
  5
1930E
102
{ACAD_REACTORS
330
1A11B
102
}
330
18
100
AcDbEntity
  8
1PHANTOM
100
AcDbLine
 10
3699.241056962418
 20
-1284.786739288147
 30
0.0
 11
3699.991056962418
 21
-1284.936739288146
 31
0.0
  0
LINE
  5
1930F
102
{ACAD_REACTORS
330
1A11B
102
}
330
18
100
AcDbEntity
  8
1PHANTOM
100
AcDbLine
 10
3699.241056962418
 20
-1284.786739288147
 30
0.0
 11
3701.488194049879
 21
-1284.337311870655
 31
0.0
  0
LINE
  5
19310
102
{ACAD_REACTORS
330
1A11B
102
}
330
18
100
AcDbEntity
  8
1PHANTOM
100
AcDbLine
 10
3701.75547490299
 20
-1287.983855700033
 30
0.0
 11
3702.50547490299
 21
-1288.133855700032
 31
0.0
  0
LINE
  5
19311
102
{ACAD_REACTORS
330
1A11B
102
}
330
18
100
AcDbEntity
  8
1PHANTOM
100
AcDbLine
 10
3701.246834476435
 20
-1286.085583785343
 30
0.0
 11
3701.996834476435
 21
-1286.235583785343
 31
0.0
  0
LINE
  5
19312
102
{ACAD_REACTORS
330
1A11B
102
}
330
18
100
AcDbEntity
  8
1PHANTOM
100
AcDbLine
 10
3698.674813692159
 20
-1286.899987942199
 30
0.0
 11
3699.424813692159
 21
-1287.049987942198
 31
0.0
  0
LINE
  5
19313
102
{ACAD_REACTORS
330
1A11B
102
}
330
18
100
AcDbEntity
  8
1PHANTOM
100
AcDbLine
 10
3698.674813692159
 20
-1286.899987942199
 30
0.0
 11
3701.996834476435
 21
-1286.235583785343
 31
0.0
  0
LINE
  5
19314
102
{ACAD_REACTORS
330
1A11B
102
}
330
18
100
AcDbEntity
  8
1PHANTOM
100
AcDbLine
 10
3702.174837362935
 20
-1297.899983208043
 30
0.0
 11
3702.924837362935
 21
-1298.049983208043
 31
0.0
  0
LINE
  5
19315
102
{ACAD_REACTORS
330
1A11B
102
}
330
18
100
AcDbEntity
  8
1PHANTOM
100
AcDbLine
 10
3697.924837362935
 20
-1295.049983208043
 30
0.0
 11
3698.674837362935
 21
-1295.199983208043
 31
0.0
  0
LINE
  5
19316
102
{ACAD_REACTORS
330
1A11B
102
}
330
18
100
AcDbEntity
  8
1PHANTOM
100
AcDbLine
 10
3697.924837362935
 20
-1297.049983208043
 30
0.0
 11
3698.674837362935
 21
-1297.199983208043
 31
0.0
  0
LINE
  5
19317
102
{ACAD_REACTORS
330
1A11B
102
}
330
18
100
AcDbEntity
  8
1PHANTOM
100
AcDbLine
 10
3697.924837362935
 20
-1297.049983208043
 30
0.0
 11
3702.924837362935
 21
-1296.049983208043
 31
0.0
  0
LINE
  5
19318
102
{ACAD_REACTORS
330
1A11B
102
}
330
18
100
AcDbEntity
  8
1PHANTOM
100
AcDbLine
 10
3697.924837362935
 20
-1293.049983208043
 30
0.0
 11
3698.674837362935
 21
-1293.199983208043
 31
0.0
  0
LINE
  5
19319
102
{ACAD_REACTORS
330
1A11B
102
}
330
18
100
AcDbEntity
  8
1PHANTOM
100
AcDbLine
 10
3697.924837362935
 20
-1291.049983208043
 30
0.0
 11
3698.674837362935
 21
-1291.199983208043
 31
0.0
  0
LINE
  5
1931A
102
{ACAD_REACTORS
330
1A11B
102
}
330
18
100
AcDbEntity
  8
1PHANTOM
100
AcDbLine
 10
3697.924837362935
 20
-1291.049983208043
 30
0.0
 11
3702.924837362935
 21
-1290.049983208043
 31
0.0
  0
LINE
  5
1931B
102
{ACAD_REACTORS
330
1A11B
102
}
330
18
100
AcDbEntity
  8
1PHANTOM
100
AcDbLine
 10
3697.924837362935
 20
-1293.049983208043
 30
0.0
 11
3702.924837362935
 21
-1292.049983208043
 31
0.0
  0
LINE
  5
1931C
102
{ACAD_REACTORS
330
1A11B
102
}
330
18
100
AcDbEntity
  8
1PHANTOM
100
AcDbLine
 10
3697.924837362935
 20
-1295.049983208043
 30
0.0
 11
3702.924837362935
 21
-1294.049983208043
 31
0.0
  0
LINE
  5
1931D
102
{ACAD_REACTORS
330
1A11B
102
}
330
18
100
AcDbEntity
  8
1PHANTOM
100
AcDbLine
 10
3702.174837362935
 20
-1289.899983208043
 30
0.0
 11
3702.924837362935
 21
-1290.049983208043
 31
0.0
  0
LINE
  5
1931E
102
{ACAD_REACTORS
330
1A11B
102
}
330
18
100
AcDbEntity
  8
1PHANTOM
100
AcDbLine
 10
3702.174837362935
 20
-1291.899983208043
 30
0.0
 11
3702.924837362935
 21
-1292.049983208043
 31
0.0
  0
LINE
  5
1931F
102
{ACAD_REACTORS
330
1A11B
102
}
330
18
100
AcDbEntity
  8
1PHANTOM
100
AcDbLine
 10
3702.174837362935
 20
-1295.899983208043
 30
0.0
 11
3702.924837362935
 21
-1296.049983208043
 31
0.0
  0
LINE
  5
19320
102
{ACAD_REACTORS
330
1A11B
102
}
330
18
100
AcDbEntity
  8
1PHANTOM
100
AcDbLine
 10
3702.174837362935
 20
-1293.899983208043
 30
0.0
 11
3702.924837362935
 21
-1294.049983208043
 31
0.0
  0
LINE
  5
19321
102
{ACAD_REACTORS
330
1A11B
102
}
330
18
100
AcDbEntity
  8
1PHANTOM
100
AcDbLine
 10
3697.924837362935
 20
-1301.049983208043
 30
0.0
 11
3698.674837362935
 21
-1301.199983208043
 31
0.0
  0
LINE
  5
19322
102
{ACAD_REACTORS
330
1A11B
102
}
330
18
100
AcDbEntity
  8
1PHANTOM
100
AcDbLine
 10
3697.924837362935
 20
-1299.049983208043
 30
0.0
 11
3698.674837362935
 21
-1299.199983208043
 31
0.0
  0
LINE
  5
19323
102
{ACAD_REACTORS
330
1A11B
102
}
330
18
100
AcDbEntity
  8
1PHANTOM
100
AcDbLine
 10
3697.924837362935
 20
-1305.049983208043
 30
0.0
 11
3698.674837362935
 21
-1305.199983208043
 31
0.0
  0
LINE
  5
19324
102
{ACAD_REACTORS
330
1A11B
102
}
330
18
100
AcDbEntity
  8
1PHANTOM
100
AcDbLine
 10
3697.924837362935
 20
-1303.049983208043
 30
0.0
 11
3698.674837362935
 21
-1303.199983208043
 31
0.0
  0
LINE
  5
19325
102
{ACAD_REACTORS
330
1A11B
102
}
330
18
100
AcDbEntity
  8
1PHANTOM
100
AcDbLine
 10
3697.924837362935
 20
-1299.049983208043
 30
0.0
 11
3702.924837362935
 21
-1298.049983208043
 31
0.0
  0
LINE
  5
19326
102
{ACAD_REACTORS
330
1A11B
102
}
330
18
100
AcDbEntity
  8
1PHANTOM
100
AcDbLine
 10
3697.924837362935
 20
-1301.049983208043
 30
0.0
 11
3702.924837362935
 21
-1300.049983208043
 31
0.0
  0
LINE
  5
19327
102
{ACAD_REACTORS
330
1A11B
102
}
330
18
100
AcDbEntity
  8
1PHANTOM
100
AcDbLine
 10
3697.924837362935
 20
-1303.049983208043
 30
0.0
 11
3702.924837362935
 21
-1302.049983208043
 31
0.0
  0
LINE
  5
19328
102
{ACAD_REACTORS
330
1A11B
102
}
330
18
100
AcDbEntity
  8
1PHANTOM
100
AcDbLine
 10
3697.924837362935
 20
-1305.049983208043
 30
0.0
 11
3702.924837362935
 21
-1304.049983208043
 31
0.0
  0
LINE
  5
19329
102
{ACAD_REACTORS
330
1A11B
102
}
330
18
100
AcDbEntity
  8
1PHANTOM
100
AcDbLine
 10
3702.174837362935
 20
-1301.899983208043
 30
0.0
 11
3702.924837362935
 21
-1302.049983208043
 31
0.0
  0
LINE
  5
1932A
102
{ACAD_REACTORS
330
1A11B
102
}
330
18
100
AcDbEntity
  8
1PHANTOM
100
AcDbLine
 10
3702.174837362935
 20
-1299.899983208043
 30
0.0
 11
3702.924837362935
 21
-1300.049983208043
 31
0.0
  0
LINE
  5
1932B
102
{ACAD_REACTORS
330
1A11B
102
}
330
18
100
AcDbEntity
  8
1PHANTOM
100
AcDbLine
 10
3702.174837362935
 20
-1305.899983208043
 30
0.0
 11
3702.924837362935
 21
-1306.049983208043
 31
0.0
  0
LINE
  5
1932C
102
{ACAD_REACTORS
330
1A11B
102
}
330
18
100
AcDbEntity
  8
1PHANTOM
100
AcDbLine
 10
3702.174837362935
 20
-1303.899983208043
 30
0.0
 11
3702.924837362935
 21
-1304.049983208043
 31
0.0
  0
LINE
  5
1932D
102
{ACAD_REACTORS
330
1A11B
102
}
330
18
100
AcDbEntity
  8
1PHANTOM
100
AcDbLine
 10
3702.335509432702
 20
-1322.167848794089
 30
0.0
 11
3702.924837362935
 21
-1322.049983208043
 31
0.0
  0
LINE
  5
1932E
102
{ACAD_REACTORS
330
1A11B
102
}
330
18
100
AcDbEntity
  8
1PHANTOM
100
AcDbLine
 10
3697.924837362935
 20
-1315.049983208043
 30
0.0
 11
3702.924837362935
 21
-1314.049983208043
 31
0.0
  0
LINE
  5
1932F
102
{ACAD_REACTORS
330
1A11B
102
}
330
18
100
AcDbEntity
  8
1PHANTOM
100
AcDbLine
 10
3697.924837362935
 20
-1307.049983208043
 30
0.0
 11
3698.674837362935
 21
-1307.199983208043
 31
0.0
  0
LINE
  5
19330
102
{ACAD_REACTORS
330
1A11B
102
}
330
18
100
AcDbEntity
  8
1PHANTOM
100
AcDbLine
 10
3697.924837362935
 20
-1309.049983208043
 30
0.0
 11
3698.674837362935
 21
-1309.199983208043
 31
0.0
  0
LINE
  5
19331
102
{ACAD_REACTORS
330
1A11B
102
}
330
18
100
AcDbEntity
  8
1PHANTOM
100
AcDbLine
 10
3697.924837362935
 20
-1311.049983208043
 30
0.0
 11
3698.674837362935
 21
-1311.199983208043
 31
0.0
  0
LINE
  5
19332
102
{ACAD_REACTORS
330
1A11B
102
}
330
18
100
AcDbEntity
  8
1PHANTOM
100
AcDbLine
 10
3697.924837362935
 20
-1313.049983208043
 30
0.0
 11
3698.674837362935
 21
-1313.199983208043
 31
0.0
  0
LINE
  5
19333
102
{ACAD_REACTORS
330
1A11B
102
}
330
18
100
AcDbEntity
  8
1PHANTOM
100
AcDbLine
 10
3697.924837362935
 20
-1309.049983208043
 30
0.0
 11
3702.924837362935
 21
-1308.049983208043
 31
0.0
  0
LINE
  5
19334
102
{ACAD_REACTORS
330
1A11B
102
}
330
18
100
AcDbEntity
  8
1PHANTOM
100
AcDbLine
 10
3697.924837362935
 20
-1311.049983208043
 30
0.0
 11
3702.924837362935
 21
-1310.049983208043
 31
0.0
  0
LINE
  5
19335
102
{ACAD_REACTORS
330
1A11B
102
}
330
18
100
AcDbEntity
  8
1PHANTOM
100
AcDbLine
 10
3697.924837362935
 20
-1313.049983208043
 30
0.0
 11
3702.924837362935
 21
-1312.049983208043
 31
0.0
  0
LINE
  5
19336
102
{ACAD_REACTORS
330
1A11B
102
}
330
18
100
AcDbEntity
  8
1PHANTOM
100
AcDbLine
 10
3702.174837362935
 20
-1307.899983208043
 30
0.0
 11
3702.924837362935
 21
-1308.049983208043
 31
0.0
  0
LINE
  5
19337
102
{ACAD_REACTORS
330
1A11B
102
}
330
18
100
AcDbEntity
  8
1PHANTOM
100
AcDbLine
 10
3702.174837362935
 20
-1309.899983208043
 30
0.0
 11
3702.924837362935
 21
-1310.049983208043
 31
0.0
  0
LINE
  5
19338
102
{ACAD_REACTORS
330
1A11B
102
}
330
18
100
AcDbEntity
  8
1PHANTOM
100
AcDbLine
 10
3702.174837362935
 20
-1311.899983208043
 30
0.0
 11
3702.924837362935
 21
-1312.049983208043
 31
0.0
  0
LINE
  5
19339
102
{ACAD_REACTORS
330
1A11B
102
}
330
18
100
AcDbEntity
  8
1PHANTOM
100
AcDbLine
 10
3702.174837362935
 20
-1313.899983208043
 30
0.0
 11
3702.924837362935
 21
-1314.049983208043
 31
0.0
  0
LINE
  5
1933A
102
{ACAD_REACTORS
330
1A11B
102
}
330
18
100
AcDbEntity
  8
1PHANTOM
100
AcDbLine
 10
3697.924837362935
 20
-1319.049983208043
 30
0.0
 11
3698.674837362935
 21
-1319.199983208043
 31
0.0
  0
LINE
  5
1933B
102
{ACAD_REACTORS
330
1A11B
102
}
330
18
100
AcDbEntity
  8
1PHANTOM
100
AcDbLine
 10
3697.924837362935
 20
-1317.049983208043
 30
0.0
 11
3698.674837362935
 21
-1317.199983208043
 31
0.0
  0
LINE
  5
1933C
102
{ACAD_REACTORS
330
1A11B
102
}
330
18
100
AcDbEntity
  8
1PHANTOM
100
AcDbLine
 10
3697.924837362935
 20
-1315.049983208043
 30
0.0
 11
3698.674837362935
 21
-1315.199983208043
 31
0.0
  0
LINE
  5
1933D
102
{ACAD_REACTORS
330
1A11B
102
}
330
18
100
AcDbEntity
  8
1PHANTOM
100
AcDbLine
 10
3697.924837362935
 20
-1321.049983208043
 30
0.0
 11
3698.674837362935
 21
-1321.199983208043
 31
0.0
  0
LINE
  5
1933E
102
{ACAD_REACTORS
330
1A11B
102
}
330
18
100
AcDbEntity
  8
1PHANTOM
100
AcDbLine
 10
3697.924837362935
 20
-1317.049983208043
 30
0.0
 11
3702.924837362935
 21
-1316.049983208043
 31
0.0
  0
LINE
  5
1933F
102
{ACAD_REACTORS
330
1A11B
102
}
330
18
100
AcDbEntity
  8
1PHANTOM
100
AcDbLine
 10
3697.924837362935
 20
-1319.049983208043
 30
0.0
 11
3702.924837362935
 21
-1318.049983208043
 31
0.0
  0
LINE
  5
19340
102
{ACAD_REACTORS
330
1A11B
102
}
330
18
100
AcDbEntity
  8
1PHANTOM
100
AcDbLine
 10
3697.924837362935
 20
-1321.049983208043
 30
0.0
 11
3702.924837362935
 21
-1320.049983208043
 31
0.0
  0
LINE
  5
19341
102
{ACAD_REACTORS
330
1A11B
102
}
330
18
100
AcDbEntity
  8
1PHANTOM
100
AcDbLine
 10
3702.174837362935
 20
-1317.899983208043
 30
0.0
 11
3702.924837362935
 21
-1318.049983208043
 31
0.0
  0
LINE
  5
19342
102
{ACAD_REACTORS
330
1A11B
102
}
330
18
100
AcDbEntity
  8
1PHANTOM
100
AcDbLine
 10
3702.174837362935
 20
-1315.899983208043
 30
0.0
 11
3702.924837362935
 21
-1316.049983208043
 31
0.0
  0
LINE
  5
19343
102
{ACAD_REACTORS
330
1A11B
102
}
330
18
100
AcDbEntity
  8
1PHANTOM
100
AcDbLine
 10
3702.174837362935
 20
-1319.899983208043
 30
0.0
 11
3702.924837362935
 21
-1320.049983208043
 31
0.0
  0
LINE
  5
19344
102
{ACAD_REACTORS
330
1A11B
102
}
330
18
100
AcDbEntity
  8
1PHANTOM
100
AcDbLine
 10
3702.174837362935
 20
-1321.899983208043
 30
0.0
 11
3702.924837362935
 21
-1322.049983208043
 31
0.0
  0
LINE
  5
19E9B
330
18
100
AcDbEntity
  8
1CENTER
100
AcDbLine
 10
3696.524837362936
 20
-1791.138153377467
 30
0.0
 11
3704.324837362935
 21
-1791.138153377467
 31
0.0
  0
LINE
  5
19E9C
330
18
100
AcDbEntity
  8
01
100
AcDbLine
 10
3961.410611085057
 20
-2207.138153377466
 30
0.0
 11
3961.410611085057
 21
-2357.138153377467
 31
0.0
  0
LINE
  5
19E9D
330
18
100
AcDbEntity
  8
01
100
AcDbLine
 10
3900.410611085056
 20
-2207.138153377466
 30
0.0
 11
3900.410611085056
 21
-2357.138153377467
 31
0.0
  0
LINE
  5
19E9E
330
18
100
AcDbEntity
  8
1PHANTOM
100
AcDbLine
 10
3943.410611085057
 20
-2207.138153377466
 30
0.0
 11
3943.410611085057
 21
-2357.138153377467
 31
0.0
  0
LINE
  5
19EA0
330
18
100
AcDbEntity
  8
01
100
AcDbLine
 10
3900.410611085056
 20
-2207.138153377466
 30
0.0
 11
3943.410611085057
 21
-2207.138153377466
 31
0.0
  0
LINE
  5
19EA1
330
18
100
AcDbEntity
  8
01
100
AcDbLine
 10
3900.410611085056
 20
-2357.138153377467
 30
0.0
 11
3961.410611085057
 21
-2357.138153377467
 31
0.0
  0
ARC
  5
19EAA
330
18
100
AcDbEntity
  8
1PHANTOM
100
AcDbCircle
 10
3700.424837362935
 20
-1788.638153377466
 30
0.0
 40
2.5
100
AcDbArc
 50
0.0
 51
180.0
  0
ARC
  5
19EAB
330
18
100
AcDbEntity
  8
1PHANTOM
100
AcDbCircle
 10
3700.424837362935
 20
-1793.638153377468
 30
0.0
 40
2.5
100
AcDbArc
 50
180.0
 51
0.0
  0
LINE
  5
19EAC
330
18
100
AcDbEntity
  8
1PHANTOM
100
AcDbLine
 10
3697.924837362935
 20
-1793.638153377468
 30
0.0
 11
3697.924837362935
 21
-1788.638153377466
 31
0.0
  0
LINE
  5
19EAD
330
18
100
AcDbEntity
  8
1PHANTOM
100
AcDbLine
 10
3702.924837362935
 20
-1793.638153377468
 30
0.0
 11
3702.924837362935
 21
-1788.638153377466
 31
0.0
  0
LINE
  5
19EAE
330
18
100
AcDbEntity
  8
1CENTER
100
AcDbLine
 10
3700.424837362935
 20
-1797.716704334255
 30
0.0
 11
3700.424837362935
 21
-1784.559602420679
 31
0.0
  0
LINE
  5
19EAF
330
18
100
AcDbEntity
  8
1CENTER
100
AcDbLine
 10
3784.324837362933
 20
-1791.138153377467
 30
0.0
 11
3776.524837362934
 21
-1791.138153377467
 31
0.0
  0
ARC
  5
19EB0
330
18
100
AcDbEntity
  8
1PHANTOM
100
AcDbCircle
 10
3780.424837362933
 20
-1788.638153377466
 30
0.0
 40
2.5
100
AcDbArc
 50
0.0
 51
180.0
  0
ARC
  5
19EB1
330
18
100
AcDbEntity
  8
1PHANTOM
100
AcDbCircle
 10
3780.424837362933
 20
-1793.638153377468
 30
0.0
 40
2.5
100
AcDbArc
 50
180.0
 51
0.0
  0
LINE
  5
19EB2
330
18
100
AcDbEntity
  8
1PHANTOM
100
AcDbLine
 10
3782.924837362933
 20
-1793.638153377468
 30
0.0
 11
3782.924837362933
 21
-1788.638153377466
 31
0.0
  0
LINE
  5
19EB3
330
18
100
AcDbEntity
  8
1PHANTOM
100
AcDbLine
 10
3777.924837362933
 20
-1793.638153377468
 30
0.0
 11
3777.924837362933
 21
-1788.638153377466
 31
0.0
  0
LINE
  5
19EB4
330
18
100
AcDbEntity
  8
1CENTER
100
AcDbLine
 10
3780.424837362933
 20
-1797.716704334255
 30
0.0
 11
3780.424837362933
 21
-1784.559602420679
 31
0.0
  0
LINE
  5
19EB5
330
18
100
AcDbEntity
  8
1CENTER
100
AcDbLine
 10
3696.524837362936
 20
-2191.138153377467
 30
0.0
 11
3704.324837362935
 21
-2191.138153377467
 31
0.0
  0
ARC
  5
19EB6
330
18
100
AcDbEntity
  8
1PHANTOM
100
AcDbCircle
 10
3700.424837362935
 20
-2188.638153377467
 30
0.0
 40
2.5
100
AcDbArc
 50
0.0
 51
180.0
  0
ARC
  5
19EB7
330
18
100
AcDbEntity
  8
1PHANTOM
100
AcDbCircle
 10
3700.424837362935
 20
-2193.638153377468
 30
0.0
 40
2.5
100
AcDbArc
 50
180.0
 51
0.0
  0
LINE
  5
19EB8
330
18
100
AcDbEntity
  8
1PHANTOM
100
AcDbLine
 10
3697.924837362935
 20
-2193.638153377468
 30
0.0
 11
3697.924837362935
 21
-2188.638153377467
 31
0.0
  0
LINE
  5
19EB9
330
18
100
AcDbEntity
  8
1PHANTOM
100
AcDbLine
 10
3702.924837362935
 20
-2193.638153377468
 30
0.0
 11
3702.924837362935
 21
-2188.638153377467
 31
0.0
  0
LINE
  5
19EBA
330
18
100
AcDbEntity
  8
1CENTER
100
AcDbLine
 10
3700.424837362935
 20
-2197.716704334255
 30
0.0
 11
3700.424837362935
 21
-2184.559602420679
 31
0.0
  0
LINE
  5
19EBB
330
18
100
AcDbEntity
  8
1CENTER
100
AcDbLine
 10
3784.324837362933
 20
-2191.138153377467
 30
0.0
 11
3776.524837362934
 21
-2191.138153377467
 31
0.0
  0
ARC
  5
19EBC
330
18
100
AcDbEntity
  8
1PHANTOM
100
AcDbCircle
 10
3780.424837362933
 20
-2188.638153377467
 30
0.0
 40
2.5
100
AcDbArc
 50
0.0
 51
180.0
  0
ARC
  5
19EBD
330
18
100
AcDbEntity
  8
1PHANTOM
100
AcDbCircle
 10
3780.424837362933
 20
-2193.638153377468
 30
0.0
 40
2.5
100
AcDbArc
 50
180.0
 51
0.0
  0
LINE
  5
19EBE
330
18
100
AcDbEntity
  8
1PHANTOM
100
AcDbLine
 10
3782.924837362933
 20
-2193.638153377468
 30
0.0
 11
3782.924837362933
 21
-2188.638153377467
 31
0.0
  0
LINE
  5
19EBF
330
18
100
AcDbEntity
  8
1PHANTOM
100
AcDbLine
 10
3777.924837362933
 20
-2193.638153377468
 30
0.0
 11
3777.924837362933
 21
-2188.638153377467
 31
0.0
  0
LINE
  5
19EC0
330
18
100
AcDbEntity
  8
1CENTER
100
AcDbLine
 10
3780.424837362933
 20
-2197.716704334255
 30
0.0
 11
3780.424837362933
 21
-2184.559602420679
 31
0.0
  0
LINE
  5
19EF9
330
18
100
AcDbEntity
  8
01
100
AcDbLine
 10
3961.410611085057
 20
-1457.138153377467
 30
0.0
 11
3961.410611085057
 21
-2307.138153377467
 31
0.0
  0
LINE
  5
19F38
330
18
100
AcDbEntity
  8
01
100
AcDbLine
 10
3808.674837362935
 20
-2207.138153377466
 30
0.0
 11
3672.174837362934
 21
-2207.138153377466
 31
0.0
  0
LINE
  5
19F39
330
18
100
AcDbEntity
  8
01
100
AcDbLine
 10
3808.674837362935
 20
-2357.138153377467
 30
0.0
 11
3672.174837362934
 21
-2357.138153377467
 31
0.0
  0
LINE
  5
19F3A
330
18
100
AcDbEntity
  8
01
100
AcDbLine
 10
3672.174837362934
 20
-2207.138153377466
 30
0.0
 11
3672.174837362934
 21
-2357.138153377467
 31
0.0
  0
LINE
  5
19F3B
330
18
100
AcDbEntity
  8
01
100
AcDbLine
 10
3808.674837362935
 20
-2207.138153377466
 30
0.0
 11
3808.674837362935
 21
-2357.138153377467
 31
0.0
  0
LINE
  5
19F50
330
18
100
AcDbEntity
  8
01
100
AcDbLine
 10
3672.174837362935
 20
-1457.138153377467
 30
0.0
 11
3672.174837362935
 21
-1781.638153377467
 31
0.0
  0
LINE
  5
19F51
330
18
100
AcDbEntity
  8
01
100
AcDbLine
 10
3672.174837362935
 20
-1781.638153377467
 30
0.0
 11
3808.674837362933
 21
-1781.638153377467
 31
0.0
  0
LINE
  5
19F53
330
18
100
AcDbEntity
  8
01
100
AcDbLine
 10
3808.674837362935
 20
-1457.138153377467
 30
0.0
 11
3808.674837362935
 21
-1781.638153377467
 31
0.0
  0
LINE
  5
19F54
330
18
100
AcDbEntity
  8
01
100
AcDbLine
 10
3961.410611085057
 20
-1741.638153377467
 30
0.0
 11
3961.410611085057
 21
-1781.638153377467
 31
0.0
  0
LINE
  5
19F56
330
18
100
AcDbEntity
  8
01
100
AcDbLine
 10
3943.410611085057
 20
-1457.138153377467
 30
0.0
 11
3961.410611085057
 21
-1457.138153377467
 31
0.0
  0
LINE
  5
19F58
330
18
100
AcDbEntity
  8
01
100
AcDbLine
 10
3943.410611085057
 20
-1457.138153377467
 30
0.0
 11
3943.410611085057
 21
-1781.638153377467
 31
0.0
  0
LINE
  5
19F5B
330
18
100
AcDbEntity
  8
01
100
AcDbLine
 10
3943.410611085057
 20
-1781.638153377467
 30
0.0
 11
3961.410611085058
 21
-1781.638153377467
 31
0.0
  0
LINE
  5
19F85
330
18
100
AcDbEntity
  8
01
100
AcDbLine
 10
3808.674837362934
 20
-1822.138153377465
 30
0.0
 11
3672.174837362934
 21
-1822.138153377465
 31
0.0
  0
LINE
  5
19F86
330
18
100
AcDbEntity
  8
01
100
AcDbLine
 10
3672.174837362934
 20
-1822.138153377465
 30
0.0
 11
3672.174837362935
 21
-2207.138153377466
 31
0.0
  0
LINE
  5
19F87
330
18
100
AcDbEntity
  8
01
100
AcDbLine
 10
3808.674837362934
 20
-1822.138153377465
 30
0.0
 11
3808.674837362934
 21
-2207.138153377466
 31
0.0
  0
LINE
  5
19F8B
330
18
100
AcDbEntity
  8
01
100
AcDbLine
 10
3943.410611085057
 20
-2207.138153377467
 30
0.0
 11
3961.410611085057
 21
-2207.138153377467
 31
0.0
  0
LINE
  5
19F8C
330
18
100
AcDbEntity
  8
01
100
AcDbLine
 10
3943.410611085057
 20
-1822.138153377467
 30
0.0
 11
3961.410611085057
 21
-1822.138153377467
 31
0.0
  0
LINE
  5
19F8D
330
18
100
AcDbEntity
  8
01
100
AcDbLine
 10
3943.410611085058
 20
-1822.138153377467
 30
0.0
 11
3943.410611085057
 21
-2207.138153377467
 31
0.0
  0
LINE
  5
19FAB
330
18
100
AcDbEntity
  8
01
100
AcDbLine
 10
3700.424837362934
 20
-1822.138153377465
 30
0.0
 11
3784.424837362934
 21
-1822.138153377466
 31
0.0
  0
LINE
  5
19FC5
330
18
100
AcDbEntity
  8
01
100
AcDbLine
 10
3672.174837362934
 20
-1781.888153377467
 30
0.0
 11
3672.174837362934
 21
-1821.888153377467
 31
0.0
  0
LINE
  5
19FC6
330
18
100
AcDbEntity
  8
01
100
AcDbLine
 10
3672.174837362934
 20
-1821.888153377467
 30
0.0
 11
3808.674837362934
 21
-1821.888153377467
 31
0.0
  0
LINE
  5
19FC7
330
18
100
AcDbEntity
  8
01
100
AcDbLine
 10
3672.174837362934
 20
-1781.888153377467
 30
0.0
 11
3808.674837362934
 21
-1781.888153377467
 31
0.0
  0
LINE
  5
19FC8
330
18
100
AcDbEntity
  8
01
100
AcDbLine
 10
3808.674837362934
 20
-1781.888153377467
 30
0.0
 11
3808.674837362934
 21
-1821.888153377467
 31
0.0
  0
LINE
  5
1A0DE
330
18
100
AcDbEntity
  8
01
100
AcDbLine
 10
3963.410611085057
 20
-1981.788153377467
 30
0.0
 11
3963.410611085057
 21
-1976.488153377468
 31
0.0
  0
LINE
  5
1A0DF
330
18
100
AcDbEntity
  8
01
  6
BYBLOCK
100
AcDbLine
 10
3961.410611085057
 20
-1976.488153377466
 30
0.0
 11
3963.410611085057
 21
-1976.488153377468
 31
0.0
  0
LINE
  5
1A0E0
330
18
100
AcDbEntity
  8
01
  6
BYBLOCK
100
AcDbLine
 10
3961.410611085057
 20
-1981.788153377467
 30
0.0
 11
3963.410611085057
 21
-1981.788153377467
 31
0.0
  0
LINE
  5
1A0E1
330
18
100
AcDbEntity
  8
01
100
AcDbLine
 10
3963.410611085057
 20
-1884.488153377468
 30
0.0
 11
3963.410611085057
 21
-1889.788153377467
 31
0.0
  0
LINE
  5
1A0E2
330
18
100
AcDbEntity
  8
01
  6
BYBLOCK
100
AcDbLine
 10
3961.410611085057
 20
-1889.788153377469
 30
0.0
 11
3963.410611085057
 21
-1889.788153377467
 31
0.0
  0
LINE
  5
1A0E3
330
18
100
AcDbEntity
  8
01
  6
BYBLOCK
100
AcDbLine
 10
3961.410611085057
 20
-1884.488153377468
 30
0.0
 11
3963.410611085057
 21
-1884.488153377468
 31
0.0
  0
LINE
  5
1A109
330
18
100
AcDbEntity
  8
01
100
AcDbLine
 10
3943.410611085057
 20
-1781.888153377467
 30
0.0
 11
3961.410611085058
 21
-1781.888153377467
 31
0.0
  0
LINE
  5
1A10A
330
18
100
AcDbEntity
  8
01
100
AcDbLine
 10
3943.410611085057
 20
-1821.888153377467
 30
0.0
 11
3961.410611085057
 21
-1821.888153377467
 31
0.0
  0
LINE
  5
1A10B
330
18
100
AcDbEntity
  8
01
100
AcDbLine
 10
3943.410611085057
 20
-1821.888153377467
 30
0.0
 11
3943.410611085057
 21
-1781.888153377467
 31
0.0
  0
LINE
  5
1A10F
330
18
100
AcDbEntity
  8
01
100
AcDbLine
 10
3807.174837362934
 20
-1383.167848794089
 30
0.0
 11
3673.674837362934
 21
-1383.167848794089
 31
0.0
  0
ARC
  5
1A110
330
18
100
AcDbEntity
  8
01
100
AcDbCircle
 10
3807.174837362934
 20
-1381.667848794089
 30
0.0
 40
1.5
100
AcDbArc
 50
270.0
 51
0.0
  0
ARC
  5
1A111
330
18
100
AcDbEntity
  8
01
100
AcDbCircle
 10
3673.674837362934
 20
-1381.667848794089
 30
0.0
 40
1.5
100
AcDbArc
 50
180.0
 51
270.0
  0
LINE
  5
1A112
330
18
100
AcDbEntity
  8
01
100
AcDbLine
 10
3806.674837362934
 20
-1381.167848794089
 30
0.0
 11
3674.174837362934
 21
-1381.167848794089
 31
0.0
  0
LINE
  5
1A113
330
18
100
AcDbEntity
  8
01
100
AcDbLine
 10
3674.174837362934
 20
-1381.167848794089
 30
0.0
 11
3674.174837362934
 21
-1340.167848794089
 31
0.0
  0
LINE
  5
1A118
330
18
100
AcDbEntity
  8
01
100
AcDbLine
 10
3806.674837362934
 20
-1381.167848794089
 30
0.0
 11
3806.674837362934
 21
-1340.167848794089
 31
0.0
  0
LINE
  5
1A11A
330
18
100
AcDbEntity
  8
01
100
AcDbLine
 10
3698.674837362935
 20
-1320.167848794089
 30
0.0
 11
3696.024837362934
 21
-1320.167848794089
 31
0.0
  0
LINE
  5
1A11C
102
{ACAD_REACTORS
330
1A15C
102
}
330
18
100
AcDbEntity
  8
1CENTER
100
AcDbLine
 10
3780.424837362935
 20
-1281.566173794089
 30
0.0
 11
3780.424837362935
 21
-1327.010279368058
 31
0.0
  0
LINE
  5
1A11D
102
{ACAD_REACTORS
330
1A15C
102
}
330
18
100
AcDbEntity
  8
1PHANTOM
100
AcDbLine
 10
3777.924837362935
 20
-1307.049983208043
 30
0.0
 11
3782.924837362935
 21
-1306.049983208043
 31
0.0
  0
LINE
  5
1A11E
102
{ACAD_REACTORS
330
1A15C
102
}
330
18
100
AcDbEntity
  8
1PHANTOM
100
AcDbLine
 10
3778.674837362935
 20
-1289.698937707335
 30
0.0
 11
3778.674837362935
 21
-1322.167848794089
 31
0.0
  0
LINE
  5
1A11F
102
{ACAD_REACTORS
330
1A15C
102
}
330
18
100
AcDbEntity
  8
1PHANTOM
100
AcDbLine
 10
3780.424837362935
 20
-1283.167848794089
 30
0.0
 11
3778.674837362935
 21
-1289.698937707335
 31
0.0
  0
LINE
  5
1A120
102
{ACAD_REACTORS
330
1A15C
102
}
330
18
100
AcDbEntity
  8
1PHANTOM
100
AcDbLine
 10
3780.424837362935
 20
-1283.167848794089
 30
0.0
 11
3782.174837362935
 21
-1289.698937707335
 31
0.0
  0
LINE
  5
1A121
102
{ACAD_REACTORS
330
1A15C
102
}
330
18
100
AcDbEntity
  8
1PHANTOM
100
AcDbLine
 10
3782.174837362935
 20
-1289.698937707335
 30
0.0
 11
3782.174837362935
 21
-1322.167848794089
 31
0.0
  0
LINE
  5
1A122
102
{ACAD_REACTORS
330
1A15C
102
}
330
18
100
AcDbEntity
  8
1PHANTOM
100
AcDbLine
 10
3778.108570421899
 20
-1289.01323659625
 30
0.0
 11
3778.858570421899
 21
-1289.16323659625
 31
0.0
  0
LINE
  5
1A123
102
{ACAD_REACTORS
330
1A15C
102
}
330
18
100
AcDbEntity
  8
1PHANTOM
100
AcDbLine
 10
3778.108570421899
 20
-1289.01323659625
 30
0.0
 11
3782.50547490299
 21
-1288.133855700032
 31
0.0
  0
LINE
  5
1A124
102
{ACAD_REACTORS
330
1A15C
102
}
330
18
100
AcDbEntity
  8
1PHANTOM
100
AcDbLine
 10
3780.738194049879
 20
-1284.187311870654
 30
0.0
 11
3781.488194049879
 21
-1284.337311870655
 31
0.0
  0
LINE
  5
1A125
102
{ACAD_REACTORS
330
1A15C
102
}
330
18
100
AcDbEntity
  8
1PHANTOM
100
AcDbLine
 10
3779.241056962418
 20
-1284.786739288147
 30
0.0
 11
3779.991056962418
 21
-1284.936739288146
 31
0.0
  0
LINE
  5
1A126
102
{ACAD_REACTORS
330
1A15C
102
}
330
18
100
AcDbEntity
  8
1PHANTOM
100
AcDbLine
 10
3779.241056962418
 20
-1284.786739288147
 30
0.0
 11
3781.488194049879
 21
-1284.337311870655
 31
0.0
  0
LINE
  5
1A127
102
{ACAD_REACTORS
330
1A15C
102
}
330
18
100
AcDbEntity
  8
1PHANTOM
100
AcDbLine
 10
3781.75547490299
 20
-1287.983855700033
 30
0.0
 11
3782.50547490299
 21
-1288.133855700032
 31
0.0
  0
LINE
  5
1A128
102
{ACAD_REACTORS
330
1A15C
102
}
330
18
100
AcDbEntity
  8
1PHANTOM
100
AcDbLine
 10
3781.246834476435
 20
-1286.085583785343
 30
0.0
 11
3781.996834476435
 21
-1286.235583785343
 31
0.0
  0
LINE
  5
1A129
102
{ACAD_REACTORS
330
1A15C
102
}
330
18
100
AcDbEntity
  8
1PHANTOM
100
AcDbLine
 10
3778.674813692159
 20
-1286.899987942199
 30
0.0
 11
3779.424813692159
 21
-1287.049987942198
 31
0.0
  0
LINE
  5
1A12A
102
{ACAD_REACTORS
330
1A15C
102
}
330
18
100
AcDbEntity
  8
1PHANTOM
100
AcDbLine
 10
3778.674813692159
 20
-1286.899987942199
 30
0.0
 11
3781.996834476435
 21
-1286.235583785343
 31
0.0
  0
LINE
  5
1A12B
102
{ACAD_REACTORS
330
1A15C
102
}
330
18
100
AcDbEntity
  8
1PHANTOM
100
AcDbLine
 10
3782.174837362935
 20
-1297.899983208043
 30
0.0
 11
3782.924837362935
 21
-1298.049983208043
 31
0.0
  0
LINE
  5
1A12C
102
{ACAD_REACTORS
330
1A15C
102
}
330
18
100
AcDbEntity
  8
1PHANTOM
100
AcDbLine
 10
3777.924837362935
 20
-1295.049983208043
 30
0.0
 11
3778.674837362935
 21
-1295.199983208043
 31
0.0
  0
LINE
  5
1A12D
102
{ACAD_REACTORS
330
1A15C
102
}
330
18
100
AcDbEntity
  8
1PHANTOM
100
AcDbLine
 10
3777.924837362935
 20
-1297.049983208043
 30
0.0
 11
3778.674837362935
 21
-1297.199983208043
 31
0.0
  0
LINE
  5
1A12E
102
{ACAD_REACTORS
330
1A15C
102
}
330
18
100
AcDbEntity
  8
1PHANTOM
100
AcDbLine
 10
3777.924837362935
 20
-1297.049983208043
 30
0.0
 11
3782.924837362935
 21
-1296.049983208043
 31
0.0
  0
LINE
  5
1A12F
102
{ACAD_REACTORS
330
1A15C
102
}
330
18
100
AcDbEntity
  8
1PHANTOM
100
AcDbLine
 10
3777.924837362935
 20
-1293.049983208043
 30
0.0
 11
3778.674837362935
 21
-1293.199983208043
 31
0.0
  0
LINE
  5
1A130
102
{ACAD_REACTORS
330
1A15C
102
}
330
18
100
AcDbEntity
  8
1PHANTOM
100
AcDbLine
 10
3777.924837362935
 20
-1291.049983208043
 30
0.0
 11
3778.674837362935
 21
-1291.199983208043
 31
0.0
  0
LINE
  5
1A131
102
{ACAD_REACTORS
330
1A15C
102
}
330
18
100
AcDbEntity
  8
1PHANTOM
100
AcDbLine
 10
3777.924837362935
 20
-1291.049983208043
 30
0.0
 11
3782.924837362935
 21
-1290.049983208043
 31
0.0
  0
LINE
  5
1A132
102
{ACAD_REACTORS
330
1A15C
102
}
330
18
100
AcDbEntity
  8
1PHANTOM
100
AcDbLine
 10
3777.924837362935
 20
-1293.049983208043
 30
0.0
 11
3782.924837362935
 21
-1292.049983208043
 31
0.0
  0
LINE
  5
1A133
102
{ACAD_REACTORS
330
1A15C
102
}
330
18
100
AcDbEntity
  8
1PHANTOM
100
AcDbLine
 10
3777.924837362935
 20
-1295.049983208043
 30
0.0
 11
3782.924837362935
 21
-1294.049983208043
 31
0.0
  0
LINE
  5
1A134
102
{ACAD_REACTORS
330
1A15C
102
}
330
18
100
AcDbEntity
  8
1PHANTOM
100
AcDbLine
 10
3782.174837362935
 20
-1289.899983208043
 30
0.0
 11
3782.924837362935
 21
-1290.049983208043
 31
0.0
  0
LINE
  5
1A135
102
{ACAD_REACTORS
330
1A15C
102
}
330
18
100
AcDbEntity
  8
1PHANTOM
100
AcDbLine
 10
3782.174837362935
 20
-1291.899983208043
 30
0.0
 11
3782.924837362935
 21
-1292.049983208043
 31
0.0
  0
LINE
  5
1A136
102
{ACAD_REACTORS
330
1A15C
102
}
330
18
100
AcDbEntity
  8
1PHANTOM
100
AcDbLine
 10
3782.174837362935
 20
-1295.899983208043
 30
0.0
 11
3782.924837362935
 21
-1296.049983208043
 31
0.0
  0
LINE
  5
1A137
102
{ACAD_REACTORS
330
1A15C
102
}
330
18
100
AcDbEntity
  8
1PHANTOM
100
AcDbLine
 10
3782.174837362935
 20
-1293.899983208043
 30
0.0
 11
3782.924837362935
 21
-1294.049983208043
 31
0.0
  0
LINE
  5
1A138
102
{ACAD_REACTORS
330
1A15C
102
}
330
18
100
AcDbEntity
  8
1PHANTOM
100
AcDbLine
 10
3777.924837362935
 20
-1301.049983208043
 30
0.0
 11
3778.674837362935
 21
-1301.199983208043
 31
0.0
  0
LINE
  5
1A139
102
{ACAD_REACTORS
330
1A15C
102
}
330
18
100
AcDbEntity
  8
1PHANTOM
100
AcDbLine
 10
3777.924837362935
 20
-1299.049983208043
 30
0.0
 11
3778.674837362935
 21
-1299.199983208043
 31
0.0
  0
LINE
  5
1A13A
102
{ACAD_REACTORS
330
1A15C
102
}
330
18
100
AcDbEntity
  8
1PHANTOM
100
AcDbLine
 10
3777.924837362935
 20
-1305.049983208043
 30
0.0
 11
3778.674837362935
 21
-1305.199983208043
 31
0.0
  0
LINE
  5
1A13B
102
{ACAD_REACTORS
330
1A15C
102
}
330
18
100
AcDbEntity
  8
1PHANTOM
100
AcDbLine
 10
3777.924837362935
 20
-1303.049983208043
 30
0.0
 11
3778.674837362935
 21
-1303.199983208043
 31
0.0
  0
LINE
  5
1A13C
102
{ACAD_REACTORS
330
1A15C
102
}
330
18
100
AcDbEntity
  8
1PHANTOM
100
AcDbLine
 10
3777.924837362935
 20
-1299.049983208043
 30
0.0
 11
3782.924837362935
 21
-1298.049983208043
 31
0.0
  0
LINE
  5
1A13D
102
{ACAD_REACTORS
330
1A15C
102
}
330
18
100
AcDbEntity
  8
1PHANTOM
100
AcDbLine
 10
3777.924837362935
 20
-1301.049983208043
 30
0.0
 11
3782.924837362935
 21
-1300.049983208043
 31
0.0
  0
LINE
  5
1A13E
102
{ACAD_REACTORS
330
1A15C
102
}
330
18
100
AcDbEntity
  8
1PHANTOM
100
AcDbLine
 10
3777.924837362935
 20
-1303.049983208043
 30
0.0
 11
3782.924837362935
 21
-1302.049983208043
 31
0.0
  0
LINE
  5
1A13F
102
{ACAD_REACTORS
330
1A15C
102
}
330
18
100
AcDbEntity
  8
1PHANTOM
100
AcDbLine
 10
3777.924837362935
 20
-1305.049983208043
 30
0.0
 11
3782.924837362935
 21
-1304.049983208043
 31
0.0
  0
LINE
  5
1A140
102
{ACAD_REACTORS
330
1A15C
102
}
330
18
100
AcDbEntity
  8
1PHANTOM
100
AcDbLine
 10
3782.174837362935
 20
-1301.899983208043
 30
0.0
 11
3782.924837362935
 21
-1302.049983208043
 31
0.0
  0
LINE
  5
1A141
102
{ACAD_REACTORS
330
1A15C
102
}
330
18
100
AcDbEntity
  8
1PHANTOM
100
AcDbLine
 10
3782.174837362935
 20
-1299.899983208043
 30
0.0
 11
3782.924837362935
 21
-1300.049983208043
 31
0.0
  0
LINE
  5
1A142
102
{ACAD_REACTORS
330
1A15C
102
}
330
18
100
AcDbEntity
  8
1PHANTOM
100
AcDbLine
 10
3782.174837362935
 20
-1305.899983208043
 30
0.0
 11
3782.924837362935
 21
-1306.049983208043
 31
0.0
  0
LINE
  5
1A143
102
{ACAD_REACTORS
330
1A15C
102
}
330
18
100
AcDbEntity
  8
1PHANTOM
100
AcDbLine
 10
3782.174837362935
 20
-1303.899983208043
 30
0.0
 11
3782.924837362935
 21
-1304.049983208043
 31
0.0
  0
LINE
  5
1A144
102
{ACAD_REACTORS
330
1A15C
102
}
330
18
100
AcDbEntity
  8
1PHANTOM
100
AcDbLine
 10
3782.335509432702
 20
-1322.167848794089
 30
0.0
 11
3782.924837362935
 21
-1322.049983208043
 31
0.0
  0
LINE
  5
1A145
102
{ACAD_REACTORS
330
1A15C
102
}
330
18
100
AcDbEntity
  8
1PHANTOM
100
AcDbLine
 10
3777.924837362935
 20
-1315.049983208043
 30
0.0
 11
3782.924837362935
 21
-1314.049983208043
 31
0.0
  0
LINE
  5
1A146
102
{ACAD_REACTORS
330
1A15C
102
}
330
18
100
AcDbEntity
  8
1PHANTOM
100
AcDbLine
 10
3777.924837362935
 20
-1307.049983208043
 30
0.0
 11
3778.674837362935
 21
-1307.199983208043
 31
0.0
  0
LINE
  5
1A147
102
{ACAD_REACTORS
330
1A15C
102
}
330
18
100
AcDbEntity
  8
1PHANTOM
100
AcDbLine
 10
3777.924837362935
 20
-1309.049983208043
 30
0.0
 11
3778.674837362935
 21
-1309.199983208043
 31
0.0
  0
LINE
  5
1A148
102
{ACAD_REACTORS
330
1A15C
102
}
330
18
100
AcDbEntity
  8
1PHANTOM
100
AcDbLine
 10
3777.924837362935
 20
-1311.049983208043
 30
0.0
 11
3778.674837362935
 21
-1311.199983208043
 31
0.0
  0
LINE
  5
1A149
102
{ACAD_REACTORS
330
1A15C
102
}
330
18
100
AcDbEntity
  8
1PHANTOM
100
AcDbLine
 10
3777.924837362935
 20
-1313.049983208043
 30
0.0
 11
3778.674837362935
 21
-1313.199983208043
 31
0.0
  0
LINE
  5
1A14A
102
{ACAD_REACTORS
330
1A15C
102
}
330
18
100
AcDbEntity
  8
1PHANTOM
100
AcDbLine
 10
3777.924837362935
 20
-1309.049983208043
 30
0.0
 11
3782.924837362935
 21
-1308.049983208043
 31
0.0
  0
LINE
  5
1A14B
102
{ACAD_REACTORS
330
1A15C
102
}
330
18
100
AcDbEntity
  8
1PHANTOM
100
AcDbLine
 10
3777.924837362935
 20
-1311.049983208043
 30
0.0
 11
3782.924837362935
 21
-1310.049983208043
 31
0.0
  0
LINE
  5
1A14C
102
{ACAD_REACTORS
330
1A15C
102
}
330
18
100
AcDbEntity
  8
1PHANTOM
100
AcDbLine
 10
3777.924837362935
 20
-1313.049983208043
 30
0.0
 11
3782.924837362935
 21
-1312.049983208043
 31
0.0
  0
LINE
  5
1A14D
102
{ACAD_REACTORS
330
1A15C
102
}
330
18
100
AcDbEntity
  8
1PHANTOM
100
AcDbLine
 10
3782.174837362935
 20
-1307.899983208043
 30
0.0
 11
3782.924837362935
 21
-1308.049983208043
 31
0.0
  0
LINE
  5
1A14E
102
{ACAD_REACTORS
330
1A15C
102
}
330
18
100
AcDbEntity
  8
1PHANTOM
100
AcDbLine
 10
3782.174837362935
 20
-1309.899983208043
 30
0.0
 11
3782.924837362935
 21
-1310.049983208043
 31
0.0
  0
LINE
  5
1A14F
102
{ACAD_REACTORS
330
1A15C
102
}
330
18
100
AcDbEntity
  8
1PHANTOM
100
AcDbLine
 10
3782.174837362935
 20
-1311.899983208043
 30
0.0
 11
3782.924837362935
 21
-1312.049983208043
 31
0.0
  0
LINE
  5
1A150
102
{ACAD_REACTORS
330
1A15C
102
}
330
18
100
AcDbEntity
  8
1PHANTOM
100
AcDbLine
 10
3782.174837362935
 20
-1313.899983208043
 30
0.0
 11
3782.924837362935
 21
-1314.049983208043
 31
0.0
  0
LINE
  5
1A151
102
{ACAD_REACTORS
330
1A15C
102
}
330
18
100
AcDbEntity
  8
1PHANTOM
100
AcDbLine
 10
3777.924837362935
 20
-1319.049983208043
 30
0.0
 11
3778.674837362935
 21
-1319.199983208043
 31
0.0
  0
LINE
  5
1A152
102
{ACAD_REACTORS
330
1A15C
102
}
330
18
100
AcDbEntity
  8
1PHANTOM
100
AcDbLine
 10
3777.924837362935
 20
-1317.049983208043
 30
0.0
 11
3778.674837362935
 21
-1317.199983208043
 31
0.0
  0
LINE
  5
1A153
102
{ACAD_REACTORS
330
1A15C
102
}
330
18
100
AcDbEntity
  8
1PHANTOM
100
AcDbLine
 10
3777.924837362935
 20
-1315.049983208043
 30
0.0
 11
3778.674837362935
 21
-1315.199983208043
 31
0.0
  0
LINE
  5
1A154
102
{ACAD_REACTORS
330
1A15C
102
}
330
18
100
AcDbEntity
  8
1PHANTOM
100
AcDbLine
 10
3777.924837362935
 20
-1321.049983208043
 30
0.0
 11
3778.674837362935
 21
-1321.199983208043
 31
0.0
  0
LINE
  5
1A155
102
{ACAD_REACTORS
330
1A15C
102
}
330
18
100
AcDbEntity
  8
1PHANTOM
100
AcDbLine
 10
3777.924837362935
 20
-1317.049983208043
 30
0.0
 11
3782.924837362935
 21
-1316.049983208043
 31
0.0
  0
LINE
  5
1A156
102
{ACAD_REACTORS
330
1A15C
102
}
330
18
100
AcDbEntity
  8
1PHANTOM
100
AcDbLine
 10
3777.924837362935
 20
-1319.049983208043
 30
0.0
 11
3782.924837362935
 21
-1318.049983208043
 31
0.0
  0
LINE
  5
1A157
102
{ACAD_REACTORS
330
1A15C
102
}
330
18
100
AcDbEntity
  8
1PHANTOM
100
AcDbLine
 10
3777.924837362935
 20
-1321.049983208043
 30
0.0
 11
3782.924837362935
 21
-1320.049983208043
 31
0.0
  0
LINE
  5
1A158
102
{ACAD_REACTORS
330
1A15C
102
}
330
18
100
AcDbEntity
  8
1PHANTOM
100
AcDbLine
 10
3782.174837362935
 20
-1317.899983208043
 30
0.0
 11
3782.924837362935
 21
-1318.049983208043
 31
0.0
  0
LINE
  5
1A159
102
{ACAD_REACTORS
330
1A15C
102
}
330
18
100
AcDbEntity
  8
1PHANTOM
100
AcDbLine
 10
3782.174837362935
 20
-1315.899983208043
 30
0.0
 11
3782.924837362935
 21
-1316.049983208043
 31
0.0
  0
LINE
  5
1A15A
102
{ACAD_REACTORS
330
1A15C
102
}
330
18
100
AcDbEntity
  8
1PHANTOM
100
AcDbLine
 10
3782.174837362935
 20
-1319.899983208043
 30
0.0
 11
3782.924837362935
 21
-1320.049983208043
 31
0.0
  0
LINE
  5
1A15B
102
{ACAD_REACTORS
330
1A15C
102
}
330
18
100
AcDbEntity
  8
1PHANTOM
100
AcDbLine
 10
3782.174837362935
 20
-1321.899983208043
 30
0.0
 11
3782.924837362935
 21
-1322.049983208043
 31
0.0
  0
LINE
  5
1A15D
330
18
100
AcDbEntity
  8
01
100
AcDbLine
 10
3782.174837362935
 20
-1320.167848794089
 30
0.0
 11
3784.824837362934
 21
-1320.167848794089
 31
0.0
  0
LINE
  5
1A188
330
18
100
AcDbEntity
  8
1PHANTOM
100
AcDbLine
 10
3910.410611085056
 20
-2332.438153377467
 30
0.0
 11
3910.410611085056
 21
-2346.838153377468
 31
0.0
  0
ARC
  5
1A189
330
18
100
AcDbEntity
  8
1PHANTOM
100
AcDbCircle
 10
3910.710611085056
 20
-2332.438153377467
 30
0.0
 40
0.3
100
AcDbArc
 50
90.0
 51
180.0
  0
LINE
  5
1A18A
330
18
100
AcDbEntity
  8
1PHANTOM
100
AcDbLine
 10
3943.410611085057
 20
-2347.138153377467
 30
0.0
 11
3910.710611085056
 21
-2347.138153377467
 31
0.0
  0
ARC
  5
1A18B
330
18
100
AcDbEntity
  8
1PHANTOM
100
AcDbCircle
 10
3910.710611085056
 20
-2346.838153377468
 30
0.0
 40
0.3
100
AcDbArc
 50
180.0
 51
270.0
  0
LINE
  5
1A18C
330
18
100
AcDbEntity
  8
1PHANTOM
100
AcDbLine
 10
3943.410611085057
 20
-2332.138153377467
 30
0.0
 11
3910.710611085056
 21
-2332.138153377467
 31
0.0
  0
LINE
  5
1A1D5
330
18
100
AcDbEntity
  8
01
100
AcDbLine
 10
3976.410611085056
 20
-1449.974676325039
 30
0.0
 11
3976.41061108506
 21
-2365.364043664112
 31
0.0
  0
LINE
  5
1A1D6
330
18
100
AcDbEntity
  8
01
100
AcDbLine
 10
3961.410611085057
 20
-1449.974676325039
 30
0.0
 11
3961.410611085058
 21
-2365.364043664112
 31
0.0
  0
LINE
  5
1A1D7
102
{ACAD_REACTORS
330
1A263
102
}
330
18
100
AcDbEntity
  8
1PHANTOM
100
AcDbLine
 10
3960.41061108495
 20
-2186.388153377467
 30
0.0
 11
3959.41061108495
 21
-2186.388153377467
 31
0.0
  0
ARC
  5
1A1D8
102
{ACAD_REACTORS
330
1A263
102
}
330
18
100
AcDbEntity
  8
1PHANTOM
100
AcDbCircle
 10
3966.181444418284
 20
-2191.138153377467
 30
0.0
 40
8.270833333333439
100
AcDbArc
 50
144.9488632525446
 51
215.0511367474554
  0
LINE
  5
1A1D9
102
{ACAD_REACTORS
330
1A263
102
}
330
18
100
AcDbEntity
  8
1PHANTOM
100
AcDbLine
 10
3960.41061108495
 20
-2195.888153377467
 30
0.0
 11
3959.41061108495
 21
-2195.888153377467
 31
0.0
  0
LINE
  5
1A1DA
102
{ACAD_REACTORS
330
1A263
102
}
330
18
100
AcDbEntity
  8
1CENTER
100
AcDbLine
 10
4002.012286084951
 20
-2191.138153377467
 30
0.0
 11
3956.568180510982
 21
-2191.138153377467
 31
0.0
  0
LINE
  5
1A1DB
102
{ACAD_REACTORS
330
1A263
102
}
330
18
100
AcDbEntity
  8
1PHANTOM
100
AcDbLine
 10
3959.41061108495
 20
-2186.605090197801
 30
0.0
 11
3959.41061108495
 21
-2195.643521162273
 31
0.0
  0
LINE
  5
1A1DC
102
{ACAD_REACTORS
330
1A263
102
}
330
18
100
AcDbEntity
  8
1PHANTOM
100
AcDbLine
 10
3976.528476670996
 20
-2193.638153377467
 30
0.0
 11
3977.528476670996
 21
-2188.638153377467
 31
0.0
  0
LINE
  5
1A1DD
102
{ACAD_REACTORS
330
1A263
102
}
330
18
100
AcDbEntity
  8
1PHANTOM
100
AcDbLine
 10
3993.879522171705
 20
-2192.888153377467
 30
0.0
 11
3960.41061108495
 21
-2192.888153377467
 31
0.0
  0
LINE
  5
1A1DE
102
{ACAD_REACTORS
330
1A263
102
}
330
18
100
AcDbEntity
  8
1PHANTOM
100
AcDbLine
 10
4000.41061108495
 20
-2191.138153377467
 30
0.0
 11
3993.879522171705
 21
-2192.888153377467
 31
0.0
  0
LINE
  5
1A1DF
102
{ACAD_REACTORS
330
1A263
102
}
330
18
100
AcDbEntity
  8
1PHANTOM
100
AcDbLine
 10
4000.41061108495
 20
-2191.138153377467
 30
0.0
 11
3993.879522171705
 21
-2189.388153377467
 31
0.0
  0
LINE
  5
1A1E0
102
{ACAD_REACTORS
330
1A263
102
}
330
18
100
AcDbEntity
  8
1PHANTOM
100
AcDbLine
 10
3993.879522171705
 20
-2189.388153377467
 30
0.0
 11
3960.41061108495
 21
-2189.388153377467
 31
0.0
  0
LINE
  5
1A1E1
102
{ACAD_REACTORS
330
1A263
102
}
330
18
100
AcDbEntity
  8
1PHANTOM
100
AcDbLine
 10
3994.565223282789
 20
-2193.454420318503
 30
0.0
 11
3994.415223282789
 21
-2192.704420318503
 31
0.0
  0
LINE
  5
1A1E2
102
{ACAD_REACTORS
330
1A263
102
}
330
18
100
AcDbEntity
  8
1PHANTOM
100
AcDbLine
 10
3994.565223282789
 20
-2193.454420318503
 30
0.0
 11
3995.444604179007
 21
-2189.057515837412
 31
0.0
  0
LINE
  5
1A1E3
102
{ACAD_REACTORS
330
1A263
102
}
330
18
100
AcDbEntity
  8
1PHANTOM
100
AcDbLine
 10
3999.391148008385
 20
-2190.824796690524
 30
0.0
 11
3999.241148008385
 21
-2190.074796690524
 31
0.0
  0
LINE
  5
1A1E4
102
{ACAD_REACTORS
330
1A263
102
}
330
18
100
AcDbEntity
  8
1PHANTOM
100
AcDbLine
 10
3998.791720590893
 20
-2192.321933777985
 30
0.0
 11
3998.641720590893
 21
-2191.571933777985
 31
0.0
  0
LINE
  5
1A1E5
102
{ACAD_REACTORS
330
1A263
102
}
330
18
100
AcDbEntity
  8
1PHANTOM
100
AcDbLine
 10
3998.791720590893
 20
-2192.321933777985
 30
0.0
 11
3999.241148008385
 21
-2190.074796690524
 31
0.0
  0
LINE
  5
1A1E6
102
{ACAD_REACTORS
330
1A263
102
}
330
18
100
AcDbEntity
  8
1PHANTOM
100
AcDbLine
 10
3995.594604179007
 20
-2189.807515837412
 30
0.0
 11
3995.444604179007
 21
-2189.057515837412
 31
0.0
  0
LINE
  5
1A1E7
102
{ACAD_REACTORS
330
1A263
102
}
330
18
100
AcDbEntity
  8
1PHANTOM
100
AcDbLine
 10
3997.492876093696
 20
-2190.316156263968
 30
0.0
 11
3997.342876093696
 21
-2189.566156263968
 31
0.0
  0
LINE
  5
1A1E8
102
{ACAD_REACTORS
330
1A263
102
}
330
18
100
AcDbEntity
  8
1PHANTOM
100
AcDbLine
 10
3996.678471936841
 20
-2192.888177048244
 30
0.0
 11
3996.528471936841
 21
-2192.138177048244
 31
0.0
  0
LINE
  5
1A1E9
102
{ACAD_REACTORS
330
1A263
102
}
330
18
100
AcDbEntity
  8
1PHANTOM
100
AcDbLine
 10
3996.678471936841
 20
-2192.888177048244
 30
0.0
 11
3997.342876093696
 21
-2189.566156263968
 31
0.0
  0
LINE
  5
1A1EA
102
{ACAD_REACTORS
330
1A263
102
}
330
18
100
AcDbEntity
  8
1PHANTOM
100
AcDbLine
 10
3985.678476670996
 20
-2189.388153377467
 30
0.0
 11
3985.528476670996
 21
-2188.638153377467
 31
0.0
  0
LINE
  5
1A1EB
102
{ACAD_REACTORS
330
1A263
102
}
330
18
100
AcDbEntity
  8
1PHANTOM
100
AcDbLine
 10
3988.528476670996
 20
-2193.638153377467
 30
0.0
 11
3988.378476670996
 21
-2192.888153377467
 31
0.0
  0
LINE
  5
1A1EC
102
{ACAD_REACTORS
330
1A263
102
}
330
18
100
AcDbEntity
  8
1PHANTOM
100
AcDbLine
 10
3986.528476670996
 20
-2193.638153377467
 30
0.0
 11
3986.378476670996
 21
-2192.888153377467
 31
0.0
  0
LINE
  5
1A1ED
102
{ACAD_REACTORS
330
1A263
102
}
330
18
100
AcDbEntity
  8
1PHANTOM
100
AcDbLine
 10
3986.528476670996
 20
-2193.638153377467
 30
0.0
 11
3987.528476670996
 21
-2188.638153377467
 31
0.0
  0
LINE
  5
1A1EE
102
{ACAD_REACTORS
330
1A263
102
}
330
18
100
AcDbEntity
  8
1PHANTOM
100
AcDbLine
 10
3990.528476670996
 20
-2193.638153377467
 30
0.0
 11
3990.378476670996
 21
-2192.888153377467
 31
0.0
  0
LINE
  5
1A1EF
102
{ACAD_REACTORS
330
1A263
102
}
330
18
100
AcDbEntity
  8
1PHANTOM
100
AcDbLine
 10
3992.528476670996
 20
-2193.638153377467
 30
0.0
 11
3992.378476670996
 21
-2192.888153377467
 31
0.0
  0
LINE
  5
1A1F0
102
{ACAD_REACTORS
330
1A263
102
}
330
18
100
AcDbEntity
  8
1PHANTOM
100
AcDbLine
 10
3992.528476670996
 20
-2193.638153377467
 30
0.0
 11
3993.528476670996
 21
-2188.638153377467
 31
0.0
  0
LINE
  5
1A1F1
102
{ACAD_REACTORS
330
1A263
102
}
330
18
100
AcDbEntity
  8
1PHANTOM
100
AcDbLine
 10
3990.528476670996
 20
-2193.638153377467
 30
0.0
 11
3991.528476670996
 21
-2188.638153377467
 31
0.0
  0
LINE
  5
1A1F2
102
{ACAD_REACTORS
330
1A263
102
}
330
18
100
AcDbEntity
  8
1PHANTOM
100
AcDbLine
 10
3988.528476670996
 20
-2193.638153377467
 30
0.0
 11
3989.528476670996
 21
-2188.638153377467
 31
0.0
  0
LINE
  5
1A1F3
102
{ACAD_REACTORS
330
1A263
102
}
330
18
100
AcDbEntity
  8
1PHANTOM
100
AcDbLine
 10
3993.678476670996
 20
-2189.388153377467
 30
0.0
 11
3993.528476670996
 21
-2188.638153377467
 31
0.0
  0
LINE
  5
1A1F4
102
{ACAD_REACTORS
330
1A263
102
}
330
18
100
AcDbEntity
  8
1PHANTOM
100
AcDbLine
 10
3991.678476670996
 20
-2189.388153377467
 30
0.0
 11
3991.528476670996
 21
-2188.638153377467
 31
0.0
  0
LINE
  5
1A1F5
102
{ACAD_REACTORS
330
1A263
102
}
330
18
100
AcDbEntity
  8
1PHANTOM
100
AcDbLine
 10
3987.678476670996
 20
-2189.388153377467
 30
0.0
 11
3987.528476670996
 21
-2188.638153377467
 31
0.0
  0
LINE
  5
1A1F6
102
{ACAD_REACTORS
330
1A263
102
}
330
18
100
AcDbEntity
  8
1PHANTOM
100
AcDbLine
 10
3989.678476670996
 20
-2189.388153377467
 30
0.0
 11
3989.528476670996
 21
-2188.638153377467
 31
0.0
  0
LINE
  5
1A1F7
102
{ACAD_REACTORS
330
1A263
102
}
330
18
100
AcDbEntity
  8
1PHANTOM
100
AcDbLine
 10
3982.528476670996
 20
-2193.638153377467
 30
0.0
 11
3982.378476670996
 21
-2192.888153377467
 31
0.0
  0
LINE
  5
1A1F8
102
{ACAD_REACTORS
330
1A263
102
}
330
18
100
AcDbEntity
  8
1PHANTOM
100
AcDbLine
 10
3984.528476670996
 20
-2193.638153377467
 30
0.0
 11
3984.378476670996
 21
-2192.888153377467
 31
0.0
  0
LINE
  5
1A1F9
102
{ACAD_REACTORS
330
1A263
102
}
330
18
100
AcDbEntity
  8
1PHANTOM
100
AcDbLine
 10
3978.528476670996
 20
-2193.638153377467
 30
0.0
 11
3978.378476670996
 21
-2192.888153377467
 31
0.0
  0
LINE
  5
1A1FA
102
{ACAD_REACTORS
330
1A263
102
}
330
18
100
AcDbEntity
  8
1PHANTOM
100
AcDbLine
 10
3980.528476670996
 20
-2193.638153377467
 30
0.0
 11
3980.378476670996
 21
-2192.888153377467
 31
0.0
  0
LINE
  5
1A1FB
102
{ACAD_REACTORS
330
1A263
102
}
330
18
100
AcDbEntity
  8
1PHANTOM
100
AcDbLine
 10
3984.528476670996
 20
-2193.638153377467
 30
0.0
 11
3985.528476670996
 21
-2188.638153377467
 31
0.0
  0
LINE
  5
1A1FC
102
{ACAD_REACTORS
330
1A263
102
}
330
18
100
AcDbEntity
  8
1PHANTOM
100
AcDbLine
 10
3982.528476670996
 20
-2193.638153377467
 30
0.0
 11
3983.528476670996
 21
-2188.638153377467
 31
0.0
  0
LINE
  5
1A1FD
102
{ACAD_REACTORS
330
1A263
102
}
330
18
100
AcDbEntity
  8
1PHANTOM
100
AcDbLine
 10
3980.528476670996
 20
-2193.638153377467
 30
0.0
 11
3981.528476670996
 21
-2188.638153377467
 31
0.0
  0
LINE
  5
1A1FE
102
{ACAD_REACTORS
330
1A263
102
}
330
18
100
AcDbEntity
  8
1PHANTOM
100
AcDbLine
 10
3978.528476670996
 20
-2193.638153377467
 30
0.0
 11
3979.528476670996
 21
-2188.638153377467
 31
0.0
  0
LINE
  5
1A1FF
102
{ACAD_REACTORS
330
1A263
102
}
330
18
100
AcDbEntity
  8
1PHANTOM
100
AcDbLine
 10
3981.678476670996
 20
-2189.388153377467
 30
0.0
 11
3981.528476670996
 21
-2188.638153377467
 31
0.0
  0
LINE
  5
1A200
102
{ACAD_REACTORS
330
1A263
102
}
330
18
100
AcDbEntity
  8
1PHANTOM
100
AcDbLine
 10
3983.678476670996
 20
-2189.388153377467
 30
0.0
 11
3983.528476670996
 21
-2188.638153377467
 31
0.0
  0
LINE
  5
1A201
102
{ACAD_REACTORS
330
1A263
102
}
330
18
100
AcDbEntity
  8
1PHANTOM
100
AcDbLine
 10
3977.678476670996
 20
-2189.388153377467
 30
0.0
 11
3977.528476670996
 21
-2188.638153377467
 31
0.0
  0
LINE
  5
1A202
102
{ACAD_REACTORS
330
1A263
102
}
330
18
100
AcDbEntity
  8
1PHANTOM
100
AcDbLine
 10
3979.678476670996
 20
-2189.388153377467
 30
0.0
 11
3979.528476670996
 21
-2188.638153377467
 31
0.0
  0
LINE
  5
1A203
102
{ACAD_REACTORS
330
1A263
102
}
330
18
100
AcDbEntity
  8
1PHANTOM
100
AcDbLine
 10
3960.528476670996
 20
-2193.638153377467
 30
0.0
 11
3961.528476670996
 21
-2188.638153377467
 31
0.0
  0
LINE
  5
1A204
102
{ACAD_REACTORS
330
1A263
102
}
330
18
100
AcDbEntity
  8
1PHANTOM
100
AcDbLine
 10
3968.528476670996
 20
-2193.638153377467
 30
0.0
 11
3969.528476670996
 21
-2188.638153377467
 31
0.0
  0
LINE
  5
1A205
102
{ACAD_REACTORS
330
1A263
102
}
330
18
100
AcDbEntity
  8
1PHANTOM
100
AcDbLine
 10
3976.528476670996
 20
-2193.638153377467
 30
0.0
 11
3976.378476670996
 21
-2192.888153377467
 31
0.0
  0
LINE
  5
1A206
102
{ACAD_REACTORS
330
1A263
102
}
330
18
100
AcDbEntity
  8
1PHANTOM
100
AcDbLine
 10
3974.528476670996
 20
-2193.638153377467
 30
0.0
 11
3974.378476670996
 21
-2192.888153377467
 31
0.0
  0
LINE
  5
1A207
102
{ACAD_REACTORS
330
1A263
102
}
330
18
100
AcDbEntity
  8
1PHANTOM
100
AcDbLine
 10
3972.528476670996
 20
-2193.638153377467
 30
0.0
 11
3972.378476670996
 21
-2192.888153377467
 31
0.0
  0
LINE
  5
1A208
102
{ACAD_REACTORS
330
1A263
102
}
330
18
100
AcDbEntity
  8
1PHANTOM
100
AcDbLine
 10
3970.528476670996
 20
-2193.638153377467
 30
0.0
 11
3970.378476670996
 21
-2192.888153377467
 31
0.0
  0
LINE
  5
1A209
102
{ACAD_REACTORS
330
1A263
102
}
330
18
100
AcDbEntity
  8
1PHANTOM
100
AcDbLine
 10
3974.528476670996
 20
-2193.638153377467
 30
0.0
 11
3975.528476670996
 21
-2188.638153377467
 31
0.0
  0
LINE
  5
1A20A
102
{ACAD_REACTORS
330
1A263
102
}
330
18
100
AcDbEntity
  8
1PHANTOM
100
AcDbLine
 10
3972.528476670996
 20
-2193.638153377467
 30
0.0
 11
3973.528476670996
 21
-2188.638153377467
 31
0.0
  0
LINE
  5
1A20B
102
{ACAD_REACTORS
330
1A263
102
}
330
18
100
AcDbEntity
  8
1PHANTOM
100
AcDbLine
 10
3970.528476670996
 20
-2193.638153377467
 30
0.0
 11
3971.528476670996
 21
-2188.638153377467
 31
0.0
  0
LINE
  5
1A20C
102
{ACAD_REACTORS
330
1A263
102
}
330
18
100
AcDbEntity
  8
1PHANTOM
100
AcDbLine
 10
3975.678476670996
 20
-2189.388153377467
 30
0.0
 11
3975.528476670996
 21
-2188.638153377467
 31
0.0
  0
LINE
  5
1A20D
102
{ACAD_REACTORS
330
1A263
102
}
330
18
100
AcDbEntity
  8
1PHANTOM
100
AcDbLine
 10
3973.678476670996
 20
-2189.388153377467
 30
0.0
 11
3973.528476670996
 21
-2188.638153377467
 31
0.0
  0
LINE
  5
1A20E
102
{ACAD_REACTORS
330
1A263
102
}
330
18
100
AcDbEntity
  8
1PHANTOM
100
AcDbLine
 10
3971.678476670996
 20
-2189.388153377467
 30
0.0
 11
3971.528476670996
 21
-2188.638153377467
 31
0.0
  0
LINE
  5
1A20F
102
{ACAD_REACTORS
330
1A263
102
}
330
18
100
AcDbEntity
  8
1PHANTOM
100
AcDbLine
 10
3969.678476670996
 20
-2189.388153377467
 30
0.0
 11
3969.528476670996
 21
-2188.638153377467
 31
0.0
  0
LINE
  5
1A210
102
{ACAD_REACTORS
330
1A263
102
}
330
18
100
AcDbEntity
  8
1PHANTOM
100
AcDbLine
 10
3964.528476670996
 20
-2193.638153377467
 30
0.0
 11
3964.378476670996
 21
-2192.888153377467
 31
0.0
  0
LINE
  5
1A211
102
{ACAD_REACTORS
330
1A263
102
}
330
18
100
AcDbEntity
  8
1PHANTOM
100
AcDbLine
 10
3966.528476670996
 20
-2193.638153377467
 30
0.0
 11
3966.378476670996
 21
-2192.888153377467
 31
0.0
  0
LINE
  5
1A212
102
{ACAD_REACTORS
330
1A263
102
}
330
18
100
AcDbEntity
  8
1PHANTOM
100
AcDbLine
 10
3968.528476670996
 20
-2193.638153377467
 30
0.0
 11
3968.378476670996
 21
-2192.888153377467
 31
0.0
  0
LINE
  5
1A213
102
{ACAD_REACTORS
330
1A263
102
}
330
18
100
AcDbEntity
  8
1PHANTOM
100
AcDbLine
 10
3962.528476670996
 20
-2193.638153377467
 30
0.0
 11
3962.378476670996
 21
-2192.888153377467
 31
0.0
  0
LINE
  5
1A214
102
{ACAD_REACTORS
330
1A263
102
}
330
18
100
AcDbEntity
  8
1PHANTOM
100
AcDbLine
 10
3966.528476670996
 20
-2193.638153377467
 30
0.0
 11
3967.528476670996
 21
-2188.638153377467
 31
0.0
  0
LINE
  5
1A215
102
{ACAD_REACTORS
330
1A263
102
}
330
18
100
AcDbEntity
  8
1PHANTOM
100
AcDbLine
 10
3964.528476670996
 20
-2193.638153377467
 30
0.0
 11
3965.528476670996
 21
-2188.638153377467
 31
0.0
  0
LINE
  5
1A216
102
{ACAD_REACTORS
330
1A263
102
}
330
18
100
AcDbEntity
  8
1PHANTOM
100
AcDbLine
 10
3962.528476670996
 20
-2193.638153377467
 30
0.0
 11
3963.528476670996
 21
-2188.638153377467
 31
0.0
  0
LINE
  5
1A217
102
{ACAD_REACTORS
330
1A263
102
}
330
18
100
AcDbEntity
  8
1PHANTOM
100
AcDbLine
 10
3965.678476670996
 20
-2189.388153377467
 30
0.0
 11
3965.528476670996
 21
-2188.638153377467
 31
0.0
  0
LINE
  5
1A218
102
{ACAD_REACTORS
330
1A263
102
}
330
18
100
AcDbEntity
  8
1PHANTOM
100
AcDbLine
 10
3967.678476670996
 20
-2189.388153377467
 30
0.0
 11
3967.528476670996
 21
-2188.638153377467
 31
0.0
  0
LINE
  5
1A219
102
{ACAD_REACTORS
330
1A263
102
}
330
18
100
AcDbEntity
  8
1PHANTOM
100
AcDbLine
 10
3963.678476670996
 20
-2189.388153377467
 30
0.0
 11
3963.528476670996
 21
-2188.638153377467
 31
0.0
  0
LINE
  5
1A21A
102
{ACAD_REACTORS
330
1A263
102
}
330
18
100
AcDbEntity
  8
1PHANTOM
100
AcDbLine
 10
3961.678476670996
 20
-2189.388153377467
 30
0.0
 11
3961.528476670996
 21
-2188.638153377467
 31
0.0
  0
LINE
  5
1A21B
102
{ACAD_REACTORS
330
1A263
102
}
330
18
100
AcDbEntity
  8
1PHANTOM
100
AcDbLine
 10
3960.528476670996
 20
-2193.638153377467
 30
0.0
 11
3960.378476670996
 21
-2192.888153377467
 31
0.0
  0
LINE
  5
1A21C
102
{ACAD_REACTORS
330
1A263
102
}
330
18
100
AcDbEntity
  8
1PHANTOM
100
AcDbLine
 10
3960.41061108495
 20
-2186.388153377467
 30
0.0
 11
3960.41061108495
 21
-2195.888153377467
 31
0.0
  0
LINE
  5
1A21D
102
{ACAD_REACTORS
330
1A264
102
}
330
18
100
AcDbEntity
  8
1PHANTOM
100
AcDbLine
 10
3960.410611084949
 20
-1795.888153377467
 30
0.0
 11
3959.410611084949
 21
-1795.888153377467
 31
0.0
  0
ARC
  5
1A21E
102
{ACAD_REACTORS
330
1A264
102
}
330
18
100
AcDbEntity
  8
1PHANTOM
100
AcDbCircle
 10
3966.181444418283
 20
-1791.138153377467
 30
0.0
 40
8.270833333333439
100
AcDbArc
 50
144.9488632525447
 51
215.0511367474553
  0
LINE
  5
1A21F
102
{ACAD_REACTORS
330
1A264
102
}
330
18
100
AcDbEntity
  8
1PHANTOM
100
AcDbLine
 10
3960.410611084949
 20
-1786.388153377467
 30
0.0
 11
3959.410611084949
 21
-1786.388153377467
 31
0.0
  0
LINE
  5
1A220
102
{ACAD_REACTORS
330
1A264
102
}
330
18
100
AcDbEntity
  8
1CENTER
100
AcDbLine
 10
4002.01228608495
 20
-1791.138153377467
 30
0.0
 11
3956.568180510981
 21
-1791.138153377467
 31
0.0
  0
LINE
  5
1A221
102
{ACAD_REACTORS
330
1A264
102
}
330
18
100
AcDbEntity
  8
1PHANTOM
100
AcDbLine
 10
3959.410611084949
 20
-1795.671216557134
 30
0.0
 11
3959.410611084949
 21
-1786.632785592662
 31
0.0
  0
LINE
  5
1A222
102
{ACAD_REACTORS
330
1A264
102
}
330
18
100
AcDbEntity
  8
1PHANTOM
100
AcDbLine
 10
3976.528476670996
 20
-1788.638153377467
 30
0.0
 11
3977.528476670996
 21
-1793.638153377467
 31
0.0
  0
LINE
  5
1A223
102
{ACAD_REACTORS
330
1A264
102
}
330
18
100
AcDbEntity
  8
1PHANTOM
100
AcDbLine
 10
3993.879522171704
 20
-1789.388153377467
 30
0.0
 11
3960.410611084949
 21
-1789.388153377467
 31
0.0
  0
LINE
  5
1A224
102
{ACAD_REACTORS
330
1A264
102
}
330
18
100
AcDbEntity
  8
1PHANTOM
100
AcDbLine
 10
4000.410611084949
 20
-1791.138153377467
 30
0.0
 11
3993.879522171704
 21
-1789.388153377467
 31
0.0
  0
LINE
  5
1A225
102
{ACAD_REACTORS
330
1A264
102
}
330
18
100
AcDbEntity
  8
1PHANTOM
100
AcDbLine
 10
4000.410611084949
 20
-1791.138153377467
 30
0.0
 11
3993.879522171704
 21
-1792.888153377467
 31
0.0
  0
LINE
  5
1A226
102
{ACAD_REACTORS
330
1A264
102
}
330
18
100
AcDbEntity
  8
1PHANTOM
100
AcDbLine
 10
3993.879522171704
 20
-1792.888153377467
 30
0.0
 11
3960.410611084949
 21
-1792.888153377467
 31
0.0
  0
LINE
  5
1A227
102
{ACAD_REACTORS
330
1A264
102
}
330
18
100
AcDbEntity
  8
1PHANTOM
100
AcDbLine
 10
3994.565223282788
 20
-1788.821886436431
 30
0.0
 11
3994.415223282789
 21
-1789.571886436431
 31
0.0
  0
LINE
  5
1A228
102
{ACAD_REACTORS
330
1A264
102
}
330
18
100
AcDbEntity
  8
1PHANTOM
100
AcDbLine
 10
3994.565223282788
 20
-1788.821886436431
 30
0.0
 11
3995.444604179007
 21
-1793.218790917522
 31
0.0
  0
LINE
  5
1A229
102
{ACAD_REACTORS
330
1A264
102
}
330
18
100
AcDbEntity
  8
1PHANTOM
100
AcDbLine
 10
3999.391148008385
 20
-1791.451510064411
 30
0.0
 11
3999.241148008384
 21
-1792.201510064411
 31
0.0
  0
LINE
  5
1A22A
102
{ACAD_REACTORS
330
1A264
102
}
330
18
100
AcDbEntity
  8
1PHANTOM
100
AcDbLine
 10
3998.791720590892
 20
-1789.95437297695
 30
0.0
 11
3998.641720590892
 21
-1790.70437297695
 31
0.0
  0
LINE
  5
1A22B
102
{ACAD_REACTORS
330
1A264
102
}
330
18
100
AcDbEntity
  8
1PHANTOM
100
AcDbLine
 10
3998.791720590892
 20
-1789.95437297695
 30
0.0
 11
3999.241148008384
 21
-1792.201510064411
 31
0.0
  0
LINE
  5
1A22C
102
{ACAD_REACTORS
330
1A264
102
}
330
18
100
AcDbEntity
  8
1PHANTOM
100
AcDbLine
 10
3995.594604179006
 20
-1792.468790917522
 30
0.0
 11
3995.444604179007
 21
-1793.218790917522
 31
0.0
  0
LINE
  5
1A22D
102
{ACAD_REACTORS
330
1A264
102
}
330
18
100
AcDbEntity
  8
1PHANTOM
100
AcDbLine
 10
3997.492876093696
 20
-1791.960150490967
 30
0.0
 11
3997.342876093695
 21
-1792.710150490967
 31
0.0
  0
LINE
  5
1A22E
102
{ACAD_REACTORS
330
1A264
102
}
330
18
100
AcDbEntity
  8
1PHANTOM
100
AcDbLine
 10
3996.67847193684
 20
-1789.388129706691
 30
0.0
 11
3996.528471936841
 21
-1790.138129706691
 31
0.0
  0
LINE
  5
1A22F
102
{ACAD_REACTORS
330
1A264
102
}
330
18
100
AcDbEntity
  8
1PHANTOM
100
AcDbLine
 10
3996.67847193684
 20
-1789.388129706691
 30
0.0
 11
3997.342876093695
 21
-1792.710150490967
 31
0.0
  0
LINE
  5
1A230
102
{ACAD_REACTORS
330
1A264
102
}
330
18
100
AcDbEntity
  8
1PHANTOM
100
AcDbLine
 10
3985.678476670996
 20
-1792.888153377467
 30
0.0
 11
3985.528476670996
 21
-1793.638153377467
 31
0.0
  0
LINE
  5
1A231
102
{ACAD_REACTORS
330
1A264
102
}
330
18
100
AcDbEntity
  8
1PHANTOM
100
AcDbLine
 10
3988.528476670996
 20
-1788.638153377467
 30
0.0
 11
3988.378476670995
 21
-1789.388153377467
 31
0.0
  0
LINE
  5
1A232
102
{ACAD_REACTORS
330
1A264
102
}
330
18
100
AcDbEntity
  8
1PHANTOM
100
AcDbLine
 10
3986.528476670996
 20
-1788.638153377467
 30
0.0
 11
3986.378476670995
 21
-1789.388153377467
 31
0.0
  0
LINE
  5
1A233
102
{ACAD_REACTORS
330
1A264
102
}
330
18
100
AcDbEntity
  8
1PHANTOM
100
AcDbLine
 10
3986.528476670996
 20
-1788.638153377467
 30
0.0
 11
3987.528476670996
 21
-1793.638153377467
 31
0.0
  0
LINE
  5
1A234
102
{ACAD_REACTORS
330
1A264
102
}
330
18
100
AcDbEntity
  8
1PHANTOM
100
AcDbLine
 10
3990.528476670996
 20
-1788.638153377467
 30
0.0
 11
3990.378476670995
 21
-1789.388153377467
 31
0.0
  0
LINE
  5
1A235
102
{ACAD_REACTORS
330
1A264
102
}
330
18
100
AcDbEntity
  8
1PHANTOM
100
AcDbLine
 10
3992.528476670996
 20
-1788.638153377467
 30
0.0
 11
3992.378476670995
 21
-1789.388153377467
 31
0.0
  0
LINE
  5
1A236
102
{ACAD_REACTORS
330
1A264
102
}
330
18
100
AcDbEntity
  8
1PHANTOM
100
AcDbLine
 10
3992.528476670996
 20
-1788.638153377467
 30
0.0
 11
3993.528476670996
 21
-1793.638153377467
 31
0.0
  0
LINE
  5
1A237
102
{ACAD_REACTORS
330
1A264
102
}
330
18
100
AcDbEntity
  8
1PHANTOM
100
AcDbLine
 10
3990.528476670996
 20
-1788.638153377467
 30
0.0
 11
3991.528476670996
 21
-1793.638153377467
 31
0.0
  0
LINE
  5
1A238
102
{ACAD_REACTORS
330
1A264
102
}
330
18
100
AcDbEntity
  8
1PHANTOM
100
AcDbLine
 10
3988.528476670996
 20
-1788.638153377467
 30
0.0
 11
3989.528476670996
 21
-1793.638153377467
 31
0.0
  0
LINE
  5
1A239
102
{ACAD_REACTORS
330
1A264
102
}
330
18
100
AcDbEntity
  8
1PHANTOM
100
AcDbLine
 10
3993.678476670996
 20
-1792.888153377467
 30
0.0
 11
3993.528476670996
 21
-1793.638153377467
 31
0.0
  0
LINE
  5
1A23A
102
{ACAD_REACTORS
330
1A264
102
}
330
18
100
AcDbEntity
  8
1PHANTOM
100
AcDbLine
 10
3991.678476670996
 20
-1792.888153377467
 30
0.0
 11
3991.528476670996
 21
-1793.638153377467
 31
0.0
  0
LINE
  5
1A23B
102
{ACAD_REACTORS
330
1A264
102
}
330
18
100
AcDbEntity
  8
1PHANTOM
100
AcDbLine
 10
3987.678476670996
 20
-1792.888153377467
 30
0.0
 11
3987.528476670996
 21
-1793.638153377467
 31
0.0
  0
LINE
  5
1A23C
102
{ACAD_REACTORS
330
1A264
102
}
330
18
100
AcDbEntity
  8
1PHANTOM
100
AcDbLine
 10
3989.678476670996
 20
-1792.888153377467
 30
0.0
 11
3989.528476670996
 21
-1793.638153377467
 31
0.0
  0
LINE
  5
1A23D
102
{ACAD_REACTORS
330
1A264
102
}
330
18
100
AcDbEntity
  8
1PHANTOM
100
AcDbLine
 10
3982.528476670996
 20
-1788.638153377467
 30
0.0
 11
3982.378476670995
 21
-1789.388153377467
 31
0.0
  0
LINE
  5
1A23E
102
{ACAD_REACTORS
330
1A264
102
}
330
18
100
AcDbEntity
  8
1PHANTOM
100
AcDbLine
 10
3984.528476670996
 20
-1788.638153377467
 30
0.0
 11
3984.378476670995
 21
-1789.388153377467
 31
0.0
  0
LINE
  5
1A23F
102
{ACAD_REACTORS
330
1A264
102
}
330
18
100
AcDbEntity
  8
1PHANTOM
100
AcDbLine
 10
3978.528476670996
 20
-1788.638153377467
 30
0.0
 11
3978.378476670995
 21
-1789.388153377467
 31
0.0
  0
LINE
  5
1A240
102
{ACAD_REACTORS
330
1A264
102
}
330
18
100
AcDbEntity
  8
1PHANTOM
100
AcDbLine
 10
3980.528476670996
 20
-1788.638153377467
 30
0.0
 11
3980.378476670995
 21
-1789.388153377467
 31
0.0
  0
LINE
  5
1A241
102
{ACAD_REACTORS
330
1A264
102
}
330
18
100
AcDbEntity
  8
1PHANTOM
100
AcDbLine
 10
3984.528476670996
 20
-1788.638153377467
 30
0.0
 11
3985.528476670996
 21
-1793.638153377467
 31
0.0
  0
LINE
  5
1A242
102
{ACAD_REACTORS
330
1A264
102
}
330
18
100
AcDbEntity
  8
1PHANTOM
100
AcDbLine
 10
3982.528476670996
 20
-1788.638153377467
 30
0.0
 11
3983.528476670996
 21
-1793.638153377467
 31
0.0
  0
LINE
  5
1A243
102
{ACAD_REACTORS
330
1A264
102
}
330
18
100
AcDbEntity
  8
1PHANTOM
100
AcDbLine
 10
3980.528476670996
 20
-1788.638153377467
 30
0.0
 11
3981.528476670996
 21
-1793.638153377467
 31
0.0
  0
LINE
  5
1A244
102
{ACAD_REACTORS
330
1A264
102
}
330
18
100
AcDbEntity
  8
1PHANTOM
100
AcDbLine
 10
3978.528476670996
 20
-1788.638153377467
 30
0.0
 11
3979.528476670996
 21
-1793.638153377467
 31
0.0
  0
LINE
  5
1A245
102
{ACAD_REACTORS
330
1A264
102
}
330
18
100
AcDbEntity
  8
1PHANTOM
100
AcDbLine
 10
3981.678476670996
 20
-1792.888153377467
 30
0.0
 11
3981.528476670996
 21
-1793.638153377467
 31
0.0
  0
LINE
  5
1A246
102
{ACAD_REACTORS
330
1A264
102
}
330
18
100
AcDbEntity
  8
1PHANTOM
100
AcDbLine
 10
3983.678476670996
 20
-1792.888153377467
 30
0.0
 11
3983.528476670996
 21
-1793.638153377467
 31
0.0
  0
LINE
  5
1A247
102
{ACAD_REACTORS
330
1A264
102
}
330
18
100
AcDbEntity
  8
1PHANTOM
100
AcDbLine
 10
3977.678476670996
 20
-1792.888153377467
 30
0.0
 11
3977.528476670996
 21
-1793.638153377467
 31
0.0
  0
LINE
  5
1A248
102
{ACAD_REACTORS
330
1A264
102
}
330
18
100
AcDbEntity
  8
1PHANTOM
100
AcDbLine
 10
3979.678476670996
 20
-1792.888153377467
 30
0.0
 11
3979.528476670996
 21
-1793.638153377467
 31
0.0
  0
LINE
  5
1A249
102
{ACAD_REACTORS
330
1A264
102
}
330
18
100
AcDbEntity
  8
1PHANTOM
100
AcDbLine
 10
3960.528476670996
 20
-1788.638153377467
 30
0.0
 11
3961.528476670996
 21
-1793.638153377467
 31
0.0
  0
LINE
  5
1A24A
102
{ACAD_REACTORS
330
1A264
102
}
330
18
100
AcDbEntity
  8
1PHANTOM
100
AcDbLine
 10
3968.528476670996
 20
-1788.638153377467
 30
0.0
 11
3969.528476670996
 21
-1793.638153377467
 31
0.0
  0
LINE
  5
1A24B
102
{ACAD_REACTORS
330
1A264
102
}
330
18
100
AcDbEntity
  8
1PHANTOM
100
AcDbLine
 10
3976.528476670996
 20
-1788.638153377467
 30
0.0
 11
3976.378476670995
 21
-1789.388153377467
 31
0.0
  0
LINE
  5
1A24C
102
{ACAD_REACTORS
330
1A264
102
}
330
18
100
AcDbEntity
  8
1PHANTOM
100
AcDbLine
 10
3974.528476670996
 20
-1788.638153377467
 30
0.0
 11
3974.378476670995
 21
-1789.388153377467
 31
0.0
  0
LINE
  5
1A24D
102
{ACAD_REACTORS
330
1A264
102
}
330
18
100
AcDbEntity
  8
1PHANTOM
100
AcDbLine
 10
3972.528476670996
 20
-1788.638153377467
 30
0.0
 11
3972.378476670995
 21
-1789.388153377467
 31
0.0
  0
LINE
  5
1A24E
102
{ACAD_REACTORS
330
1A264
102
}
330
18
100
AcDbEntity
  8
1PHANTOM
100
AcDbLine
 10
3970.528476670996
 20
-1788.638153377467
 30
0.0
 11
3970.378476670995
 21
-1789.388153377467
 31
0.0
  0
LINE
  5
1A24F
102
{ACAD_REACTORS
330
1A264
102
}
330
18
100
AcDbEntity
  8
1PHANTOM
100
AcDbLine
 10
3974.528476670996
 20
-1788.638153377467
 30
0.0
 11
3975.528476670996
 21
-1793.638153377467
 31
0.0
  0
LINE
  5
1A250
102
{ACAD_REACTORS
330
1A264
102
}
330
18
100
AcDbEntity
  8
1PHANTOM
100
AcDbLine
 10
3972.528476670996
 20
-1788.638153377467
 30
0.0
 11
3973.528476670996
 21
-1793.638153377467
 31
0.0
  0
LINE
  5
1A251
102
{ACAD_REACTORS
330
1A264
102
}
330
18
100
AcDbEntity
  8
1PHANTOM
100
AcDbLine
 10
3970.528476670996
 20
-1788.638153377467
 30
0.0
 11
3971.528476670996
 21
-1793.638153377467
 31
0.0
  0
LINE
  5
1A252
102
{ACAD_REACTORS
330
1A264
102
}
330
18
100
AcDbEntity
  8
1PHANTOM
100
AcDbLine
 10
3975.678476670996
 20
-1792.888153377467
 30
0.0
 11
3975.528476670996
 21
-1793.638153377467
 31
0.0
  0
LINE
  5
1A253
102
{ACAD_REACTORS
330
1A264
102
}
330
18
100
AcDbEntity
  8
1PHANTOM
100
AcDbLine
 10
3973.678476670996
 20
-1792.888153377467
 30
0.0
 11
3973.528476670996
 21
-1793.638153377467
 31
0.0
  0
LINE
  5
1A254
102
{ACAD_REACTORS
330
1A264
102
}
330
18
100
AcDbEntity
  8
1PHANTOM
100
AcDbLine
 10
3971.678476670996
 20
-1792.888153377467
 30
0.0
 11
3971.528476670996
 21
-1793.638153377467
 31
0.0
  0
LINE
  5
1A255
102
{ACAD_REACTORS
330
1A264
102
}
330
18
100
AcDbEntity
  8
1PHANTOM
100
AcDbLine
 10
3969.678476670996
 20
-1792.888153377467
 30
0.0
 11
3969.528476670996
 21
-1793.638153377467
 31
0.0
  0
LINE
  5
1A256
102
{ACAD_REACTORS
330
1A264
102
}
330
18
100
AcDbEntity
  8
1PHANTOM
100
AcDbLine
 10
3964.528476670996
 20
-1788.638153377467
 30
0.0
 11
3964.378476670995
 21
-1789.388153377467
 31
0.0
  0
LINE
  5
1A257
102
{ACAD_REACTORS
330
1A264
102
}
330
18
100
AcDbEntity
  8
1PHANTOM
100
AcDbLine
 10
3966.528476670996
 20
-1788.638153377467
 30
0.0
 11
3966.378476670995
 21
-1789.388153377467
 31
0.0
  0
LINE
  5
1A258
102
{ACAD_REACTORS
330
1A264
102
}
330
18
100
AcDbEntity
  8
1PHANTOM
100
AcDbLine
 10
3968.528476670996
 20
-1788.638153377467
 30
0.0
 11
3968.378476670995
 21
-1789.388153377467
 31
0.0
  0
LINE
  5
1A259
102
{ACAD_REACTORS
330
1A264
102
}
330
18
100
AcDbEntity
  8
1PHANTOM
100
AcDbLine
 10
3962.528476670996
 20
-1788.638153377467
 30
0.0
 11
3962.378476670995
 21
-1789.388153377467
 31
0.0
  0
LINE
  5
1A25A
102
{ACAD_REACTORS
330
1A264
102
}
330
18
100
AcDbEntity
  8
1PHANTOM
100
AcDbLine
 10
3966.528476670996
 20
-1788.638153377467
 30
0.0
 11
3967.528476670996
 21
-1793.638153377467
 31
0.0
  0
LINE
  5
1A25B
102
{ACAD_REACTORS
330
1A264
102
}
330
18
100
AcDbEntity
  8
1PHANTOM
100
AcDbLine
 10
3964.528476670996
 20
-1788.638153377467
 30
0.0
 11
3965.528476670996
 21
-1793.638153377467
 31
0.0
  0
LINE
  5
1A25C
102
{ACAD_REACTORS
330
1A264
102
}
330
18
100
AcDbEntity
  8
1PHANTOM
100
AcDbLine
 10
3962.528476670996
 20
-1788.638153377467
 30
0.0
 11
3963.528476670996
 21
-1793.638153377467
 31
0.0
  0
LINE
  5
1A25D
102
{ACAD_REACTORS
330
1A264
102
}
330
18
100
AcDbEntity
  8
1PHANTOM
100
AcDbLine
 10
3965.678476670996
 20
-1792.888153377467
 30
0.0
 11
3965.528476670996
 21
-1793.638153377467
 31
0.0
  0
LINE
  5
1A25E
102
{ACAD_REACTORS
330
1A264
102
}
330
18
100
AcDbEntity
  8
1PHANTOM
100
AcDbLine
 10
3967.678476670996
 20
-1792.888153377467
 30
0.0
 11
3967.528476670996
 21
-1793.638153377467
 31
0.0
  0
LINE
  5
1A25F
102
{ACAD_REACTORS
330
1A264
102
}
330
18
100
AcDbEntity
  8
1PHANTOM
100
AcDbLine
 10
3963.678476670996
 20
-1792.888153377467
 30
0.0
 11
3963.528476670996
 21
-1793.638153377467
 31
0.0
  0
LINE
  5
1A260
102
{ACAD_REACTORS
330
1A264
102
}
330
18
100
AcDbEntity
  8
1PHANTOM
100
AcDbLine
 10
3961.678476670996
 20
-1792.888153377467
 30
0.0
 11
3961.528476670996
 21
-1793.638153377467
 31
0.0
  0
LINE
  5
1A261
102
{ACAD_REACTORS
330
1A264
102
}
330
18
100
AcDbEntity
  8
1PHANTOM
100
AcDbLine
 10
3960.528476670996
 20
-1788.638153377467
 30
0.0
 11
3960.378476670995
 21
-1789.388153377467
 31
0.0
  0
LINE
  5
1A262
102
{ACAD_REACTORS
330
1A264
102
}
330
18
100
AcDbEntity
  8
1PHANTOM
100
AcDbLine
 10
3960.410611084949
 20
-1795.888153377467
 30
0.0
 11
3960.410611084949
 21
-1786.388153377467
 31
0.0
  0
LINE
  5
1A75D
330
18
100
AcDbEntity
  8
01
100
AcDbLine
 10
3808.674837362935
 20
-1525.138153377467
 30
0.0
 11
3672.174837362935
 21
-1525.138153377467
 31
0.0
  0
LINE
  5
1A87F
330
18
100
AcDbEntity
  8
01
100
AcDbLine
 10
3672.174837362935
 20
-1457.138153377467
 30
0.0
 11
3808.674837362935
 21
-1457.138153377467
 31
0.0
  0
LINE
  5
1A939
330
18
100
AcDbEntity
  8
01
100
AcDbLine
 10
3900.410611085056
 20
-1525.138153377467
 30
0.0
 11
3943.410611085057
 21
-1525.138153377467
 31
0.0
  0
LINE
  5
1A93A
330
18
100
AcDbEntity
  8
01
100
AcDbLine
 10
3943.410611085057
 20
-1457.138153377467
 30
0.0
 11
3900.410611085056
 21
-1457.138153377467
 31
0.0
  0
LINE
  5
1A93B
330
18
100
AcDbEntity
  8
01
100
AcDbLine
 10
3900.410611085056
 20
-1457.138153377467
 30
0.0
 11
3900.410611085056
 21
-1525.138153377467
 31
0.0
  0
LINE
  5
1A945
330
18
100
AcDbEntity
  8
1PHANTOM
100
AcDbLine
 10
3902.410611085056
 20
-2207.138153377466
 30
0.0
 11
3902.410611085056
 21
-2357.138153377467
 31
0.0
  0
LINE
  5
1A962
330
18
100
AcDbEntity
  8
1DIM
100
AcDbLine
 10
3654.174837362933
 20
-2249.65095276717
 30
0.0
 11
3654.174837362934
 21
-1941.138153375188
 31
0.0
  0
LINE
  5
1A983
330
18
100
AcDbEntity
  8
1DIM
100
AcDbLine
 10
4365.006468340993
 20
-1404.419727742282
 30
0.0
 11
4785.006468340996
 21
-1404.41972774228
 31
0.0
  0
LINE
  5
1A984
330
18
100
AcDbEntity
  8
1DIM
100
AcDbLine
 10
4365.006468340993
 20
-1376.419727742282
 30
0.0
 11
4785.006468340998
 21
-1376.41972774228
 31
0.0
  0
TEXT
  5
1A985
330
18
100
AcDbEntity
  8
1TEXT
100
AcDbText
 10
4547.139801674329
 20
-1398.419727742283
 30
0.0
 40
16.0
  1
コード
 72
     1
 11
4574.606468340995
 21
-1398.419727742283
 31
0.0
100
AcDbText
  0
TEXT
  5
1A986
330
18
100
AcDbEntity
  8
1TEXT
100
AcDbText
 10
4401.246468340995
 20
-1398.419727742283
 30
0.0
 40
16.0
  1
表面処理
 41
0.9
 72
     1
 11
4434.606468340995
 21
-1398.419727742283
 31
0.0
100
AcDbText
  0
LINE
  5
1A987
330
18
100
AcDbEntity
  8
1DIM
100
AcDbLine
 10
4365.006468340996
 20
-1432.419727742283
 30
0.0
 11
4645.006468340996
 21
-1432.419727742283
 31
0.0
  0
LINE
  5
1A988
330
18
100
AcDbEntity
  8
1DIM
100
AcDbLine
 10
4365.006468340996
 20
-1376.419727742283
 30
0.0
 11
4365.006468340996
 21
-1488.419727742288
 31
0.0
  0
LINE
  5
1A989
330
18
100
AcDbEntity
  8
1DIM
100
AcDbLine
 10
4505.006468340996
 20
-1376.419727742281
 30
0.0
 11
4505.006468340996
 21
-1488.419727742288
 31
0.0
  0
LINE
  5
1A98A
330
18
100
AcDbEntity
  8
1DIM
100
AcDbLine
 10
4645.006468340996
 20
-1376.419727742281
 30
0.0
 11
4645.006468340995
 21
-1488.419727742288
 31
0.0
  0
TEXT
  5
1A98B
330
18
100
AcDbEntity
  8
1TEXT
100
AcDbText
 10
4516.106468340999
 20
-1427.27715567688
 30
0.0
 40
16.0
  1
GP-175-036-72
 41
0.6
 72
     1
 11
4574.606468340999
 21
-1427.27715567688
 31
0.0
100
AcDbText
  0
TEXT
  5
1A98C
330
18
100
AcDbEntity
  8
1TEXT
100
AcDbText
 10
4360.201310408758
 20
-1359.255210837918
 30
0.0
 40
32.0
  1
GP-175-X-72
100
AcDbText
  0
TEXT
  5
1A98E
330
18
100
AcDbEntity
  8
1TEXT
100
AcDbText
 10
4367.646468341002
 20
-1483.277155676884
 30
0.0
 40
16.0
  1
ブラストブラック
 41
0.9
 72
     1
 11
4434.606468341002
 21
-1483.277155676884
 31
0.0
100
AcDbText
  0
TEXT
  5
1A98F
330
18
100
AcDbEntity
  8
1TEXT
100
AcDbText
 10
4516.106468341002
 20
-1483.277155676884
 30
0.0
 40
16.0
  1
GP-175-062-72
 41
0.6
 72
     1
 11
4574.606468341002
 21
-1483.277155676884
 31
0.0
100
AcDbText
  0
LINE
  5
1A990
330
18
100
AcDbEntity
  8
1DIM
100
AcDbLine
 10
4365.006468341
 20
-1460.419727742286
 30
0.0
 11
4645.006468340998
 21
-1460.419727742287
 31
0.0
  0
TEXT
  5
1A991
330
18
100
AcDbEntity
  8
1TEXT
100
AcDbText
 10
4369.806468341002
 20
-1455.277155676884
 30
0.0
 40
16.0
  1
ダークアンバー
 72
     1
 11
4434.606468341002
 21
-1455.277155676884
 31
0.0
100
AcDbText
  0
TEXT
  5
1A992
330
18
100
AcDbEntity
  8
1TEXT
100
AcDbText
 10
4517.739801674335
 20
-1455.277155676884
 30
0.0
 40
16.0
  1
GP-175-014-72
 41
0.6
 72
     1
 11
4574.606468341002
 21
-1455.277155676884
 31
0.0
100
AcDbText
  0
TEXT
  5
1A993
330
18
100
AcDbEntity
  8
1TEXT
100
AcDbText
 10
4677.539801674332
 20
-1398.419727742282
 30
0.0
 40
16.0
  1
対応子機
 72
     1
 11
4714.606468340999
 21
-1398.419727742282
 31
0.0
100
AcDbText
  0
LINE
  5
1A994
330
18
100
AcDbEntity
  8
1DIM
100
AcDbLine
 10
4785.006468341
 20
-1376.41972774228
 30
0.0
 11
4785.006468340997
 21
-1488.419727742288
 31
0.0
  0
TEXT
  5
1A995
330
18
100
AcDbEntity
  8
1TEXT
100
AcDbText
 10
4682.606468340999
 20
-1455.277155676881
 30
0.0
 40
16.0
  1
VJ-DP
 41
0.8
 72
     1
 11
4714.606468340999
 21
-1455.277155676881
 31
0.0
100
AcDbText
  0
TEXT
  5
1A996
330
18
100
AcDbEntity
  8
1TEXT
100
AcDbText
 10
4677.806468341
 20
-1427.27715567688
 30
0.0
 40
16.0
  1
アイホン
 72
     1
 11
4714.606468341
 21
-1427.27715567688
 31
0.0
100
AcDbText
  0
TEXT
  5
1A997
330
18
100
AcDbEntity
  8
1TEXT
100
AcDbText
 10
4367.646468340999
 20
-1427.277155676879
 30
0.0
 40
16.0
  1
ブラストシルバー
 41
0.9
 72
     1
 11
4434.606468340999
 21
-1427.277155676879
 31
0.0
100
AcDbText
  0
LINE
  5
1A998
330
18
100
AcDbEntity
  8
1DIM
100
AcDbLine
 10
4365.006468341
 20
-1488.419727742288
 30
0.0
 11
4785.006468341
 21
-1488.419727742288
 31
0.0
  0
LINE
  5
1AA45
102
{ACAD_REACTORS
330
1AAC3
102
}
330
18
100
AcDbEntity
  8
1PHANTOM
100
AcDbLine
 10
4002.410611084895
 20
-1491.138199913364
 30
0.0
 11
3997.110614575032
 21
-1489.638199913364
 31
0.0
  0
LINE
  5
1AA46
102
{ACAD_REACTORS
330
1AAC3
102
}
330
18
100
AcDbEntity
  8
1PHANTOM
100
AcDbLine
 10
3997.110614575032
 20
-1489.638199913364
 30
0.0
 11
3942.410614575141
 21
-1489.638199913364
 31
0.0
  0
LINE
  5
1AA47
102
{ACAD_REACTORS
330
1AAC3
102
}
330
18
100
AcDbEntity
  8
1PHANTOM
100
AcDbLine
 10
4002.410611084895
 20
-1491.138199913364
 30
0.0
 11
3997.11060759465
 21
-1492.638199913364
 31
0.0
  0
LINE
  5
1AA48
102
{ACAD_REACTORS
330
1AAC3
102
}
330
18
100
AcDbEntity
  8
1PHANTOM
100
AcDbLine
 10
3997.11060759465
 20
-1492.638199913364
 30
0.0
 11
3942.410611085057
 21
-1492.638199913364
 31
0.0
  0
LINE
  5
1AA49
102
{ACAD_REACTORS
330
1AAC3
102
}
330
18
100
AcDbEntity
  8
1CENTER
100
AcDbLine
 10
4005.371525676202
 20
-1491.138153377465
 30
0.0
 11
3937.705154952769
 21
-1491.138153377465
 31
0.0
  0
LINE
  5
1AA4A
102
{ACAD_REACTORS
330
1AAC3
102
}
330
18
100
AcDbEntity
  8
1PHANTOM
100
AcDbLine
 10
4000.310613631216
 20
-1490.04382956347
 30
0.0
 11
4001.110609065268
 21
-1492.006164652346
 31
0.0
  0
LINE
  5
1AA4B
102
{ACAD_REACTORS
330
1AAC3
102
}
330
18
100
AcDbEntity
  8
1PHANTOM
100
AcDbLine
 10
4001.110609065268
 20
-1492.006164652346
 30
0.0
 11
4001.422378921519
 21
-1491.417888077303
 31
0.0
  0
LINE
  5
1AA4C
102
{ACAD_REACTORS
330
1AAC3
102
}
330
18
100
AcDbEntity
  8
1PHANTOM
100
AcDbLine
 10
3977.910615738426
 20
-1489.138199913364
 30
0.0
 11
3978.710606431244
 21
-1493.138199913364
 31
0.0
  0
LINE
  5
1AA4D
102
{ACAD_REACTORS
330
1AAC3
102
}
330
18
100
AcDbEntity
  8
1PHANTOM
100
AcDbLine
 10
3989.110615738431
 20
-1489.138199913364
 30
0.0
 11
3989.910606431254
 21
-1493.138199913364
 31
0.0
  0
LINE
  5
1AA4E
102
{ACAD_REACTORS
330
1AAC3
102
}
330
18
100
AcDbEntity
  8
1PHANTOM
100
AcDbLine
 10
3992.310615738431
 20
-1489.138199913364
 30
0.0
 11
3993.110606431253
 21
-1493.138199913364
 31
0.0
  0
LINE
  5
1AA4F
102
{ACAD_REACTORS
330
1AAC3
102
}
330
18
100
AcDbEntity
  8
1PHANTOM
100
AcDbLine
 10
3993.110606431253
 20
-1493.138199913364
 30
0.0
 11
3993.21060759465
 21
-1492.638199913364
 31
0.0
  0
LINE
  5
1AA50
102
{ACAD_REACTORS
330
1AAC3
102
}
330
18
100
AcDbEntity
  8
1PHANTOM
100
AcDbLine
 10
3993.810614575033
 20
-1489.638199913364
 30
0.0
 11
3993.910615738432
 21
-1489.138199913364
 31
0.0
  0
LINE
  5
1AA51
102
{ACAD_REACTORS
330
1AAC3
102
}
330
18
100
AcDbEntity
  8
1PHANTOM
100
AcDbLine
 10
3989.910606431254
 20
-1493.138199913364
 30
0.0
 11
3990.010607594651
 21
-1492.638199913364
 31
0.0
  0
LINE
  5
1AA52
102
{ACAD_REACTORS
330
1AAC3
102
}
330
18
100
AcDbEntity
  8
1PHANTOM
100
AcDbLine
 10
3991.510606431253
 20
-1493.138199913364
 30
0.0
 11
3991.610607594651
 21
-1492.638199913364
 31
0.0
  0
LINE
  5
1AA53
102
{ACAD_REACTORS
330
1AAC3
102
}
330
18
100
AcDbEntity
  8
1PHANTOM
100
AcDbLine
 10
3992.210614575034
 20
-1489.638199913364
 30
0.0
 11
3992.310615738431
 21
-1489.138199913364
 31
0.0
  0
LINE
  5
1AA54
102
{ACAD_REACTORS
330
1AAC3
102
}
330
18
100
AcDbEntity
  8
1PHANTOM
100
AcDbLine
 10
3990.610614575034
 20
-1489.638199913364
 30
0.0
 11
3990.710615738431
 21
-1489.138199913364
 31
0.0
  0
LINE
  5
1AA55
102
{ACAD_REACTORS
330
1AAC3
102
}
330
18
100
AcDbEntity
  8
1PHANTOM
100
AcDbLine
 10
3990.710615738431
 20
-1489.138199913364
 30
0.0
 11
3991.510606431253
 21
-1493.138199913364
 31
0.0
  0
LINE
  5
1AA56
102
{ACAD_REACTORS
330
1AAC3
102
}
330
18
100
AcDbEntity
  8
1PHANTOM
100
AcDbLine
 10
3999.510608011662
 20
-1492.458978756753
 30
0.0
 11
3999.69337215429
 21
-1491.90722929295
 31
0.0
  0
LINE
  5
1AA57
102
{ACAD_REACTORS
330
1AAC3
102
}
330
18
100
AcDbEntity
  8
1PHANTOM
100
AcDbLine
 10
3996.310606431254
 20
-1493.138199913364
 30
0.0
 11
3996.410607594651
 21
-1492.638199913364
 31
0.0
  0
LINE
  5
1AA58
102
{ACAD_REACTORS
330
1AAC3
102
}
330
18
100
AcDbEntity
  8
1PHANTOM
100
AcDbLine
 10
3994.710606431253
 20
-1493.138199913364
 30
0.0
 11
3994.81060759465
 21
-1492.638199913364
 31
0.0
  0
LINE
  5
1AA59
102
{ACAD_REACTORS
330
1AAC3
102
}
330
18
100
AcDbEntity
  8
1PHANTOM
100
AcDbLine
 10
3997.910606958055
 20
-1492.911792861159
 30
0.0
 11
3998.039877655686
 21
-1492.37519912589
 31
0.0
  0
LINE
  5
1AA5A
102
{ACAD_REACTORS
330
1AAC3
102
}
330
18
100
AcDbEntity
  8
1PHANTOM
100
AcDbLine
 10
3998.597845172471
 20
-1490.059114510572
 30
0.0
 11
3998.710614684821
 21
-1489.591016055423
 31
0.0
  0
LINE
  5
1AA5B
102
{ACAD_REACTORS
330
1AAC3
102
}
330
18
100
AcDbEntity
  8
1PHANTOM
100
AcDbLine
 10
3995.410614575033
 20
-1489.638199913364
 30
0.0
 11
3995.51061573843
 21
-1489.138199913364
 31
0.0
  0
LINE
  5
1AA5C
102
{ACAD_REACTORS
330
1AAC3
102
}
330
18
100
AcDbEntity
  8
1PHANTOM
100
AcDbLine
 10
3997.010614575034
 20
-1489.638199913364
 30
0.0
 11
3997.110615738431
 21
-1489.138199913364
 31
0.0
  0
LINE
  5
1AA5D
102
{ACAD_REACTORS
330
1AAC3
102
}
330
18
100
AcDbEntity
  8
1PHANTOM
100
AcDbLine
 10
4000.159177834775
 20
-1490.501001404103
 30
0.0
 11
4000.310613631216
 21
-1490.04382956347
 31
0.0
  0
LINE
  5
1AA5E
102
{ACAD_REACTORS
330
1AAC3
102
}
330
18
100
AcDbEntity
  8
1PHANTOM
100
AcDbLine
 10
3998.710614684821
 20
-1489.591016055423
 30
0.0
 11
3999.510608011662
 21
-1492.458978756753
 31
0.0
  0
LINE
  5
1AA5F
102
{ACAD_REACTORS
330
1AAC3
102
}
330
18
100
AcDbEntity
  8
1PHANTOM
100
AcDbLine
 10
3995.51061573843
 20
-1489.138199913364
 30
0.0
 11
3996.310606431254
 21
-1493.138199913364
 31
0.0
  0
LINE
  5
1AA60
102
{ACAD_REACTORS
330
1AAC3
102
}
330
18
100
AcDbEntity
  8
1PHANTOM
100
AcDbLine
 10
3997.110615738431
 20
-1489.138199913364
 30
0.0
 11
3997.910606958055
 21
-1492.911792861159
 31
0.0
  0
LINE
  5
1AA61
102
{ACAD_REACTORS
330
1AAC3
102
}
330
18
100
AcDbEntity
  8
1PHANTOM
100
AcDbLine
 10
3993.910615738432
 20
-1489.138199913364
 30
0.0
 11
3994.710606431253
 21
-1493.138199913364
 31
0.0
  0
LINE
  5
1AA62
102
{ACAD_REACTORS
330
1AAC3
102
}
330
18
100
AcDbEntity
  8
1PHANTOM
100
AcDbLine
 10
3981.110615738427
 20
-1489.138199913364
 30
0.0
 11
3981.910606431245
 21
-1493.138199913364
 31
0.0
  0
LINE
  5
1AA63
102
{ACAD_REACTORS
330
1AAC3
102
}
330
18
100
AcDbEntity
  8
1PHANTOM
100
AcDbLine
 10
3981.910606431245
 20
-1493.138199913364
 30
0.0
 11
3982.010607594642
 21
-1492.638199913364
 31
0.0
  0
LINE
  5
1AA64
102
{ACAD_REACTORS
330
1AAC3
102
}
330
18
100
AcDbEntity
  8
1PHANTOM
100
AcDbLine
 10
3982.610614575032
 20
-1489.638199913364
 30
0.0
 11
3982.710615738431
 21
-1489.138199913364
 31
0.0
  0
LINE
  5
1AA65
102
{ACAD_REACTORS
330
1AAC3
102
}
330
18
100
AcDbEntity
  8
1PHANTOM
100
AcDbLine
 10
3980.310606431245
 20
-1493.138199913364
 30
0.0
 11
3980.410607594642
 21
-1492.638199913364
 31
0.0
  0
LINE
  5
1AA66
102
{ACAD_REACTORS
330
1AAC3
102
}
330
18
100
AcDbEntity
  8
1PHANTOM
100
AcDbLine
 10
3978.710606431244
 20
-1493.138199913364
 30
0.0
 11
3978.810607594643
 21
-1492.638199913364
 31
0.0
  0
LINE
  5
1AA67
102
{ACAD_REACTORS
330
1AAC3
102
}
330
18
100
AcDbEntity
  8
1PHANTOM
100
AcDbLine
 10
3981.010614575028
 20
-1489.638199913364
 30
0.0
 11
3981.110615738427
 21
-1489.138199913364
 31
0.0
  0
LINE
  5
1AA68
102
{ACAD_REACTORS
330
1AAC3
102
}
330
18
100
AcDbEntity
  8
1PHANTOM
100
AcDbLine
 10
3979.410614575028
 20
-1489.638199913364
 30
0.0
 11
3979.510615738427
 21
-1489.138199913364
 31
0.0
  0
LINE
  5
1AA69
102
{ACAD_REACTORS
330
1AAC3
102
}
330
18
100
AcDbEntity
  8
1PHANTOM
100
AcDbLine
 10
3979.510615738427
 20
-1489.138199913364
 30
0.0
 11
3980.310606431245
 21
-1493.138199913364
 31
0.0
  0
LINE
  5
1AA6A
102
{ACAD_REACTORS
330
1AAC3
102
}
330
18
100
AcDbEntity
  8
1PHANTOM
100
AcDbLine
 10
3986.71060643125
 20
-1493.138199913364
 30
0.0
 11
3986.810607594647
 21
-1492.638199913364
 31
0.0
  0
LINE
  5
1AA6B
102
{ACAD_REACTORS
330
1AAC3
102
}
330
18
100
AcDbEntity
  8
1PHANTOM
100
AcDbLine
 10
3988.310606431254
 20
-1493.138199913364
 30
0.0
 11
3988.410607594651
 21
-1492.638199913364
 31
0.0
  0
LINE
  5
1AA6C
102
{ACAD_REACTORS
330
1AAC3
102
}
330
18
100
AcDbEntity
  8
1PHANTOM
100
AcDbLine
 10
3983.510606431249
 20
-1493.138199913364
 30
0.0
 11
3983.610607594646
 21
-1492.638199913364
 31
0.0
  0
LINE
  5
1AA6D
102
{ACAD_REACTORS
330
1AAC3
102
}
330
18
100
AcDbEntity
  8
1PHANTOM
100
AcDbLine
 10
3985.110606431249
 20
-1493.138199913364
 30
0.0
 11
3985.210607594646
 21
-1492.638199913364
 31
0.0
  0
LINE
  5
1AA6E
102
{ACAD_REACTORS
330
1AAC3
102
}
330
18
100
AcDbEntity
  8
1PHANTOM
100
AcDbLine
 10
3989.010614575034
 20
-1489.638199913364
 30
0.0
 11
3989.110615738431
 21
-1489.138199913364
 31
0.0
  0
LINE
  5
1AA6F
102
{ACAD_REACTORS
330
1AAC3
102
}
330
18
100
AcDbEntity
  8
1PHANTOM
100
AcDbLine
 10
3987.410614575033
 20
-1489.638199913364
 30
0.0
 11
3987.51061573843
 21
-1489.138199913364
 31
0.0
  0
LINE
  5
1AA70
102
{ACAD_REACTORS
330
1AAC3
102
}
330
18
100
AcDbEntity
  8
1PHANTOM
100
AcDbLine
 10
3984.210614575033
 20
-1489.638199913364
 30
0.0
 11
3984.310615738431
 21
-1489.138199913364
 31
0.0
  0
LINE
  5
1AA71
102
{ACAD_REACTORS
330
1AAC3
102
}
330
18
100
AcDbEntity
  8
1PHANTOM
100
AcDbLine
 10
3985.810614575033
 20
-1489.638199913364
 30
0.0
 11
3985.910615738432
 21
-1489.138199913364
 31
0.0
  0
LINE
  5
1AA72
102
{ACAD_REACTORS
330
1AAC3
102
}
330
18
100
AcDbEntity
  8
1PHANTOM
100
AcDbLine
 10
3985.910615738432
 20
-1489.138199913364
 30
0.0
 11
3986.71060643125
 21
-1493.138199913364
 31
0.0
  0
LINE
  5
1AA73
102
{ACAD_REACTORS
330
1AAC3
102
}
330
18
100
AcDbEntity
  8
1PHANTOM
100
AcDbLine
 10
3987.51061573843
 20
-1489.138199913364
 30
0.0
 11
3988.310606431254
 21
-1493.138199913364
 31
0.0
  0
LINE
  5
1AA74
102
{ACAD_REACTORS
330
1AAC3
102
}
330
18
100
AcDbEntity
  8
1PHANTOM
100
AcDbLine
 10
3984.310615738431
 20
-1489.138199913364
 30
0.0
 11
3985.110606431249
 21
-1493.138199913364
 31
0.0
  0
LINE
  5
1AA75
102
{ACAD_REACTORS
330
1AAC3
102
}
330
18
100
AcDbEntity
  8
1PHANTOM
100
AcDbLine
 10
3982.710615738431
 20
-1489.138199913364
 30
0.0
 11
3983.510606431249
 21
-1493.138199913364
 31
0.0
  0
LINE
  5
1AA76
102
{ACAD_REACTORS
330
1AAC3
102
}
330
18
100
AcDbEntity
  8
1PHANTOM
100
AcDbLine
 10
3942.410607594756
 20
-1492.638199913364
 30
0.0
 11
3942.410614575141
 21
-1489.638199913364
 31
0.0
  0
LINE
  5
1AA77
102
{ACAD_REACTORS
330
1AAC3
102
}
330
18
100
AcDbEntity
  8
1PHANTOM
100
AcDbLine
 10
3973.010614575025
 20
-1489.638199913364
 30
0.0
 11
3973.110615738422
 21
-1489.138199913364
 31
0.0
  0
LINE
  5
1AA78
102
{ACAD_REACTORS
330
1AAC3
102
}
330
18
100
AcDbEntity
  8
1PHANTOM
100
AcDbLine
 10
3973.110615738422
 20
-1489.138199913364
 30
0.0
 11
3973.910606431241
 21
-1493.138199913364
 31
0.0
  0
LINE
  5
1AA79
102
{ACAD_REACTORS
330
1AAC3
102
}
330
18
100
AcDbEntity
  8
1PHANTOM
100
AcDbLine
 10
3973.910606431241
 20
-1493.138199913364
 30
0.0
 11
3974.010607594638
 21
-1492.638199913364
 31
0.0
  0
LINE
  5
1AA7A
102
{ACAD_REACTORS
330
1AAC3
102
}
330
18
100
AcDbEntity
  8
1PHANTOM
100
AcDbLine
 10
3974.610614575025
 20
-1489.638199913364
 30
0.0
 11
3974.710615738422
 21
-1489.138199913364
 31
0.0
  0
LINE
  5
1AA7B
102
{ACAD_REACTORS
330
1AAC3
102
}
330
18
100
AcDbEntity
  8
1PHANTOM
100
AcDbLine
 10
3976.210614575024
 20
-1489.638199913364
 30
0.0
 11
3976.310615738422
 21
-1489.138199913364
 31
0.0
  0
LINE
  5
1AA7C
102
{ACAD_REACTORS
330
1AAC3
102
}
330
18
100
AcDbEntity
  8
1PHANTOM
100
AcDbLine
 10
3976.310615738422
 20
-1489.138199913364
 30
0.0
 11
3977.11060643124
 21
-1493.138199913364
 31
0.0
  0
LINE
  5
1AA7D
102
{ACAD_REACTORS
330
1AAC3
102
}
330
18
100
AcDbEntity
  8
1PHANTOM
100
AcDbLine
 10
3975.51060643124
 20
-1493.138199913364
 30
0.0
 11
3975.610607594639
 21
-1492.638199913364
 31
0.0
  0
LINE
  5
1AA7E
102
{ACAD_REACTORS
330
1AAC3
102
}
330
18
100
AcDbEntity
  8
1PHANTOM
100
AcDbLine
 10
3977.11060643124
 20
-1493.138199913364
 30
0.0
 11
3977.210607594637
 21
-1492.638199913364
 31
0.0
  0
LINE
  5
1AA7F
102
{ACAD_REACTORS
330
1AAC3
102
}
330
18
100
AcDbEntity
  8
1PHANTOM
100
AcDbLine
 10
3974.710615738422
 20
-1489.138199913364
 30
0.0
 11
3975.51060643124
 21
-1493.138199913364
 31
0.0
  0
LINE
  5
1AA80
102
{ACAD_REACTORS
330
1AAC3
102
}
330
18
100
AcDbEntity
  8
1PHANTOM
100
AcDbLine
 10
3977.810614575029
 20
-1489.638199913364
 30
0.0
 11
3977.910615738426
 21
-1489.138199913364
 31
0.0
  0
LINE
  5
1AA81
102
{ACAD_REACTORS
330
1AAC3
102
}
330
18
100
AcDbEntity
  8
1PHANTOM
100
AcDbLine
 10
3942.410611085057
 20
-1495.888153377465
 30
0.0
 11
3942.410611085057
 21
-1492.638199913364
 31
0.0
  0
LINE
  5
1AA82
102
{ACAD_REACTORS
330
1AAC3
102
}
330
18
100
AcDbEntity
  8
1PHANTOM
100
AcDbLine
 10
3942.410611085057
 20
-1495.888153377465
 30
0.0
 11
3941.410611085057
 21
-1495.888153377465
 31
0.0
  0
ARC
  5
1AA83
102
{ACAD_REACTORS
330
1AAC3
102
}
330
18
100
AcDbEntity
  8
1PHANTOM
100
AcDbCircle
 10
3948.181444418391
 20
-1491.138153377465
 30
0.0
 40
8.270833333333439
100
AcDbArc
 50
144.9488632524877
 51
215.0511367475279
  0
LINE
  5
1AA84
102
{ACAD_REACTORS
330
1AAC3
102
}
330
18
100
AcDbEntity
  8
1PHANTOM
100
AcDbLine
 10
3942.410611085057
 20
-1486.388153377465
 30
0.0
 11
3941.410611085057
 21
-1486.388153377465
 31
0.0
  0
LINE
  5
1AA85
102
{ACAD_REACTORS
330
1AAC3
102
}
330
18
100
AcDbEntity
  8
1PHANTOM
100
AcDbLine
 10
3942.410611085057
 20
-1491.138153377465
 30
0.0
 11
3942.410611085057
 21
-1486.388153377465
 31
0.0
  0
LINE
  5
1AA86
102
{ACAD_REACTORS
330
1AAC3
102
}
330
18
100
AcDbEntity
  8
1PHANTOM
100
AcDbLine
 10
3941.410611085057
 20
-1495.671216557133
 30
0.0
 11
3941.410611085057
 21
-1486.632785592661
 31
0.0
  0
LINE
  5
1AA87
102
{ACAD_REACTORS
330
1AAC3
102
}
330
18
100
AcDbEntity
  8
1PHANTOM
100
AcDbLine
 10
3968.21061457502
 20
-1489.638199913364
 30
0.0
 11
3968.310615738417
 21
-1489.138199913364
 31
0.0
  0
LINE
  5
1AA88
102
{ACAD_REACTORS
330
1AAC3
102
}
330
18
100
AcDbEntity
  8
1PHANTOM
100
AcDbLine
 10
3968.310615738417
 20
-1489.138199913364
 30
0.0
 11
3969.110606431237
 21
-1493.138199913364
 31
0.0
  0
LINE
  5
1AA89
102
{ACAD_REACTORS
330
1AAC3
102
}
330
18
100
AcDbEntity
  8
1PHANTOM
100
AcDbLine
 10
3969.110606431237
 20
-1493.138199913364
 30
0.0
 11
3969.210607594634
 21
-1492.638199913364
 31
0.0
  0
LINE
  5
1AA8A
102
{ACAD_REACTORS
330
1AAC3
102
}
330
18
100
AcDbEntity
  8
1PHANTOM
100
AcDbLine
 10
3969.81061457502
 20
-1489.638199913364
 30
0.0
 11
3969.910615738417
 21
-1489.138199913364
 31
0.0
  0
LINE
  5
1AA8B
102
{ACAD_REACTORS
330
1AAC3
102
}
330
18
100
AcDbEntity
  8
1PHANTOM
100
AcDbLine
 10
3971.410614575019
 20
-1489.638199913364
 30
0.0
 11
3971.510615738418
 21
-1489.138199913364
 31
0.0
  0
LINE
  5
1AA8C
102
{ACAD_REACTORS
330
1AAC3
102
}
330
18
100
AcDbEntity
  8
1PHANTOM
100
AcDbLine
 10
3971.510615738418
 20
-1489.138199913364
 30
0.0
 11
3972.310606431236
 21
-1493.138199913364
 31
0.0
  0
LINE
  5
1AA8D
102
{ACAD_REACTORS
330
1AAC3
102
}
330
18
100
AcDbEntity
  8
1PHANTOM
100
AcDbLine
 10
3970.710606431235
 20
-1493.138199913364
 30
0.0
 11
3970.810607594634
 21
-1492.638199913364
 31
0.0
  0
LINE
  5
1AA8E
102
{ACAD_REACTORS
330
1AAC3
102
}
330
18
100
AcDbEntity
  8
1PHANTOM
100
AcDbLine
 10
3972.310606431236
 20
-1493.138199913364
 30
0.0
 11
3972.410607594632
 21
-1492.638199913364
 31
0.0
  0
LINE
  5
1AA8F
102
{ACAD_REACTORS
330
1AAC3
102
}
330
18
100
AcDbEntity
  8
1PHANTOM
100
AcDbLine
 10
3969.910615738417
 20
-1489.138199913364
 30
0.0
 11
3970.710606431235
 21
-1493.138199913364
 31
0.0
  0
LINE
  5
1AA90
102
{ACAD_REACTORS
330
1AAC3
102
}
330
18
100
AcDbEntity
  8
1PHANTOM
100
AcDbLine
 10
3960.310615738413
 20
-1489.138199913364
 30
0.0
 11
3961.110606431231
 21
-1493.138199913364
 31
0.0
  0
LINE
  5
1AA91
102
{ACAD_REACTORS
330
1AAC3
102
}
330
18
100
AcDbEntity
  8
1PHANTOM
100
AcDbLine
 10
3963.510615738414
 20
-1489.138199913364
 30
0.0
 11
3964.310606431232
 21
-1493.138199913364
 31
0.0
  0
LINE
  5
1AA92
102
{ACAD_REACTORS
330
1AAC3
102
}
330
18
100
AcDbEntity
  8
1PHANTOM
100
AcDbLine
 10
3964.310606431232
 20
-1493.138199913364
 30
0.0
 11
3964.410607594629
 21
-1492.638199913364
 31
0.0
  0
LINE
  5
1AA93
102
{ACAD_REACTORS
330
1AAC3
102
}
330
18
100
AcDbEntity
  8
1PHANTOM
100
AcDbLine
 10
3965.010614575019
 20
-1489.638199913364
 30
0.0
 11
3965.110615738418
 21
-1489.138199913364
 31
0.0
  0
LINE
  5
1AA94
102
{ACAD_REACTORS
330
1AAC3
102
}
330
18
100
AcDbEntity
  8
1PHANTOM
100
AcDbLine
 10
3962.710606431232
 20
-1493.138199913364
 30
0.0
 11
3962.810607594628
 21
-1492.638199913364
 31
0.0
  0
LINE
  5
1AA95
102
{ACAD_REACTORS
330
1AAC3
102
}
330
18
100
AcDbEntity
  8
1PHANTOM
100
AcDbLine
 10
3961.110606431231
 20
-1493.138199913364
 30
0.0
 11
3961.21060759463
 21
-1492.638199913364
 31
0.0
  0
LINE
  5
1AA96
102
{ACAD_REACTORS
330
1AAC3
102
}
330
18
100
AcDbEntity
  8
1PHANTOM
100
AcDbLine
 10
3963.410614575015
 20
-1489.638199913364
 30
0.0
 11
3963.510615738414
 21
-1489.138199913364
 31
0.0
  0
LINE
  5
1AA97
102
{ACAD_REACTORS
330
1AAC3
102
}
330
18
100
AcDbEntity
  8
1PHANTOM
100
AcDbLine
 10
3961.810614575015
 20
-1489.638199913364
 30
0.0
 11
3961.910615738414
 21
-1489.138199913364
 31
0.0
  0
LINE
  5
1AA98
102
{ACAD_REACTORS
330
1AAC3
102
}
330
18
100
AcDbEntity
  8
1PHANTOM
100
AcDbLine
 10
3961.910615738414
 20
-1489.138199913364
 30
0.0
 11
3962.710606431232
 21
-1493.138199913364
 31
0.0
  0
LINE
  5
1AA99
102
{ACAD_REACTORS
330
1AAC3
102
}
330
18
100
AcDbEntity
  8
1PHANTOM
100
AcDbLine
 10
3965.910606431236
 20
-1493.138199913364
 30
0.0
 11
3966.010607594633
 21
-1492.638199913364
 31
0.0
  0
LINE
  5
1AA9A
102
{ACAD_REACTORS
330
1AAC3
102
}
330
18
100
AcDbEntity
  8
1PHANTOM
100
AcDbLine
 10
3967.510606431236
 20
-1493.138199913364
 30
0.0
 11
3967.610607594633
 21
-1492.638199913364
 31
0.0
  0
LINE
  5
1AA9B
102
{ACAD_REACTORS
330
1AAC3
102
}
330
18
100
AcDbEntity
  8
1PHANTOM
100
AcDbLine
 10
3966.61061457502
 20
-1489.638199913364
 30
0.0
 11
3966.710615738418
 21
-1489.138199913364
 31
0.0
  0
LINE
  5
1AA9C
102
{ACAD_REACTORS
330
1AAC3
102
}
330
18
100
AcDbEntity
  8
1PHANTOM
100
AcDbLine
 10
3966.710615738418
 20
-1489.138199913364
 30
0.0
 11
3967.510606431236
 21
-1493.138199913364
 31
0.0
  0
LINE
  5
1AA9D
102
{ACAD_REACTORS
330
1AAC3
102
}
330
18
100
AcDbEntity
  8
1PHANTOM
100
AcDbLine
 10
3965.110615738418
 20
-1489.138199913364
 30
0.0
 11
3965.910606431236
 21
-1493.138199913364
 31
0.0
  0
LINE
  5
1AA9E
102
{ACAD_REACTORS
330
1AAC3
102
}
330
18
100
AcDbEntity
  8
1PHANTOM
100
AcDbLine
 10
3955.410614575012
 20
-1489.638199913364
 30
0.0
 11
3955.510615738408
 21
-1489.138199913364
 31
0.0
  0
LINE
  5
1AA9F
102
{ACAD_REACTORS
330
1AAC3
102
}
330
18
100
AcDbEntity
  8
1PHANTOM
100
AcDbLine
 10
3955.510615738408
 20
-1489.138199913364
 30
0.0
 11
3956.310606431228
 21
-1493.138199913364
 31
0.0
  0
LINE
  5
1AAA0
102
{ACAD_REACTORS
330
1AAC3
102
}
330
18
100
AcDbEntity
  8
1PHANTOM
100
AcDbLine
 10
3956.310606431228
 20
-1493.138199913364
 30
0.0
 11
3956.410607594625
 21
-1492.638199913364
 31
0.0
  0
LINE
  5
1AAA1
102
{ACAD_REACTORS
330
1AAC3
102
}
330
18
100
AcDbEntity
  8
1PHANTOM
100
AcDbLine
 10
3957.010614575012
 20
-1489.638199913364
 30
0.0
 11
3957.110615738409
 21
-1489.138199913364
 31
0.0
  0
LINE
  5
1AAA2
102
{ACAD_REACTORS
330
1AAC3
102
}
330
18
100
AcDbEntity
  8
1PHANTOM
100
AcDbLine
 10
3958.61061457501
 20
-1489.638199913364
 30
0.0
 11
3958.710615738409
 21
-1489.138199913364
 31
0.0
  0
LINE
  5
1AAA3
102
{ACAD_REACTORS
330
1AAC3
102
}
330
18
100
AcDbEntity
  8
1PHANTOM
100
AcDbLine
 10
3958.710615738409
 20
-1489.138199913364
 30
0.0
 11
3959.510606431227
 21
-1493.138199913364
 31
0.0
  0
LINE
  5
1AAA4
102
{ACAD_REACTORS
330
1AAC3
102
}
330
18
100
AcDbEntity
  8
1PHANTOM
100
AcDbLine
 10
3957.910606431227
 20
-1493.138199913364
 30
0.0
 11
3958.010607594626
 21
-1492.638199913364
 31
0.0
  0
LINE
  5
1AAA5
102
{ACAD_REACTORS
330
1AAC3
102
}
330
18
100
AcDbEntity
  8
1PHANTOM
100
AcDbLine
 10
3959.510606431227
 20
-1493.138199913364
 30
0.0
 11
3959.610607594624
 21
-1492.638199913364
 31
0.0
  0
LINE
  5
1AAA6
102
{ACAD_REACTORS
330
1AAC3
102
}
330
18
100
AcDbEntity
  8
1PHANTOM
100
AcDbLine
 10
3957.110615738409
 20
-1489.138199913364
 30
0.0
 11
3957.910606431227
 21
-1493.138199913364
 31
0.0
  0
LINE
  5
1AAA7
102
{ACAD_REACTORS
330
1AAC3
102
}
330
18
100
AcDbEntity
  8
1PHANTOM
100
AcDbLine
 10
3960.210614575016
 20
-1489.638199913364
 30
0.0
 11
3960.310615738413
 21
-1489.138199913364
 31
0.0
  0
LINE
  5
1AAA8
102
{ACAD_REACTORS
330
1AAC3
102
}
330
18
100
AcDbEntity
  8
1PHANTOM
100
AcDbLine
 10
3950.610614575007
 20
-1489.638199913364
 30
0.0
 11
3950.710615738404
 21
-1489.138199913364
 31
0.0
  0
LINE
  5
1AAA9
102
{ACAD_REACTORS
330
1AAC3
102
}
330
18
100
AcDbEntity
  8
1PHANTOM
100
AcDbLine
 10
3950.710615738404
 20
-1489.138199913364
 30
0.0
 11
3951.510606431224
 21
-1493.138199913364
 31
0.0
  0
LINE
  5
1AAAA
102
{ACAD_REACTORS
330
1AAC3
102
}
330
18
100
AcDbEntity
  8
1PHANTOM
100
AcDbLine
 10
3951.510606431224
 20
-1493.138199913364
 30
0.0
 11
3951.61060759462
 21
-1492.638199913364
 31
0.0
  0
LINE
  5
1AAAB
102
{ACAD_REACTORS
330
1AAC3
102
}
330
18
100
AcDbEntity
  8
1PHANTOM
100
AcDbLine
 10
3952.210614575007
 20
-1489.638199913364
 30
0.0
 11
3952.310615738404
 21
-1489.138199913364
 31
0.0
  0
LINE
  5
1AAAC
102
{ACAD_REACTORS
330
1AAC3
102
}
330
18
100
AcDbEntity
  8
1PHANTOM
100
AcDbLine
 10
3953.810614575006
 20
-1489.638199913364
 30
0.0
 11
3953.910615738404
 21
-1489.138199913364
 31
0.0
  0
LINE
  5
1AAAD
102
{ACAD_REACTORS
330
1AAC3
102
}
330
18
100
AcDbEntity
  8
1PHANTOM
100
AcDbLine
 10
3953.910615738404
 20
-1489.138199913364
 30
0.0
 11
3954.710606431222
 21
-1493.138199913364
 31
0.0
  0
LINE
  5
1AAAE
102
{ACAD_REACTORS
330
1AAC3
102
}
330
18
100
AcDbEntity
  8
1PHANTOM
100
AcDbLine
 10
3953.110606431222
 20
-1493.138199913364
 30
0.0
 11
3953.210607594621
 21
-1492.638199913364
 31
0.0
  0
LINE
  5
1AAAF
102
{ACAD_REACTORS
330
1AAC3
102
}
330
18
100
AcDbEntity
  8
1PHANTOM
100
AcDbLine
 10
3954.710606431222
 20
-1493.138199913364
 30
0.0
 11
3954.810607594619
 21
-1492.638199913364
 31
0.0
  0
LINE
  5
1AAB0
102
{ACAD_REACTORS
330
1AAC3
102
}
330
18
100
AcDbEntity
  8
1PHANTOM
100
AcDbLine
 10
3952.310615738404
 20
-1489.138199913364
 30
0.0
 11
3953.110606431222
 21
-1493.138199913364
 31
0.0
  0
LINE
  5
1AAB1
102
{ACAD_REACTORS
330
1AAC3
102
}
330
18
100
AcDbEntity
  8
1PHANTOM
100
AcDbLine
 10
3947.410614575008
 20
-1489.638199913364
 30
0.0
 11
3947.510615738405
 21
-1489.138199913364
 31
0.0
  0
LINE
  5
1AAB2
102
{ACAD_REACTORS
330
1AAC3
102
}
330
18
100
AcDbEntity
  8
1PHANTOM
100
AcDbLine
 10
3947.510615738405
 20
-1489.138199913364
 30
0.0
 11
3948.310606431225
 21
-1493.138199913364
 31
0.0
  0
LINE
  5
1AAB3
102
{ACAD_REACTORS
330
1AAC3
102
}
330
18
100
AcDbEntity
  8
1PHANTOM
100
AcDbLine
 10
3948.310606431225
 20
-1493.138199913364
 30
0.0
 11
3948.410607594622
 21
-1492.638199913364
 31
0.0
  0
LINE
  5
1AAB4
102
{ACAD_REACTORS
330
1AAC3
102
}
330
18
100
AcDbEntity
  8
1PHANTOM
100
AcDbLine
 10
3949.010614575008
 20
-1489.638199913364
 30
0.0
 11
3949.110615738405
 21
-1489.138199913364
 31
0.0
  0
LINE
  5
1AAB5
102
{ACAD_REACTORS
330
1AAC3
102
}
330
18
100
AcDbEntity
  8
1PHANTOM
100
AcDbLine
 10
3949.910606431223
 20
-1493.138199913364
 30
0.0
 11
3950.010607594622
 21
-1492.638199913364
 31
0.0
  0
LINE
  5
1AAB6
102
{ACAD_REACTORS
330
1AAC3
102
}
330
18
100
AcDbEntity
  8
1PHANTOM
100
AcDbLine
 10
3949.110615738405
 20
-1489.138199913364
 30
0.0
 11
3949.910606431223
 21
-1493.138199913364
 31
0.0
  0
LINE
  5
1AAB7
102
{ACAD_REACTORS
330
1AAC3
102
}
330
18
100
AcDbEntity
  8
1PHANTOM
100
AcDbLine
 10
3942.610614575003
 20
-1489.638199913364
 30
0.0
 11
3942.7106157384
 21
-1489.138199913364
 31
0.0
  0
LINE
  5
1AAB8
102
{ACAD_REACTORS
330
1AAC3
102
}
330
18
100
AcDbEntity
  8
1PHANTOM
100
AcDbLine
 10
3942.7106157384
 20
-1489.138199913364
 30
0.0
 11
3943.51060643122
 21
-1493.138199913364
 31
0.0
  0
LINE
  5
1AAB9
102
{ACAD_REACTORS
330
1AAC3
102
}
330
18
100
AcDbEntity
  8
1PHANTOM
100
AcDbLine
 10
3943.51060643122
 20
-1493.138199913364
 30
0.0
 11
3943.610607594617
 21
-1492.638199913364
 31
0.0
  0
LINE
  5
1AABA
102
{ACAD_REACTORS
330
1AAC3
102
}
330
18
100
AcDbEntity
  8
1PHANTOM
100
AcDbLine
 10
3944.210614575004
 20
-1489.638199913364
 30
0.0
 11
3944.3106157384
 21
-1489.138199913364
 31
0.0
  0
LINE
  5
1AABB
102
{ACAD_REACTORS
330
1AAC3
102
}
330
18
100
AcDbEntity
  8
1PHANTOM
100
AcDbLine
 10
3945.810614575002
 20
-1489.638199913364
 30
0.0
 11
3945.910615738401
 21
-1489.138199913364
 31
0.0
  0
LINE
  5
1AABC
102
{ACAD_REACTORS
330
1AAC3
102
}
330
18
100
AcDbEntity
  8
1PHANTOM
100
AcDbLine
 10
3945.910615738401
 20
-1489.138199913364
 30
0.0
 11
3946.710606431219
 21
-1493.138199913364
 31
0.0
  0
LINE
  5
1AABD
102
{ACAD_REACTORS
330
1AAC3
102
}
330
18
100
AcDbEntity
  8
1PHANTOM
100
AcDbLine
 10
3945.110606431218
 20
-1493.138199913364
 30
0.0
 11
3945.210607594617
 21
-1492.638199913364
 31
0.0
  0
LINE
  5
1AABE
102
{ACAD_REACTORS
330
1AAC3
102
}
330
18
100
AcDbEntity
  8
1PHANTOM
100
AcDbLine
 10
3946.710606431219
 20
-1493.138199913364
 30
0.0
 11
3946.810607594616
 21
-1492.638199913364
 31
0.0
  0
LINE
  5
1AABF
102
{ACAD_REACTORS
330
1AAC3
102
}
330
18
100
AcDbEntity
  8
1PHANTOM
100
AcDbLine
 10
3944.3106157384
 20
-1489.138199913364
 30
0.0
 11
3945.110606431218
 21
-1493.138199913364
 31
0.0
  0
LINE
  5
1AACC
330
18
100
AcDbEntity
  8
01
100
AcDbLine
 10
3917.410611085057
 20
-1457.138153377467
 30
0.0
 11
3917.910611085057
 21
-1452.138153377467
 31
0.0
  0
LINE
  5
1AACD
330
18
100
AcDbEntity
  8
1HATCH
100
AcDbLine
 10
3919.410611085057
 20
-1457.138153377467
 30
0.0
 11
3919.410611085057
 21
-1452.138153377467
 31
0.0
  0
LINE
  5
1AACE
330
18
100
AcDbEntity
  8
1HATCH
100
AcDbLine
 10
3918.410611085057
 20
-1457.138153377467
 30
0.0
 11
3918.410611085057
 21
-1452.138153377467
 31
0.0
  0
LINE
  5
1AACF
330
18
100
AcDbEntity
  8
01
100
AcDbLine
 10
3929.410611085057
 20
-1457.138153377467
 30
0.0
 11
3928.910611085057
 21
-1452.138153377467
 31
0.0
  0
LINE
  5
1AAD0
330
18
100
AcDbEntity
  8
1HATCH
100
AcDbLine
 10
3928.410611085057
 20
-1457.138153377467
 30
0.0
 11
3928.410611085057
 21
-1452.138153377467
 31
0.0
  0
LINE
  5
1AAD1
330
18
100
AcDbEntity
  8
1HATCH
100
AcDbLine
 10
3927.410611085057
 20
-1457.138153377467
 30
0.0
 11
3927.410611085057
 21
-1452.138153377467
 31
0.0
  0
LINE
  5
1AAD2
330
18
100
AcDbEntity
  8
1HATCH
100
AcDbLine
 10
3926.410611085057
 20
-1457.138153377467
 30
0.0
 11
3926.410611085057
 21
-1452.138153377467
 31
0.0
  0
LINE
  5
1AAD3
330
18
100
AcDbEntity
  8
1HATCH
100
AcDbLine
 10
3925.410611085057
 20
-1457.138153377467
 30
0.0
 11
3925.410611085057
 21
-1452.138153377467
 31
0.0
  0
LINE
  5
1AAD4
330
18
100
AcDbEntity
  8
1HATCH
100
AcDbLine
 10
3924.410611085057
 20
-1457.138153377467
 30
0.0
 11
3924.410611085057
 21
-1452.138153377467
 31
0.0
  0
LINE
  5
1AAD5
330
18
100
AcDbEntity
  8
1HATCH
100
AcDbLine
 10
3922.410611085057
 20
-1457.138153377467
 30
0.0
 11
3922.410611085057
 21
-1452.138153377467
 31
0.0
  0
LINE
  5
1AAD6
330
18
100
AcDbEntity
  8
1HATCH
100
AcDbLine
 10
3921.410611085057
 20
-1457.138153377467
 30
0.0
 11
3921.410611085057
 21
-1452.138153377467
 31
0.0
  0
LINE
  5
1AAD7
330
18
100
AcDbEntity
  8
1HATCH
100
AcDbLine
 10
3920.410611085057
 20
-1457.138153377467
 30
0.0
 11
3920.410611085057
 21
-1452.138153377467
 31
0.0
  0
LINE
  5
1AAD8
330
18
100
AcDbEntity
  8
1HATCH
100
AcDbLine
 10
3923.410611085057
 20
-1452.138153377467
 30
0.0
 11
3923.410611085057
 21
-1457.138153377467
 31
0.0
  0
LINE
  5
1AAD9
330
18
100
AcDbEntity
  8
01
100
AcDbLine
 10
3917.910611085057
 20
-1452.138153377467
 30
0.0
 11
3928.910611085057
 21
-1452.138153377467
 31
0.0
  0
LINE
  5
1AADA
330
18
100
AcDbEntity
  8
01
100
AcDbLine
 10
3917.410611085057
 20
-1457.138153377467
 30
0.0
 11
3929.410611085057
 21
-1457.138153377467
 31
0.0
  0
LINE
  5
1AAFB
330
18
100
AcDbEntity
  8
01
100
AcDbLine
 10
3706.424837362937
 20
-1457.138153377467
 30
0.0
 11
3705.924837362937
 21
-1452.138153377467
 31
0.0
  0
LINE
  5
1AAFC
330
18
100
AcDbEntity
  8
1HATCH
100
AcDbLine
 10
3704.424837362937
 20
-1457.138153377467
 30
0.0
 11
3704.424837362937
 21
-1452.138153377467
 31
0.0
  0
LINE
  5
1AAFD
330
18
100
AcDbEntity
  8
1HATCH
100
AcDbLine
 10
3705.424837362937
 20
-1457.138153377467
 30
0.0
 11
3705.424837362937
 21
-1452.138153377467
 31
0.0
  0
LINE
  5
1AAFE
330
18
100
AcDbEntity
  8
01
100
AcDbLine
 10
3694.424837362937
 20
-1457.138153377467
 30
0.0
 11
3694.924837362937
 21
-1452.138153377467
 31
0.0
  0
LINE
  5
1AAFF
330
18
100
AcDbEntity
  8
1HATCH
100
AcDbLine
 10
3695.424837362937
 20
-1457.138153377467
 30
0.0
 11
3695.424837362937
 21
-1452.138153377467
 31
0.0
  0
LINE
  5
1AB00
330
18
100
AcDbEntity
  8
1HATCH
100
AcDbLine
 10
3696.424837362937
 20
-1457.138153377467
 30
0.0
 11
3696.424837362937
 21
-1452.138153377467
 31
0.0
  0
LINE
  5
1AB01
330
18
100
AcDbEntity
  8
1HATCH
100
AcDbLine
 10
3697.424837362937
 20
-1457.138153377467
 30
0.0
 11
3697.424837362937
 21
-1452.138153377467
 31
0.0
  0
LINE
  5
1AB02
330
18
100
AcDbEntity
  8
1HATCH
100
AcDbLine
 10
3698.424837362937
 20
-1457.138153377467
 30
0.0
 11
3698.424837362937
 21
-1452.138153377467
 31
0.0
  0
LINE
  5
1AB03
330
18
100
AcDbEntity
  8
1HATCH
100
AcDbLine
 10
3699.424837362937
 20
-1457.138153377467
 30
0.0
 11
3699.424837362937
 21
-1452.138153377467
 31
0.0
  0
LINE
  5
1AB04
330
18
100
AcDbEntity
  8
1HATCH
100
AcDbLine
 10
3701.424837362937
 20
-1457.138153377467
 30
0.0
 11
3701.424837362937
 21
-1452.138153377467
 31
0.0
  0
LINE
  5
1AB05
330
18
100
AcDbEntity
  8
1HATCH
100
AcDbLine
 10
3702.424837362937
 20
-1457.138153377467
 30
0.0
 11
3702.424837362937
 21
-1452.138153377467
 31
0.0
  0
LINE
  5
1AB06
330
18
100
AcDbEntity
  8
1HATCH
100
AcDbLine
 10
3703.424837362937
 20
-1457.138153377467
 30
0.0
 11
3703.424837362937
 21
-1452.138153377467
 31
0.0
  0
LINE
  5
1AB07
330
18
100
AcDbEntity
  8
1HATCH
100
AcDbLine
 10
3700.424837362937
 20
-1452.138153377467
 30
0.0
 11
3700.424837362937
 21
-1457.138153377467
 31
0.0
  0
LINE
  5
1AB08
330
18
100
AcDbEntity
  8
01
100
AcDbLine
 10
3705.924837362937
 20
-1452.138153377467
 30
0.0
 11
3694.924837362937
 21
-1452.138153377467
 31
0.0
  0
LINE
  5
1AB09
330
18
100
AcDbEntity
  8
01
100
AcDbLine
 10
3706.424837362937
 20
-1457.138153377467
 30
0.0
 11
3694.424837362937
 21
-1457.138153377467
 31
0.0
  0
CIRCLE
  5
1AB0C
330
18
100
AcDbEntity
  8
01
100
AcDbCircle
 10
3780.424837362933
 20
-1360.167848794089
 30
0.0
 40
5.5
  0
CIRCLE
  5
1AB0D
330
18
100
AcDbEntity
  8
01
100
AcDbCircle
 10
3780.424837362933
 20
-1360.167848794089
 30
0.0
 40
6.0
  0
CIRCLE
  5
1AB0E
330
18
100
AcDbEntity
  8
01
100
AcDbCircle
 10
3700.424837362934
 20
-1360.167848794089
 30
0.0
 40
5.5
  0
CIRCLE
  5
1AB0F
330
18
100
AcDbEntity
  8
01
100
AcDbCircle
 10
3700.424837362934
 20
-1360.167848794089
 30
0.0
 40
6.0
  0
LINE
  5
1B2B5
330
18
100
AcDbEntity
  8
01
100
AcDbLine
 10
3774.424837362933
 20
-1457.138153377467
 30
0.0
 11
3774.924837362933
 21
-1452.138153377467
 31
0.0
  0
LINE
  5
1B2B6
330
18
100
AcDbEntity
  8
1HATCH
100
AcDbLine
 10
3776.424837362933
 20
-1457.138153377467
 30
0.0
 11
3776.424837362933
 21
-1452.138153377467
 31
0.0
  0
LINE
  5
1B2B7
330
18
100
AcDbEntity
  8
1HATCH
100
AcDbLine
 10
3775.424837362933
 20
-1457.138153377467
 30
0.0
 11
3775.424837362933
 21
-1452.138153377467
 31
0.0
  0
LINE
  5
1B2B8
330
18
100
AcDbEntity
  8
01
100
AcDbLine
 10
3786.424837362933
 20
-1457.138153377467
 30
0.0
 11
3785.924837362933
 21
-1452.138153377467
 31
0.0
  0
LINE
  5
1B2B9
330
18
100
AcDbEntity
  8
1HATCH
100
AcDbLine
 10
3785.424837362933
 20
-1457.138153377467
 30
0.0
 11
3785.424837362933
 21
-1452.138153377467
 31
0.0
  0
LINE
  5
1B2BA
330
18
100
AcDbEntity
  8
1HATCH
100
AcDbLine
 10
3784.424837362933
 20
-1457.138153377467
 30
0.0
 11
3784.424837362933
 21
-1452.138153377467
 31
0.0
  0
LINE
  5
1B2BB
330
18
100
AcDbEntity
  8
1HATCH
100
AcDbLine
 10
3783.424837362933
 20
-1457.138153377467
 30
0.0
 11
3783.424837362933
 21
-1452.138153377467
 31
0.0
  0
LINE
  5
1B2BC
330
18
100
AcDbEntity
  8
1HATCH
100
AcDbLine
 10
3782.424837362933
 20
-1457.138153377467
 30
0.0
 11
3782.424837362933
 21
-1452.138153377467
 31
0.0
  0
LINE
  5
1B2BD
330
18
100
AcDbEntity
  8
1HATCH
100
AcDbLine
 10
3781.424837362933
 20
-1457.138153377467
 30
0.0
 11
3781.424837362933
 21
-1452.138153377467
 31
0.0
  0
LINE
  5
1B2BE
330
18
100
AcDbEntity
  8
1HATCH
100
AcDbLine
 10
3779.424837362933
 20
-1457.138153377467
 30
0.0
 11
3779.424837362933
 21
-1452.138153377467
 31
0.0
  0
LINE
  5
1B2BF
330
18
100
AcDbEntity
  8
1HATCH
100
AcDbLine
 10
3778.424837362933
 20
-1457.138153377467
 30
0.0
 11
3778.424837362933
 21
-1452.138153377467
 31
0.0
  0
LINE
  5
1B2C0
330
18
100
AcDbEntity
  8
1HATCH
100
AcDbLine
 10
3777.424837362933
 20
-1457.138153377467
 30
0.0
 11
3777.424837362933
 21
-1452.138153377467
 31
0.0
  0
LINE
  5
1B2C1
330
18
100
AcDbEntity
  8
1HATCH
100
AcDbLine
 10
3780.424837362933
 20
-1452.138153377467
 30
0.0
 11
3780.424837362933
 21
-1457.138153377467
 31
0.0
  0
LINE
  5
1B2C2
330
18
100
AcDbEntity
  8
01
100
AcDbLine
 10
3774.924837362933
 20
-1452.138153377467
 30
0.0
 11
3785.924837362933
 21
-1452.138153377467
 31
0.0
  0
LINE
  5
1B2C3
330
18
100
AcDbEntity
  8
01
100
AcDbLine
 10
3774.424837362933
 20
-1457.138153377467
 30
0.0
 11
3786.424837362933
 21
-1457.138153377467
 31
0.0
  0
ARC
  5
1BA4B
330
18
100
AcDbEntity
  8
1PHANTOM
100
AcDbCircle
 10
3698.674837362935
 20
-1488.638153377466
 30
0.0
 40
2.5
100
AcDbArc
 50
0.0
 51
180.0
  0
ARC
  5
1BA4C
330
18
100
AcDbEntity
  8
1PHANTOM
100
AcDbCircle
 10
3698.674837362935
 20
-1493.638153377468
 30
0.0
 40
2.5
100
AcDbArc
 50
180.0
 51
0.0
  0
LINE
  5
1BA4D
330
18
100
AcDbEntity
  8
1PHANTOM
100
AcDbLine
 10
3701.174837362935
 20
-1493.638153377468
 30
0.0
 11
3701.174837362935
 21
-1488.638153377466
 31
0.0
  0
LINE
  5
1BA4E
330
18
100
AcDbEntity
  8
1PHANTOM
100
AcDbLine
 10
3696.174837362935
 20
-1493.638153377468
 30
0.0
 11
3696.174837362935
 21
-1488.638153377466
 31
0.0
  0
LINE
  5
1BA4F
330
18
100
AcDbEntity
  8
1CENTER
100
AcDbLine
 10
3698.674837362935
 20
-1497.716704334254
 30
0.0
 11
3698.674837362935
 21
-1484.559602420678
 31
0.0
  0
LINE
  5
1BA50
330
18
100
AcDbEntity
  8
1CENTER
100
AcDbLine
 10
3693.755647146463
 20
-1491.138153377466
 30
0.0
 11
3703.594027579408
 21
-1491.138153377466
 31
0.0
  0
ARC
  5
1BA51
330
18
100
AcDbEntity
  8
1PHANTOM
100
AcDbCircle
 10
3782.174837362935
 20
-1488.638153377466
 30
0.0
 40
2.5
100
AcDbArc
 50
0.0
 51
180.0
  0
ARC
  5
1BA52
330
18
100
AcDbEntity
  8
1PHANTOM
100
AcDbCircle
 10
3782.174837362935
 20
-1493.638153377468
 30
0.0
 40
2.5
100
AcDbArc
 50
180.0
 51
0.0
  0
LINE
  5
1BA53
330
18
100
AcDbEntity
  8
1PHANTOM
100
AcDbLine
 10
3779.674837362935
 20
-1493.638153377468
 30
0.0
 11
3779.674837362935
 21
-1488.638153377466
 31
0.0
  0
LINE
  5
1BA54
330
18
100
AcDbEntity
  8
1PHANTOM
100
AcDbLine
 10
3784.674837362935
 20
-1493.638153377468
 30
0.0
 11
3784.674837362935
 21
-1488.638153377466
 31
0.0
  0
LINE
  5
1BA55
330
18
100
AcDbEntity
  8
1CENTER
100
AcDbLine
 10
3782.174837362935
 20
-1497.716704334254
 30
0.0
 11
3782.174837362935
 21
-1484.559602420678
 31
0.0
  0
LINE
  5
1BA56
330
18
100
AcDbEntity
  8
1CENTER
100
AcDbLine
 10
3787.094027579408
 20
-1491.138153377466
 30
0.0
 11
3777.255647146463
 21
-1491.138153377466
 31
0.0
  0
LINE
  5
1BBA7
330
18
100
AcDbEntity
  8
01
100
AcDbLine
 10
3722.424837362934
 20
-2011.138153375188
 30
0.0
 11
3758.424837362934
 21
-2011.138153375188
 31
0.0
  0
LINE
  5
1BBA8
330
18
100
AcDbEntity
  8
01
100
AcDbLine
 10
3722.424837362934
 20
-1855.138153375188
 30
0.0
 11
3758.424837362934
 21
-1855.138153375188
 31
0.0
  0
LINE
  5
1BBAA
330
18
100
AcDbEntity
  8
01
100
AcDbLine
 10
3758.424837362934
 20
-2011.138153375188
 30
0.0
 11
3758.424837362934
 21
-1855.138153375188
 31
0.0
  0
LINE
  5
1BBAB
330
18
100
AcDbEntity
  8
01
100
AcDbLine
 10
3722.424837362934
 20
-2011.138153375188
 30
0.0
 11
3722.424837362934
 21
-1855.138153375188
 31
0.0
  0
LINE
  5
1C723
330
18
100
AcDbEntity
  8
1CENTER
100
AcDbLine
 10
4102.383104794706
 20
-2191.138153377467
 30
0.0
 11
4110.183104794705
 21
-2191.138153377467
 31
0.0
  0
ARC
  5
1C724
330
18
100
AcDbEntity
  8
01
100
AcDbCircle
 10
4106.283104794706
 20
-2188.638153377467
 30
0.0
 40
2.5
100
AcDbArc
 50
0.0
 51
180.0
  0
ARC
  5
1C725
330
18
100
AcDbEntity
  8
01
100
AcDbCircle
 10
4106.283104794706
 20
-2193.638153377468
 30
0.0
 40
2.5
100
AcDbArc
 50
180.0
 51
0.0
  0
LINE
  5
1C726
330
18
100
AcDbEntity
  8
01
100
AcDbLine
 10
4103.783104794706
 20
-2193.638153377468
 30
0.0
 11
4103.783104794706
 21
-2188.638153377467
 31
0.0
  0
LINE
  5
1C727
330
18
100
AcDbEntity
  8
01
100
AcDbLine
 10
4108.783104794706
 20
-2193.638153377468
 30
0.0
 11
4108.783104794706
 21
-2188.638153377467
 31
0.0
  0
LINE
  5
1C728
330
18
100
AcDbEntity
  8
1CENTER
100
AcDbLine
 10
4106.283104794706
 20
-2197.716704334255
 30
0.0
 11
4106.283104794706
 21
-2184.559602420679
 31
0.0
  0
LINE
  5
1C729
330
18
100
AcDbEntity
  8
1CENTER
100
AcDbLine
 10
4190.183104794703
 20
-2191.138153377467
 30
0.0
 11
4182.383104794704
 21
-2191.138153377467
 31
0.0
  0
ARC
  5
1C72A
330
18
100
AcDbEntity
  8
01
100
AcDbCircle
 10
4186.283104794704
 20
-2188.638153377467
 30
0.0
 40
2.5
100
AcDbArc
 50
0.0
 51
180.0
  0
ARC
  5
1C72B
330
18
100
AcDbEntity
  8
01
100
AcDbCircle
 10
4186.283104794704
 20
-2193.638153377468
 30
0.0
 40
2.5
100
AcDbArc
 50
180.0
 51
0.0
  0
LINE
  5
1C72C
330
18
100
AcDbEntity
  8
01
100
AcDbLine
 10
4188.783104794704
 20
-2193.638153377468
 30
0.0
 11
4188.783104794704
 21
-2188.638153377467
 31
0.0
  0
LINE
  5
1C72D
330
18
100
AcDbEntity
  8
01
100
AcDbLine
 10
4183.783104794704
 20
-2193.638153377468
 30
0.0
 11
4183.783104794704
 21
-2188.638153377467
 31
0.0
  0
LINE
  5
1C72E
330
18
100
AcDbEntity
  8
1CENTER
100
AcDbLine
 10
4186.283104794704
 20
-2197.716704334255
 30
0.0
 11
4186.283104794704
 21
-2184.559602420679
 31
0.0
  0
LINE
  5
1C72F
330
18
100
AcDbEntity
  8
1HIDDEN
100
AcDbLine
 10
4214.533104794706
 20
-2357.138153377467
 30
0.0
 11
4078.033104794704
 21
-2357.138153377467
 31
0.0
  0
LINE
  5
1C730
330
18
100
AcDbEntity
  8
1HIDDEN
100
AcDbLine
 10
4078.033104794704
 20
-1457.138153377467
 30
0.0
 11
4078.033104794704
 21
-2357.138153377467
 31
0.0
  0
LINE
  5
1C731
330
18
100
AcDbEntity
  8
1HIDDEN
100
AcDbLine
 10
4214.533104794706
 20
-1457.138153377467
 30
0.0
 11
4214.533104794706
 21
-2357.138153377467
 31
0.0
  0
LINE
  5
1C735
330
18
100
AcDbEntity
  8
1DIM
100
AcDbLine
 10
4151.283104792838
 20
-1933.138153375188
 30
0.0
 11
4240.427584255949
 21
-1933.138153375188
 31
0.0
  0
LINE
  5
1C737
330
18
100
AcDbEntity
  8
1HIDDEN
100
AcDbLine
 10
4078.033104794704
 20
-1457.138153377467
 30
0.0
 11
4214.533104794706
 21
-1457.138153377467
 31
0.0
  0
LINE
  5
1C738
330
18
100
AcDbEntity
  8
1DIM
100
AcDbLine
 10
4237.427584255947
 20
-2249.65095276717
 30
0.0
 11
4237.427584255949
 21
-1941.138153375188
 31
0.0
  0
ARC
  5
1C73D
330
18
100
AcDbEntity
  8
01
100
AcDbCircle
 10
4104.533104794705
 20
-1488.638153377466
 30
0.0
 40
2.5
100
AcDbArc
 50
0.0
 51
180.0
  0
ARC
  5
1C73E
330
18
100
AcDbEntity
  8
01
100
AcDbCircle
 10
4104.533104794705
 20
-1493.638153377468
 30
0.0
 40
2.5
100
AcDbArc
 50
180.0
 51
0.0
  0
LINE
  5
1C73F
330
18
100
AcDbEntity
  8
01
100
AcDbLine
 10
4107.033104794705
 20
-1493.638153377468
 30
0.0
 11
4107.033104794705
 21
-1488.638153377466
 31
0.0
  0
LINE
  5
1C740
330
18
100
AcDbEntity
  8
01
100
AcDbLine
 10
4102.033104794705
 20
-1493.638153377468
 30
0.0
 11
4102.033104794705
 21
-1488.638153377466
 31
0.0
  0
LINE
  5
1C741
330
18
100
AcDbEntity
  8
1CENTER
100
AcDbLine
 10
4104.533104794705
 20
-1497.716704334254
 30
0.0
 11
4104.533104794705
 21
-1484.559602420678
 31
0.0
  0
LINE
  5
1C742
330
18
100
AcDbEntity
  8
1CENTER
100
AcDbLine
 10
4099.613914578233
 20
-1491.138153377466
 30
0.0
 11
4109.452295011177
 21
-1491.138153377466
 31
0.0
  0
ARC
  5
1C743
330
18
100
AcDbEntity
  8
01
100
AcDbCircle
 10
4188.033104794705
 20
-1488.638153377466
 30
0.0
 40
2.5
100
AcDbArc
 50
0.0
 51
180.0
  0
ARC
  5
1C744
330
18
100
AcDbEntity
  8
01
100
AcDbCircle
 10
4188.033104794705
 20
-1493.638153377468
 30
0.0
 40
2.5
100
AcDbArc
 50
180.0
 51
0.0
  0
LINE
  5
1C745
330
18
100
AcDbEntity
  8
01
100
AcDbLine
 10
4185.533104794705
 20
-1493.638153377468
 30
0.0
 11
4185.533104794705
 21
-1488.638153377466
 31
0.0
  0
LINE
  5
1C746
330
18
100
AcDbEntity
  8
01
100
AcDbLine
 10
4190.533104794705
 20
-1493.638153377468
 30
0.0
 11
4190.533104794705
 21
-1488.638153377466
 31
0.0
  0
LINE
  5
1C747
330
18
100
AcDbEntity
  8
1CENTER
100
AcDbLine
 10
4188.033104794705
 20
-1497.716704334254
 30
0.0
 11
4188.033104794705
 21
-1484.559602420678
 31
0.0
  0
LINE
  5
1C748
330
18
100
AcDbEntity
  8
1CENTER
100
AcDbLine
 10
4183.113914578233
 20
-1491.138153377466
 30
0.0
 11
4192.952295011177
 21
-1491.138153377466
 31
0.0
  0
LINE
  5
1C74E
330
18
100
AcDbEntity
  8
1CENTER
100
AcDbLine
 10
4102.383104794706
 20
-1791.138153377467
 30
0.0
 11
4110.183104794705
 21
-1791.138153377467
 31
0.0
  0
ARC
  5
1C74F
330
18
100
AcDbEntity
  8
01
100
AcDbCircle
 10
4106.283104794706
 20
-1788.638153377466
 30
0.0
 40
2.5
100
AcDbArc
 50
0.0
 51
180.0
  0
ARC
  5
1C750
330
18
100
AcDbEntity
  8
01
100
AcDbCircle
 10
4106.283104794706
 20
-1793.638153377468
 30
0.0
 40
2.5
100
AcDbArc
 50
180.0
 51
0.0
  0
LINE
  5
1C751
330
18
100
AcDbEntity
  8
01
100
AcDbLine
 10
4103.783104794706
 20
-1793.638153377468
 30
0.0
 11
4103.783104794706
 21
-1788.638153377466
 31
0.0
  0
LINE
  5
1C752
330
18
100
AcDbEntity
  8
01
100
AcDbLine
 10
4108.783104794706
 20
-1793.638153377468
 30
0.0
 11
4108.783104794706
 21
-1788.638153377466
 31
0.0
  0
LINE
  5
1C753
330
18
100
AcDbEntity
  8
1CENTER
100
AcDbLine
 10
4106.283104794706
 20
-1797.716704334255
 30
0.0
 11
4106.283104794706
 21
-1784.559602420679
 31
0.0
  0
LINE
  5
1C754
330
18
100
AcDbEntity
  8
1CENTER
100
AcDbLine
 10
4190.183104794703
 20
-1791.138153377467
 30
0.0
 11
4182.383104794704
 21
-1791.138153377467
 31
0.0
  0
ARC
  5
1C755
330
18
100
AcDbEntity
  8
01
100
AcDbCircle
 10
4186.283104794704
 20
-1788.638153377466
 30
0.0
 40
2.5
100
AcDbArc
 50
0.0
 51
180.0
  0
ARC
  5
1C756
330
18
100
AcDbEntity
  8
01
100
AcDbCircle
 10
4186.283104794704
 20
-1793.638153377468
 30
0.0
 40
2.5
100
AcDbArc
 50
180.0
 51
0.0
  0
LINE
  5
1C757
330
18
100
AcDbEntity
  8
01
100
AcDbLine
 10
4188.783104794704
 20
-1793.638153377468
 30
0.0
 11
4188.783104794704
 21
-1788.638153377466
 31
0.0
  0
LINE
  5
1C758
330
18
100
AcDbEntity
  8
01
100
AcDbLine
 10
4183.783104794704
 20
-1793.638153377468
 30
0.0
 11
4183.783104794704
 21
-1788.638153377466
 31
0.0
  0
LINE
  5
1C759
330
18
100
AcDbEntity
  8
1CENTER
100
AcDbLine
 10
4186.283104794704
 20
-1797.716704334255
 30
0.0
 11
4186.283104794704
 21
-1784.559602420679
 31
0.0
  0
LINE
  5
1C75B
330
18
100
AcDbEntity
  8
1CENTER
100
AcDbLine
 10
4151.283104792838
 20
-1933.138153375188
 30
0.0
 11
4141.283104792838
 21
-1933.138153375188
 31
0.0
  0
LINE
  5
1C75C
330
18
100
AcDbEntity
  8
1CENTER
100
AcDbLine
 10
4146.283104794705
 20
-1928.138153379746
 30
0.0
 11
4146.283104794705
 21
-1938.138153379746
 31
0.0
  0
LINE
  5
1C75D
330
18
100
AcDbEntity
  8
01
100
AcDbLine
 10
4201.283104794705
 20
-1839.138153378607
 30
0.0
 11
4201.283104794705
 21
-2027.138153383164
 31
0.0
  0
ARC
  5
1C75E
330
18
100
AcDbEntity
  8
01
100
AcDbCircle
 10
4196.283104794705
 20
-1839.138153378607
 30
0.0
 40
5.0
100
AcDbArc
 50
0.0
 51
90.0
  0
LINE
  5
1C75F
330
18
100
AcDbEntity
  8
01
100
AcDbLine
 10
4091.283104794705
 20
-1839.138153378607
 30
0.0
 11
4091.283104794705
 21
-2027.138153378607
 31
0.0
  0
ARC
  5
1C760
330
18
100
AcDbEntity
  8
01
100
AcDbCircle
 10
4096.283104794705
 20
-2027.138153378607
 30
0.0
 40
5.0
100
AcDbArc
 50
180.0
 51
270.0
  0
LINE
  5
1C761
330
18
100
AcDbEntity
  8
01
100
AcDbLine
 10
4196.283104794705
 20
-2032.138153378607
 30
0.0
 11
4096.283104794705
 21
-2032.138153378607
 31
0.0
  0
ARC
  5
1C762
330
18
100
AcDbEntity
  8
01
100
AcDbCircle
 10
4196.283104794705
 20
-2027.138153383164
 30
0.0
 40
5.0
100
AcDbArc
 50
270.0
 51
0.0
  0
LINE
  5
1C763
330
18
100
AcDbEntity
  8
01
100
AcDbLine
 10
4196.283104794705
 20
-1834.138153378607
 30
0.0
 11
4096.283104794705
 21
-1834.138153378607
 31
0.0
  0
ARC
  5
1C764
330
18
100
AcDbEntity
  8
01
100
AcDbCircle
 10
4096.283104794705
 20
-1839.138153378607
 30
0.0
 40
5.0
100
AcDbArc
 50
90.0
 51
180.0
  0
ARC
  5
1CB8C
330
18
100
AcDbEntity
  8
01
100
AcDbCircle
 10
3741.627430417498
 20
-1332.270362445228
 30
0.0
 40
0.75
100
AcDbArc
 50
90.00039994660993
 51
179.9996000534074
  0
LINE
  5
1CB8D
330
18
100
AcDbEntity
  8
01
100
AcDbLine
 10
3742.676232872001
 20
-1331.520355124165
 30
0.0
 11
3741.627425182209
 21
-1331.520362445246
 31
0.0
  0
LINE
  5
1CB8E
330
18
100
AcDbEntity
  8
01
100
AcDbLine
 10
3740.877423095924
 20
-1333.319237985265
 30
0.0
 11
3740.877430417515
 21
-1332.270357209939
 31
0.0
  0
ARC
  5
1CB8F
330
18
100
AcDbEntity
  8
01
100
AcDbCircle
 10
3739.222323711798
 20
-1332.27044184865
 30
0.0
 40
0.75
100
AcDbArc
 50
0.0003999465925571
 51
89.99960005345956
  0
LINE
  5
1CB90
330
18
100
AcDbEntity
  8
01
100
AcDbLine
 10
3739.972331032861
 20
-1333.319244303156
 30
0.0
 11
3739.97232371178
 21
-1332.270436613361
 31
0.0
  0
LINE
  5
1CB91
330
18
100
AcDbEntity
  8
01
100
AcDbLine
 10
3738.173448171756
 20
-1331.520434527078
 30
0.0
 11
3739.222328947086
 21
-1331.520441848669
 31
0.0
  0
ARC
  5
1CB92
330
18
100
AcDbEntity
  8
01
100
AcDbCircle
 10
3739.222244308373
 20
-1329.865335142951
 30
0.0
 40
0.75
100
AcDbArc
 50
270.0003999466099
 51
359.9996000534943
  0
LINE
  5
1CB93
330
18
100
AcDbEntity
  8
01
100
AcDbLine
 10
3738.173441853865
 20
-1330.615342464015
 30
0.0
 11
3739.222249543661
 21
-1330.615335142933
 31
0.0
  0
LINE
  5
1CB94
330
18
100
AcDbEntity
  8
01
100
AcDbLine
 10
3739.972251629945
 20
-1328.816459602914
 30
0.0
 11
3739.972244308355
 21
-1329.865340378239
 31
0.0
  0
ARC
  5
1CB95
330
18
100
AcDbEntity
  8
01
100
AcDbCircle
 10
3741.627351014071
 20
-1329.865255739529
 30
0.0
 40
0.75
100
AcDbArc
 50
180.0003999465926
 51
269.9996000534595
  0
LINE
  5
1CB96
330
18
100
AcDbEntity
  8
01
100
AcDbLine
 10
3742.67622655411
 20
-1330.615263061101
 30
0.0
 11
3741.627345778783
 21
-1330.615255739511
 31
0.0
  0
LINE
  5
1CB97
330
18
100
AcDbEntity
  8
01
100
AcDbLine
 10
3740.877343693008
 20
-1328.816453285023
 30
0.0
 11
3740.877351014089
 21
-1329.865260974818
 31
0.0
  0
LINE
  5
1CB98
330
18
100
AcDbEntity
  8
01
100
AcDbLine
 10
3742.67622655411
 20
-1330.615263061101
 30
0.0
 11
3742.676232872001
 21
-1331.520355124165
 31
0.0
  0
LINE
  5
1CB99
330
18
100
AcDbEntity
  8
01
100
AcDbLine
 10
3740.877423095924
 20
-1333.319237985265
 30
0.0
 11
3739.972331032861
 21
-1333.319244303156
 31
0.0
  0
LINE
  5
1CB9A
330
18
100
AcDbEntity
  8
01
100
AcDbLine
 10
3738.173448171756
 20
-1331.520434527078
 30
0.0
 11
3738.173441853865
 21
-1330.615342464015
 31
0.0
  0
LINE
  5
1CB9B
330
18
100
AcDbEntity
  8
1CENTER
100
AcDbLine
 10
3740.424837362934
 20
-1327.716572601657
 30
0.0
 11
3740.424837362934
 21
-1334.419124986522
 31
0.0
  0
LINE
  5
1CB9C
330
18
100
AcDbEntity
  8
1CENTER
100
AcDbLine
 10
3743.776113555367
 20
-1331.06784879409
 30
0.0
 11
3737.073561170501
 21
-1331.06784879409
 31
0.0
  0
LINE
  5
1CB9D
330
18
100
AcDbEntity
  8
01
100
AcDbLine
 10
3739.972251629945
 20
-1328.816459602914
 30
0.0
 11
3740.877343693008
 21
-1328.816453285023
 31
0.0
  0
CIRCLE
  5
1CB9E
330
18
100
AcDbEntity
  8
01
100
AcDbCircle
 10
3740.424837362934
 20
-1331.06784879409
 30
0.0
 40
3.0
  0
TEXT
  5
1CB9F
330
18
100
AcDbEntity
  8
01
  6
CONTINUOUS
100
AcDbText
 10
4051.983207715568
 20
-1376.581249580847
 30
0.0
 40
10.5
  1
スイッチボックスを施工できない
  7
SWISS
100
AcDbText
  0
TEXT
  5
1CBA0
330
18
100
AcDbEntity
  8
01
  6
CONTINUOUS
100
AcDbText
 10
4083.658207715568
 20
-1394.081249580847
 30
0.0
 40
10.5
  1
場合の壁面切欠き寸法
  7
SWISS
100
AcDbText
  0
LINE
  5
1CBA1
330
18
100
AcDbEntity
  8
1DIM
100
AcDbLine
 10
3943.410611085057
 20
-1457.138153377467
 30
0.0
 11
3943.410611085057
 21
-1430.314400961692
 31
0.0
1001
ACAD
1000
DSTYLE
1002
{
1070
    40
1040
4.0
1002
}
  0
LINE
  5
1CBA2
330
18
100
AcDbEntity
  8
1DIM
100
AcDbLine
 10
3961.410611085057
 20
-1457.138153377467
 30
0.0
 11
3961.410611085057
 21
-1430.314400961692
 31
0.0
1001
ACAD
1000
DSTYLE
1002
{
1070
    40
1040
4.0
1002
}
  0
LINE
  5
1CBA3
330
18
100
AcDbEntity
  8
1DIM
100
AcDbLine
 10
3935.410611085057
 20
-1434.314400961692
 30
0.0
 11
3927.410611085057
 21
-1434.314400961692
 31
0.0
1001
ACAD
1000
DSTYLE
1002
{
1070
    40
1040
4.0
1002
}
  0
LINE
  5
1CBA4
330
18
100
AcDbEntity
  8
1DIM
100
AcDbLine
 10
3969.410611085057
 20
-1434.314400961692
 30
0.0
 11
4003.677277751724
 21
-1434.314400961692
 31
0.0
1001
ACAD
1000
DSTYLE
1002
{
1070
    40
1040
4.0
1002
}
  0
LINE
  5
1CBA5
330
18
100
AcDbEntity
  8
1DIM
100
AcDbLine
 10
3943.410611085057
 20
-1434.314400961692
 30
0.0
 11
3961.410611085057
 21
-1434.314400961692
 31
0.0
1001
ACAD
1000
DSTYLE
1002
{
1070
    40
1040
4.0
1002
}
  0
LINE
  5
1CBA9
330
18
100
AcDbEntity
  8
1DIM
100
AcDbLine
 10
3900.410611085056
 20
-1457.138153377467
 30
0.0
 11
3900.410611085056
 21
-1406.930026664106
 31
0.0
1001
ACAD
1000
DSTYLE
1002
{
1070
    40
1040
4.0
1002
}
  0
LINE
  5
1CBAA
330
18
100
AcDbEntity
  8
1DIM
100
AcDbLine
 10
3961.410611085057
 20
-1457.138153377467
 30
0.0
 11
3961.410611085057
 21
-1406.930026664106
 31
0.0
1001
ACAD
1000
DSTYLE
1002
{
1070
    40
1040
4.0
1002
}
  0
LINE
  5
1CBAB
330
18
100
AcDbEntity
  8
1DIM
100
AcDbLine
 10
3908.410611085056
 20
-1410.930026664106
 30
0.0
 11
3953.410611085057
 21
-1410.930026664106
 31
0.0
1001
ACAD
1000
DSTYLE
1002
{
1070
    40
1040
4.0
1002
}
  0
LINE
  5
1CBAF
330
18
100
AcDbEntity
  8
1DIM
100
AcDbLine
 10
3740.424837362934
 20
-1933.138153375188
 30
0.0
 11
3650.174837362934
 21
-1933.138153375188
 31
0.0
1001
ACAD
1000
DSTYLE
1002
{
1070
    40
1040
4.0
1002
}
  0
LINE
  5
1CBB0
330
18
100
AcDbEntity
  8
1DIM
100
AcDbLine
 10
3696.524837362936
 20
-1791.138153377467
 30
0.0
 11
3650.174837362934
 21
-1791.138153377467
 31
0.0
1001
ACAD
1000
DSTYLE
1002
{
1070
    40
1040
4.0
1002
}
  0
LINE
  5
1CBB1
330
18
100
AcDbEntity
  8
1DIM
100
AcDbLine
 10
3654.174837362934
 20
-1925.138153375188
 30
0.0
 11
3654.174837362934
 21
-1799.138153377467
 31
0.0
1001
ACAD
1000
DSTYLE
1002
{
1070
    40
1040
4.0
1002
}
  0
LINE
  5
1CBB5
330
18
100
AcDbEntity
  8
1DIM
100
AcDbLine
 10
3784.324837362933
 20
-2191.138153377467
 30
0.0
 11
3839.896610738051
 21
-2191.138153377467
 31
0.0
1001
ACAD
1000
DSTYLE
1002
{
1070
    40
1040
4.0
1002
}
  0
LINE
  5
1CBB6
330
18
100
AcDbEntity
  8
1DIM
100
AcDbLine
 10
3784.324837362933
 20
-1791.138153377467
 30
0.0
 11
3839.896610738051
 21
-1791.138153377467
 31
0.0
1001
ACAD
1000
DSTYLE
1002
{
1070
    40
1040
4.0
1002
}
  0
LINE
  5
1CBB7
330
18
100
AcDbEntity
  8
1DIM
100
AcDbLine
 10
3835.896610738051
 20
-2183.138153377467
 30
0.0
 11
3835.896610738051
 21
-1799.138153377467
 31
0.0
1001
ACAD
1000
DSTYLE
1002
{
1070
    40
1040
4.0
1002
}
  0
LINE
  5
1CBBB
330
18
100
AcDbEntity
  8
1DIM
100
AcDbLine
 10
3808.674837362935
 20
-2357.138153377467
 30
0.0
 11
3869.005218527999
 21
-2357.138153377467
 31
0.0
1001
ACAD
1000
DSTYLE
1002
{
1070
    40
1040
4.0
1002
}
  0
LINE
  5
1CBBC
330
18
100
AcDbEntity
  8
1DIM
100
AcDbLine
 10
3808.674837362933
 20
-1457.138153377467
 30
0.0
 11
3869.005218527999
 21
-1457.138153377467
 31
0.0
1001
ACAD
1000
DSTYLE
1002
{
1070
    40
1040
4.0
1002
}
  0
LINE
  5
1CBBD
330
18
100
AcDbEntity
  8
1DIM
100
AcDbLine
 10
3865.005218527999
 20
-2349.138153377467
 30
0.0
 11
3865.005218527999
 21
-1465.138153377467
 31
0.0
1001
ACAD
1000
DSTYLE
1002
{
1070
    40
1040
4.0
1002
}
  0
LINE
  5
1CBC1
330
18
100
AcDbEntity
  8
1DIM
100
AcDbLine
 10
3784.324837362933
 20
-1791.138153377467
 30
0.0
 11
3839.896610738051
 21
-1791.138153377467
 31
0.0
1001
ACAD
1000
DSTYLE
1002
{
1070
    40
1040
4.0
1002
}
  0
LINE
  5
1CBC2
330
18
100
AcDbEntity
  8
1DIM
100
AcDbLine
 10
3787.094027579408
 20
-1491.138153377466
 30
0.0
 11
3839.896610738051
 21
-1491.138153377466
 31
0.0
1001
ACAD
1000
DSTYLE
1002
{
1070
    40
1040
4.0
1002
}
  0
LINE
  5
1CBC3
330
18
100
AcDbEntity
  8
1DIM
100
AcDbLine
 10
3835.896610738051
 20
-1783.138153377467
 30
0.0
 11
3835.896610738051
 21
-1499.138153377466
 31
0.0
1001
ACAD
1000
DSTYLE
1002
{
1070
    40
1040
4.0
1002
}
  0
LINE
  5
1CBC7
330
18
100
AcDbEntity
  8
1DIM
100
AcDbLine
 10
3672.174837362935
 20
-1457.138153377467
 30
0.0
 11
3672.174837362935
 21
-1410.468892273764
 31
0.0
1001
ACAD
1000
DSTYLE
1002
{
1070
    40
1040
4.0
1002
}
  0
LINE
  5
1CBC8
330
18
100
AcDbEntity
  8
1DIM
100
AcDbLine
 10
3808.674837362935
 20
-1457.138153377467
 30
0.0
 11
3808.674837362935
 21
-1410.468892273764
 31
0.0
1001
ACAD
1000
DSTYLE
1002
{
1070
    40
1040
4.0
1002
}
  0
LINE
  5
1CBC9
330
18
100
AcDbEntity
  8
1DIM
100
AcDbLine
 10
3680.174837362935
 20
-1414.468892273764
 30
0.0
 11
3800.674837362935
 21
-1414.468892273764
 31
0.0
1001
ACAD
1000
DSTYLE
1002
{
1070
    40
1040
4.0
1002
}
  0
LINE
  5
1CBCD
330
18
100
AcDbEntity
  8
1DIM
100
AcDbLine
 10
3700.424837362935
 20
-1784.559602420679
 30
0.0
 11
3700.424837362935
 21
-1747.617003309403
 31
0.0
1001
ACAD
1000
DSTYLE
1002
{
1070
    40
1040
4.0
1002
}
  0
LINE
  5
1CBCE
330
18
100
AcDbEntity
  8
1DIM
100
AcDbLine
 10
3780.424837362933
 20
-1784.559602420679
 30
0.0
 11
3780.424837362933
 21
-1747.617003309403
 31
0.0
1001
ACAD
1000
DSTYLE
1002
{
1070
    40
1040
4.0
1002
}
  0
LINE
  5
1CBCF
330
18
100
AcDbEntity
  8
1DIM
100
AcDbLine
 10
3708.424837362935
 20
-1751.617003309403
 30
0.0
 11
3772.424837362933
 21
-1751.617003309403
 31
0.0
1001
ACAD
1000
DSTYLE
1002
{
1070
    40
1040
4.0
1002
}
  0
SOLID
  5
1CBD3
330
18
100
AcDbEntity
  8
1DIM
100
AcDbTrace
 10
3681.846635973869
 20
-1546.786915472401
 30
0.0
 11
3683.338278069796
 21
-1554.758915324097
 31
0.0
 12
3679.341751810937
 22
-1547.701610198199
 32
0.0
 13
3679.341751810937
 23
-1547.701610198199
 33
0.0
1001
ACAD
1000
DSTYLE
1002
{
1070
    40
1040
4.0
1002
}
  0
LINE
  5
1CBD4
330
18
100
AcDbEntity
  8
1DIM
100
AcDbLine
 10
3680.594193892403
 20
-1547.2442628353
 30
0.0
 11
3663.765793674246
 21
-1501.159823945388
 31
0.0
1001
ACAD
1000
DSTYLE
1002
{
1070
    40
1040
4.0
1002
}
  0
LINE
  5
1CBD5
330
18
100
AcDbEntity
  8
1DIM
100
AcDbLine
 10
3663.765793674246
 20
-1501.159823945388
 30
0.0
 11
3521.832460340912
 21
-1501.159823945388
 31
0.0
1001
ACAD
1000
DSTYLE
1002
{
1070
    40
1040
4.0
1002
}
  0
TEXT
  5
1CBD6
330
18
100
AcDbEntity
  8
1DIM
  6
CONTINUOUS
100
AcDbText
 10
3558.232460340912
 20
-1475.026490612054
 30
0.0
 40
14.0
  1
材質：アルミ
100
AcDbText
  0
TEXT
  5
1CBD7
330
18
100
AcDbEntity
  8
1DIM
  6
CONTINUOUS
100
AcDbText
 10
3521.365793674246
 20
-1498.359823945388
 30
0.0
 40
14.0
  1
仕上げ：各種仕上
100
AcDbText
  0
LINE
  5
1CBD8
330
18
100
AcDbEntity
  8
0
  6
BYBLOCK
100
AcDbLine
 10
3652.031243842934
 20
-1941.138153375188
 30
0.0
 11
3654.174837362934
 21
-1933.138153375188
 31
0.0
  0
LINE
  5
1CBD9
330
18
100
AcDbEntity
  8
0
  6
BYBLOCK
100
AcDbLine
 10
3654.174837362934
 20
-1933.138153375188
 30
0.0
 11
3656.318430882935
 21
-1941.138153375188
 31
0.0
  0
LINE
  5
1CBDA
330
18
100
AcDbEntity
  8
0
  6
BYBLOCK
100
AcDbLine
 10
3654.174837362934
 20
-1933.138153375188
 30
0.0
 11
3654.174837362934
 21
-1941.138153375188
 31
0.0
  0
SOLID
  5
1CBDB
330
18
100
AcDbEntity
  8
1DIM
100
AcDbTrace
 10
3948.406647564995
 20
-1450.749303929491
 30
0.0
 11
3943.410611085057
 21
-1457.138153377467
 31
0.0
 12
3946.064532258628
 22
-1449.47431098724
 32
0.0
 13
3946.064532258628
 23
-1449.47431098724
 33
0.0
1001
ACAD
1000
DSTYLE
1002
{
1070
    40
1040
4.0
1002
}
  0
LINE
  5
1CBDC
330
18
100
AcDbEntity
  8
1DIM
100
AcDbLine
 10
3947.235589911812
 20
-1450.111807458366
 30
0.0
 11
4003.851968594174
 21
-1346.109594811708
 31
0.0
1001
ACAD
1000
DSTYLE
1002
{
1070
    40
1040
4.0
1002
}
  0
LINE
  5
1CBDD
330
18
100
AcDbEntity
  8
1DIM
100
AcDbLine
 10
4003.851968594174
 20
-1346.109594811708
 30
0.0
 11
4270.251968594174
 21
-1346.109594811708
 31
0.0
1001
ACAD
1000
DSTYLE
1002
{
1070
    40
1040
4.0
1002
}
  0
TEXT
  5
1CBDE
330
18
100
AcDbEntity
  8
1DIM
  6
CONTINUOUS
100
AcDbText
 10
4013.718635260841
 20
-1319.95681703393
 30
0.0
 40
14.0
  1
製品取り付けのため
100
AcDbText
  0
TEXT
  5
1CBDF
330
18
100
AcDbEntity
  8
1DIM
  6
CONTINUOUS
100
AcDbText
 10
4014.651968594174
 20
-1343.309594811708
 30
0.0
 40
14.0
  1
上部に150ミリ以上の空間が必要
100
AcDbText
  0
LINE
  5
1CBE0
330
18
100
AcDbEntity
  8
1DIM
100
AcDbLine
 10
3787.094027579408
 20
-1491.138153377466
 30
0.0
 11
3839.896610738051
 21
-1491.138153377466
 31
0.0
1001
ACAD
1000
DSTYLE
1002
{
1070
    40
1040
4.0
1002
}
  0
LINE
  5
1CBE1
330
18
100
AcDbEntity
  8
1DIM
100
AcDbLine
 10
3808.674837362935
 20
-1457.138153377467
 30
0.0
 11
3839.896610738051
 21
-1457.138153377467
 31
0.0
1001
ACAD
1000
DSTYLE
1002
{
1070
    40
1040
4.0
1002
}
  0
LINE
  5
1CBE2
330
18
100
AcDbEntity
  8
1DIM
100
AcDbLine
 10
3835.896610738051
 20
-1483.138153377466
 30
0.0
 11
3835.896610738051
 21
-1465.138153377467
 31
0.0
1001
ACAD
1000
DSTYLE
1002
{
1070
    40
1040
4.0
1002
}
  0
LINE
  5
1CBE6
330
18
100
AcDbEntity
  8
1DIM
100
AcDbLine
 10
3700.424837362935
 20
-2197.716704334255
 30
0.0
 11
3700.424837362935
 21
-2246.313000352962
 31
0.0
1001
ACAD
1000
DSTYLE
1002
{
1070
    40
1040
4.0
1002
}
  0
LINE
  5
1CBE7
330
18
100
AcDbEntity
  8
1DIM
100
AcDbLine
 10
3780.424837362933
 20
-2197.716704334255
 30
0.0
 11
3780.424837362933
 21
-2246.313000352962
 31
0.0
1001
ACAD
1000
DSTYLE
1002
{
1070
    40
1040
4.0
1002
}
  0
LINE
  5
1CBE8
330
18
100
AcDbEntity
  8
1DIM
100
AcDbLine
 10
3708.424837362935
 20
-2242.313000352962
 30
0.0
 11
3772.424837362933
 21
-2242.313000352962
 31
0.0
1001
ACAD
1000
DSTYLE
1002
{
1070
    40
1040
4.0
1002
}
  0
LINE
  5
1CBEC
330
18
100
AcDbEntity
  8
1DIM
100
AcDbLine
 10
3698.674837362935
 20
-1484.559602420678
 30
0.0
 11
3698.674837362935
 21
-1438.43110418068
 31
0.0
1001
ACAD
1000
DSTYLE
1002
{
1070
    40
1040
4.0
1002
}
  0
LINE
  5
1CBED
330
18
100
AcDbEntity
  8
1DIM
100
AcDbLine
 10
3782.174837362935
 20
-1484.559602420678
 30
0.0
 11
3782.174837362935
 21
-1438.43110418068
 31
0.0
1001
ACAD
1000
DSTYLE
1002
{
1070
    40
1040
4.0
1002
}
  0
LINE
  5
1CBEE
330
18
100
AcDbEntity
  8
1DIM
100
AcDbLine
 10
3706.674837362935
 20
-1442.43110418068
 30
0.0
 11
3774.174837362935
 21
-1442.43110418068
 31
0.0
1001
ACAD
1000
DSTYLE
1002
{
1070
    40
1040
4.0
1002
}
  0
LINE
  5
1CBF2
330
18
100
AcDbEntity
  8
1DIM
100
AcDbLine
 10
4190.183104794703
 20
-2191.138153377467
 30
0.0
 11
4285.67273060624
 21
-2191.138153377467
 31
0.0
1001
ACAD
1000
DSTYLE
1002
{
1070
    40
1040
4.0
1002
}
  0
LINE
  5
1CBF3
330
18
100
AcDbEntity
  8
1DIM
100
AcDbLine
 10
4190.183104794703
 20
-1791.138153377467
 30
0.0
 11
4285.67273060624
 21
-1791.138153377467
 31
0.0
1001
ACAD
1000
DSTYLE
1002
{
1070
    40
1040
4.0
1002
}
  0
LINE
  5
1CBF4
330
18
100
AcDbEntity
  8
1DIM
100
AcDbLine
 10
4281.67273060624
 20
-2183.138153377467
 30
0.0
 11
4281.67273060624
 21
-1799.138153377467
 31
0.0
1001
ACAD
1000
DSTYLE
1002
{
1070
    40
1040
4.0
1002
}
  0
LINE
  5
1CBF8
330
18
100
AcDbEntity
  8
1DIM
100
AcDbLine
 10
4214.533104794706
 20
-2357.138153377467
 30
0.0
 11
4308.853930790291
 21
-2357.138153377467
 31
0.0
1001
ACAD
1000
DSTYLE
1002
{
1070
    40
1040
4.0
1002
}
  0
LINE
  5
1CBF9
330
18
100
AcDbEntity
  8
1DIM
100
AcDbLine
 10
4214.533104794704
 20
-1457.138153377467
 30
0.0
 11
4308.853930790291
 21
-1457.138153377467
 31
0.0
1001
ACAD
1000
DSTYLE
1002
{
1070
    40
1040
4.0
1002
}
  0
LINE
  5
1CBFA
330
18
100
AcDbEntity
  8
1DIM
100
AcDbLine
 10
4304.853930790291
 20
-2349.138153377467
 30
0.0
 11
4304.853930790291
 21
-1465.138153377467
 31
0.0
1001
ACAD
1000
DSTYLE
1002
{
1070
    40
1040
4.0
1002
}
  0
LINE
  5
1CBFE
330
18
100
AcDbEntity
  8
1DIM
100
AcDbLine
 10
4078.033104794706
 20
-1457.138153377467
 30
0.0
 11
4078.033104794706
 21
-1424.415406242189
 31
0.0
1001
ACAD
1000
DSTYLE
1002
{
1070
    40
1040
4.0
1002
}
  0
LINE
  5
1CBFF
330
18
100
AcDbEntity
  8
1DIM
100
AcDbLine
 10
4214.533104794706
 20
-1457.138153377467
 30
0.0
 11
4214.533104794706
 21
-1424.415406242189
 31
0.0
1001
ACAD
1000
DSTYLE
1002
{
1070
    40
1040
4.0
1002
}
  0
LINE
  5
1CC00
330
18
100
AcDbEntity
  8
1DIM
100
AcDbLine
 10
4086.033104794706
 20
-1428.415406242189
 30
0.0
 11
4206.533104794706
 21
-1428.415406242189
 31
0.0
1001
ACAD
1000
DSTYLE
1002
{
1070
    40
1040
4.0
1002
}
  0
LINE
  5
1CC04
330
18
100
AcDbEntity
  8
1DIM
100
AcDbLine
 10
4151.283104792838
 20
-1933.138153375188
 30
0.0
 11
4241.427584255949
 21
-1933.138153375188
 31
0.0
1001
ACAD
1000
DSTYLE
1002
{
1070
    40
1040
4.0
1002
}
  0
LINE
  5
1CC05
330
18
100
AcDbEntity
  8
1DIM
100
AcDbLine
 10
4190.183104794703
 20
-1791.138153377467
 30
0.0
 11
4241.427584255949
 21
-1791.138153377467
 31
0.0
1001
ACAD
1000
DSTYLE
1002
{
1070
    40
1040
4.0
1002
}
  0
LINE
  5
1CC06
330
18
100
AcDbEntity
  8
1DIM
100
AcDbLine
 10
4237.427584255949
 20
-1925.138153375188
 30
0.0
 11
4237.427584255949
 21
-1799.138153377467
 31
0.0
1001
ACAD
1000
DSTYLE
1002
{
1070
    40
1040
4.0
1002
}
  0
LINE
  5
1CC0A
330
18
100
AcDbEntity
  8
0
  6
BYBLOCK
100
AcDbLine
 10
4235.283990735949
 20
-1941.138153375188
 30
0.0
 11
4237.427584255949
 21
-1933.138153375188
 31
0.0
  0
LINE
  5
1CC0B
330
18
100
AcDbEntity
  8
0
  6
BYBLOCK
100
AcDbLine
 10
4237.427584255949
 20
-1933.138153375188
 30
0.0
 11
4239.571177775949
 21
-1941.138153375188
 31
0.0
  0
LINE
  5
1CC0C
330
18
100
AcDbEntity
  8
0
  6
BYBLOCK
100
AcDbLine
 10
4237.427584255949
 20
-1933.138153375188
 30
0.0
 11
4237.427584255949
 21
-1941.138153375188
 31
0.0
  0
TEXT
  5
1CC0D
330
18
100
AcDbEntity
  8
1DIM
  6
CONTINUOUS
100
AcDbText
 10
4234.987223296435
 20
-2240.225615104658
 30
0.0
 40
14.0
  1
逃げ穴中心　床面より1350（推奨位置）
 50
90.0
100
AcDbText
  0
LINE
  5
1CC0E
330
18
100
AcDbEntity
  8
1DIM
100
AcDbLine
 10
4190.183104794703
 20
-1791.138153377467
 30
0.0
 11
4285.67273060624
 21
-1791.138153377467
 31
0.0
1001
ACAD
1000
DSTYLE
1002
{
1070
    40
1040
4.0
1002
}
  0
LINE
  5
1CC0F
330
18
100
AcDbEntity
  8
1DIM
100
AcDbLine
 10
4190.183104794703
 20
-1491.138153377465
 30
0.0
 11
4285.67273060624
 21
-1491.138153377465
 31
0.0
1001
ACAD
1000
DSTYLE
1002
{
1070
    40
1040
4.0
1002
}
  0
LINE
  5
1CC10
330
18
100
AcDbEntity
  8
1DIM
100
AcDbLine
 10
4281.67273060624
 20
-1783.138153377467
 30
0.0
 11
4281.67273060624
 21
-1499.138153377465
 31
0.0
1001
ACAD
1000
DSTYLE
1002
{
1070
    40
1040
4.0
1002
}
  0
LINE
  5
1CC14
330
18
100
AcDbEntity
  8
1DIM
100
AcDbLine
 10
4190.183104794703
 20
-1491.138153377465
 30
0.0
 11
4285.67273060624
 21
-1491.138153377465
 31
0.0
1001
ACAD
1000
DSTYLE
1002
{
1070
    40
1040
4.0
1002
}
  0
LINE
  5
1CC15
330
18
100
AcDbEntity
  8
1DIM
100
AcDbLine
 10
4214.533104794706
 20
-1457.138153377467
 30
0.0
 11
4285.67273060624
 21
-1457.138153377467
 31
0.0
1001
ACAD
1000
DSTYLE
1002
{
1070
    40
1040
4.0
1002
}
  0
LINE
  5
1CC16
330
18
100
AcDbEntity
  8
1DIM
100
AcDbLine
 10
4281.67273060624
 20
-1483.138153377465
 30
0.0
 11
4281.67273060624
 21
-1465.138153377467
 31
0.0
1001
ACAD
1000
DSTYLE
1002
{
1070
    40
1040
4.0
1002
}
  0
LINE
  5
1CC1A
330
18
100
AcDbEntity
  8
1DIM
100
AcDbLine
 10
4104.533104794705
 20
-1484.559602420678
 30
0.0
 11
4104.533104794705
 21
-1447.558126457242
 31
0.0
1001
ACAD
1000
DSTYLE
1002
{
1070
    40
1040
4.0
1002
}
  0
LINE
  5
1CC1B
330
18
100
AcDbEntity
  8
1DIM
100
AcDbLine
 10
4188.033104794705
 20
-1484.559602420678
 30
0.0
 11
4188.033104794705
 21
-1447.558126457242
 31
0.0
1001
ACAD
1000
DSTYLE
1002
{
1070
    40
1040
4.0
1002
}
  0
LINE
  5
1CC1C
330
18
100
AcDbEntity
  8
1DIM
100
AcDbLine
 10
4112.533104794705
 20
-1451.558126457242
 30
0.0
 11
4180.033104794705
 21
-1451.558126457242
 31
0.0
1001
ACAD
1000
DSTYLE
1002
{
1070
    40
1040
4.0
1002
}
  0
TEXT
  5
1CC20
330
18
100
AcDbEntity
  8
1DIM
  6
CONTINUOUS
100
AcDbText
 10
3624.822901487808
 20
-2249.51033732688
 30
0.0
 40
14.0
  1
JIS4個用スイッチボックス（カバー無し）
 50
90.0
100
AcDbText
1001
ACADANNOTATIVE
1000
AnnotativeData
1002
{
1070
     1
1070
     0
1002
}
  0
TEXT
  5
1CC21
330
18
100
AcDbEntity
  8
1DIM
  6
CONTINUOUS
100
AcDbText
 10
3648.165957043364
 20
-2189.592281771325
 30
0.0
 40
14.0
  1
床面より1350（推奨位置）
 50
90.0
100
AcDbText
1001
ACADANNOTATIVE
1000
AnnotativeData
1002
{
1070
     1
1070
     0
1002
}
  0
LINE
  5
1CC22
330
18
100
AcDbEntity
  8
1DIM
100
AcDbLine
 10
4106.283104794705
 20
-1784.559602420679
 30
0.0
 11
4106.283104794705
 21
-1747.617003309403
 31
0.0
1001
ACAD
1000
DSTYLE
1002
{
1070
    40
1040
4.0
1002
}
  0
LINE
  5
1CC23
330
18
100
AcDbEntity
  8
1DIM
100
AcDbLine
 10
4186.283104794703
 20
-1784.559602420679
 30
0.0
 11
4186.283104794703
 21
-1747.617003309403
 31
0.0
1001
ACAD
1000
DSTYLE
1002
{
1070
    40
1040
4.0
1002
}
  0
LINE
  5
1CC24
330
18
100
AcDbEntity
  8
1DIM
100
AcDbLine
 10
4114.283104794705
 20
-1751.617003309403
 30
0.0
 11
4178.283104794703
 21
-1751.617003309403
 31
0.0
1001
ACAD
1000
DSTYLE
1002
{
1070
    40
1040
4.0
1002
}
  0
LINE
  5
1CC28
330
18
100
AcDbEntity
  8
1DIM
100
AcDbLine
 10
4096.283104794705
 20
-2032.138153378607
 30
0.0
 11
4055.368784436243
 21
-2032.138153378607
 31
0.0
1001
ACAD
1000
DSTYLE
1002
{
1070
    40
1040
4.0
1002
}
  0
LINE
  5
1CC29
330
18
100
AcDbEntity
  8
1DIM
100
AcDbLine
 10
4096.283104794706
 20
-1834.138153378607
 30
0.0
 11
4055.368784436243
 21
-1834.138153378607
 31
0.0
1001
ACAD
1000
DSTYLE
1002
{
1070
    40
1040
4.0
1002
}
  0
LINE
  5
1CC2A
330
18
100
AcDbEntity
  8
1DIM
100
AcDbLine
 10
4059.368784436243
 20
-2024.138153378607
 30
0.0
 11
4059.368784436243
 21
-1842.138153378607
 31
0.0
1001
ACAD
1000
DSTYLE
1002
{
1070
    40
1040
4.0
1002
}
  0
LINE
  5
1CC2E
330
18
100
AcDbEntity
  8
1DIM
100
AcDbLine
 10
4091.283104794706
 20
-1839.138153378607
 30
0.0
 11
4091.283104794706
 21
-1817.03380855828
 31
0.0
1001
ACAD
1000
DSTYLE
1002
{
1070
    40
1040
4.0
1002
}
  0
LINE
  5
1CC2F
330
18
100
AcDbEntity
  8
1DIM
100
AcDbLine
 10
4201.283104794705
 20
-1839.138153378607
 30
0.0
 11
4201.283104794705
 21
-1817.03380855828
 31
0.0
1001
ACAD
1000
DSTYLE
1002
{
1070
    40
1040
4.0
1002
}
  0
LINE
  5
1CC30
330
18
100
AcDbEntity
  8
1DIM
100
AcDbLine
 10
4099.283104794706
 20
-1821.03380855828
 30
0.0
 11
4193.283104794705
 21
-1821.03380855828
 31
0.0
1001
ACAD
1000
DSTYLE
1002
{
1070
    40
1040
4.0
1002
}
  0
LINE
  5
1CC34
330
18
100
AcDbEntity
  8
1DIM
100
AcDbLine
 10
4084.910571447559
 20
-1832.840099292776
 30
0.0
 11
4039.80724872442
 21
-1807.862096829298
 31
0.0
1001
ACAD_DSTYLE_DIMRADIAL_EXTE
1070
   387
1070
     1
1070
   388
1040
1.570796326794897
1070
   390
1040
3.141592653589793
1001
ACAD
1000
DSTYLE
1002
{
1070
    40
1040
4.0
1002
}
  0
LINE
  5
1CC37
330
18
100
AcDbEntity
  8
0
  6
BYBLOCK
100
AcDbLine
 10
3935.410611085057
 20
-1432.170807441692
 30
0.0
 11
3943.410611085057
 21
-1434.314400961692
 31
0.0
  0
LINE
  5
1CC38
330
18
100
AcDbEntity
  8
0
  6
BYBLOCK
100
AcDbLine
 10
3943.410611085057
 20
-1434.314400961692
 30
0.0
 11
3935.410611085057
 21
-1436.457994481692
 31
0.0
  0
LINE
  5
1CC39
330
18
100
AcDbEntity
  8
0
  6
BYBLOCK
100
AcDbLine
 10
3943.410611085057
 20
-1434.314400961692
 30
0.0
 11
3935.410611085057
 21
-1434.314400961692
 31
0.0
  0
LINE
  5
1CC3A
330
18
100
AcDbEntity
  8
0
  6
BYBLOCK
100
AcDbLine
 10
3969.410611085057
 20
-1436.457994481692
 30
0.0
 11
3961.410611085057
 21
-1434.314400961692
 31
0.0
  0
LINE
  5
1CC3B
330
18
100
AcDbEntity
  8
0
  6
BYBLOCK
100
AcDbLine
 10
3961.410611085057
 20
-1434.314400961692
 30
0.0
 11
3969.410611085057
 21
-1432.170807441692
 31
0.0
  0
LINE
  5
1CC3C
330
18
100
AcDbEntity
  8
0
  6
BYBLOCK
100
AcDbLine
 10
3961.410611085057
 20
-1434.314400961692
 30
0.0
 11
3969.410611085057
 21
-1434.314400961692
 31
0.0
  0
TEXT
  5
1CC3D
330
18
100
AcDbEntity
  8
1DIM
  6
CONTINUOUS
100
AcDbText
 10
3981.210611085057
 20
-1431.514400961692
 30
0.0
 40
14.0
  1
18
100
AcDbText
1001
ACAD
1000
DSTYLE
1002
{
1070
    40
1040
4.0
1002
}
  0
LINE
  5
1CC3E
330
18
100
AcDbEntity
  8
0
  6
BYBLOCK
100
AcDbLine
 10
3908.410611085056
 20
-1413.073620184106
 30
0.0
 11
3900.410611085056
 21
-1410.930026664106
 31
0.0
  0
LINE
  5
1CC3F
330
18
100
AcDbEntity
  8
0
  6
BYBLOCK
100
AcDbLine
 10
3900.410611085056
 20
-1410.930026664106
 30
0.0
 11
3908.410611085056
 21
-1408.786433144106
 31
0.0
  0
LINE
  5
1CC40
330
18
100
AcDbEntity
  8
0
  6
BYBLOCK
100
AcDbLine
 10
3900.410611085056
 20
-1410.930026664106
 30
0.0
 11
3908.410611085056
 21
-1410.930026664106
 31
0.0
  0
LINE
  5
1CC41
330
18
100
AcDbEntity
  8
0
  6
BYBLOCK
100
AcDbLine
 10
3953.410611085057
 20
-1408.786433144106
 30
0.0
 11
3961.410611085057
 21
-1410.930026664106
 31
0.0
  0
LINE
  5
1CC42
330
18
100
AcDbEntity
  8
0
  6
BYBLOCK
100
AcDbLine
 10
3961.410611085057
 20
-1410.930026664106
 30
0.0
 11
3953.410611085057
 21
-1413.073620184106
 31
0.0
  0
LINE
  5
1CC43
330
18
100
AcDbEntity
  8
0
  6
BYBLOCK
100
AcDbLine
 10
3961.410611085057
 20
-1410.930026664106
 30
0.0
 11
3953.410611085057
 21
-1410.930026664106
 31
0.0
  0
TEXT
  5
1CC44
330
18
100
AcDbEntity
  8
1DIM
  6
CONTINUOUS
100
AcDbText
 10
3921.528666640612
 20
-1408.130026664106
 30
0.0
 40
14.0
  1
61
100
AcDbText
1001
ACAD
1000
DSTYLE
1002
{
1070
    40
1040
4.0
1002
}
  0
LINE
  5
1CC45
330
18
100
AcDbEntity
  8
0
  6
BYBLOCK
100
AcDbLine
 10
3656.318430882935
 20
-1925.138153375188
 30
0.0
 11
3654.174837362934
 21
-1933.138153375188
 31
0.0
  0
LINE
  5
1CC46
330
18
100
AcDbEntity
  8
0
  6
BYBLOCK
100
AcDbLine
 10
3654.174837362934
 20
-1933.138153375188
 30
0.0
 11
3652.031243842934
 21
-1925.138153375188
 31
0.0
  0
LINE
  5
1CC47
330
18
100
AcDbEntity
  8
0
  6
BYBLOCK
100
AcDbLine
 10
3654.174837362934
 20
-1933.138153375188
 30
0.0
 11
3654.174837362934
 21
-1925.138153375188
 31
0.0
  0
LINE
  5
1CC48
330
18
100
AcDbEntity
  8
0
  6
BYBLOCK
100
AcDbLine
 10
3652.031243842934
 20
-1799.138153377467
 30
0.0
 11
3654.174837362934
 21
-1791.138153377467
 31
0.0
  0
LINE
  5
1CC49
330
18
100
AcDbEntity
  8
0
  6
BYBLOCK
100
AcDbLine
 10
3654.174837362934
 20
-1791.138153377467
 30
0.0
 11
3656.318430882935
 21
-1799.138153377467
 31
0.0
  0
LINE
  5
1CC4A
330
18
100
AcDbEntity
  8
0
  6
BYBLOCK
100
AcDbLine
 10
3654.174837362934
 20
-1791.138153377467
 30
0.0
 11
3654.174837362934
 21
-1799.138153377467
 31
0.0
  0
TEXT
  5
1CC4B
330
18
100
AcDbEntity
  8
1DIM
  6
CONTINUOUS
100
AcDbText
 10
3651.374837362935
 20
-1878.471486709661
 30
0.0
 40
14.0
  1
142
 50
90.0
100
AcDbText
1001
ACAD
1000
DSTYLE
1002
{
1070
    40
1040
4.0
1002
}
  0
LINE
  5
1CC4C
330
18
100
AcDbEntity
  8
0
  6
BYBLOCK
100
AcDbLine
 10
3838.040204258051
 20
-2183.138153377467
 30
0.0
 11
3835.896610738051
 21
-2191.138153377467
 31
0.0
  0
LINE
  5
1CC4D
330
18
100
AcDbEntity
  8
0
  6
BYBLOCK
100
AcDbLine
 10
3835.896610738051
 20
-2191.138153377467
 30
0.0
 11
3833.753017218051
 21
-2183.138153377467
 31
0.0
  0
LINE
  5
1CC4E
330
18
100
AcDbEntity
  8
0
  6
BYBLOCK
100
AcDbLine
 10
3835.896610738051
 20
-2191.138153377467
 30
0.0
 11
3835.896610738051
 21
-2183.138153377467
 31
0.0
  0
LINE
  5
1CC4F
330
18
100
AcDbEntity
  8
0
  6
BYBLOCK
100
AcDbLine
 10
3833.753017218051
 20
-1799.138153377467
 30
0.0
 11
3835.896610738051
 21
-1791.138153377467
 31
0.0
  0
LINE
  5
1CC50
330
18
100
AcDbEntity
  8
0
  6
BYBLOCK
100
AcDbLine
 10
3835.896610738051
 20
-1791.138153377467
 30
0.0
 11
3838.040204258051
 21
-1799.138153377467
 31
0.0
  0
LINE
  5
1CC51
330
18
100
AcDbEntity
  8
0
  6
BYBLOCK
100
AcDbLine
 10
3835.896610738051
 20
-1791.138153377467
 30
0.0
 11
3835.896610738051
 21
-1799.138153377467
 31
0.0
  0
TEXT
  5
1CC52
330
18
100
AcDbEntity
  8
1DIM
  6
CONTINUOUS
100
AcDbText
 10
3833.096610738051
 20
-2021.763153377467
 30
0.0
 40
14.0
  1
P=400
 50
90.0
100
AcDbText
1001
ACAD
1000
DSTYLE
1002
{
1070
    40
1040
4.0
1002
}
  0
LINE
  5
1CC53
330
18
100
AcDbEntity
  8
0
  6
BYBLOCK
100
AcDbLine
 10
3867.148812047999
 20
-2349.138153377467
 30
0.0
 11
3865.005218527999
 21
-2357.138153377467
 31
0.0
  0
LINE
  5
1CC54
330
18
100
AcDbEntity
  8
0
  6
BYBLOCK
100
AcDbLine
 10
3865.005218527999
 20
-2357.138153377467
 30
0.0
 11
3862.861625007999
 21
-2349.138153377467
 31
0.0
  0
LINE
  5
1CC55
330
18
100
AcDbEntity
  8
0
  6
BYBLOCK
100
AcDbLine
 10
3865.005218527999
 20
-2357.138153377467
 30
0.0
 11
3865.005218527999
 21
-2349.138153377467
 31
0.0
  0
LINE
  5
1CC56
330
18
100
AcDbEntity
  8
0
  6
BYBLOCK
100
AcDbLine
 10
3862.861625007999
 20
-1465.138153377467
 30
0.0
 11
3865.005218527999
 21
-1457.138153377467
 31
0.0
  0
LINE
  5
1CC57
330
18
100
AcDbEntity
  8
0
  6
BYBLOCK
100
AcDbLine
 10
3865.005218527999
 20
-1457.138153377467
 30
0.0
 11
3867.148812047999
 21
-1465.138153377467
 31
0.0
  0
LINE
  5
1CC58
330
18
100
AcDbEntity
  8
0
  6
BYBLOCK
100
AcDbLine
 10
3865.005218527999
 20
-1457.138153377467
 30
0.0
 11
3865.005218527999
 21
-1465.138153377467
 31
0.0
  0
TEXT
  5
1CC59
330
18
100
AcDbEntity
  8
1DIM
  6
CONTINUOUS
100
AcDbText
 10
3862.205218527999
 20
-1923.769634858948
 30
0.0
 40
14.0
  1
900
 50
90.0
100
AcDbText
1001
ACAD
1000
DSTYLE
1002
{
1070
    40
1040
4.0
1002
}
  0
LINE
  5
1CC5A
330
18
100
AcDbEntity
  8
0
  6
BYBLOCK
100
AcDbLine
 10
3838.040204258051
 20
-1783.138153377467
 30
0.0
 11
3835.896610738051
 21
-1791.138153377467
 31
0.0
  0
LINE
  5
1CC5B
330
18
100
AcDbEntity
  8
0
  6
BYBLOCK
100
AcDbLine
 10
3835.896610738051
 20
-1791.138153377467
 30
0.0
 11
3833.753017218051
 21
-1783.138153377467
 31
0.0
  0
LINE
  5
1CC5C
330
18
100
AcDbEntity
  8
0
  6
BYBLOCK
100
AcDbLine
 10
3835.896610738051
 20
-1791.138153377467
 30
0.0
 11
3835.896610738051
 21
-1783.138153377467
 31
0.0
  0
LINE
  5
1CC5D
330
18
100
AcDbEntity
  8
0
  6
BYBLOCK
100
AcDbLine
 10
3833.753017218051
 20
-1499.138153377466
 30
0.0
 11
3835.896610738051
 21
-1491.138153377466
 31
0.0
  0
LINE
  5
1CC5E
330
18
100
AcDbEntity
  8
0
  6
BYBLOCK
100
AcDbLine
 10
3835.896610738051
 20
-1491.138153377466
 30
0.0
 11
3838.040204258051
 21
-1499.138153377466
 31
0.0
  0
LINE
  5
1CC5F
330
18
100
AcDbEntity
  8
0
  6
BYBLOCK
100
AcDbLine
 10
3835.896610738051
 20
-1491.138153377466
 30
0.0
 11
3835.896610738051
 21
-1499.138153377466
 31
0.0
  0
TEXT
  5
1CC60
330
18
100
AcDbEntity
  8
1DIM
  6
CONTINUOUS
100
AcDbText
 10
3833.096610738052
 20
-1671.763153377466
 30
0.0
 40
14.0
  1
P=300
 50
90.0
100
AcDbText
1001
ACAD
1000
DSTYLE
1002
{
1070
    40
1040
4.0
1002
}
  0
LINE
  5
1CC61
330
18
100
AcDbEntity
  8
0
  6
BYBLOCK
100
AcDbLine
 10
3680.174837362935
 20
-1416.612485793764
 30
0.0
 11
3672.174837362935
 21
-1414.468892273764
 31
0.0
  0
LINE
  5
1CC62
330
18
100
AcDbEntity
  8
0
  6
BYBLOCK
100
AcDbLine
 10
3672.174837362935
 20
-1414.468892273764
 30
0.0
 11
3680.174837362935
 21
-1412.325298753764
 31
0.0
  0
LINE
  5
1CC63
330
18
100
AcDbEntity
  8
0
  6
BYBLOCK
100
AcDbLine
 10
3672.174837362935
 20
-1414.468892273764
 30
0.0
 11
3680.174837362935
 21
-1414.468892273764
 31
0.0
  0
LINE
  5
1CC64
330
18
100
AcDbEntity
  8
0
  6
BYBLOCK
100
AcDbLine
 10
3800.674837362935
 20
-1412.325298753764
 30
0.0
 11
3808.674837362935
 21
-1414.468892273764
 31
0.0
  0
LINE
  5
1CC65
330
18
100
AcDbEntity
  8
0
  6
BYBLOCK
100
AcDbLine
 10
3808.674837362935
 20
-1414.468892273764
 30
0.0
 11
3800.674837362935
 21
-1416.612485793764
 31
0.0
  0
LINE
  5
1CC66
330
18
100
AcDbEntity
  8
0
  6
BYBLOCK
100
AcDbLine
 10
3808.674837362935
 20
-1414.468892273764
 30
0.0
 11
3800.674837362935
 21
-1414.468892273764
 31
0.0
  0
TEXT
  5
1CC67
330
18
100
AcDbEntity
  8
1DIM
  6
CONTINUOUS
100
AcDbText
 10
3714.709559585157
 20
-1411.668892273764
 30
0.0
 40
14.0
  1
136.5
100
AcDbText
1001
ACAD
1000
DSTYLE
1002
{
1070
    40
1040
4.0
1002
}
  0
LINE
  5
1CC68
330
18
100
AcDbEntity
  8
0
  6
BYBLOCK
100
AcDbLine
 10
3708.424837362935
 20
-1753.760596829403
 30
0.0
 11
3700.424837362935
 21
-1751.617003309403
 31
0.0
  0
LINE
  5
1CC69
330
18
100
AcDbEntity
  8
0
  6
BYBLOCK
100
AcDbLine
 10
3700.424837362935
 20
-1751.617003309403
 30
0.0
 11
3708.424837362935
 21
-1749.473409789403
 31
0.0
  0
LINE
  5
1CC6A
330
18
100
AcDbEntity
  8
0
  6
BYBLOCK
100
AcDbLine
 10
3700.424837362935
 20
-1751.617003309403
 30
0.0
 11
3708.424837362935
 21
-1751.617003309403
 31
0.0
  0
LINE
  5
1CC6B
330
18
100
AcDbEntity
  8
0
  6
BYBLOCK
100
AcDbLine
 10
3772.424837362933
 20
-1749.473409789403
 30
0.0
 11
3780.424837362933
 21
-1751.617003309403
 31
0.0
  0
LINE
  5
1CC6C
330
18
100
AcDbEntity
  8
0
  6
BYBLOCK
100
AcDbLine
 10
3780.424837362933
 20
-1751.617003309403
 30
0.0
 11
3772.424837362933
 21
-1753.760596829403
 31
0.0
  0
LINE
  5
1CC6D
330
18
100
AcDbEntity
  8
0
  6
BYBLOCK
100
AcDbLine
 10
3780.424837362933
 20
-1751.617003309403
 30
0.0
 11
3772.424837362933
 21
-1751.617003309403
 31
0.0
  0
TEXT
  5
1CC6E
330
18
100
AcDbEntity
  8
1DIM
  6
CONTINUOUS
100
AcDbText
 10
3715.633170696268
 20
-1748.817003309403
 30
0.0
 40
14.0
  1
P=80
100
AcDbText
1001
ACAD
1000
DSTYLE
1002
{
1070
    40
1040
4.0
1002
}
  0
LINE
  5
1CC6F
330
18
100
AcDbEntity
  8
0
  6
BYBLOCK
100
AcDbLine
 10
3838.040204258051
 20
-1483.138153377466
 30
0.0
 11
3835.896610738051
 21
-1491.138153377466
 31
0.0
  0
LINE
  5
1CC70
330
18
100
AcDbEntity
  8
0
  6
BYBLOCK
100
AcDbLine
 10
3835.896610738051
 20
-1491.138153377466
 30
0.0
 11
3833.753017218051
 21
-1483.138153377466
 31
0.0
  0
LINE
  5
1CC71
330
18
100
AcDbEntity
  8
0
  6
BYBLOCK
100
AcDbLine
 10
3835.896610738051
 20
-1491.138153377466
 30
0.0
 11
3835.896610738051
 21
-1483.138153377466
 31
0.0
  0
LINE
  5
1CC72
330
18
100
AcDbEntity
  8
0
  6
BYBLOCK
100
AcDbLine
 10
3833.753017218051
 20
-1465.138153377467
 30
0.0
 11
3835.896610738051
 21
-1457.138153377467
 31
0.0
  0
LINE
  5
1CC73
330
18
100
AcDbEntity
  8
0
  6
BYBLOCK
100
AcDbLine
 10
3835.896610738051
 20
-1457.138153377467
 30
0.0
 11
3838.040204258051
 21
-1465.138153377467
 31
0.0
  0
LINE
  5
1CC74
330
18
100
AcDbEntity
  8
0
  6
BYBLOCK
100
AcDbLine
 10
3835.896610738051
 20
-1457.138153377467
 30
0.0
 11
3835.896610738051
 21
-1465.138153377467
 31
0.0
  0
TEXT
  5
1CC75
330
18
100
AcDbEntity
  8
1DIM
  6
CONTINUOUS
100
AcDbText
 10
3833.096610738052
 20
-1485.804820044133
 30
0.0
 40
14.0
  1
34
 50
90.0
100
AcDbText
1001
ACAD
1000
DSTYLE
1002
{
1070
    40
1040
4.0
1002
}
  0
LINE
  5
1CC76
330
18
100
AcDbEntity
  8
0
  6
BYBLOCK
100
AcDbLine
 10
3708.424837362935
 20
-2244.456593872962
 30
0.0
 11
3700.424837362935
 21
-2242.313000352962
 31
0.0
  0
LINE
  5
1CC77
330
18
100
AcDbEntity
  8
0
  6
BYBLOCK
100
AcDbLine
 10
3700.424837362935
 20
-2242.313000352962
 30
0.0
 11
3708.424837362935
 21
-2240.169406832962
 31
0.0
  0
LINE
  5
1CC78
330
18
100
AcDbEntity
  8
0
  6
BYBLOCK
100
AcDbLine
 10
3700.424837362935
 20
-2242.313000352962
 30
0.0
 11
3708.424837362935
 21
-2242.313000352962
 31
0.0
  0
LINE
  5
1CC79
330
18
100
AcDbEntity
  8
0
  6
BYBLOCK
100
AcDbLine
 10
3772.424837362933
 20
-2240.169406832962
 30
0.0
 11
3780.424837362933
 21
-2242.313000352962
 31
0.0
  0
LINE
  5
1CC7A
330
18
100
AcDbEntity
  8
0
  6
BYBLOCK
100
AcDbLine
 10
3780.424837362933
 20
-2242.313000352962
 30
0.0
 11
3772.424837362933
 21
-2244.456593872962
 31
0.0
  0
LINE
  5
1CC7B
330
18
100
AcDbEntity
  8
0
  6
BYBLOCK
100
AcDbLine
 10
3780.424837362933
 20
-2242.313000352962
 30
0.0
 11
3772.424837362933
 21
-2242.313000352962
 31
0.0
  0
TEXT
  5
1CC7C
330
18
100
AcDbEntity
  8
1DIM
  6
CONTINUOUS
100
AcDbText
 10
3715.633170696268
 20
-2239.513000352962
 30
0.0
 40
14.0
  1
P=80
100
AcDbText
1001
ACAD
1000
DSTYLE
1002
{
1070
    40
1040
4.0
1002
}
  0
LINE
  5
1CC7D
330
18
100
AcDbEntity
  8
0
  6
BYBLOCK
100
AcDbLine
 10
3706.674837362935
 20
-1444.57469770068
 30
0.0
 11
3698.674837362935
 21
-1442.43110418068
 31
0.0
  0
LINE
  5
1CC7E
330
18
100
AcDbEntity
  8
0
  6
BYBLOCK
100
AcDbLine
 10
3698.674837362935
 20
-1442.43110418068
 30
0.0
 11
3706.674837362935
 21
-1440.28751066068
 31
0.0
  0
LINE
  5
1CC7F
330
18
100
AcDbEntity
  8
0
  6
BYBLOCK
100
AcDbLine
 10
3698.674837362935
 20
-1442.43110418068
 30
0.0
 11
3706.674837362935
 21
-1442.43110418068
 31
0.0
  0
LINE
  5
1CC80
330
18
100
AcDbEntity
  8
0
  6
BYBLOCK
100
AcDbLine
 10
3774.174837362935
 20
-1440.28751066068
 30
0.0
 11
3782.174837362935
 21
-1442.43110418068
 31
0.0
  0
LINE
  5
1CC81
330
18
100
AcDbEntity
  8
0
  6
BYBLOCK
100
AcDbLine
 10
3782.174837362935
 20
-1442.43110418068
 30
0.0
 11
3774.174837362935
 21
-1444.57469770068
 31
0.0
  0
LINE
  5
1CC82
330
18
100
AcDbEntity
  8
0
  6
BYBLOCK
100
AcDbLine
 10
3782.174837362935
 20
-1442.43110418068
 30
0.0
 11
3774.174837362935
 21
-1442.43110418068
 31
0.0
  0
TEXT
  5
1CC83
330
18
100
AcDbEntity
  8
1DIM
  6
CONTINUOUS
100
AcDbText
 10
3705.424837362935
 20
-1439.63110418068
 30
0.0
 40
14.0
  1
P=83.5
100
AcDbText
1001
ACAD
1000
DSTYLE
1002
{
1070
    40
1040
4.0
1002
}
  0
LINE
  5
1CC84
330
18
100
AcDbEntity
  8
0
  6
BYBLOCK
100
AcDbLine
 10
4283.81632412624
 20
-2183.138153377467
 30
0.0
 11
4281.67273060624
 21
-2191.138153377467
 31
0.0
  0
LINE
  5
1CC85
330
18
100
AcDbEntity
  8
0
  6
BYBLOCK
100
AcDbLine
 10
4281.67273060624
 20
-2191.138153377467
 30
0.0
 11
4279.529137086241
 21
-2183.138153377467
 31
0.0
  0
LINE
  5
1CC86
330
18
100
AcDbEntity
  8
0
  6
BYBLOCK
100
AcDbLine
 10
4281.67273060624
 20
-2191.138153377467
 30
0.0
 11
4281.67273060624
 21
-2183.138153377467
 31
0.0
  0
LINE
  5
1CC87
330
18
100
AcDbEntity
  8
0
  6
BYBLOCK
100
AcDbLine
 10
4279.529137086241
 20
-1799.138153377467
 30
0.0
 11
4281.67273060624
 21
-1791.138153377467
 31
0.0
  0
LINE
  5
1CC88
330
18
100
AcDbEntity
  8
0
  6
BYBLOCK
100
AcDbLine
 10
4281.67273060624
 20
-1791.138153377467
 30
0.0
 11
4283.81632412624
 21
-1799.138153377467
 31
0.0
  0
LINE
  5
1CC89
330
18
100
AcDbEntity
  8
0
  6
BYBLOCK
100
AcDbLine
 10
4281.67273060624
 20
-1791.138153377467
 30
0.0
 11
4281.67273060624
 21
-1799.138153377467
 31
0.0
  0
TEXT
  5
1CC8A
330
18
100
AcDbEntity
  8
1DIM
  6
CONTINUOUS
100
AcDbText
 10
4278.87273060624
 20
-2021.763153377467
 30
0.0
 40
14.0
  1
P=400
 50
90.0
100
AcDbText
1001
ACAD
1000
DSTYLE
1002
{
1070
    40
1040
4.0
1002
}
  0
LINE
  5
1CC8B
330
18
100
AcDbEntity
  8
0
  6
BYBLOCK
100
AcDbLine
 10
4306.997524310291
 20
-2349.138153377467
 30
0.0
 11
4304.853930790291
 21
-2357.138153377467
 31
0.0
  0
LINE
  5
1CC8C
330
18
100
AcDbEntity
  8
0
  6
BYBLOCK
100
AcDbLine
 10
4304.853930790291
 20
-2357.138153377467
 30
0.0
 11
4302.710337270291
 21
-2349.138153377467
 31
0.0
  0
LINE
  5
1CC8D
330
18
100
AcDbEntity
  8
0
  6
BYBLOCK
100
AcDbLine
 10
4304.853930790291
 20
-2357.138153377467
 30
0.0
 11
4304.853930790291
 21
-2349.138153377467
 31
0.0
  0
LINE
  5
1CC8E
330
18
100
AcDbEntity
  8
0
  6
BYBLOCK
100
AcDbLine
 10
4302.710337270291
 20
-1465.138153377467
 30
0.0
 11
4304.853930790291
 21
-1457.138153377467
 31
0.0
  0
LINE
  5
1CC8F
330
18
100
AcDbEntity
  8
0
  6
BYBLOCK
100
AcDbLine
 10
4304.853930790291
 20
-1457.138153377467
 30
0.0
 11
4306.997524310291
 21
-1465.138153377467
 31
0.0
  0
LINE
  5
1CC90
330
18
100
AcDbEntity
  8
0
  6
BYBLOCK
100
AcDbLine
 10
4304.853930790291
 20
-1457.138153377467
 30
0.0
 11
4304.853930790291
 21
-1465.138153377467
 31
0.0
  0
TEXT
  5
1CC91
330
18
100
AcDbEntity
  8
1DIM
  6
CONTINUOUS
100
AcDbText
 10
4302.053930790291
 20
-1923.769634858949
 30
0.0
 40
14.0
  1
900
 50
90.0
100
AcDbText
1001
ACAD
1000
DSTYLE
1002
{
1070
    40
1040
4.0
1002
}
  0
LINE
  5
1CC92
330
18
100
AcDbEntity
  8
0
  6
BYBLOCK
100
AcDbLine
 10
4086.033104794706
 20
-1430.558999762189
 30
0.0
 11
4078.033104794706
 21
-1428.415406242189
 31
0.0
  0
LINE
  5
1CC93
330
18
100
AcDbEntity
  8
0
  6
BYBLOCK
100
AcDbLine
 10
4078.033104794706
 20
-1428.415406242189
 30
0.0
 11
4086.033104794706
 21
-1426.271812722189
 31
0.0
  0
LINE
  5
1CC94
330
18
100
AcDbEntity
  8
0
  6
BYBLOCK
100
AcDbLine
 10
4078.033104794706
 20
-1428.415406242189
 30
0.0
 11
4086.033104794706
 21
-1428.415406242189
 31
0.0
  0
LINE
  5
1CC95
330
18
100
AcDbEntity
  8
0
  6
BYBLOCK
100
AcDbLine
 10
4206.533104794706
 20
-1426.271812722189
 30
0.0
 11
4214.533104794706
 21
-1428.415406242189
 31
0.0
  0
LINE
  5
1CC96
330
18
100
AcDbEntity
  8
0
  6
BYBLOCK
100
AcDbLine
 10
4214.533104794706
 20
-1428.415406242189
 30
0.0
 11
4206.533104794706
 21
-1430.558999762189
 31
0.0
  0
LINE
  5
1CC97
330
18
100
AcDbEntity
  8
0
  6
BYBLOCK
100
AcDbLine
 10
4214.533104794706
 20
-1428.415406242189
 30
0.0
 11
4206.533104794706
 21
-1428.415406242189
 31
0.0
  0
TEXT
  5
1CC98
330
18
100
AcDbEntity
  8
1DIM
  6
CONTINUOUS
100
AcDbText
 10
4120.567827016928
 20
-1425.615406242189
 30
0.0
 40
14.0
  1
136.5
100
AcDbText
1001
ACAD
1000
DSTYLE
1002
{
1070
    40
1040
4.0
1002
}
  0
LINE
  5
1CC99
330
18
100
AcDbEntity
  8
0
  6
BYBLOCK
100
AcDbLine
 10
4239.571177775949
 20
-1925.138153375188
 30
0.0
 11
4237.427584255949
 21
-1933.138153375188
 31
0.0
  0
LINE
  5
1CC9A
330
18
100
AcDbEntity
  8
0
  6
BYBLOCK
100
AcDbLine
 10
4237.427584255949
 20
-1933.138153375188
 30
0.0
 11
4235.283990735949
 21
-1925.138153375188
 31
0.0
  0
LINE
  5
1CC9B
330
18
100
AcDbEntity
  8
0
  6
BYBLOCK
100
AcDbLine
 10
4237.427584255949
 20
-1933.138153375188
 30
0.0
 11
4237.427584255949
 21
-1925.138153375188
 31
0.0
  0
LINE
  5
1CC9C
330
18
100
AcDbEntity
  8
0
  6
BYBLOCK
100
AcDbLine
 10
4235.283990735949
 20
-1799.138153377467
 30
0.0
 11
4237.427584255949
 21
-1791.138153377467
 31
0.0
  0
LINE
  5
1CC9D
330
18
100
AcDbEntity
  8
0
  6
BYBLOCK
100
AcDbLine
 10
4237.427584255949
 20
-1791.138153377467
 30
0.0
 11
4239.571177775949
 21
-1799.138153377467
 31
0.0
  0
LINE
  5
1CC9E
330
18
100
AcDbEntity
  8
0
  6
BYBLOCK
100
AcDbLine
 10
4237.427584255949
 20
-1791.138153377467
 30
0.0
 11
4237.427584255949
 21
-1799.138153377467
 31
0.0
  0
TEXT
  5
1CC9F
330
18
100
AcDbEntity
  8
1DIM
  6
CONTINUOUS
100
AcDbText
 10
4234.627584255949
 20
-1878.471486709661
 30
0.0
 40
14.0
  1
142
 50
90.0
100
AcDbText
1001
ACAD
1000
DSTYLE
1002
{
1070
    40
1040
4.0
1002
}
  0
LINE
  5
1CCA0
330
18
100
AcDbEntity
  8
0
  6
BYBLOCK
100
AcDbLine
 10
4283.81632412624
 20
-1783.138153377467
 30
0.0
 11
4281.67273060624
 21
-1791.138153377467
 31
0.0
  0
LINE
  5
1CCA1
330
18
100
AcDbEntity
  8
0
  6
BYBLOCK
100
AcDbLine
 10
4281.67273060624
 20
-1791.138153377467
 30
0.0
 11
4279.529137086241
 21
-1783.138153377467
 31
0.0
  0
LINE
  5
1CCA2
330
18
100
AcDbEntity
  8
0
  6
BYBLOCK
100
AcDbLine
 10
4281.67273060624
 20
-1791.138153377467
 30
0.0
 11
4281.67273060624
 21
-1783.138153377467
 31
0.0
  0
LINE
  5
1CCA3
330
18
100
AcDbEntity
  8
0
  6
BYBLOCK
100
AcDbLine
 10
4279.529137086241
 20
-1499.138153377465
 30
0.0
 11
4281.67273060624
 21
-1491.138153377465
 31
0.0
  0
LINE
  5
1CCA4
330
18
100
AcDbEntity
  8
0
  6
BYBLOCK
100
AcDbLine
 10
4281.67273060624
 20
-1491.138153377465
 30
0.0
 11
4283.81632412624
 21
-1499.138153377465
 31
0.0
  0
LINE
  5
1CCA5
330
18
100
AcDbEntity
  8
0
  6
BYBLOCK
100
AcDbLine
 10
4281.67273060624
 20
-1491.138153377465
 30
0.0
 11
4281.67273060624
 21
-1499.138153377465
 31
0.0
  0
TEXT
  5
1CCA6
330
18
100
AcDbEntity
  8
1DIM
  6
CONTINUOUS
100
AcDbText
 10
4278.87273060624
 20
-1671.763153377467
 30
0.0
 40
14.0
  1
P=300
 50
90.0
100
AcDbText
1001
ACAD
1000
DSTYLE
1002
{
1070
    40
1040
4.0
1002
}
  0
LINE
  5
1CCA7
330
18
100
AcDbEntity
  8
0
  6
BYBLOCK
100
AcDbLine
 10
4283.81632412624
 20
-1483.138153377465
 30
0.0
 11
4281.67273060624
 21
-1491.138153377465
 31
0.0
  0
LINE
  5
1CCA8
330
18
100
AcDbEntity
  8
0
  6
BYBLOCK
100
AcDbLine
 10
4281.67273060624
 20
-1491.138153377465
 30
0.0
 11
4279.529137086241
 21
-1483.138153377465
 31
0.0
  0
LINE
  5
1CCA9
330
18
100
AcDbEntity
  8
0
  6
BYBLOCK
100
AcDbLine
 10
4281.67273060624
 20
-1491.138153377465
 30
0.0
 11
4281.67273060624
 21
-1483.138153377465
 31
0.0
  0
LINE
  5
1CCAA
330
18
100
AcDbEntity
  8
0
  6
BYBLOCK
100
AcDbLine
 10
4279.529137086241
 20
-1465.138153377467
 30
0.0
 11
4281.67273060624
 21
-1457.138153377467
 31
0.0
  0
LINE
  5
1CCAB
330
18
100
AcDbEntity
  8
0
  6
BYBLOCK
100
AcDbLine
 10
4281.67273060624
 20
-1457.138153377467
 30
0.0
 11
4283.81632412624
 21
-1465.138153377467
 31
0.0
  0
LINE
  5
1CCAC
330
18
100
AcDbEntity
  8
0
  6
BYBLOCK
100
AcDbLine
 10
4281.67273060624
 20
-1457.138153377467
 30
0.0
 11
4281.67273060624
 21
-1465.138153377467
 31
0.0
  0
TEXT
  5
1CCAD
330
18
100
AcDbEntity
  8
1DIM
  6
CONTINUOUS
100
AcDbText
 10
4278.87273060624
 20
-1485.804820044134
 30
0.0
 40
14.0
  1
34
 50
90.0
100
AcDbText
1001
ACAD
1000
DSTYLE
1002
{
1070
    40
1040
4.0
1002
}
  0
LINE
  5
1CCAE
330
18
100
AcDbEntity
  8
0
  6
BYBLOCK
100
AcDbLine
 10
4112.533104794705
 20
-1453.701719977242
 30
0.0
 11
4104.533104794705
 21
-1451.558126457242
 31
0.0
  0
LINE
  5
1CCAF
330
18
100
AcDbEntity
  8
0
  6
BYBLOCK
100
AcDbLine
 10
4104.533104794705
 20
-1451.558126457242
 30
0.0
 11
4112.533104794705
 21
-1449.414532937242
 31
0.0
  0
LINE
  5
1CCB0
330
18
100
AcDbEntity
  8
0
  6
BYBLOCK
100
AcDbLine
 10
4104.533104794705
 20
-1451.558126457242
 30
0.0
 11
4112.533104794705
 21
-1451.558126457242
 31
0.0
  0
LINE
  5
1CCB1
330
18
100
AcDbEntity
  8
0
  6
BYBLOCK
100
AcDbLine
 10
4180.033104794705
 20
-1449.414532937242
 30
0.0
 11
4188.033104794705
 21
-1451.558126457242
 31
0.0
  0
LINE
  5
1CCB2
330
18
100
AcDbEntity
  8
0
  6
BYBLOCK
100
AcDbLine
 10
4188.033104794705
 20
-1451.558126457242
 30
0.0
 11
4180.033104794705
 21
-1453.701719977242
 31
0.0
  0
LINE
  5
1CCB3
330
18
100
AcDbEntity
  8
0
  6
BYBLOCK
100
AcDbLine
 10
4188.033104794705
 20
-1451.558126457242
 30
0.0
 11
4180.033104794705
 21
-1451.558126457242
 31
0.0
  0
TEXT
  5
1CCB4
330
18
100
AcDbEntity
  8
1DIM
  6
CONTINUOUS
100
AcDbText
 10
4111.283104794705
 20
-1448.758126457242
 30
0.0
 40
14.0
  1
P=83.5
100
AcDbText
1001
ACAD
1000
DSTYLE
1002
{
1070
    40
1040
4.0
1002
}
  0
LINE
  5
1CCB5
330
18
100
AcDbEntity
  8
0
  6
BYBLOCK
100
AcDbLine
 10
4114.283104794705
 20
-1753.760596829403
 30
0.0
 11
4106.283104794705
 21
-1751.617003309403
 31
0.0
  0
LINE
  5
1CCB6
330
18
100
AcDbEntity
  8
0
  6
BYBLOCK
100
AcDbLine
 10
4106.283104794705
 20
-1751.617003309403
 30
0.0
 11
4114.283104794705
 21
-1749.473409789403
 31
0.0
  0
LINE
  5
1CCB7
330
18
100
AcDbEntity
  8
0
  6
BYBLOCK
100
AcDbLine
 10
4106.283104794705
 20
-1751.617003309403
 30
0.0
 11
4114.283104794705
 21
-1751.617003309403
 31
0.0
  0
LINE
  5
1CCB8
330
18
100
AcDbEntity
  8
0
  6
BYBLOCK
100
AcDbLine
 10
4178.283104794703
 20
-1749.473409789403
 30
0.0
 11
4186.283104794703
 21
-1751.617003309403
 31
0.0
  0
LINE
  5
1CCB9
330
18
100
AcDbEntity
  8
0
  6
BYBLOCK
100
AcDbLine
 10
4186.283104794703
 20
-1751.617003309403
 30
0.0
 11
4178.283104794703
 21
-1753.760596829403
 31
0.0
  0
LINE
  5
1CCBA
330
18
100
AcDbEntity
  8
0
  6
BYBLOCK
100
AcDbLine
 10
4186.283104794703
 20
-1751.617003309403
 30
0.0
 11
4178.283104794703
 21
-1751.617003309403
 31
0.0
  0
TEXT
  5
1CCBB
330
18
100
AcDbEntity
  8
1DIM
  6
CONTINUOUS
100
AcDbText
 10
4121.491438128037
 20
-1748.817003309403
 30
0.0
 40
14.0
  1
P=80
100
AcDbText
1001
ACAD
1000
DSTYLE
1002
{
1070
    40
1040
4.0
1002
}
  0
LINE
  5
1CCBC
330
18
100
AcDbEntity
  8
0
  6
BYBLOCK
100
AcDbLine
 10
4061.512377956243
 20
-2024.138153378607
 30
0.0
 11
4059.368784436243
 21
-2032.138153378607
 31
0.0
  0
LINE
  5
1CCBD
330
18
100
AcDbEntity
  8
0
  6
BYBLOCK
100
AcDbLine
 10
4059.368784436243
 20
-2032.138153378607
 30
0.0
 11
4057.225190916242
 21
-2024.138153378607
 31
0.0
  0
LINE
  5
1CCBE
330
18
100
AcDbEntity
  8
0
  6
BYBLOCK
100
AcDbLine
 10
4059.368784436243
 20
-2032.138153378607
 30
0.0
 11
4059.368784436243
 21
-2024.138153378607
 31
0.0
  0
LINE
  5
1CCBF
330
18
100
AcDbEntity
  8
0
  6
BYBLOCK
100
AcDbLine
 10
4057.225190916242
 20
-1842.138153378607
 30
0.0
 11
4059.368784436243
 21
-1834.138153378607
 31
0.0
  0
LINE
  5
1CCC0
330
18
100
AcDbEntity
  8
0
  6
BYBLOCK
100
AcDbLine
 10
4059.368784436243
 20
-1834.138153378607
 30
0.0
 11
4061.512377956243
 21
-1842.138153378607
 31
0.0
  0
LINE
  5
1CCC1
330
18
100
AcDbEntity
  8
0
  6
BYBLOCK
100
AcDbLine
 10
4059.368784436243
 20
-1834.138153378607
 30
0.0
 11
4059.368784436243
 21
-1842.138153378607
 31
0.0
  0
TEXT
  5
1CCC2
330
18
100
AcDbEntity
  8
1DIM
  6
CONTINUOUS
100
AcDbText
 10
4056.568784436242
 20
-1991.708060786014
 30
0.0
 40
14.0
  1
逃げ穴寸法198
 50
90.0
100
AcDbText
1001
ACAD
1000
DSTYLE
1002
{
1070
    40
1040
4.0
1002
}
  0
LINE
  5
1CCC3
330
18
100
AcDbEntity
  8
0
  6
BYBLOCK
100
AcDbLine
 10
4099.283104794706
 20
-1823.17740207828
 30
0.0
 11
4091.283104794706
 21
-1821.03380855828
 31
0.0
  0
LINE
  5
1CCC4
330
18
100
AcDbEntity
  8
0
  6
BYBLOCK
100
AcDbLine
 10
4091.283104794706
 20
-1821.03380855828
 30
0.0
 11
4099.283104794706
 21
-1818.89021503828
 31
0.0
  0
LINE
  5
1CCC5
330
18
100
AcDbEntity
  8
0
  6
BYBLOCK
100
AcDbLine
 10
4091.283104794706
 20
-1821.03380855828
 30
0.0
 11
4099.283104794706
 21
-1821.03380855828
 31
0.0
  0
LINE
  5
1CCC6
330
18
100
AcDbEntity
  8
0
  6
BYBLOCK
100
AcDbLine
 10
4193.283104794705
 20
-1818.89021503828
 30
0.0
 11
4201.283104794705
 21
-1821.03380855828
 31
0.0
  0
LINE
  5
1CCC7
330
18
100
AcDbEntity
  8
0
  6
BYBLOCK
100
AcDbLine
 10
4201.283104794705
 20
-1821.03380855828
 30
0.0
 11
4193.283104794705
 21
-1823.17740207828
 31
0.0
  0
LINE
  5
1CCC8
330
18
100
AcDbEntity
  8
0
  6
BYBLOCK
100
AcDbLine
 10
4201.283104794705
 20
-1821.03380855828
 30
0.0
 11
4193.283104794705
 21
-1821.03380855828
 31
0.0
  0
TEXT
  5
1CCC9
330
18
100
AcDbEntity
  8
1DIM
  6
CONTINUOUS
100
AcDbText
 10
4080.924771461371
 20
-1818.23380855828
 30
0.0
 40
14.0
  1
逃げ穴寸法110
100
AcDbText
1001
ACAD
1000
DSTYLE
1002
{
1070
    40
1040
4.0
1002
}
  0
TEXT
  5
1CCCA
330
18
100
AcDbEntity
  8
1DIM
  6
CONTINUOUS
100
AcDbText
 10
4043.321617983135
 20
-1806.60764349902
 30
0.0
 40
14.0
  1
R5
 50
331.0225276132213
100
AcDbText
1001
ACAD_DSTYLE_DIMRADIAL_EXTE
1070
   387
1070
     1
1070
   388
1040
1.570796326794897
1070
   390
1040
3.141592653589793
1001
ACAD
1000
DSTYLE
1002
{
1070
    40
1040
4.0
1002
}
  0
LINE
  5
1CCCB
330
18
100
AcDbEntity
  8
0
  6
BYBLOCK
100
AcDbLine
 10
4085.949068980405
 20
-1830.964861693628
 30
0.0
 11
4091.909053507341
 21
-1836.715824884057
 31
0.0
  0
LINE
  5
1CCCC
330
18
100
AcDbEntity
  8
0
  6
BYBLOCK
100
AcDbLine
 10
4091.909053507341
 20
-1836.715824884057
 30
0.0
 11
4083.872073914713
 21
-1834.715336891925
 31
0.0
  0
LINE
  5
1CCCD
330
18
100
AcDbEntity
  8
0
  6
BYBLOCK
100
AcDbLine
 10
4091.909053507341
 20
-1836.715824884057
 30
0.0
 11
4084.910571447559
 21
-1832.840099292776
 31
0.0
  0
VIEWPORT
  5
57
330
15
100
AcDbEntity
 67
     1
  8
0
100
AcDbViewport
 68
     1
 10
0.0
 20
0.0
 30
0.0
 40
553.575
 41
297.0
 68
     1
 69
     1
1001
ACAD
1000
MVIEW
1002
{
1070
    16
1010
0.0
1020
0.0
1030
0.0
1010
0.0
1020
0.0
1030
1.0
1040
0.0
1040
297.0
1040
-4.272048862584541
1040
18.33904653606845
1040
50.0
1040
0.0
1040
0.0
1070
    16
1070
   100
1070
     0
1070
     1
1070
     0
1070
     0
1070
     0
1070
     0
1040
0.0
1040
0.0
1040
0.0
1040
10.0
1040
10.0
1040
10.0
1040
10.0
1070
     0
1002
{
1002
}
1002
}
  0
ENDSEC
  0
SECTION
  2
OBJECTS
  0
DICTIONARY
  5
C
330
0
100
AcDbDictionary
  3
ACAD_COLOR
350
2D0
  3
ACAD_GROUP
350
D
  3
ACAD_LAYOUT
350
2D1
  3
ACAD_MATERIAL
350
2CF
  3
ACAD_MLEADERSTYLE
350
15B98
  3
ACAD_MLINESTYLE
350
1B
  3
ACAD_PLOTSETTINGS
350
2D2
  3
ACAD_SCALELIST
350
15B76
  3
ACAD_VISUALSTYLE
350
15B65
  3
ACDBHEADERROUNDTRIPXREC
350
1CCCE
  3
ACDBVARIABLEDICTIONARY
350
37
  3
AEC_PROPERTY_SET_DEFS
350
1767D
  3
CONTENTDICTIONARY
350
D8
  3
DRAWINGVARIABLESDICT
350
20
  3
DWGPROPS
350
1CCD1
1001
ACAD
1000
TREAT_AS_HARD
1070
     0
  0
DICTIONARY
  5
14EC2
330
2
100
AcDbDictionary
  3
ACAD_LAYERSTATES
360
14EC3
1001
ACAD
1000
TREAT_AS_HARD
1070
     1
  0
DICTIONARY
  5
15BB5
330
E
100
AcDbDictionary
  3
ADSK_XREC_LAYER_RECONCILED
360
15BB6
1001
ACAD
1000
TREAT_AS_HARD
1070
     1
  0
DICTIONARY
  5
15BB7
330
29
100
AcDbDictionary
  3
ADSK_XREC_LAYER_RECONCILED
360
15BB8
1001
ACAD
1000
TREAT_AS_HARD
1070
     1
  0
DICTIONARY
  5
15BB9
330
31
100
AcDbDictionary
  3
ADSK_XREC_LAYER_RECONCILED
360
15BBA
1001
ACAD
1000
TREAT_AS_HARD
1070
     1
  0
DICTIONARY
  5
15BC3
330
101
100
AcDbDictionary
  3
ADSK_XREC_LAYER_RECONCILED
360
15BC4
1001
ACAD
1000
TREAT_AS_HARD
1070
     1
  0
DICTIONARY
  5
15BC5
330
102
100
AcDbDictionary
  3
ADSK_XREC_LAYER_RECONCILED
360
15BC6
1001
ACAD
1000
TREAT_AS_HARD
1070
     1
  0
DICTIONARY
  5
15BC7
330
103
100
AcDbDictionary
  3
ADSK_XREC_LAYER_RECONCILED
360
15BC8
1001
ACAD
1000
TREAT_AS_HARD
1070
     1
  0
DICTIONARY
  5
15BCB
330
25F
100
AcDbDictionary
  3
ADSK_XREC_LAYER_RECONCILED
360
15BCC
1001
ACAD
1000
TREAT_AS_HARD
1070
     1
  0
DICTIONARY
  5
15BE7
330
26D
100
AcDbDictionary
  3
ADSK_XREC_LAYER_RECONCILED
360
15BE8
1001
ACAD
1000
TREAT_AS_HARD
1070
     1
  0
DICTIONARY
  5
6E9
330
18
100
AcDbDictionary
  3
ACAD_SORTENTS
360
6EA
1001
ACAD
1000
TREAT_AS_HARD
1070
     1
  0
DICTIONARY
  5
59B
330
15
100
AcDbDictionary
  3
ACAD_SORTENTS
360
59C
1001
ACAD
1000
TREAT_AS_HARD
1070
     1
  0
DICTIONARY
  5
2D0
102
{ACAD_REACTORS
330
C
102
}
330
C
100
AcDbDictionary
1001
ACAD
1000
TREAT_AS_HARD
1070
     0
  0
DICTIONARY
  5
D
102
{ACAD_REACTORS
330
C
102
}
330
C
100
AcDbDictionary
  3
*A1
350
1AAC3
  3
*A2
350
1A15C
  3
*A3
350
1A11B
  3
*A4
350
1A263
  3
*A5
350
1A264
1001
ACAD
1000
TREAT_AS_HARD
1070
     0
  0
DICTIONARY
  5
2D1
102
{ACAD_REACTORS
330
C
102
}
330
C
100
AcDbDictionary
1001
ACAD
1000
TREAT_AS_HARD
1070
     0
  0
DICTIONARY
  5
2CF
102
{ACAD_REACTORS
330
C
102
}
330
C
100
AcDbDictionary
  3
BYBLOCK
350
15B55
  3
BYLAYER
350
15B4D
  3
GLOBAL
350
15B5D
1001
ACAD
1000
TREAT_AS_HARD
1070
     0
  0
DICTIONARY
  5
15B98
102
{ACAD_REACTORS
330
C
102
}
330
C
100
AcDbDictionary
  3
STANDARD
350
15B99
1001
ACAD
1000
TREAT_AS_HARD
1070
     0
  0
DICTIONARY
  5
1B
102
{ACAD_REACTORS
330
C
102
}
330
C
100
AcDbDictionary
  3
STANDARD
350
1C
1001
ACAD
1000
TREAT_AS_HARD
1070
     0
  0
DICTIONARY
  5
2D2
102
{ACAD_REACTORS
330
C
102
}
330
C
100
AcDbDictionary
1001
ACAD
1000
TREAT_AS_HARD
1070
     0
  0
DICTIONARY
  5
15B76
102
{ACAD_REACTORS
330
C
102
}
330
C
100
AcDbDictionary
  3
A0
350
15B77
  3
A1
350
15B78
  3
A2
350
15B79
  3
A3
350
15B7A
  3
A4
350
15B7B
  3
A5
350
15B7C
  3
A6
350
15B7D
  3
A7
350
15B7E
  3
A8
350
15B7F
  3
A9
350
15B80
  3
B0
350
15B81
  3
B1
350
15B82
  3
B2
350
15B83
  3
B3
350
15B84
  3
B4
350
15B85
  3
B5
350
15B86
  3
B6
350
15B87
  3
B7
350
15B88
  3
B8
350
15B89
  3
B9
350
15B8A
  3
C0
350
15B8B
  3
C1
350
15B8C
  3
C2
350
15B8D
  3
C3
350
15B8E
  3
C4
350
15B8F
  3
C5
350
15B90
  3
C6
350
15B91
  3
C7
350
15B92
  3
C8
350
15B93
  3
C9
350
15B94
  3
D0
350
15B95
  3
D1
350
15B96
  3
D2
350
15B97
1001
ACAD
1000
TREAT_AS_HARD
1070
     0
  0
DICTIONARY
  5
15B65
102
{ACAD_REACTORS
330
C
102
}
330
C
100
AcDbDictionary
  3
2DWIREFRAME
350
15B6B
  3
3D_HIDDEN
350
15B6D
  3
3DWIREFRAME
350
15B6C
  3
BASIC
350
15B6A
  3
BRIGHTEN
350
15B71
  3
COLORCHANGE
350
15B75
  3
CONCEPTUAL
350
15B6E
  3
DIM
350
15B70
  3
EDGECOLOROFF
350
174DB
  3
FACEPATTERN
350
15B74
  3
FLAT
350
15B66
  3
FLATWITHEDGES
350
15B67
  3
GOURAUD
350
15B68
  3
GOURAUDWITHEDGES
350
15B69
  3
HIDDEN
350
1BB41
  3
JITTEROFF
350
174D9
  3
LINEPATTERN
350
15B73
  3
MODELING
350
1BB47
  3
OVERHANGOFF
350
174DA
  3
REALISTIC
350
15B6F
  3
SHADED
350
1BB46
  3
SHADED_WITH_EDGES
350
1BB45
  3
SHADES_OF_GRAY
350
1BB42
  3
SKETCHY
350
1BB43
  3
THICKEN
350
15B72
  3
WIREFRAME
350
1BB40
  3
X-RAY
350
1BB44
1001
ACAD
1000
TREAT_AS_HARD
1070
     0
  0
DICTIONARY
  5
1CCCE
102
{ACAD_REACTORS
330
C
102
}
330
C
100
AcDbDictionary
  3
COLORDICT
350
1CCCF
  3
MATERIALDICT
350
1CCD0
1001
ACAD
1000
TREAT_AS_HARD
1070
     0
  0
DICTIONARY
  5
37
102
{ACAD_REACTORS
330
C
102
}
330
C
100
AcDbDictionary
  3
CANNOSCALE
350
1BBC8
  3
CMLEADERSTYLE
350
15C4B
  3
CTABLESTYLE
350
4F1
  3
DIMADEC
350
38
  3
DIMASSOC
350
408
  3
HIDETEXT
350
1891
  3
INDEXCTL
350
15C4E
  3
INTERSECTIONCOLOR
350
1895
  3
INTERSECTIONDISPLAY
350
1894
  3
MSLTSCALE
350
1BBC9
  3
OBSCOLOR
350
1892
  3
OBSLTYPE
350
1893
  3
PROJECTNAME
350
409
  3
SORTENTS
350
15C4D
  3
XCLIPFRAME
350
1BB3F
1001
ACAD
1000
TREAT_AS_HARD
1070
     0
  0
DICTIONARY
  5
1767D
102
{ACAD_REACTORS
330
C
102
}
330
C
100
AcDbDictionary
1001
ACAD
1000
TREAT_AS_HARD
1070
     0
  0
DICTIONARY
  5
D8
102
{ACAD_REACTORS
330
C
102
}
330
C
100
AcDbDictionary
1001
CONTENTTABDATA
1070
    11
1000
Child
1000
D:\ACLT\TABset\CHILDREN.dwg
1070
     0
1070
     0
1070
     1
1000
PK
1000
D:\ACLT\TABset\PK.dwg
1070
     0
1070
     0
1070
     1
1000
Lev1
1000
D:\ACLT\TABset\Lever01.dwg
1070
     0
1070
     0
1070
     1
1000
Lev2
1000
D:\ACLT\TABset\Lever02.dwg
1070
     0
1070
     0
1070
     1
1000
L3
1000
D:\Aclt\TABset\Lever03.dwg
1070
     0
1070
     0
1070
     1
1000
Form
1000
D:\ACLT\FORMAT
1070
     1
1070
     0
1070
     1
1000
Jnt
1000
D:\ACLT\TABset\JOINTPARTS.dwg
1070
     0
1070
     0
1070
     1
1000
ISO
1000
D:\ACLT\TABset\Isome01.dwg
1070
     0
1070
     0
1070
     1
1000
R
1000
D:\ACLT\TABset\REGION.dwg
1070
     0
1070
     0
1070
     1
1000
std
1000
D:\ACLT\TABset\std_sym_all.dwg
1070
     0
1070
     0
1070
     1
1000
丸
1000
D:\Aclt\TABset\MARU.dwg
1070
     0
1070
     0
1070
     1
1001
CONTENTCURRENTTAB
1070
     0
1001
ACAD
1000
TREAT_AS_HARD
1070
     0
  0
DICTIONARY
  5
20
102
{ACAD_REACTORS
330
C
102
}
330
C
100
AcDbDictionary
1001
DRAWINGVARIABLESXDATA
1000
POLARANG
1000
0.261799387799149410000000
1000
POLARMODE
1000
1
1000
POLARSTYLE
1000
1
1001
ACAD
1000
TREAT_AS_HARD
1070
     0
  0
XRECORD
  5
1CCD1
102
{ACAD_REACTORS
330
C
102
}
330
C
100
AcDbXrecord
  1
DWGPROPS COOKIE
  2

  3

  4

  6

  7

  8
619
  9

300
=
301
=
302
=
303
=
304
=
305
=
306
=
307
=
308
=
309
=
 40
0.0
 41
2453033.357663484
 42
2458829.096093495
  1

 90
        0
  0
DICTIONARY
  5
14EC3
102
{ACAD_REACTORS
330
14EC2
102
}
330
14EC2
100
AcDbDictionary
1001
ACAD
1000
TREAT_AS_HARD
1070
     0
  0
ACAD_PROXY_OBJECT
  5
15BB6
102
{ACAD_REACTORS
330
15BB5
102
}
330
15BB5
100
AcDbZombieObject
 90
      499
 91
      518
 93
       34
310
40C8804040
  0
ACAD_PROXY_OBJECT
  5
15BB8
102
{ACAD_REACTORS
330
15BB7
102
}
330
15BB7
100
AcDbZombieObject
 90
      499
 91
      518
 93
       34
310
40C8804040
  0
ACAD_PROXY_OBJECT
  5
15BBA
102
{ACAD_REACTORS
330
15BB9
102
}
330
15BB9
100
AcDbZombieObject
 90
      499
 91
      518
 93
       34
310
40C8804040
  0
ACAD_PROXY_OBJECT
  5
15BC4
102
{ACAD_REACTORS
330
15BC3
102
}
330
15BC3
100
AcDbZombieObject
 90
      499
 91
      518
 93
       34
310
40C8804040
  0
ACAD_PROXY_OBJECT
  5
15BC6
102
{ACAD_REACTORS
330
15BC5
102
}
330
15BC5
100
AcDbZombieObject
 90
      499
 91
      518
 93
       34
310
40C8804040
  0
ACAD_PROXY_OBJECT
  5
15BC8
102
{ACAD_REACTORS
330
15BC7
102
}
330
15BC7
100
AcDbZombieObject
 90
      499
 91
      518
 93
       34
310
40C8804040
  0
ACAD_PROXY_OBJECT
  5
15BCC
102
{ACAD_REACTORS
330
15BCB
102
}
330
15BCB
100
AcDbZombieObject
 90
      499
 91
      518
 93
       34
310
40C8804040
  0
ACAD_PROXY_OBJECT
  5
15BE8
102
{ACAD_REACTORS
330
15BE7
102
}
330
15BE7
100
AcDbZombieObject
 90
      499
 91
      518
 93
       34
310
40C8804040
  0
SORTENTSTABLE
  5
6EA
102
{ACAD_REACTORS
330
6E9
102
}
330
6E9
100
AcDbSortentsTable
330
18
331
0
  5
17E40
331
0
  5
183F1
331
18AA3
  5
1930C
331
18AC3
  5
1930E
331
18EE8
  5
1930F
331
18EE9
  5
19310
331
18EEA
  5
19313
331
18EEB
  5
19314
331
18EF1
  5
19315
331
18EF2
  5
19316
331
18EF3
  5
1931A
331
18EF4
  5
1931B
331
18EF5
  5
1931C
331
18EF6
  5
1931D
331
18F29
  5
1931E
331
18F2A
  5
1931F
331
18F2B
  5
19320
331
18F2C
  5
19321
331
19305
  5
19322
331
19306
  5
19323
331
19307
  5
19324
331
19308
  5
19325
331
19309
  5
19326
331
1930A
  5
19327
331
1930B
  5
19328
331
1930C
  5
19329
331
1930D
  5
1932A
331
1930E
  5
1932B
331
1930F
  5
1932C
331
19310
  5
1932D
331
19311
  5
1932E
331
19312
  5
1932F
331
19313
  5
19330
331
19314
  5
19331
331
19315
  5
19332
331
19316
  5
19333
331
19317
  5
19334
331
19318
  5
19335
331
19319
  5
19336
331
1931A
  5
19337
331
1931B
  5
19338
331
1931C
  5
19339
331
1931D
  5
1933A
331
1931E
  5
1933B
331
1931F
  5
1933C
331
19320
  5
1933D
331
19321
  5
1933E
331
19322
  5
1933F
331
19323
  5
19340
331
19324
  5
19341
331
19325
  5
19342
331
19326
  5
19343
331
19327
  5
19344
331
19328
  5
19345
331
19329
  5
19346
331
1932A
  5
19347
331
1932B
  5
19348
331
1932C
  5
19349
331
1932D
  5
1934A
331
1932E
  5
1934B
331
1932F
  5
19EA2
331
19330
  5
19EAA
331
19331
  5
19EAB
331
19332
  5
19EAC
331
19333
  5
19EAE
331
19334
  5
19EAF
331
19335
  5
19EB1
331
19336
  5
19EB2
331
19337
  5
19EB3
331
19338
  5
19EB4
331
19339
  5
19EB5
331
1933A
  5
19EB6
331
1933B
  5
19EB7
331
1933C
  5
19EB8
331
1933D
  5
19EB9
331
1933E
  5
19EBA
331
1933F
  5
19EBB
331
19340
  5
19EBC
331
19341
  5
19EBD
331
19342
  5
19EBE
331
19343
  5
19EBF
331
19344
  5
19EC0
331
19E9B
  5
19EF9
331
19E9C
  5
19F38
331
19E9D
  5
19F39
331
19E9E
  5
19F3B
331
19EA0
  5
19F50
331
19EA1
  5
19F51
331
19EAA
  5
19F52
331
19EAB
  5
19F53
331
19EAC
  5
19F54
331
19EAD
  5
19F56
331
19EAE
  5
19F58
331
19EAF
  5
19F5B
331
19EB0
  5
19F85
331
19EB1
  5
19F87
331
19EB2
  5
19F88
331
19EB3
  5
19F8C
331
19EB4
  5
19F8D
331
19EB5
  5
19F90
331
19EB6
  5
19F91
331
19EB7
  5
19FC7
331
19EB8
  5
19FC8
331
19EB9
  5
19FC9
331
19EBA
  5
19FCA
331
19EBB
  5
19FDE
331
19EBC
  5
19FEA
331
19EBD
  5
19FEB
331
19EBE
  5
19FEC
331
19EBF
  5
19FED
331
19EC0
  5
19FEE
331
19EF9
  5
19FEF
331
19F38
  5
1A0DE
331
19F39
  5
1A110
331
19F3A
  5
1A111
331
19F3B
  5
1A112
331
19F50
  5
1A113
331
19F51
  5
1A118
331
19F53
  5
1A119
331
19F54
  5
1A11C
331
19F56
  5
1A11D
331
19F58
  5
1A11E
331
19F5B
  5
1A11F
331
19F85
  5
1A121
331
19F86
  5
1A122
331
19F87
  5
1A123
331
19F8B
  5
1A124
331
19F8C
  5
1A125
331
19F8D
  5
1A127
331
19FAB
  5
1A128
331
19FC5
  5
1A129
331
19FC6
  5
1A12A
331
19FC7
  5
1A12B
331
19FC8
  5
1A12C
331
1A0DE
  5
1A12D
331
1A0DF
  5
1A12E
331
1A0E0
  5
1A12F
331
1A0E1
  5
1A130
331
1A0E2
  5
1A131
331
1A0E3
  5
1A132
331
1A109
  5
1A120
331
1A10A
  5
1A126
331
1A10B
  5
1A133
331
1A10F
  5
19317
331
1A110
  5
19319
331
1A111
  5
19312
331
1A112
  5
19318
331
1A113
  5
19311
331
1A118
  5
1A134
331
1A11A
  5
1930D
331
1A11C
  5
1A135
331
1A11D
  5
1A136
331
1A11E
  5
1A137
331
1A11F
  5
1A138
331
1A120
  5
1A139
331
1A121
  5
1A13A
331
1A122
  5
1A13B
331
1A123
  5
1A13C
331
1A124
  5
1A13D
331
1A125
  5
1A13E
331
1A126
  5
1A13F
331
1A127
  5
1A140
331
1A128
  5
1A141
331
1A129
  5
1A142
331
1A12A
  5
1A143
331
1A12B
  5
1A144
331
1A12C
  5
1A145
331
1A12D
  5
1A146
331
1A12E
  5
1A147
331
1A12F
  5
1A148
331
1A130
  5
1A149
331
1A131
  5
1A14A
331
1A132
  5
1A14B
331
1A133
  5
1A14C
331
1A134
  5
1A14D
331
1A135
  5
1A14E
331
1A136
  5
1A14F
331
1A137
  5
1A150
331
1A138
  5
1A151
331
1A139
  5
1A152
331
1A13A
  5
1A153
331
1A13B
  5
1A154
331
1A13C
  5
1A155
331
1A13D
  5
1A156
331
1A13E
  5
1A157
331
1A13F
  5
1A158
331
1A140
  5
1A159
331
1A141
  5
1A15A
331
1A142
  5
1A15B
331
1A143
  5
1A15D
331
1A144
  5
1A16C
331
1A145
  5
1A17A
331
1A146
  5
1A188
331
1A147
  5
1A189
331
1A148
  5
1A18A
331
1A149
  5
1A18B
331
1A14A
  5
1A18C
331
1A14B
  5
1A1AB
331
1A14C
  5
1A1D5
331
1A14D
  5
1A1D6
331
1A14E
  5
1A1D7
331
1A14F
  5
1A1D8
331
1A150
  5
1A1D9
331
1A151
  5
1A1DA
331
1A152
  5
1A1DB
331
1A153
  5
1A1DC
331
1A154
  5
1A1DD
331
1A155
  5
1A1DE
331
1A156
  5
1A1DF
331
1A157
  5
1A1E0
331
1A158
  5
1A1E1
331
1A159
  5
1A1E2
331
1A15A
  5
1A1E3
331
1A15B
  5
1A1E4
331
1A15D
  5
19301
331
0
  5
1A1E5
331
0
  5
1A1E6
331
1A188
  5
1A207
331
1A189
  5
1A208
331
1A18A
  5
1A209
331
1A18B
  5
1A20A
331
1A18C
  5
1A20B
331
0
  5
1A1EC
331
1A1D5
  5
1A216
331
1A1D6
  5
1A217
331
1A1D7
  5
1A218
331
1A1D8
  5
1A219
331
1A1D9
  5
1A21A
331
1A1DA
  5
1A21B
331
1A1DB
  5
1A21C
331
1A1DC
  5
1A21D
331
1A1DD
  5
1A21E
331
1A1DE
  5
1A21F
331
1A1DF
  5
1A220
331
1A1E0
  5
1A221
331
1A1E1
  5
1A222
331
1A1E2
  5
1A223
331
1A1E3
  5
1A224
331
1A1E4
  5
1A225
331
1A1E5
  5
1A226
331
1A1E6
  5
1A227
331
1A1E7
  5
1A228
331
1A1E8
  5
1A229
331
1A1E9
  5
1A22A
331
1A1EA
  5
1A22B
331
1A1EB
  5
1A22C
331
1A1EC
  5
1A22D
331
1A1ED
  5
1A22E
331
1A1EE
  5
1A22F
331
1A1EF
  5
1A230
331
1A1F0
  5
1A231
331
1A1F1
  5
1A232
331
1A1F2
  5
1A233
331
1A1F3
  5
1A234
331
1A1F4
  5
1A235
331
1A1F5
  5
1A236
331
1A1F6
  5
1A237
331
1A1F7
  5
1A238
331
1A1F8
  5
1A239
331
1A1F9
  5
1A23A
331
1A1FA
  5
1A23B
331
1A1FB
  5
1A23C
331
1A1FC
  5
1A23D
331
1A1FD
  5
1A23E
331
1A1FE
  5
1A23F
331
1A1FF
  5
1A240
331
1A200
  5
1A241
331
1A201
  5
1A242
331
1A202
  5
1A243
331
1A203
  5
1A244
331
1A204
  5
1A245
331
1A205
  5
1A246
331
1A206
  5
1A247
331
1A207
  5
1A248
331
1A208
  5
1A249
331
1A209
  5
1A24A
331
1A20A
  5
1A24B
331
1A20B
  5
1A24C
331
1A20C
  5
1A24D
331
1A20D
  5
1A24E
331
1A20E
  5
1A24F
331
1A20F
  5
1A250
331
1A210
  5
1A251
331
1A211
  5
1A252
331
1A212
  5
1A253
331
1A213
  5
1A254
331
1A214
  5
1A255
331
1A215
  5
1A256
331
1A216
  5
1A257
331
1A217
  5
1A258
331
1A218
  5
1A259
331
1A219
  5
1A25A
331
1A21A
  5
1A25B
331
1A21B
  5
1A25C
331
1A21C
  5
1A25D
331
1A21D
  5
1A25E
331
1A21E
  5
1A25F
331
1A21F
  5
1A260
331
1A220
  5
1A261
331
1A221
  5
1A262
331
1A222
  5
1A265
331
1A223
  5
1A266
331
1A224
  5
1A267
331
1A225
  5
1A2B6
331
1A226
  5
1A2CC
331
1A227
  5
1A2D9
331
1A228
  5
1A2DA
331
1A229
  5
1A2DB
331
1A22A
  5
1A87F
331
1A22B
  5
1A8E5
331
1A22C
  5
1A8E7
331
1A22D
  5
1A8E8
331
1A22E
  5
1A945
331
1A22F
  5
1A960
331
1A230
  5
1A962
331
1A231
  5
1A984
331
1A232
  5
1A985
331
1A233
  5
1A987
331
1A234
  5
1A988
331
1A235
  5
1A989
331
1A236
  5
1A98A
331
1A237
  5
1A98B
331
1A238
  5
1A98C
331
1A239
  5
1A98D
331
1A23A
  5
1A994
331
1A23B
  5
1A997
331
1A23C
  5
1A998
331
1A23D
  5
1A999
331
1A23E
  5
1A99A
331
1A23F
  5
1AA4D
331
1A240
  5
1AA51
331
1A241
  5
1AA52
331
1A242
  5
1AA53
331
1A243
  5
1AA54
331
1A244
  5
1AA55
331
1A245
  5
1AA56
331
1A246
  5
1AA57
331
1A247
  5
1AA58
331
1A248
  5
1AA59
331
1A249
  5
1AA5A
331
1A24A
  5
1AA5B
331
1A24B
  5
1AA5C
331
1A24C
  5
1AA5D
331
1A24D
  5
1AA5E
331
1A24E
  5
1AA5F
331
1A24F
  5
1AA60
331
1A250
  5
1AA61
331
1A251
  5
1AA65
331
1A252
  5
1AA66
331
1A253
  5
1AA67
331
1A254
  5
1AA6B
331
1A255
  5
1AA6C
331
1A256
  5
1AA6D
331
1A257
  5
1AA71
331
1A258
  5
1AA72
331
1A259
  5
1AA73
331
1A25A
  5
1AA77
331
1A25B
  5
1AA78
331
1A25C
  5
1AA79
331
1A25D
  5
1AA7D
331
1A25E
  5
1AA7E
331
1A25F
  5
1AA7F
331
1A260
  5
1AA80
331
1A261
  5
1AA81
331
1A262
  5
1AA82
331
0
  5
1A98E
331
0
  5
1A98F
331
0
  5
1A990
331
0
  5
1A992
331
0
  5
1A993
331
1A75D
  5
1AAB5
331
0
  5
1A995
331
0
  5
1A996
331
1A87F
  5
1AABB
331
1A939
  5
1AABC
331
1A93A
  5
1AABD
331
1A93B
  5
1AABE
331
1A945
  5
19F3A
331
1A962
  5
1AABF
331
0
  5
1AA4E
331
1A983
  5
1AAC7
331
1A984
  5
1AAC8
331
1A985
  5
1AAC9
331
1A986
  5
1AACA
331
1A987
  5
1AACB
331
1A988
  5
1AACC
331
1A989
  5
1AACD
331
1A98A
  5
1AACE
331
1A98B
  5
1AACF
331
1A98C
  5
1AAD0
331
1A98E
  5
1AAD1
331
1A98F
  5
1AAD2
331
1A990
  5
1AAD3
331
1A991
  5
1AAD4
331
1A992
  5
1AAD5
331
1A993
  5
1AAD6
331
1A994
  5
1AAD7
331
1A995
  5
1AAD8
331
1A996
  5
1AAD9
331
1A997
  5
1AADA
331
1A998
  5
1AAFB
331
1AA45
  5
1AB0C
331
1AA46
  5
1AB0D
331
1AA47
  5
1AB0E
331
1AA48
  5
1AB0F
331
1AA49
  5
1AB22
331
1AA4A
  5
1AB23
331
1AA4B
  5
1AB2C
331
1AA4C
  5
1AB2D
331
1AA4D
  5
1AB2E
331
1AA4E
  5
1AB38
331
1AA4F
  5
1B2B5
331
1AA50
  5
1B2B6
331
1AA51
  5
1B2B7
331
1AA52
  5
1B2B8
331
1AA53
  5
1B2B9
331
1AA54
  5
1B2BA
331
1AA55
  5
1B2BB
331
1AA56
  5
1B2BC
331
1AA57
  5
1B2BD
331
1AA58
  5
1B2BE
331
1AA59
  5
1B2BF
331
1AA5A
  5
1B2C0
331
1AA5B
  5
1B2C1
331
1AA5C
  5
1B2C2
331
1AA5D
  5
1B2C3
331
1AA5E
  5
1BA2C
331
1AA5F
  5
1BA4B
331
1AA60
  5
1BA4C
331
1AA61
  5
1BA50
331
1AA62
  5
1BA51
331
1AA63
  5
1BA52
331
1AA64
  5
1BA53
331
1AA65
  5
1BA54
331
1AA66
  5
1BA55
331
1AA67
  5
1BA56
331
1AA68
  5
1BA7F
331
1AA69
  5
1BBA7
331
1AA6A
  5
1BBA8
331
1AA6B
  5
1BBAA
331
1AA6C
  5
1BBAB
331
1AA6D
  5
1C723
331
1AA6E
  5
1C724
331
1AA6F
  5
1C725
331
1AA70
  5
1C727
331
1AA71
  5
1C728
331
1AA72
  5
1C729
331
1AA73
  5
1C72A
331
1AA74
  5
1C72B
331
1AA75
  5
1C72C
331
1AA76
  5
1C72D
331
1AA77
  5
1C72E
331
1AA78
  5
1C72F
331
1AA79
  5
1C730
331
1AA7A
  5
1C731
331
1AA7B
  5
1C732
331
1AA7C
  5
1C734
331
1AA7D
  5
1C735
331
1AA7E
  5
1C736
331
1AA7F
  5
1C737
331
1AA80
  5
1C738
331
1AA81
  5
1C739
331
1AA82
  5
1C73A
331
1AA83
  5
1C73B
331
1AA84
  5
1C73C
331
1AA85
  5
1C73D
331
1AA86
  5
1C73E
331
1AA87
  5
1C73F
331
1AA88
  5
1C740
331
1AA89
  5
1C741
331
1AA8A
  5
1C742
331
1AA8B
  5
1C743
331
1AA8C
  5
1C744
331
1AA8D
  5
1C745
331
1AA8E
  5
1C746
331
1AA8F
  5
1C74A
331
1AA90
  5
1C74F
331
1AA91
  5
1C750
331
1AA92
  5
1C755
331
1AA93
  5
1C756
331
1AA94
  5
1C757
331
1AA95
  5
1C758
331
1AA96
  5
1C759
331
1AA97
  5
1C75A
331
1AA98
  5
1C75B
331
1AA99
  5
1C75C
331
1AA9A
  5
1C75D
331
1AA9B
  5
1C75E
331
1AA9C
  5
1C75F
331
1AA9D
  5
1C760
331
1AA9E
  5
1C763
331
1AA9F
  5
1C764
331
1AAA0
  5
1C765
331
1AAA1
  5
1C766
331
1AAA2
  5
1C767
331
1AAA3
  5
1CB8F
331
1AAA4
  5
1CB90
331
1AAA5
  5
1CB91
331
1AAA6
  5
1CB92
331
1AAA7
  5
1CB94
331
1AAA8
  5
1CB95
331
1AAA9
  5
1CB96
331
1AAAA
  5
1CB97
331
1AAAB
  5
1CB98
331
1AAAC
  5
1CB99
331
1AAAD
  5
1CB9A
331
1AAAE
  5
1CB9B
331
1AAAF
  5
1CB9C
331
1AAB0
  5
1CB9D
331
1AAB1
  5
1CBA1
331
1AAB2
  5
1CBA2
331
1AAB3
  5
1CBA3
331
1AAB4
  5
1CBA4
331
1AAB5
  5
1CBA8
331
1AAB6
  5
1CBA9
331
1AAB7
  5
1CBAA
331
1AAB8
  5
1CBAB
331
1AAB9
  5
1CBAC
331
1AABA
  5
1CBAD
331
1AABB
  5
1CBAE
331
1AABC
  5
1CBAF
331
1AABD
  5
1CBB0
331
1AABE
  5
1CBB1
331
1AABF
  5
1CBB2
331
1AACC
  5
1AAFC
331
1AACD
  5
1AAFD
331
1AACE
  5
1AAFE
331
1AACF
  5
1AAFF
331
1AAD0
  5
1AB00
331
1AAD1
  5
1AB01
331
1AAD2
  5
1AB02
331
1AAD3
  5
1AB03
331
1AAD4
  5
1AB04
331
1AAD5
  5
1AB05
331
1AAD6
  5
1AB06
331
1AAD7
  5
1AB07
331
1AAD8
  5
1AB08
331
1AAD9
  5
1AB09
331
1AADA
  5
1AB0A
331
1AAFB
  5
1CBB3
331
1AAFC
  5
1CBB4
331
1AAFD
  5
1CBB5
331
1AAFE
  5
1CBB6
331
1AAFF
  5
1CBBA
331
1AB00
  5
1CBBB
331
1AB01
  5
1CBBC
331
1AB02
  5
1CBBD
331
1AB03
  5
1CBBE
331
1AB04
  5
1CBBF
331
1AB05
  5
1CBC0
331
1AB06
  5
1CBC1
331
1AB07
  5
1CBC2
331
1AB08
  5
1CBC3
331
1AB09
  5
1CBC4
331
1AB0C
  5
1CBC5
331
1AB0D
  5
1CBC6
331
1AB0E
  5
1CBC7
331
1AB0F
  5
1CBC8
331
0
  5
1BA4D
331
0
  5
1BA4E
331
0
  5
1BA4F
331
1B2B5
  5
1CBE1
331
1B2B6
  5
1CBE2
331
1B2B7
  5
1CBE6
331
1B2B8
  5
1CBE7
331
1B2B9
  5
1CBE8
331
1B2BA
  5
1CBE9
331
1B2BB
  5
1CBEA
331
1B2BC
  5
1CBEB
331
1B2BD
  5
1CBEC
331
1B2BE
  5
1CBED
331
1B2BF
  5
1CBEE
331
1B2C0
  5
1CBF2
331
1B2C1
  5
1CBF3
331
1B2C2
  5
1CBF4
331
1B2C3
  5
1CBF8
331
0
  5
1C726
331
1BA4B
  5
1CC03
331
1BA4C
  5
1CC04
331
1BA4D
  5
1CC05
331
1BA4E
  5
1CC06
331
1BA4F
  5
1CC0A
331
1BA50
  5
1CC0B
331
1BA51
  5
1CC0C
331
1BA52
  5
1CC0D
331
1BA53
  5
1CC0E
331
1BA54
  5
1CC0F
331
1BA55
  5
1CC10
331
1BA56
  5
1CC11
331
0
  5
1C733
331
1BBA7
  5
1CC1F
331
1BBA8
  5
1CC20
331
1BBAA
  5
1CC21
331
1BBAB
  5
1CC22
331
1C723
  5
1CC23
331
1C724
  5
1CC24
331
1C725
  5
1CC25
331
1C726
  5
1CC26
331
1C727
  5
1CC27
331
1C728
  5
1CC28
331
1C729
  5
1CC29
331
1C72A
  5
1CC2A
331
1C72B
  5
1CC2E
331
1C72C
  5
1CC2F
331
1C72D
  5
1CC30
331
1C72E
  5
1CC34
331
1C72F
  5
1CC37
331
1C730
  5
1CC38
331
1C731
  5
1CC39
331
0
  5
1C747
331
0
  5
1C748
331
0
  5
1C749
331
1C735
  5
1CC58
331
0
  5
1C74E
331
1C737
  5
1CC63
331
1C738
  5
1CC64
331
0
  5
1C751
331
0
  5
1C752
331
0
  5
1C753
331
0
  5
1C754
331
1C73D
  5
1CC7D
331
1C73E
  5
1CC7E
331
1C73F
  5
1CC7F
331
1C740
  5
1CC80
331
1C741
  5
1CC81
331
1C742
  5
1CC82
331
1C743
  5
1CC83
331
1C744
  5
1CC84
331
1C745
  5
1CC85
331
1C746
  5
1CC86
331
1C747
  5
1CC87
331
1C748
  5
1CC88
331
0
  5
1C761
331
0
  5
1C762
331
1C74E
  5
1CC95
331
1C74F
  5
1CC96
331
1C750
  5
1CC97
331
1C751
  5
1CC98
331
1C752
  5
1CC99
331
1C753
  5
1CC9A
331
1C754
  5
1CC9B
331
1C755
  5
1CC9C
331
1C756
  5
1CC9D
331
1C757
  5
1CC9E
331
1C758
  5
1CC9F
331
1C759
  5
1CCA0
331
0
  5
1CB93
331
1C75B
  5
1CCAB
331
1C75C
  5
1CCAC
331
1C75D
  5
1CCAD
331
1C75E
  5
1CCAE
331
1C75F
  5
1CCAF
331
1C760
  5
1CCB0
331
1C761
  5
1CCB1
331
1C762
  5
1CCB2
331
1C763
  5
1CCB3
331
1C764
  5
1CCB4
331
0
  5
1CB9E
331
0
  5
1CB9F
331
0
  5
1CBA0
331
1CB8C
  5
18AA3
331
1CB8D
  5
18AC3
331
1CB8E
  5
18AC4
331
1CB8F
  5
18EE7
331
1CB90
  5
18EEA
331
1CB91
  5
18EEB
331
1CB92
  5
18EF1
331
1CB93
  5
18EF2
331
1CB94
  5
18EF3
331
1CB95
  5
18EF4
331
1CB96
  5
18EF5
331
1CB97
  5
18EF6
331
1CB98
  5
18F0A
331
1CB99
  5
18F0B
331
1CB9A
  5
18F0C
331
1CB9B
  5
18F0D
331
1CB9C
  5
18F0E
331
1CB9D
  5
18F0F
331
1CB9E
  5
18FD8
331
1CB9F
  5
18FD9
331
1CBA0
  5
192D3
331
1CBA1
  5
1A1E7
331
1CBA2
  5
1A1E8
331
1CBA3
  5
1A1E9
331
1CBA4
  5
1A1EA
331
1CBA5
  5
1A1EB
331
0
  5
1A1ED
331
0
  5
1A1EE
331
0
  5
1A1EF
331
1CBA9
  5
1A1FA
331
1CBAA
  5
1A1FB
331
1CBAB
  5
1A1FC
331
0
  5
1A1F3
331
0
  5
1A1F4
331
0
  5
1A1F5
331
1CBAF
  5
1A20C
331
1CBB0
  5
1A20D
331
1CBB1
  5
1A20E
331
0
  5
1A1FE
331
0
  5
1A1FF
331
0
  5
1A200
331
1CBB5
  5
1AA83
331
1CBB6
  5
1AA84
331
1CBB7
  5
1AA85
331
0
  5
1AA62
331
0
  5
1AA63
331
0
  5
1AA64
331
1CBBB
  5
1AA8D
331
1CBBC
  5
1AA8E
331
1CBBD
  5
1AA8F
331
0
  5
1AA68
331
0
  5
1AA69
331
0
  5
1AA6A
331
1CBC1
  5
1AA97
331
1CBC2
  5
1AA98
331
1CBC3
  5
1AA99
331
0
  5
1AA6E
331
0
  5
1AA6F
331
0
  5
1AA70
331
1CBC7
  5
1AAA1
331
1CBC8
  5
1AAA2
331
1CBC9
  5
1AAA3
331
0
  5
1AA74
331
0
  5
1AA75
331
0
  5
1AA76
331
1CBCD
  5
1AAAB
331
1CBCE
  5
1AAAC
331
1CBCF
  5
1AAAD
331
0
  5
1AA7A
331
0
  5
1AA7B
331
0
  5
1AA7C
331
1CBD3
  5
1AAB6
331
1CBD4
  5
1AAB7
331
1CBD5
  5
1AAB8
331
1CBD6
  5
1AAB9
331
1CBD7
  5
1AABA
331
1CBD8
  5
1AAC4
331
1CBD9
  5
1AAC5
331
1CBDA
  5
1AAC6
331
1CBDB
  5
1CBC9
331
1CBDC
  5
1CBCA
331
1CBDD
  5
1CBCB
331
1CBDE
  5
1CBCC
331
1CBDF
  5
1CBCD
331
1CBE0
  5
1CBCE
331
1CBE1
  5
1CBCF
331
1CBE2
  5
1CBD3
331
0
  5
1CB8C
331
0
  5
1CB8D
331
0
  5
1CB8E
331
1CBE6
  5
1CBF9
331
1CBE7
  5
1CBFA
331
1CBE8
  5
1CBFB
331
0
  5
1CBA5
331
0
  5
1CBA6
331
0
  5
1CBA7
331
1CBEC
  5
1CC12
331
1CBED
  5
1CC13
331
1CBEE
  5
1CC14
331
0
  5
1CBB7
331
0
  5
1CBB8
331
0
  5
1CBB9
331
1CBF2
  5
1CC3A
331
1CBF3
  5
1CC3B
331
1CBF4
  5
1CC3C
331
0
  5
1CBD0
331
0
  5
1CBD1
331
0
  5
1CBD2
331
1CBF8
  5
1CC44
331
1CBF9
  5
1CC45
331
1CBFA
  5
1CC46
331
0
  5
1CBD6
331
0
  5
1CBD7
331
0
  5
1CBD8
331
1CBFE
  5
1CC4E
331
1CBFF
  5
1CC4F
331
1CC00
  5
1CC50
331
0
  5
1CBDC
331
0
  5
1CBDD
331
0
  5
1CBDE
331
1CC04
  5
1CC59
331
1CC05
  5
1CC5A
331
1CC06
  5
1CC5B
331
0
  5
1CBE3
331
0
  5
1CBE4
331
0
  5
1CBE5
331
1CC0A
  5
1CC65
331
1CC0B
  5
1CC66
331
1CC0C
  5
1CC67
331
1CC0D
  5
1CC68
331
1CC0E
  5
1CC69
331
1CC0F
  5
1CC6A
331
1CC10
  5
1CC6B
331
0
  5
1CBEF
331
0
  5
1CBF0
331
0
  5
1CBF1
331
1CC14
  5
1CC73
331
1CC15
  5
1CC74
331
1CC16
  5
1CC75
331
0
  5
1CBF5
331
0
  5
1CBF6
331
0
  5
1CBF7
331
1CC1A
  5
1CC89
331
1CC1B
  5
1CC8A
331
1CC1C
  5
1CC8B
331
0
  5
1CC07
331
0
  5
1CC08
331
0
  5
1CC09
331
1CC20
  5
1CC93
331
1CC21
  5
1CC94
331
1CC22
  5
1CCA1
331
1CC23
  5
1CCA2
331
1CC24
  5
1CCA3
331
0
  5
1CC1B
331
0
  5
1CC1C
331
0
  5
1CC1D
331
1CC28
  5
1CCB5
331
1CC29
  5
1CCB6
331
1CC2A
  5
1CCB7
331
1CC2E
  5
1CCBF
331
1CC2F
  5
1CCC0
331
1CC30
  5
1CCC1
331
1CC34
  5
1CCC9
331
1CC37
  5
1A1F0
331
1CC38
  5
1A1F1
331
1CC39
  5
1A1F2
331
1CC3A
  5
1A1F6
331
1CC3B
  5
1A1F7
331
1CC3C
  5
1A1F8
331
1CC3D
  5
1A1F9
331
1CC3E
  5
1A1FD
331
1CC3F
  5
1A201
331
1CC40
  5
1A202
331
1CC41
  5
1A203
331
1CC42
  5
1A204
331
1CC43
  5
1A205
331
1CC44
  5
1A206
331
1CC45
  5
1A20F
331
1CC46
  5
1A210
331
1CC47
  5
1A211
331
1CC48
  5
1A212
331
1CC49
  5
1A213
331
1CC4A
  5
1A214
331
1CC4B
  5
1A215
331
1CC4C
  5
1AA86
331
1CC4D
  5
1AA87
331
1CC4E
  5
1AA88
331
1CC4F
  5
1AA89
331
1CC50
  5
1AA8A
331
1CC51
  5
1AA8B
331
1CC52
  5
1AA8C
331
1CC53
  5
1AA90
331
1CC54
  5
1AA91
331
1CC55
  5
1AA92
331
1CC56
  5
1AA93
331
1CC57
  5
1AA94
331
1CC58
  5
1AA95
331
1CC59
  5
1AA96
331
1CC5A
  5
1AA9A
331
1CC5B
  5
1AA9B
331
1CC5C
  5
1AA9C
331
1CC5D
  5
1AA9D
331
1CC5E
  5
1AA9E
331
1CC5F
  5
1AA9F
331
1CC60
  5
1AAA0
331
1CC61
  5
1AAA4
331
1CC62
  5
1AAA5
331
1CC63
  5
1AAA6
331
1CC64
  5
1AAA7
331
1CC65
  5
1AAA8
331
1CC66
  5
1AAA9
331
1CC67
  5
1AAAA
331
1CC68
  5
1AAAE
331
1CC69
  5
1AAAF
331
1CC6A
  5
1AAB0
331
1CC6B
  5
1AAB1
331
1CC6C
  5
1AAB2
331
1CC6D
  5
1AAB3
331
1CC6E
  5
1AAB4
331
1CC6F
  5
1CBD4
331
1CC70
  5
1CBD5
331
1CC71
  5
1CBD9
331
1CC72
  5
1CBDA
331
1CC73
  5
1CBDB
331
1CC74
  5
1CBDF
331
1CC75
  5
1CBE0
331
1CC76
  5
1CBFC
331
1CC77
  5
1CBFD
331
1CC78
  5
1CBFE
331
1CC79
  5
1CBFF
331
1CC7A
  5
1CC00
331
1CC7B
  5
1CC01
331
1CC7C
  5
1CC02
331
1CC7D
  5
1CC15
331
1CC7E
  5
1CC16
331
1CC7F
  5
1CC17
331
1CC80
  5
1CC18
331
1CC81
  5
1CC19
331
1CC82
  5
1CC1A
331
1CC83
  5
1CC1E
331
1CC84
  5
1CC3D
331
1CC85
  5
1CC3E
331
1CC86
  5
1CC3F
331
1CC87
  5
1CC40
331
1CC88
  5
1CC41
331
1CC89
  5
1CC42
331
1CC8A
  5
1CC43
331
1CC8B
  5
1CC47
331
1CC8C
  5
1CC48
331
1CC8D
  5
1CC49
331
1CC8E
  5
1CC4A
331
1CC8F
  5
1CC4B
331
1CC90
  5
1CC4C
331
1CC91
  5
1CC4D
331
1CC92
  5
1CC51
331
1CC93
  5
1CC52
331
1CC94
  5
1CC53
331
1CC95
  5
1CC54
331
1CC96
  5
1CC55
331
1CC97
  5
1CC56
331
1CC98
  5
1CC57
331
1CC99
  5
1CC5C
331
1CC9A
  5
1CC5D
331
1CC9B
  5
1CC5E
331
1CC9C
  5
1CC5F
331
1CC9D
  5
1CC60
331
1CC9E
  5
1CC61
331
1CC9F
  5
1CC62
331
1CCA0
  5
1CC6C
331
1CCA1
  5
1CC6D
331
1CCA2
  5
1CC6E
331
1CCA3
  5
1CC6F
331
1CCA4
  5
1CC70
331
1CCA5
  5
1CC71
331
1CCA6
  5
1CC72
331
1CCA7
  5
1CC76
331
1CCA8
  5
1CC77
331
1CCA9
  5
1CC78
331
1CCAA
  5
1CC79
331
1CCAB
  5
1CC7A
331
1CCAC
  5
1CC7B
331
1CCAD
  5
1CC7C
331
1CCAE
  5
1CC8C
331
1CCAF
  5
1CC8D
331
1CCB0
  5
1CC8E
331
1CCB1
  5
1CC8F
331
1CCB2
  5
1CC90
331
1CCB3
  5
1CC91
331
1CCB4
  5
1CC92
331
1CCB5
  5
1CCA4
331
1CCB6
  5
1CCA5
331
1CCB7
  5
1CCA6
331
1CCB8
  5
1CCA7
331
1CCB9
  5
1CCA8
331
1CCBA
  5
1CCA9
331
1CCBB
  5
1CCAA
331
1CCBC
  5
1CCB8
331
1CCBD
  5
1CCB9
331
1CCBE
  5
1CCBA
331
1CCBF
  5
1CCBB
331
1CCC0
  5
1CCBC
331
1CCC1
  5
1CCBD
331
1CCC2
  5
1CCBE
331
1CCC3
  5
1CCC2
331
1CCC4
  5
1CCC3
331
1CCC5
  5
1CCC4
331
1CCC6
  5
1CCC5
331
1CCC7
  5
1CCC6
331
1CCC8
  5
1CCC7
331
1CCC9
  5
1CCC8
  0
SORTENTSTABLE
  5
59C
102
{ACAD_REACTORS
330
59B
102
}
330
59B
100
AcDbSortentsTable
330
15
331
57
  5
57
331
0
  5
70
331
0
  5
15E0C
331
0
  5
15E0D
331
0
  5
15E0E
331
0
  5
15E0F
331
0
  5
15E10
331
0
  5
15E11
331
0
  5
15E12
331
0
  5
15E13
331
0
  5
15E14
331
0
  5
15E15
331
0
  5
15E16
331
0
  5
15E17
331
0
  5
15E18
331
0
  5
15E19
331
0
  5
15E1A
331
0
  5
15FEC
331
0
  5
15FED
331
0
  5
15FEE
331
0
  5
15FEF
331
0
  5
15E1C
331
0
  5
15E1D
331
0
  5
15E1E
331
0
  5
15E1F
331
0
  5
15E20
331
0
  5
15E21
331
0
  5
15E22
331
0
  5
15E23
331
0
  5
15E24
331
0
  5
15E25
331
0
  5
15E26
331
0
  5
15E27
331
0
  5
15E28
331
0
  5
15E29
331
0
  5
15E2A
331
0
  5
15E2B
331
0
  5
15E2C
331
0
  5
15E2D
331
0
  5
15E2E
331
0
  5
15E2F
331
0
  5
15E30
331
0
  5
15E31
331
0
  5
15E32
331
0
  5
15E33
331
0
  5
15E34
331
0
  5
15E35
331
0
  5
15E36
331
0
  5
15E37
331
0
  5
15E38
331
0
  5
15E39
331
0
  5
15E3A
331
0
  5
15E3B
331
0
  5
15E3C
331
0
  5
15E3D
331
0
  5
15E3E
331
0
  5
15E3F
331
0
  5
15E40
331
0
  5
15E41
331
0
  5
15E42
331
0
  5
15E43
331
0
  5
15E44
331
0
  5
15E45
331
0
  5
15E46
331
0
  5
15E47
331
0
  5
15E48
331
0
  5
15E49
331
0
  5
15E4A
331
0
  5
15E4B
331
0
  5
15E4C
331
0
  5
15E4D
331
0
  5
15E4E
331
0
  5
15E4F
331
0
  5
15E50
331
0
  5
15E51
331
0
  5
15E52
331
0
  5
15E53
331
0
  5
15E54
331
0
  5
15E55
331
0
  5
15E56
331
0
  5
15E57
331
0
  5
15E58
331
0
  5
15E59
331
0
  5
15E5A
331
0
  5
15E5B
331
0
  5
15E5C
331
0
  5
15FCD
331
0
  5
15FCE
331
0
  5
15FCF
331
0
  5
15FD0
331
0
  5
15FD1
331
0
  5
15FD2
331
0
  5
15FD3
331
0
  5
15FD4
331
0
  5
15FD5
331
0
  5
15FD6
331
0
  5
15FD7
331
0
  5
15FD8
331
0
  5
15FD9
331
0
  5
15FDA
331
0
  5
15FDB
331
0
  5
15FDC
331
0
  5
15FDD
331
0
  5
15FDE
331
0
  5
15FDF
331
0
  5
15FE0
331
0
  5
15FE1
331
0
  5
15FE2
331
0
  5
15FE3
331
0
  5
15FE4
331
0
  5
15FE5
331
0
  5
15FE6
331
0
  5
15FE7
331
0
  5
15FE8
331
0
  5
15FE9
331
0
  5
15FEA
331
0
  5
15FEB
331
0
  5
15F8E
331
0
  5
15F8F
331
0
  5
15F90
331
0
  5
15F91
331
0
  5
15F92
331
0
  5
15F93
331
0
  5
15F94
331
0
  5
15F95
331
0
  5
15F96
331
0
  5
15F97
331
0
  5
15F98
331
0
  5
15F99
331
0
  5
15F9A
331
0
  5
15F9B
331
0
  5
15F9C
331
0
  5
15F9D
331
0
  5
15F9E
331
0
  5
15F9F
331
0
  5
15FA0
331
0
  5
15FA1
331
0
  5
15FA2
331
0
  5
15FA3
331
0
  5
15FA4
331
0
  5
15FA5
331
0
  5
15FA6
331
0
  5
15FA7
331
0
  5
15FA8
331
0
  5
15FA9
331
0
  5
15FAA
331
0
  5
15FAB
331
0
  5
15FAC
331
0
  5
15FAD
331
0
  5
15FAE
331
0
  5
15FAF
331
0
  5
15FB0
331
0
  5
15FB1
331
0
  5
15FB2
331
0
  5
15FB3
331
0
  5
15FB4
331
0
  5
15FB5
331
0
  5
15FB6
331
0
  5
15FB7
331
0
  5
15FB8
331
0
  5
15FB9
331
0
  5
15FBA
331
0
  5
15FBB
331
0
  5
15FBC
331
0
  5
15FBD
331
0
  5
15FBE
331
0
  5
15FBF
331
0
  5
15FC0
331
0
  5
15FC1
331
0
  5
15FC2
331
0
  5
15FC3
331
0
  5
15FC4
331
0
  5
15FC5
331
0
  5
15FC6
331
0
  5
15FC7
331
0
  5
15FC8
331
0
  5
15FC9
331
0
  5
15FCA
331
0
  5
15FCB
331
0
  5
15FCC
331
0
  5
15F51
331
0
  5
15F52
331
0
  5
15F53
331
0
  5
15F54
331
0
  5
15F55
331
0
  5
15F56
331
0
  5
15F57
331
0
  5
15F58
331
0
  5
15F59
331
0
  5
15F5A
331
0
  5
15F5B
331
0
  5
15F5C
331
0
  5
15F5D
331
0
  5
15F5E
331
0
  5
15F5F
331
0
  5
15F60
331
0
  5
15F61
331
0
  5
15F62
331
0
  5
15F63
331
0
  5
15F64
331
0
  5
15F65
331
0
  5
15F66
331
0
  5
15F67
331
0
  5
15F68
331
0
  5
15F69
331
0
  5
15F6A
331
0
  5
15F6B
331
0
  5
15F6C
331
0
  5
15F6D
331
0
  5
15F6E
331
0
  5
15F6F
331
0
  5
15F70
331
0
  5
15F71
331
0
  5
15F72
331
0
  5
15F73
331
0
  5
15F74
331
0
  5
15F75
331
0
  5
15F76
331
0
  5
15F77
331
0
  5
15F78
331
0
  5
15F79
331
0
  5
15F7A
331
0
  5
15F7B
331
0
  5
15F7C
331
0
  5
15F7D
331
0
  5
15F7E
331
0
  5
15F7F
331
0
  5
15F80
331
0
  5
15F81
331
0
  5
15F82
331
0
  5
15F83
331
0
  5
15F84
331
0
  5
15F85
331
0
  5
15F86
331
0
  5
15F87
331
0
  5
15F88
331
0
  5
15F89
331
0
  5
15F8A
331
0
  5
15F8B
331
0
  5
15F8C
331
0
  5
15F8D
331
0
  5
15F01
331
0
  5
15F02
331
0
  5
15F03
331
0
  5
15F04
331
0
  5
15F05
331
0
  5
15F06
331
0
  5
15F07
331
0
  5
15F08
331
0
  5
15F09
331
0
  5
15F0A
331
0
  5
15F0B
331
0
  5
15F0C
331
0
  5
15F0D
331
0
  5
15F0E
331
0
  5
15F0F
331
0
  5
15F10
331
0
  5
15F11
331
0
  5
15F12
331
0
  5
15F13
331
0
  5
15F14
331
0
  5
15F15
331
0
  5
15F16
331
0
  5
15F17
331
0
  5
15F18
331
0
  5
15F19
331
0
  5
15F1A
331
0
  5
15F1B
331
0
  5
15F1C
331
0
  5
15F1D
331
0
  5
15F1E
331
0
  5
15F1F
331
0
  5
15F20
331
0
  5
15F21
331
0
  5
15F22
331
0
  5
15F23
331
0
  5
15F24
331
0
  5
15F25
331
0
  5
15F26
331
0
  5
15F27
331
0
  5
15F28
331
0
  5
15F29
331
0
  5
15F2A
331
0
  5
15F2B
331
0
  5
15F2C
331
0
  5
15F2D
331
0
  5
15F2E
331
0
  5
15F2F
331
0
  5
15F30
331
0
  5
15F31
331
0
  5
15F32
331
0
  5
15F33
331
0
  5
15F34
331
0
  5
15F35
331
0
  5
15F36
331
0
  5
15F37
331
0
  5
15F38
331
0
  5
15F39
331
0
  5
15F3A
331
0
  5
15F3B
331
0
  5
15F3C
331
0
  5
15F3D
331
0
  5
15F3E
331
0
  5
15F3F
331
0
  5
15F40
331
0
  5
15F41
331
0
  5
15F42
331
0
  5
15F43
331
0
  5
15F44
331
0
  5
15F45
331
0
  5
15F46
331
0
  5
15F47
331
0
  5
15F48
331
0
  5
15F49
331
0
  5
15F4A
331
0
  5
15F4B
331
0
  5
15F4C
331
0
  5
15F4D
331
0
  5
15F4E
331
0
  5
15F4F
331
0
  5
15F50
331
0
  5
15EB0
331
0
  5
15EB1
331
0
  5
15EB2
331
0
  5
15EB3
331
0
  5
15EB4
331
0
  5
15EB5
331
0
  5
15EB6
331
0
  5
15EB7
331
0
  5
15EB8
331
0
  5
15EB9
331
0
  5
15EBA
331
0
  5
15EBB
331
0
  5
15EBC
331
0
  5
15EBD
331
0
  5
15EBE
331
0
  5
15EBF
331
0
  5
15EC0
331
0
  5
15EC1
331
0
  5
15EC2
331
0
  5
15EC3
331
0
  5
15EC4
331
0
  5
15EC5
331
0
  5
15EC6
331
0
  5
15EC7
331
0
  5
15EC8
331
0
  5
15EC9
331
0
  5
15ECA
331
0
  5
15ECB
331
0
  5
15ECC
331
0
  5
15ECD
331
0
  5
15ECE
331
0
  5
15ECF
331
0
  5
15ED0
331
0
  5
15ED1
331
0
  5
15ED2
331
0
  5
15ED3
331
0
  5
15ED4
331
0
  5
15ED5
331
0
  5
15ED6
331
0
  5
15ED7
331
0
  5
15ED8
331
0
  5
15ED9
331
0
  5
15EDA
331
0
  5
15EDB
331
0
  5
15EDC
331
0
  5
15EDD
331
0
  5
15EDE
331
0
  5
15EDF
331
0
  5
15EE0
331
0
  5
15EE1
331
0
  5
15EE2
331
0
  5
15EE3
331
0
  5
15EE4
331
0
  5
15EE5
331
0
  5
15EE6
331
0
  5
15EE7
331
0
  5
15EE8
331
0
  5
15EE9
331
0
  5
15EEA
331
0
  5
15EEB
331
0
  5
15EEC
331
0
  5
15EED
331
0
  5
15EEE
331
0
  5
15EEF
331
0
  5
15EF0
331
0
  5
15EF1
331
0
  5
15EF2
331
0
  5
15EF3
331
0
  5
15EF4
331
0
  5
15EF5
331
0
  5
15EF6
331
0
  5
15EF7
331
0
  5
15EF8
331
0
  5
15EF9
331
0
  5
15EFA
331
0
  5
15EFB
331
0
  5
15EFC
331
0
  5
15EFD
331
0
  5
15EFE
331
0
  5
15EFF
331
0
  5
15F00
331
0
  5
15E63
331
0
  5
15E64
331
0
  5
15E65
331
0
  5
15E66
331
0
  5
15E67
331
0
  5
15E68
331
0
  5
15E69
331
0
  5
15E6A
331
0
  5
15E6B
331
0
  5
15E6C
331
0
  5
15E6D
331
0
  5
15E6E
331
0
  5
15E6F
331
0
  5
15E70
331
0
  5
15E71
331
0
  5
15E72
331
0
  5
15E73
331
0
  5
15E74
331
0
  5
15E75
331
0
  5
15E76
331
0
  5
15E77
331
0
  5
15E78
331
0
  5
15E79
331
0
  5
15E7A
331
0
  5
15E7B
331
0
  5
15E7C
331
0
  5
15E7D
331
0
  5
15E7E
331
0
  5
15E7F
331
0
  5
15E80
331
0
  5
15E81
331
0
  5
15E82
331
0
  5
15E83
331
0
  5
15E84
331
0
  5
15E85
331
0
  5
15E86
331
0
  5
15E87
331
0
  5
15E88
331
0
  5
15E89
331
0
  5
15E8A
331
0
  5
15E8B
331
0
  5
15E8C
331
0
  5
15E8D
331
0
  5
15E8E
331
0
  5
15E8F
331
0
  5
15E90
331
0
  5
15E91
331
0
  5
15E92
331
0
  5
15E93
331
0
  5
15E94
331
0
  5
15E95
331
0
  5
15E96
331
0
  5
15E97
331
0
  5
15E98
331
0
  5
15E99
331
0
  5
15E9A
331
0
  5
15E9B
331
0
  5
15E9C
331
0
  5
15E9D
331
0
  5
15E9E
331
0
  5
15E9F
331
0
  5
15EA0
331
0
  5
15EA1
331
0
  5
15EA2
331
0
  5
15EA3
331
0
  5
15EA4
331
0
  5
15EA5
331
0
  5
15EA6
331
0
  5
15EA7
331
0
  5
15EA8
331
0
  5
15EA9
331
0
  5
15EAA
331
0
  5
15EAB
331
0
  5
15EAC
331
0
  5
15EAD
331
0
  5
15EAE
331
0
  5
15EAF
  0
GROUP
  5
1AAC3
102
{ACAD_REACTORS
330
D
102
}
330
D
100
AcDbGroup
300

 70
     1
 71
     1
340
1AABF
340
1AABE
340
1AABD
340
1AABC
340
1AABB
340
1AABA
340
1AAB9
340
1AAB8
340
1AAB7
340
1AAB6
340
1AAB5
340
1AAB4
340
1AAB3
340
1AAB2
340
1AAB1
340
1AAB0
340
1AAAF
340
1AAAE
340
1AAAD
340
1AAAC
340
1AAAB
340
1AAAA
340
1AAA9
340
1AAA8
340
1AAA7
340
1AAA6
340
1AAA5
340
1AAA4
340
1AAA3
340
1AAA2
340
1AAA1
340
1AAA0
340
1AA9F
340
1AA9E
340
1AA9D
340
1AA9C
340
1AA9B
340
1AA9A
340
1AA99
340
1AA98
340
1AA97
340
1AA96
340
1AA95
340
1AA94
340
1AA93
340
1AA92
340
1AA91
340
1AA90
340
1AA8F
340
1AA8E
340
1AA8D
340
1AA8C
340
1AA8B
340
1AA8A
340
1AA89
340
1AA88
340
1AA87
340
1AA86
340
1AA85
340
1AA84
340
1AA83
340
1AA82
340
1AA81
340
1AA80
340
1AA7F
340
1AA7E
340
1AA7D
340
1AA7C
340
1AA7B
340
1AA7A
340
1AA79
340
1AA78
340
1AA77
340
1AA76
340
1AA75
340
1AA74
340
1AA73
340
1AA72
340
1AA71
340
1AA70
340
1AA6F
340
1AA6E
340
1AA6D
340
1AA6C
340
1AA6B
340
1AA6A
340
1AA69
340
1AA68
340
1AA67
340
1AA66
340
1AA65
340
1AA64
340
1AA63
340
1AA62
340
1AA61
340
1AA60
340
1AA5F
340
1AA5E
340
1AA5D
340
1AA5C
340
1AA5B
340
1AA5A
340
1AA59
340
1AA58
340
1AA57
340
1AA56
340
1AA55
340
1AA54
340
1AA53
340
1AA52
340
1AA51
340
1AA50
340
1AA4F
340
1AA4E
340
1AA4D
340
1AA4C
340
1AA4B
340
1AA4A
340
1AA49
340
1AA48
340
1AA47
340
1AA46
340
1AA45
  0
GROUP
  5
1A15C
102
{ACAD_REACTORS
330
D
102
}
330
D
100
AcDbGroup
300

 70
     1
 71
     1
340
1A15B
340
1A15A
340
1A159
340
1A158
340
1A157
340
1A156
340
1A155
340
1A154
340
1A153
340
1A152
340
1A151
340
1A150
340
1A14F
340
1A14E
340
1A14D
340
1A14C
340
1A14B
340
1A14A
340
1A149
340
1A148
340
1A147
340
1A146
340
1A145
340
1A144
340
1A143
340
1A142
340
1A141
340
1A140
340
1A13F
340
1A13E
340
1A13D
340
1A13C
340
1A13B
340
1A13A
340
1A139
340
1A138
340
1A137
340
1A136
340
1A135
340
1A134
340
1A133
340
1A132
340
1A131
340
1A130
340
1A12F
340
1A12E
340
1A12D
340
1A12C
340
1A12B
340
1A12A
340
1A129
340
1A128
340
1A127
340
1A126
340
1A125
340
1A124
340
1A123
340
1A122
340
1A121
340
1A120
340
1A11F
340
1A11E
340
1A11D
340
1A11C
  0
GROUP
  5
1A11B
102
{ACAD_REACTORS
330
D
102
}
330
D
100
AcDbGroup
300

 70
     1
 71
     1
340
19344
340
19343
340
19342
340
19341
340
19340
340
1933F
340
1933E
340
1933D
340
1933C
340
1933B
340
1933A
340
19339
340
19338
340
19337
340
19336
340
19335
340
19334
340
19333
340
19332
340
19331
340
19330
340
1932F
340
1932E
340
1932D
340
1932C
340
1932B
340
1932A
340
19329
340
19328
340
19327
340
19326
340
19325
340
19324
340
19323
340
19322
340
19321
340
19320
340
1931F
340
1931E
340
1931D
340
1931C
340
1931B
340
1931A
340
19319
340
19318
340
19317
340
19316
340
19315
340
19314
340
19313
340
19312
340
19311
340
19310
340
1930F
340
1930E
340
1930D
340
1930C
340
1930B
340
1930A
340
19309
340
19308
340
19307
340
19306
340
19305
  0
GROUP
  5
1A263
102
{ACAD_REACTORS
330
D
102
}
330
D
100
AcDbGroup
300

 70
     1
 71
     1
340
1A21C
340
1A21B
340
1A21A
340
1A219
340
1A218
340
1A217
340
1A216
340
1A215
340
1A214
340
1A213
340
1A212
340
1A211
340
1A210
340
1A20F
340
1A20E
340
1A20D
340
1A20C
340
1A20B
340
1A20A
340
1A209
340
1A208
340
1A207
340
1A206
340
1A205
340
1A204
340
1A203
340
1A202
340
1A201
340
1A200
340
1A1FF
340
1A1FE
340
1A1FD
340
1A1FC
340
1A1FB
340
1A1FA
340
1A1F9
340
1A1F8
340
1A1F7
340
1A1F6
340
1A1F5
340
1A1F4
340
1A1F3
340
1A1F2
340
1A1F1
340
1A1F0
340
1A1EF
340
1A1EE
340
1A1ED
340
1A1EC
340
1A1EB
340
1A1EA
340
1A1E9
340
1A1E8
340
1A1E7
340
1A1E6
340
1A1E5
340
1A1E4
340
1A1E3
340
1A1E2
340
1A1E1
340
1A1E0
340
1A1DF
340
1A1DE
340
1A1DD
340
1A1DC
340
1A1DB
340
1A1DA
340
1A1D9
340
1A1D8
340
1A1D7
  0
GROUP
  5
1A264
102
{ACAD_REACTORS
330
D
102
}
330
D
100
AcDbGroup
300

 70
     1
 71
     1
340
1A21E
340
1A248
340
1A246
340
1A245
340
1A244
340
1A243
340
1A242
340
1A241
340
1A240
340
1A23F
340
1A23E
340
1A23D
340
1A23C
340
1A23B
340
1A23A
340
1A239
340
1A238
340
1A237
340
1A236
340
1A235
340
1A234
340
1A233
340
1A232
340
1A231
340
1A230
340
1A22F
340
1A22E
340
1A22D
340
1A22C
340
1A22B
340
1A22A
340
1A229
340
1A228
340
1A227
340
1A226
340
1A225
340
1A224
340
1A223
340
1A220
340
1A262
340
1A261
340
1A260
340
1A25F
340
1A25E
340
1A25D
340
1A25C
340
1A25B
340
1A25A
340
1A259
340
1A258
340
1A257
340
1A256
340
1A255
340
1A254
340
1A253
340
1A252
340
1A251
340
1A250
340
1A24F
340
1A24E
340
1A24D
340
1A24C
340
1A24B
340
1A24A
340
1A249
340
1A247
340
1A222
340
1A221
340
1A21F
340
1A21D
  0
MATERIAL
  5
15B55
102
{ACAD_REACTORS
330
2CF
102
}
102
{ACAD_XDICTIONARY
360
1CCD2
102
}
330
2CF
100
AcDbMaterial
  1
BYBLOCK
 72
     0
 73
     2
 43
0.0208333333333333
 43
0.0
 43
0.0
 43
0.0
 43
0.0
 43
0.0208333333333333
 43
0.0
 43
0.0
 43
0.0
 43
0.0
 43
1.0
 43
0.0
 43
0.0
 43
0.0
 43
0.0
 43
1.0
 77
     0
 78
     2
 47
0.0208333333333333
 47
0.0
 47
0.0
 47
0.0
 47
0.0
 47
0.0208333333333333
 47
0.0
 47
0.0
 47
0.0
 47
0.0
 47
1.0
 47
0.0
 47
0.0
 47
0.0
 47
0.0
 47
1.0
171
     0
172
     2
 49
0.0208333333333333
 49
0.0
 49
0.0
 49
0.0
 49
0.0
 49
0.0208333333333333
 49
0.0
 49
0.0
 49
0.0
 49
0.0
 49
1.0
 49
0.0
 49
0.0
 49
0.0
 49
0.0
 49
1.0
175
     0
176
     2
142
0.0208333333333333
142
0.0
142
0.0
142
0.0
142
0.0
142
0.0208333333333333
142
0.0
142
0.0
142
0.0
142
0.0
142
1.0
142
0.0
142
0.0
142
0.0
142
0.0
142
1.0
179
     0
270
     2
144
0.0208333333333333
144
0.0
144
0.0
144
0.0
144
0.0
144
0.0208333333333333
144
0.0
144
0.0
144
0.0
144
0.0
144
1.0
144
0.0
144
0.0
144
0.0
144
0.0
144
1.0
274
     2
147
0.0208333333333333
147
0.0
147
0.0
147
0.0
147
0.0
147
0.0208333333333333
147
0.0
147
0.0
147
0.0
147
0.0
147
1.0
147
0.0
147
0.0
147
0.0
147
0.0
147
1.0
  0
MATERIAL
  5
15B4D
102
{ACAD_REACTORS
330
2CF
102
}
102
{ACAD_XDICTIONARY
360
1CCD4
102
}
330
2CF
100
AcDbMaterial
  1
BYLAYER
 72
     0
 73
     2
 43
0.0208333333333333
 43
0.0
 43
0.0
 43
0.0
 43
0.0
 43
0.0208333333333333
 43
0.0
 43
0.0
 43
0.0
 43
0.0
 43
1.0
 43
0.0
 43
0.0
 43
0.0
 43
0.0
 43
1.0
 77
     0
 78
     2
 47
0.0208333333333333
 47
0.0
 47
0.0
 47
0.0
 47
0.0
 47
0.0208333333333333
 47
0.0
 47
0.0
 47
0.0
 47
0.0
 47
1.0
 47
0.0
 47
0.0
 47
0.0
 47
0.0
 47
1.0
171
     0
172
     2
 49
0.0208333333333333
 49
0.0
 49
0.0
 49
0.0
 49
0.0
 49
0.0208333333333333
 49
0.0
 49
0.0
 49
0.0
 49
0.0
 49
1.0
 49
0.0
 49
0.0
 49
0.0
 49
0.0
 49
1.0
175
     0
176
     2
142
0.0208333333333333
142
0.0
142
0.0
142
0.0
142
0.0
142
0.0208333333333333
142
0.0
142
0.0
142
0.0
142
0.0
142
1.0
142
0.0
142
0.0
142
0.0
142
0.0
142
1.0
179
     0
270
     2
144
0.0208333333333333
144
0.0
144
0.0
144
0.0
144
0.0
144
0.0208333333333333
144
0.0
144
0.0
144
0.0
144
0.0
144
1.0
144
0.0
144
0.0
144
0.0
144
0.0
144
1.0
274
     2
147
0.0208333333333333
147
0.0
147
0.0
147
0.0
147
0.0
147
0.0208333333333333
147
0.0
147
0.0
147
0.0
147
0.0
147
1.0
147
0.0
147
0.0
147
0.0
147
0.0
147
1.0
  0
MATERIAL
  5
15B5D
102
{ACAD_REACTORS
330
2CF
102
}
102
{ACAD_XDICTIONARY
360
1CCD6
102
}
330
2CF
100
AcDbMaterial
  1
GLOBAL
 72
     0
 73
     2
 43
0.0208333333333333
 43
0.0
 43
0.0
 43
0.0
 43
0.0
 43
0.0208333333333333
 43
0.0
 43
0.0
 43
0.0
 43
0.0
 43
1.0
 43
0.0
 43
0.0
 43
0.0
 43
0.0
 43
1.0
 77
     0
 78
     2
 47
0.0208333333333333
 47
0.0
 47
0.0
 47
0.0
 47
0.0
 47
0.0208333333333333
 47
0.0
 47
0.0
 47
0.0
 47
0.0
 47
1.0
 47
0.0
 47
0.0
 47
0.0
 47
0.0
 47
1.0
171
     0
172
     2
 49
0.0208333333333333
 49
0.0
 49
0.0
 49
0.0
 49
0.0
 49
0.0208333333333333
 49
0.0
 49
0.0
 49
0.0
 49
0.0
 49
1.0
 49
0.0
 49
0.0
 49
0.0
 49
0.0
 49
1.0
175
     0
176
     2
142
0.0208333333333333
142
0.0
142
0.0
142
0.0
142
0.0
142
0.0208333333333333
142
0.0
142
0.0
142
0.0
142
0.0
142
1.0
142
0.0
142
0.0
142
0.0
142
0.0
142
1.0
179
     0
270
     2
144
0.0208333333333333
144
0.0
144
0.0
144
0.0
144
0.0
144
0.0208333333333333
144
0.0
144
0.0
144
0.0
144
0.0
144
1.0
144
0.0
144
0.0
144
0.0
144
0.0
144
1.0
274
     2
147
0.0208333333333333
147
0.0
147
0.0
147
0.0
147
0.0
147
0.0208333333333333
147
0.0
147
0.0
147
0.0
147
0.0
147
1.0
147
0.0
147
0.0
147
0.0
147
0.0
147
1.0
  0
ACAD_PROXY_OBJECT
  5
15B99
102
{ACAD_REACTORS
330
15B98
102
}
330
15B98
100
AcDbZombieObject
 90
      499
 91
      512
 93
      610
310
40901902A4063FBFFFFFE000000000000002040AD7A3703D0AD73F4214DD185B99185C990000000000000104090141901A00000000000004100000000000000041025764000000000000300FC0
340
12
340
0
340
F
340
0
 94
        0
1001
ACAD_MLEADERVER
1070
     2
  0
MLINESTYLE
  5
1C
102
{ACAD_REACTORS
330
1B
102
}
330
1B
100
AcDbMlineStyle
  2
STANDARD
 70
     0
  3

 62
   256
 51
90.0
 52
90.0
 71
     2
 49
0.5
 62
   256
  6
BYLAYER
 49
-0.5
 62
   256
  6
BYLAYER
  0
ACAD_PROXY_OBJECT
  5
15B77
102
{ACAD_REACTORS
330
15B76
102
}
330
15B76
100
AcDbZombieObject
 90
      499
 91
      511
 93
       41
310
903313A31580
  0
ACAD_PROXY_OBJECT
  5
15B78
102
{ACAD_REACTORS
330
15B76
102
}
330
15B76
100
AcDbZombieObject
 90
      499
 91
      511
 93
      105
310
903313A324000000000000004000
  0
ACAD_PROXY_OBJECT
  5
15B79
102
{ACAD_REACTORS
330
15B76
102
}
330
15B76
100
AcDbZombieObject
 90
      499
 91
      511
 93
      105
310
903313A344000000000000104000
  0
ACAD_PROXY_OBJECT
  5
15B7A
102
{ACAD_REACTORS
330
15B76
102
}
330
15B76
100
AcDbZombieObject
 90
      499
 91
      511
 93
      105
310
903313A354000000000000144000
  0
ACAD_PROXY_OBJECT
  5
15B7B
102
{ACAD_REACTORS
330
15B76
102
}
330
15B76
100
AcDbZombieObject
 90
      499
 91
      511
 93
      105
310
903313A384000000000000204000
  0
ACAD_PROXY_OBJECT
  5
15B7C
102
{ACAD_REACTORS
330
15B76
102
}
330
15B76
100
AcDbZombieObject
 90
      499
 91
      511
 93
      113
310
904313A31304000000000000244000
  0
ACAD_PROXY_OBJECT
  5
15B7D
102
{ACAD_REACTORS
330
15B76
102
}
330
15B76
100
AcDbZombieObject
 90
      499
 91
      511
 93
      113
310
904313A31364000000000000304000
  0
ACAD_PROXY_OBJECT
  5
15B7E
102
{ACAD_REACTORS
330
15B76
102
}
330
15B76
100
AcDbZombieObject
 90
      499
 91
      511
 93
      113
310
904313A32304000000000000344000
  0
ACAD_PROXY_OBJECT
  5
15B7F
102
{ACAD_REACTORS
330
15B76
102
}
330
15B76
100
AcDbZombieObject
 90
      499
 91
      511
 93
      113
310
904313A333040000000000003E4000
  0
ACAD_PROXY_OBJECT
  5
15B80
102
{ACAD_REACTORS
330
15B76
102
}
330
15B76
100
AcDbZombieObject
 90
      499
 91
      511
 93
      113
310
904313A34304000000000000444000
  0
ACAD_PROXY_OBJECT
  5
15B81
102
{ACAD_REACTORS
330
15B76
102
}
330
15B76
100
AcDbZombieObject
 90
      499
 91
      511
 93
      113
310
904313A35304000000000000494000
  0
ACAD_PROXY_OBJECT
  5
15B82
102
{ACAD_REACTORS
330
15B76
102
}
330
15B76
100
AcDbZombieObject
 90
      499
 91
      511
 93
      121
310
905313A3130304000000000000594000
  0
ACAD_PROXY_OBJECT
  5
15B83
102
{ACAD_REACTORS
330
15B76
102
}
330
15B76
100
AcDbZombieObject
 90
      499
 91
      511
 93
      105
310
903323A310000000000000010100
  0
ACAD_PROXY_OBJECT
  5
15B84
102
{ACAD_REACTORS
330
15B76
102
}
330
15B76
100
AcDbZombieObject
 90
      499
 91
      511
 93
      105
310
903343A310000000000000410100
  0
ACAD_PROXY_OBJECT
  5
15B85
102
{ACAD_REACTORS
330
15B76
102
}
330
15B76
100
AcDbZombieObject
 90
      499
 91
      511
 93
      105
310
903383A310000000000000810100
  0
ACAD_PROXY_OBJECT
  5
15B86
102
{ACAD_REACTORS
330
15B76
102
}
330
15B76
100
AcDbZombieObject
 90
      499
 91
      511
 93
      113
310
90431303A310000000000000910100
  0
ACAD_PROXY_OBJECT
  5
15B87
102
{ACAD_REACTORS
330
15B76
102
}
330
15B76
100
AcDbZombieObject
 90
      499
 91
      511
 93
      121
310
9053130303A310000000000001650100
  0
ACAD_PROXY_OBJECT
  5
15B88
102
{ACAD_REACTORS
330
15B76
102
}
330
15B76
100
AcDbZombieObject
 90
      499
 91
      511
 93
      257
310
90E312F31323822203D2031272D3022000000000000200FC000000000000284000
  0
ACAD_PROXY_OBJECT
  5
15B89
102
{ACAD_REACTORS
330
15B76
102
}
330
15B76
100
AcDbZombieObject
 90
      499
 91
      511
 93
      249
310
90D312F363422203D2031272D3022000000000000240FC000000000000284000
  0
ACAD_PROXY_OBJECT
  5
15B8A
102
{ACAD_REACTORS
330
15B76
102
}
330
15B76
100
AcDbZombieObject
 90
      499
 91
      511
 93
      249
310
90D312F333222203D2031272D3022000000000000280FC000000000000284000
  0
ACAD_PROXY_OBJECT
  5
15B8B
102
{ACAD_REACTORS
330
15B76
102
}
330
15B76
100
AcDbZombieObject
 90
      499
 91
      511
 93
      249
310
90D312F313622203D2031272D30220000000000002C0FC000000000000284000
  0
ACAD_PROXY_OBJECT
  5
15B8C
102
{ACAD_REACTORS
330
15B76
102
}
330
15B76
100
AcDbZombieObject
 90
      499
 91
      511
 93
      249
310
90D332F333222203D2031272D30220000000000002E0FC000000000000284000
  0
ACAD_PROXY_OBJECT
  5
15B8D
102
{ACAD_REACTORS
330
15B76
102
}
330
15B76
100
AcDbZombieObject
 90
      499
 91
      511
 93
      241
310
90C312F3822203D2031272D3022000000000000300FC000000000000284000
  0
ACAD_PROXY_OBJECT
  5
15B8E
102
{ACAD_REACTORS
330
15B76
102
}
330
15B76
100
AcDbZombieObject
 90
      499
 91
      511
 93
      249
310
90D332F313622203D2031272D3022000000000000320FC000000000000284000
  0
ACAD_PROXY_OBJECT
  5
15B8F
102
{ACAD_REACTORS
330
15B76
102
}
330
15B76
100
AcDbZombieObject
 90
      499
 91
      511
 93
      241
310
90C312F3422203D2031272D3022000000000000340FC000000000000284000
  0
ACAD_PROXY_OBJECT
  5
15B90
102
{ACAD_REACTORS
330
15B76
102
}
330
15B76
100
AcDbZombieObject
 90
      499
 91
      511
 93
      241
310
90C332F3822203D2031272D3022000000000000360FC000000000000284000
  0
ACAD_PROXY_OBJECT
  5
15B91
102
{ACAD_REACTORS
330
15B76
102
}
330
15B76
100
AcDbZombieObject
 90
      499
 91
      511
 93
      241
310
90C312F3222203D2031272D3022000000000000380FC000000000000284000
  0
ACAD_PROXY_OBJECT
  5
15B92
102
{ACAD_REACTORS
330
15B76
102
}
330
15B76
100
AcDbZombieObject
 90
      499
 91
      511
 93
      241
310
90C332F3422203D2031272D30220000000000003A0FC000000000000284000
  0
ACAD_PROXY_OBJECT
  5
15B93
102
{ACAD_REACTORS
330
15B76
102
}
330
15B76
100
AcDbZombieObject
 90
      499
 91
      511
 93
      161
310
90A3122203D2031272D30224000000000000284000
  0
ACAD_PROXY_OBJECT
  5
15B94
102
{ACAD_REACTORS
330
15B76
102
}
330
15B76
100
AcDbZombieObject
 90
      499
 91
      511
 93
      257
310
90E312D312F3222203D2031272D30220000000000003E0FC000000000000284000
  0
ACAD_PROXY_OBJECT
  5
15B95
102
{ACAD_REACTORS
330
15B76
102
}
330
15B76
100
AcDbZombieObject
 90
      499
 91
      511
 93
      225
310
90A3322203D2031272D302200000000000002100000000000000284000
  0
ACAD_PROXY_OBJECT
  5
15B96
102
{ACAD_REACTORS
330
15B76
102
}
330
15B76
100
AcDbZombieObject
 90
      499
 91
      511
 93
      225
310
90A3622203D2031272D302200000000000006100000000000000284000
  0
ACAD_PROXY_OBJECT
  5
15B97
102
{ACAD_REACTORS
330
15B76
102
}
330
15B76
100
AcDbZombieObject
 90
      499
 91
      511
 93
      249
310
90D31272D3022203D2031272D30220000000000000A100000000000000284000
  0
ACAD_PROXY_OBJECT
  5
15B6B
102
{ACAD_REACTORS
330
15B65
102
}
330
15B65
100
AcDbZombieObject
 90
      499
 91
      510
 93
      436
310
42CC9915DA5C99599C985B595049028333333333333E3BF0000000000000FB0107901411070040501600405405064090741402480A0340
1001
ACAD
1000
AcDbSavedByObjectVersion
1070
     0
  0
ACAD_PROXY_OBJECT
  5
15B6D
102
{ACAD_REACTORS
330
15B65
102
}
330
15B65
100
AcDbZombieObject
 90
      499
 91
      510
 93
      500
310
424CD108121A5919195B90640502408333333333333E3BF0000000000000FB01079024090700405020000000000001110200405405064090740C02480A0340
1001
ACAD
1000
AcDbSavedByObjectVersion
1070
     0
  0
ACAD_PROXY_OBJECT
  5
15B6C
102
{ACAD_REACTORS
330
15B65
102
}
330
15B65
100
AcDbZombieObject
 90
      499
 91
      510
 93
      436
310
42CCD915DA5C99599C985B595059028333333333333E3BF0000000000000FB0107901411070040501600405405064090741402480A0340
1001
ACAD
1000
AcDbSavedByObjectVersion
1070
     0
  0
ACAD_PROXY_OBJECT
  5
15B6A
102
{ACAD_REACTORS
330
15B65
102
}
330
15B65
100
AcDbZombieObject
 90
      499
 91
      510
 93
      388
310
4150985CDA58D07406404333333333333E3BF0000000000000FB0107A41107004050150841D405064090741402480A0350
1001
ACAD
1000
AcDbSavedByObjectVersion
1070
     0
  0
ACAD_PROXY_OBJECT
  5
15B71
102
{ACAD_REACTORS
330
15B65
102
}
330
15B65
100
AcDbZombieObject
 90
      499
 91
      510
 93
      428
310
42109C9A59DA1D195B90C409028333333333333E3BF0000000000000FB010790141107004050150841D405064090741402480A029950
1001
ACAD
1000
AcDbSavedByObjectVersion
1070
     0
  0
ACAD_PROXY_OBJECT
  5
15B75
102
{ACAD_REACTORS
330
15B65
102
}
330
15B65
100
AcDbZombieObject
 90
      499
 91
      510
 93
      452
310
42D0DBDB1BDC90DA185B99D95104090240C333333333333E3BF0000000000000FB0108901411070040501508421405064090741402480A0350
1001
ACAD
1000
AcDbSavedByObjectVersion
1070
     0
  0
ACAD_PROXY_OBJECT
  5
15B6E
102
{ACAD_REACTORS
330
15B65
102
}
330
15B65
100
AcDbZombieObject
 90
      499
 91
      510
 93
      500
310
4290DBDB98D95C1D1D585B10940D028333333333333E3BF0000000000000FB0107902409070040501000000000000111010841D405064090740C02480A0340
1001
ACAD
1000
AcDbSavedByObjectVersion
1070
     0
  0
ACAD_PROXY_OBJECT
  5
15B70
102
{ACAD_REACTORS
330
15B65
102
}
330
15B65
100
AcDbZombieObject
 90
      499
 91
      510
 93
      412
310
40D11A5B50B409028333333333333E3BF0000000000000FB010790141107004050150841D405064090741402480A02677FFFFFD0
1001
ACAD
1000
AcDbSavedByObjectVersion
1070
     0
  0
ACAD_PROXY_OBJECT
  5
174DB
102
{ACAD_REACTORS
330
15B65
102
}
330
15B65
100
AcDbZombieObject
 90
      499
 91
      510
 93
      452
310
43115919D950DBDB1BDC93D999916409028333333333333E3BF0000000000000FB010790141107004050150841D405064090741402480A0350
1001
ACAD
1000
AcDbSavedByObjectVersion
1070
     0
  0
ACAD_PROXY_OBJECT
  5
15B74
102
{ACAD_REACTORS
330
15B65
102
}
330
15B65
100
AcDbZombieObject
 90
      499
 91
      510
 93
      444
310
42D19858D95C185D1D195C9B90F409028333333333333E3BF0000000000000FB010790141107004050150841D405064090741402480A0350
1001
ACAD
1000
AcDbSavedByObjectVersion
1070
     0
  0
ACAD_PROXY_OBJECT
  5
15B66
102
{ACAD_REACTORS
330
15B65
102
}
330
15B65
100
AcDbZombieObject
 90
      499
 91
      510
 93
      388
310
41119B185D240901404333333333333E3BF0000000000000F9010740A41107004050150841D405064090741402480A1B50
1001
ACAD
1000
AcDbSavedByObjectVersion
1070
     0
  0
ACAD_PROXY_OBJECT
  5
15B67
102
{ACAD_REACTORS
330
15B65
102
}
330
15B65
100
AcDbZombieObject
 90
      499
 91
      510
 93
      476
310
43519B185D15DA5D1A115919D95CD0140901404333333333333E3BF0000000000000F9010740901411070040501600405405064090741402480A1B50
1001
ACAD
1000
AcDbSavedByObjectVersion
1070
     0
  0
ACAD_PROXY_OBJECT
  5
15B68
102
{ACAD_REACTORS
330
15B65
102
}
330
15B65
100
AcDbZombieObject
 90
      499
 91
      510
 93
      412
310
41D1DBDD5C985D5910240902404333333333333E3BF0000000000000F9010740A411070040501641D405064090741402480A1B50
1001
ACAD
1000
AcDbSavedByObjectVersion
1070
     0
  0
ACAD_PROXY_OBJECT
  5
15B69
102
{ACAD_REACTORS
330
15B65
102
}
330
15B65
100
AcDbZombieObject
 90
      499
 91
      510
 93
      500
310
4411DBDD5C985D5915DA5D1A115919D95CD0340902404333333333333E3BF0000000000000F9010740901411070040501600405405064090741402480A1B50
1001
ACAD
1000
AcDbSavedByObjectVersion
1070
     0
  0
ACAD_PROXY_OBJECT
  5
1BB41
102
{ACAD_REACTORS
330
15B65
102
}
330
15B65
100
AcDbZombieObject
 90
      499
 91
      510
 93
      476
310
41921A5919195B90640502408333333333333E33F0000000000000F901079024090700405020000000000001110200405405064090740C02480A0340
1001
ACAD
1000
AcDbSavedByObjectVersion
1070
     0
  0
ACAD_PROXY_OBJECT
  5
174D9
102
{ACAD_REACTORS
330
15B65
102
}
330
15B65
100
AcDbZombieObject
 90
      499
 91
      510
 93
      428
310
42529A5D1D195C93D999914409028333333333333E3BF0000000000000FB010790141107004050150A41D405064090741402480A0350
1001
ACAD
1000
AcDbSavedByObjectVersion
1070
     0
  0
ACAD_PROXY_OBJECT
  5
15B73
102
{ACAD_REACTORS
330
15B65
102
}
330
15B65
100
AcDbZombieObject
 90
      499
 91
      510
 93
      444
310
42D31A5B995C185D1D195C9B90E409028333333333333E3BF0000000000000FB010790141107004050750841D405064090741402483A0350
1001
ACAD
1000
AcDbSavedByObjectVersion
1070
     0
  0
ACAD_PROXY_OBJECT
  5
1BB47
102
{ACAD_REACTORS
330
15B65
102
}
330
15B65
100
AcDbZombieObject
 90
      499
 91
      510
 93
      484
310
42135BD9195B1A5B99D0A409038333333333333E33F0000000000000F901074090290700405010000000000201990108421405064090741402480A1B40
1001
ACAD
1000
AcDbSavedByObjectVersion
1070
     0
  0
ACAD_PROXY_OBJECT
  5
174DA
102
{ACAD_REACTORS
330
15B65
102
}
330
15B65
100
AcDbZombieObject
 90
      499
 91
      510
 93
      444
310
42D3DD995C9A185B99D3D999915409028333333333333E3BF0000000000000FB010790141107004050150941D405064090741402480A0350
1001
ACAD
1000
AcDbSavedByObjectVersion
1070
     0
  0
ACAD_PROXY_OBJECT
  5
15B6F
102
{ACAD_REACTORS
330
15B65
102
}
330
15B65
100
AcDbZombieObject
 90
      499
 91
      510
 93
      420
310
425499585B1A5CDD1A58D08409028333333333333E3BF0000000000000FB01079019070040501508421405064090741402480A1B40
1001
ACAD
1000
AcDbSavedByObjectVersion
1070
     0
  0
ACAD_PROXY_OBJECT
  5
1BB46
102
{ACAD_REACTORS
330
15B65
102
}
330
15B65
100
AcDbZombieObject
 90
      499
 91
      510
 93
      420
310
4194DA1859195911B40902404333333333333E33F0000000000000F9010740A41107004050150800405405064090840C02480A0B40
1001
ACAD
1000
AcDbSavedByObjectVersion
1070
     0
  0
ACAD_PROXY_OBJECT
  5
1BB45
102
{ACAD_REACTORS
330
15B65
102
}
330
15B65
100
AcDbZombieObject
 90
      499
 91
      510
 93
      516
310
4454DA18591959081DDA5D1A08195919D95CD1A40902404333333333333E33F0000000000000F901074090142907004050250800405405064090740C02480A0B40
1001
ACAD
1000
AcDbSavedByObjectVersion
1070
     0
  0
ACAD_PROXY_OBJECT
  5
1BB42
102
{ACAD_REACTORS
330
15B65
102
}
330
15B65
100
AcDbZombieObject
 90
      499
 91
      510
 93
      532
310
4394DA1859195CC81BD98811DC985E5174090240C333333333333E33F0000000000000F901079024090741D01000000000000111010841D405064090740C02480A0340
1001
ACAD
1000
AcDbSavedByObjectVersion
1070
     0
  0
ACAD_PROXY_OBJECT
  5
1BB43
102
{ACAD_REACTORS
330
15B65
102
}
330
15B65
100
AcDbZombieObject
 90
      499
 91
      510
 93
      476
310
41D4DAD95D18DA1E51840502408333333333333E33F0000000000000F901079024090741D01000000000000111010B41D405064090741802480A0340
1001
ACAD
1000
AcDbSavedByObjectVersion
1070
     0
  0
ACAD_PROXY_OBJECT
  5
15B72
102
{ACAD_REACTORS
330
15B65
102
}
330
15B65
100
AcDbZombieObject
 90
      499
 91
      510
 93
      412
310
41D51A1A58DAD95B90D409028333333333333E3BF0000000000000FB010790141107004050150C41D405064090741402480A0350
1001
ACAD
1000
AcDbSavedByObjectVersion
1070
     0
  0
ACAD_PROXY_OBJECT
  5
1BB40
102
{ACAD_REACTORS
330
15B65
102
}
330
15B65
100
AcDbZombieObject
 90
      499
 91
      510
 93
      420
310
4255DA5C99599C985B595059028333333333333E33F0000000000000F90107901411070040501600405405064090740C02480A0340
1001
ACAD
1000
AcDbSavedByObjectVersion
1070
     0
  0
ACAD_PROXY_OBJECT
  5
1BB44
102
{ACAD_REACTORS
330
15B65
102
}
330
15B65
100
AcDbZombieObject
 90
      499
 91
      510
 93
      404
310
41560B54985E51940902404000000000000E03F0000000000000F9010740501907004050150841D405064090740C02480A1B40
1001
ACAD
1000
AcDbSavedByObjectVersion
1070
     0
  0
XRECORD
  5
1CCCF
102
{ACAD_REACTORS
330
1CCCE
102
}
330
1CCCE
100
AcDbXrecord
340
2D0
  0
XRECORD
  5
1CCD0
102
{ACAD_REACTORS
330
1CCCE
102
}
330
1CCCE
100
AcDbXrecord
340
2CF
  0
DICTIONARYVAR
  5
1BBC8
102
{ACAD_REACTORS
330
37
102
}
330
37
100
DictionaryVariables
280
     0
  1
1:1
  0
DICTIONARYVAR
  5
15C4B
102
{ACAD_REACTORS
330
37
102
}
330
37
100
DictionaryVariables
280
     0
  1
Standard
  0
DICTIONARYVAR
  5
4F1
102
{ACAD_REACTORS
330
37
102
}
330
37
100
DictionaryVariables
280
     0
  1
Standard
  0
DICTIONARYVAR
  5
38
102
{ACAD_REACTORS
330
37
102
}
330
37
100
DictionaryVariables
280
     0
  1
-1
  0
DICTIONARYVAR
  5
408
102
{ACAD_REACTORS
330
37
102
}
330
37
100
DictionaryVariables
280
     0
  1
2
  0
DICTIONARYVAR
  5
1891
102
{ACAD_REACTORS
330
37
102
}
330
37
100
DictionaryVariables
280
     0
  1
1
  0
DICTIONARYVAR
  5
15C4E
102
{ACAD_REACTORS
330
37
102
}
330
37
100
DictionaryVariables
280
     0
  1
0
  0
DICTIONARYVAR
  5
1895
102
{ACAD_REACTORS
330
37
102
}
330
37
100
DictionaryVariables
280
     0
  1
8
  0
DICTIONARYVAR
  5
1894
102
{ACAD_REACTORS
330
37
102
}
330
37
100
DictionaryVariables
280
     0
  1
1
  0
DICTIONARYVAR
  5
1BBC9
102
{ACAD_REACTORS
330
37
102
}
330
37
100
DictionaryVariables
280
     0
  1
0
  0
DICTIONARYVAR
  5
1892
102
{ACAD_REACTORS
330
37
102
}
330
37
100
DictionaryVariables
280
     0
  1
8
  0
DICTIONARYVAR
  5
1893
102
{ACAD_REACTORS
330
37
102
}
330
37
100
DictionaryVariables
280
     0
  1
2
  0
DICTIONARYVAR
  5
409
102
{ACAD_REACTORS
330
37
102
}
330
37
100
DictionaryVariables
280
     0
  1

  0
DICTIONARYVAR
  5
15C4D
102
{ACAD_REACTORS
330
37
102
}
330
37
100
DictionaryVariables
280
     0
  1
127
  0
DICTIONARYVAR
  5
1BB3F
102
{ACAD_REACTORS
330
37
102
}
330
37
100
DictionaryVariables
280
     0
  1
2
  0
DICTIONARY
  5
1CCD2
330
15B55
100
AcDbDictionary
  3
ACAD_XREC_ROUNDTRIP
360
1CCD3
1001
ACAD
1000
TREAT_AS_HARD
1070
     1
  0
DICTIONARY
  5
1CCD4
330
15B4D
100
AcDbDictionary
  3
ACAD_XREC_ROUNDTRIP
360
1CCD5
1001
ACAD
1000
TREAT_AS_HARD
1070
     1
  0
DICTIONARY
  5
1CCD6
330
15B5D
100
AcDbDictionary
  3
ACAD_XREC_ROUNDTRIP
360
1CCD7
1001
ACAD
1000
TREAT_AS_HARD
1070
     1
  0
XRECORD
  5
1CCD3
102
{ACAD_REACTORS
330
1CCD2
102
}
330
1CCD2
100
AcDbXrecord
102
MATERIAL
148
0.0
149
0.0
149
0.0
 93
        0
 94
      127
282
     0
 72
     0
 77
     0
171
     0
175
     0
179
     0
273
     0
  0
XRECORD
  5
1CCD5
102
{ACAD_REACTORS
330
1CCD4
102
}
330
1CCD4
100
AcDbXrecord
102
MATERIAL
148
0.0
149
0.0
149
0.0
 93
        0
 94
      127
282
     0
 72
     0
 77
     0
171
     0
175
     0
179
     0
273
     0
  0
XRECORD
  5
1CCD7
102
{ACAD_REACTORS
330
1CCD6
102
}
330
1CCD6
100
AcDbXrecord
102
MATERIAL
148
0.0
149
0.0
149
0.0
 93
        0
 94
      127
282
     0
 72
     0
 77
     0
171
     0
175
     0
179
     0
273
     0
  0
ENDSEC
  0
EOF
