  0
SECTION
  2
HEADER
  9
$ACADVER
  1
AC1009
  9
$DWGCODEPAGE
  3
ansi_932
  9
$INSBASE
 10
0.0
 20
0.0
 30
0.0
  9
$EXTMIN
 10
2210.024358319233
 20
-2021.297508677935
 30
0.0
  9
$EXTMAX
 10
2539.833035646091
 20
-1759.1191391674
 30
0.0
  9
$LIMMIN
 10
0.0
 20
0.0
  9
$LIMMAX
 10
420.0
 20
297.0
  9
$ORTHOMODE
 70
     0
  9
$REGENMODE
 70
     1
  9
$FILLMODE
 70
     1
  9
$QTEXTMODE
 70
     0
  9
$MIRRTEXT
 70
     0
  9
$DRAGMODE
 70
     2
  9
$LTSCALE
 40
0.5
  9
$OSMODE
 70
 14591
  9
$ATTMODE
 70
     1
  9
$TEXTSIZE
 40
4.0
  9
$TRACEWID
 40
1.0
  9
$TEXTSTYLE
  7
STANDARD
  9
$CLAYER
  8
1TEXT
  9
$CELTYPE
  6
BYLAYER
  9
$CECOLOR
 62
   256
  9
$DIMSCALE
 40
1.0
  9
$DIMASZ
 40
2.0
  9
$DIMEXO
 40
0.0
  9
$DIMDLI
 40
7.0
  9
$DIMRND
 40
0.0
  9
$DIMDLE
 40
0.0
  9
$DIMEXE
 40
1.0
  9
$DIMTP
 40
0.0
  9
$DIMTM
 40
0.0
  9
$DIMTXT
 40
3.5
  9
$DIMCEN
 40
0.0
  9
$DIMTSZ
 40
0.0
  9
$DIMTOL
 70
     0
  9
$DIMLIM
 70
     0
  9
$DIMTIH
 70
     0
  9
$DIMTOH
 70
     0
  9
$DIMSE1
 70
     0
  9
$DIMSE2
 70
     0
  9
$DIMTAD
 70
     1
  9
$DIMZIN
 70
     8
  9
$DIMBLK
  1

  9
$DIMASO
 70
     1
  9
$DIMSHO
 70
     1
  9
$DIMPOST
  1
 
  9
$DIMAPOST
  1

  9
$DIMALT
 70
     0
  9
$DIMALTD
 70
     2
  9
$DIMALTF
 40
25.4
  9
$DIMLFAC
 40
1.0
  9
$DIMTOFL
 70
     1
  9
$DIMTVP
 40
0.0
  9
$DIMTIX
 70
     0
  9
$DIMSOXD
 70
     0
  9
$DIMSAH
 70
     1
  9
$DIMBLK1
  1
OPEN30
  9
$DIMBLK2
  1
OPEN30
  9
$DIMSTYLE
  2
NEWX10
  9
$DIMCLRD
 70
   256
  9
$DIMCLRE
 70
   256
  9
$DIMCLRT
 70
   201
  9
$DIMTFAC
 40
0.7
  9
$DIMGAP
 40
0.7
  9
$LUNITS
 70
     2
  9
$LUPREC
 70
     4
  9
$SKETCHINC
 40
1.0
  9
$FILLETRAD
 40
0.0
  9
$AUNITS
 70
     0
  9
$AUPREC
 70
     2
  9
$MENU
  1
acad
  9
$ELEVATION
 40
0.0
  9
$PELEVATION
 40
0.0
  9
$THICKNESS
 40
0.0
  9
$LIMCHECK
 70
     0
  9
$CHAMFERA
 40
10.0
  9
$CHAMFERB
 40
10.0
  9
$SKPOLY
 70
     0
  9
$TDCREATE
 40
2453033.732663484
  9
$TDUPDATE
 40
2457948.615781378
  9
$TDINDWG
 40
2.3632600463
  9
$TDUSRTIMER
 40
2.3632600463
  9
$USRTIMER
 70
     1
  9
$ANGBASE
 50
0.0
  9
$ANGDIR
 70
     0
  9
$PDMODE
 70
     0
  9
$PDSIZE
 40
0.0
  9
$PLINEWID
 40
0.0
  9
$COORDS
 70
     2
  9
$SPLFRAME
 70
     0
  9
$SPLINETYPE
 70
     6
  9
$SPLINESEGS
 70
     8
  9
$ATTDIA
 70
     0
  9
$ATTREQ
 70
     1
  9
$HANDLING
 70
     1
  9
$HANDSEED
  5
1A7CE
  9
$SURFTAB1
 70
     6
  9
$SURFTAB2
 70
     6
  9
$SURFTYPE
 70
     6
  9
$SURFU
 70
     6
  9
$SURFV
 70
     6
  9
$UCSNAME
  2

  9
$UCSORG
 10
0.0
 20
0.0
 30
0.0
  9
$UCSXDIR
 10
1.0
 20
0.0
 30
0.0
  9
$UCSYDIR
 10
0.0
 20
1.0
 30
0.0
  9
$PUCSNAME
  2

  9
$PUCSORG
 10
0.0
 20
0.0
 30
0.0
  9
$PUCSXDIR
 10
1.0
 20
0.0
 30
0.0
  9
$PUCSYDIR
 10
0.0
 20
1.0
 30
0.0
  9
$USERI1
 70
     0
  9
$USERI2
 70
     0
  9
$USERI3
 70
     0
  9
$USERI4
 70
     0
  9
$USERI5
 70
     0
  9
$USERR1
 40
0.0
  9
$USERR2
 40
0.0
  9
$USERR3
 40
0.0
  9
$USERR4
 40
0.0
  9
$USERR5
 40
0.0
  9
$WORLDVIEW
 70
     1
  9
$SHADEDGE
 70
     3
  9
$SHADEDIF
 70
    70
  9
$TILEMODE
 70
     1
  9
$MAXACTVP
 70
    48
  9
$PLIMCHECK
 70
     0
  9
$PEXTMIN
 10
1.000000000000000E+20
 20
1.000000000000000E+20
 30
1.000000000000000E+20
  9
$PEXTMAX
 10
-1.000000000000000E+20
 20
-1.000000000000000E+20
 30
-1.000000000000000E+20
  9
$PLIMMIN
 10
0.0
 20
0.0
  9
$PLIMMAX
 10
420.0
 20
297.0
  9
$UNITMODE
 70
     0
  9
$VISRETAIN
 70
     1
  9
$PLINEGEN
 70
     0
  9
$PSLTSCALE
 70
     1
  0
ENDSEC
  0
SECTION
  2
TABLES
  0
TABLE
  2
VPORT
 70
     1
  0
VPORT
  2
*ACTIVE
 70
     0
 10
0.0
 20
0.0
 11
1.0
 21
1.0
 12
2374.928696982662
 22
-1890.208323922667
 13
0.0
 23
0.0
 14
10.0
 24
10.0
 15
10.0
 25
10.0
 16
0.0
 26
0.0
 36
1.0
 17
0.0
 27
0.0
 37
0.0
 40
281.4967756849956
 41
2.020775623268698
 42
50.0
 43
0.0
 44
0.0
 50
0.0
 51
0.0
 71
    16
 72
   100
 73
     1
 74
     1
 75
     0
 76
     0
 77
     0
 78
     0
  0
ENDTAB
  0
TABLE
  2
LTYPE
 70
    15
  0
LTYPE
  2
CONTINUOUS
 70
     0
  3
Solid line
 72
    65
 73
     0
 40
0.0
  0
LTYPE
  2
CENTER2
 70
     0
  3
Center (.5x) ___ _ ___ _ ___ _ ___ _ ___ _ ___
 72
    65
 73
     4
 40
28.575
 49
19.05
 49
-3.175
 49
3.175
 49
-3.175
  0
LTYPE
  2
PHANTOM2
 70
     0
  3
Phantom (0.5x) ___ _ _ ___ _ _ ___ _ _ ___ _ _
 72
    65
 73
     6
 40
31.75
 49
15.875
 49
-3.175
 49
3.175
 49
-3.175
 49
3.175
 49
-3.175
  0
ENDTAB
  0
TABLE
  2
LAYER
 70
    45
  0
LAYER
  2
0
 70
     0
 62
     7
  6
CONTINUOUS
  0
LAYER
  2
1CENTER
 70
     0
 62
     7
  6
CENTER2
  0
LAYER
  2
1TEXT
 70
     0
 62
     7
  6
CONTINUOUS
  0
LAYER
  2
1DIM
 70
     0
 62
     7
  6
CONTINUOUS
  0
LAYER
  2
1PHANTOM
 70
     0
 62
     7
  6
PHANTOM2
  0
LAYER
  2
01
 70
     0
 62
     1
  6
CONTINUOUS
  0
ENDTAB
  0
TABLE
  2
STYLE
 70
    26
  0
STYLE
  2
STANDARD
 70
     0
 40
0.0
 41
1.0
 50
0.0
 71
     0
 42
4.0
  3
txt.shx
  4
extfont.shx
  0
ENDTAB
  0
TABLE
  2
VIEW
 70
     0
  0
ENDTAB
  0
TABLE
  2
UCS
 70
     0
  0
ENDTAB
  0
TABLE
  2
APPID
 70
    15
  0
APPID
  2
ACAD
 70
     0
  0
APPID
  2
DRAWINGVARIABLESXDATA
 70
     0
  0
APPID
  2
CONTENTTABDATA
 70
     0
  0
APPID
  2
CONTENTCURRENTTAB
 70
     0
  0
APPID
  2
CONTENTBLOCKDESCRIPTION
 70
     0
  0
APPID
  2
CONTENTBLOCKICON
 70
     0
  0
APPID
  2
CONTENTLONGBLOCKNAME
 70
     0
  0
APPID
  2
ACAD_PSEXT
 70
     0
  0
APPID
  2
ACAD_DSTYLE_DIMTEXT_FILL
 70
     0
  0
APPID
  2
ACAD_MLEADERVER
 70
     0
  0
APPID
  2
ACAD_DSTYLE_DIMRADIAL_EXTE
 70
     0
  0
APPID
  2
ACAD_EXEMPT_FROM_CAD_STAND
 70
     0
  0
APPID
  2
ACADANNOTATIVE
 70
     0
  0
APPID
  2
ACLAYERTOOLS
 70
     0
  0
APPID
  2
ACAD_OBJECT_CHANGE_GUID
 70
     0
  0
ENDTAB
  0
TABLE
  2
DIMSTYLE
 70
    10
  0
DIMSTYLE
  2
NEWX10
 70
     0
  3
 
  4

  5

  6
OPEN30
  7
OPEN30
 40
1.0
 41
2.0
 42
0.0
 43
7.0
 44
1.0
 45
0.0
 46
0.0
 47
0.0
 48
0.0
140
3.5
141
0.0
142
0.0
143
25.4
144
1.0
145
0.0
146
0.7
147
0.7
 71
     0
 72
     0
 73
     0
 74
     0
 75
     0
 76
     0
 77
     1
 78
     8
170
     0
171
     2
172
     1
173
     1
174
     0
175
     0
176
   256
177
   256
178
   201
  0
ENDTAB
  0
ENDSEC
  0
SECTION
  2
BLOCKS
  0
BLOCK
  8
0
  2
$MODEL_SPACE
 70
     0
 10
0.0
 20
0.0
 30
0.0
  3
$MODEL_SPACE
  1

  0
ENDBLK
  5
1A
  8
0
  0
BLOCK
 67
     1
  8
0
  2
$PAPER_SPACE
 70
     0
 10
0.0
 20
0.0
 30
0.0
  3
$PAPER_SPACE
  1

  0
ENDBLK
  5
17
 67
     1
  8
0
  0
BLOCK
  8
0
  2
_OPEN30
 70
     0
 10
0.0
 20
0.0
 30
0.0
  3
_OPEN30
  1

  0
LINE
  5
44
  8
0
  6
BYBLOCK
 62
     0
 10
-1.0
 20
0.26794919
 30
0.0
 11
0.0
 21
0.0
 31
0.0
  0
LINE
  5
45
  8
0
  6
BYBLOCK
 62
     0
 10
0.0
 20
0.0
 30
0.0
 11
-1.0
 21
-0.26794919
 31
0.0
  0
LINE
  5
46
  8
0
  6
BYBLOCK
 62
     0
 10
0.0
 20
0.0
 30
0.0
 11
-1.0
 21
0.0
 31
0.0
  0
ENDBLK
  5
47
  8
0
  0
ENDSEC
  0
SECTION
  2
ENTITIES
  0
LINE
  5
18545
  8
1DIM
 10
2434.83303564609
 20
-1782.389599023919
 30
0.0
 11
2539.833035646091
 21
-1782.389599023918
 31
0.0
  0
LINE
  5
18546
  8
1DIM
 10
2434.83303564609
 20
-1775.389599023919
 30
0.0
 11
2539.833035646091
 21
-1775.389599023918
 31
0.0
  0
TEXT
  5
18547
  8
1TEXT
 10
2480.366368979424
 20
-1780.889599023919
 30
0.0
 40
4.0
  1
コード
 72
     1
 11
2487.233035646091
 21
-1780.889599023919
 31
0.0
  0
TEXT
  5
18548
  8
1TEXT
 10
2443.893035646091
 20
-1780.889599023919
 30
0.0
 40
4.0
  1
表面処理
 41
0.9
 72
     1
 11
2452.233035646091
 21
-1780.889599023919
 31
0.0
  0
LINE
  5
18549
  8
1DIM
 10
2434.83303564609
 20
-1789.389599023919
 30
0.0
 11
2504.833035646091
 21
-1789.389599023919
 31
0.0
  0
LINE
  5
1854B
  8
1DIM
 10
2434.83303564609
 20
-1775.389599023919
 30
0.0
 11
2434.833035646091
 21
-1803.38959902392
 31
0.0
  0
LINE
  5
1854C
  8
1DIM
 10
2469.83303564609
 20
-1775.389599023919
 30
0.0
 11
2469.833035646091
 21
-1803.38959902392
 31
0.0
  0
LINE
  5
1854D
  8
1DIM
 10
2504.833035646091
 20
-1775.389599023919
 30
0.0
 11
2504.83303564609
 21
-1803.38959902392
 31
0.0
  0
TEXT
  5
1854E
  8
1TEXT
 10
2473.416368979425
 20
-1788.103956007569
 30
0.0
 40
4.0
  1
GP-182-036-11
 41
0.6
 72
     1
 11
2487.233035646092
 21
-1788.103956007569
 31
0.0
  0
TEXT
  5
1854F
  8
1TEXT
 10
2433.631746163031
 20
-1771.098469797828
 30
0.0
 40
8.0
  1
GP-182-X-11
  0
TEXT
  5
18551
  8
1TEXT
 10
2435.493035646091
 20
-1802.103956007569
 30
0.0
 40
4.0
  1
ブラストブラック
 41
0.9
 72
     1
 11
2452.233035646091
 21
-1802.103956007569
 31
0.0
  0
TEXT
  5
18552
  8
1TEXT
 10
2473.416368979424
 20
-1802.103956007569
 30
0.0
 40
4.0
  1
GP-182-062-11
 41
0.6
 72
     1
 11
2487.233035646091
 21
-1802.103956007569
 31
0.0
  0
LINE
  5
18553
  8
1DIM
 10
2434.83303564609
 20
-1796.38959902392
 30
0.0
 11
2504.83303564609
 21
-1796.38959902392
 31
0.0
  0
TEXT
  5
18554
  8
1TEXT
 10
2436.033035646092
 20
-1795.103956007569
 30
0.0
 40
4.0
  1
ダークアンバー
 72
     1
 11
2452.233035646092
 21
-1795.103956007569
 31
0.0
  0
TEXT
  5
18555
  8
1TEXT
 10
2473.824702312758
 20
-1795.103956007569
 30
0.0
 40
4.0
  1
GP-182-014-11
 41
0.6
 72
     1
 11
2487.233035646092
 21
-1795.103956007569
 31
0.0
  0
TEXT
  5
18556
  8
1TEXT
 10
2512.966368979424
 20
-1780.889599023919
 30
0.0
 40
4.0
  1
対応子機
 72
     1
 11
2522.233035646091
 21
-1780.889599023919
 31
0.0
  0
LINE
  5
18557
  8
1DIM
 10
2539.833035646091
 20
-1775.389599023918
 30
0.0
 11
2539.83303564609
 21
-1803.38959902392
 31
0.0
  0
TEXT
  5
18558
  8
1TEXT
 10
2507.355767281706
 20
-1795.103956007569
 30
0.0
 40
4.0
  1
GB-BA
 41
0.7
 72
     1
 11
2513.898822837261
 21
-1795.103956007569
 31
0.0
  0
TEXT
  5
18559
  8
1TEXT
 10
2513.033035646092
 20
-1788.103956007569
 30
0.0
 40
4.0
  1
アイホン
 72
     1
 11
2522.233035646092
 21
-1788.103956007569
 31
0.0
  0
TEXT
  5
1855B
  8
1TEXT
 10
2435.493035646091
 20
-1788.103956007568
 30
0.0
 40
4.0
  1
ブラストシルバー
 41
0.9
 72
     1
 11
2452.233035646091
 21
-1788.103956007568
 31
0.0
  0
LINE
  5
18F31
  8
1DIM
 10
2434.83303564609
 20
-1803.38959902392
 30
0.0
 11
2539.83303564609
 21
-1803.38959902392
 31
0.0
  0
TEXT
  5
19968
  8
1TEXT
 10
2524.595030002987
 20
-1795.103956007569
 30
0.0
 40
4.0
  1
GB-DA
 41
0.7
 72
     1
 11
2531.138085558542
 21
-1795.103956007569
 31
0.0
  0
TEXT
  5
19969
  8
1TEXT
 10
2507.365489503927
 20
-1802.103956007569
 30
0.0
 40
4.0
  1
JL-DA
 41
0.7
 72
     1
 11
2513.89882283726
 21
-1802.103956007569
 31
0.0
  0
TEXT
  5
1996A
  8
1TEXT
 10
2524.604752225208
 20
-1802.103956007569
 30
0.0
 40
4.0
  1
JQ-DA
 41
0.7
 72
     1
 11
2531.138085558542
 21
-1802.103956007569
 31
0.0
  0
LINE
  5
199D3
  8
01
  6
BYBLOCK
 10
2329.509061533953
 20
-1889.297474244232
 30
0.0
 11
2329.509061533953
 21
-1906.297474244232
 31
0.0
  0
LINE
  5
199D4
  8
01
  6
BYBLOCK
 10
2333.009061533953
 20
-1889.297474244232
 30
0.0
 11
2333.009061533953
 21
-1906.297474244232
 31
0.0
  0
LINE
  5
199D5
  8
01
  6
BYBLOCK
 10
2318.759061533953
 20
-1882.797474244232
 30
0.0
 11
2318.759061533953
 21
-1985.297474244232
 31
0.0
  0
LINE
  5
199D6
  8
01
  6
BYBLOCK
 10
2282.759061533953
 20
-1882.797474244232
 30
0.0
 11
2282.759061533953
 21
-1985.297474244232
 31
0.0
  0
LINE
  5
199D7
  8
01
  6
BYBLOCK
 10
2318.759061533952
 20
-1882.797474244232
 30
0.0
 11
2282.759061533954
 21
-1882.797474244232
 31
0.0
  0
LINE
  5
199D8
  8
01
  6
BYBLOCK
 10
2318.759061533953
 20
-1985.297474244232
 30
0.0
 11
2282.759061533954
 21
-1985.297474244232
 31
0.0
  0
LINE
  5
199D9
  8
01
 10
2329.509061533954
 20
-1889.297474244232
 30
0.0
 11
2333.009061533953
 21
-1889.297474244232
 31
0.0
  0
LINE
  5
199DA
  8
01
 10
2329.509061533954
 20
-1906.297474244232
 30
0.0
 11
2333.009061533953
 21
-1906.297474244232
 31
0.0
  0
LINE
  5
19CB2
  8
01
 10
2365.509061533948
 20
-1850.297508677935
 30
0.0
 11
2236.009061533948
 21
-1850.297508677935
 31
0.0
  0
ARC
  5
19CB3
  8
01
 10
2365.509061533948
 20
-1851.797508677935
 30
0.0
 40
1.5
 50
0.0
 51
90.0
  0
LINE
  5
19CB4
  8
01
 10
2365.509061533948
 20
-2021.297508677935
 30
0.0
 11
2236.009061533948
 21
-2021.297508677935
 31
0.0
  0
ARC
  5
19CB5
  8
01
 10
2236.009061533948
 20
-2019.797508677935
 30
0.0
 40
1.5
 50
180.0
 51
270.0
  0
LINE
  5
19CB6
  8
01
 10
2234.509061533948
 20
-1851.797508677935
 30
0.0
 11
2234.509061533948
 21
-2019.797508677935
 31
0.0
  0
ARC
  5
19CB7
  8
01
 10
2236.009061533948
 20
-1851.797508677935
 30
0.0
 40
1.5
 50
90.0
 51
180.0
  0
LINE
  5
19CB8
  8
01
 10
2367.009061533948
 20
-1851.797508677935
 30
0.0
 11
2367.009061533948
 21
-2019.797508677935
 31
0.0
  0
ARC
  5
19CB9
  8
01
 10
2365.509061533948
 20
-2019.797508677935
 30
0.0
 40
1.5
 50
270.0
 51
0.0
  0
LINE
  5
19CBC
  8
01
 10
2415.98249851854
 20
-1850.297508677935
 30
0.0
 11
2415.98249851854
 21
-2021.297508677935
 31
0.0
  0
LINE
  5
19CBD
  8
01
 10
2418.98249851854
 20
-1850.297508677935
 30
0.0
 11
2418.98249851854
 21
-2021.297508677935
 31
0.0
  0
LINE
  5
19CBE
  8
01
 10
2415.98249851854
 20
-2021.297508677935
 30
0.0
 11
2418.98249851854
 21
-2021.297508677935
 31
0.0
  0
LINE
  5
19CBF
  8
01
 10
2415.98249851854
 20
-1850.297508677935
 30
0.0
 11
2418.98249851854
 21
-1850.297508677935
 31
0.0
  0
LINE
  5
19E1C
  8
01
 10
2348.509061533954
 20
-1760.550150253829
 30
0.0
 11
2348.509061533954
 21
-1830.550150253829
 31
0.0
  0
LINE
  5
19E1E
  8
01
 10
2358.509061533954
 20
-1760.550150253829
 30
0.0
 11
2358.509061533954
 21
-1830.550150253829
 31
0.0
  0
LINE
  5
19E20
  8
01
 10
2358.509061533954
 20
-1830.550150253829
 30
0.0
 11
2348.509061533954
 21
-1830.550150253829
 31
0.0
  0
LINE
  5
19E21
  8
01
 10
2358.509061533954
 20
-1760.550150253829
 30
0.0
 11
2348.509061533954
 21
-1760.550150253829
 31
0.0
  0
LINE
  5
19E29
  8
01
 10
2418.98249851854
 20
-1868.297508677935
 30
0.0
 11
2418.98249851854
 21
-1858.297508677935
 31
0.0
  0
LINE
  5
19EF3
  8
01
 10
2234.509061533948
 20
-1830.550150253829
 30
0.0
 11
2234.509061533948
 21
-1833.550150253829
 31
0.0
  0
LINE
  5
19EF4
  8
01
 10
2367.009061533948
 20
-1833.550150253829
 30
0.0
 11
2234.509061533948
 21
-1833.550150253829
 31
0.0
  0
LINE
  5
19EF5
  8
01
 10
2367.009061533948
 20
-1830.550150253829
 30
0.0
 11
2234.509061533948
 21
-1830.550150253829
 31
0.0
  0
LINE
  5
19EF6
  8
01
 10
2367.009061533948
 20
-1830.550150253829
 30
0.0
 11
2367.009061533948
 21
-1833.550150253829
 31
0.0
  0
ARC
  5
19FC4
  8
01
 10
2354.711654588516
 20
-1825.752663904967
 30
0.0
 40
0.75
 50
90.0003999465752
 51
179.9996000534074
  0
LINE
  5
19FC5
  8
01
 10
2355.760457043019
 20
-1825.002656583904
 30
0.0
 11
2354.711649353228
 21
-1825.002663904985
 31
0.0
  0
LINE
  5
19FC6
  8
01
 10
2353.961647266943
 20
-1826.801539445004
 30
0.0
 11
2353.961654588534
 21
-1825.752658669678
 31
0.0
  0
ARC
  5
19FC7
  8
01
 10
2352.306547882816
 20
-1825.752743308389
 30
0.0
 40
0.75
 50
0.0003999465925571
 51
89.99960005345956
  0
LINE
  5
19FC8
  8
01
 10
2353.056555203879
 20
-1826.801545762895
 30
0.0
 11
2353.056547882798
 21
-1825.752738073101
 31
0.0
  0
LINE
  5
19FC9
  8
01
 10
2351.257672342775
 20
-1825.002735986817
 30
0.0
 11
2352.306553118105
 21
-1825.002743308408
 31
0.0
  0
ARC
  5
19FCA
  8
01
 10
2352.306468479391
 20
-1823.34763660269
 30
0.0
 40
0.75
 50
270.0003999465752
 51
359.9996000534943
  0
LINE
  5
19FCB
  8
01
 10
2351.257666024884
 20
-1824.097643923754
 30
0.0
 11
2352.30647371468
 21
-1824.097636602672
 31
0.0
  0
LINE
  5
19FCC
  8
01
 10
2353.056475800963
 20
-1822.298761062653
 30
0.0
 11
2353.056468479374
 21
-1823.347641837978
 31
0.0
  0
ARC
  5
19FCD
  8
01
 10
2354.71157518509
 20
-1823.347557199268
 30
0.0
 40
0.75
 50
180.0003999465926
 51
269.9996000534595
  0
LINE
  5
19FCE
  8
01
 10
2355.760450725129
 20
-1824.09756452084
 30
0.0
 11
2354.711569949801
 21
-1824.09755719925
 31
0.0
  0
LINE
  5
19FCF
  8
01
 10
2353.961567864027
 20
-1822.298754744762
 30
0.0
 11
2353.961575185107
 21
-1823.347562434557
 31
0.0
  0
LINE
  5
19FD0
  8
01
 10
2355.760450725129
 20
-1824.09756452084
 30
0.0
 11
2355.760457043019
 21
-1825.002656583904
 31
0.0
  0
LINE
  5
19FD1
  8
01
 10
2353.961647266943
 20
-1826.801539445004
 30
0.0
 11
2353.056555203879
 21
-1826.801545762895
 31
0.0
  0
LINE
  5
19FD2
  8
01
 10
2351.257672342775
 20
-1825.002735986817
 30
0.0
 11
2351.257666024884
 21
-1824.097643923754
 31
0.0
  0
LINE
  5
19FD3
  8
1CENTER
 10
2353.509061533952
 20
-1759.1191391674
 30
0.0
 11
2353.509061533952
 21
-1834.99230031399
 31
0.0
  0
LINE
  5
19FD4
  8
1CENTER
 10
2356.860337726385
 20
-1824.550150253829
 30
0.0
 11
2350.157785341519
 21
-1824.550150253829
 31
0.0
  0
LINE
  5
19FD5
  8
01
 10
2353.056475800963
 20
-1822.298761062653
 30
0.0
 11
2353.961567864027
 21
-1822.298754744762
 31
0.0
  0
CIRCLE
  5
19FD6
  8
01
 10
2353.509061533952
 20
-1824.550150253829
 30
0.0
 40
3.0
  0
LINE
  5
19FD7
  8
01
 10
2253.009061533942
 20
-1760.550150253829
 30
0.0
 11
2253.009061533942
 21
-1830.550150253829
 31
0.0
  0
LINE
  5
19FD8
  8
01
 10
2243.009061533942
 20
-1760.550150253829
 30
0.0
 11
2243.009061533942
 21
-1830.550150253829
 31
0.0
  0
LINE
  5
19FD9
  8
01
 10
2243.009061533942
 20
-1830.550150253829
 30
0.0
 11
2253.009061533942
 21
-1830.550150253829
 31
0.0
  0
LINE
  5
19FDA
  8
01
 10
2243.009061533942
 20
-1760.550150253829
 30
0.0
 11
2253.009061533942
 21
-1760.550150253829
 31
0.0
  0
ARC
  5
19FDB
  8
01
 10
2246.806468479379
 20
-1825.752663904967
 30
0.0
 40
0.75
 50
0.0003999465925571
 51
89.99960005342481
  0
LINE
  5
19FDC
  8
01
 10
2245.757666024876
 20
-1825.002656583904
 30
0.0
 11
2246.806473714668
 21
-1825.002663904985
 31
0.0
  0
LINE
  5
19FDD
  8
01
 10
2247.556475800953
 20
-1826.801539445004
 30
0.0
 11
2247.556468479362
 21
-1825.752658669678
 31
0.0
  0
ARC
  5
19FDE
  8
01
 10
2249.211575185079
 20
-1825.752743308389
 30
0.0
 40
0.75
 50
90.00039994650571
 51
179.9996000534074
  0
LINE
  5
19FDF
  8
01
 10
2248.461567864016
 20
-1826.801545762895
 30
0.0
 11
2248.461575185097
 21
-1825.752738073101
 31
0.0
  0
LINE
  5
19FE0
  8
01
 10
2250.260450725121
 20
-1825.002735986817
 30
0.0
 11
2249.211569949791
 21
-1825.002743308408
 31
0.0
  0
ARC
  5
19FE1
  8
01
 10
2249.211654588504
 20
-1823.34763660269
 30
0.0
 40
0.75
 50
180.0003999465057
 51
269.9996000534248
  0
LINE
  5
19FE2
  8
01
 10
2250.260457043012
 20
-1824.097643923754
 30
0.0
 11
2249.211649353216
 21
-1824.097636602672
 31
0.0
  0
LINE
  5
19FE3
  8
01
 10
2248.461647266932
 20
-1822.298761062653
 30
0.0
 11
2248.461654588522
 21
-1823.347641837978
 31
0.0
  0
ARC
  5
19FE4
  8
01
 10
2246.806547882806
 20
-1823.347557199268
 30
0.0
 40
0.75
 50
270.0003999465057
 51
359.9996000534074
  0
LINE
  5
19FE5
  8
01
 10
2245.757672342767
 20
-1824.09756452084
 30
0.0
 11
2246.806553118094
 21
-1824.09755719925
 31
0.0
  0
LINE
  5
19FE6
  8
01
 10
2247.556555203869
 20
-1822.298754744762
 30
0.0
 11
2247.556547882788
 21
-1823.347562434557
 31
0.0
  0
LINE
  5
19FE7
  8
01
 10
2245.757672342767
 20
-1824.09756452084
 30
0.0
 11
2245.757666024876
 21
-1825.002656583904
 31
0.0
  0
LINE
  5
19FE8
  8
01
 10
2247.556475800953
 20
-1826.801539445004
 30
0.0
 11
2248.461567864016
 21
-1826.801545762895
 31
0.0
  0
LINE
  5
19FE9
  8
01
 10
2250.260450725121
 20
-1825.002735986817
 30
0.0
 11
2250.260457043012
 21
-1824.097643923754
 31
0.0
  0
LINE
  5
19FEA
  8
1CENTER
 10
2248.009061533943
 20
-1759.1191391674
 30
0.0
 11
2248.009061533943
 21
-1834.99230031399
 31
0.0
  0
LINE
  5
19FEB
  8
1CENTER
 10
2244.65778534151
 20
-1824.550150253829
 30
0.0
 11
2251.360337726376
 21
-1824.550150253829
 31
0.0
  0
LINE
  5
19FEC
  8
01
 10
2248.461647266932
 20
-1822.298761062653
 30
0.0
 11
2247.556555203869
 21
-1822.298754744762
 31
0.0
  0
CIRCLE
  5
19FED
  8
01
 10
2248.009061533943
 20
-1824.550150253829
 30
0.0
 40
3.0
  0
CIRCLE
  5
19FEF
  8
1PHANTOM
 10
2248.009061533944
 20
-1863.297508677935
 30
0.0
 40
5.0
  0
CIRCLE
  5
19FF0
  8
1PHANTOM
 10
2353.509061533962
 20
-1863.297508677935
 30
0.0
 40
5.0
  0
CIRCLE
  5
19FF1
  8
1PHANTOM
 10
2248.009061533944
 20
-2008.297508677935
 30
0.0
 40
5.0
  0
CIRCLE
  5
19FF2
  8
1PHANTOM
 10
2353.509061533962
 20
-2008.297508677935
 30
0.0
 40
5.0
  0
LINE
  5
1A00C
  8
1CENTER
 10
2241.50906153394
 20
-1863.29750867793
 30
0.0
 11
2254.50906153394
 21
-1863.29750867793
 31
0.0
  0
LINE
  5
1A00D
  8
1CENTER
 10
2248.00906153394
 20
-1869.79750867793
 30
0.0
 11
2248.00906153394
 21
-1856.79750867793
 31
0.0
  0
LINE
  5
1A00E
  8
1CENTER
 10
2347.00906153396
 20
-1863.29750867793
 30
0.0
 11
2360.00906153396
 21
-1863.29750867793
 31
0.0
  0
LINE
  5
1A00F
  8
1CENTER
 10
2353.50906153396
 20
-1869.79750867793
 30
0.0
 11
2353.50906153396
 21
-1856.79750867793
 31
0.0
  0
LINE
  5
1A010
  8
1CENTER
 10
2347.00906153396
 20
-2008.29750867793
 30
0.0
 11
2360.00906153396
 21
-2008.29750867793
 31
0.0
  0
LINE
  5
1A011
  8
1CENTER
 10
2353.50906153396
 20
-2014.79750867793
 30
0.0
 11
2353.50906153396
 21
-2001.79750867793
 31
0.0
  0
LINE
  5
1A012
  8
1CENTER
 10
2241.50906153394
 20
-2008.29750867793
 30
0.0
 11
2254.50906153394
 21
-2008.29750867793
 31
0.0
  0
LINE
  5
1A013
  8
1CENTER
 10
2248.00906153394
 20
-2014.79750867793
 30
0.0
 11
2248.00906153394
 21
-2001.79750867793
 31
0.0
  0
LINE
  5
1A042
  8
1DIM
 10
2220.532425403614
 20
-1937.797508677935
 30
0.0
 11
2220.532425403614
 21
-2019.297508677935
 31
0.0
  0
ARC
  5
1A3F0
  8
01
 10
2419.98249851854
 20
-2003.797508677935
 30
0.0
 40
1.000000000000014
 50
180.0
 51
270.0
  0
LINE
  5
1A3F1
  8
01
 10
2419.98249851854
 20
-2017.297508677935
 30
0.0
 11
2418.98249851854
 21
-2017.297508677935
 31
0.0
  0
LINE
  5
1A3F2
  8
01
 10
2419.98249851854
 20
-1854.297508677935
 30
0.0
 11
2418.98249851854
 21
-1854.297508677935
 31
0.0
  0
LINE
  5
1A3F3
  8
01
 10
2418.98249851854
 20
-1854.297508677935
 30
0.0
 11
2418.98249851854
 21
-2017.297508677935
 31
0.0
  0
LINE
  5
1A3F4
  8
01
 10
2429.98249851854
 20
-1866.797508677935
 30
0.0
 11
2429.98249851854
 21
-1867.797508677935
 31
0.0
  0
LINE
  5
1A3F5
  8
01
 10
2419.98249851854
 20
-1854.297508677935
 30
0.0
 11
2419.98249851854
 21
-1858.297508677935
 31
0.0
  0
LINE
  5
1A3F6
  8
01
 10
2419.98249851854
 20
-1867.797508677935
 30
0.0
 11
2419.98249851854
 21
-2003.797508677935
 31
0.0
  0
LINE
  5
1A3F7
  8
01
 10
2429.98249851854
 20
-1866.797508677935
 30
0.0
 11
2419.98249851854
 21
-1866.797508677935
 31
0.0
  0
ARC
  5
1A3F9
  8
01
 10
2419.98249851854
 20
-1867.797508677935
 30
0.0
 40
1.000000000000014
 50
90.0
 51
180.0
  0
LINE
  5
1A3FA
  8
01
 10
2422.33249851854
 20
-1869.797508677935
 30
0.0
 11
2427.632498518541
 21
-1869.797508677935
 31
0.0
  0
LINE
  5
1A3FE
  8
01
  6
BYBLOCK
 10
2422.33249851854
 20
-1867.797508677935
 30
0.0
 11
2422.33249851854
 21
-1869.797508677935
 31
0.0
  0
LINE
  5
1A401
  8
01
  6
BYBLOCK
 10
2427.632498518541
 20
-1867.797508677935
 30
0.0
 11
2427.632498518541
 21
-1869.797508677935
 31
0.0
  0
LINE
  5
1A405
  8
01
 10
2429.98249851854
 20
-2004.797508677935
 30
0.0
 11
2429.98249851854
 21
-2003.797508677935
 31
0.0
  0
LINE
  5
1A406
  8
01
 10
2429.98249851854
 20
-2004.797508677935
 30
0.0
 11
2419.98249851854
 21
-2004.797508677935
 31
0.0
  0
LINE
  5
1A408
  8
01
 10
2422.33249851854
 20
-2001.797508677935
 30
0.0
 11
2427.632498518541
 21
-2001.797508677935
 31
0.0
  0
LINE
  5
1A409
  8
1CENTER
 10
2424.98249851854
 20
-2000.302508677935
 30
0.0
 11
2424.98249851854
 21
-2006.451008208535
 31
0.0
  0
LINE
  5
1A40C
  8
01
  6
BYBLOCK
 10
2422.33249851854
 20
-2003.797508677935
 30
0.0
 11
2422.33249851854
 21
-2001.797508677935
 31
0.0
  0
LINE
  5
1A40F
  8
01
  6
BYBLOCK
 10
2427.632498518541
 20
-2003.797508677935
 30
0.0
 11
2427.632498518541
 21
-2001.797508677935
 31
0.0
  0
LINE
  5
1A413
  8
01
 10
2429.98249851854
 20
-1867.797508677935
 30
0.0
 11
2419.98249851854
 21
-1867.797508677935
 31
0.0
  0
LINE
  5
1A414
  8
01
 10
2429.98249851854
 20
-2003.797508677935
 30
0.0
 11
2419.98249851854
 21
-2003.797508677935
 31
0.0
  0
LINE
  5
1A415
  8
1CENTER
 10
2490.227594813732
 20
-1863.297508677935
 30
0.0
 11
2417.789552027847
 21
-1863.297508677935
 31
0.0
  0
LINE
  5
1A416
  8
01
 10
2488.98249851854
 20
-1858.297508677935
 30
0.0
 11
2428.23249851854
 21
-1858.297508677935
 31
0.0
  0
LINE
  5
1A417
  8
01
 10
2421.73249851854
 20
-1858.297508677935
 30
0.0
 11
2418.98249851854
 21
-1858.297508677935
 31
0.0
  0
LINE
  5
1A418
  8
01
 10
2488.98249851854
 20
-1868.297508677935
 30
0.0
 11
2430.48249851854
 21
-1868.297508677935
 31
0.0
  0
LINE
  5
1A419
  8
01
 10
2418.98249851854
 20
-1866.797508677935
 30
0.0
 11
2418.98249851854
 21
-1858.297508677935
 31
0.0
  0
LINE
  5
1A41A
  8
01
 10
2430.48249851854
 20
-1868.297508677935
 30
0.0
 11
2430.48249851854
 21
-1866.797508677935
 31
0.0
  0
LINE
  5
1A41B
  8
1CENTER
 10
2424.98249851854
 20
-1869.212081613262
 30
0.0
 11
2424.98249851854
 21
-1857.382935742607
 31
0.0
  0
LINE
  5
1A41C
  8
01
 10
2488.98249851854
 20
-1868.297508677935
 30
0.0
 11
2488.98249851854
 21
-1858.297508677935
 31
0.0
  0
ARC
  5
1A41D
  8
01
 10
2424.98249851854
 20
-1853.516258677931
 30
0.0
 40
5.781250000003244
 50
235.794542061928
 51
304.2054579380932
  0
LINE
  5
1A41E
  8
01
 10
2418.98249851854
 20
-1866.797508677935
 30
0.0
 11
2430.48249851854
 21
-1866.797508677935
 31
0.0
  0
LINE
  5
1A545
  8
1CENTER
 10
2490.227594813732
 20
-2008.297508677935
 30
0.0
 11
2417.789552027847
 21
-2008.297508677935
 31
0.0
  0
LINE
  5
1A546
  8
01
 10
2488.98249851854
 20
-2013.297508677935
 30
0.0
 11
2428.23249851854
 21
-2013.297508677935
 31
0.0
  0
LINE
  5
1A547
  8
01
 10
2421.73249851854
 20
-2013.297508677935
 30
0.0
 11
2418.98249851854
 21
-2013.297508677935
 31
0.0
  0
LINE
  5
1A548
  8
01
 10
2488.98249851854
 20
-2003.297508677935
 30
0.0
 11
2430.48249851854
 21
-2003.297508677935
 31
0.0
  0
LINE
  5
1A549
  8
01
 10
2418.98249851854
 20
-2004.797508677935
 30
0.0
 11
2418.98249851854
 21
-2013.297508677935
 31
0.0
  0
LINE
  5
1A54A
  8
01
 10
2430.48249851854
 20
-2003.297508677935
 30
0.0
 11
2430.48249851854
 21
-2004.797508677935
 31
0.0
  0
LINE
  5
1A54B
  8
01
 10
2488.98249851854
 20
-2003.297508677935
 30
0.0
 11
2488.98249851854
 21
-2013.297508677935
 31
0.0
  0
ARC
  5
1A54C
  8
01
 10
2424.98249851854
 20
-2018.078758677939
 30
0.0
 40
5.781250000003244
 50
55.7945420619068
 51
124.205457938072
  0
LINE
  5
1A54D
  8
01
 10
2418.98249851854
 20
-2004.797508677935
 30
0.0
 11
2430.48249851854
 21
-2004.797508677935
 31
0.0
  0
LINE
  5
1A54F
  8
01
 10
2419.98249851854
 20
-2013.297508677935
 30
0.0
 11
2419.98249851854
 21
-2017.297508677935
 31
0.0
  0
LINE
  5
1A751
  8
1DIM
 10
2365.509061533948
 20
-2021.297508677935
 30
0.0
 11
2388.973920754021
 21
-2021.297508677935
 31
0.0
  0
LINE
  5
1A752
  8
1DIM
 10
2365.509061533948
 20
-1850.297508677935
 30
0.0
 11
2388.973920754021
 21
-1850.297508677935
 31
0.0
  0
LINE
  5
1A753
  8
1DIM
 10
2387.973920754021
 20
-2019.297508677935
 30
0.0
 11
2387.973920754021
 21
-1852.297508677935
 31
0.0
  0
LINE
  5
1A757
  8
1DIM
 10
2234.509061533948
 20
-1851.797508677935
 30
0.0
 11
2234.509061533948
 21
-1839.304521378224
 31
0.0
  0
LINE
  5
1A758
  8
1DIM
 10
2367.009061533948
 20
-1851.797508677935
 30
0.0
 11
2367.009061533948
 21
-1839.304521378224
 31
0.0
  0
LINE
  5
1A759
  8
1DIM
 10
2236.509061533948
 20
-1840.304521378224
 30
0.0
 11
2365.009061533948
 21
-1840.304521378224
 31
0.0
  0
LINE
  5
1A75D
  8
1DIM
 10
2300.759061533953
 20
-1935.797508677935
 30
0.0
 11
2219.532425403614
 21
-1935.797508677935
 31
0.0
1001
ACAD
1000
DSTYLE
1002
{
1070
    40
1040
1.0
1002
}
  0
LINE
  5
1A75E
  8
1DIM
 10
2236.009061533948
 20
-1850.297508677935
 30
0.0
 11
2219.532425403614
 21
-1850.297508677935
 31
0.0
1001
ACAD
1000
DSTYLE
1002
{
1070
    40
1040
1.0
1002
}
  0
LINE
  5
1A75F
  8
1DIM
 10
2220.532425403614
 20
-1933.797508677935
 30
0.0
 11
2220.532425403614
 21
-1852.297508677935
 31
0.0
1001
ACAD
1000
DSTYLE
1002
{
1070
    40
1040
1.0
1002
}
  0
LINE
  5
1A763
  8
0
  6
BYBLOCK
 10
2219.996527023614
 20
-1937.797508677935
 30
0.0
 11
2220.532425403614
 21
-1935.797508677935
 31
0.0
  0
LINE
  5
1A764
  8
0
  6
BYBLOCK
 10
2220.532425403614
 20
-1935.797508677935
 30
0.0
 11
2221.068323783614
 21
-1937.797508677935
 31
0.0
  0
LINE
  5
1A765
  8
0
  6
BYBLOCK
 10
2220.532425403614
 20
-1935.797508677935
 30
0.0
 11
2220.532425403614
 21
-1937.797508677935
 31
0.0
  0
TEXT
  5
1A766
  8
1DIM
  6
CONTINUOUS
 10
2213.524358319233
 20
-1999.139175344601
 30
0.0
 40
3.5
  1
地面からの推奨高さは
 50
90.0
  0
TEXT
  5
1A767
  8
1DIM
  6
CONTINUOUS
 10
2219.4160249859
 20
-1994.647508677935
 30
0.0
 40
3.5
  1
子機の推奨に従う
 50
90.0
  0
LINE
  5
1A768
  8
1DIM
 10
2248.00906153394
 20
-1856.79750867793
 30
0.0
 11
2248.00906153394
 21
-1845.791023167981
 31
0.0
  0
LINE
  5
1A769
  8
1DIM
 10
2353.50906153396
 20
-1856.79750867793
 30
0.0
 11
2353.50906153396
 21
-1845.791023167981
 31
0.0
  0
LINE
  5
1A76A
  8
1DIM
 10
2250.00906153394
 20
-1846.791023167981
 30
0.0
 11
2351.50906153396
 21
-1846.791023167981
 31
0.0
  0
LINE
  5
1A76E
  8
1DIM
 10
2360.00906153396
 20
-1863.29750867793
 30
0.0
 11
2378.6595423524
 21
-1863.29750867793
 31
0.0
  0
LINE
  5
1A76F
  8
1DIM
 10
2360.00906153396
 20
-2008.29750867793
 30
0.0
 11
2378.6595423524
 21
-2008.29750867793
 31
0.0
  0
LINE
  5
1A770
  8
1DIM
 10
2377.6595423524
 20
-1865.29750867793
 30
0.0
 11
2377.6595423524
 21
-2006.29750867793
 31
0.0
  0
LINE
  5
1A774
  8
1DIM
 10
2418.98249851854
 20
-1850.297508677935
 30
0.0
 11
2418.98249851854
 21
-1836.463859207222
 31
0.0
  0
LINE
  5
1A775
  8
1DIM
 10
2488.98249851854
 20
-1858.297508677935
 30
0.0
 11
2488.98249851854
 21
-1836.463859207222
 31
0.0
  0
LINE
  5
1A776
  8
1DIM
 10
2420.98249851854
 20
-1837.463859207222
 30
0.0
 11
2486.98249851854
 21
-1837.463859207222
 31
0.0
  0
LINE
  5
1A77A
  8
1DIM
 10
2418.98249851854
 20
-1850.297508677935
 30
0.0
 11
2418.98249851854
 21
-1836.463859207222
 31
0.0
  0
LINE
  5
1A77B
  8
1DIM
 10
2415.98249851854
 20
-1850.297508677935
 30
0.0
 11
2415.98249851854
 21
-1836.463859207222
 31
0.0
  0
LINE
  5
1A77C
  8
1DIM
 10
2420.98249851854
 20
-1837.463859207222
 30
0.0
 11
2422.98249851854
 21
-1837.463859207222
 31
0.0
  0
LINE
  5
1A77D
  8
1DIM
 10
2413.98249851854
 20
-1837.463859207222
 30
0.0
 11
2408.249165185207
 21
-1837.463859207222
 31
0.0
  0
LINE
  5
1A77E
  8
1DIM
 10
2418.98249851854
 20
-1837.463859207222
 30
0.0
 11
2415.98249851854
 21
-1837.463859207222
 31
0.0
  0
SOLID
  5
1A782
  8
1DIM
 10
2360.94843936208
 20
-1851.767513618537
 30
0.0
 11
2359.729785431196
 21
-1853.388005429023
 31
0.0
 12
2360.357001265118
 22
-1851.459868657736
 32
0.0
 13
2360.357001265118
 23
-1851.459868657736
 33
0.0
  0
LINE
  5
1A783
  8
1DIM
 10
2360.652720313599
 20
-1851.613691138137
 30
0.0
 11
2377.92179709007
 21
-1818.414415328832
 31
0.0
  0
LINE
  5
1A784
  8
1DIM
 10
2377.92179709007
 20
-1818.414415328832
 30
0.0
 11
2413.405130423403
 21
-1818.414415328832
 31
0.0
  0
TEXT
  5
1A785
  8
1DIM
  6
CONTINUOUS
 10
2380.388463756736
 20
-1811.881081995499
 30
0.0
 40
3.5
  1
材質：アルミ
  0
TEXT
  5
1A786
  8
1DIM
  6
CONTINUOUS
 10
2380.505130423403
 20
-1817.714415328832
 30
0.0
 40
3.5
  1
仕上げ：各種仕上
  0
SOLID
  5
1A787
  8
1DIM
 10
2438.426186186456
 20
-2003.779843284855
 30
0.0
 11
2437.207532255572
 21
-2005.400335095341
 31
0.0
 12
2437.834748089494
 22
-2003.472198324054
 32
0.0
 13
2437.834748089494
 23
-2003.472198324054
 33
0.0
  0
LINE
  5
1A788
  8
1DIM
 10
2438.130467137974
 20
-2003.626020804455
 30
0.0
 11
2455.399543914445
 21
-1970.42674499515
 31
0.0
  0
LINE
  5
1A789
  8
1DIM
 10
2455.399543914445
 20
-1970.42674499515
 30
0.0
 11
2494.966210581112
 21
-1970.42674499515
 31
0.0
  0
TEXT
  5
1A78A
  8
1DIM
  6
CONTINUOUS
 10
2457.866210581112
 20
-1963.893411661817
 30
0.0
 40
3.5
  1
材質：ステンレス
  0
TEXT
  5
1A78B
  8
1DIM
  6
CONTINUOUS
 10
2457.982877247778
 20
-1969.72674499515
 30
0.0
 40
3.5
  1
仕上げ：ヘアライン
  0
LINE
  5
1A78C
  8
1DIM
 10
2488.98249851854
 20
-1868.297508677935
 30
0.0
 11
2502.164311806809
 21
-1868.297508677935
 31
0.0
1001
ACAD
1000
DSTYLE
1002
{
1070
     3
1000
φ<>
1002
}
  0
LINE
  5
1A78D
  8
1DIM
 10
2488.98249851854
 20
-1858.297508677935
 30
0.0
 11
2502.164311806809
 21
-1858.297508677935
 31
0.0
1001
ACAD
1000
DSTYLE
1002
{
1070
     3
1000
φ<>
1002
}
  0
LINE
  5
1A78E
  8
1DIM
 10
2501.164311806809
 20
-1866.297508677935
 30
0.0
 11
2501.164311806809
 21
-1860.297508677935
 31
0.0
1001
ACAD
1000
DSTYLE
1002
{
1070
     3
1000
φ<>
1002
}
  0
LINE
  5
1A78F
  8
1DIM
 10
2501.164311806809
 20
-1858.297508677935
 30
0.0
 11
2501.164311806809
 21
-1845.230842011268
 31
0.0
1001
ACAD
1000
DSTYLE
1002
{
1070
     3
1000
φ<>
1002
}
  0
LINE
  5
1A793
  8
0
  6
BYBLOCK
 10
2388.509819134021
 20
-2019.297508677935
 30
0.0
 11
2387.973920754021
 21
-2021.297508677935
 31
0.0
  0
LINE
  5
1A794
  8
0
  6
BYBLOCK
 10
2387.973920754021
 20
-2021.297508677935
 30
0.0
 11
2387.438022374021
 21
-2019.297508677935
 31
0.0
  0
LINE
  5
1A795
  8
0
  6
BYBLOCK
 10
2387.973920754021
 20
-2021.297508677935
 30
0.0
 11
2387.973920754021
 21
-2019.297508677935
 31
0.0
  0
LINE
  5
1A796
  8
0
  6
BYBLOCK
 10
2387.438022374021
 20
-1852.297508677935
 30
0.0
 11
2387.973920754021
 21
-1850.297508677935
 31
0.0
  0
LINE
  5
1A797
  8
0
  6
BYBLOCK
 10
2387.973920754021
 20
-1850.297508677935
 30
0.0
 11
2388.509819134021
 21
-1852.297508677935
 31
0.0
  0
LINE
  5
1A798
  8
0
  6
BYBLOCK
 10
2387.973920754021
 20
-1850.297508677935
 30
0.0
 11
2387.973920754021
 21
-1852.297508677935
 31
0.0
  0
TEXT
  5
1A799
  8
1DIM
  6
CONTINUOUS
 10
2387.273920754022
 20
-1939.297508677935
 30
0.0
 40
3.5
  1
171
 50
90.0
  0
LINE
  5
1A79A
  8
0
  6
BYBLOCK
 10
2236.509061533948
 20
-1840.840419758224
 30
0.0
 11
2234.509061533948
 21
-1840.304521378224
 31
0.0
  0
LINE
  5
1A79B
  8
0
  6
BYBLOCK
 10
2234.509061533948
 20
-1840.304521378224
 30
0.0
 11
2236.509061533948
 21
-1839.768622998224
 31
0.0
  0
LINE
  5
1A79C
  8
0
  6
BYBLOCK
 10
2234.509061533948
 20
-1840.304521378224
 30
0.0
 11
2236.509061533948
 21
-1840.304521378224
 31
0.0
  0
LINE
  5
1A79D
  8
0
  6
BYBLOCK
 10
2365.009061533948
 20
-1839.768622998224
 30
0.0
 11
2367.009061533948
 21
-1840.304521378224
 31
0.0
  0
LINE
  5
1A79E
  8
0
  6
BYBLOCK
 10
2367.009061533948
 20
-1840.304521378224
 30
0.0
 11
2365.009061533948
 21
-1840.840419758224
 31
0.0
  0
LINE
  5
1A79F
  8
0
  6
BYBLOCK
 10
2367.009061533948
 20
-1840.304521378224
 30
0.0
 11
2365.009061533948
 21
-1840.304521378224
 31
0.0
  0
TEXT
  5
1A7A0
  8
1DIM
  6
CONTINUOUS
 10
2294.342394867281
 20
-1839.604521378224
 30
0.0
 40
3.5
  1
132.5
  0
LINE
  5
1A7A1
  8
0
  6
BYBLOCK
 10
2221.068323783614
 20
-1933.797508677935
 30
0.0
 11
2220.532425403614
 21
-1935.797508677935
 31
0.0
  0
LINE
  5
1A7A2
  8
0
  6
BYBLOCK
 10
2220.532425403614
 20
-1935.797508677935
 30
0.0
 11
2219.996527023614
 21
-1933.797508677935
 31
0.0
  0
LINE
  5
1A7A3
  8
0
  6
BYBLOCK
 10
2220.532425403614
 20
-1935.797508677935
 30
0.0
 11
2220.532425403614
 21
-1933.797508677935
 31
0.0
  0
LINE
  5
1A7A4
  8
0
  6
BYBLOCK
 10
2219.996527023614
 20
-1852.297508677935
 30
0.0
 11
2220.532425403614
 21
-1850.297508677935
 31
0.0
  0
LINE
  5
1A7A5
  8
0
  6
BYBLOCK
 10
2220.532425403614
 20
-1850.297508677935
 30
0.0
 11
2221.068323783614
 21
-1852.297508677935
 31
0.0
  0
LINE
  5
1A7A6
  8
0
  6
BYBLOCK
 10
2220.532425403614
 20
-1850.297508677935
 30
0.0
 11
2220.532425403614
 21
-1852.297508677935
 31
0.0
  0
TEXT
  5
1A7A7
  8
1DIM
  6
CONTINUOUS
 10
2219.832425403615
 20
-1898.309661455713
 30
0.0
 40
3.5
  1
85.5
 50
90.0
1001
ACAD
1000
DSTYLE
1002
{
1070
    40
1040
1.0
1002
}
  0
LINE
  5
1A7A8
  8
0
  6
BYBLOCK
 10
2250.00906153394
 20
-1847.326921547981
 30
0.0
 11
2248.00906153394
 21
-1846.791023167981
 31
0.0
  0
LINE
  5
1A7A9
  8
0
  6
BYBLOCK
 10
2248.00906153394
 20
-1846.791023167981
 30
0.0
 11
2250.00906153394
 21
-1846.255124787981
 31
0.0
  0
LINE
  5
1A7AA
  8
0
  6
BYBLOCK
 10
2248.00906153394
 20
-1846.791023167981
 30
0.0
 11
2250.00906153394
 21
-1846.791023167981
 31
0.0
  0
LINE
  5
1A7AB
  8
0
  6
BYBLOCK
 10
2351.50906153396
 20
-1846.255124787981
 30
0.0
 11
2353.50906153396
 21
-1846.791023167981
 31
0.0
  0
LINE
  5
1A7AC
  8
0
  6
BYBLOCK
 10
2353.50906153396
 20
-1846.791023167981
 30
0.0
 11
2351.50906153396
 21
-1847.326921547981
 31
0.0
  0
LINE
  5
1A7AD
  8
0
  6
BYBLOCK
 10
2353.50906153396
 20
-1846.791023167981
 30
0.0
 11
2351.50906153396
 21
-1846.791023167981
 31
0.0
  0
TEXT
  5
1A7AE
  8
1DIM
  6
CONTINUOUS
 10
2291.121908756173
 20
-1846.091023167981
 30
0.0
 40
3.5
  1
P=105.5
  0
LINE
  5
1A7AF
  8
0
  6
BYBLOCK
 10
2377.123643972399
 20
-1865.29750867793
 30
0.0
 11
2377.6595423524
 21
-1863.29750867793
 31
0.0
  0
LINE
  5
1A7B0
  8
0
  6
BYBLOCK
 10
2377.6595423524
 20
-1863.29750867793
 30
0.0
 11
2378.1954407324
 21
-1865.29750867793
 31
0.0
  0
LINE
  5
1A7B1
  8
0
  6
BYBLOCK
 10
2377.6595423524
 20
-1863.29750867793
 30
0.0
 11
2377.6595423524
 21
-1865.29750867793
 31
0.0
  0
LINE
  5
1A7B2
  8
0
  6
BYBLOCK
 10
2378.1954407324
 20
-2006.29750867793
 30
0.0
 11
2377.6595423524
 21
-2008.29750867793
 31
0.0
  0
LINE
  5
1A7B3
  8
0
  6
BYBLOCK
 10
2377.6595423524
 20
-2008.29750867793
 30
0.0
 11
2377.123643972399
 21
-2006.29750867793
 31
0.0
  0
LINE
  5
1A7B4
  8
0
  6
BYBLOCK
 10
2377.6595423524
 20
-2008.29750867793
 30
0.0
 11
2377.6595423524
 21
-2006.29750867793
 31
0.0
  0
TEXT
  5
1A7B5
  8
1DIM
  6
CONTINUOUS
 10
2376.9595423524
 20
-1943.380842011264
 30
0.0
 40
3.5
  1
P=145
 50
90.0
  0
LINE
  5
1A7B6
  8
0
  6
BYBLOCK
 10
2420.98249851854
 20
-1837.999757587222
 30
0.0
 11
2418.98249851854
 21
-1837.463859207222
 31
0.0
  0
LINE
  5
1A7B7
  8
0
  6
BYBLOCK
 10
2418.98249851854
 20
-1837.463859207222
 30
0.0
 11
2420.98249851854
 21
-1836.927960827222
 31
0.0
  0
LINE
  5
1A7B8
  8
0
  6
BYBLOCK
 10
2418.98249851854
 20
-1837.463859207222
 30
0.0
 11
2420.98249851854
 21
-1837.463859207222
 31
0.0
  0
LINE
  5
1A7B9
  8
0
  6
BYBLOCK
 10
2486.98249851854
 20
-1836.927960827222
 30
0.0
 11
2488.98249851854
 21
-1837.463859207222
 31
0.0
  0
LINE
  5
1A7BA
  8
0
  6
BYBLOCK
 10
2488.98249851854
 20
-1837.463859207222
 30
0.0
 11
2486.98249851854
 21
-1837.999757587222
 31
0.0
  0
LINE
  5
1A7BB
  8
0
  6
BYBLOCK
 10
2488.98249851854
 20
-1837.463859207222
 30
0.0
 11
2486.98249851854
 21
-1837.463859207222
 31
0.0
  0
TEXT
  5
1A7BC
  8
1DIM
  6
CONTINUOUS
 10
2451.284581851874
 20
-1836.763859207222
 30
0.0
 40
3.5
  1
70
  0
LINE
  5
1A7BD
  8
0
  6
BYBLOCK
 10
2420.98249851854
 20
-1837.999757587222
 30
0.0
 11
2418.98249851854
 21
-1837.463859207222
 31
0.0
  0
LINE
  5
1A7BE
  8
0
  6
BYBLOCK
 10
2418.98249851854
 20
-1837.463859207222
 30
0.0
 11
2420.98249851854
 21
-1836.927960827222
 31
0.0
  0
LINE
  5
1A7BF
  8
0
  6
BYBLOCK
 10
2418.98249851854
 20
-1837.463859207222
 30
0.0
 11
2420.98249851854
 21
-1837.463859207222
 31
0.0
  0
LINE
  5
1A7C0
  8
0
  6
BYBLOCK
 10
2413.98249851854
 20
-1836.927960827222
 30
0.0
 11
2415.98249851854
 21
-1837.463859207222
 31
0.0
  0
LINE
  5
1A7C1
  8
0
  6
BYBLOCK
 10
2415.98249851854
 20
-1837.463859207222
 30
0.0
 11
2413.98249851854
 21
-1837.999757587222
 31
0.0
  0
LINE
  5
1A7C2
  8
0
  6
BYBLOCK
 10
2415.98249851854
 20
-1837.463859207222
 30
0.0
 11
2413.98249851854
 21
-1837.463859207222
 31
0.0
  0
TEXT
  5
1A7C3
  8
1DIM
  6
CONTINUOUS
 10
2408.949165185207
 20
-1836.763859207222
 30
0.0
 40
3.5
  1
3
  0
LINE
  5
1A7C4
  8
0
  6
BYBLOCK
 10
2501.700210186809
 20
-1866.297508677935
 30
0.0
 11
2501.164311806809
 21
-1868.297508677935
 31
0.0
  0
LINE
  5
1A7C5
  8
0
  6
BYBLOCK
 10
2501.164311806809
 20
-1868.297508677935
 30
0.0
 11
2500.628413426808
 21
-1866.297508677935
 31
0.0
  0
LINE
  5
1A7C6
  8
0
  6
BYBLOCK
 10
2501.164311806809
 20
-1868.297508677935
 30
0.0
 11
2501.164311806809
 21
-1866.297508677935
 31
0.0
  0
LINE
  5
1A7C7
  8
0
  6
BYBLOCK
 10
2500.628413426808
 20
-1860.297508677935
 30
0.0
 11
2501.164311806809
 21
-1858.297508677935
 31
0.0
  0
LINE
  5
1A7C8
  8
0
  6
BYBLOCK
 10
2501.164311806809
 20
-1858.297508677935
 30
0.0
 11
2501.700210186809
 21
-1860.297508677935
 31
0.0
  0
LINE
  5
1A7C9
  8
0
  6
BYBLOCK
 10
2501.164311806809
 20
-1858.297508677935
 30
0.0
 11
2501.164311806809
 21
-1860.297508677935
 31
0.0
  0
TEXT
  5
1A7CA
  8
1DIM
  6
CONTINUOUS
 10
2500.464311806809
 20
-1855.445425344601
 30
0.0
 40
3.5
  1
φ10
 50
90.0
1001
ACAD
1000
DSTYLE
1002
{
1070
     3
1000
φ<>
1002
}
  0
VIEWPORT
  5
57
 67
     1
  8
0
 10
0.0
 20
0.0
 30
0.0
 40
600.1703601108032
 41
297.0
 68
     1
 69
     1
1001
ACAD
1000
MVIEW
1002
{
1070
    16
1010
0.0
1020
0.0
1030
0.0
1010
0.0
1020
0.0
1030
1.0
1040
0.0
1040
297.0
1040
-4.272048862584541
1040
18.33904653606845
1040
50.0
1040
0.0
1040
0.0
1070
    16
1070
   100
1070
     0
1070
     1
1070
     0
1070
     0
1070
     0
1070
     0
1040
0.0
1040
0.0
1040
0.0
1040
10.0
1040
10.0
1040
10.0
1040
10.0
1070
     0
1002
{
1002
}
1002
}
  0
ENDSEC
  0
EOF
