  0
SECTION
  2
HEADER
  9
$ACADVER
  1
AC1009
  9
$INSBASE
 10
0.0
 20
0.0
 30
0.0
  9
$EXTMIN
 10
287.49118538816828
 20
-467.32356013508269
 30
0.0
  9
$EXTMAX
 10
600.28324996168476
 20
-307.32356013508269
 30
0.0
  9
$LIMMIN
 10
0.0
 20
0.0
  9
$LIMMAX
 10
420.0
 20
297.0
  9
$ORTHOMODE
 70
     0
  9
$REGENMODE
 70
     1
  9
$FILLMODE
 70
     1
  9
$QTEXTMODE
 70
     0
  9
$MIRRTEXT
 70
     0
  9
$DRAGMODE
 70
     2
  9
$LTSCALE
 40
0.5
  9
$OSMODE
 70
    63
  9
$ATTMODE
 70
     1
  9
$TEXTSIZE
 40
4.0
  9
$TRACEWID
 40
1.0
  9
$TEXTSTYLE
  7
STANDARD
  9
$CLAYER
  8
1TEXT
  9
$CELTYPE
  6
BYLAYER
  9
$CECOLOR
 62
   256
  9
$DIMSCALE
 40
1.0
  9
$DIMASZ
 40
2.0
  9
$DIMEXO
 40
0.0
  9
$DIMDLI
 40
7.0
  9
$DIMRND
 40
0.0
  9
$DIMDLE
 40
0.0
  9
$DIMEXE
 40
1.0
  9
$DIMTP
 40
0.0
  9
$DIMTM
 40
0.0
  9
$DIMTXT
 40
3.5
  9
$DIMCEN
 40
0.0
  9
$DIMTSZ
 40
0.0
  9
$DIMTOL
 70
     0
  9
$DIMLIM
 70
     0
  9
$DIMTIH
 70
     0
  9
$DIMTOH
 70
     0
  9
$DIMSE1
 70
     0
  9
$DIMSE2
 70
     0
  9
$DIMTAD
 70
     1
  9
$DIMZIN
 70
     8
  9
$DIMBLK
  1

  9
$DIMASO
 70
     1
  9
$DIMSHO
 70
     1
  9
$DIMPOST
  1
 
  9
$DIMAPOST
  1

  9
$DIMALT
 70
     0
  9
$DIMALTD
 70
     2
  9
$DIMALTF
 40
25.399999999999999
  9
$DIMLFAC
 40
1.0
  9
$DIMTOFL
 70
     1
  9
$DIMTVP
 40
0.0
  9
$DIMTIX
 70
     0
  9
$DIMSOXD
 70
     0
  9
$DIMSAH
 70
     1
  9
$DIMBLK1
  1
OPEN30
  9
$DIMBLK2
  1
OPEN30
  9
$DIMSTYLE
  2
NEWX10
  9
$DIMCLRD
 70
   256
  9
$DIMCLRE
 70
   256
  9
$DIMCLRT
 70
   201
  9
$DIMTFAC
 40
0.7
  9
$DIMGAP
 40
0.7
  9
$LUNITS
 70
     2
  9
$LUPREC
 70
     4
  9
$SKETCHINC
 40
1.0
  9
$FILLETRAD
 40
0.0
  9
$AUNITS
 70
     0
  9
$AUPREC
 70
     2
  9
$MENU
  1
acad
  9
$ELEVATION
 40
0.0
  9
$PELEVATION
 40
0.0
  9
$THICKNESS
 40
0.0
  9
$LIMCHECK
 70
     0
  9
$BLIPMODE
 70
     0
  9
$CHAMFERA
 40
1.0
  9
$CHAMFERB
 40
1.0
  9
$SKPOLY
 70
     0
  9
$TDCREATE
 40
2453033.7326634838
  9
$TDUPDATE
 40
2457028.4680694789
  9
$TDINDWG
 40
2.5780893403
  9
$TDUSRTIMER
 40
2.5780893403
  9
$USRTIMER
 70
     1
  9
$ANGBASE
 50
0.0
  9
$ANGDIR
 70
     0
  9
$PDMODE
 70
     0
  9
$PDSIZE
 40
0.0
  9
$PLINEWID
 40
0.0
  9
$COORDS
 70
     0
  9
$SPLFRAME
 70
     0
  9
$SPLINETYPE
 70
     6
  9
$SPLINESEGS
 70
     8
  9
$ATTDIA
 70
     0
  9
$ATTREQ
 70
     1
  9
$HANDLING
 70
     1
  9
$HANDSEED
  5
202A3
  9
$SURFTAB1
 70
     6
  9
$SURFTAB2
 70
     6
  9
$SURFTYPE
 70
     6
  9
$SURFU
 70
     6
  9
$SURFV
 70
     6
  9
$UCSNAME
  2

  9
$UCSORG
 10
0.0
 20
0.0
 30
0.0
  9
$UCSXDIR
 10
1.0
 20
0.0
 30
0.0
  9
$UCSYDIR
 10
0.0
 20
1.0
 30
0.0
  9
$PUCSNAME
  2

  9
$PUCSORG
 10
0.0
 20
0.0
 30
0.0
  9
$PUCSXDIR
 10
1.0
 20
0.0
 30
0.0
  9
$PUCSYDIR
 10
0.0
 20
1.0
 30
0.0
  9
$USERI1
 70
     0
  9
$USERI2
 70
     0
  9
$USERI3
 70
     0
  9
$USERI4
 70
     0
  9
$USERI5
 70
     0
  9
$USERR1
 40
0.0
  9
$USERR2
 40
0.0
  9
$USERR3
 40
0.0
  9
$USERR4
 40
0.0
  9
$USERR5
 40
0.0
  9
$WORLDVIEW
 70
     1
  9
$SHADEDGE
 70
     3
  9
$SHADEDIF
 70
    70
  9
$TILEMODE
 70
     1
  9
$MAXACTVP
 70
    48
  9
$PLIMCHECK
 70
     0
  9
$PEXTMIN
 10
1.0000000000000000E+020
 20
1.0000000000000000E+020
 30
1.0000000000000000E+020
  9
$PEXTMAX
 10
-1.0000000000000000E+020
 20
-1.0000000000000000E+020
 30
-1.0000000000000000E+020
  9
$PLIMMIN
 10
0.0
 20
0.0
  9
$PLIMMAX
 10
420.0
 20
297.0
  9
$UNITMODE
 70
     0
  9
$VISRETAIN
 70
     1
  9
$PLINEGEN
 70
     0
  9
$PSLTSCALE
 70
     1
  0
ENDSEC
  0
SECTION
  2
TABLES
  0
TABLE
  2
VPORT
 70
     1
  0
VPORT
  2
*ACTIVE
 70
     0
 10
0.0
 20
0.0
 11
1.0
 21
1.0
 12
443.87857875565243
 22
-387.31193480120493
 13
0.0
 23
0.0
 14
10.0
 24
10.0
 15
10.0
 25
10.0
 16
0.0
 26
0.0
 36
1.0
 17
0.0
 27
0.0
 37
0.0
 40
169.747377347644
 41
2.1749379652605461
 42
50.0
 43
0.0
 44
0.0
 50
0.0
 51
0.0
 71
     0
 72
   100
 73
     1
 74
     1
 75
     0
 76
     0
 77
     0
 78
     0
  0
ENDTAB
  0
TABLE
  2
LTYPE
 70
    18
  0
LTYPE
  2
CONTINUOUS
 70
     0
  3
Solid line
 72
    65
 73
     0
 40
0.0
  0
LTYPE
  2
CENTER2
 70
     0
  3
Center (.5x) ___ _ ___ _ ___ _ ___ _ ___ _ ___
 72
    65
 73
     4
 40
28.574999999999999
 49
19.050000000000001
 49
-3.1749999999999989
 49
3.1749999999999989
 49
-3.1749999999999989
  0
ENDTAB
  0
TABLE
  2
LAYER
 70
    44
  0
LAYER
  2
0
 70
     0
 62
     7
  6
CONTINUOUS
  0
LAYER
  2
1CENTER
 70
     0
 62
     7
  6
CENTER2
  0
LAYER
  2
1TEXT
 70
     0
 62
     7
  6
CONTINUOUS
  0
LAYER
  2
1DIM
 70
     0
 62
     7
  6
CONTINUOUS
  0
LAYER
  2
01
 70
     0
 62
     1
  6
CONTINUOUS
  0
ENDTAB
  0
TABLE
  2
STYLE
 70
    25
  0
STYLE
  2
STANDARD
 70
     0
 40
0.0
 41
1.0
 50
0.0
 71
     0
 42
4.0
  3
txt.shx
  4
extfont.shx
  0
ENDTAB
  0
TABLE
  2
VIEW
 70
     5
  0
ENDTAB
  0
TABLE
  2
UCS
 70
     0
  0
ENDTAB
  0
TABLE
  2
APPID
 70
    15
  0
APPID
  2
ACAD
 70
     0
  0
APPID
  2
DRAWINGVARIABLESXDATA
 70
     0
  0
APPID
  2
CONTENTTABDATA
 70
     0
  0
APPID
  2
CONTENTCURRENTTAB
 70
     0
  0
APPID
  2
CONTENTBLOCKDESCRIPTION
 70
     0
  0
APPID
  2
CONTENTBLOCKICON
 70
     0
  0
APPID
  2
CONTENTLONGBLOCKNAME
 70
     0
  0
APPID
  2
ACAD_PSEXT
 70
     0
  0
APPID
  2
ACAD_DSTYLE_DIMTEXT_FILL
 70
     0
  0
APPID
  2
ACAD_MLEADERVER
 70
     0
  0
APPID
  2
ACAD_DSTYLE_DIMRADIAL_EXTENSION
 70
     0
  0
APPID
  2
ACADANNOTATIVE
 70
     0
  0
APPID
  2
ACAD_EXEMPT_FROM_CAD_STANDARDS
 70
     0
  0
APPID
  2
ACLAYERTOOLS
 70
     0
  0
APPID
  2
ACAD_NAV_VCDISPLAY
 70
     0
  0
ENDTAB
  0
TABLE
  2
DIMSTYLE
 70
    10
  0
DIMSTYLE
  2
NEWX10
 70
     0
  3
 
  4

  5

  6
OPEN30
  7
OPEN30
 40
1.0
 41
2.0
 42
0.0
 43
7.0
 44
1.0
 45
0.0
 46
0.0
 47
0.0
 48
0.0
140
3.5
141
0.0
142
0.0
143
25.399999999999999
144
1.0
145
0.0
146
0.7
147
0.7
 71
     0
 72
     0
 73
     0
 74
     0
 75
     0
 76
     0
 77
     1
 78
     8
170
     0
171
     2
172
     1
173
     1
174
     0
175
     0
176
   256
177
   256
178
   201
  0
ENDTAB
  0
ENDSEC
  0
SECTION
  2
BLOCKS
  0
BLOCK
  8
0
  2
$MODEL_SPACE
 70
     0
 10
0.0
 20
0.0
 30
0.0
  3
$MODEL_SPACE
  1

  0
ENDBLK
  5
1A
  8
0
  0
BLOCK
 67
     1
  8
0
  2
$PAPER_SPACE
 70
     0
 10
0.0
 20
0.0
 30
0.0
  3
$PAPER_SPACE
  1

  0
ENDBLK
  5
17
 67
     1
  8
0
  0
BLOCK
  8
0
  2
_OPEN30
 70
     0
 10
0.0
 20
0.0
 30
0.0
  3
_OPEN30
  1

  0
LINE
  5
44
  8
0
  6
BYBLOCK
 62
     0
 10
-1.0
 20
0.26794919
 30
0.0
 11
0.0
 21
0.0
 31
0.0
  0
LINE
  5
45
  8
0
  6
BYBLOCK
 62
     0
 10
0.0
 20
0.0
 30
0.0
 11
-1.0
 21
-0.26794919
 31
0.0
  0
LINE
  5
46
  8
0
  6
BYBLOCK
 62
     0
 10
0.0
 20
0.0
 30
0.0
 11
-1.0
 21
0.0
 31
0.0
  0
ENDBLK
  5
47
  8
0
  0
ENDSEC
  0
SECTION
  2
ENTITIES
  0
LINE
  5
1FE1E
  8
01
 10
430.73531582096211
 20
-406.44580229451572
 30
0.0
 11
431.08503883428779
 21
-406.44580229451572
 31
0.0
  0
LINE
  5
1FE1F
  8
01
 10
432.08503883428739
 20
-424.22536229885509
 30
0.0
 11
432.08503883428779
 21
-407.4458022945156
 31
0.0
  0
ARC
  5
1FE20
  8
01
 10
431.08503883428779
 20
-407.4458022945156
 30
0.0
 40
1.0
 50
0.0
 51
90.0
  0
LINE
  5
1FE21
  8
01
 10
431.08503883428727
 20
-425.22536229885509
 30
0.0
 11
430.69128313767533
 21
-425.22536229885509
 31
0.0
  0
ARC
  5
1FE22
  8
01
 10
431.08503883428727
 20
-424.22536229885509
 30
0.0
 40
1.0
 50
270.0
 51
0.0
  0
LINE
  5
1FE23
  8
01
 10
429.69128313767533
 20
-424.22536229885509
 30
0.0
 11
429.69128313767482
 21
-410.49626995944482
 31
0.0
  0
ARC
  5
1FE24
  8
01
 10
430.69128313767533
 20
-424.22536229885509
 30
0.0
 40
1.0
 50
180.0
 51
270.0
  0
LINE
  5
1FE25
  8
01
 10
429.69128313767533
 20
-410.49626995944482
 30
0.0
 11
428.38178837313711
 21
-410.49626995944482
 31
0.0
  0
LINE
  5
1FE26
  8
01
 10
427.48178837313708
 20
-409.59626995944473
 30
0.0
 11
427.48178837313708
 21
-409.43434360521587
 31
0.0
  0
ARC
  5
1FE27
  8
01
 10
428.38178837313711
 20
-409.59626995944473
 30
0.0
 40
0.9
 50
180.0
 51
270.0
  0
LINE
  5
1FE28
  8
01
 10
446.67170319519118
 20
-410.05702477789089
 30
0.0
 11
446.67170319519118
 21
-410.69609336439072
 31
0.0
  0
LINE
  5
1FE29
  8
01
 10
445.67170319519113
 20
-411.69609336439078
 30
0.0
 11
445.48277935965422
 21
-411.69609336439078
 31
0.0
  0
ARC
  5
1FE2A
  8
01
 10
445.67170319519113
 20
-410.69609336439078
 30
0.0
 40
1.0
 50
270.0
 51
0.0000000000130276
  0
LINE
  5
1FE2B
  8
01
 10
444.46319028286189
 20
-423.4131564677777
 30
0.0
 11
444.46319028286138
 21
-424.22798057142512
 31
0.0
  0
ARC
  5
1FE2C
  8
01
 10
445.46319028286138
 20
-424.22798057142558
 30
0.0
 40
1.0
 50
179.99999999998701
 51
270.0
  0
LINE
  5
1FE2D
  8
01
 10
445.46319028286138
 20
-425.22798057142558
 30
0.0
 11
450.45888730434581
 21
-425.22798057142558
 31
0.0
  0
LINE
  5
1FE2E
  8
01
 10
447.04022505932471
 20
-423.01881309095683
 30
0.0
 11
450.45888730434581
 21
-423.01881309095683
 31
0.0
  0
ARC
  5
1FE2F
  8
01
 10
450.45888730434581
 20
-424.01881309095688
 30
0.0
 40
1.0
 50
359.99999999997402
 51
90.0
  0
LINE
  5
1FE30
  8
01
 10
451.45888730434569
 20
-424.01881309095711
 30
0.0
 11
451.45888730434569
 21
-424.2279805714258
 31
0.0
  0
ARC
  5
1FE31
  8
01
 10
450.45888730434581
 20
-424.22798057142558
 30
0.0
 40
1.0
 50
270.0
 51
359.99999999998698
  0
LINE
  5
1FE32
  8
01
 10
451.2675260835062
 20
-413.41885387304399
 30
0.0
 11
447.04022505932471
 21
-423.01881309095683
 31
0.0
  0
LINE
  5
1FE33
  8
01
 10
444.54798091827928
 20
-423.01017778474278
 30
0.0
 11
449.21204151673459
 21
-412.4175779366941
 31
0.0
  0
ARC
  5
1FE34
  8
01
 10
445.46319028286177
 20
-423.41315646777821
 30
0.0
 40
1.0
 50
156.23547710630501
 51
179.99999999997391
  0
LINE
  5
1FE35
  8
01
 10
465.49407800529252
 20
-409.72337445161952
 30
0.0
 11
465.49407800529252
 21
-410.38008641993258
 31
0.0
  0
ARC
  5
1FE36
  8
01
 10
464.49407800529252
 20
-410.38008641993258
 30
0.0
 40
1.0
 50
270.0
 51
0.0
  0
LINE
  5
1FE37
  8
01
 10
463.1009768768194
 20
-409.90779904384112
 30
0.0
 11
463.1009768768194
 21
-410.38008641993258
 31
0.0
  0
LINE
  5
1FE38
  8
01
 10
464.49407800529252
 20
-411.38008641993258
 30
0.0
 11
464.1009768768194
 21
-411.38008641993258
 31
0.0
  0
ARC
  5
1FE39
  8
01
 10
464.1009768768194
 20
-410.38008641993258
 30
0.0
 40
1.0
 50
180.0
 51
270.0
  0
LINE
  5
1FE3A
  8
01
 10
466.96751089375852
 20
-414.60121624849103
 30
0.0
 11
466.94653351744449
 21
-414.60121624849103
 31
0.0
  0
LINE
  5
1FE3B
  8
01
 10
467.06406145798741
 20
-416.81103829710241
 30
0.0
 11
467.04653351744491
 21
-416.81103829710241
 31
0.0
  0
ARC
  5
1FE3C
  8
01
 10
467.0465335174444
 20
-415.81103829710241
 30
0.0
 40
1.0
 50
180.0
 51
270.00000000002598
  0
LINE
  5
1FE3D
  8
01
 10
466.0465335174444
 20
-415.81103829710241
 30
0.0
 11
466.0465335174444
 21
-415.50121624849112
 31
0.0
  0
ARC
  5
1FE3E
  8
01
 10
466.94653351744449
 20
-415.50121624849112
 30
0.0
 40
0.9
 50
90.0
 51
180.0
  0
LINE
  5
1FE3F
  8
01
 10
468.07176734992339
 20
-409.72337445161952
 30
0.0
 11
468.07176734992299
 21
-413.59022605549848
 31
0.0
  0
LINE
  5
1FE40
  8
01
 10
470.46585033060501
 20
-409.90779904384112
 30
0.0
 11
470.46585033060501
 21
-413.86548165648242
 31
0.0
  0
LINE
  5
1FE41
  8
01
 10
468.16406145798783
 20
-417.91103829710249
 30
0.0
 11
468.16406145798783
 21
-421.63571064756889
 31
0.0
  0
LINE
  5
1FE42
  8
01
 10
470.55716258646078
 20
-417.36349380925799
 30
0.0
 11
470.55716258646078
 21
-421.45128607124138
 31
0.0
  0
LINE
  5
1FE43
  8
01
 10
465.40211118129758
 20
-421.63571064756837
 30
0.0
 11
465.40211118129758
 21
-421.21675634180809
 31
0.0
  0
LINE
  5
1FE44
  8
01
 10
463.00901005282458
 20
-421.45128607124241
 30
0.0
 11
463.00901005282458
 21
-421.21675634180809
 31
0.0
  0
ARC
  5
1FE45
  8
01
 10
464.00901005282452
 20
-421.21675634180758
 30
0.0
 40
1.0
 50
90.0
 51
180.00000000001299
  0
LINE
  5
1FE46
  8
01
 10
464.40211118129758
 20
-420.21675634180758
 30
0.0
 11
464.00901005282452
 21
-420.21675634180758
 31
0.0
  0
ARC
  5
1FE47
  8
01
 10
464.40211118129758
 20
-421.21675634180758
 30
0.0
 40
1.0
 50
359.99999999997402
 51
90.0
  0
LINE
  5
1FE48
  8
01
 10
488.09069272426808
 20
-420.62178455362789
 30
0.0
 11
488.09069272426808
 21
-424.22536229885509
 31
0.0
  0
LINE
  5
1FE49
  8
01
 10
487.09069272426808
 20
-425.22536229885509
 30
0.0
 11
486.69693702765602
 21
-425.22536229885509
 31
0.0
  0
ARC
  5
1FE4A
  8
01
 10
487.09069272426808
 20
-424.22536229885509
 30
0.0
 40
1.0
 50
270.0
 51
0.0
  0
LINE
  5
1FE4B
  8
01
 10
485.69693702765602
 20
-424.22536229885509
 30
0.0
 11
485.69693702765602
 21
-420.62178455362789
 31
0.0
  0
ARC
  5
1FE4C
  8
01
 10
486.69693702765602
 20
-424.22536229885509
 30
0.0
 40
1.0
 50
180.0
 51
270.0
  0
LINE
  5
1FE4D
  8
01
 10
485.69693702765602
 20
-420.62178455362789
 30
0.0
 11
482.00302887878883
 21
-420.62178455362789
 31
0.0
  0
LINE
  5
1FE4E
  8
01
 10
481.00302887878883
 20
-419.62178455362789
 30
0.0
 11
481.00302887878883
 21
-418.59194945763159
 31
0.0
  0
ARC
  5
1FE4F
  8
01
 10
482.00302887878883
 20
-419.62178455362789
 30
0.0
 40
1.0
 50
180.0
 51
270.0
  0
LINE
  5
1FE50
  8
01
 10
481.06490496178412
 20
-418.24564970836349
 30
0.0
 11
485.17940188263623
 21
-407.0995025452475
 31
0.0
  0
ARC
  5
1FE51
  8
01
 10
482.00302887878883
 20
-418.59194945763159
 30
0.0
 40
1.0
 50
159.73884250240749
 51
180.0
  0
LINE
  5
1FE52
  8
01
 10
486.11752579964099
 20
-406.44580229451589
 30
0.0
 11
487.09069272426808
 21
-406.44580229451589
 31
0.0
  0
ARC
  5
1FE53
  8
01
 10
486.11752579964099
 20
-407.44580229451589
 30
0.0
 40
1.0
 50
90.0
 51
159.73884250240749
  0
LINE
  5
1FE54
  8
01
 10
488.09069272426808
 20
-407.44580229451589
 30
0.0
 11
488.09069272426808
 21
-418.41327164130178
 31
0.0
  0
ARC
  5
1FE55
  8
01
 10
487.09069272426808
 20
-407.44580229451589
 30
0.0
 40
1.0
 50
0.0
 51
90.0
  0
LINE
  5
1FE56
  8
01
 10
488.09069272426808
 20
-418.41327164130178
 30
0.0
 11
488.56347104458058
 21
-418.41327164130178
 31
0.0
  0
ARC
  5
1FE57
  8
01
 10
488.56347104458058
 20
-419.41327164130189
 30
0.0
 40
1.0
 50
0.0
 51
90.0
  0
LINE
  5
1FE58
  8
01
 10
489.56347104458058
 20
-419.41327164130189
 30
0.0
 11
489.56347104458058
 21
-419.62178455362789
 31
0.0
  0
ARC
  5
1FE59
  8
01
 10
488.56347104458058
 20
-419.62178455362789
 30
0.0
 40
1.0
 50
270.0
 51
0.0
  0
LINE
  5
1FE5A
  8
01
 10
488.56347104458058
 20
-420.62178455362789
 30
0.0
 11
488.09069272426808
 21
-420.62178455362789
 31
0.0
  0
LINE
  5
1FE5B
  8
01
 10
483.3954754391084
 20
-418.41327164130178
 30
0.0
 11
485.69693702765602
 21
-418.41327164130178
 31
0.0
  0
LINE
  5
1FE5C
  8
01
 10
485.69693702765602
 20
-418.41327164130178
 30
0.0
 11
485.69693702765602
 21
-411.69347509182398
 31
0.0
  0
LINE
  5
1FE5D
  8
01
 10
485.69693702765602
 20
-411.69347509182398
 30
0.0
 11
483.3954754391084
 21
-418.41327164130178
 31
0.0
  0
LINE
  5
1FE5E
  8
01
 10
502.58669939745539
 20
-408.43518434746647
 30
0.0
 11
506.18896800638271
 21
-408.43518434746647
 31
0.0
  0
LINE
  5
1FE5F
  8
01
 10
507.18896800638282
 20
-407.43518434746642
 30
0.0
 11
507.18896800638282
 21
-407.22536229885509
 31
0.0
  0
ARC
  5
1FE60
  8
01
 10
506.18896800638271
 20
-407.43518434746642
 30
0.0
 40
1.0
 50
270.0
 51
0.0
  0
LINE
  5
1FE61
  8
01
 10
506.18896800638271
 20
-406.22536229885498
 30
0.0
 11
501.19294370082889
 21
-406.22536229885498
 31
0.0
  0
ARC
  5
1FE62
  8
01
 10
506.18896800638271
 20
-407.22536229885509
 30
0.0
 40
1.0
 50
0.0
 51
90.0
  0
LINE
  5
1FE63
  8
01
 10
500.19294370082878
 20
-407.22536229885509
 30
0.0
 11
500.19294370082878
 21
-415.44382556925251
 31
0.0
  0
ARC
  5
1FE64
  8
01
 10
501.19294370082889
 20
-407.22536229885509
 30
0.0
 40
1.0
 50
90.0
 51
180.0
  0
LINE
  5
1FE65
  8
01
 10
501.19294370082889
 20
-416.44382556925251
 30
0.0
 11
501.82202595635681
 21
-416.44382556925251
 31
0.0
  0
ARC
  5
1FE66
  8
01
 10
501.19294370082889
 20
-415.44382556925251
 30
0.0
 40
1.0
 50
180.0
 51
270.0
  0
LINE
  5
1FE67
  8
01
 10
502.58669939745539
 20
-413.68940244975192
 30
0.0
 11
502.58669939745539
 21
-408.43518434746647
 31
0.0
  0
LINE
  5
1FE68
  8
01
 10
505.07144006585389
 20
-416.44382556925251
 30
0.0
 11
505.07144006585389
 21
-421.69117105019222
 31
0.0
  0
LINE
  5
1FE69
  8
01
 10
507.46552304653551
 20
-421.94630177808102
 30
0.0
 11
507.46552304653551
 21
-416.02821020064891
 31
0.0
  0
LINE
  5
1FE6A
  8
01
 10
502.49440528937703
 20
-421.69117105019222
 30
0.0
 11
502.49440528937703
 21
-420.84954361396098
 31
0.0
  0
LINE
  5
1FE6B
  8
01
 10
501.49440528937703
 20
-419.84954361396137
 30
0.0
 11
501.1006495927644
 21
-419.84954361396137
 31
0.0
  0
ARC
  5
1FE6C
  8
01
 10
501.49440528937703
 20
-420.84954361396149
 30
0.0
 40
1.0
 50
0.0000000000130276
 51
90.0
  0
LINE
  5
1FE6D
  8
01
 10
500.10064959276451
 20
-420.84954361396149
 30
0.0
 11
500.10064959276451
 21
-421.94635143383471
 31
0.0
  0
ARC
  5
1FE6E
  8
01
 10
501.1006495927644
 20
-420.84954361396149
 30
0.0
 40
1.0
 50
90.0
 51
180.0
  0
LINE
  5
1FE6F
  8
01
 10
518.6009768768339
 20
-421.94907182311039
 30
0.0
 11
518.6009768768339
 21
-409.50165277619323
 31
0.0
  0
LINE
  5
1FE70
  8
01
 10
520.99473257344596
 20
-413.93775392869259
 30
0.0
 11
520.99473257344596
 21
-409.74424661192802
 31
0.0
  0
LINE
  5
1FE71
  8
01
 10
523.57144006585349
 20
-409.74151777321953
 30
0.0
 11
523.57144006585349
 21
-409.91861586484782
 31
0.0
  0
LINE
  5
1FE72
  8
01
 10
524.57144006585349
 20
-410.91861586484742
 30
0.0
 11
524.96519576246601
 21
-410.91861586484742
 31
0.0
  0
ARC
  5
1FE73
  8
01
 10
524.57144006585349
 20
-409.91861586484742
 30
0.0
 40
1.0
 50
180.00000000002601
 51
270.0
  0
LINE
  5
1FE74
  8
01
 10
525.96519576246601
 20
-409.91861586484742
 30
0.0
 11
525.96519576246601
 21
-409.52205999754358
 31
0.0
  0
ARC
  5
1FE75
  8
01
 10
524.96519576246601
 20
-409.91861586484742
 30
0.0
 40
1.0
 50
270.0
 51
0.0
  0
LINE
  5
1FE76
  8
01
 10
520.9947325734455
 20
-416.92551317801662
 30
0.0
 11
520.99473257344596
 21
-421.70647797732818
 31
0.0
  0
LINE
  5
1FE77
  8
01
 10
523.57144006585395
 20
-421.70920681461098
 30
0.0
 11
523.5714400658544
 21
-416.92278433930142
 31
0.0
  0
LINE
  5
1FE78
  8
01
 10
525.96519576246601
 20
-416.19989336310368
 30
0.0
 11
525.96519576246601
 21
-421.92866460176992
 31
0.0
  0
LINE
  5
1FE79
  8
01
 10
539.84829328710657
 20
-425.22536229885509
 30
0.0
 11
539.50542767872355
 21
-425.22536229885509
 31
0.0
  0
ARC
  5
1FE7A
  8
01
 10
539.50542767872355
 20
-424.22536229885509
 30
0.0
 40
1.0
 50
167.16814923207059
 51
270.0
  0
LINE
  5
1FE7B
  8
01
 10
538.53040163406513
 20
-424.00327174921898
 30
0.0
 11
542.02627486403026
 21
-408.65562434312727
 31
0.0
  0
LINE
  5
1FE7C
  8
01
 10
542.02627486403026
 20
-408.65562434312727
 30
0.0
 11
538.1471239308662
 21
-408.65562434312727
 31
0.0
  0
LINE
  5
1FE7D
  8
01
 10
537.1471239308662
 20
-407.65562434312727
 30
0.0
 11
537.1471239308662
 21
-407.44580229451589
 31
0.0
  0
ARC
  5
1FE7E
  8
01
 10
538.1471239308662
 20
-407.65562434312727
 30
0.0
 40
1.0
 50
180.0
 51
270.0
  0
LINE
  5
1FE7F
  8
01
 10
538.1471239308662
 20
-406.44580229451589
 30
0.0
 11
543.41937599250332
 21
-406.44580229451589
 31
0.0
  0
ARC
  5
1FE80
  8
01
 10
538.1471239308662
 20
-407.44580229451589
 30
0.0
 40
1.0
 50
90.0
 51
180.0
  0
LINE
  5
1FE81
  8
01
 10
544.41937599250332
 20
-407.44580229451589
 30
0.0
 11
544.41937599250332
 21
-408.63485502469518
 31
0.0
  0
ARC
  5
1FE82
  8
01
 10
543.41937599250332
 20
-407.44580229451589
 30
0.0
 40
1.0
 50
0.0
 51
90.0
  0
LINE
  5
1FE83
  8
01
 10
544.39413201794787
 20
-408.85812770743951
 30
0.0
 11
540.82304931255112
 21
-424.4486349815993
 31
0.0
  0
ARC
  5
1FE84
  8
01
 10
543.41937599250332
 20
-408.63485502469518
 30
0.0
 40
1.0
 50
347.09867353972578
 51
0.0
  0
ARC
  5
1FE85
  8
01
 10
539.84829328710657
 20
-424.22536229885509
 30
0.0
 40
1.0
 50
270.0
 51
347.09867353972578
  0
LINE
  5
1FE86
  8
01
 10
592.69327530908095
 20
-421.58699062335972
 30
0.0
 11
592.69327530908095
 21
-409.8634885030537
 31
0.0
  0
LINE
  5
1FE87
  8
01
 10
594.9024427895497
 20
-421.63546514404021
 30
0.0
 11
594.9024427895497
 21
-409.81501398237202
 31
0.0
  0
LINE
  5
1FE88
  8
01
 10
597.66341121403127
 20
-409.81501398237202
 30
0.0
 11
597.66341121403127
 21
-421.63546514404021
 31
0.0
  0
LINE
  5
1FE89
  8
01
 10
599.87290597856963
 20
-421.63546514404021
 30
0.0
 11
599.87290597856963
 21
-409.81501398237202
 31
0.0
  0
LINE
  5
1FE8A
  8
1CENTER
 10
425.7832499616847
 20
-415.83820056925242
 30
0.0
 11
433.78324996168482
 21
-415.83820056925242
 31
0.0
  0
LINE
  5
1FE8B
  8
1CENTER
 10
429.7832499616847
 20
-419.83820056925242
 30
0.0
 11
429.7832499616847
 21
-411.83820056925242
 31
0.0
  0
LINE
  5
1FE8C
  8
1CENTER
 10
444.2832499616847
 20
-415.83820056925242
 30
0.0
 11
452.2832499616847
 21
-415.83820056925242
 31
0.0
  0
LINE
  5
1FE8D
  8
1CENTER
 10
448.2832499616847
 20
-419.83820056925242
 30
0.0
 11
448.2832499616847
 21
-411.83820056925242
 31
0.0
  0
LINE
  5
1FE8E
  8
1CENTER
 10
462.78324996168482
 20
-415.83820056925242
 30
0.0
 11
470.78324996168482
 21
-415.83820056925242
 31
0.0
  0
LINE
  5
1FE8F
  8
1CENTER
 10
466.78324996168482
 20
-419.83820056925242
 30
0.0
 11
466.78324996168482
 21
-411.83820056925242
 31
0.0
  0
LINE
  5
1FE90
  8
1CENTER
 10
481.2832499616847
 20
-415.83820056925242
 30
0.0
 11
489.2832499616847
 21
-415.83820056925242
 31
0.0
  0
LINE
  5
1FE91
  8
1CENTER
 10
485.2832499616847
 20
-419.83820056925242
 30
0.0
 11
485.2832499616847
 21
-411.83820056925242
 31
0.0
  0
LINE
  5
1FE92
  8
1CENTER
 10
499.7832499616847
 20
-415.83820056925242
 30
0.0
 11
507.7832499616847
 21
-415.83820056925242
 31
0.0
  0
LINE
  5
1FE93
  8
1CENTER
 10
503.7832499616847
 20
-419.83820056925242
 30
0.0
 11
503.7832499616847
 21
-411.83820056925242
 31
0.0
  0
LINE
  5
1FE94
  8
1CENTER
 10
518.28324996168465
 20
-415.83820056925242
 30
0.0
 11
526.28324996168465
 21
-415.83820056925242
 31
0.0
  0
LINE
  5
1FE95
  8
1CENTER
 10
522.28324996168465
 20
-419.83820056925242
 30
0.0
 11
522.28324996168465
 21
-411.83820056925242
 31
0.0
  0
LINE
  5
1FE96
  8
1CENTER
 10
536.78324996168465
 20
-415.83820056925242
 30
0.0
 11
544.78324996168465
 21
-415.83820056925242
 31
0.0
  0
LINE
  5
1FE97
  8
1CENTER
 10
540.78324996168465
 20
-419.83820056925242
 30
0.0
 11
540.78324996168465
 21
-411.83820056925242
 31
0.0
  0
LINE
  5
1FE98
  8
1CENTER
 10
555.28324996168465
 20
-415.83820056925242
 30
0.0
 11
563.28324996168465
 21
-415.83820056925242
 31
0.0
  0
LINE
  5
1FE99
  8
1CENTER
 10
559.28324996168465
 20
-419.83820056925242
 30
0.0
 11
559.28324996168465
 21
-411.83820056925242
 31
0.0
  0
LINE
  5
1FE9A
  8
1CENTER
 10
573.78324996168465
 20
-415.83820056925242
 30
0.0
 11
581.78324996168465
 21
-415.83820056925242
 31
0.0
  0
LINE
  5
1FE9B
  8
1CENTER
 10
577.78324996168465
 20
-419.83820056925242
 30
0.0
 11
577.78324996168465
 21
-411.83820056925242
 31
0.0
  0
LINE
  5
1FE9C
  8
1CENTER
 10
592.28324996168465
 20
-415.83820056925242
 30
0.0
 11
600.28324996168476
 21
-415.83820056925242
 31
0.0
  0
LINE
  5
1FE9D
  8
1CENTER
 10
596.28324996168476
 20
-419.83820056925242
 30
0.0
 11
596.28324996168476
 21
-411.83820056925242
 31
0.0
  0
LINE
  5
1FE9F
  8
01
 10
416.88098885596042
 20
-406.22536229885498
 30
0.0
 11
416.88098885596042
 21
-425.22536229885509
 31
0.0
  0
LINE
  5
1FEA0
  8
01
 10
416.88098885596042
 20
-406.22536229885498
 30
0.0
 11
418.88098885595991
 21
-406.22536229885498
 31
0.0
  0
LINE
  5
1FEA1
  8
01
 10
418.88098885596031
 20
-406.22536229885498
 30
0.0
 11
418.88098885596031
 21
-425.22536229885509
 31
0.0
  0
LINE
  5
1FEA2
  8
01
 10
416.88098885596042
 20
-425.22536229885509
 30
0.0
 11
418.88098885595991
 21
-425.22536229885509
 31
0.0
  0
ARC
  5
1FEA4
  8
01
 10
466.78292267760793
 20
-409.72337445161952
 30
0.0
 40
1.2888446723154621
 50
0.0
 51
180.0
  0
ARC
  5
1FEA5
  8
01
 10
466.78341360371218
 20
-409.90779904384112
 30
0.0
 40
3.682436726892774
 50
0.0
 51
180.0
  0
ARC
  5
1FEA6
  8
01
 10
466.78308631964268
 20
-421.6357106475686
 30
0.0
 40
1.380975138345093
 50
179.99999999998701
 51
0.0
  0
ARC
  5
1FEA7
  8
01
 10
466.78308631964268
 20
-421.45128607124138
 30
0.0
 40
3.774076266818156
 50
180.00000000001299
 51
0.0
  0
ARC
  5
1FEA8
  8
01
 10
448.28277935965428
 20
-410.02536229885499
 30
0.0
 40
3.7999999999999989
 50
354.10713919651039
 51
180.0
  0
ARC
  5
1FEA9
  8
01
 10
442.11554253052873
 20
-409.38881701886612
 30
0.0
 40
10.0
 50
336.23391184738381
 51
354.10713919651039
  0
LINE
  5
1FEAA
  8
01
 10
444.4827793596541
 20
-410.02536229885499
 30
0.0
 11
444.4827793596541
 21
-410.69609336439078
 31
0.0
  0
ARC
  5
1FEAB
  8
01
 10
445.48277935965422
 20
-410.69609336439078
 30
0.0
 40
1.0
 50
180.0
 51
270.0
  0
ARC
  5
1FEAC
  8
01
 10
448.17170319519113
 20
-409.72536229885498
 30
0.0
 40
1.399999999999999
 50
10.844551881318729
 51
146.44269023807979
  0
ARC
  5
1FEAD
  8
01
 10
448.67170319519113
 20
-410.05702477789049
 30
0.0
 40
2.0
 50
146.4426902380888
 51
180.00000000001299
  0
ARC
  5
1FEAE
  8
01
 10
444.63599469382279
 20
-410.40268452151798
 30
0.0
 40
5.0
 50
336.2354771063051
 51
10.844551881318729
  0
ARC
  5
1FEAF
  8
01
 10
427.48178837313708
 20
-406.15562434312727
 30
0.0
 40
2.5
 50
285.34947701728788
 51
338.36932571365099
  0
ARC
  5
1FEB0
  8
01
 10
430.73531582096211
 20
-407.4458022945156
 30
0.0
 40
1.0
 50
90.0
 51
158.36932571365099
  0
ARC
  5
1FEB1
  8
01
 10
428.38178837313711
 20
-409.43434360521559
 30
0.0
 40
0.9
 50
105.34947701729099
 51
180.0
  0
ARC
  5
1FEB2
  8
01
 10
466.96751089376539
 20
-413.10121624849103
 30
0.0
 40
1.5
 50
269.99999999976552
 51
282.0352193340766
  0
ARC
  5
1FEB3
  8
01
 10
467.07176734992339
 20
-413.59022605549848
 30
0.0
 40
1.0
 50
282.0352193340766
 51
359.99999999998698
  0
ARC
  5
1FEB4
  8
01
 10
467.06406145798792
 20
-417.91103829710249
 30
0.0
 40
1.1000000000000001
 50
0.0
 51
90.000000000026048
  0
ARC
  5
1FEB5
  8
01
 10
468.95716258646092
 20
-417.36349380925799
 30
0.0
 40
1.6000000000000001
 50
0.0
 51
50.080469881834681
  0
LINE
  5
1FEB6
  8
01
 10
469.36093930630108
 20
-415.6151423010121
 30
0.0
 11
469.98390033677367
 21
-416.1363794738831
 31
0.0
  0
ARC
  5
1FEB7
  8
01
 10
468.66585033060528
 20
-413.86548165648242
 30
0.0
 40
1.8
 50
308.70910346479769
 51
0.0
  0
LINE
  5
1FEB8
  8
01
 10
469.36093930630108
 20
-415.6151423010121
 30
0.0
 11
469.79151029604589
 21
-415.27007755644939
 31
0.0
  0
ARC
  5
1FEB9
  8
01
 10
503.82906973165473
 20
-416.44382556925251
 30
0.0
 40
1.242370334199222
 50
0.0
 51
153.51543771085241
  0
ARC
  5
1FEBA
  8
01
 10
501.82202595635681
 20
-415.44382556925251
 30
0.0
 40
1.0
 50
270.0
 51
333.51543771085238
  0
ARC
  5
1FEBB
  8
01
 10
504.4655230465354
 20
-416.02821020064891
 30
0.0
 40
3.0
 50
0.0
 51
128.77579727611189
  0
ARC
  5
1FEBC
  8
01
 10
503.7829226776152
 20
-421.69117105019222
 30
0.0
 40
1.2885173882386869
 50
180.00000000001299
 51
0.0
  0
ARC
  5
1FEBD
  8
01
 10
503.7829443769046
 20
-419.18820137606212
 30
0.0
 40
6.0
 50
260.08144369855842
 51
279.92445358279582
  0
ARC
  5
1FEBE
  8
01
 10
504.26552304653558
 20
-421.94630177808102
 30
0.0
 40
3.2000000000000002
 50
279.92445358279582
 51
0.0
  0
ARC
  5
1FEBF
  8
01
 10
503.30064959276427
 20
-421.94635143383471
 30
0.0
 40
3.2000000000000002
 50
180.0
 51
260.08144369855842
  0
ARC
  5
1FEC0
  8
01
 10
522.28306462036062
 20
-421.7283319729849
 30
0.0
 40
1.2885173882386869
 50
179.02818404489221
 51
0.8504589122113356
  0
ARC
  5
1FEC1
  8
01
 10
522.28308631965001
 20
-419.22536229885498
 30
0.0
 40
6.0
 50
260.08144369855842
 51
279.92445358279582
  0
ARC
  5
1FEC2
  8
01
 10
522.76566498928105
 20
-421.98346270087399
 30
0.0
 40
3.2000000000000002
 50
279.92445358279582
 51
0.9812041483013265
  0
ARC
  5
1FEC3
  8
01
 10
521.80079153550957
 20
-421.98351235662761
 30
0.0
 40
3.2000000000000002
 50
179.3833327147515
 51
260.08144369855842
  0
ARC
  5
1FEC4
  8
01
 10
522.28306462036062
 20
-409.7223926263195
 30
0.0
 40
1.2885173882386869
 50
359.14954108778858
 51
180.97181595510779
  0
ARC
  5
1FEC5
  8
01
 10
522.28308631965001
 20
-412.2253623004496
 30
0.0
 40
6.0
 50
80.075546417204279
 51
99.918556301441555
  0
ARC
  5
1FEC6
  8
01
 10
522.76566498928105
 20
-409.46726189843071
 30
0.0
 40
3.2000000000000002
 50
359.01879585152932
 51
80.075546417204279
  0
ARC
  5
1FEC7
  8
01
 10
521.80079153550957
 20
-409.46721224267708
 30
0.0
 40
3.2000000000000002
 50
99.918556301441555
 51
180.61666728523551
  0
ARC
  5
1FEC8
  8
01
 10
522.28306462036062
 20
-416.90365919243499
 30
0.0
 40
1.2885173882386869
 50
359.14954108778858
 51
180.97181595510779
  0
ARC
  5
1FEC9
  8
01
 10
522.96519576246601
 20
-416.19989336310368
 30
0.0
 40
3.0
 50
0.0
 51
131.0578772545945
  0
LINE
  5
1FECA
  8
01
 10
581.46585033059046
 20
-409.50165276665388
 30
0.0
 11
581.46585033059046
 21
-421.94907181357138
 31
0.0
  0
LINE
  5
1FECB
  8
01
 10
579.07209463397828
 20
-417.5129706610719
 30
0.0
 11
579.07209463397828
 21
-421.7064779778363
 31
0.0
  0
LINE
  5
1FECC
  8
01
 10
576.49538714157086
 20
-421.70920681654468
 30
0.0
 11
576.49538714157086
 21
-421.53210872491672
 31
0.0
  0
LINE
  5
1FECD
  8
01
 10
575.49538714157086
 20
-420.5321087249169
 30
0.0
 11
575.10163144495834
 21
-420.5321087249169
 31
0.0
  0
ARC
  5
1FECE
  8
01
 10
575.49538714157086
 20
-421.5321087249169
 30
0.0
 40
1.0
 50
0.0000000000260551
 51
90.0
  0
LINE
  5
1FECF
  8
01
 10
574.10163144495834
 20
-421.5321087249169
 30
0.0
 11
574.10163144495834
 21
-421.92866459222063
 31
0.0
  0
ARC
  5
1FED0
  8
01
 10
575.10163144495834
 20
-421.5321087249169
 30
0.0
 40
1.0
 50
90.0
 51
180.0
  0
LINE
  5
1FED1
  8
01
 10
579.07209463397885
 20
-414.52521141174788
 30
0.0
 11
579.07209463397828
 21
-409.7442466124362
 31
0.0
  0
LINE
  5
1FED2
  8
01
 10
576.49538714157052
 20
-409.74151777515351
 30
0.0
 11
576.49538714156995
 21
-414.52794025046302
 31
0.0
  0
LINE
  5
1FED3
  8
01
 10
574.10163144495834
 20
-415.25083122666069
 30
0.0
 11
574.10163144495834
 21
-409.5220599879944
 31
0.0
  0
ARC
  5
1FED4
  8
01
 10
577.78376258706385
 20
-409.72239261677942
 30
0.0
 40
1.2885173882386869
 50
359.02818404489221
 51
180.85045891221131
  0
ARC
  5
1FED5
  8
01
 10
577.78374088777446
 20
-412.22536229090952
 30
0.0
 40
6.0
 50
80.081443698531643
 51
99.924453582768933
  0
ARC
  5
1FED6
  8
01
 10
577.30116221814342
 20
-409.4672618888905
 30
0.0
 40
3.2000000000000002
 50
99.924453582768933
 51
180.98120414830129
  0
ARC
  5
1FED7
  8
01
 10
578.26603567191466
 20
-409.46721223313688
 30
0.0
 40
3.2000000000000002
 50
359.38333271475148
 51
80.081443698531643
  0
ARC
  5
1FED8
  8
01
 10
577.78376258706385
 20
-421.7283319634447
 30
0.0
 40
1.2885173882386869
 50
179.14954108778861
 51
0.9718159551078148
  0
ARC
  5
1FED9
  8
01
 10
577.78374088777446
 20
-419.22536228931489
 30
0.0
 40
6.0
 50
260.07554641723112
 51
279.9185563014683
  0
ARC
  5
1FEDA
  8
01
 10
577.30116221814342
 20
-421.98346269133378
 30
0.0
 40
3.2000000000000002
 50
179.01879585154231
 51
260.07554641723112
  0
ARC
  5
1FEDB
  8
01
 10
578.26603567191466
 20
-421.98351234708753
 30
0.0
 40
3.2000000000000002
 50
279.9185563014683
 51
0.6166672852354966
  0
ARC
  5
1FEDC
  8
01
 10
577.78376258706385
 20
-414.54706539732928
 30
0.0
 40
1.2885173882386869
 50
179.14954108778861
 51
0.9718159551078148
  0
ARC
  5
1FEDD
  8
01
 10
577.10163144495834
 20
-415.25083122666069
 30
0.0
 40
3.0
 50
180.0
 51
311.05787725459459
  0
ARC
  5
1FEDE
  8
01
 10
596.28292700179054
 20
-409.81501398237202
 30
0.0
 40
1.3804842122408441
 50
0.0
 51
180.0
  0
ARC
  5
1FEDF
  8
01
 10
596.28292700179054
 20
-409.81501398237202
 30
0.0
 40
3.5899789767790931
 50
0.0
 51
180.77367301342491
  0
ARC
  5
1FEE0
  8
01
 10
596.28292700179054
 20
-421.63546514404021
 30
0.0
 40
1.3804842122408441
 50
180.0
 51
0.0
  0
ARC
  5
1FEE1
  8
01
 10
596.28292700179054
 20
-421.63546514404021
 30
0.0
 40
3.5899789767790931
 50
179.22632698660109
 51
0.0
  0
LINE
  5
1FEE2
  8
01
 10
562.96519576246601
 20
-413.31504747928909
 30
0.0
 11
562.96519576246601
 21
-409.58005051147978
 31
0.0
  0
LINE
  5
1FEE3
  8
01
 10
560.57176734990878
 20
-409.83523089512232
 30
0.0
 11
560.57176734990878
 21
-413.40750522347321
 31
0.0
  0
LINE
  5
1FEE4
  8
01
 10
557.99440528936236
 20
-413.40750522347321
 30
0.0
 11
557.99440528936202
 21
-409.83523089512249
 31
0.0
  0
LINE
  5
1FEE5
  8
01
 10
555.60032230868035
 20
-409.58010016723341
 30
0.0
 11
555.60032230868035
 21
-413.31504747928909
 31
0.0
  0
ARC
  5
1FEE6
  8
01
 10
558.80032230867982
 20
-409.58010016723341
 30
0.0
 40
3.2000000000000002
 50
99.924453582768933
 51
180.0
  0
ARC
  5
1FEE7
  8
01
 10
559.76519576245119
 20
-409.58005051147978
 30
0.0
 40
3.2000000000000002
 50
0.0
 51
80.081443698531643
  0
ARC
  5
1FEE8
  8
01
 10
559.28290097831075
 20
-412.33820056925242
 30
0.0
 40
6.0
 50
80.081443698584678
 51
99.924453582768933
  0
ARC
  5
1FEE9
  8
01
 10
559.283086319635
 20
-409.83523089512232
 30
0.0
 40
1.2886810302734371
 50
0.0
 51
180.00000000001299
  0
ARC
  5
1FEEA
  8
01
 10
559.28308631963534
 20
-413.40750522347321
 30
0.0
 40
1.2886810302734371
 50
180.0
 51
0.0
  0
ARC
  5
1FEEB
  8
01
 10
559.76519576246619
 20
-413.31504747928909
 30
0.0
 40
3.2000000000000002
 50
307.95581132816841
 51
0.0
  0
ARC
  5
1FEEC
  8
01
 10
558.80032230868017
 20
-413.31504747928909
 30
0.0
 40
3.2000000000000002
 50
180.0
 51
232.04418867183171
  0
LINE
  5
1FEED
  8
01
 10
562.96519576246601
 20
-418.36135365921558
 30
0.0
 11
562.96519576246601
 21
-422.09635062702489
 31
0.0
  0
LINE
  5
1FEEE
  8
01
 10
560.57176734990878
 20
-421.84117024338252
 30
0.0
 11
560.57176734990878
 21
-418.26889591503158
 31
0.0
  0
LINE
  5
1FEEF
  8
01
 10
557.99440528936236
 20
-418.26889591503158
 30
0.0
 11
557.99440528936202
 21
-421.84117024338218
 31
0.0
  0
LINE
  5
1FEF0
  8
01
 10
555.60032230868035
 20
-422.0963009712716
 30
0.0
 11
555.60032230868035
 21
-418.36135365921558
 31
0.0
  0
ARC
  5
1FEF1
  8
01
 10
558.80032230867982
 20
-422.09630097127132
 30
0.0
 40
3.2000000000000002
 50
180.0
 51
260.07554641723112
  0
ARC
  5
1FEF2
  8
01
 10
559.76519576245119
 20
-422.09635062702489
 30
0.0
 40
3.2000000000000002
 50
279.9185563014683
 51
0.0
  0
ARC
  5
1FEF3
  8
01
 10
559.28290097831075
 20
-419.33820056925242
 30
0.0
 40
6.0
 50
260.07554641723112
 51
279.91855630141532
  0
ARC
  5
1FEF4
  8
01
 10
559.283086319635
 20
-421.84117024338252
 30
0.0
 40
1.2886810302734371
 50
179.99999999998701
 51
0.0
  0
ARC
  5
1FEF5
  8
01
 10
559.28308631963534
 20
-418.26889591503158
 30
0.0
 40
1.2886810302734371
 50
0.0
 51
180.0
  0
ARC
  5
1FEF6
  8
01
 10
559.76519576246619
 20
-418.36135365921558
 30
0.0
 40
3.2000000000000002
 50
0.0
 51
52.044188671831677
  0
ARC
  5
1FEF7
  8
01
 10
558.80032230868017
 20
-418.36135365921558
 30
0.0
 40
3.2000000000000002
 50
127.95581132816829
 51
180.0
  0
TEXT
  5
1FF2C
  8
1TEXT
 10
295.82451872150227
 20
-325.82356013508269
 30
0.0
 40
4.0
  1
表面処理
 72
     1
 11
304.89118538816899
 21
-325.82356013508269
 31
0.0
  0
LINE
  5
1FF2D
  8
1DIM
 10
287.4911853881689
 20
-320.3235601350828
 30
0.0
 11
392.4911853881689
 21
-320.3235601350828
 31
0.0
  0
LINE
  5
1FF2E
  8
1DIM
 10
322.4911853881689
 20
-334.32356013508269
 30
0.0
 11
392.4911853881689
 21
-334.32356013508269
 31
0.0
  0
LINE
  5
1FF2F
  8
1DIM
 10
287.49118538816879
 20
-327.32356013508269
 30
0.0
 11
392.4911853881689
 21
-327.32356013508269
 31
0.0
  0
LINE
  5
1FF30
  8
1DIM
 10
357.4911853881689
 20
-320.3235601350828
 30
0.0
 11
357.49118538816361
 21
-467.32356013508269
 31
0.0
  0
TEXT
  5
1FF31
  8
1TEXT
 10
368.09118538816898
 20
-325.82356013508269
 30
0.0
 40
4.0
  1
コード
 72
     1
 11
374.89118538816899
 21
-325.82356013508269
 31
0.0
  0
LINE
  5
1FF32
  8
1DIM
 10
322.49118538816828
 20
-467.32356013508269
 30
0.0
 11
322.4911853881689
 21
-320.3235601350828
 31
0.0
  0
LINE
  5
1FF33
  8
1DIM
 10
392.49118538816589
 20
-467.32356013508269
 30
0.0
 11
392.4911853881689
 21
-320.3235601350828
 31
0.0
  0
TEXT
  5
1FF34
  8
1TEXT
 10
287.4911853881689
 20
-315.32356013508269
 30
0.0
 40
8.0
  1
GP-2-X
  0
TEXT
  5
1FF36
  8
1TEXT
 10
360.49118538816919
 20
-333.03791711873203
 30
0.0
 40
4.0
  1
GP-2-015-0
 41
0.8
 72
     1
 11
374.89118538816922
 21
-333.03791711873203
 31
0.0
  0
TEXT
  5
1FFA0
  8
1TEXT
 10
330.82451872150227
 20
-325.82356013508269
 30
0.0
 40
4.0
  1
文字形状
 72
     1
 11
339.89118538816899
 21
-325.82356013508269
 31
0.0
  0
LINE
  5
1FFA1
  8
1DIM
 10
287.49118538816828
 20
-467.32356013508269
 30
0.0
 11
287.4911853881689
 21
-320.3235601350828
 31
0.0
  0
TEXT
  5
1FFA2
  8
1TEXT
 10
338.89118538816899
 20
-332.65884879460702
 30
0.0
 40
4.0
  1
0
 72
     1
 11
339.89118538816899
 21
-332.65884879460702
 31
0.0
  0
LINE
  5
1FFA3
  8
1DIM
 10
322.4911853881689
 20
-341.3235601350828
 30
0.0
 11
392.4911853881689
 21
-341.3235601350828
 31
0.0
  0
TEXT
  5
1FFA5
  8
1TEXT
 10
360.75785205483589
 20
-340.03791711873203
 30
0.0
 40
4.0
  1
GP-2-015-1
 41
0.8
 72
     1
 11
374.89118538816922
 21
-340.03791711873203
 31
0.0
  0
TEXT
  5
1FFA6
  8
1TEXT
 10
339.22451872150231
 20
-339.65884879460702
 30
0.0
 40
4.0
  1
1
 72
     1
 11
339.89118538816899
 21
-339.65884879460702
 31
0.0
  0
LINE
  5
1FFA7
  8
1DIM
 10
322.49118538816879
 20
-348.32356013508269
 30
0.0
 11
392.4911853881689
 21
-348.32356013508269
 31
0.0
  0
TEXT
  5
1FFA9
  8
1TEXT
 10
360.22451872150259
 20
-347.03791711873203
 30
0.0
 40
4.0
  1
GP-2-015-2
 41
0.8
 72
     1
 11
374.89118538816922
 21
-347.03791711873203
 31
0.0
  0
TEXT
  5
1FFAA
  8
1TEXT
 10
338.55785205483568
 20
-346.65884879460702
 30
0.0
 40
4.0
  1
2
 72
     1
 11
339.89118538816899
 21
-346.65884879460702
 31
0.0
  0
LINE
  5
1FFAB
  8
1DIM
 10
322.49118538816879
 20
-355.3235601350828
 30
0.0
 11
392.4911853881689
 21
-355.3235601350828
 31
0.0
  0
TEXT
  5
1FFAD
  8
1TEXT
 10
360.22451872150259
 20
-354.03791711873203
 30
0.0
 40
4.0
  1
GP-2-015-3
 41
0.8
 72
     1
 11
374.89118538816922
 21
-354.03791711873203
 31
0.0
  0
TEXT
  5
1FFAE
  8
1TEXT
 10
338.55785205483568
 20
-353.65884879460702
 30
0.0
 40
4.0
  1
3
 72
     1
 11
339.89118538816899
 21
-353.65884879460702
 31
0.0
  0
LINE
  5
1FFAF
  8
1DIM
 10
322.49118538816879
 20
-362.3235601350828
 30
0.0
 11
392.4911853881689
 21
-362.3235601350828
 31
0.0
  0
TEXT
  5
1FFB1
  8
1TEXT
 10
360.22451872150259
 20
-361.03791711873203
 30
0.0
 40
4.0
  1
GP-2-015-4
 41
0.8
 72
     1
 11
374.89118538816922
 21
-361.03791711873203
 31
0.0
  0
TEXT
  5
1FFB2
  8
1TEXT
 10
338.55785205483568
 20
-360.65884879460702
 30
0.0
 40
4.0
  1
4
 72
     1
 11
339.89118538816899
 21
-360.65884879460702
 31
0.0
  0
LINE
  5
1FFB3
  8
1DIM
 10
322.49118538816879
 20
-369.32356013508269
 30
0.0
 11
392.4911853881689
 21
-369.32356013508269
 31
0.0
  0
TEXT
  5
1FFB4
  8
1TEXT
 10
288.62451872150262
 20
-360.65884879460702
 30
0.0
 40
4.0
  1
ソフトニッケル
 72
     1
 11
304.89118538816928
 21
-360.65884879460702
 31
0.0
  0
TEXT
  5
1FFB5
  8
1TEXT
 10
360.22451872150259
 20
-368.03791711873203
 30
0.0
 40
4.0
  1
GP-2-015-5
 41
0.8
 72
     1
 11
374.89118538816922
 21
-368.03791711873203
 31
0.0
  0
TEXT
  5
1FFB6
  8
1TEXT
 10
338.55785205483568
 20
-367.65884879460702
 30
0.0
 40
4.0
  1
5
 72
     1
 11
339.89118538816899
 21
-367.65884879460702
 31
0.0
  0
LINE
  5
1FFB7
  8
1DIM
 10
322.49118538816867
 20
-376.32356013508269
 30
0.0
 11
392.4911853881689
 21
-376.3235601350828
 31
0.0
  0
TEXT
  5
1FFB9
  8
1TEXT
 10
360.22451872150259
 20
-375.03791711873203
 30
0.0
 40
4.0
  1
GP-2-015-6
 41
0.8
 72
     1
 11
374.89118538816922
 21
-375.03791711873203
 31
0.0
  0
TEXT
  5
1FFBA
  8
1TEXT
 10
338.55785205483568
 20
-374.65884879460702
 30
0.0
 40
4.0
  1
6
 72
     1
 11
339.89118538816899
 21
-374.65884879460702
 31
0.0
  0
LINE
  5
1FFBB
  8
1DIM
 10
322.49118538816867
 20
-383.32356013508269
 30
0.0
 11
392.4911853881689
 21
-383.32356013508269
 31
0.0
  0
TEXT
  5
1FFBD
  8
1TEXT
 10
360.22451872150259
 20
-382.03791711873203
 30
0.0
 40
4.0
  1
GP-2-015-7
 41
0.8
 72
     1
 11
374.89118538816922
 21
-382.03791711873203
 31
0.0
  0
TEXT
  5
1FFBE
  8
1TEXT
 10
338.55785205483568
 20
-381.65884879460702
 30
0.0
 40
4.0
  1
7
 72
     1
 11
339.89118538816899
 21
-381.65884879460702
 31
0.0
  0
LINE
  5
1FFBF
  8
1DIM
 10
322.49118538816867
 20
-390.32356013508269
 30
0.0
 11
392.4911853881689
 21
-390.32356013508269
 31
0.0
  0
TEXT
  5
1FFC1
  8
1TEXT
 10
360.22451872150259
 20
-389.03791711873203
 30
0.0
 40
4.0
  1
GP-2-015-8
 41
0.8
 72
     1
 11
374.89118538816922
 21
-389.03791711873203
 31
0.0
  0
TEXT
  5
1FFC2
  8
1TEXT
 10
338.55785205483568
 20
-388.65884879460702
 30
0.0
 40
4.0
  1
8
 72
     1
 11
339.89118538816899
 21
-388.65884879460702
 31
0.0
  0
LINE
  5
1FFC3
  8
1DIM
 10
287.49118538816879
 20
-397.3235601350828
 30
0.0
 11
392.4911853881689
 21
-397.3235601350828
 31
0.0
  0
TEXT
  5
1FFC5
  8
1TEXT
 10
360.22451872150259
 20
-396.03791711873203
 30
0.0
 40
4.0
  1
GP-2-015-6
 41
0.8
 72
     1
 11
374.89118538816922
 21
-396.03791711873203
 31
0.0
  0
TEXT
  5
1FFC6
  8
1TEXT
 10
338.55785205483568
 20
-395.65884879460702
 30
0.0
 40
4.0
  1
9
 72
     1
 11
339.89118538816899
 21
-395.65884879460702
 31
0.0
  0
LINE
  5
200B0
  8
1DIM
 10
322.49118538816862
 20
-404.32356013508269
 30
0.0
 11
392.49118538816862
 21
-404.32356013508269
 31
0.0
  0
TEXT
  5
200B1
  8
1TEXT
 10
360.22451872150219
 20
-403.03791711873203
 30
0.0
 40
4.0
  1
GP-2-002-0
 41
0.8
 72
     1
 11
374.89118538816888
 21
-403.03791711873203
 31
0.0
  0
TEXT
  5
200B2
  8
1TEXT
 10
338.89118538816871
 20
-402.65884879460702
 30
0.0
 40
4.0
  1
0
 72
     1
 11
339.89118538816871
 21
-402.65884879460702
 31
0.0
  0
LINE
  5
200B3
  8
1DIM
 10
322.49118538816862
 20
-411.32356013508269
 30
0.0
 11
392.49118538816862
 21
-411.32356013508269
 31
0.0
  0
TEXT
  5
200B4
  8
1TEXT
 10
360.49118538816901
 20
-410.03791711873203
 30
0.0
 40
4.0
  1
GP-2-002-1
 41
0.8
 72
     1
 11
374.89118538816888
 21
-410.03791711873203
 31
0.0
  0
TEXT
  5
200B5
  8
1TEXT
 10
339.22451872150202
 20
-409.65884879460691
 30
0.0
 40
4.0
  1
1
 72
     1
 11
339.89118538816871
 21
-409.65884879460691
 31
0.0
  0
LINE
  5
200B6
  8
1DIM
 10
322.49118538816862
 20
-418.32356013508269
 30
0.0
 11
392.49118538816862
 21
-418.32356013508269
 31
0.0
  0
TEXT
  5
200B7
  8
1TEXT
 10
359.9578520548356
 20
-417.03791711873191
 30
0.0
 40
4.0
  1
GP-2-002-2
 41
0.8
 72
     1
 11
374.89118538816888
 21
-417.03791711873191
 31
0.0
  0
TEXT
  5
200B8
  8
1TEXT
 10
338.55785205483539
 20
-416.65884879460702
 30
0.0
 40
4.0
  1
2
 72
     1
 11
339.89118538816871
 21
-416.65884879460702
 31
0.0
  0
LINE
  5
200B9
  8
1DIM
 10
322.49118538816862
 20
-425.32356013508269
 30
0.0
 11
392.49118538816862
 21
-425.32356013508269
 31
0.0
  0
TEXT
  5
200BA
  8
1TEXT
 10
359.9578520548356
 20
-424.03791711873203
 30
0.0
 40
4.0
  1
GP-2-002-3
 41
0.8
 72
     1
 11
374.89118538816888
 21
-424.03791711873203
 31
0.0
  0
TEXT
  5
200BB
  8
1TEXT
 10
338.55785205483539
 20
-423.65884879460702
 30
0.0
 40
4.0
  1
3
 72
     1
 11
339.89118538816871
 21
-423.65884879460702
 31
0.0
  0
LINE
  5
200BC
  8
1DIM
 10
322.4911853881685
 20
-432.32356013508269
 30
0.0
 11
392.49118538816862
 21
-432.32356013508269
 31
0.0
  0
TEXT
  5
200BD
  8
1TEXT
 10
359.9578520548356
 20
-431.03791711873203
 30
0.0
 40
4.0
  1
GP-2-002-4
 41
0.8
 72
     1
 11
374.89118538816888
 21
-431.03791711873203
 31
0.0
  0
TEXT
  5
200BE
  8
1TEXT
 10
338.55785205483539
 20
-430.65884879460702
 30
0.0
 40
4.0
  1
4
 72
     1
 11
339.89118538816871
 21
-430.65884879460702
 31
0.0
  0
LINE
  5
200BF
  8
1DIM
 10
322.4911853881685
 20
-439.32356013508269
 30
0.0
 11
392.49118538816862
 21
-439.32356013508269
 31
0.0
  0
TEXT
  5
200C0
  8
1TEXT
 10
295.82451872150227
 20
-430.65884879460691
 30
0.0
 40
4.0
  1
ブラック
 72
     1
 11
304.89118538816899
 21
-430.65884879460691
 31
0.0
  0
TEXT
  5
200C1
  8
1TEXT
 10
359.9578520548356
 20
-438.03791711873203
 30
0.0
 40
4.0
  1
GP-2-002-5
 41
0.8
 72
     1
 11
374.89118538816888
 21
-438.03791711873203
 31
0.0
  0
TEXT
  5
200C2
  8
1TEXT
 10
338.55785205483539
 20
-437.65884879460702
 30
0.0
 40
4.0
  1
5
 72
     1
 11
339.89118538816871
 21
-437.65884879460702
 31
0.0
  0
LINE
  5
200C3
  8
1DIM
 10
322.49118538816839
 20
-446.32356013508257
 30
0.0
 11
392.49118538816862
 21
-446.32356013508269
 31
0.0
  0
TEXT
  5
200C4
  8
1TEXT
 10
359.9578520548356
 20
-445.03791711873203
 30
0.0
 40
4.0
  1
GP-2-002-6
 41
0.8
 72
     1
 11
374.89118538816888
 21
-445.03791711873203
 31
0.0
  0
TEXT
  5
200C5
  8
1TEXT
 10
338.55785205483539
 20
-444.65884879460702
 30
0.0
 40
4.0
  1
6
 72
     1
 11
339.89118538816871
 21
-444.65884879460702
 31
0.0
  0
LINE
  5
200C6
  8
1DIM
 10
322.49118538816839
 20
-453.32356013508269
 30
0.0
 11
392.49118538816862
 21
-453.32356013508269
 31
0.0
  0
TEXT
  5
200C7
  8
1TEXT
 10
359.9578520548356
 20
-452.03791711873203
 30
0.0
 40
4.0
  1
GP-2-002-7
 41
0.8
 72
     1
 11
374.89118538816888
 21
-452.03791711873203
 31
0.0
  0
TEXT
  5
200C8
  8
1TEXT
 10
338.55785205483539
 20
-451.65884879460702
 30
0.0
 40
4.0
  1
7
 72
     1
 11
339.89118538816871
 21
-451.65884879460702
 31
0.0
  0
LINE
  5
200C9
  8
1DIM
 10
322.49118538816839
 20
-460.32356013508257
 30
0.0
 11
392.49118538816862
 21
-460.32356013508269
 31
0.0
  0
TEXT
  5
200CA
  8
1TEXT
 10
359.9578520548356
 20
-459.03791711873203
 30
0.0
 40
4.0
  1
GP-2-002-8
 41
0.8
 72
     1
 11
374.89118538816888
 21
-459.03791711873203
 31
0.0
  0
TEXT
  5
200CB
  8
1TEXT
 10
338.55785205483539
 20
-458.65884879460702
 30
0.0
 40
4.0
  1
8
 72
     1
 11
339.89118538816871
 21
-458.65884879460702
 31
0.0
  0
LINE
  5
200CC
  8
1DIM
 10
287.49118538816862
 20
-467.32356013508269
 30
0.0
 11
392.49118538816862
 21
-467.32356013508269
 31
0.0
  0
TEXT
  5
200CD
  8
1TEXT
 10
359.9578520548356
 20
-466.03791711873203
 30
0.0
 40
4.0
  1
GP-2-002-6
 41
0.8
 72
     1
 11
374.89118538816888
 21
-466.03791711873203
 31
0.0
  0
TEXT
  5
200CE
  8
1TEXT
 10
338.55785205483539
 20
-465.65884879460702
 30
0.0
 40
4.0
  1
9
 72
     1
 11
339.89118538816871
 21
-465.65884879460702
 31
0.0
  0
LINE
  5
2022E
  8
1DIM
 10
416.88098885596042
 20
-406.22536229885498
 30
0.0
 11
416.88098885596042
 21
-402.68022995813669
 31
0.0
  0
LINE
  5
20231
  8
1DIM
 10
418.88098885596031
 20
-406.22536229885498
 30
0.0
 11
418.88098885596031
 21
-402.68022995813669
 31
0.0
  0
LINE
  5
20232
  8
1DIM
 10
414.88098885596031
 20
-403.68022995813681
 30
0.0
 11
412.88098885596042
 21
-403.68022995813681
 31
0.0
  0
LINE
  5
20233
  8
1DIM
 10
420.88098885596042
 20
-403.68022995813681
 30
0.0
 11
428.78098885596029
 21
-403.68022995813681
 31
0.0
  0
LINE
  5
20234
  8
1DIM
 10
416.88098885596042
 20
-403.68022995813681
 30
0.0
 11
418.88098885596031
 21
-403.68022995813681
 31
0.0
  0
LINE
  5
20238
  8
1DIM
 10
413.1761644676784
 20
-425.22536229885509
 30
0.0
 11
406.33980381253548
 21
-425.22536229885509
 31
0.0
  0
LINE
  5
20239
  8
1DIM
 10
413.1761644676784
 20
-406.22536229885498
 30
0.0
 11
406.33980381253548
 21
-406.22536229885498
 31
0.0
  0
LINE
  5
2023A
  8
1DIM
 10
407.33980381253559
 20
-423.22536229885498
 30
0.0
 11
407.33980381253559
 21
-408.22536229885509
 31
0.0
  0
TEXT
  5
2023E
  8
1DIM
 10
554.86683042597485
 20
-384.59284678389139
 30
0.0
 40
3.5
  1
材質：アクリル
  0
TEXT
  5
2023F
  8
1DIM
 10
546.00016375930807
 20
-390.4261801172247
 30
0.0
 40
3.5
  1
仕上げ：各種仕上げ
  0
SOLID
  5
20240
  8
1DIM
 10
594.34802193047733
 20
-405.55878366872139
 30
0.0
 11
595.06553706308875
 21
-407.4551705347339
 31
0.0
 12
593.77176214326312
 22
-405.89399867746101
 32
0.0
 13
593.77176214326312
 23
-405.89399867746101
 33
0.0
  0
LINE
  5
20242
  8
1DIM
 10
594.05989203687022
 20
-405.7263911730912
 30
0.0
 11
585.5668304259749
 21
-391.12618011722458
 31
0.0
  0
LINE
  5
20243
  8
1DIM
 10
585.5668304259749
 20
-391.12618011722458
 30
0.0
 11
582.86683042597485
 21
-391.12618011722458
 31
0.0
  0
TEXT
  5
20244
  8
1DIM
 10
406.63980381253572
 20
-418.05869563218818
 30
0.0
 40
3.5
  1
19
 50
90.0
  0
LINE
  5
20245
  8
0
  6
BYBLOCK
 10
406.8039054325356
 20
-408.22536229885509
 30
0.0
 11
407.33980381253559
 21
-406.22536229885498
 31
0.0
  0
LINE
  5
20246
  8
0
  6
BYBLOCK
 10
407.33980381253559
 20
-406.22536229885498
 30
0.0
 11
407.87570219253558
 21
-408.22536229885509
 31
0.0
  0
LINE
  5
20247
  8
0
  6
BYBLOCK
 10
407.33980381253559
 20
-406.22536229885498
 30
0.0
 11
407.33980381253559
 21
-408.22536229885509
 31
0.0
  0
LINE
  5
20248
  8
0
  6
BYBLOCK
 10
407.87570219253558
 20
-423.22536229885498
 30
0.0
 11
407.33980381253559
 21
-425.22536229885509
 31
0.0
  0
LINE
  5
20249
  8
0
  6
BYBLOCK
 10
407.33980381253559
 20
-425.22536229885509
 30
0.0
 11
406.8039054325356
 21
-423.22536229885498
 31
0.0
  0
LINE
  5
2024A
  8
0
  6
BYBLOCK
 10
407.33980381253559
 20
-425.22536229885509
 30
0.0
 11
407.33980381253559
 21
-423.22536229885498
 31
0.0
  0
TEXT
  5
2024B
  8
1DIM
 10
422.91432218929361
 20
-402.9802299581367
 30
0.0
 40
3.5
  1
t2
  0
LINE
  5
2024C
  8
0
  6
BYBLOCK
 10
420.88098885596042
 20
-404.2161283381368
 30
0.0
 11
418.88098885596031
 21
-403.68022995813681
 31
0.0
  0
LINE
  5
2024D
  8
0
  6
BYBLOCK
 10
418.88098885596031
 20
-403.68022995813681
 30
0.0
 11
420.88098885596042
 21
-403.14433157813681
 31
0.0
  0
LINE
  5
2024E
  8
0
  6
BYBLOCK
 10
418.88098885596031
 20
-403.68022995813681
 30
0.0
 11
420.88098885596042
 21
-403.68022995813681
 31
0.0
  0
LINE
  5
2024F
  8
0
  6
BYBLOCK
 10
414.88098885596031
 20
-403.14433157813681
 30
0.0
 11
416.88098885596042
 21
-403.68022995813681
 31
0.0
  0
LINE
  5
20250
  8
0
  6
BYBLOCK
 10
416.88098885596042
 20
-403.68022995813681
 30
0.0
 11
414.88098885596031
 21
-404.2161283381368
 31
0.0
  0
LINE
  5
20251
  8
0
  6
BYBLOCK
 10
416.88098885596042
 20
-403.68022995813681
 30
0.0
 11
414.88098885596031
 21
-403.68022995813681
 31
0.0
  0
VIEWPORT
  5
57
 67
     1
  8
0
 10
-12.71820606546885
 20
10.09248672500371
 30
0.0
 40
614.78074478552514
 41
282.6658758112568
 68
     1
 69
     1
1001
ACAD
1000
MVIEW
1002
{
1070
    16
1010
0.0
1020
0.0
1030
0.0
1010
0.0
1020
0.0
1030
1.0
1040
0.0
1040
282.6658758112568
1040
-12.71820606546885
1040
10.09248672500371
1040
50.0
1040
0.0
1040
0.0
1070
     0
1070
   100
1070
     1
1070
     1
1070
     0
1070
     0
1070
     0
1070
     0
1040
0.0
1040
0.0
1040
0.0
1040
10.0
1040
10.0
1040
10.0
1040
10.0
1070
     0
1002
{
1002
}
1002
}
  0
ENDSEC
  0
EOF
