  0
SECTION
  2
HEADER
  9
$ACADVER
  1
AC1012
  9
$DWGCODEPAGE
  3
ansi_932
  9
$INSBASE
 10
0.0
 20
0.0
 30
0.0
  9
$EXTMIN
 10
5093.619171611638
 20
-443.9853537876792
 30
0.0
  9
$EXTMAX
 10
5348.046966452871
 20
-232.193819341614
 30
0.0
  9
$LIMMIN
 10
0.0
 20
0.0
  9
$LIMMAX
 10
420.0
 20
297.0
  9
$ORTHOMODE
 70
     0
  9
$REGENMODE
 70
     1
  9
$FILLMODE
 70
     1
  9
$QTEXTMODE
 70
     0
  9
$MIRRTEXT
 70
     0
  9
$DRAGMODE
 70
     2
  9
$LTSCALE
 40
0.5
  9
$OSMODE
 70
 14431
  9
$ATTMODE
 70
     1
  9
$TEXTSIZE
 40
4.0
  9
$TRACEWID
 40
1.0
  9
$TEXTSTYLE
  7
STANDARD
  9
$CLAYER
  8
1TEXT
  9
$CELTYPE
  6
BYLAYER
  9
$CECOLOR
 62
   256
  9
$CELTSCALE
 40
1.0
  9
$DELOBJ
 70
     1
  9
$DISPSILH
 70
     0
  9
$DIMSCALE
 40
1.0
  9
$DIMASZ
 40
2.0
  9
$DIMEXO
 40
0.0
  9
$DIMDLI
 40
7.0
  9
$DIMRND
 40
0.5
  9
$DIMDLE
 40
0.0
  9
$DIMEXE
 40
1.0
  9
$DIMTP
 40
0.0
  9
$DIMTM
 40
0.0
  9
$DIMTXT
 40
3.5
  9
$DIMCEN
 40
0.0
  9
$DIMTSZ
 40
0.0
  9
$DIMTOL
 70
     0
  9
$DIMLIM
 70
     0
  9
$DIMTIH
 70
     0
  9
$DIMTOH
 70
     0
  9
$DIMSE1
 70
     0
  9
$DIMSE2
 70
     0
  9
$DIMTAD
 70
     1
  9
$DIMZIN
 70
     8
  9
$DIMBLK
  1

  9
$DIMASO
 70
     1
  9
$DIMSHO
 70
     1
  9
$DIMPOST
  1
 
  9
$DIMAPOST
  1

  9
$DIMALT
 70
     0
  9
$DIMALTD
 70
     2
  9
$DIMALTF
 40
25.4
  9
$DIMLFAC
 40
1.0
  9
$DIMTOFL
 70
     1
  9
$DIMTVP
 40
0.0
  9
$DIMTIX
 70
     0
  9
$DIMSOXD
 70
     0
  9
$DIMSAH
 70
     1
  9
$DIMBLK1
  1
OPEN30
  9
$DIMBLK2
  1
OPEN30
  9
$DIMSTYLE
  2
NEWX10
  9
$DIMCLRD
 70
   256
  9
$DIMCLRE
 70
   256
  9
$DIMCLRT
 70
   201
  9
$DIMTFAC
 40
0.7
  9
$DIMGAP
 40
0.7
  9
$DIMJUST
 70
     0
  9
$DIMSD1
 70
     0
  9
$DIMSD2
 70
     0
  9
$DIMTOLJ
 70
     1
  9
$DIMTZIN
 70
     8
  9
$DIMALTZ
 70
     0
  9
$DIMALTTZ
 70
     0
  9
$DIMFIT
 70
     2
  9
$DIMUPT
 70
     0
  9
$DIMUNIT
 70
     2
  9
$DIMDEC
 70
     2
  9
$DIMTDEC
 70
     2
  9
$DIMALTU
 70
     2
  9
$DIMALTTD
 70
     2
  9
$DIMTXSTY
  7
STANDARD
  9
$DIMAUNIT
 70
     0
  9
$LUNITS
 70
     2
  9
$LUPREC
 70
     4
  9
$SKETCHINC
 40
1.0
  9
$FILLETRAD
 40
0.0
  9
$AUNITS
 70
     0
  9
$AUPREC
 70
     2
  9
$MENU
  1
acad
  9
$ELEVATION
 40
0.0
  9
$PELEVATION
 40
0.0
  9
$THICKNESS
 40
0.0
  9
$LIMCHECK
 70
     0
  9
$CHAMFERA
 40
10.0
  9
$CHAMFERB
 40
10.0
  9
$CHAMFERC
 40
20.0
  9
$CHAMFERD
 40
0.0
  9
$SKPOLY
 70
     0
  9
$TDCREATE
 40
2451318.621352917
  9
$TDUPDATE
 40
2459640.657543287
  9
$TDINDWG
 40
1.6413363889
  9
$TDUSRTIMER
 40
1.6413363889
  9
$USRTIMER
 70
     1
  9
$ANGBASE
 50
0.0
  9
$ANGDIR
 70
     0
  9
$PDMODE
 70
     0
  9
$PDSIZE
 40
0.0
  9
$PLINEWID
 40
0.0
  9
$COORDS
 70
     2
  9
$SPLFRAME
 70
     0
  9
$SPLINETYPE
 70
     6
  9
$SPLINESEGS
 70
     8
  9
$ATTDIA
 70
     0
  9
$ATTREQ
 70
     1
  9
$HANDLING
 70
     1
  9
$HANDSEED
  5
D46F
  9
$SURFTAB1
 70
     6
  9
$SURFTAB2
 70
     6
  9
$SURFTYPE
 70
     6
  9
$SURFU
 70
     6
  9
$SURFV
 70
     6
  9
$UCSNAME
  2

  9
$UCSORG
 10
0.0
 20
0.0
 30
0.0
  9
$UCSXDIR
 10
1.0
 20
0.0
 30
0.0
  9
$UCSYDIR
 10
0.0
 20
1.0
 30
0.0
  9
$PUCSNAME
  2

  9
$PUCSORG
 10
0.0
 20
0.0
 30
0.0
  9
$PUCSXDIR
 10
1.0
 20
0.0
 30
0.0
  9
$PUCSYDIR
 10
0.0
 20
1.0
 30
0.0
  9
$USERI1
 70
     0
  9
$USERI2
 70
     0
  9
$USERI3
 70
     0
  9
$USERI4
 70
     0
  9
$USERI5
 70
     0
  9
$USERR1
 40
0.0
  9
$USERR2
 40
0.0
  9
$USERR3
 40
0.0
  9
$USERR4
 40
0.0
  9
$USERR5
 40
0.0
  9
$WORLDVIEW
 70
     1
  9
$SHADEDGE
 70
     3
  9
$SHADEDIF
 70
    70
  9
$TILEMODE
 70
     1
  9
$MAXACTVP
 70
    48
  9
$PINSBASE
 10
0.0
 20
0.0
 30
0.0
  9
$PLIMCHECK
 70
     0
  9
$PEXTMIN
 10
1.000000000000000E+20
 20
1.000000000000000E+20
 30
1.000000000000000E+20
  9
$PEXTMAX
 10
-1.000000000000000E+20
 20
-1.000000000000000E+20
 30
-1.000000000000000E+20
  9
$PLIMMIN
 10
0.0
 20
0.0
  9
$PLIMMAX
 10
420.0
 20
297.0
  9
$UNITMODE
 70
     0
  9
$VISRETAIN
 70
     1
  9
$PLINEGEN
 70
     0
  9
$PSLTSCALE
 70
     1
  9
$TREEDEPTH
 70
  3020
  9
$PICKSTYLE
 70
     1
  9
$CMLSTYLE
  2
STANDARD
  9
$CMLJUST
 70
     0
  9
$CMLSCALE
 40
20.0
  9
$SAVEIMAGES
 70
     1
  0
ENDSEC
  0
SECTION
  2
CLASSES
  0
CLASS
  1
DICTIONARYVAR
  2
AcDbDictionaryVar
  3
ObjectDBX Classes
 90
        0
280
     0
281
     0
  0
CLASS
  1
IDBUFFER
  2
AcDbIdBuffer
  3
ObjectDBX Classes
 90
    32768
280
     0
281
     0
  0
CLASS
  1
LWPOLYLINE
  2
AcDbPolyline
  3
ObjectDBX Classes
 90
    32768
280
     0
281
     1
  0
CLASS
  1
ACDBDICTIONARYWDFLT
  2
AcDbDictionaryWithDefault
  3
ObjectDBX Classes
 90
    32768
280
     0
281
     0
  0
CLASS
  1
ACDBPLACEHOLDER
  2
AcDbPlaceHolder
  3
ObjectDBX Classes
 90
        0
280
     0
281
     0
  0
CLASS
  1
LAYOUT
  2
AcDbLayout
  3
ObjectDBX Classes
 90
        0
280
     0
281
     0
  0
CLASS
  1
TABLESTYLE
  2
AcDbTableStyle
  3
ObjectDBX Classes
 90
     4095
280
     0
281
     0
  0
CLASS
  1
SORTENTSTABLE
  2
AcDbSortentsTable
  3
ObjectDBX Classes
 90
    32768
280
     0
281
     0
  0
CLASS
  1
MATERIAL
  2
AcDbMaterial
  3
ObjectDBX Classes
 90
     1153
280
     0
281
     0
  0
CLASS
  1
VISUALSTYLE
  2
AcDbVisualStyle
  3
ObjectDBX Classes
 90
     4095
280
     0
281
     0
  0
CLASS
  1
SCALE
  2
AcDbScale
  3
ObjectDBX Classes
 90
     1153
280
     0
281
     0
  0
CLASS
  1
MLEADERSTYLE
  2
AcDbMLeaderStyle
  3
ACDB_MLEADERSTYLE_CLASS
 90
     4095
280
     0
281
     0
  0
CLASS
  1
CELLSTYLEMAP
  2
AcDbCellStyleMap
  3
ObjectDBX Classes
 90
     1152
280
     0
281
     0
  0
CLASS
  1
SUN
  2
AcDbSun
  3
SCENEOE
 90
     1153
280
     0
281
     0
  0
CLASS
  1
AEC_REFEDIT_STATUS_TRACKER
  2
AecDbRefEditStatusTracker
  3
AecArchBase60|Product Desc: Autodesk Architectural Desktop 2007 |Company: Autodesk,Inc. |WEB Address: www.autodesk.com
 90
      129
280
     1
281
     0
  0
CLASS
  1
NPOCOLLECTION
  2
AcDbImpNonPersistentObjectsCollection
  3
ObjectDBX Classes
 90
     1153
280
     1
281
     0
  0
CLASS
  1
DIMASSOC
  2
AcDbDimAssoc
  3
"AcDbDimAssoc|Product Desc:     AcDim ARX App For Dimension|Company:          Autodesk, Inc.|WEB Address:      www.autodesk.com"
 90
        0
280
     0
281
     0
  0
CLASS
  1
MULTILEADER
  2
AcDbMLeader
  3
ACDB_MLEADER_CLASS
 90
     1025
280
     0
281
     1
  0
CLASS
  1
ACDB_MLEADEROBJECTCONTEXTDATA_CLASS
  2
AcDbMLeaderObjectContextData
  3
ObjectDBX Classes
 90
     1153
280
     0
281
     0
  0
CLASS
  1
XRECORD
  2
AcDbXrecord
  3
ObjectDBX Classes
 90
    32768
280
     0
281
     0
  0
CLASS
  1
HATCH
  2
AcDbHatch
  3
ObjectDBX Classes
 90
    32768
280
     0
281
     1
  0
ENDSEC
  0
SECTION
  2
TABLES
  0
TABLE
  2
VPORT
  5
8
330
0
100
AcDbSymbolTable
 70
     1
  0
VPORT
  5
952D
330
8
100
AcDbSymbolTableRecord
100
AcDbViewportTableRecord
  2
*ACTIVE
 70
     0
 10
0.0
 20
0.0
 11
1.0
 21
1.0
 12
5220.833069032255
 22
-338.0895865646465
 13
0.0
 23
0.0
 14
10.0
 24
10.0
 15
10.0
 25
10.0
 16
0.0
 26
0.0
 36
1.0
 17
0.0
 27
0.0
 37
0.0
 40
227.3972264578805
 41
1.844566712517194
 42
50.0
 43
0.0
 44
0.0
 50
0.0
 51
0.0
 71
    16
 72
   100
 73
     1
 74
     1
 75
     0
 76
     0
 77
     0
 78
     0
1001
ACAD_NAV_VCDISPLAY
1070
     3
  0
ENDTAB
  0
TABLE
  2
LTYPE
  5
5
330
0
100
AcDbSymbolTable
 70
     3
  0
LTYPE
  5
12
330
5
100
AcDbSymbolTableRecord
100
AcDbLinetypeTableRecord
  2
BYBLOCK
 70
     0
  3

 72
    65
 73
     0
 40
0.0
  0
LTYPE
  5
13
330
5
100
AcDbSymbolTableRecord
100
AcDbLinetypeTableRecord
  2
BYLAYER
 70
     0
  3

 72
    65
 73
     0
 40
0.0
  0
LTYPE
  5
14
330
5
100
AcDbSymbolTableRecord
100
AcDbLinetypeTableRecord
  2
CONTINUOUS
 70
     0
  3
Solid line
 72
    65
 73
     0
 40
0.0
  0
LTYPE
  5
2C03
330
5
100
AcDbSymbolTableRecord
100
AcDbLinetypeTableRecord
  2
HIDDEN
 70
     0
  3
Hidden __ __ __ __ __ __ __ __ __ __ __ __ __ _
 72
    65
 73
     2
 40
9.524999999999999
 49
6.35
 74
     0
 49
-3.175
 74
     0
  0
LTYPE
  5
9837
330
5
100
AcDbSymbolTableRecord
100
AcDbLinetypeTableRecord
  2
CENTER2
 70
     0
  3
Center (.5x) ___ _ ___ _ ___ _ ___ _ ___ _ ___
 72
    65
 73
     4
 40
28.575
 49
19.05
 74
     0
 49
-3.175
 74
     0
 49
3.175
 74
     0
 49
-3.175
 74
     0
  0
ENDTAB
  0
TABLE
  2
LAYER
  5
2
102
{ACAD_XDICTIONARY
360
96D9
102
}
330
0
100
AcDbSymbolTable
 70
     7
  0
LAYER
  5
E
102
{ACAD_XDICTIONARY
360
9593
102
}
330
2
100
AcDbSymbolTableRecord
100
AcDbLayerTableRecord
  2
0
 70
     0
 62
     7
  6
CONTINUOUS
  0
LAYER
  5
29
102
{ACAD_XDICTIONARY
360
9595
102
}
330
2
100
AcDbSymbolTableRecord
100
AcDbLayerTableRecord
  2
1CENTER
 70
     0
 62
     7
  6
CENTER2
  0
LAYER
  5
31
102
{ACAD_XDICTIONARY
360
9597
102
}
330
2
100
AcDbSymbolTableRecord
100
AcDbLayerTableRecord
  2
1TEXT
 70
     0
 62
     7
  6
CONTINUOUS
  0
LAYER
  5
243
102
{ACAD_XDICTIONARY
360
959D
102
}
330
2
100
AcDbSymbolTableRecord
100
AcDbLayerTableRecord
  2
01
 70
     0
 62
     1
  6
CONTINUOUS
  0
LAYER
  5
24E
102
{ACAD_XDICTIONARY
360
95A3
102
}
330
2
100
AcDbSymbolTableRecord
100
AcDbLayerTableRecord
  2
1DIM
 70
     0
 62
     7
  6
CONTINUOUS
  0
LAYER
  5
252
102
{ACAD_XDICTIONARY
360
95A5
102
}
330
2
100
AcDbSymbolTableRecord
100
AcDbLayerTableRecord
  2
1HATCH
 70
     0
 62
     7
  6
CONTINUOUS
  0
LAYER
  5
2C05
102
{ACAD_XDICTIONARY
360
95AF
102
}
330
2
100
AcDbSymbolTableRecord
100
AcDbLayerTableRecord
  2
1HIDDEN
 70
     0
 62
     7
  6
HIDDEN
  0
ENDTAB
  0
TABLE
  2
STYLE
  5
3
330
0
100
AcDbSymbolTable
 70
     2
  0
STYLE
  5
F
330
3
100
AcDbSymbolTableRecord
100
AcDbTextStyleTableRecord
  2
STANDARD
 70
     0
 40
0.0
 41
1.0
 50
0.0
 71
     0
 42
4.0
  3
txt.shx
  4
extfont.shx
  0
STYLE
  5
B8C4
330
3
100
AcDbSymbolTableRecord
100
AcDbTextStyleTableRecord
  2
STANDARD06
 70
     0
 40
0.0
 41
0.6
 50
0.0
 71
     0
 42
4.0
  3
romans.shx
  4
extfont2.shx
1001
ACADANNOTATIVE
1000
AnnotativeData
1002
{
1070
     1
1070
     0
1002
}
  0
ENDTAB
  0
TABLE
  2
VIEW
  5
6
330
0
100
AcDbSymbolTable
 70
     0
  0
ENDTAB
  0
TABLE
  2
UCS
  5
7
330
0
100
AcDbSymbolTable
 70
     0
  0
ENDTAB
  0
TABLE
  2
APPID
  5
9
330
0
100
AcDbSymbolTable
 70
    35
  0
APPID
  5
10
330
9
100
AcDbSymbolTableRecord
100
AcDbRegAppTableRecord
  2
ACAD
 70
     0
  0
APPID
  5
21
330
9
100
AcDbSymbolTableRecord
100
AcDbRegAppTableRecord
  2
DRAWINGVARIABLESXDATA
 70
     0
  0
APPID
  5
64
330
9
100
AcDbSymbolTableRecord
100
AcDbRegAppTableRecord
  2
CONTENTTABDATA
 70
     0
  0
APPID
  5
65
330
9
100
AcDbSymbolTableRecord
100
AcDbRegAppTableRecord
  2
CONTENTCURRENTTAB
 70
     0
  0
APPID
  5
66
330
9
100
AcDbSymbolTableRecord
100
AcDbRegAppTableRecord
  2
CONTENTBLOCKDESCRIPTION
 70
     0
  0
APPID
  5
67
330
9
100
AcDbSymbolTableRecord
100
AcDbRegAppTableRecord
  2
CONTENTBLOCKICON
 70
     0
  0
APPID
  5
68
330
9
100
AcDbSymbolTableRecord
100
AcDbRegAppTableRecord
  2
CONTENTLONGBLOCKNAME
 70
     0
  0
APPID
  5
2AE
330
9
100
AcDbSymbolTableRecord
100
AcDbRegAppTableRecord
  2
ACAD_PSEXT
 70
     0
  0
APPID
  5
9585
330
9
100
AcDbSymbolTableRecord
100
AcDbRegAppTableRecord
  2
ACAD_MLEADERVER
 70
     0
  0
APPID
  5
A2E3
330
9
100
AcDbSymbolTableRecord
100
AcDbRegAppTableRecord
  2
ACADANNOTATIVE
 70
     0
  0
APPID
  5
A2E4
330
9
100
AcDbSymbolTableRecord
100
AcDbRegAppTableRecord
  2
ACDBBLOCKREPETAG
 70
     0
  0
APPID
  5
AD43
330
9
100
AcDbSymbolTableRecord
100
AcDbRegAppTableRecord
  2
ACAECLAYERSTANDARD
 70
     0
  0
APPID
  5
AF26
330
9
100
AcDbSymbolTableRecord
100
AcDbRegAppTableRecord
  2
ACAD_OBJECT_CHANGE_GUID
 70
     0
  0
APPID
  5
AFBD
330
9
100
AcDbSymbolTableRecord
100
AcDbRegAppTableRecord
  2
ACAD_NAV_VCDISPLAY
 70
     0
  0
APPID
  5
B007
330
9
100
AcDbSymbolTableRecord
100
AcDbRegAppTableRecord
  2
ACAD_DSTYLE_DIMJAG
 70
     0
  0
APPID
  5
B008
330
9
100
AcDbSymbolTableRecord
100
AcDbRegAppTableRecord
  2
ACAD_DSTYLE_DIMTALN
 70
     0
  0
APPID
  5
B270
330
9
100
AcDbSymbolTableRecord
100
AcDbRegAppTableRecord
  2
ACAD_EXEMPT_FROM_CAD_STAND
 70
     0
  0
APPID
  5
B2BF
330
9
100
AcDbSymbolTableRecord
100
AcDbRegAppTableRecord
  2
GRADIENTCOLOR1ACI
 70
     0
  0
APPID
  5
B2C0
330
9
100
AcDbSymbolTableRecord
100
AcDbRegAppTableRecord
  2
GRADIENTCOLOR2ACI
 70
     0
  0
APPID
  5
B2C1
330
9
100
AcDbSymbolTableRecord
100
AcDbRegAppTableRecord
  2
ACAD_SPLINE_DATA
 70
     0
  0
APPID
  5
B8C2
330
9
100
AcDbSymbolTableRecord
100
AcDbRegAppTableRecord
  2
ACLAYERTOOLS
 70
     0
  0
APPID
  5
C0CB
330
9
100
AcDbSymbolTableRecord
100
AcDbRegAppTableRecord
  2
ACAD_DSTYLE_DIMRADIAL_EXTE
 70
     0
  0
APPID
  5
C0CD
330
9
100
AcDbSymbolTableRecord
100
AcDbRegAppTableRecord
  2
ACDBDYNAMICBLOCKTRUENAME
 70
     0
  0
APPID
  5
C0CE
330
9
100
AcDbSymbolTableRecord
100
AcDbRegAppTableRecord
  2
ACDBDYNAMICBLOCKGUID
 70
     0
  0
APPID
  5
C0CF
330
9
100
AcDbSymbolTableRecord
100
AcDbRegAppTableRecord
  2
ACDBBLOCKREPBTAG
 70
     0
  0
APPID
  5
C0D0
330
9
100
AcDbSymbolTableRecord
100
AcDbRegAppTableRecord
  2
ACAUTHENVIRON
 70
     0
  0
APPID
  5
C0D1
330
9
100
AcDbSymbolTableRecord
100
AcDbRegAppTableRecord
  2
ACADANNOPO
 70
     0
  0
APPID
  5
C0D5
330
9
100
AcDbSymbolTableRecord
100
AcDbRegAppTableRecord
  2
ACAD_DSTYLE_DIMJOGGED_JOGA
 70
     0
  0
APPID
  5
C0D6
330
9
100
AcDbSymbolTableRecord
100
AcDbRegAppTableRecord
  2
ACAD_DSTYLE_DIM_LINETYPE
 70
     0
  0
APPID
  5
C0D7
330
9
100
AcDbSymbolTableRecord
100
AcDbRegAppTableRecord
  2
ACAD_DSTYLE_DIM_EXT1_LINET
 70
     0
  0
APPID
  5
C0D8
330
9
100
AcDbSymbolTableRecord
100
AcDbRegAppTableRecord
  2
ACAD_DSTYLE_DIM_EXT2_LINET
 70
     0
  0
APPID
  5
C0D9
330
9
100
AcDbSymbolTableRecord
100
AcDbRegAppTableRecord
  2
ACAD_DIMASSOC_CALC_DIMLFAC
 70
     0
  0
APPID
  5
C0DA
330
9
100
AcDbSymbolTableRecord
100
AcDbRegAppTableRecord
  2
ACAD_DIMASSOC_DIMLFAC
 70
     0
  0
APPID
  5
C0DB
330
9
100
AcDbSymbolTableRecord
100
AcDbRegAppTableRecord
  2
ACAD_DIMASSOC_OVERRIDDEN_D
 70
     0
  0
APPID
  5
C0DE
330
9
100
AcDbSymbolTableRecord
100
AcDbRegAppTableRecord
  2
ACADANNOTATIVEDECOMPOSITIO
 70
     0
  0
ENDTAB
  0
TABLE
  2
DIMSTYLE
  5
A
330
0
100
AcDbSymbolTable
 70
     2
  0
DIMSTYLE
105
48
330
A
100
AcDbSymbolTableRecord
100
AcDbDimStyleTableRecord
  2
NEWX10
 70
     0
  3
 
  4

  5

  6
OPEN30
  7
OPEN30
 40
1.0
 41
2.0
 42
0.0
 43
7.0
 44
1.0
 45
0.5
 46
0.0
 47
0.0
 48
0.0
140
3.5
141
0.0
142
0.0
143
25.4
144
1.0
145
0.0
146
0.7
147
0.7
 71
     0
 72
     0
 73
     0
 74
     0
 75
     0
 76
     0
 77
     1
 78
     8
170
     0
171
     2
172
     1
173
     1
174
     0
175
     0
176
   256
177
   256
178
   201
179
     2
270
     2
271
     2
272
     2
273
     2
274
     2
340
F
275
     0
280
     0
281
     0
282
     0
283
     1
284
     8
285
     0
286
     0
287
     2
288
     0
1001
ACAD_DSTYLE_DIMJAG
1070
   388
1040
1.5
1001
ACAD_DSTYLE_DIMTALN
1070
   392
1070
     0
  0
DIMSTYLE
105
B8C0
330
A
100
AcDbSymbolTableRecord
100
AcDbDimStyleTableRecord
  2
ISO-25
 70
     0
  3

  4

  5

  6

  7

 40
1.0
 41
20.0
 42
3.0
 43
3.75
 44
2.0
 45
0.0
 46
0.0
 47
0.0
 48
0.0
140
30.0
141
5.0
142
0.0
143
0.03937
144
1.0
145
0.0
146
1.0
147
8.0
 71
     0
 72
     0
 73
     0
 74
     0
 75
     0
 76
     0
 77
     1
 78
     8
170
     0
171
     3
172
     1
173
     0
174
     0
175
     0
176
     1
177
     1
178
     1
179
     2
270
     2
271
     2
272
     2
273
     2
274
     3
340
F
275
     0
280
     0
281
     0
282
     0
283
     0
284
     8
285
     0
286
     0
287
     3
288
     0
  0
ENDTAB
  0
TABLE
  2
BLOCK_RECORD
  5
1
330
0
100
AcDbSymbolTable
 70
    10
  0
BLOCK_RECORD
  5
18
102
{ACAD_XDICTIONARY
360
88F
102
}
330
1
100
AcDbSymbolTableRecord
100
AcDbBlockTableRecord
  2
*MODEL_SPACE
  0
BLOCK_RECORD
  5
15
330
1
100
AcDbSymbolTableRecord
100
AcDbBlockTableRecord
  2
*PAPER_SPACE
  0
BLOCK_RECORD
  5
42
330
1
100
AcDbSymbolTableRecord
100
AcDbBlockTableRecord
  2
_OPEN30
  0
BLOCK_RECORD
  5
A333
330
1
100
AcDbSymbolTableRecord
100
AcDbBlockTableRecord
  2
A3WAKUKAWAJUN2017_HYOUDAI_
  0
BLOCK_RECORD
  5
B8CA
102
{ACAD_XDICTIONARY
360
B8CB
102
}
330
1
100
AcDbSymbolTableRecord
100
AcDbBlockTableRecord
  2
NO3CIRCLE
1001
ACADANNOTATIVE
1000
AnnotativeData
1002
{
1070
     1
1070
     0
1002
}
  0
BLOCK_RECORD
  5
BA76
102
{ACAD_XDICTIONARY
360
BA77
102
}
330
1
100
AcDbSymbolTableRecord
100
AcDbBlockTableRecord
  2
NOCIRCLE
1001
ACADANNOTATIVE
1000
AnnotativeData
1002
{
1070
     1
1070
     0
1002
}
  0
BLOCK_RECORD
  5
D2D0
330
1
100
AcDbSymbolTableRecord
100
AcDbBlockTableRecord
  2
*X172
  0
BLOCK_RECORD
  5
D31E
330
1
100
AcDbSymbolTableRecord
100
AcDbBlockTableRecord
  2
*X173
  0
BLOCK_RECORD
  5
D370
330
1
100
AcDbSymbolTableRecord
100
AcDbBlockTableRecord
  2
*X174
  0
BLOCK_RECORD
  5
D3C1
330
1
100
AcDbSymbolTableRecord
100
AcDbBlockTableRecord
  2
*X175
  0
BLOCK_RECORD
  5
D3FD
330
1
100
AcDbSymbolTableRecord
100
AcDbBlockTableRecord
  2
*X176
  0
BLOCK_RECORD
  5
D43D
330
1
100
AcDbSymbolTableRecord
100
AcDbBlockTableRecord
  2
*X177
  0
ENDTAB
  0
ENDSEC
  0
SECTION
  2
BLOCKS
  0
BLOCK
  5
19
330
18
100
AcDbEntity
  8
0
100
AcDbBlockBegin
  2
*MODEL_SPACE
 70
     0
 10
0.0
 20
0.0
 30
0.0
  3
*MODEL_SPACE
  1

  0
ENDBLK
  5
1A
330
18
100
AcDbEntity
  8
0
100
AcDbBlockEnd
  0
BLOCK
  5
16
330
15
100
AcDbEntity
 67
     1
  8
0
100
AcDbBlockBegin
  2
*PAPER_SPACE
 70
     0
 10
0.0
 20
0.0
 30
0.0
  3
*PAPER_SPACE
  1

  0
ENDBLK
  5
17
330
15
100
AcDbEntity
 67
     1
  8
0
100
AcDbBlockEnd
  0
BLOCK
  5
43
330
42
100
AcDbEntity
  8
0
100
AcDbBlockBegin
  2
_OPEN30
 70
     0
 10
0.0
 20
0.0
 30
0.0
  3
_OPEN30
  1

  0
LINE
  5
44
330
42
100
AcDbEntity
  8
0
  6
BYBLOCK
 62
     0
100
AcDbLine
 10
-1.0
 20
0.26794919
 30
0.0
 11
0.0
 21
0.0
 31
0.0
  0
LINE
  5
45
330
42
100
AcDbEntity
  8
0
  6
BYBLOCK
 62
     0
100
AcDbLine
 10
0.0
 20
0.0
 30
0.0
 11
-1.0
 21
-0.26794919
 31
0.0
  0
LINE
  5
46
330
42
100
AcDbEntity
  8
0
  6
BYBLOCK
 62
     0
100
AcDbLine
 10
0.0
 20
0.0
 30
0.0
 11
-1.0
 21
0.0
 31
0.0
  0
ENDBLK
  5
47
330
42
100
AcDbEntity
  8
0
100
AcDbBlockEnd
  0
BLOCK
  5
AA56
330
A333
100
AcDbEntity
  8
0
100
AcDbBlockBegin
  2
A3WAKUKAWAJUN2017_HYOUDAI_
 70
     0
 10
0.0
 20
0.0
 30
0.0
  3
A3WAKUKAWAJUN2017_HYOUDAI_
  1

  0
LINE
  5
A335
330
A333
100
AcDbEntity
  8
0
100
AcDbLine
 10
13.26299999998673
 20
-0.0001000000000317
 30
0.0
 11
9.236999999990758
 21
8.999899999990987
 31
0.0
1001
ACAD
1000
ASC_BOUNDS
1002
{
1070
    19
1005
A376
1002
}
  0
LINE
  5
A336
330
A333
100
AcDbEntity
  8
0
100
AcDbLine
 10
5.657999999994331
 20
0.9999999999989768
 30
0.0
 11
9.236999999990758
 21
8.999999999991019
 31
0.0
1001
ACAD
1000
ASC_BOUNDS
1002
{
1070
    19
1005
A376
1002
}
  0
LINE
  5
A337
330
A333
100
AcDbEntity
  8
0
100
AcDbLine
 10
18.59199999998134
 20
-0.2368999999997641
 30
0.0
 11
16.46099999998353
 21
5.432899999994561
 31
0.0
1001
ACAD
1000
ASC_BOUNDS
1002
{
1070
    19
1005
A377
1002
}
  0
LINE
  5
A338
330
A333
100
AcDbEntity
  8
0
100
AcDbLine
 10
18.59199999998134
 20
-0.2368999999997641
 30
0.0
 11
22.38199999997767
 21
8.763099999991255
 31
0.0
1001
ACAD
1000
ASC_BOUNDS
1002
{
1070
    19
1005
A377
1002
}
  0
LINE
  5
A339
330
A333
100
AcDbEntity
  8
0
100
AcDbLine
 10
14.32899999998563
 20
-0.2368999999997641
 30
0.0
 11
16.46099999998353
 21
5.432899999994561
 31
0.0
1001
ACAD
1000
ASC_BOUNDS
1002
{
1070
    19
1005
A377
1002
}
  0
LINE
  5
A33A
330
A333
100
AcDbEntity
  8
0
100
AcDbLine
 10
14.32899999998563
 20
-0.2368999999997641
 30
0.0
 11
10.53899999998941
 21
8.763099999991255
 31
0.0
1001
ACAD
1000
ASC_BOUNDS
1002
{
1070
    19
1005
A377
1002
}
  0
LINE
  5
A33B
330
A333
100
AcDbEntity
  8
0
100
AcDbLine
 10
19.53899999998043
 20
-0.0001000000000317
 30
0.0
 11
23.56599999997638
 21
8.999899999990987
 31
0.0
1001
ACAD
1000
ASC_BOUNDS
1002
{
1070
    19
1005
A378
1002
}
  0
LINE
  5
A33C
330
A333
100
AcDbEntity
  8
0
100
AcDbLine
 10
26.97358892824991
 20
1.383099999991202
 30
0.0
 11
23.56599999997638
 21
8.999899999990987
 31
0.0
1001
ACAD
1000
ASC_BOUNDS
1002
{
1070
    19
1005
A378
1002
}
  0
LINE
  5
A33D
330
A333
100
AcDbEntity
  8
0
100
AcDbLine
 10
5.657999999994331
 20
0.9999999999989768
 30
0.0
 11
3.181999999996833
 21
4.668599999995308
 31
0.0
1001
ACAD
1000
ASC_BOUNDS
1002
{
1070
    19
1005
A376
1002
}
  0
LINE
  5
A33E
330
A333
100
AcDbEntity
  8
0
100
AcDbLine
 10
4.617999999995391
 20
-0.0001000000000317
 30
0.0
 11
1.420999999998571
 21
4.736799999995242
 31
0.0
1001
ACAD
1000
ASC_BOUNDS
1002
{
1070
    19
1005
A376
1002
}
  0
LINE
  5
A33F
330
A333
100
AcDbEntity
  8
0
100
AcDbLine
 10
1.420999999998571
 20
8.763099999991255
 30
0.0
 11
1.420999999998571
 21
0.0
 31
0.0
1001
ACAD
1000
ASC_BOUNDS
1002
{
1070
    19
1005
A37B
1002
}
  0
LINE
  5
A340
330
A333
100
AcDbEntity
  8
0
100
AcDbLine
 10
0.0
 20
8.763099999991255
 30
0.0
 11
0.0
 21
0.0
 31
0.0
1001
ACAD
1000
ASC_BOUNDS
1002
{
1070
    19
1005
A37B
1002
}
  0
LINE
  5
A341
330
A333
100
AcDbEntity
  8
0
100
AcDbLine
 10
6.766999999993232
 20
-0.0001000000000317
 30
0.0
 11
7.826999999992154
 21
2.368399999997621
 31
0.0
1001
ACAD
1000
ASC_BOUNDS
1002
{
1070
    19
1005
A376
1002
}
  0
LINE
  5
A342
330
A333
100
AcDbEntity
  8
0
100
AcDbLine
 10
0.0
 20
0.0
 30
0.0
 11
1.420999999998571
 21
0.0
 31
0.0
1001
ACAD
1000
ASC_BOUNDS
1002
{
1070
    19
1005
A37B
1002
}
  0
LINE
  5
A343
330
A333
100
AcDbEntity
  8
0
100
AcDbLine
 10
4.617999999995391
 20
0.0
 30
0.0
 11
6.766999999993232
 21
0.0
 31
0.0
1001
ACAD
1000
ASC_BOUNDS
1002
{
1070
    19
1005
A376
1002
}
  0
LINE
  5
A344
330
A333
100
AcDbEntity
  8
0
100
AcDbLine
 10
11.70599999998831
 20
-0.0001000000000317
 30
0.0
 11
10.64699999998936
 21
2.368399999997621
 31
0.0
1001
ACAD
1000
ASC_BOUNDS
1002
{
1070
    19
1005
A376
1002
}
  0
LINE
  5
A345
330
A333
100
AcDbEntity
  8
0
100
AcDbLine
 10
7.826999999992154
 20
2.368399999997621
 30
0.0
 11
10.64699999998936
 21
2.368399999997621
 31
0.0
1001
ACAD
1000
ASC_BOUNDS
1002
{
1070
    19
1005
A376
1002
}
  0
LINE
  5
A346
330
A333
100
AcDbEntity
  8
0
100
AcDbLine
 10
11.70599999998831
 20
0.0
 30
0.0
 11
13.26299999998673
 21
0.0
 31
0.0
1001
ACAD
1000
ASC_BOUNDS
1002
{
1070
    19
1005
A376
1002
}
  0
LINE
  5
A347
330
A333
100
AcDbEntity
  8
0
100
AcDbLine
 10
22.15599999997789
 20
2.368399999997621
 30
0.0
 11
24.97599999997499
 21
2.368399999997621
 31
0.0
1001
ACAD
1000
ASC_BOUNDS
1002
{
1070
    19
1005
A378
1002
}
  0
LINE
  5
A348
330
A333
100
AcDbEntity
  8
0
100
AcDbLine
 10
19.53899999998043
 20
0.0
 30
0.0
 11
21.09599999997886
 21
0.0
 31
0.0
1001
ACAD
1000
ASC_BOUNDS
1002
{
1070
    19
1005
A378
1002
}
  0
LINE
  5
A349
330
A333
100
AcDbEntity
  8
0
100
AcDbLine
 10
21.09599999997886
 20
-0.0001000000000317
 30
0.0
 11
22.15599999997789
 21
2.368399999997621
 31
0.0
1001
ACAD
1000
ASC_BOUNDS
1002
{
1070
    19
1005
A378
1002
}
  0
LINE
  5
A34A
330
A333
100
AcDbEntity
  8
0
100
AcDbLine
 10
26.02015566812236
 20
0.0330999999912365
 30
0.0
 11
24.97599999997499
 21
2.368399999997621
 31
0.0
1001
ACAD
1000
ASC_BOUNDS
1002
{
1070
    19
1005
A378
1002
}
  0
LINE
  5
A34B
330
A333
100
AcDbEntity
  8
0
100
AcDbLine
 10
14.32399999998563
 20
3.315799999996671
 30
0.0
 11
16.46099999998353
 21
8.999899999990987
 31
0.0
1001
ACAD
1000
ASC_BOUNDS
1002
{
1070
    19
1005
A377
1002
}
  0
LINE
  5
A34C
330
A333
100
AcDbEntity
  8
0
100
AcDbLine
 10
6.432999999993513
 20
8.763099999991255
 30
0.0
 11
3.181999999996833
 21
4.668599999995308
 31
0.0
1001
ACAD
1000
ASC_BOUNDS
1002
{
1070
    19
1005
A376
1002
}
  0
LINE
  5
A34D
330
A333
100
AcDbEntity
  8
0
100
AcDbLine
 10
4.617999999995391
 20
8.763099999991255
 30
0.0
 11
1.420999999998571
 21
4.736799999995242
 31
0.0
1001
ACAD
1000
ASC_BOUNDS
1002
{
1070
    19
1005
A376
1002
}
  0
LINE
  5
A34E
330
A333
100
AcDbEntity
  8
0
100
AcDbLine
 10
0.0
 20
8.763099999991255
 30
0.0
 11
1.420999999998571
 21
8.763099999991255
 31
0.0
1001
ACAD
1000
ASC_BOUNDS
1002
{
1070
    19
1005
A37B
1002
}
  0
LINE
  5
A34F
330
A333
100
AcDbEntity
  8
0
100
AcDbLine
 10
4.617999999995391
 20
8.763099999991255
 30
0.0
 11
6.432999999993513
 21
8.763099999991255
 31
0.0
1001
ACAD
1000
ASC_BOUNDS
1002
{
1070
    19
1005
A376
1002
}
  0
LINE
  5
A350
330
A333
100
AcDbEntity
  8
0
100
AcDbLine
 10
14.32399999998563
 20
3.315799999996671
 30
0.0
 11
12.02999999998792
 21
8.763099999991255
 31
0.0
1001
ACAD
1000
ASC_BOUNDS
1002
{
1070
    19
1005
A377
1002
}
  0
LINE
  5
A351
330
A333
100
AcDbEntity
  8
0
100
AcDbLine
 10
10.06399999998996
 20
3.670999999996297
 30
0.0
 11
9.236999999990758
 21
5.5200999999945
 31
0.0
1001
ACAD
1000
ASC_BOUNDS
1002
{
1070
    19
1005
A376
1002
}
  0
LINE
  5
A352
330
A333
100
AcDbEntity
  8
0
100
AcDbLine
 10
8.409999999991555
 20
3.670999999996297
 30
0.0
 11
9.236999999990758
 21
5.5200999999945
 31
0.0
1001
ACAD
1000
ASC_BOUNDS
1002
{
1070
    19
1005
A376
1002
}
  0
LINE
  5
A353
330
A333
100
AcDbEntity
  8
0
100
AcDbLine
 10
8.409999999991555
 20
3.670999999996297
 30
0.0
 11
10.06399999998996
 21
3.670999999996297
 31
0.0
1001
ACAD
1000
ASC_BOUNDS
1002
{
1070
    19
1005
A376
1002
}
  0
LINE
  5
A354
330
A333
100
AcDbEntity
  8
0
100
AcDbLine
 10
10.53899999998941
 20
8.763099999991255
 30
0.0
 11
12.02999999998792
 21
8.763099999991255
 31
0.0
1001
ACAD
1000
ASC_BOUNDS
1002
{
1070
    19
1005
A377
1002
}
  0
LINE
  5
A355
330
A333
100
AcDbEntity
  8
0
100
AcDbLine
 10
22.7389999999773
 20
3.670999999996297
 30
0.0
 11
23.56599999997638
 21
5.5200999999945
 31
0.0
1001
ACAD
1000
ASC_BOUNDS
1002
{
1070
    19
1005
A378
1002
}
  0
LINE
  5
A356
330
A333
100
AcDbEntity
  8
0
100
AcDbLine
 10
22.7389999999773
 20
3.670999999996297
 30
0.0
 11
24.39299999997559
 21
3.670999999996297
 31
0.0
1001
ACAD
1000
ASC_BOUNDS
1002
{
1070
    19
1005
A378
1002
}
  0
LINE
  5
A357
330
A333
100
AcDbEntity
  8
0
100
AcDbLine
 10
18.59799999998143
 20
3.315799999996671
 30
0.0
 11
20.89099999997916
 21
8.763099999991255
 31
0.0
1001
ACAD
1000
ASC_BOUNDS
1002
{
1070
    19
1005
A377
1002
}
  0
LINE
  5
A358
330
A333
100
AcDbEntity
  8
0
100
AcDbLine
 10
18.59799999998143
 20
3.315799999996671
 30
0.0
 11
16.46099999998353
 21
8.999899999990987
 31
0.0
1001
ACAD
1000
ASC_BOUNDS
1002
{
1070
    19
1005
A377
1002
}
  0
LINE
  5
A359
330
A333
100
AcDbEntity
  8
0
100
AcDbLine
 10
20.89099999997916
 20
8.763099999991255
 30
0.0
 11
22.38199999997767
 21
8.763099999991255
 31
0.0
1001
ACAD
1000
ASC_BOUNDS
1002
{
1070
    19
1005
A377
1002
}
  0
LINE
  5
A35A
330
A333
100
AcDbEntity
  8
0
100
AcDbLine
 10
24.39299999997559
 20
3.670999999996297
 30
0.0
 11
23.56599999997638
 21
5.5200999999945
 31
0.0
1001
ACAD
1000
ASC_BOUNDS
1002
{
1070
    19
1005
A378
1002
}
  0
LINE
  5
A35B
330
A333
100
AcDbEntity
  8
0
100
AcDbLine
 10
44.99999999995498
 20
-0.2368999999997641
 30
0.0
 11
40.02599999995994
 21
5.341799999994635
 31
0.0
1001
ACAD
1000
ASC_BOUNDS
1002
{
1070
    19
1005
A37A
1002
}
  0
LINE
  5
A35C
330
A333
100
AcDbEntity
  8
0
100
AcDbLine
 10
40.02599999995994
 20
5.341799999994635
 30
0.0
 11
40.02599999995994
 21
0.0
 31
0.0
1001
ACAD
1000
ASC_BOUNDS
1002
{
1070
    19
1005
A37A
1002
}
  0
LINE
  5
A35D
330
A333
100
AcDbEntity
  8
0
100
AcDbLine
 10
38.60499999996136
 20
8.999999999991019
 30
0.0
 11
38.60499999996136
 21
0.0
 31
0.0
1001
ACAD
1000
ASC_BOUNDS
1002
{
1070
    19
1005
A37A
1002
}
  0
LINE
  5
A35E
330
A333
100
AcDbEntity
  8
0
100
AcDbLine
 10
44.99999999995498
 20
8.763099999991255
 30
0.0
 11
44.99999999995498
 21
-0.2368999999997641
 31
0.0
1001
ACAD
1000
ASC_BOUNDS
1002
{
1070
    19
1005
A37A
1002
}
  0
LINE
  5
A35F
330
A333
100
AcDbEntity
  8
0
100
AcDbLine
 10
38.60499999996136
 20
0.0
 30
0.0
 11
40.02599999995994
 21
0.0
 31
0.0
1001
ACAD
1000
ASC_BOUNDS
1002
{
1070
    19
1005
A37A
1002
}
  0
LINE
  5
A360
330
A333
100
AcDbEntity
  8
0
100
AcDbLine
 10
43.57899999995641
 20
3.421199999996588
 30
0.0
 11
38.60499999996136
 21
8.999899999990987
 31
0.0
1001
ACAD
1000
ASC_BOUNDS
1002
{
1070
    19
1005
A37A
1002
}
  0
LINE
  5
A361
330
A333
100
AcDbEntity
  8
0
100
AcDbLine
 10
43.57899999995641
 20
8.763099999991255
 30
0.0
 11
43.57899999995641
 21
3.421199999996588
 31
0.0
1001
ACAD
1000
ASC_BOUNDS
1002
{
1070
    19
1005
A37A
1002
}
  0
LINE
  5
A362
330
A333
100
AcDbEntity
  8
0
100
AcDbLine
 10
43.57899999995641
 20
8.763099999991255
 30
0.0
 11
44.99999999995498
 21
8.763099999991255
 31
0.0
1001
ACAD
1000
ASC_BOUNDS
1002
{
1070
    19
1005
A37A
1002
}
  0
LINE
  5
A363
330
A333
100
AcDbEntity
  8
0
100
AcDbLine
 10
37.67199999996831
 20
8.763099999991255
 30
0.0
 11
36.23199999996837
 21
8.763099999991255
 31
0.0
  0
LINE
  5
A364
330
A333
100
AcDbEntity
  8
0
100
AcDbLine
 10
31.64199999996833
 20
8.763099999991255
 30
0.0
 11
31.64199999996833
 21
2.481619422925121
 31
0.0
  0
LINE
  5
A365
330
A333
100
AcDbEntity
  8
0
100
AcDbLine
 10
37.67199999996831
 20
8.763099999991255
 30
0.0
 11
37.67199999996831
 21
2.481619422925121
 31
0.0
  0
LINE
  5
A366
330
A333
100
AcDbEntity
  8
0
100
AcDbLine
 10
36.23199999996837
 20
8.763099999991255
 30
0.0
 11
36.23199999996837
 21
2.481619422925064
 31
0.0
  0
LINE
  5
A367
330
A333
100
AcDbEntity
  8
0
100
AcDbLine
 10
33.08199999996839
 20
8.763099999991255
 30
0.0
 11
33.08199999996839
 21
2.481619422925121
 31
0.0
  0
ARC
  5
A368
330
A333
100
AcDbEntity
  8
0
100
AcDbCircle
 10
34.65699999996832
 20
3.183099999991214
 30
0.0
 40
3.420000000000007
100
AcDbArc
 50
240.0000000000255
 51
299.9999999999766
  0
ARC
  5
A369
330
A333
100
AcDbEntity
  8
0
100
AcDbCircle
 10
34.65699999996832
 20
3.183099999991214
 30
0.0
 40
1.97999999999999
100
AcDbArc
 50
240.000000000026
 51
299.9999999999703
  0
LINE
  5
A36A
330
A333
100
AcDbEntity
  8
0
100
AcDbLine
 10
33.08199999996828
 20
8.763099999991255
 30
0.0
 11
31.64199999996833
 21
8.763099999991255
 31
0.0
  0
ARC
  5
A36B
330
A333
100
AcDbEntity
  8
0
100
AcDbCircle
 10
35.06199999996829
 20
2.481619422925064
 30
0.0
 40
1.17
100
AcDbArc
 50
299.9999999999699
 51
0.0
  0
ARC
  5
A36C
330
A333
100
AcDbEntity
  8
0
100
AcDbCircle
 10
34.25199999996835
 20
2.481619422925121
 30
0.0
 40
1.17
100
AcDbArc
 50
180.0
 51
240.0000000000238
  0
ARC
  5
A36D
330
A333
100
AcDbEntity
  8
0
100
AcDbCircle
 10
35.06199999996841
 20
2.481619422925121
 30
0.0
 40
2.61
100
AcDbArc
 50
299.9999999999756
 51
0.0
  0
ARC
  5
A36E
330
A333
100
AcDbEntity
  8
0
100
AcDbCircle
 10
34.25199999996835
 20
2.481619422925121
 30
0.0
 40
2.61
100
AcDbArc
 50
180.0
 51
240.0000000000244
  0
LINE
  5
A36F
330
A333
100
AcDbEntity
  8
0
100
AcDbLine
 10
29.30199999996933
 20
8.763099999991255
 30
0.0
 11
30.74199999996927
 21
8.763099999991255
 31
0.0
1001
ACAD
1000
ASC_BOUNDS
1002
{
1070
    19
1005
A378
1002
}
  0
LINE
  5
A370
330
A333
100
AcDbEntity
  8
0
100
AcDbLine
 10
30.74199999996927
 20
8.763099999991255
 30
0.0
 11
30.74199999996927
 21
2.373099999991211
 31
0.0
1001
ACAD
1000
ASC_BOUNDS
1002
{
1070
    19
1005
A378
1002
}
  0
LINE
  5
A371
330
A333
100
AcDbEntity
  8
0
100
AcDbLine
 10
26.02015566812236
 20
0.0330999999912365
 30
0.0
 11
28.40199999996923
 21
0.0330999999912365
 31
0.0
1001
ACAD
1000
ASC_BOUNDS
1002
{
1070
    19
1005
A378
1002
}
  0
LINE
  5
A372
330
A333
100
AcDbEntity
  8
0
100
AcDbLine
 10
29.30199999996933
 20
8.763099999991255
 30
0.0
 11
29.30199999996933
 21
2.283099999991236
 31
0.0
1001
ACAD
1000
ASC_BOUNDS
1002
{
1070
    19
1005
A378
1002
}
  0
LINE
  5
A373
330
A333
100
AcDbEntity
  8
0
100
AcDbLine
 10
26.97358892824991
 20
1.383099999991202
 30
0.0
 11
28.40199999996923
 21
1.383099999991202
 31
0.0
1001
ACAD
1000
ASC_BOUNDS
1002
{
1070
    19
1005
A378
1002
}
  0
ARC
  5
A374
330
A333
100
AcDbEntity
  8
0
100
AcDbCircle
 10
28.40199999996923
 20
2.283099999991236
 30
0.0
 40
0.9
100
AcDbArc
 50
270.0
 51
0.0
1001
ACAD
1000
ASC_BOUNDS
1002
{
1070
    19
1005
A378
1002
}
  0
ARC
  5
A375
330
A333
100
AcDbEntity
  8
0
100
AcDbCircle
 10
28.40199999996923
 20
2.373099999991211
 30
0.0
 40
2.34
100
AcDbArc
 50
270.0
 51
0.0
1001
ACAD
1000
ASC_BOUNDS
1002
{
1070
    19
1005
A378
1002
}
  0
INSERT
  5
A376
330
A333
100
AcDbEntity
  8
0
100
AcDbBlockReference
  2
*X172
 10
0.0
 20
0.0
 30
0.0
1001
ACAD
1000
HATCH
1002
{
1070
    19
1000
ANSI37
1040
0.15
1040
0.0
1000
ASC_BOUNDS
1070
     2
1070
     2
1070
    12
1005
A335
1005
A336
1005
A33D
1005
A34C
1005
A34F
1005
A34D
1005
A33E
1005
A343
1005
A341
1005
A345
1005
A344
1005
A346
1070
     2
1070
     3
1005
A351
1005
A353
1005
A352
1000
ASC_SEEDPOINT
1011
3.614004224891801
1021
2.996669441146025
1031
0.0
1000
R14_HATCH_DATA
1000
A376
1011
1.0
1021
0.0
1031
0.0
1011
0.0
1021
1.0
1031
0.0
1011
0.0
1021
0.0
1031
1.0
1040
0.0
1010
0.0
1020
0.0
1030
1.0
1000
ANSI37
1070
     0
1070
     1
1071
        2
1071
        7
1070
     0
1070
     1
1071
       17
1040
13.26299999998673
1040
-0.0001000000000317
1040
9.236999999990758
1040
8.999899999990987
1040
9.236999999990758
1040
8.999999999991019
1040
5.657999999994331
1040
0.9999999999989768
1040
3.181999999996833
1040
4.668599999995308
1040
6.432999999993513
1040
8.763099999991255
1040
4.617999999995391
1040
8.763099999991255
1040
1.420999999998571
1040
4.736799999995242
1040
4.617999999995391
1040
-0.0001000000000317
1040
4.617999999995391
1040
0.0
1040
6.766999999993232
1040
0.0
1040
6.766999999993232
1040
-0.0001000000000317
1040
7.826999999992154
1040
2.368399999997621
1040
10.64699999998936
1040
2.368399999997621
1040
11.70599999998831
1040
-0.0001000000000317
1040
11.70599999998831
1040
0.0
1040
13.26299999998673
1040
0.0
1071
       12
1005
A335
1005
A336
1005
A33D
1005
A34C
1005
A34F
1005
A34D
1005
A33E
1005
A343
1005
A341
1005
A345
1005
A344
1005
A346
1071
       22
1070
     0
1070
     1
1071
        3
1040
9.236999999990758
1040
5.5200999999945
1040
10.06399999998996
1040
3.670999999996297
1040
8.409999999991555
1040
3.670999999996297
1071
        3
1005
A351
1005
A353
1005
A352
1070
     0
1070
     1
1040
0.0
1040
0.15
1070
     0
1070
     2
1040
0.7853981633974483
1040
49.29960901727088
1040
-10.17736998311392
1040
-0.3367596045400932
1040
0.3367596045400932
1070
     0
1040
2.356194490192345
1040
49.29960901727088
1040
-10.17736998311392
1040
-0.3367596045400932
1040
-0.3367596045400932
1070
     0
1040
0.0110235143455945
1071
        2
1040
3.614004224891801
1040
2.996669441146025
1040
0.0
1040
3.614004224891801
1040
2.996669441146025
1040
0.0
1002
}
  0
INSERT
  5
A377
330
A333
100
AcDbEntity
  8
0
100
AcDbBlockReference
  2
*X173
 10
0.0
 20
0.0
 30
0.0
1001
ACAD
1000
HATCH
1002
{
1070
    19
1000
ANSI37
1040
0.15
1040
0.0
1000
ASC_BOUNDS
1070
     1
1070
     2
1070
    10
1005
A337
1005
A338
1005
A359
1005
A357
1005
A358
1005
A34B
1005
A350
1005
A354
1005
A33A
1005
A339
1000
ASC_SEEDPOINT
1011
14.73245321214324
1021
2.798246178283421
1031
0.0
1000
R14_HATCH_DATA
1000
A377
1011
1.0
1021
0.0
1031
0.0
1011
0.0
1021
1.0
1031
0.0
1011
0.0
1021
0.0
1031
1.0
1040
0.0
1010
0.0
1020
0.0
1030
1.0
1000
ANSI37
1070
     0
1070
     1
1071
        1
1071
        7
1070
     0
1070
     1
1071
       10
1040
16.46099999998353
1040
5.432899999994561
1040
18.59199999998134
1040
-0.2368999999997641
1040
22.38199999997767
1040
8.763099999991255
1040
20.89099999997916
1040
8.763099999991255
1040
18.59799999998143
1040
3.315799999996671
1040
16.46099999998353
1040
8.999899999990987
1040
14.32399999998563
1040
3.315799999996671
1040
12.02999999998792
1040
8.763099999991255
1040
10.53899999998941
1040
8.763099999991255
1040
14.32899999998563
1040
-0.2368999999997641
1071
       10
1005
A337
1005
A338
1005
A359
1005
A357
1005
A358
1005
A34B
1005
A350
1005
A354
1005
A33A
1005
A339
1070
     0
1070
     1
1040
0.0
1040
0.15
1070
     0
1070
     2
1040
0.7853981633974483
1040
49.29960901727088
1040
-10.17736998311392
1040
-0.3367596045400932
1040
0.3367596045400932
1070
     0
1040
2.356194490192345
1040
49.29960901727088
1040
-10.17736998311392
1040
-0.3367596045400932
1040
-0.3367596045400932
1070
     0
1040
0.0110235143455945
1071
        1
1040
14.73245321214324
1040
2.798246178283421
1040
0.0
1002
}
  0
INSERT
  5
A378
330
A333
100
AcDbEntity
  8
0
100
AcDbBlockReference
  2
*X174
 10
0.0
 20
0.0
 30
0.0
1001
ACAD
1000
HATCH
1002
{
1070
    19
1000
ANSI37
1040
0.15
1040
0.0
1000
ASC_BOUNDS
1070
     2
1070
     2
1070
    13
1005
A33B
1005
A348
1005
A349
1005
A347
1005
A34A
1005
A371
1005
A375
1005
A370
1005
A36F
1005
A372
1005
A374
1005
A373
1005
A33C
1070
     2
1070
     3
1005
A355
1005
A35A
1005
A356
1000
ASC_SEEDPOINT
1011
21.97929957367762
1021
3.294304244259308
1031
0.0
1000
R14_HATCH_DATA
1000
A378
1011
1.0
1021
0.0
1031
0.0
1011
0.0
1021
1.0
1031
0.0
1011
0.0
1021
0.0
1031
1.0
1040
0.0
1010
0.0
1020
0.0
1030
1.0
1000
ANSI37
1070
     0
1070
     1
1071
        2
1071
        7
1070
     1
1070
     1
1071
       15
1040
23.56599999997638
1040
8.999899999990987
1040
0.0
1040
19.53899999998043
1040
-0.0001000000000317
1040
0.0
1040
19.53899999998043
1040
0.0
1040
0.0
1040
21.09599999997886
1040
0.0
1040
0.0
1040
21.09599999997886
1040
-0.0001000000000317
1040
0.0
1040
22.15599999997789
1040
2.368399999997621
1040
0.0
1040
24.97599999997499
1040
2.368399999997621
1040
0.0
1040
26.02015566812236
1040
0.0330999999912365
1040
0.0
1040
28.40199999996923
1040
0.0330999999912365
1040
0.414213562373095
1040
30.74199999996923
1040
2.373099999991211
1040
0.0
1040
30.74199999996927
1040
8.763099999991255
1040
0.0
1040
29.30199999996933
1040
8.763099999991255
1040
0.0
1040
29.30199999996933
1040
2.283099999991236
1040
-0.414213562373095
1040
28.40199999996923
1040
1.383099999991237
1040
0.0
1040
26.97358892824991
1040
1.383099999991202
1040
0.0
1071
       13
1005
A33B
1005
A348
1005
A349
1005
A347
1005
A34A
1005
A371
1005
A375
1005
A370
1005
A36F
1005
A372
1005
A374
1005
A373
1005
A33C
1071
       22
1070
     0
1070
     1
1071
        3
1040
22.7389999999773
1040
3.670999999996297
1040
23.56599999997638
1040
5.5200999999945
1040
24.39299999997559
1040
3.670999999996297
1071
        3
1005
A355
1005
A35A
1005
A356
1070
     0
1070
     1
1040
0.0
1040
0.15
1070
     0
1070
     2
1040
0.7853981633974483
1040
49.29960901727088
1040
-10.17736998311392
1040
-0.3367596045400932
1040
0.3367596045400932
1070
     0
1040
2.356194490192345
1040
49.29960901727088
1040
-10.17736998311392
1040
-0.3367596045400932
1040
-0.3367596045400932
1070
     0
1040
0.0110235143455945
1071
        2
1040
21.97929957367762
1040
3.294304244259308
1040
0.0
1040
21.97929957367762
1040
3.294304244259308
1040
0.0
1002
}
  0
INSERT
  5
A379
330
A333
100
AcDbEntity
  8
0
100
AcDbBlockReference
  2
*X175
 10
0.0
 20
0.0
 30
0.0
1001
ACAD
1000
HATCH
1002
{
1070
    19
1000
ANSI37
1040
0.15
1040
0.0
1000
R14_HATCH_DATA
1000
A379
1011
1.0
1021
0.0
1031
0.0
1011
0.0
1021
1.0
1031
0.0
1011
0.0
1021
0.0
1031
1.0
1040
0.0
1010
0.0
1020
0.0
1030
1.0
1000
ANSI37
1070
     0
1070
     1
1071
        1
1071
        7
1070
     1
1070
     1
1071
       12
1040
31.64199999996833
1040
2.481619422925121
1040
0.2679491924310942
1040
32.94699999997067
1040
0.2212931190493919
1040
0.2679491924301353
1040
36.36699999995983
1040
0.2212931190459813
1040
0.2679491924321411
1040
37.67199999996831
1040
2.481619422928361
1040
0.0
1040
37.67199999996831
1040
8.763099999991255
1040
0.0
1040
36.23199999996837
1040
8.763099999991255
1040
0.0
1040
36.23199999996837
1040
2.481619422925064
1040
-0.2679491924310291
1040
35.64699999996708
1040
1.468369700498386
1040
-0.267949192430519
1040
33.66699999997093
1040
1.468369700497703
1040
-0.267949192431809
1040
33.08199999996839
1040
2.481619422926997
1040
0.0
1040
33.08199999996839
1040
8.763099999991255
1040
0.0
1040
31.64199999996833
1040
8.763099999991255
1040
0.0
1071
        0
1070
     0
1070
     1
1040
0.0
1040
0.15
1070
     0
1070
     2
1040
0.7853981633974483
1040
49.29960901727088
1040
-10.17736998311392
1040
-0.3367596045400932
1040
0.3367596045400932
1070
     0
1040
2.356194490192345
1040
49.29960901727088
1040
-10.17736998311392
1040
-0.3367596045400932
1040
-0.3367596045400932
1070
     0
1040
0.0110235143455945
1071
        1
1040
32.30357378967278
1040
3.988785755459219
1040
0.0
1002
}
  0
INSERT
  5
A37A
330
A333
100
AcDbEntity
  8
0
100
AcDbBlockReference
  2
*X176
 10
0.0
 20
0.0
 30
0.0
1001
ACAD
1000
HATCH
1002
{
1070
    19
1000
ANSI37
1040
0.15
1040
0.0
1000
ASC_BOUNDS
1070
     1
1070
     2
1070
     8
1005
A35B
1005
A35E
1005
A362
1005
A361
1005
A360
1005
A35D
1005
A35F
1005
A35C
1000
ASC_SEEDPOINT
1011
39.74896370716704
1021
4.484843821435049
1031
0.0
1000
R14_HATCH_DATA
1000
A37A
1011
1.0
1021
0.0
1031
0.0
1011
0.0
1021
1.0
1031
0.0
1011
0.0
1021
0.0
1031
1.0
1040
0.0
1010
0.0
1020
0.0
1030
1.0
1000
ANSI37
1070
     0
1070
     1
1071
        1
1071
        7
1070
     0
1070
     1
1071
        9
1040
40.02599999995994
1040
5.341799999994635
1040
44.99999999995498
1040
-0.2368999999997641
1040
44.99999999995498
1040
8.763099999991255
1040
43.57899999995641
1040
8.763099999991255
1040
43.57899999995641
1040
3.421199999996588
1040
38.60499999996136
1040
8.999899999990987
1040
38.60499999996136
1040
8.999999999991019
1040
38.60499999996136
1040
0.0
1040
40.02599999995994
1040
0.0
1071
        8
1005
A35B
1005
A35E
1005
A362
1005
A361
1005
A360
1005
A35D
1005
A35F
1005
A35C
1070
     0
1070
     1
1040
0.0
1040
0.15
1070
     0
1070
     2
1040
0.7853981633974483
1040
49.29960901727088
1040
-10.17736998311392
1040
-0.3367596045400932
1040
0.3367596045400932
1070
     0
1040
2.356194490192345
1040
49.29960901727088
1040
-10.17736998311392
1040
-0.3367596045400932
1040
-0.3367596045400932
1070
     0
1040
0.0110235143455945
1071
        1
1040
39.74896370716704
1040
4.484843821435049
1040
0.0
1002
}
  0
INSERT
  5
A37B
330
A333
100
AcDbEntity
  8
0
100
AcDbBlockReference
  2
*X177
 10
0.0
 20
0.0
 30
0.0
1001
ACAD
1000
HATCH
1002
{
1070
    19
1000
ANSI37
1040
0.15
1040
0.0
1000
ASC_BOUNDS
1070
     1
1070
     2
1070
     4
1005
A33F
1005
A34E
1005
A340
1005
A342
1000
ASC_SEEDPOINT
1011
1.079051535452663
1021
4.148538732891836
1031
0.0
1000
R14_HATCH_DATA
1000
A37B
1011
1.0
1021
0.0
1031
0.0
1011
0.0
1021
1.0
1031
0.0
1011
0.0
1021
0.0
1031
1.0
1040
0.0
1010
0.0
1020
0.0
1030
1.0
1000
ANSI37
1070
     0
1070
     1
1071
        1
1071
        7
1070
     0
1070
     1
1071
        4
1040
1.420999999998571
1040
0.0
1040
1.420999999998571
1040
8.763099999991255
1040
0.0
1040
8.763099999991255
1040
0.0
1040
0.0
1071
        4
1005
A33F
1005
A34E
1005
A340
1005
A342
1070
     0
1070
     1
1040
0.0
1040
0.15
1070
     0
1070
     2
1040
0.7853981633974483
1040
49.29960901727088
1040
-10.17736998311392
1040
-0.3367596045400932
1040
0.3367596045400932
1070
     0
1040
2.356194490192345
1040
49.29960901727088
1040
-10.17736998311392
1040
-0.3367596045400932
1040
-0.3367596045400932
1070
     0
1040
0.0053004257112761
1071
        1
1040
1.079051535452663
1040
4.148538732891836
1040
0.0
1002
}
  0
ENDBLK
  5
AA57
330
A333
100
AcDbEntity
  8
0
100
AcDbBlockEnd
  0
BLOCK
  5
BAAE
330
B8CA
100
AcDbEntity
  8
0
100
AcDbBlockBegin
  2
NO3CIRCLE
 70
     2
 10
0.0
 20
0.0
 30
0.0
  3
NO3CIRCLE
  1

  0
CIRCLE
  5
B8CE
330
B8CA
100
AcDbEntity
  8
0
  6
BYBLOCK
 62
     0
100
AcDbCircle
 10
0.0
 20
0.0
 30
0.0
 40
4.2
  0
ATTDEF
  5
B8CF
330
B8CA
100
AcDbEntity
  8
1TEXT
100
AcDbText
 10
-3.428571428571428
 20
-2.0
 30
0.0
 40
4.0
  1
000
 41
0.6
  7
STANDARD06
 72
     4
 11
0.0
 21
0.0
 31
0.0
100
AcDbAttributeDefinition
  3
NO3
  2
NO3
 70
     0
  0
ENDBLK
  5
BAAF
330
B8CA
100
AcDbEntity
  8
0
100
AcDbBlockEnd
  0
BLOCK
  5
BAB0
330
BA76
100
AcDbEntity
  8
0
100
AcDbBlockBegin
  2
NOCIRCLE
 70
     2
 10
0.0
 20
0.0
 30
0.0
  3
NOCIRCLE
  1

  0
CIRCLE
  5
BA7A
330
BA76
100
AcDbEntity
  8
0
  6
BYBLOCK
 62
     0
100
AcDbCircle
 10
0.0
 20
0.0
 30
0.0
 40
4.2
  0
ATTDEF
  5
BA7B
330
BA76
100
AcDbEntity
  8
1TEXT
100
AcDbText
 10
-1.904761904761876
 20
-2.0
 30
0.0
 40
4.0
  1
0
 72
     4
 11
0.0
 21
0.0
 31
0.0
100
AcDbAttributeDefinition
  3
NO.
  2
NO
 70
     0
  0
ENDBLK
  5
BAB1
330
BA76
100
AcDbEntity
  8
0
100
AcDbBlockEnd
  0
BLOCK
  5
D45D
330
D2D0
100
AcDbEntity
  8
0
100
AcDbBlockBegin
  2
*X172
 70
     1
 10
0.0
 20
0.0
 30
0.0
  3
*X172
  1

  0
LINE
  5
D2D1
330
D2D0
100
AcDbEntity
  8
0
  6
CONTINUOUS
100
AcDbLine
 10
3.418023043697893
 20
7.251849696850613
 30
0.0
 11
4.929273346838536
 21
8.763099999991255
 31
0.0
  0
LINE
  5
D2D2
330
D2D0
100
AcDbEntity
  8
0
  6
CONTINUOUS
100
AcDbLine
 10
1.483656411257782
 20
4.643963855330318
 30
0.0
 11
5.60279255591872
 21
8.763099999991255
 31
0.0
  0
LINE
  5
D2D3
330
D2D0
100
AcDbEntity
  8
0
  6
CONTINUOUS
100
AcDbLine
 10
1.755053947328235
 20
4.241842182320584
 30
0.0
 11
6.276311764998907
 21
8.763099999991255
 31
0.0
  0
LINE
  5
D2D4
330
D2D0
100
AcDbEntity
  8
0
  6
CONTINUOUS
100
AcDbLine
 10
2.026451483398688
 20
3.839720509310849
 30
0.0
 11
4.441040904851878
 21
6.254309930764039
 31
0.0
  0
LINE
  5
D2D5
330
D2D0
100
AcDbEntity
  8
0
  6
CONTINUOUS
100
AcDbLine
 10
2.297849019469139
 20
3.437598836301114
 30
0.0
 11
3.321765168359338
 21
4.461514985191313
 31
0.0
  0
LINE
  5
D2D6
330
D2D0
100
AcDbEntity
  8
0
  6
CONTINUOUS
100
AcDbLine
 10
2.569246555539591
 20
3.03547716329138
 30
0.0
 11
3.593163397972743
 21
4.059394005724531
 31
0.0
  0
LINE
  5
D2D7
330
D2D0
100
AcDbEntity
  8
0
  6
CONTINUOUS
100
AcDbLine
 10
2.840644091610043
 20
2.633355490281646
 30
0.0
 11
3.864561627586149
 21
3.657273026257751
 31
0.0
  0
LINE
  5
D2D8
330
D2D0
100
AcDbEntity
  8
0
  6
CONTINUOUS
100
AcDbLine
 10
3.112041627680496
 20
2.231233817271911
 30
0.0
 11
4.135959857199554
 21
3.25515204679097
 31
0.0
  0
LINE
  5
D2D9
330
D2D0
100
AcDbEntity
  8
0
  6
CONTINUOUS
100
AcDbLine
 10
3.383439163750948
 20
1.829112144262177
 30
0.0
 11
4.40735808681296
 21
2.853031067324189
 31
0.0
  0
LINE
  5
D2DA
330
D2D0
100
AcDbEntity
  8
0
  6
CONTINUOUS
100
AcDbLine
 10
3.654836699821399
 20
1.426990471252442
 30
0.0
 11
4.678756316426365
 21
2.450910087857407
 31
0.0
  0
LINE
  5
D2DB
330
D2D0
100
AcDbEntity
  8
0
  6
CONTINUOUS
100
AcDbLine
 10
3.926234235891853
 20
1.024868798242709
 30
0.0
 11
4.95015454603977
 21
2.048789108390626
 31
0.0
  0
LINE
  5
D2DC
330
D2D0
100
AcDbEntity
  8
0
  6
CONTINUOUS
100
AcDbLine
 10
4.197631771962304
 20
0.6227471252329737
 30
0.0
 11
5.221552775653176
 21
1.646668128923846
 31
0.0
  0
LINE
  5
D2DD
330
D2D0
100
AcDbEntity
  8
0
  6
CONTINUOUS
100
AcDbLine
 10
8.715877546767851
 20
7.835069736359266
 30
0.0
 11
9.435953450375058
 21
8.555145639966472
 31
0.0
  0
LINE
  5
D2DE
330
D2D0
100
AcDbEntity
  8
0
  6
CONTINUOUS
100
AcDbLine
 10
8.170620868422267
 20
6.616293848933497
 30
0.0
 11
9.644120833743461
 21
8.08979381425469
 31
0.0
  0
LINE
  5
D2DF
330
D2D0
100
AcDbEntity
  8
0
  6
CONTINUOUS
100
AcDbLine
 10
7.625364190076684
 20
5.397517961507727
 30
0.0
 11
9.852288217111864
 21
7.624441988542907
 31
0.0
  0
LINE
  5
D2E0
330
D2D0
100
AcDbEntity
  8
0
  6
CONTINUOUS
100
AcDbLine
 10
7.080107511731101
 20
4.178742074081957
 30
0.0
 11
10.06045560048027
 21
7.159090162831124
 31
0.0
  0
LINE
  5
D2E1
330
D2D0
100
AcDbEntity
  8
0
  6
CONTINUOUS
100
AcDbLine
 10
6.534850833385518
 20
2.959966186656187
 30
0.0
 11
10.26862298384867
 21
6.693738337119342
 31
0.0
  0
LINE
  5
D2E2
330
D2D0
100
AcDbEntity
  8
0
  6
CONTINUOUS
100
AcDbLine
 10
4.469029308032756
 20
0.2206254522232385
 30
0.0
 11
5.492951005266582
 21
1.244547149457064
 31
0.0
  0
LINE
  5
D2E3
330
D2D0
100
AcDbEntity
  8
0
  6
CONTINUOUS
100
AcDbLine
 10
5.989594155039935
 20
1.741190299230417
 30
0.0
 11
8.806950407233131
 21
4.558546551423613
 31
0.0
  0
LINE
  5
D2E4
330
D2D0
100
AcDbEntity
  8
0
  6
CONTINUOUS
100
AcDbLine
 10
9.401251593263643
 20
5.152847737454126
 30
0.0
 11
10.47679036721708
 21
6.228386511407559
 31
0.0
  0
LINE
  5
D2E5
330
D2D0
100
AcDbEntity
  8
0
  6
CONTINUOUS
100
AcDbLine
 10
4.921837203428691
 20
-0.0000858614610131
 30
0.0
 11
8.592923064886001
 21
3.670999999996297
 31
0.0
  0
LINE
  5
D2E6
330
D2D0
100
AcDbEntity
  8
0
  6
CONTINUOUS
100
AcDbLine
 10
9.609390446785305
 20
4.6874673818956
 30
0.0
 11
10.68495775058548
 21
5.763034685695775
 31
0.0
  0
LINE
  5
D2E7
330
D2D0
100
AcDbEntity
  8
0
  6
CONTINUOUS
100
AcDbLine
 10
5.595387755019432
 20
-0.0000545189504582
 30
0.0
 11
7.716137258923768
 21
2.120694984953879
 31
0.0
  0
LINE
  5
D2E8
330
D2D0
100
AcDbEntity
  8
0
  6
CONTINUOUS
100
AcDbLine
 10
6.268938306610172
 20
-0.000023176439905
 30
0.0
 11
7.170485805526503
 21
0.9015243224764267
 31
0.0
  0
LINE
  5
D2E9
330
D2D0
100
AcDbEntity
  8
0
  6
CONTINUOUS
100
AcDbLine
 10
7.963842273967511
 20
2.368399999997621
 30
0.0
 11
9.266442273966188
 21
3.670999999996297
 31
0.0
  0
LINE
  5
D2EA
330
D2D0
100
AcDbEntity
  8
0
  6
CONTINUOUS
100
AcDbLine
 10
8.637361483047696
 20
2.368399999997621
 30
0.0
 11
9.939961483046375
 21
3.670999999996297
 31
0.0
  0
LINE
  5
D2EB
330
D2D0
100
AcDbEntity
  8
0
  6
CONTINUOUS
100
AcDbLine
 10
9.817529300306965
 20
4.222087026337075
 30
0.0
 11
10.89312513395388
 21
5.297682859983993
 31
0.0
  0
LINE
  5
D2EC
330
D2D0
100
AcDbEntity
  8
0
  6
CONTINUOUS
100
AcDbLine
 10
10.02566815382863
 20
3.756706670778549
 30
0.0
 11
11.10129251732229
 21
4.832331034272211
 31
0.0
  0
LINE
  5
D2ED
330
D2D0
100
AcDbEntity
  8
0
  6
CONTINUOUS
100
AcDbLine
 10
9.310880692127883
 20
2.368399999997621
 30
0.0
 11
11.30945990069069
 21
4.366979208560428
 31
0.0
  0
LINE
  5
D2EE
330
D2D0
100
AcDbEntity
  8
0
  6
CONTINUOUS
100
AcDbLine
 10
9.98439990120807
 20
2.36839999999762
 30
0.0
 11
11.5176272840591
 21
3.901627382848645
 31
0.0
  0
LINE
  5
D2EF
330
D2D0
100
AcDbEntity
  8
0
  6
CONTINUOUS
100
AcDbLine
 10
10.65037369446246
 20
2.36085458417182
 30
0.0
 11
11.7257946674275
 21
3.436275557136862
 31
0.0
  0
LINE
  5
D2F0
330
D2D0
100
AcDbEntity
  8
0
  6
CONTINUOUS
100
AcDbLine
 10
10.85847197087848
 20
1.895433651507656
 30
0.0
 11
11.9339620507959
 21
2.97092373142508
 31
0.0
  0
LINE
  5
D2F1
330
D2D0
100
AcDbEntity
  8
0
  6
CONTINUOUS
100
AcDbLine
 10
11.0665702472945
 20
1.430012718843491
 30
0.0
 11
12.14212943416431
 21
2.505571905713296
 31
0.0
  0
LINE
  5
D2F2
330
D2D0
100
AcDbEntity
  8
0
  6
CONTINUOUS
100
AcDbLine
 10
11.27466852371052
 20
0.9645917861793256
 30
0.0
 11
12.35029681753271
 21
2.040220080001513
 31
0.0
  0
LINE
  5
D2F3
330
D2D0
100
AcDbEntity
  8
0
  6
CONTINUOUS
100
AcDbLine
 10
11.48276680012654
 20
0.4991708535151611
 30
0.0
 11
12.55846420090111
 21
1.57486825428973
 31
0.0
  0
LINE
  5
D2F4
330
D2D0
100
AcDbEntity
  8
0
  6
CONTINUOUS
100
AcDbLine
 10
11.69086507654257
 20
0.0337499208509957
 30
0.0
 11
12.76663158426952
 21
1.109516428577947
 31
0.0
  0
LINE
  5
D2F5
330
D2D0
100
AcDbEntity
  8
0
  6
CONTINUOUS
100
AcDbLine
 10
12.33057447873954
 20
-0.0000598860322123
 30
0.0
 11
12.97479896763792
 21
0.6441646028661663
 31
0.0
  0
LINE
  5
D2F6
330
D2D0
100
AcDbEntity
  8
0
  6
CONTINUOUS
100
AcDbLine
 10
13.00413694809395
 20
-0.0000166257579952
 30
0.0
 11
13.18296635100632
 21
0.1788127771543824
 31
0.0
  0
LINE
  5
D2F7
330
D2D0
100
AcDbEntity
  8
0
  6
CONTINUOUS
100
AcDbLine
 10
4.772852165289667
 20
-0.000092794222212
 30
0.0
 11
4.296495091028902
 21
0.4762642800385528
 31
0.0
  0
LINE
  5
D2F8
330
D2D0
100
AcDbEntity
  8
0
  6
CONTINUOUS
100
AcDbLine
 10
5.446340034776103
 20
-0.0000614546284616
 30
0.0
 11
2.898195908335625
 21
2.548082671812017
 31
0.0
  0
LINE
  5
D2F9
330
D2D0
100
AcDbEntity
  8
0
  6
CONTINUOUS
100
AcDbLine
 10
6.119827904262539
 20
-0.0000301150347113
 30
0.0
 11
1.499896725642348
 21
4.61990106358548
 31
0.0
  0
LINE
  5
D2FA
330
D2D0
100
AcDbEntity
  8
0
  6
CONTINUOUS
100
AcDbLine
 10
6.775136745476159
 20
0.0181802528318542
 30
0.0
 11
5.699826040202669
 21
1.093490958105344
 31
0.0
  0
LINE
  5
D2FB
330
D2D0
100
AcDbEntity
  8
0
  6
CONTINUOUS
100
AcDbLine
 10
6.983376846288489
 20
0.4834593610997118
 30
0.0
 11
5.908008617934405
 21
1.558827589453796
 31
0.0
  0
LINE
  5
D2FC
330
D2D0
100
AcDbEntity
  8
0
  6
CONTINUOUS
100
AcDbLine
 10
5.377063484962296
 20
1.416253513345719
 30
0.0
 11
1.702276957014131
 21
5.091040041293883
 31
0.0
  0
LINE
  5
D2FD
330
D2D0
100
AcDbEntity
  8
0
  6
CONTINUOUS
100
AcDbLine
 10
3.978745891735324
 20
3.488090315652877
 30
0.0
 11
2.000373521109399
 21
5.466462686278803
 31
0.0
  0
LINE
  5
D2FE
330
D2D0
100
AcDbEntity
  8
0
  6
CONTINUOUS
100
AcDbLine
 10
7.191616947100819
 20
0.948738469367568
 30
0.0
 11
6.11619119566614
 21
2.024164220802247
 31
0.0
  0
LINE
  5
D2FF
330
D2D0
100
AcDbEntity
  8
0
  6
CONTINUOUS
100
AcDbLine
 10
7.399857047913149
 20
1.414017577635424
 30
0.0
 11
6.324373773397875
 21
2.489500852150698
 31
0.0
  0
LINE
  5
D300
330
D2D0
100
AcDbEntity
  8
0
  6
CONTINUOUS
100
AcDbLine
 10
7.608097148725479
 20
1.879296685903281
 30
0.0
 11
6.53255635112961
 21
2.95483748349915
 31
0.0
  0
LINE
  5
D301
330
D2D0
100
AcDbEntity
  8
0
  6
CONTINUOUS
100
AcDbLine
 10
7.816337249537808
 20
2.344575794171138
 30
0.0
 11
6.740738928861345
 21
3.420174114847601
 31
0.0
  0
LINE
  5
D302
330
D2D0
100
AcDbEntity
  8
0
  6
CONTINUOUS
100
AcDbLine
 10
3.310241080789734
 20
4.830114335678653
 30
0.0
 11
2.298470085204666
 21
5.84188533126372
 31
0.0
  0
LINE
  5
D303
330
D2D0
100
AcDbEntity
  8
0
  6
CONTINUOUS
100
AcDbLine
 10
3.60832983563551
 20
5.205544789913063
 30
0.0
 11
2.596566649299935
 21
6.217307976248638
 31
0.0
  0
LINE
  5
D304
330
D2D0
100
AcDbEntity
  8
0
  6
CONTINUOUS
100
AcDbLine
 10
3.906418590481286
 20
5.580975244147473
 30
0.0
 11
2.894663213395203
 21
6.592730621233557
 31
0.0
  0
LINE
  5
D305
330
D2D0
100
AcDbEntity
  8
0
  6
CONTINUOUS
100
AcDbLine
 10
4.204507345327062
 20
5.956405698381884
 30
0.0
 11
3.192759777490472
 21
6.968153266218474
 31
0.0
  0
LINE
  5
D306
330
D2D0
100
AcDbEntity
  8
0
  6
CONTINUOUS
100
AcDbLine
 10
8.466032252791512
 20
2.368399999997621
 30
0.0
 11
6.948921506593081
 21
3.885510746196053
 31
0.0
  0
LINE
  5
D307
330
D2D0
100
AcDbEntity
  8
0
  6
CONTINUOUS
100
AcDbLine
 10
9.139551461871699
 20
2.36839999999762
 30
0.0
 11
7.157104084324816
 21
4.350847377544504
 31
0.0
  0
LINE
  5
D308
330
D2D0
100
AcDbEntity
  8
0
  6
CONTINUOUS
100
AcDbLine
 10
4.502596100172839
 20
6.331836152616295
 30
0.0
 11
3.49085634158574
 21
7.343575911203393
 31
0.0
  0
LINE
  5
D309
330
D2D0
100
AcDbEntity
  8
0
  6
CONTINUOUS
100
AcDbLine
 10
4.800684855018615
 20
6.707266606850705
 30
0.0
 11
3.788952905681008
 21
7.718998556188312
 31
0.0
  0
LINE
  5
D30A
330
D2D0
100
AcDbEntity
  8
0
  6
CONTINUOUS
100
AcDbLine
 10
12.18154012887317
 20
-0.0000694579236642
 30
0.0
 11
11.32140332908496
 21
0.8600673418645499
 31
0.0
  0
LINE
  5
D30B
330
D2D0
100
AcDbEntity
  8
0
  6
CONTINUOUS
100
AcDbLine
 10
12.85501608323566
 20
-0.0000262032059659
 30
0.0
 11
10.77672456435345
 21
2.078265315676246
 31
0.0
  0
LINE
  5
D30C
330
D2D0
100
AcDbEntity
  8
0
  6
CONTINUOUS
100
AcDbLine
 10
9.813070670951886
 20
2.36839999999762
 30
0.0
 11
8.51047067095321
 21
3.670999999996297
 31
0.0
  0
LINE
  5
D30D
330
D2D0
100
AcDbEntity
  8
0
  6
CONTINUOUS
100
AcDbLine
 10
10.48658988003207
 20
2.36839999999762
 30
0.0
 11
9.183989880033396
 21
3.670999999996297
 31
0.0
  0
LINE
  5
D30E
330
D2D0
100
AcDbEntity
  8
0
  6
CONTINUOUS
100
AcDbLine
 10
8.441048632286794
 20
3.740422038662712
 30
0.0
 11
7.365286662056551
 21
4.816184008892956
 31
0.0
  0
LINE
  5
D30F
330
D2D0
100
AcDbEntity
  8
0
  6
CONTINUOUS
100
AcDbLine
 10
8.649187485808454
 20
4.205802394221237
 30
0.0
 11
7.573469239788285
 21
5.281520640241407
 31
0.0
  0
LINE
  5
D310
330
D2D0
100
AcDbEntity
  8
0
  6
CONTINUOUS
100
AcDbLine
 10
5.098773609864391
 20
7.082697061085115
 30
0.0
 11
4.087049469776277
 21
8.09442120117323
 31
0.0
  0
LINE
  5
D311
330
D2D0
100
AcDbEntity
  8
0
  6
CONTINUOUS
100
AcDbLine
 10
5.396862364710167
 20
7.458127515319526
 30
0.0
 11
4.385146033871544
 21
8.469843846158149
 31
0.0
  0
LINE
  5
D312
330
D2D0
100
AcDbEntity
  8
0
  6
CONTINUOUS
100
AcDbLine
 10
13.04801363231285
 20
0.4804954567970334
 30
0.0
 11
9.85750908911358
 21
3.670999999996297
 31
0.0
  0
LINE
  5
D313
330
D2D0
100
AcDbEntity
  8
0
  6
CONTINUOUS
100
AcDbLine
 10
8.857326339330116
 20
4.671182749779763
 30
0.0
 11
7.781651817520021
 21
5.746857271589858
 31
0.0
  0
LINE
  5
D314
330
D2D0
100
AcDbEntity
  8
0
  6
CONTINUOUS
100
AcDbLine
 10
5.694951119555943
 20
7.833557969553937
 30
0.0
 11
4.765409089118624
 21
8.763099999991255
 31
0.0
  0
LINE
  5
D315
330
D2D0
100
AcDbEntity
  8
0
  6
CONTINUOUS
100
AcDbLine
 10
12.50286117236978
 20
1.699167125820288
 30
0.0
 11
9.68611877250287
 21
4.515909525687196
 31
0.0
  0
LINE
  5
D316
330
D2D0
100
AcDbEntity
  8
0
  6
CONTINUOUS
100
AcDbLine
 10
9.065465192851777
 20
5.136563105338288
 30
0.0
 11
7.989834395251757
 21
6.21219390293831
 31
0.0
  0
LINE
  5
D317
330
D2D0
100
AcDbEntity
  8
0
  6
CONTINUOUS
100
AcDbLine
 10
5.993039874401719
 20
8.208988423788346
 30
0.0
 11
5.43892829819881
 21
8.763099999991255
 31
0.0
  0
LINE
  5
D318
330
D2D0
100
AcDbEntity
  8
0
  6
CONTINUOUS
100
AcDbLine
 10
11.95770871242671
 20
2.917838794843543
 30
0.0
 11
8.19801697298349
 21
6.677530534286761
 31
0.0
  0
LINE
  5
D319
330
D2D0
100
AcDbEntity
  8
0
  6
CONTINUOUS
100
AcDbLine
 10
6.291128629247495
 20
8.584418878022756
 30
0.0
 11
6.112447507278997
 21
8.763099999991255
 31
0.0
  0
LINE
  5
D31A
330
D2D0
100
AcDbEntity
  8
0
  6
CONTINUOUS
100
AcDbLine
 10
11.41255625248364
 20
4.136510463866797
 30
0.0
 11
8.406199550715227
 21
7.142867165635211
 31
0.0
  0
LINE
  5
D31B
330
D2D0
100
AcDbEntity
  8
0
  6
CONTINUOUS
100
AcDbLine
 10
10.86740379254057
 20
5.355182132890051
 30
0.0
 11
8.614382128446962
 21
7.608203796983664
 31
0.0
  0
LINE
  5
D31C
330
D2D0
100
AcDbEntity
  8
0
  6
CONTINUOUS
100
AcDbLine
 10
10.3222513325975
 20
6.573853801913305
 30
0.0
 11
8.822564706178696
 21
8.073540428332114
 31
0.0
  0
LINE
  5
D31D
330
D2D0
100
AcDbEntity
  8
0
  6
CONTINUOUS
100
AcDbLine
 10
9.777098872654436
 20
7.792525470936562
 30
0.0
 11
9.030747283910433
 21
8.538877059680566
 31
0.0
  0
ENDBLK
  5
D45E
330
D2D0
100
AcDbEntity
  8
0
100
AcDbBlockEnd
  0
BLOCK
  5
D45F
330
D31E
100
AcDbEntity
  8
0
100
AcDbBlockBegin
  2
*X173
 70
     1
 10
0.0
 20
0.0
 30
0.0
  3
*X173
  1

  0
LINE
  5
D31F
330
D31E
100
AcDbEntity
  8
0
  6
CONTINUOUS
100
AcDbLine
 10
10.67292308101235
 20
8.445076852443387
 30
0.0
 11
10.99094622856022
 21
8.763099999991255
 31
0.0
  0
LINE
  5
D320
330
D31E
100
AcDbEntity
  8
0
  6
CONTINUOUS
100
AcDbLine
 10
10.87250383178748
 20
7.971138394138331
 30
0.0
 11
11.6644654376404
 21
8.763099999991255
 31
0.0
  0
LINE
  5
D321
330
D31E
100
AcDbEntity
  8
0
  6
CONTINUOUS
100
AcDbLine
 10
11.07208458256261
 20
7.497199935833273
 30
0.0
 11
12.12126590876355
 21
8.546381262034211
 31
0.0
  0
LINE
  5
D322
330
D31E
100
AcDbEntity
  8
0
  6
CONTINUOUS
100
AcDbLine
 10
11.27166533333774
 20
7.023261477528216
 30
0.0
 11
12.32085164573666
 21
8.072447789927136
 31
0.0
  0
LINE
  5
D323
330
D31E
100
AcDbEntity
  8
0
  6
CONTINUOUS
100
AcDbLine
 10
11.47124608411287
 20
6.549323019223158
 30
0.0
 11
12.52043738270977
 21
7.59851431782006
 31
0.0
  0
LINE
  5
D324
330
D31E
100
AcDbEntity
  8
0
  6
CONTINUOUS
100
AcDbLine
 10
11.670826834888
 20
6.075384560918101
 30
0.0
 11
12.72002311968288
 21
7.124580845712984
 31
0.0
  0
LINE
  5
D325
330
D31E
100
AcDbEntity
  8
0
  6
CONTINUOUS
100
AcDbLine
 10
11.87040758566313
 20
5.601446102613043
 30
0.0
 11
12.91960885665599
 21
6.650647373605907
 31
0.0
  0
LINE
  5
D326
330
D31E
100
AcDbEntity
  8
0
  6
CONTINUOUS
100
AcDbLine
 10
12.06998833643825
 20
5.127507644307986
 30
0.0
 11
13.1191945936291
 21
6.176713901498832
 31
0.0
  0
LINE
  5
D327
330
D31E
100
AcDbEntity
  8
0
  6
CONTINUOUS
100
AcDbLine
 10
12.26956908721338
 20
4.65356918600293
 30
0.0
 11
13.31878033060221
 21
5.702780429391757
 31
0.0
  0
LINE
  5
D328
330
D31E
100
AcDbEntity
  8
0
  6
CONTINUOUS
100
AcDbLine
 10
12.46914983798851
 20
4.179630727697873
 30
0.0
 11
13.51836606757532
 21
5.228846957284683
 31
0.0
  0
LINE
  5
D329
330
D31E
100
AcDbEntity
  8
0
  6
CONTINUOUS
100
AcDbLine
 10
12.66873058876364
 20
3.705692269392816
 30
0.0
 11
13.71795180454843
 21
4.754913485177607
 31
0.0
  0
LINE
  5
D32A
330
D31E
100
AcDbEntity
  8
0
  6
CONTINUOUS
100
AcDbLine
 10
12.86831133953877
 20
3.231753811087759
 30
0.0
 11
13.91753754152154
 21
4.280980013070531
 31
0.0
  0
LINE
  5
D32B
330
D31E
100
AcDbEntity
  8
0
  6
CONTINUOUS
100
AcDbLine
 10
13.0678920903139
 20
2.757815352782702
 30
0.0
 11
14.11712327849465
 21
3.807046540963456
 31
0.0
  0
LINE
  5
D32C
330
D31E
100
AcDbEntity
  8
0
  6
CONTINUOUS
100
AcDbLine
 10
13.26747284108903
 20
2.283876894477644
 30
0.0
 11
14.31670901546777
 21
3.333113068856379
 31
0.0
  0
LINE
  5
D32D
330
D31E
100
AcDbEntity
  8
0
  6
CONTINUOUS
100
AcDbLine
 10
16.36767838827179
 20
8.751678487061342
 30
0.0
 11
16.50332410898388
 21
8.887324207773432
 31
0.0
  0
LINE
  5
D32E
330
D31E
100
AcDbEntity
  8
0
  6
CONTINUOUS
100
AcDbLine
 10
15.96190732182191
 20
7.67238821153127
 30
0.0
 11
16.68735328004734
 21
8.397834169756699
 31
0.0
  0
LINE
  5
D32F
330
D31E
100
AcDbEntity
  8
0
  6
CONTINUOUS
100
AcDbLine
 10
15.55613625537202
 20
6.593097936001196
 30
0.0
 11
16.87138245111079
 21
7.908344131739965
 31
0.0
  0
LINE
  5
D330
330
D31E
100
AcDbEntity
  8
0
  6
CONTINUOUS
100
AcDbLine
 10
15.15036518892213
 20
5.513807660471122
 30
0.0
 11
17.05541162217424
 21
7.418854093723231
 31
0.0
  0
LINE
  5
D331
330
D31E
100
AcDbEntity
  8
0
  6
CONTINUOUS
100
AcDbLine
 10
14.74459412247225
 20
4.434517384941048
 30
0.0
 11
17.2394407932377
 21
6.929364055706499
 31
0.0
  0
LINE
  5
D332
330
D31E
100
AcDbEntity
  8
0
  6
CONTINUOUS
100
AcDbLine
 10
14.33882305602236
 20
3.355227109410975
 30
0.0
 11
17.42346996430115
 21
6.439874017689766
 31
0.0
  0
LINE
  5
D333
330
D31E
100
AcDbEntity
  8
0
  6
CONTINUOUS
100
AcDbLine
 10
13.46705359186416
 20
1.809938436172586
 30
0.0
 11
16.0819338255367
 21
4.424818669845129
 31
0.0
  0
LINE
  5
D334
330
D31E
100
AcDbEntity
  8
0
  6
CONTINUOUS
100
AcDbLine
 10
16.63283254238972
 20
4.975717386698149
 30
0.0
 11
17.60749913536461
 21
5.950383979673033
 31
0.0
  0
LINE
  5
D335
330
D31E
100
AcDbEntity
  8
0
  6
CONTINUOUS
100
AcDbLine
 10
13.66663434263929
 20
1.335999977867529
 30
0.0
 11
15.67604797733754
 21
3.345413612565779
 31
0.0
  0
LINE
  5
D336
330
D31E
100
AcDbEntity
  8
0
  6
CONTINUOUS
100
AcDbLine
 10
13.86621509341442
 20
0.8620615195624723
 30
0.0
 11
15.27016212913838
 21
2.26600855528643
 31
0.0
  0
LINE
  5
D337
330
D31E
100
AcDbEntity
  8
0
  6
CONTINUOUS
100
AcDbLine
 10
16.81682257348267
 20
4.486188208710908
 30
0.0
 11
17.79152830642806
 21
5.460893941656299
 31
0.0
  0
LINE
  5
D338
330
D31E
100
AcDbEntity
  8
0
  6
CONTINUOUS
100
AcDbLine
 10
17.00081260457561
 20
3.996659030723667
 30
0.0
 11
17.97555747749151
 21
4.971403903639565
 31
0.0
  0
LINE
  5
D339
330
D31E
100
AcDbEntity
  8
0
  6
CONTINUOUS
100
AcDbLine
 10
20.74362343514722
 20
8.412989070375462
 30
0.0
 11
21.09373436476302
 21
8.763099999991256
 31
0.0
  0
LINE
  5
D33A
330
D31E
100
AcDbEntity
  8
0
  6
CONTINUOUS
100
AcDbLine
 10
20.25401257174777
 20
7.249858997895826
 30
0.0
 11
21.7672535738432
 21
8.763099999991255
 31
0.0
  0
LINE
  5
D33B
330
D31E
100
AcDbEntity
  8
0
  6
CONTINUOUS
100
AcDbLine
 10
14.06579584418955
 20
0.3881230612574149
 30
0.0
 11
14.86427628093921
 21
1.186603498007082
 31
0.0
  0
LINE
  5
D33C
330
D31E
100
AcDbEntity
  8
0
  6
CONTINUOUS
100
AcDbLine
 10
14.26537659496467
 20
-0.0858153970476412
 30
0.0
 11
14.45839043274005
 21
0.1071984407277329
 31
0.0
  0
LINE
  5
D33D
330
D31E
100
AcDbEntity
  8
0
  6
CONTINUOUS
100
AcDbLine
 10
17.18480263566856
 20
3.507129852736426
 30
0.0
 11
18.15958664855496
 21
4.481913865622833
 31
0.0
  0
LINE
  5
D33E
330
D31E
100
AcDbEntity
  8
0
  6
CONTINUOUS
100
AcDbLine
 10
17.3687926667615
 20
3.017600674749186
 30
0.0
 11
18.34361581961842
 21
3.9924238276061
 31
0.0
  0
LINE
  5
D33F
330
D31E
100
AcDbEntity
  8
0
  6
CONTINUOUS
100
AcDbLine
 10
19.76440170834832
 20
6.086728925416191
 30
0.0
 11
22.33924590259489
 21
8.661573119662755
 31
0.0
  0
LINE
  5
D340
330
D31E
100
AcDbEntity
  8
0
  6
CONTINUOUS
100
AcDbLine
 10
19.27479084494887
 20
4.923598852936555
 30
0.0
 11
21.84929622842713
 21
7.498104236414807
 31
0.0
  0
LINE
  5
D341
330
D31E
100
AcDbEntity
  8
0
  6
CONTINUOUS
100
AcDbLine
 10
17.55278269785445
 20
2.528071496761945
 30
0.0
 11
18.52764499068187
 21
3.502933789589366
 31
0.0
  0
LINE
  5
D342
330
D31E
100
AcDbEntity
  8
0
  6
CONTINUOUS
100
AcDbLine
 10
18.78517998154942
 20
3.760468780456919
 30
0.0
 11
21.35934655425936
 21
6.33463535316686
 31
0.0
  0
LINE
  5
D343
330
D31E
100
AcDbEntity
  8
0
  6
CONTINUOUS
100
AcDbLine
 10
17.73677272894739
 20
2.038542318774704
 30
0.0
 11
20.8693968800916
 21
5.171166469918914
 31
0.0
  0
LINE
  5
D344
330
D31E
100
AcDbEntity
  8
0
  6
CONTINUOUS
100
AcDbLine
 10
17.92076276004034
 20
1.549013140787464
 30
0.0
 11
20.37944720592384
 21
4.007697586670968
 31
0.0
  0
LINE
  5
D345
330
D31E
100
AcDbEntity
  8
0
  6
CONTINUOUS
100
AcDbLine
 10
18.10475279113329
 20
1.059483962800223
 30
0.0
 11
19.88949753175608
 21
2.84422870342302
 31
0.0
  0
LINE
  5
D346
330
D31E
100
AcDbEntity
  8
0
  6
CONTINUOUS
100
AcDbLine
 10
18.28874282222623
 20
0.5699547848129822
 30
0.0
 11
19.39954785758832
 21
1.680759820175074
 31
0.0
  0
LINE
  5
D347
330
D31E
100
AcDbEntity
  8
0
  6
CONTINUOUS
100
AcDbLine
 10
18.47273285331918
 20
0.0804256068257416
 30
0.0
 11
18.90959818342056
 21
0.517290936927127
 31
0.0
  0
LINE
  5
D348
330
D31E
100
AcDbEntity
  8
0
  6
CONTINUOUS
100
AcDbLine
 10
14.3590401358224
 20
-0.1570118376323384
 30
0.0
 11
14.24903296539946
 21
-0.0470046672093929
 31
0.0
  0
LINE
  5
D349
330
D31E
100
AcDbEntity
  8
0
  6
CONTINUOUS
100
AcDbLine
 10
14.54309291258661
 20
0.332454594683643
 30
0.0
 11
13.75908329123172
 21
1.116464216038529
 31
0.0
  0
LINE
  5
D34A
330
D31E
100
AcDbEntity
  8
0
  6
CONTINUOUS
100
AcDbLine
 10
14.72714568935081
 20
0.8219210269996244
 30
0.0
 11
13.26913361706399
 21
2.27993309928645
 31
0.0
  0
LINE
  5
D34B
330
D31E
100
AcDbEntity
  8
0
  6
CONTINUOUS
100
AcDbLine
 10
14.91119846611502
 20
1.311387459315606
 30
0.0
 11
12.77918394289625
 21
3.443401982534371
 31
0.0
  0
LINE
  5
D34C
330
D31E
100
AcDbEntity
  8
0
  6
CONTINUOUS
100
AcDbLine
 10
15.09525124287922
 20
1.800853891631587
 30
0.0
 11
12.28923426872852
 21
4.606870865782293
 31
0.0
  0
LINE
  5
D34D
330
D31E
100
AcDbEntity
  8
0
  6
CONTINUOUS
100
AcDbLine
 10
15.27930401964343
 20
2.290320323947569
 30
0.0
 11
11.79928459456078
 21
5.770339749030213
 31
0.0
  0
LINE
  5
D34E
330
D31E
100
AcDbEntity
  8
0
  6
CONTINUOUS
100
AcDbLine
 10
15.46335679640763
 20
2.77978675626355
 30
0.0
 11
14.48885470994921
 21
3.754288842721972
 31
0.0
  0
LINE
  5
D34F
330
D31E
100
AcDbEntity
  8
0
  6
CONTINUOUS
100
AcDbLine
 10
13.88507249233704
 20
4.358071060334137
 30
0.0
 11
11.30933492039305
 21
6.933808632278135
 31
0.0
  0
LINE
  5
D350
330
D31E
100
AcDbEntity
  8
0
  6
CONTINUOUS
100
AcDbLine
 10
18.75840522805855
 20
0.1582575336928151
 30
0.0
 11
18.25383727664818
 21
0.6628254851031863
 31
0.0
  0
LINE
  5
D351
330
D31E
100
AcDbEntity
  8
0
  6
CONTINUOUS
100
AcDbLine
 10
15.64740957317184
 20
3.269253188579531
 30
0.0
 11
14.67288388101266
 21
4.243778880738705
 31
0.0
  0
LINE
  5
D352
330
D31E
100
AcDbEntity
  8
0
  6
CONTINUOUS
100
AcDbLine
 10
13.39509276772158
 20
5.521569994029786
 30
0.0
 11
10.81938524622531
 21
8.097277515526056
 31
0.0
  0
LINE
  5
D353
330
D31E
100
AcDbEntity
  8
0
  6
CONTINUOUS
100
AcDbLine
 10
18.95798597883369
 20
0.6321959919978686
 30
0.0
 11
17.84825644852853
 21
1.741925522303024
 31
0.0
  0
LINE
  5
D354
330
D31E
100
AcDbEntity
  8
0
  6
CONTINUOUS
100
AcDbLine
 10
19.15756672960882
 20
1.106134450302922
 30
0.0
 11
17.44267562040888
 21
2.821025559502861
 31
0.0
  0
LINE
  5
D355
330
D31E
100
AcDbEntity
  8
0
  6
CONTINUOUS
100
AcDbLine
 10
15.83146234993604
 20
3.758719620895513
 30
0.0
 11
14.85691305207612
 21
4.733268918755439
 31
0.0
  0
LINE
  5
D356
330
D31E
100
AcDbEntity
  8
0
  6
CONTINUOUS
100
AcDbLine
 10
16.01551512670025
 20
4.248186053211494
 30
0.0
 11
15.04094222313957
 21
5.222758956772172
 31
0.0
  0
LINE
  5
D357
330
D31E
100
AcDbEntity
  8
0
  6
CONTINUOUS
100
AcDbLine
 10
12.90511304310612
 20
6.685068927725435
 30
0.0
 11
10.8270819708403
 21
8.763099999991255
 31
0.0
  0
LINE
  5
D358
330
D31E
100
AcDbEntity
  8
0
  6
CONTINUOUS
100
AcDbLine
 10
12.41513331849066
 20
7.848567861421083
 30
0.0
 11
11.50060117992049
 21
8.763099999991255
 31
0.0
  0
LINE
  5
D359
330
D31E
100
AcDbEntity
  8
0
  6
CONTINUOUS
100
AcDbLine
 10
19.35714748038395
 20
1.580072908607975
 30
0.0
 11
17.03709479228923
 21
3.900125596702697
 31
0.0
  0
LINE
  5
D35A
330
D31E
100
AcDbEntity
  8
0
  6
CONTINUOUS
100
AcDbLine
 10
19.55672823115909
 20
2.054011366913028
 30
0.0
 11
16.63151396416958
 21
4.979225633902534
 31
0.0
  0
LINE
  5
D35B
330
D31E
100
AcDbEntity
  8
0
  6
CONTINUOUS
100
AcDbLine
 10
16.19956790346445
 20
4.737652485527476
 30
0.0
 11
15.22497139420302
 21
5.712248994788904
 31
0.0
  0
LINE
  5
D35C
330
D31E
100
AcDbEntity
  8
0
  6
CONTINUOUS
100
AcDbLine
 10
16.38362068022866
 20
5.227118917843457
 30
0.0
 11
15.40900056526648
 21
6.201739032805637
 31
0.0
  0
LINE
  5
D35D
330
D31E
100
AcDbEntity
  8
0
  6
CONTINUOUS
100
AcDbLine
 10
19.75630898193422
 20
2.527949825218081
 30
0.0
 11
18.70774536448286
 21
3.576513442669441
 31
0.0
  0
LINE
  5
D35E
330
D31E
100
AcDbEntity
  8
0
  6
CONTINUOUS
100
AcDbLine
 10
19.95588973270936
 20
3.001888283523134
 30
0.0
 11
18.90726987211446
 21
4.050508144118028
 31
0.0
  0
LINE
  5
D35F
330
D31E
100
AcDbEntity
  8
0
  6
CONTINUOUS
100
AcDbLine
 10
20.15547048348449
 20
3.475826741828186
 30
0.0
 11
19.10679437974606
 21
4.524502845566614
 31
0.0
  0
LINE
  5
D360
330
D31E
100
AcDbEntity
  8
0
  6
CONTINUOUS
100
AcDbLine
 10
20.35505123425962
 20
3.94976520013324
 30
0.0
 11
19.30631888737766
 21
4.998497547015201
 31
0.0
  0
LINE
  5
D361
330
D31E
100
AcDbEntity
  8
0
  6
CONTINUOUS
100
AcDbLine
 10
20.55463198503475
 20
4.423703658438292
 30
0.0
 11
19.50584339500926
 21
5.472492248463787
 31
0.0
  0
LINE
  5
D362
330
D31E
100
AcDbEntity
  8
0
  6
CONTINUOUS
100
AcDbLine
 10
18.37481191085755
 20
3.909446896294752
 30
0.0
 11
15.59302973632993
 21
6.691229070822371
 31
0.0
  0
LINE
  5
D363
330
D31E
100
AcDbEntity
  8
0
  6
CONTINUOUS
100
AcDbLine
 10
17.96904084440766
 20
4.988737171824825
 30
0.0
 11
15.77705890739338
 21
7.180719108839104
 31
0.0
  0
LINE
  5
D364
330
D31E
100
AcDbEntity
  8
0
  6
CONTINUOUS
100
AcDbLine
 10
17.56326977795777
 20
6.068027447354899
 30
0.0
 11
15.96108807845684
 21
7.670209146855838
 31
0.0
  0
LINE
  5
D365
330
D31E
100
AcDbEntity
  8
0
  6
CONTINUOUS
100
AcDbLine
 10
17.15749871150789
 20
7.147317722884972
 30
0.0
 11
16.14511724952029
 21
8.15969918487257
 31
0.0
  0
LINE
  5
D366
330
D31E
100
AcDbEntity
  8
0
  6
CONTINUOUS
100
AcDbLine
 10
16.751727645058
 20
8.226607998415046
 30
0.0
 11
16.32914642058374
 21
8.649189222889303
 31
0.0
  0
LINE
  5
D367
330
D31E
100
AcDbEntity
  8
0
  6
CONTINUOUS
100
AcDbLine
 10
20.75421273580989
 20
4.897642116743345
 30
0.0
 11
19.70536790264086
 21
5.946486949912374
 31
0.0
  0
LINE
  5
D368
330
D31E
100
AcDbEntity
  8
0
  6
CONTINUOUS
100
AcDbLine
 10
20.95379348658502
 20
5.371580575048398
 30
0.0
 11
19.90489241027246
 21
6.42048165136096
 31
0.0
  0
LINE
  5
D369
330
D31E
100
AcDbEntity
  8
0
  6
CONTINUOUS
100
AcDbLine
 10
21.15337423736015
 20
5.845519033353452
 30
0.0
 11
20.10441691790406
 21
6.894476352809547
 31
0.0
  0
LINE
  5
D36A
330
D31E
100
AcDbEntity
  8
0
  6
CONTINUOUS
100
AcDbLine
 10
21.35295498813529
 20
6.319457491658505
 30
0.0
 11
20.30394142553566
 21
7.368471054258134
 31
0.0
  0
LINE
  5
D36B
330
D31E
100
AcDbEntity
  8
0
  6
CONTINUOUS
100
AcDbLine
 10
21.55253573891042
 20
6.793395949963558
 30
0.0
 11
20.50346593316726
 21
7.842465755706721
 31
0.0
  0
LINE
  5
D36C
330
D31E
100
AcDbEntity
  8
0
  6
CONTINUOUS
100
AcDbLine
 10
21.75211648968556
 20
7.267334408268612
 30
0.0
 11
20.70299044079886
 21
8.316460457155308
 31
0.0
  0
LINE
  5
D36D
330
D31E
100
AcDbEntity
  8
0
  6
CONTINUOUS
100
AcDbLine
 10
21.95169724046069
 20
7.741272866573663
 30
0.0
 11
20.9298701070431
 21
8.763099999991256
 31
0.0
  0
LINE
  5
D36E
330
D31E
100
AcDbEntity
  8
0
  6
CONTINUOUS
100
AcDbLine
 10
22.15127799123582
 20
8.215211324878716
 30
0.0
 11
21.60338931612328
 21
8.763099999991256
 31
0.0
  0
LINE
  5
D36F
330
D31E
100
AcDbEntity
  8
0
  6
CONTINUOUS
100
AcDbLine
 10
22.35085874201096
 20
8.689149783183769
 30
0.0
 11
22.27690852520347
 21
8.763099999991255
 31
0.0
  0
ENDBLK
  5
D460
330
D31E
100
AcDbEntity
  8
0
100
AcDbBlockEnd
  0
BLOCK
  5
D461
330
D370
100
AcDbEntity
  8
0
100
AcDbBlockBegin
  2
*X174
 70
     1
 10
0.0
 20
0.0
 30
0.0
  3
*X174
  1

  0
LINE
  5
D371
330
D370
100
AcDbEntity
  8
0
  6
CONTINUOUS
100
AcDbLine
 10
23.19462913593892
 20
8.169917934846424
 30
0.0
 11
23.70775465517246
 21
8.683043454079957
 31
0.0
  0
LINE
  5
D372
330
D370
100
AcDbEntity
  8
0
  6
CONTINUOUS
100
AcDbLine
 10
22.64923161835078
 20
6.951001208178088
 30
0.0
 11
23.9159364069932
 21
8.217705996820516
 31
0.0
  0
LINE
  5
D373
330
D370
100
AcDbEntity
  8
0
  6
CONTINUOUS
100
AcDbLine
 10
22.10383410076263
 20
5.732084481509751
 30
0.0
 11
24.12411815881395
 21
7.752368539561078
 31
0.0
  0
LINE
  5
D374
330
D370
100
AcDbEntity
  8
0
  6
CONTINUOUS
100
AcDbLine
 10
21.55843658317447
 20
4.513167754841414
 30
0.0
 11
24.3322999106347
 21
7.287031082301639
 31
0.0
  0
LINE
  5
D375
330
D370
100
AcDbEntity
  8
0
  6
CONTINUOUS
100
AcDbLine
 10
21.01303906558632
 20
3.294251028173077
 30
0.0
 11
24.54048166245544
 21
6.821693625042199
 31
0.0
  0
LINE
  5
D376
330
D370
100
AcDbEntity
  8
0
  6
CONTINUOUS
100
AcDbLine
 10
20.46764154799817
 20
2.075334301504738
 30
0.0
 11
23.28571549467848
 21
4.89340824818505
 31
0.0
  0
LINE
  5
D377
330
D370
100
AcDbEntity
  8
0
  6
CONTINUOUS
100
AcDbLine
 10
19.92224403041002
 20
0.8564175748364002
 30
0.0
 11
22.74075865492779
 21
3.674932199354171
 31
0.0
  0
LINE
  5
D378
330
D370
100
AcDbEntity
  8
0
  6
CONTINUOUS
100
AcDbLine
 10
23.67305085490148
 20
5.280743608408048
 30
0.0
 11
24.74866341427619
 21
6.356356167782759
 31
0.0
  0
LINE
  5
D379
330
D370
100
AcDbEntity
  8
0
  6
CONTINUOUS
100
AcDbLine
 10
23.88118970842314
 20
4.815363252849522
 30
0.0
 11
24.95684516609694
 21
5.89101871052332
 31
0.0
  0
LINE
  5
D37A
330
D370
100
AcDbEntity
  8
0
  6
CONTINUOUS
100
AcDbLine
 10
19.73925852647308
 20
-0.0000871381807288
 30
0.0
 11
23.4103456646501
 21
3.670999999996297
 31
0.0
  0
LINE
  5
D37B
330
D370
100
AcDbEntity
  8
0
  6
CONTINUOUS
100
AcDbLine
 10
24.0893285619448
 20
4.349982897290997
 30
0.0
 11
25.16502691791769
 21
5.42568125326388
 31
0.0
  0
LINE
  5
D37C
330
D370
100
AcDbEntity
  8
0
  6
CONTINUOUS
100
AcDbLine
 10
20.41282099582748
 20
-0.0000438779065108
 30
0.0
 11
21.64944178675636
 21
1.236576913022366
 31
0.0
  0
LINE
  5
D37D
330
D370
100
AcDbEntity
  8
0
  6
CONTINUOUS
100
AcDbLine
 10
22.78126487373161
 20
2.36839999999762
 30
0.0
 11
24.08386487373029
 21
3.670999999996297
 31
0.0
  0
LINE
  5
D37E
330
D370
100
AcDbEntity
  8
0
  6
CONTINUOUS
100
AcDbLine
 10
24.29746741546646
 20
3.884602541732471
 30
0.0
 11
25.37320866973843
 21
4.960343796004441
 31
0.0
  0
LINE
  5
D37F
330
D370
100
AcDbEntity
  8
0
  6
CONTINUOUS
100
AcDbLine
 10
21.08638346518189
 20
-0.0000006176322938
 30
0.0
 11
21.10379033335899
 21
0.0174062505448083
 31
0.0
  0
LINE
  5
D380
330
D370
100
AcDbEntity
  8
0
  6
CONTINUOUS
100
AcDbLine
 10
23.4547840828118
 20
2.36839999999762
 30
0.0
 11
25.58139042155918
 21
4.495006338745002
 31
0.0
  0
LINE
  5
D381
330
D370
100
AcDbEntity
  8
0
  6
CONTINUOUS
100
AcDbLine
 10
29.30199999996933
 20
8.215615917155148
 30
0.0
 11
29.84948408280543
 21
8.763099999991255
 31
0.0
  0
LINE
  5
D382
330
D370
100
AcDbEntity
  8
0
  6
CONTINUOUS
100
AcDbLine
 10
24.12830329189199
 20
2.36839999999762
 30
0.0
 11
25.78957217337993
 21
4.029668881485562
 31
0.0
  0
LINE
  5
D383
330
D370
100
AcDbEntity
  8
0
  6
CONTINUOUS
100
AcDbLine
 10
29.30199999996933
 20
7.54209670807496
 30
0.0
 11
30.52300329188562
 21
8.763099999991255
 31
0.0
  0
LINE
  5
D384
330
D370
100
AcDbEntity
  8
0
  6
CONTINUOUS
100
AcDbLine
 10
24.80182250097217
 20
2.36839999999762
 30
0.0
 11
25.99775392520067
 21
3.564331424226122
 31
0.0
  0
LINE
  5
D385
330
D370
100
AcDbEntity
  8
0
  6
CONTINUOUS
100
AcDbLine
 10
29.30199999996933
 20
6.868577498994774
 30
0.0
 11
30.74199999996926
 21
8.308577498994712
 31
0.0
  0
LINE
  5
D386
330
D370
100
AcDbEntity
  8
0
  6
CONTINUOUS
100
AcDbLine
 10
25.13028238392013
 20
2.023340673865392
 30
0.0
 11
26.20593567702142
 21
3.098993966966683
 31
0.0
  0
LINE
  5
D387
330
D370
100
AcDbEntity
  8
0
  6
CONTINUOUS
100
AcDbLine
 10
25.33838066033617
 20
1.557919741201244
 30
0.0
 11
26.41411742884217
 21
2.633656509707244
 31
0.0
  0
LINE
  5
D388
330
D370
100
AcDbEntity
  8
0
  6
CONTINUOUS
100
AcDbLine
 10
25.54647893675221
 20
1.092498808537098
 30
0.0
 11
26.62229918066291
 21
2.168319052447804
 31
0.0
  0
LINE
  5
D389
330
D370
100
AcDbEntity
  8
0
  6
CONTINUOUS
100
AcDbLine
 10
25.75457721316825
 20
0.62707787587295
 30
0.0
 11
26.83048093248366
 21
1.702981595188365
 31
0.0
  0
LINE
  5
D38A
330
D370
100
AcDbEntity
  8
0
  6
CONTINUOUS
100
AcDbLine
 10
29.30199999996933
 20
6.195058289914587
 30
0.0
 11
30.74199999996926
 21
7.635058289914522
 31
0.0
  0
LINE
  5
D38B
330
D370
100
AcDbEntity
  8
0
  6
CONTINUOUS
100
AcDbLine
 10
29.30199999996933
 20
5.521539080834401
 30
0.0
 11
30.74199999996926
 21
6.961539080834331
 31
0.0
  0
LINE
  5
D38C
330
D370
100
AcDbEntity
  8
0
  6
CONTINUOUS
100
AcDbLine
 10
29.30199999996933
 20
4.848019871754214
 30
0.0
 11
30.74199999996925
 21
6.288019871754143
 31
0.0
  0
LINE
  5
D38D
330
D370
100
AcDbEntity
  8
0
  6
CONTINUOUS
100
AcDbLine
 10
29.30199999996933
 20
4.174500662674028
 30
0.0
 11
30.74199999996925
 21
5.614500662673953
 31
0.0
  0
LINE
  5
D38E
330
D370
100
AcDbEntity
  8
0
  6
CONTINUOUS
100
AcDbLine
 10
25.96267548958429
 20
0.1616569432088024
 30
0.0
 11
27.18411854636669
 21
1.383099999991207
 31
0.0
  0
LINE
  5
D38F
330
D370
100
AcDbEntity
  8
0
  6
CONTINUOUS
100
AcDbLine
 10
29.30199999996933
 20
3.500981453593841
 30
0.0
 11
30.74199999996925
 21
4.940981453593762
 31
0.0
  0
LINE
  5
D390
330
D370
100
AcDbEntity
  8
0
  6
CONTINUOUS
100
AcDbLine
 10
26.50763775544691
 20
0.0330999999912356
 30
0.0
 11
27.85763775544689
 21
1.383099999991223
 31
0.0
  0
LINE
  5
D391
330
D370
100
AcDbEntity
  8
0
  6
CONTINUOUS
100
AcDbLine
 10
29.30199999996933
 20
2.827462244513656
 30
0.0
 11
30.74199999996925
 21
4.267462244513574
 31
0.0
  0
LINE
  5
D392
330
D370
100
AcDbEntity
  8
0
  6
CONTINUOUS
100
AcDbLine
 10
27.18115696452709
 20
0.0330999999912356
 30
0.0
 11
28.6224847300034
 21
1.474427765467545
 31
0.0
  0
LINE
  5
D393
330
D370
100
AcDbEntity
  8
0
  6
CONTINUOUS
100
AcDbLine
 10
29.21067223449293
 20
2.062615269957069
 30
0.0
 11
30.74199999996924
 21
3.593943035433383
 31
0.0
  0
LINE
  5
D394
330
D370
100
AcDbEntity
  8
0
  6
CONTINUOUS
100
AcDbLine
 10
27.85467617360728
 20
0.0330999999912356
 30
0.0
 11
30.74199999996924
 21
2.920423826353195
 31
0.0
  0
LINE
  5
D395
330
D370
100
AcDbEntity
  8
0
  6
CONTINUOUS
100
AcDbLine
 10
28.61742899356196
 20
0.1223336108657271
 30
0.0
 11
30.65276638909473
 21
2.157671006398498
 31
0.0
  0
LINE
  5
D396
330
D370
100
AcDbEntity
  8
0
  6
CONTINUOUS
100
AcDbLine
 10
29.76719820264213
 20
0.5985836108657137
 30
0.0
 11
30.17651638909472
 21
1.0079017973183
 31
0.0
  0
LINE
  5
D397
330
D370
100
AcDbEntity
  8
0
  6
CONTINUOUS
100
AcDbLine
 10
19.59027867740337
 20
-0.0000967065718083
 30
0.0
 11
19.55485265190471
 21
0.035329318926844
 31
0.0
  0
LINE
  5
D398
330
D370
100
AcDbEntity
  8
0
  6
CONTINUOUS
100
AcDbLine
 10
20.26375463176586
 20
-0.0000534518541091
 30
0.0
 11
19.76305575737534
 21
0.5006454225364014
 31
0.0
  0
LINE
  5
D399
330
D370
100
AcDbEntity
  8
0
  6
CONTINUOUS
100
AcDbLine
 10
20.93723058612834
 20
-0.0000101971364099
 30
0.0
 11
19.97125886284597
 21
0.965961526145958
 31
0.0
  0
LINE
  5
D39A
330
D370
100
AcDbEntity
  8
0
  6
CONTINUOUS
100
AcDbLine
 10
21.25514828313686
 20
0.355591314935257
 30
0.0
 11
20.1794619683166
 21
1.431277629755512
 31
0.0
  0
LINE
  5
D39B
330
D370
100
AcDbEntity
  8
0
  6
CONTINUOUS
100
AcDbLine
 10
21.46338838394921
 20
0.8208704232030986
 30
0.0
 11
20.38766507378723
 21
1.896593733365069
 31
0.0
  0
LINE
  5
D39C
330
D370
100
AcDbEntity
  8
0
  6
CONTINUOUS
100
AcDbLine
 10
21.67162848476155
 20
1.28614953147094
 30
0.0
 11
20.59586817925786
 21
2.361909836974626
 31
0.0
  0
LINE
  5
D39D
330
D370
100
AcDbEntity
  8
0
  6
CONTINUOUS
100
AcDbLine
 10
21.8798685855739
 20
1.751428639738782
 30
0.0
 11
20.80407128472849
 21
2.827225940584183
 31
0.0
  0
LINE
  5
D39E
330
D370
100
AcDbEntity
  8
0
  6
CONTINUOUS
100
AcDbLine
 10
22.08810868638624
 20
2.216707748006623
 30
0.0
 11
21.01227439019912
 21
3.292542044193739
 31
0.0
  0
LINE
  5
D39F
330
D370
100
AcDbEntity
  8
0
  6
CONTINUOUS
100
AcDbLine
 10
22.60993564347543
 20
2.36839999999762
 30
0.0
 11
21.22047749566975
 21
3.757858147803296
 31
0.0
  0
LINE
  5
D3A0
330
D370
100
AcDbEntity
  8
0
  6
CONTINUOUS
100
AcDbLine
 10
23.28345485255561
 20
2.36839999999762
 30
0.0
 11
21.42868060114038
 21
4.223174251412853
 31
0.0
  0
LINE
  5
D3A1
330
D370
100
AcDbEntity
  8
0
  6
CONTINUOUS
100
AcDbLine
 10
26.29227406164219
 20
0.0330999999912356
 30
0.0
 11
25.80009199592872
 21
0.5252820657046957
 31
0.0
  0
LINE
  5
D3A2
330
D370
100
AcDbEntity
  8
0
  6
CONTINUOUS
100
AcDbLine
 10
23.9569740616358
 20
2.36839999999762
 30
0.0
 11
21.63688370661101
 21
4.688490355022409
 31
0.0
  0
LINE
  5
D3A3
330
D370
100
AcDbEntity
  8
0
  6
CONTINUOUS
100
AcDbLine
 10
26.96579327072237
 20
0.0330999999912356
 30
0.0
 11
25.2554132311971
 21
1.743480039516508
 31
0.0
  0
LINE
  5
D3A4
330
D370
100
AcDbEntity
  8
0
  6
CONTINUOUS
100
AcDbLine
 10
24.63049327071599
 20
2.36839999999762
 30
0.0
 11
23.32789327071731
 21
3.670999999996297
 31
0.0
  0
LINE
  5
D3A5
330
D370
100
AcDbEntity
  8
0
  6
CONTINUOUS
100
AcDbLine
 10
22.92098674744635
 20
4.077906523267254
 30
0.0
 11
21.84508681208164
 21
5.153806458631966
 31
0.0
  0
LINE
  5
D3A6
330
D370
100
AcDbEntity
  8
0
  6
CONTINUOUS
100
AcDbLine
 10
27.63931247980256
 20
0.0330999999912356
 30
0.0
 11
24.0014124797975
 21
3.670999999996297
 31
0.0
  0
LINE
  5
D3A7
330
D370
100
AcDbEntity
  8
0
  6
CONTINUOUS
100
AcDbLine
 10
23.129125600968
 20
4.5432868788258
 30
0.0
 11
22.05328991755227
 21
5.619122562241522
 31
0.0
  0
LINE
  5
D3A8
330
D370
100
AcDbEntity
  8
0
  6
CONTINUOUS
100
AcDbLine
 10
28.31283168888275
 20
0.0330999999912356
 30
0.0
 11
24.16488385994816
 21
4.181047828925828
 31
0.0
  0
LINE
  5
D3A9
330
D370
100
AcDbEntity
  8
0
  6
CONTINUOUS
100
AcDbLine
 10
23.33726445448964
 20
5.008667234384345
 30
0.0
 11
22.2614930230229
 21
6.084438665851079
 31
0.0
  0
LINE
  5
D3AA
330
D370
100
AcDbEntity
  8
0
  6
CONTINUOUS
100
AcDbLine
 10
28.81519848253303
 20
0.2042524154211396
 30
0.0
 11
27.63635089796295
 21
1.383099999991217
 31
0.0
  0
LINE
  5
D3AB
330
D370
100
AcDbEntity
  8
0
  6
CONTINUOUS
100
AcDbLine
 10
26.43704649509776
 20
2.582404402856405
 30
0.0
 11
23.61992702019732
 21
5.399523877756844
 31
0.0
  0
LINE
  5
D3AC
330
D370
100
AcDbEntity
  8
0
  6
CONTINUOUS
100
AcDbLine
 10
23.54540330801128
 20
5.47404758994289
 30
0.0
 11
22.46969612849353
 21
6.549754769460635
 31
0.0
  0
LINE
  5
D3AD
330
D370
100
AcDbEntity
  8
0
  6
CONTINUOUS
100
AcDbLine
 10
29.29144848253303
 20
0.4015216245013242
 30
0.0
 11
28.30987010704312
 21
1.383099999991234
 31
0.0
  0
LINE
  5
D3AE
330
D370
100
AcDbEntity
  8
0
  6
CONTINUOUS
100
AcDbLine
 10
25.89179548232307
 20
3.801174624711282
 30
0.0
 11
22.67789923396416
 21
7.015070873070191
 31
0.0
  0
LINE
  5
D3AF
330
D370
100
AcDbEntity
  8
0
  6
CONTINUOUS
100
AcDbLine
 10
29.76769848253303
 20
0.5987908335815084
 30
0.0
 11
28.81310432793121
 21
1.553384988183336
 31
0.0
  0
LINE
  5
D3B0
330
D370
100
AcDbEntity
  8
0
  6
CONTINUOUS
100
AcDbLine
 10
25.34654446954838
 20
5.01994484656616
 30
0.0
 11
22.88610233943479
 21
7.480386976679748
 31
0.0
  0
LINE
  5
D3B1
330
D370
100
AcDbEntity
  8
0
  6
CONTINUOUS
100
AcDbLine
 10
30.13421977859274
 20
0.9057887466019845
 30
0.0
 11
29.14234640337737
 21
1.897662121817355
 31
0.0
  0
LINE
  5
D3B2
330
D370
100
AcDbEntity
  8
0
  6
CONTINUOUS
100
AcDbLine
 10
24.80129345677369
 20
6.238715068421037
 30
0.0
 11
23.09430544490542
 21
7.945703080289305
 31
0.0
  0
LINE
  5
D3B3
330
D370
100
AcDbEntity
  8
0
  6
CONTINUOUS
100
AcDbLine
 10
30.33148898767293
 20
1.382038746601982
 30
0.0
 11
29.30199999996933
 21
2.411527734305588
 31
0.0
  0
LINE
  5
D3B4
330
D370
100
AcDbEntity
  8
0
  6
CONTINUOUS
100
AcDbLine
 10
30.52875819675312
 20
1.85828874660198
 30
0.0
 11
29.30199999996933
 21
3.085046943385775
 31
0.0
  0
LINE
  5
D3B5
330
D370
100
AcDbEntity
  8
0
  6
CONTINUOUS
100
AcDbLine
 10
24.256042443999
 20
7.457485290275915
 30
0.0
 11
23.30250855037605
 21
8.411019183898862
 31
0.0
  0
LINE
  5
D3B6
330
D370
100
AcDbEntity
  8
0
  6
CONTINUOUS
100
AcDbLine
 10
23.71079143122431
 20
8.676255512130794
 30
0.0
 11
23.51071165584668
 21
8.876335287508418
 31
0.0
  0
LINE
  5
D3B7
330
D370
100
AcDbEntity
  8
0
  6
CONTINUOUS
100
AcDbLine
 10
30.72602740583331
 20
2.334538746601978
 30
0.0
 11
29.30199999996933
 21
3.758566152465961
 31
0.0
  0
LINE
  5
D3B8
330
D370
100
AcDbEntity
  8
0
  6
CONTINUOUS
100
AcDbLine
 10
30.74199999996924
 20
2.992085361546236
 30
0.0
 11
29.30199999996933
 21
4.432085361546148
 31
0.0
  0
LINE
  5
D3B9
330
D370
100
AcDbEntity
  8
0
  6
CONTINUOUS
100
AcDbLine
 10
30.74199999996924
 20
3.665604570626419
 30
0.0
 11
29.30199999996933
 21
5.105604570626333
 31
0.0
  0
LINE
  5
D3BA
330
D370
100
AcDbEntity
  8
0
  6
CONTINUOUS
100
AcDbLine
 10
30.74199999996925
 20
4.339123779706602
 30
0.0
 11
29.30199999996933
 21
5.77912377970652
 31
0.0
  0
LINE
  5
D3BB
330
D370
100
AcDbEntity
  8
0
  6
CONTINUOUS
100
AcDbLine
 10
30.74199999996925
 20
5.012642988786785
 30
0.0
 11
29.30199999996933
 21
6.452642988786707
 31
0.0
  0
LINE
  5
D3BC
330
D370
100
AcDbEntity
  8
0
  6
CONTINUOUS
100
AcDbLine
 10
30.74199999996925
 20
5.68616219786697
 30
0.0
 11
29.30199999996933
 21
7.126162197866894
 31
0.0
  0
LINE
  5
D3BD
330
D370
100
AcDbEntity
  8
0
  6
CONTINUOUS
100
AcDbLine
 10
30.74199999996925
 20
6.359681406947153
 30
0.0
 11
29.30199999996933
 21
7.799681406947081
 31
0.0
  0
LINE
  5
D3BE
330
D370
100
AcDbEntity
  8
0
  6
CONTINUOUS
100
AcDbLine
 10
30.74199999996926
 20
7.033200616027337
 30
0.0
 11
29.30199999996933
 21
8.473200616027269
 31
0.0
  0
LINE
  5
D3BF
330
D370
100
AcDbEntity
  8
0
  6
CONTINUOUS
100
AcDbLine
 10
30.74199999996926
 20
7.706719825107518
 30
0.0
 11
29.68561982508552
 21
8.763099999991255
 31
0.0
  0
LINE
  5
D3C0
330
D370
100
AcDbEntity
  8
0
  6
CONTINUOUS
100
AcDbLine
 10
30.74199999996926
 20
8.380239034187703
 30
0.0
 11
30.35913903416571
 21
8.763099999991255
 31
0.0
  0
ENDBLK
  5
D462
330
D370
100
AcDbEntity
  8
0
100
AcDbBlockEnd
  0
BLOCK
  5
D463
330
D3C1
100
AcDbEntity
  8
0
100
AcDbBlockBegin
  2
*X175
 70
     1
 10
0.0
 20
0.0
 30
0.0
  3
*X175
  1

  0
LINE
  5
D3C2
330
D3C1
100
AcDbEntity
  8
0
  6
CONTINUOUS
100
AcDbLine
 10
31.64199999996833
 20
8.535058289913598
 30
0.0
 11
31.87004171004599
 21
8.763099999991255
 31
0.0
  0
LINE
  5
D3C3
330
D3C1
100
AcDbEntity
  8
0
  6
CONTINUOUS
100
AcDbLine
 10
31.64199999996833
 20
7.861539080833412
 30
0.0
 11
32.54356091912618
 21
8.763099999991255
 31
0.0
  0
LINE
  5
D3C4
330
D3C1
100
AcDbEntity
  8
0
  6
CONTINUOUS
100
AcDbLine
 10
31.64199999996833
 20
7.188019871753226
 30
0.0
 11
33.08199999996839
 21
8.628019871753281
 31
0.0
  0
LINE
  5
D3C5
330
D3C1
100
AcDbEntity
  8
0
  6
CONTINUOUS
100
AcDbLine
 10
31.64199999996833
 20
6.51450066267304
 30
0.0
 11
33.08199999996839
 21
7.954500662673095
 31
0.0
  0
LINE
  5
D3C6
330
D3C1
100
AcDbEntity
  8
0
  6
CONTINUOUS
100
AcDbLine
 10
31.64199999996833
 20
5.840981453592853
 30
0.0
 11
33.08199999996839
 21
7.280981453592908
 31
0.0
  0
LINE
  5
D3C7
330
D3C1
100
AcDbEntity
  8
0
  6
CONTINUOUS
100
AcDbLine
 10
31.64199999996833
 20
5.167462244512667
 30
0.0
 11
33.08199999996839
 21
6.607462244512721
 31
0.0
  0
LINE
  5
D3C8
330
D3C1
100
AcDbEntity
  8
0
  6
CONTINUOUS
100
AcDbLine
 10
31.64199999996833
 20
4.493943035432481
 30
0.0
 11
33.08199999996839
 21
5.933943035432535
 31
0.0
  0
LINE
  5
D3C9
330
D3C1
100
AcDbEntity
  8
0
  6
CONTINUOUS
100
AcDbLine
 10
31.64199999996833
 20
3.820423826352293
 30
0.0
 11
33.08199999996839
 21
5.260423826352348
 31
0.0
  0
LINE
  5
D3CA
330
D3C1
100
AcDbEntity
  8
0
  6
CONTINUOUS
100
AcDbLine
 10
31.64199999996833
 20
3.146904617272106
 30
0.0
 11
33.08199999996839
 21
4.586904617272161
 31
0.0
  0
LINE
  5
D3CB
330
D3C1
100
AcDbEntity
  8
0
  6
CONTINUOUS
100
AcDbLine
 10
36.23199999996837
 20
8.410423826352325
 30
0.0
 11
36.5846761736073
 21
8.763099999991255
 31
0.0
  0
LINE
  5
D3CC
330
D3C1
100
AcDbEntity
  8
0
  6
CONTINUOUS
100
AcDbLine
 10
36.23199999996837
 20
7.73690461727214
 30
0.0
 11
37.25819538268748
 21
8.763099999991255
 31
0.0
  0
LINE
  5
D3CD
330
D3C1
100
AcDbEntity
  8
0
  6
CONTINUOUS
100
AcDbLine
 10
31.64374005202358
 20
2.475125460247167
 30
0.0
 11
33.08199999996839
 21
3.913385408191974
 31
0.0
  0
LINE
  5
D3CE
330
D3C1
100
AcDbEntity
  8
0
  6
CONTINUOUS
100
AcDbLine
 10
31.78607140823076
 20
1.943937607374161
 30
0.0
 11
33.08199999996839
 21
3.239866199111788
 31
0.0
  0
LINE
  5
D3CF
330
D3C1
100
AcDbEntity
  8
0
  6
CONTINUOUS
100
AcDbLine
 10
31.92840276443794
 20
1.412749754501155
 30
0.0
 11
33.08199999996839
 21
2.566346990031601
 31
0.0
  0
LINE
  5
D3D0
330
D3C1
100
AcDbEntity
  8
0
  6
CONTINUOUS
100
AcDbLine
 10
36.23199999996837
 20
7.063385408191953
 30
0.0
 11
37.67199999996831
 21
8.503385408191894
 31
0.0
  0
LINE
  5
D3D1
330
D3C1
100
AcDbEntity
  8
0
  6
CONTINUOUS
100
AcDbLine
 10
36.23199999996837
 20
6.389866199111767
 30
0.0
 11
37.67199999996831
 21
7.829866199111708
 31
0.0
  0
LINE
  5
D3D2
330
D3C1
100
AcDbEntity
  8
0
  6
CONTINUOUS
100
AcDbLine
 10
36.23199999996837
 20
5.71634699003158
 30
0.0
 11
37.67199999996831
 21
7.156346990031521
 31
0.0
  0
LINE
  5
D3D3
330
D3C1
100
AcDbEntity
  8
0
  6
CONTINUOUS
100
AcDbLine
 10
32.1787326690177
 20
0.9895604500007256
 30
0.0
 11
33.20642631446081
 21
2.017254095443837
 31
0.0
  0
LINE
  5
D3D4
330
D3C1
100
AcDbEntity
  8
0
  6
CONTINUOUS
100
AcDbLine
 10
36.23199999996837
 20
5.042827780951393
 30
0.0
 11
37.67199999996831
 21
6.482827780951334
 31
0.0
  0
LINE
  5
D3D5
330
D3C1
100
AcDbEntity
  8
0
  6
CONTINUOUS
100
AcDbLine
 10
32.51549227355815
 20
0.652800845460991
 30
0.0
 11
33.49903056428258
 21
1.636339136185419
 31
0.0
  0
LINE
  5
D3D6
330
D3C1
100
AcDbEntity
  8
0
  6
CONTINUOUS
100
AcDbLine
 10
36.23199999996837
 20
4.369308571871207
 30
0.0
 11
37.67199999996831
 21
5.809308571871147
 31
0.0
  0
LINE
  5
D3D7
330
D3C1
100
AcDbEntity
  8
0
  6
CONTINUOUS
100
AcDbLine
 10
32.8522518780986
 20
0.3160412409212565
 30
0.0
 11
33.93324121824649
 21
1.397030581069147
 31
0.0
  0
LINE
  5
D3D8
330
D3C1
100
AcDbEntity
  8
0
  6
CONTINUOUS
100
AcDbLine
 10
36.23199999996837
 20
3.69578936279102
 30
0.0
 11
37.67199999996831
 21
5.135789362790962
 31
0.0
  0
LINE
  5
D3D9
330
D3C1
100
AcDbEntity
  8
0
  6
CONTINUOUS
100
AcDbLine
 10
33.32873687730419
 20
0.1190070310466638
 30
0.0
 11
34.46442907112041
 21
1.254699224862875
 31
0.0
  0
LINE
  5
D3DA
330
D3C1
100
AcDbEntity
  8
0
  6
CONTINUOUS
100
AcDbLine
 10
36.23199999996837
 20
3.022270153710834
 30
0.0
 11
37.67199999996831
 21
4.462270153710775
 31
0.0
  0
LINE
  5
D3DB
330
D3C1
100
AcDbEntity
  8
0
  6
CONTINUOUS
100
AcDbLine
 10
33.85992473017767
 20
-0.0233243251600488
 30
0.0
 11
35.24350171668284
 21
1.360252661345124
 31
0.0
  0
LINE
  5
D3DC
330
D3C1
100
AcDbEntity
  8
0
  6
CONTINUOUS
100
AcDbLine
 10
36.18336676155003
 20
2.300117706212307
 30
0.0
 11
37.67199999996831
 21
3.788750944630588
 31
0.0
  0
LINE
  5
D3DD
330
D3C1
100
AcDbEntity
  8
0
  6
CONTINUOUS
100
AcDbLine
 10
34.39111258305115
 20
-0.1656556813667613
 30
0.0
 11
37.67199999996831
 21
3.115231735550401
 31
0.0
  0
LINE
  5
D3DE
330
D3C1
100
AcDbEntity
  8
0
  6
CONTINUOUS
100
AcDbLine
 10
35.11651383431612
 20
-0.1137736391819715
 30
0.0
 11
37.65739306207836
 21
2.427105588580266
 31
0.0
  0
LINE
  5
D3DF
330
D3C1
100
AcDbEntity
  8
0
  6
CONTINUOUS
100
AcDbLine
 10
36.03655818385387
 20
0.1327515012755951
 30
0.0
 11
37.41086792161699
 21
1.507061239038712
 31
0.0
  0
LINE
  5
D3E0
330
D3C1
100
AcDbEntity
  8
0
  6
CONTINUOUS
100
AcDbLine
 10
33.71988657648365
 20
0.0141987850318213
 30
0.0
 11
31.78457936207464
 21
1.949505999440826
 31
0.0
  0
LINE
  5
D3E1
330
D3C1
100
AcDbEntity
  8
0
  6
CONTINUOUS
100
AcDbLine
 10
34.63993092602409
 20
-0.2323263554284312
 30
0.0
 11
31.64199999996833
 21
2.765604570627321
 31
0.0
  0
LINE
  5
D3E2
330
D3C1
100
AcDbEntity
  8
0
  6
CONTINUOUS
100
AcDbLine
 10
35.17833301840466
 20
-0.0972092387288228
 30
0.0
 11
31.64199999996833
 21
3.439123779707508
 31
0.0
  0
LINE
  5
D3E3
330
D3C1
100
AcDbEntity
  8
0
  6
CONTINUOUS
100
AcDbLine
 10
35.70952087127903
 20
0.0451221174769945
 30
0.0
 11
34.51294304365551
 21
1.241699945100516
 31
0.0
  0
LINE
  5
D3E4
330
D3C1
100
AcDbEntity
  8
0
  6
CONTINUOUS
100
AcDbLine
 10
33.08199999996839
 20
2.67264298878764
 30
0.0
 11
31.64199999996833
 21
4.112642988787695
 31
0.0
  0
LINE
  5
D3E5
330
D3C1
100
AcDbEntity
  8
0
  6
CONTINUOUS
100
AcDbLine
 10
36.2407087241534
 20
0.1874534736828117
 30
0.0
 11
35.10501653033629
 21
1.323145667499924
 31
0.0
  0
LINE
  5
D3E6
330
D3C1
100
AcDbEntity
  8
0
  6
CONTINUOUS
100
AcDbLine
 10
33.08199999996839
 20
3.346162197867826
 30
0.0
 11
31.64199999996833
 21
4.786162197867881
 31
0.0
  0
LINE
  5
D3E7
330
D3C1
100
AcDbEntity
  8
0
  6
CONTINUOUS
100
AcDbLine
 10
36.62369414391585
 20
0.4779872630005553
 30
0.0
 11
35.63620438320989
 21
1.465477023706505
 31
0.0
  0
LINE
  5
D3E8
330
D3C1
100
AcDbEntity
  8
0
  6
CONTINUOUS
100
AcDbLine
 10
33.08199999996839
 20
4.019681406948012
 30
0.0
 11
31.64199999996833
 21
5.459681406948068
 31
0.0
  0
LINE
  5
D3E9
330
D3C1
100
AcDbEntity
  8
0
  6
CONTINUOUS
100
AcDbLine
 10
36.96045374845689
 20
0.8147468675397027
 30
0.0
 11
35.97691545773309
 21
1.798285158263504
 31
0.0
  0
LINE
  5
D3EA
330
D3C1
100
AcDbEntity
  8
0
  6
CONTINUOUS
100
AcDbLine
 10
33.08199999996839
 20
4.693200616028199
 30
0.0
 11
31.64199999996833
 21
6.133200616028255
 31
0.0
  0
LINE
  5
D3EB
330
D3C1
100
AcDbEntity
  8
0
  6
CONTINUOUS
100
AcDbLine
 10
37.29721335299792
 20
1.151506472078851
 30
0.0
 11
36.17602012811361
 21
2.272699696963168
 31
0.0
  0
LINE
  5
D3EC
330
D3C1
100
AcDbEntity
  8
0
  6
CONTINUOUS
100
AcDbLine
 10
33.08199999996839
 20
5.366719825108386
 30
0.0
 11
31.64199999996833
 21
6.80671982510844
 31
0.0
  0
LINE
  5
D3ED
330
D3C1
100
AcDbEntity
  8
0
  6
CONTINUOUS
100
AcDbLine
 10
37.45404367813572
 20
1.668195356021243
 30
0.0
 11
36.23199999996837
 21
2.890239034188594
 31
0.0
  0
LINE
  5
D3EE
330
D3C1
100
AcDbEntity
  8
0
  6
CONTINUOUS
100
AcDbLine
 10
37.5963750343428
 20
2.199383208894345
 30
0.0
 11
36.23199999996837
 21
3.56375824326878
 31
0.0
  0
LINE
  5
D3EF
330
D3C1
100
AcDbEntity
  8
0
  6
CONTINUOUS
100
AcDbLine
 10
33.08199999996839
 20
6.040239034188573
 30
0.0
 11
31.64199999996833
 21
7.480239034188627
 31
0.0
  0
LINE
  5
D3F0
330
D3C1
100
AcDbEntity
  8
0
  6
CONTINUOUS
100
AcDbLine
 10
33.08199999996839
 20
6.713758243268758
 30
0.0
 11
31.64199999996833
 21
8.153758243268815
 31
0.0
  0
LINE
  5
D3F1
330
D3C1
100
AcDbEntity
  8
0
  6
CONTINUOUS
100
AcDbLine
 10
37.67199999996831
 20
2.797277452349026
 30
0.0
 11
36.23199999996837
 21
4.237277452348967
 31
0.0
  0
LINE
  5
D3F2
330
D3C1
100
AcDbEntity
  8
0
  6
CONTINUOUS
100
AcDbLine
 10
37.67199999996831
 20
3.470796661429213
 30
0.0
 11
36.23199999996837
 21
4.910796661429154
 31
0.0
  0
LINE
  5
D3F3
330
D3C1
100
AcDbEntity
  8
0
  6
CONTINUOUS
100
AcDbLine
 10
37.67199999996831
 20
4.144315870509399
 30
0.0
 11
36.23199999996837
 21
5.58431587050934
 31
0.0
  0
LINE
  5
D3F4
330
D3C1
100
AcDbEntity
  8
0
  6
CONTINUOUS
100
AcDbLine
 10
33.08199999996839
 20
7.387277452348945
 30
0.0
 11
31.70617745232608
 21
8.763099999991255
 31
0.0
  0
LINE
  5
D3F5
330
D3C1
100
AcDbEntity
  8
0
  6
CONTINUOUS
100
AcDbLine
 10
33.08199999996839
 20
8.060796661429132
 30
0.0
 11
32.37969666140626
 21
8.763099999991255
 31
0.0
  0
LINE
  5
D3F6
330
D3C1
100
AcDbEntity
  8
0
  6
CONTINUOUS
100
AcDbLine
 10
33.08199999996839
 20
8.734315870509318
 30
0.0
 11
33.05321587048645
 21
8.763099999991255
 31
0.0
  0
LINE
  5
D3F7
330
D3C1
100
AcDbEntity
  8
0
  6
CONTINUOUS
100
AcDbLine
 10
37.67199999996831
 20
4.817835079589585
 30
0.0
 11
36.23199999996837
 21
6.257835079589526
 31
0.0
  0
LINE
  5
D3F8
330
D3C1
100
AcDbEntity
  8
0
  6
CONTINUOUS
100
AcDbLine
 10
37.67199999996831
 20
5.491354288669771
 30
0.0
 11
36.23199999996837
 21
6.931354288669713
 31
0.0
  0
LINE
  5
D3F9
330
D3C1
100
AcDbEntity
  8
0
  6
CONTINUOUS
100
AcDbLine
 10
37.67199999996831
 20
6.164873497749958
 30
0.0
 11
36.23199999996837
 21
7.6048734977499
 31
0.0
  0
LINE
  5
D3FA
330
D3C1
100
AcDbEntity
  8
0
  6
CONTINUOUS
100
AcDbLine
 10
37.67199999996831
 20
6.838392706830144
 30
0.0
 11
36.23199999996837
 21
8.278392706830086
 31
0.0
  0
LINE
  5
D3FB
330
D3C1
100
AcDbEntity
  8
0
  6
CONTINUOUS
100
AcDbLine
 10
37.67199999996831
 20
7.511911915910332
 30
0.0
 11
36.42081191588738
 21
8.763099999991255
 31
0.0
  0
LINE
  5
D3FC
330
D3C1
100
AcDbEntity
  8
0
  6
CONTINUOUS
100
AcDbLine
 10
37.67199999996831
 20
8.185431124990519
 30
0.0
 11
37.09433112496757
 21
8.763099999991255
 31
0.0
  0
ENDBLK
  5
D464
330
D3C1
100
AcDbEntity
  8
0
100
AcDbBlockEnd
  0
BLOCK
  5
D465
330
D3FD
100
AcDbEntity
  8
0
100
AcDbBlockBegin
  2
*X176
 70
     1
 10
0.0
 20
0.0
 30
0.0
  3
*X176
  1

  0
LINE
  5
D3FE
330
D3FD
100
AcDbEntity
  8
0
  6
CONTINUOUS
100
AcDbLine
 10
38.60499999996136
 20
8.762866199104765
 30
0.0
 11
38.71672554182345
 21
8.874591740966855
 31
0.0
  0
LINE
  5
D3FF
330
D3FD
100
AcDbEntity
  8
0
  6
CONTINUOUS
100
AcDbLine
 10
38.60499999996136
 20
8.089346990024577
 30
0.0
 11
39.03418785440363
 21
8.518534844466847
 31
0.0
  0
LINE
  5
D400
330
D3FD
100
AcDbEntity
  8
0
  6
CONTINUOUS
100
AcDbLine
 10
38.60499999996136
 20
7.41582778094439
 30
0.0
 11
39.35165016698382
 21
8.16247794796684
 31
0.0
  0
LINE
  5
D401
330
D3FD
100
AcDbEntity
  8
0
  6
CONTINUOUS
100
AcDbLine
 10
38.60499999996136
 20
6.742308571864204
 30
0.0
 11
39.66911247956399
 21
7.806421051466834
 31
0.0
  0
LINE
  5
D402
330
D3FD
100
AcDbEntity
  8
0
  6
CONTINUOUS
100
AcDbLine
 10
38.60499999996136
 20
6.068789362784018
 30
0.0
 11
39.98657479214418
 21
7.450364154966827
 31
0.0
  0
LINE
  5
D403
330
D3FD
100
AcDbEntity
  8
0
  6
CONTINUOUS
100
AcDbLine
 10
38.60499999996136
 20
5.395270153703832
 30
0.0
 11
40.30403710472435
 21
7.09430725846682
 31
0.0
  0
LINE
  5
D404
330
D3FD
100
AcDbEntity
  8
0
  6
CONTINUOUS
100
AcDbLine
 10
38.60499999996136
 20
4.721750944623645
 30
0.0
 11
40.62149941730453
 21
6.738250361966813
 31
0.0
  0
LINE
  5
D405
330
D3FD
100
AcDbEntity
  8
0
  6
CONTINUOUS
100
AcDbLine
 10
38.60499999996136
 20
4.048231735543458
 30
0.0
 11
40.93896172988471
 21
6.382193465466806
 31
0.0
  0
LINE
  5
D406
330
D3FD
100
AcDbEntity
  8
0
  6
CONTINUOUS
100
AcDbLine
 10
38.60499999996136
 20
3.374712526463272
 30
0.0
 11
40.02599999995994
 21
4.795712526461843
 31
0.0
  0
LINE
  5
D407
330
D3FD
100
AcDbEntity
  8
0
  6
CONTINUOUS
100
AcDbLine
 10
38.60499999996136
 20
2.701193317383085
 30
0.0
 11
40.02599999995994
 21
4.122193317381657
 31
0.0
  0
LINE
  5
D408
330
D3FD
100
AcDbEntity
  8
0
  6
CONTINUOUS
100
AcDbLine
 10
40.28339754687704
 20
5.053110073378947
 30
0.0
 11
41.25642404246489
 21
6.026136568966799
 31
0.0
  0
LINE
  5
D409
330
D3FD
100
AcDbEntity
  8
0
  6
CONTINUOUS
100
AcDbLine
 10
40.60085985945722
 20
4.697053176878939
 30
0.0
 11
41.57388635504507
 21
5.670079672466793
 31
0.0
  0
LINE
  5
D40A
330
D3FD
100
AcDbEntity
  8
0
  6
CONTINUOUS
100
AcDbLine
 10
43.57899999995641
 20
8.348712526458318
 30
0.0
 11
43.99338747348935
 21
8.763099999991255
 31
0.0
  0
LINE
  5
D40B
330
D3FD
100
AcDbEntity
  8
0
  6
CONTINUOUS
100
AcDbLine
 10
43.57899999995641
 20
7.675193317378131
 30
0.0
 11
44.66690668256953
 21
8.763099999991255
 31
0.0
  0
LINE
  5
D40C
330
D3FD
100
AcDbEntity
  8
0
  6
CONTINUOUS
100
AcDbLine
 10
38.60499999996136
 20
2.027674108302898
 30
0.0
 11
40.02599999995994
 21
3.44867410830147
 31
0.0
  0
LINE
  5
D40D
330
D3FD
100
AcDbEntity
  8
0
  6
CONTINUOUS
100
AcDbLine
 10
38.60499999996136
 20
1.354154899222712
 30
0.0
 11
40.02599999995994
 21
2.775154899221284
 31
0.0
  0
LINE
  5
D40E
330
D3FD
100
AcDbEntity
  8
0
  6
CONTINUOUS
100
AcDbLine
 10
38.60499999996136
 20
0.6806356901425255
 30
0.0
 11
40.02599999995994
 21
2.101635690141098
 31
0.0
  0
LINE
  5
D40F
330
D3FD
100
AcDbEntity
  8
0
  6
CONTINUOUS
100
AcDbLine
 10
38.60499999996136
 20
0.0071164810623383
 30
0.0
 11
40.02599999995994
 21
1.428116481060911
 31
0.0
  0
LINE
  5
D410
330
D3FD
100
AcDbEntity
  8
0
  6
CONTINUOUS
100
AcDbLine
 10
40.9183221720374
 20
4.340996280378933
 30
0.0
 11
41.89134866762525
 21
5.314022775966786
 31
0.0
  0
LINE
  5
D411
330
D3FD
100
AcDbEntity
  8
0
  6
CONTINUOUS
100
AcDbLine
 10
41.23578448461758
 20
3.984939383878926
 30
0.0
 11
42.20881098020543
 21
4.957965879466778
 31
0.0
  0
LINE
  5
D412
330
D3FD
100
AcDbEntity
  8
0
  6
CONTINUOUS
100
AcDbLine
 10
41.55324679719776
 20
3.628882487378919
 30
0.0
 11
42.52627329278561
 21
4.601908982966772
 31
0.0
  0
LINE
  5
D413
330
D3FD
100
AcDbEntity
  8
0
  6
CONTINUOUS
100
AcDbLine
 10
41.87070910977793
 20
3.272825590878912
 30
0.0
 11
42.84373560536579
 21
4.245852086466765
 31
0.0
  0
LINE
  5
D414
330
D3FD
100
AcDbEntity
  8
0
  6
CONTINUOUS
100
AcDbLine
 10
43.57899999995641
 20
7.001674108297943
 30
0.0
 11
44.99999999995498
 21
8.422674108296516
 31
0.0
  0
LINE
  5
D415
330
D3FD
100
AcDbEntity
  8
0
  6
CONTINUOUS
100
AcDbLine
 10
43.57899999995641
 20
6.328154899217758
 30
0.0
 11
44.99999999995498
 21
7.749154899216329
 31
0.0
  0
LINE
  5
D416
330
D3FD
100
AcDbEntity
  8
0
  6
CONTINUOUS
100
AcDbLine
 10
43.57899999995641
 20
5.654635690137571
 30
0.0
 11
44.99999999995498
 21
7.075635690136142
 31
0.0
  0
LINE
  5
D417
330
D3FD
100
AcDbEntity
  8
0
  6
CONTINUOUS
100
AcDbLine
 10
43.57899999995641
 20
4.981116481057384
 30
0.0
 11
44.99999999995498
 21
6.402116481055955
 31
0.0
  0
LINE
  5
D418
330
D3FD
100
AcDbEntity
  8
0
  6
CONTINUOUS
100
AcDbLine
 10
39.27140272797921
 20
-0.0000000000000009
 30
0.0
 11
40.02599999995994
 21
0.7545972719807246
 31
0.0
  0
LINE
  5
D419
330
D3FD
100
AcDbEntity
  8
0
  6
CONTINUOUS
100
AcDbLine
 10
39.9449219370594
 20
-0.0000000000000009
 30
0.0
 11
40.02599999995994
 21
0.0810780629005379
 31
0.0
  0
LINE
  5
D41A
330
D3FD
100
AcDbEntity
  8
0
  6
CONTINUOUS
100
AcDbLine
 10
42.18817142235812
 20
2.916768694378905
 30
0.0
 11
43.16119791794597
 21
3.889795189966758
 31
0.0
  0
LINE
  5
D41B
330
D3FD
100
AcDbEntity
  8
0
  6
CONTINUOUS
100
AcDbLine
 10
42.50563373493829
 20
2.560711797878898
 30
0.0
 11
43.47866023052615
 21
3.533738293466751
 31
0.0
  0
LINE
  5
D41C
330
D3FD
100
AcDbEntity
  8
0
  6
CONTINUOUS
100
AcDbLine
 10
43.57899999995641
 20
4.307597271977198
 30
0.0
 11
44.99999999995498
 21
5.728597271975769
 31
0.0
  0
LINE
  5
D41D
330
D3FD
100
AcDbEntity
  8
0
  6
CONTINUOUS
100
AcDbLine
 10
43.57899999995641
 20
3.634078062897011
 30
0.0
 11
44.99999999995498
 21
5.055078062895582
 31
0.0
  0
LINE
  5
D41E
330
D3FD
100
AcDbEntity
  8
0
  6
CONTINUOUS
100
AcDbLine
 10
42.82309604751848
 20
2.204654901378891
 30
0.0
 11
44.99999999995498
 21
4.381558853815395
 31
0.0
  0
LINE
  5
D41F
330
D3FD
100
AcDbEntity
  8
0
  6
CONTINUOUS
100
AcDbLine
 10
43.14055836009865
 20
1.848598004878885
 30
0.0
 11
44.99999999995498
 21
3.70803964473521
 31
0.0
  0
LINE
  5
D420
330
D3FD
100
AcDbEntity
  8
0
  6
CONTINUOUS
100
AcDbLine
 10
43.45802067267883
 20
1.492541108378878
 30
0.0
 11
44.99999999995498
 21
3.034520435655023
 31
0.0
  0
LINE
  5
D421
330
D3FD
100
AcDbEntity
  8
0
  6
CONTINUOUS
100
AcDbLine
 10
43.77548298525902
 20
1.136484211878871
 30
0.0
 11
44.99999999995498
 21
2.361001226574837
 31
0.0
  0
LINE
  5
D422
330
D3FD
100
AcDbEntity
  8
0
  6
CONTINUOUS
100
AcDbLine
 10
44.09294529783919
 20
0.7804273153788639
 30
0.0
 11
44.99999999995498
 21
1.687482017494649
 31
0.0
  0
LINE
  5
D423
330
D3FD
100
AcDbEntity
  8
0
  6
CONTINUOUS
100
AcDbLine
 10
44.41040761041938
 20
0.4243704188788566
 30
0.0
 11
44.99999999995498
 21
1.013962808414463
 31
0.0
  0
LINE
  5
D424
330
D3FD
100
AcDbEntity
  8
0
  6
CONTINUOUS
100
AcDbLine
 10
44.72786992299955
 20
0.0683135223788494
 30
0.0
 11
44.99999999995498
 21
0.340443599334276
 31
0.0
  0
LINE
  5
D425
330
D3FD
100
AcDbEntity
  8
0
  6
CONTINUOUS
100
AcDbLine
 10
39.12223903415696
 20
-0.0000000000000009
 30
0.0
 11
38.60499999996136
 21
0.5172390341955961
 31
0.0
  0
LINE
  5
D426
330
D3FD
100
AcDbEntity
  8
0
  6
CONTINUOUS
100
AcDbLine
 10
39.79575824323715
 20
-0.0000000000000009
 30
0.0
 11
38.60499999996136
 21
1.190758243275783
 31
0.0
  0
LINE
  5
D427
330
D3FD
100
AcDbEntity
  8
0
  6
CONTINUOUS
100
AcDbLine
 10
40.02599999995994
 20
0.443277452357397
 30
0.0
 11
38.60499999996136
 21
1.864277452355969
 31
0.0
  0
LINE
  5
D428
330
D3FD
100
AcDbEntity
  8
0
  6
CONTINUOUS
100
AcDbLine
 10
40.02599999995994
 20
1.116796661437583
 30
0.0
 11
38.60499999996136
 21
2.537796661436155
 31
0.0
  0
LINE
  5
D429
330
D3FD
100
AcDbEntity
  8
0
  6
CONTINUOUS
100
AcDbLine
 10
40.02599999995994
 20
1.79031587051777
 30
0.0
 11
38.60499999996136
 21
3.211315870516341
 31
0.0
  0
LINE
  5
D42A
330
D3FD
100
AcDbEntity
  8
0
  6
CONTINUOUS
100
AcDbLine
 10
40.02599999995994
 20
2.463835079597956
 30
0.0
 11
38.60499999996136
 21
3.884835079596527
 31
0.0
  0
LINE
  5
D42B
330
D3FD
100
AcDbEntity
  8
0
  6
CONTINUOUS
100
AcDbLine
 10
40.02599999995994
 20
3.137354288678143
 30
0.0
 11
38.60499999996136
 21
4.558354288676714
 31
0.0
  0
LINE
  5
D42C
330
D3FD
100
AcDbEntity
  8
0
  6
CONTINUOUS
100
AcDbLine
 10
40.02599999995994
 20
3.810873497758329
 30
0.0
 11
38.60499999996136
 21
5.2318734977569
 31
0.0
  0
LINE
  5
D42D
330
D3FD
100
AcDbEntity
  8
0
  6
CONTINUOUS
100
AcDbLine
 10
40.02599999995994
 20
4.484392706838515
 30
0.0
 11
38.60499999996136
 21
5.905392706837086
 31
0.0
  0
LINE
  5
D42E
330
D3FD
100
AcDbEntity
  8
0
  6
CONTINUOUS
100
AcDbLine
 10
44.99999999995498
 20
0.183911915923658
 30
0.0
 11
41.53858364506288
 21
3.64532827081576
 31
0.0
  0
LINE
  5
D42F
330
D3FD
100
AcDbEntity
  8
0
  6
CONTINUOUS
100
AcDbLine
 10
40.02599999995994
 20
5.157911915918703
 30
0.0
 11
38.60499999996136
 21
6.578911915917274
 31
0.0
  0
LINE
  5
D430
330
D3FD
100
AcDbEntity
  8
0
  6
CONTINUOUS
100
AcDbLine
 10
44.99999999995498
 20
0.8574311250038447
 30
0.0
 11
38.60499999996136
 21
7.25243112499746
 31
0.0
  0
LINE
  5
D431
330
D3FD
100
AcDbEntity
  8
0
  6
CONTINUOUS
100
AcDbLine
 10
44.99999999995498
 20
1.530950334084031
 30
0.0
 11
38.60499999996136
 21
7.925950334077647
 31
0.0
  0
LINE
  5
D432
330
D3FD
100
AcDbEntity
  8
0
  6
CONTINUOUS
100
AcDbLine
 10
44.99999999995498
 20
2.204469543164218
 30
0.0
 11
43.57899999995641
 21
3.625469543162789
 31
0.0
  0
LINE
  5
D433
330
D3FD
100
AcDbEntity
  8
0
  6
CONTINUOUS
100
AcDbLine
 10
41.89876730984767
 20
5.305702233271528
 30
0.0
 11
38.60499999996136
 21
8.599469543157834
 31
0.0
  0
LINE
  5
D434
330
D3FD
100
AcDbEntity
  8
0
  6
CONTINUOUS
100
AcDbLine
 10
44.99999999995498
 20
2.877988752244405
 30
0.0
 11
43.57899999995641
 21
4.298988752242975
 31
0.0
  0
LINE
  5
D435
330
D3FD
100
AcDbEntity
  8
0
  6
CONTINUOUS
100
AcDbLine
 10
44.99999999995498
 20
3.551507961324591
 30
0.0
 11
43.57899999995641
 21
4.972507961323163
 31
0.0
  0
LINE
  5
D436
330
D3FD
100
AcDbEntity
  8
0
  6
CONTINUOUS
100
AcDbLine
 10
44.99999999995498
 20
4.225027170404777
 30
0.0
 11
43.57899999995641
 21
5.646027170403348
 31
0.0
  0
LINE
  5
D437
330
D3FD
100
AcDbEntity
  8
0
  6
CONTINUOUS
100
AcDbLine
 10
44.99999999995498
 20
4.898546379484964
 30
0.0
 11
43.57899999995641
 21
6.319546379483535
 31
0.0
  0
LINE
  5
D438
330
D3FD
100
AcDbEntity
  8
0
  6
CONTINUOUS
100
AcDbLine
 10
44.99999999995498
 20
5.572065588565151
 30
0.0
 11
43.57899999995641
 21
6.993065588563722
 31
0.0
  0
LINE
  5
D439
330
D3FD
100
AcDbEntity
  8
0
  6
CONTINUOUS
100
AcDbLine
 10
44.99999999995498
 20
6.245584797645336
 30
0.0
 11
43.57899999995641
 21
7.666584797643908
 31
0.0
  0
LINE
  5
D43A
330
D3FD
100
AcDbEntity
  8
0
  6
CONTINUOUS
100
AcDbLine
 10
44.99999999995498
 20
6.919104006725522
 30
0.0
 11
43.57899999995641
 21
8.340104006724093
 31
0.0
  0
LINE
  5
D43B
330
D3FD
100
AcDbEntity
  8
0
  6
CONTINUOUS
100
AcDbLine
 10
44.99999999995498
 20
7.592623215805709
 30
0.0
 11
43.82952321576943
 21
8.763099999991255
 31
0.0
  0
LINE
  5
D43C
330
D3FD
100
AcDbEntity
  8
0
  6
CONTINUOUS
100
AcDbLine
 10
44.99999999995498
 20
8.266142424885896
 30
0.0
 11
44.50304242484962
 21
8.763099999991255
 31
0.0
  0
ENDBLK
  5
D466
330
D3FD
100
AcDbEntity
  8
0
100
AcDbBlockEnd
  0
BLOCK
  5
D467
330
D43D
100
AcDbEntity
  8
0
100
AcDbBlockBegin
  2
*X177
 70
     1
 10
0.0
 20
0.0
 30
0.0
  3
*X177
  1

  0
LINE
  5
D43E
330
D43D
100
AcDbEntity
  8
0
  6
CONTINUOUS
100
AcDbLine
 10
0.0
 20
8.548461116714023
 30
0.0
 11
0.2146388832772324
 21
8.763099999991255
 31
0.0
  0
LINE
  5
D43F
330
D43D
100
AcDbEntity
  8
0
  6
CONTINUOUS
100
AcDbLine
 10
-0.0000000000000002
 20
7.874941907633837
 30
0.0
 11
0.8881580923574184
 21
8.763099999991255
 31
0.0
  0
LINE
  5
D440
330
D43D
100
AcDbEntity
  8
0
  6
CONTINUOUS
100
AcDbLine
 10
0.0
 20
7.20142269855365
 30
0.0
 11
1.420999999998572
 21
8.622422698552223
 31
0.0
  0
LINE
  5
D441
330
D43D
100
AcDbEntity
  8
0
  6
CONTINUOUS
100
AcDbLine
 10
-0.0000000000000001
 20
6.527903489473465
 30
0.0
 11
1.420999999998571
 21
7.948903489472036
 31
0.0
  0
LINE
  5
D442
330
D43D
100
AcDbEntity
  8
0
  6
CONTINUOUS
100
AcDbLine
 10
-0.0000000000000002
 20
5.854384280393278
 30
0.0
 11
1.420999999998571
 21
7.275384280391849
 31
0.0
  0
LINE
  5
D443
330
D43D
100
AcDbEntity
  8
0
  6
CONTINUOUS
100
AcDbLine
 10
-0.0000000000000002
 20
5.180865071313091
 30
0.0
 11
1.420999999998571
 21
6.601865071311663
 31
0.0
  0
LINE
  5
D444
330
D43D
100
AcDbEntity
  8
0
  6
CONTINUOUS
100
AcDbLine
 10
0.0
 20
4.507345862232905
 30
0.0
 11
1.420999999998571
 21
5.928345862231477
 31
0.0
  0
LINE
  5
D445
330
D43D
100
AcDbEntity
  8
0
  6
CONTINUOUS
100
AcDbLine
 10
-0.0000000000000003
 20
3.833826653152718
 30
0.0
 11
1.420999999998571
 21
5.25482665315129
 31
0.0
  0
LINE
  5
D446
330
D43D
100
AcDbEntity
  8
0
  6
CONTINUOUS
100
AcDbLine
 10
-0.0000000000000002
 20
3.160307444072532
 30
0.0
 11
1.420999999998571
 21
4.581307444071103
 31
0.0
  0
LINE
  5
D447
330
D43D
100
AcDbEntity
  8
0
  6
CONTINUOUS
100
AcDbLine
 10
-0.0000000000000001
 20
2.486788234992345
 30
0.0
 11
1.420999999998571
 21
3.907788234990917
 31
0.0
  0
LINE
  5
D448
330
D43D
100
AcDbEntity
  8
0
  6
CONTINUOUS
100
AcDbLine
 10
-0.0000000000000006
 20
1.813269025912159
 30
0.0
 11
1.420999999998571
 21
3.234269025910731
 31
0.0
  0
LINE
  5
D449
330
D43D
100
AcDbEntity
  8
0
  6
CONTINUOUS
100
AcDbLine
 10
0.0
 20
1.139749816831973
 30
0.0
 11
1.420999999998571
 21
2.560749816830544
 31
0.0
  0
LINE
  5
D44A
330
D43D
100
AcDbEntity
  8
0
  6
CONTINUOUS
100
AcDbLine
 10
0.0000000000000002
 20
0.466230607751787
 30
0.0
 11
1.420999999998571
 21
1.887230607750358
 31
0.0
  0
LINE
  5
D44B
330
D43D
100
AcDbEntity
  8
0
  6
CONTINUOUS
100
AcDbLine
 10
0.2072886013284003
 20
-0.0000000000000009
 30
0.0
 11
1.420999999998571
 21
1.213711398670171
 31
0.0
  0
LINE
  5
D44C
330
D43D
100
AcDbEntity
  8
0
  6
CONTINUOUS
100
AcDbLine
 10
0.8808078104085864
 20
-0.0000000000000009
 30
0.0
 11
1.420999999998571
 21
0.5401921895899839
 31
0.0
  0
LINE
  5
D44D
330
D43D
100
AcDbEntity
  8
0
  6
CONTINUOUS
100
AcDbLine
 10
0.0581249075061505
 20
-0.0000000000000009
 30
0.0
 11
-0.0000000000000002
 21
0.0581249075061496
 31
0.0
  0
LINE
  5
D44E
330
D43D
100
AcDbEntity
  8
0
  6
CONTINUOUS
100
AcDbLine
 10
0.7316441165863372
 20
-0.0000000000000009
 30
0.0
 11
-0.0000000000000002
 21
0.7316441165863363
 31
0.0
  0
LINE
  5
D44F
330
D43D
100
AcDbEntity
  8
0
  6
CONTINUOUS
100
AcDbLine
 10
1.405163325666523
 20
-0.0000000000000009
 30
0.0
 11
-0.0000000000000002
 21
1.405163325666523
 31
0.0
  0
LINE
  5
D450
330
D43D
100
AcDbEntity
  8
0
  6
CONTINUOUS
100
AcDbLine
 10
1.420999999998572
 20
0.6576825347481381
 30
0.0
 11
-0.0000000000000001
 21
2.07868253474671
 31
0.0
  0
LINE
  5
D451
330
D43D
100
AcDbEntity
  8
0
  6
CONTINUOUS
100
AcDbLine
 10
1.420999999998571
 20
1.331201743828324
 30
0.0
 11
-0.0000000000000001
 21
2.752201743826896
 31
0.0
  0
LINE
  5
D452
330
D43D
100
AcDbEntity
  8
0
  6
CONTINUOUS
100
AcDbLine
 10
1.420999999998571
 20
2.004720952908511
 30
0.0
 11
-0.0000000000000002
 21
3.425720952907082
 31
0.0
  0
LINE
  5
D453
330
D43D
100
AcDbEntity
  8
0
  6
CONTINUOUS
100
AcDbLine
 10
1.420999999998571
 20
2.678240161988697
 30
0.0
 11
-0.0000000000000001
 21
4.099240161987269
 31
0.0
  0
LINE
  5
D454
330
D43D
100
AcDbEntity
  8
0
  6
CONTINUOUS
100
AcDbLine
 10
1.420999999998572
 20
3.351759371068884
 30
0.0
 11
0.0
 21
4.772759371067455
 31
0.0
  0
LINE
  5
D455
330
D43D
100
AcDbEntity
  8
0
  6
CONTINUOUS
100
AcDbLine
 10
1.420999999998571
 20
4.02527858014907
 30
0.0
 11
-0.0000000000000003
 21
5.446278580147642
 31
0.0
  0
LINE
  5
D456
330
D43D
100
AcDbEntity
  8
0
  6
CONTINUOUS
100
AcDbLine
 10
1.420999999998571
 20
4.698797789229257
 30
0.0
 11
0.0
 21
6.119797789227828
 31
0.0
  0
LINE
  5
D457
330
D43D
100
AcDbEntity
  8
0
  6
CONTINUOUS
100
AcDbLine
 10
1.420999999998571
 20
5.372316998309444
 30
0.0
 11
-0.0000000000000001
 21
6.793316998308015
 31
0.0
  0
LINE
  5
D458
330
D43D
100
AcDbEntity
  8
0
  6
CONTINUOUS
100
AcDbLine
 10
1.420999999998572
 20
6.045836207389629
 30
0.0
 11
-0.0000000000000004
 21
7.466836207388202
 31
0.0
  0
LINE
  5
D459
330
D43D
100
AcDbEntity
  8
0
  6
CONTINUOUS
100
AcDbLine
 10
1.420999999998571
 20
6.719355416469816
 30
0.0
 11
0.0
 21
8.140355416468388
 31
0.0
  0
LINE
  5
D45A
330
D43D
100
AcDbEntity
  8
0
  6
CONTINUOUS
100
AcDbLine
 10
1.420999999998571
 20
7.392874625550003
 30
0.0
 11
0.0507746255573185
 21
8.763099999991255
 31
0.0
  0
LINE
  5
D45B
330
D43D
100
AcDbEntity
  8
0
  6
CONTINUOUS
100
AcDbLine
 10
1.420999999998571
 20
8.06639383463019
 30
0.0
 11
0.7242938346375052
 21
8.763099999991255
 31
0.0
  0
LINE
  5
D45C
330
D43D
100
AcDbEntity
  8
0
  6
CONTINUOUS
100
AcDbLine
 10
1.420999999998571
 20
8.739913043710375
 30
0.0
 11
1.397813043717691
 21
8.763099999991255
 31
0.0
  0
ENDBLK
  5
D468
330
D43D
100
AcDbEntity
  8
0
100
AcDbBlockEnd
  0
ENDSEC
  0
SECTION
  2
ENTITIES
  0
LINE
  5
C6C4
330
18
100
AcDbEntity
  8
1CENTER
100
AcDbLine
 10
5226.862416537846
 20
-382.7826158753385
 30
0.0
 11
5226.862416537846
 21
-275.7002403433273
 31
0.0
  0
LINE
  5
C6C8
330
18
100
AcDbEntity
  8
1CENTER
100
AcDbLine
 10
5190.324039898467
 20
-329.2414281093329
 30
0.0
 11
5263.400793177226
 21
-329.2414281093328
 31
0.0
  0
LINE
  5
C6C9
330
18
100
AcDbEntity
  8
01
100
AcDbLine
 10
5295.92139890367
 20
-279.2389281093329
 30
0.0
 11
5295.92139890367
 21
-379.2439281093328
 31
0.0
  0
LINE
  5
C6CA
330
18
100
AcDbEntity
  8
01
100
AcDbLine
 10
5292.92139890367
 20
-279.2389281093329
 30
0.0
 11
5292.92139890367
 21
-379.2439281093328
 31
0.0
  0
LINE
  5
C6CB
330
18
100
AcDbEntity
  8
01
100
AcDbLine
 10
5292.92139890367
 20
-279.2389281093329
 30
0.0
 11
5295.92139890367
 21
-279.2389281093329
 31
0.0
  0
LINE
  5
C6CC
330
18
100
AcDbEntity
  8
01
100
AcDbLine
 10
5292.92139890367
 20
-379.2439281093329
 30
0.0
 11
5295.92139890367
 21
-379.2439281093329
 31
0.0
  0
LINE
  5
C6CE
330
18
100
AcDbEntity
  8
1CENTER
100
AcDbLine
 10
5334.492681886965
 20
-284.7389281093324
 30
0.0
 11
5293.070708256959
 21
-284.7389281093324
 31
0.0
  0
LINE
  5
C6CF
330
18
100
AcDbEntity
  8
1CENTER
100
AcDbLine
 10
5334.492681886965
 20
-373.7439281093329
 30
0.0
 11
5293.070708256959
 21
-373.7439281093329
 31
0.0
  0
LINE
  5
C6D2
330
18
100
AcDbEntity
  8
01
100
AcDbLine
 10
5306.92139890367
 20
-280.7389281093324
 30
0.0
 11
5306.92139890367
 21
-288.7389281093324
 31
0.0
  0
LINE
  5
C6D3
330
18
100
AcDbEntity
  8
01
100
AcDbLine
 10
5331.571398903669
 20
-286.7389281093324
 30
0.0
 11
5306.92139890367
 21
-286.7389281093324
 31
0.0
  0
LINE
  5
C6D4
330
18
100
AcDbEntity
  8
01
100
AcDbLine
 10
5331.571398903669
 20
-286.7389281093324
 30
0.0
 11
5331.92139890367
 21
-286.3889281093324
 31
0.0
  0
LINE
  5
C6D5
330
18
100
AcDbEntity
  8
01
100
AcDbLine
 10
5331.92139890367
 20
-286.3889281093324
 30
0.0
 11
5331.92139890367
 21
-283.0889281093326
 31
0.0
  0
LINE
  5
C6D6
330
18
100
AcDbEntity
  8
01
100
AcDbLine
 10
5331.92139890367
 20
-283.0889281093326
 30
0.0
 11
5331.571398903669
 21
-282.7389281093324
 31
0.0
  0
LINE
  5
C6D7
330
18
100
AcDbEntity
  8
01
100
AcDbLine
 10
5331.571398903669
 20
-282.7389281093324
 30
0.0
 11
5306.92139890367
 21
-282.7389281093324
 31
0.0
  0
LINE
  5
C6D8
330
18
100
AcDbEntity
  8
01
100
AcDbLine
 10
5306.92139890367
 20
-280.7389281093324
 30
0.0
 11
5296.92139890367
 21
-280.7389281093324
 31
0.0
  0
LINE
  5
C6D9
330
18
100
AcDbEntity
  8
01
100
AcDbLine
 10
5306.92139890367
 20
-288.7389281093324
 30
0.0
 11
5296.92139890367
 21
-288.7389281093324
 31
0.0
  0
LINE
  5
C6DA
330
18
100
AcDbEntity
  8
1HATCH
100
AcDbLine
 10
5331.92139890367
 20
-286.3889281093324
 30
0.0
 11
5306.92139890367
 21
-286.3889281093324
 31
0.0
  0
LINE
  5
C6DB
330
18
100
AcDbEntity
  8
1HATCH
100
AcDbLine
 10
5331.92139890367
 20
-283.0889281093325
 30
0.0
 11
5306.92139890367
 21
-283.0889281093324
 31
0.0
  0
LINE
  5
C6DC
330
18
100
AcDbEntity
  8
1HATCH
100
AcDbLine
 10
5331.571398903669
 20
-286.7389281093324
 30
0.0
 11
5331.571398903669
 21
-282.7389281093324
 31
0.0
  0
LINE
  5
C6DD
330
18
100
AcDbEntity
  8
01
100
AcDbLine
 10
5306.92139890367
 20
-369.7439281093329
 30
0.0
 11
5306.92139890367
 21
-377.7439281093329
 31
0.0
  0
LINE
  5
C6DE
330
18
100
AcDbEntity
  8
01
100
AcDbLine
 10
5331.571398903669
 20
-375.7439281093329
 30
0.0
 11
5306.92139890367
 21
-375.7439281093329
 31
0.0
  0
LINE
  5
C6DF
330
18
100
AcDbEntity
  8
01
100
AcDbLine
 10
5331.571398903669
 20
-375.7439281093329
 30
0.0
 11
5331.92139890367
 21
-375.393928109333
 31
0.0
  0
LINE
  5
C6E0
330
18
100
AcDbEntity
  8
01
100
AcDbLine
 10
5331.92139890367
 20
-375.393928109333
 30
0.0
 11
5331.92139890367
 21
-372.093928109333
 31
0.0
  0
LINE
  5
C6E1
330
18
100
AcDbEntity
  8
01
100
AcDbLine
 10
5331.92139890367
 20
-372.093928109333
 30
0.0
 11
5331.571398903669
 21
-371.7439281093329
 31
0.0
  0
LINE
  5
C6E2
330
18
100
AcDbEntity
  8
01
100
AcDbLine
 10
5331.571398903669
 20
-371.7439281093329
 30
0.0
 11
5306.92139890367
 21
-371.7439281093329
 31
0.0
  0
LINE
  5
C6E3
330
18
100
AcDbEntity
  8
01
100
AcDbLine
 10
5306.92139890367
 20
-369.7439281093329
 30
0.0
 11
5296.92139890367
 21
-369.7439281093329
 31
0.0
  0
LINE
  5
C6E4
330
18
100
AcDbEntity
  8
01
100
AcDbLine
 10
5306.92139890367
 20
-377.7439281093329
 30
0.0
 11
5296.92139890367
 21
-377.7439281093329
 31
0.0
  0
LINE
  5
C6E5
330
18
100
AcDbEntity
  8
1HATCH
100
AcDbLine
 10
5331.92139890367
 20
-375.393928109333
 30
0.0
 11
5306.92139890367
 21
-375.393928109333
 31
0.0
  0
LINE
  5
C6E6
330
18
100
AcDbEntity
  8
1HATCH
100
AcDbLine
 10
5331.92139890367
 20
-372.093928109333
 30
0.0
 11
5306.92139890367
 21
-372.0939281093328
 31
0.0
  0
LINE
  5
C6E7
330
18
100
AcDbEntity
  8
1HATCH
100
AcDbLine
 10
5331.571398903669
 20
-375.7439281093329
 30
0.0
 11
5331.571398903669
 21
-371.7439281093329
 31
0.0
  0
TEXT
  5
C6ED
330
18
100
AcDbEntity
  8
1TEXT
100
AcDbText
 10
5098.857142857143
 20
-240.193819341614
 30
0.0
 40
8.0
  1
GP-N002-100-X-8
100
AcDbText
  0
TEXT
  5
C6EE
330
18
100
AcDbEntity
  8
1TEXT
100
AcDbText
 10
5108.22072052207
 20
-255.9094179548398
 30
0.0
 40
4.0
  1
表面処理
 72
     1
 11
5117.487387188737
 21
-255.9094179548398
 31
0.0
100
AcDbText
  0
LINE
  5
C6EF
330
18
100
AcDbEntity
  8
1DIM
100
AcDbLine
 10
5100.087387188737
 20
-250.4094179548398
 30
0.0
 11
5170.087387188737
 21
-250.4094179548398
 31
0.0
  0
LINE
  5
C6F0
330
18
100
AcDbEntity
  8
1DIM
100
AcDbLine
 10
5100.087387188737
 20
-264.4094179548398
 30
0.0
 11
5170.087387188737
 21
-264.4094179548398
 31
0.0
  0
LINE
  5
C6F1
330
18
100
AcDbEntity
  8
1DIM
100
AcDbLine
 10
5100.087387188737
 20
-257.4094179548398
 30
0.0
 11
5170.087387188737
 21
-257.4094179548398
 31
0.0
  0
LINE
  5
C6F2
330
18
100
AcDbEntity
  8
1DIM
100
AcDbLine
 10
5135.087387188737
 20
-250.4094179548398
 30
0.0
 11
5135.087387188737
 21
-264.4094179548398
 31
0.0
  0
TEXT
  5
C6F3
330
18
100
AcDbEntity
  8
1TEXT
100
AcDbText
 10
5137.813776077626
 20
-263.1237749384892
 30
0.0
 40
4.0
  1
GP-N002-100-XK-8
 41
0.5
 72
     1
 11
5152.487387188738
 21
-263.1237749384892
 31
0.0
100
AcDbText
  0
TEXT
  5
C6F4
330
18
100
AcDbEntity
  8
1TEXT
100
AcDbText
 10
5145.62072052207
 20
-255.9094179548398
 30
0.0
 40
4.0
  1
コード
 72
     1
 11
5152.487387188737
 21
-255.9094179548398
 31
0.0
100
AcDbText
  0
LINE
  5
C6F5
330
18
100
AcDbEntity
  8
1DIM
100
AcDbLine
 10
5100.087387188737
 20
-264.4094179548398
 30
0.0
 11
5100.087387188737
 21
-250.4094179548398
 31
0.0
  0
LINE
  5
C6F6
330
18
100
AcDbEntity
  8
1DIM
100
AcDbLine
 10
5170.087387188737
 20
-264.4094179548398
 30
0.0
 11
5170.087387188737
 21
-250.4094179548398
 31
0.0
  0
TEXT
  5
C6F9
330
18
100
AcDbEntity
  8
1TEXT
100
AcDbText
 10
5108.487387188737
 20
-262.7447066143642
 30
0.0
 40
4.0
  1
ブラック
 72
     1
 11
5117.487387188737
 21
-262.7447066143642
 31
0.0
100
AcDbText
  0
LINE
  5
C85A
330
18
100
AcDbEntity
  8
01
100
AcDbLine
 10
5296.92139890367
 20
-280.4053281093325
 30
0.0
 11
5296.92139890367
 21
-378.4103281093324
 31
0.0
  0
LINE
  5
C85B
330
18
100
AcDbEntity
  8
01
100
AcDbLine
 10
5295.92139890367
 20
-280.4053281093325
 30
0.0
 11
5295.92139890367
 21
-378.4103281093324
 31
0.0
  0
LINE
  5
C85C
330
18
100
AcDbEntity
  8
01
100
AcDbLine
 10
5295.92139890367
 20
-280.4053281093325
 30
0.0
 11
5296.92139890367
 21
-280.4053281093325
 31
0.0
  0
LINE
  5
C85D
330
18
100
AcDbEntity
  8
01
100
AcDbLine
 10
5295.92139890367
 20
-378.4103281093324
 30
0.0
 11
5296.92139890367
 21
-378.4103281093324
 31
0.0
  0
LINE
  5
C85E
330
18
100
AcDbEntity
  8
01
100
AcDbLine
 10
5296.92139890367
 20
-280.7389281093324
 30
0.0
 11
5296.92139890367
 21
-288.7389281093324
 31
0.0
  0
LINE
  5
C85F
330
18
100
AcDbEntity
  8
01
100
AcDbLine
 10
5296.92139890367
 20
-370.0767281093325
 30
0.0
 11
5296.92139890367
 21
-378.0767281093325
 31
0.0
  0
LINE
  5
CE6C
330
18
100
AcDbEntity
  8
1CENTER
100
AcDbLine
 10
5225.128996537846
 20
-284.7389281093329
 30
0.0
 11
5228.595836537845
 21
-284.7389281093329
 31
0.0
  0
LINE
  5
CE6D
330
18
100
AcDbEntity
  8
1CENTER
100
AcDbLine
 10
5226.862416537845
 20
-286.4723481093329
 30
0.0
 11
5226.862416537845
 21
-283.0055081093329
 31
0.0
  0
CIRCLE
  5
CE6E
330
18
100
AcDbEntity
  8
1HIDDEN
100
AcDbCircle
 10
5226.862416537845
 20
-284.7389281093329
 30
0.0
 40
2.0
  0
SPLINE
  5
CE6F
330
18
100
AcDbEntity
  8
01
100
AcDbSpline
210
0.0
220
0.0
230
1.0
 70
     8
 71
     3
 72
    17
 73
    13
 74
     0
 42
0.0000000001
 43
0.0000000001
 40
0.0
 40
0.0
 40
0.0
 40
0.0
 40
1.0
 40
1.0
 40
1.0
 40
2.0
 40
2.0
 40
2.0
 40
3.0
 40
3.0
 40
3.0
 40
4.0
 40
4.0
 40
4.0
 40
4.0
 10
5217.13849286597
 20
-313.8061131964096
 30
0.0
 10
5217.13849286597
 20
-315.966985123493
 30
0.0
 10
5218.06458083472
 20
-317.6648130662013
 30
0.0
 10
5219.91675677222
 20
-318.8995970245346
 30
0.0
 10
5221.76893270972
 20
-320.1343809828679
 30
0.0
 10
5224.084152631596
 20
-320.7517729620346
 30
0.0
 10
5226.862416537844
 20
-320.7517729620346
 30
0.0
 10
5230.103724428471
 20
-320.7517729620346
 30
0.0
 10
5232.650466342533
 20
-320.1343809828679
 30
0.0
 10
5234.502642280033
 20
-318.8995970245346
 30
0.0
 10
5235.891774233158
 20
-317.9735090557846
 30
0.0
 10
5236.58634020972
 20
-316.2756811130763
 30
0.0
 10
5236.58634020972
 20
-313.8061131964096
 30
0.0
  0
SPLINE
  5
CE70
330
18
100
AcDbEntity
  8
01
100
AcDbSpline
210
0.0
220
0.0
230
1.0
 70
     8
 71
     3
 72
    17
 73
    13
 74
     0
 42
0.0000000001
 43
0.0000000001
 40
5.0
 40
5.0
 40
5.0
 40
5.0
 40
6.0
 40
6.0
 40
6.0
 40
7.0
 40
7.0
 40
7.0
 40
8.0
 40
8.0
 40
8.0
 40
9.0
 40
9.0
 40
9.0
 40
9.0
 10
5236.58634020972
 20
-297.2976434999578
 30
0.0
 10
5236.58634020972
 20
-294.8280755832911
 30
0.0
 10
5235.891774233158
 20
-293.1302476405828
 30
0.0
 10
5234.502642280033
 20
-292.2041596718328
 30
0.0
 10
5232.650466342533
 20
-290.9693757134996
 30
0.0
 10
5230.103724428471
 20
-290.3519837343327
 30
0.0
 10
5226.862416537844
 20
-290.3519837343327
 30
0.0
 10
5224.084152631596
 20
-290.3519837343327
 30
0.0
 10
5221.76893270972
 20
-290.9693757134996
 30
0.0
 10
5219.91675677222
 20
-292.2041596718328
 30
0.0
 10
5218.06458083472
 20
-293.4389436301662
 30
0.0
 10
5217.13849286597
 20
-295.1367715728745
 30
0.0
 10
5217.13849286597
 20
-297.2976434999578
 30
0.0
  0
SPLINE
  5
CE71
330
18
100
AcDbEntity
  8
01
100
AcDbSpline
210
0.0
220
0.0
230
1.0
 70
     8
 71
     3
 72
    17
 73
    13
 74
     0
 42
0.0000000001
 43
0.0000000001
 40
0.0
 40
0.0
 40
0.0
 40
0.0
 40
1.0
 40
1.0
 40
1.0
 40
2.0
 40
2.0
 40
2.0
 40
3.0
 40
3.0
 40
3.0
 40
4.0
 40
4.0
 40
4.0
 40
4.0
 10
5216.443926889408
 20
-360.2591247499579
 30
0.0
 10
5216.443926889408
 20
-362.4199966770411
 30
0.0
 10
5217.370014858157
 20
-364.1178246197495
 30
0.0
 10
5219.222190795657
 20
-365.3526085780828
 30
0.0
 10
5221.074366733157
 20
-366.5873925364162
 30
0.0
 10
5223.621108647219
 20
-367.2047845155829
 30
0.0
 10
5226.862416537844
 20
-367.2047845155829
 30
0.0
 10
5230.103724428471
 20
-367.2047845155829
 30
0.0
 10
5232.650466342533
 20
-366.5873925364162
 30
0.0
 10
5234.502642280033
 20
-365.3526085780828
 30
0.0
 10
5236.354818217533
 20
-364.1178246197495
 30
0.0
 10
5237.280906186283
 20
-362.4199966770411
 30
0.0
 10
5237.280906186283
 20
-360.2591247499579
 30
0.0
  0
SPLINE
  5
CE72
330
18
100
AcDbEntity
  8
01
100
AcDbSpline
210
0.0
220
0.0
230
1.0
 70
     8
 71
     3
 72
     8
 73
     4
 74
     0
 42
0.0000000001
 43
0.0000000001
 40
5.0
 40
5.0
 40
5.0
 40
5.0
 40
6.0
 40
6.0
 40
6.0
 40
6.0
 10
5237.280906186283
 20
-339.2735323370347
 30
0.0
 10
5237.280906186283
 20
-337.4213563995347
 30
0.0
 10
5236.354818217533
 20
-335.7235284568264
 30
0.0
 10
5234.502642280033
 20
-334.1800485089096
 30
0.0
  0
SPLINE
  5
CE73
330
18
100
AcDbEntity
  8
01
100
AcDbSpline
210
0.0
220
0.0
230
1.0
 70
     8
 71
     3
 72
    14
 73
    10
 74
     0
 42
0.0000000001
 43
0.0000000001
 40
6.0
 40
6.0
 40
6.0
 40
6.0
 40
7.0
 40
7.0
 40
7.0
 40
8.0
 40
8.0
 40
8.0
 40
9.0
 40
9.0
 40
9.0
 40
9.0
 10
5234.502642280033
 20
-334.1800485089096
 30
0.0
 10
5233.113510326908
 20
-332.9452645505763
 30
0.0
 10
5230.566768412846
 20
-332.3278725714096
 30
0.0
 10
5226.862416537844
 20
-332.3278725714096
 30
0.0
 10
5223.621108647219
 20
-332.3278725714096
 30
0.0
 10
5221.074366733157
 20
-332.9452645505763
 30
0.0
 10
5219.222190795657
 20
-334.1800485089096
 30
0.0
 10
5217.370014858157
 20
-335.414832467243
 30
0.0
 10
5216.443926889408
 20
-337.1126604099513
 30
0.0
 10
5216.443926889408
 20
-339.2735323370347
 30
0.0
  0
SPLINE
  5
CE74
330
18
100
AcDbEntity
  8
01
100
AcDbSpline
210
0.0
220
0.0
230
1.0
 70
     8
 71
     3
 72
     8
 73
     4
 74
     0
 42
0.0000000001
 43
0.0000000001
 40
0.0
 40
0.0
 40
0.0
 40
0.0
 40
0.91326128866875
 40
0.91326128866875
 40
0.91326128866875
 40
0.91326128866875
 10
5254.645055600345
 20
-313.8061131964096
 30
0.0
 10
5254.645055600345
 20
-318.5987548497234
 30
0.0
 10
5252.327855198469
 20
-322.3615296577589
 30
0.0
 10
5247.693454394715
 20
-325.094437620516
 30
0.0
  0
SPLINE
  5
CE75
330
18
100
AcDbEntity
  8
01
100
AcDbSpline
210
0.0
220
0.0
230
1.0
 70
     8
 71
     3
 72
     8
 73
     4
 74
     0
 42
0.0000000001
 43
0.0000000001
 40
1.08246286421873
 40
1.08246286421873
 40
1.08246286421873
 40
1.08246286421873
 40
2.0
 40
2.0
 40
2.0
 40
2.0
 10
5247.738036525074
 20
-326.4971335560286
 30
0.0
 10
5252.805759892963
 20
-329.0666920270676
 30
0.0
 10
5255.339621576908
 20
-333.3254916207362
 30
0.0
 10
5255.339621576908
 20
-339.2735323370347
 30
0.0
  0
SPLINE
  5
CE76
330
18
100
AcDbEntity
  8
01
100
AcDbSpline
210
0.0
220
0.0
230
1.0
 70
     8
 71
     3
 72
    17
 73
    13
 74
     0
 42
0.0000000001
 43
0.0000000001
 40
3.0
 40
3.0
 40
3.0
 40
3.0
 40
4.0
 40
4.0
 40
4.0
 40
5.0
 40
5.0
 40
5.0
 40
6.0
 40
6.0
 40
6.0
 40
7.0
 40
7.0
 40
7.0
 40
7.0
 10
5255.339621576908
 20
-360.2591247499579
 30
0.0
 10
5255.339621576908
 20
-366.7417405312079
 30
0.0
 10
5253.024401655031
 20
-371.5265283697495
 30
0.0
 10
5248.393961811284
 20
-374.6134882655829
 30
0.0
 10
5243.763521967533
 20
-377.7004481614161
 30
0.0
 10
5236.58634020972
 20
-379.2439281093328
 30
0.0
 10
5226.862416537844
 20
-379.2439281093328
 30
0.0
 10
5217.13849286597
 20
-379.2439281093328
 30
0.0
 10
5209.961311108158
 20
-377.7004481614161
 30
0.0
 10
5205.330871264408
 20
-374.6134882655829
 30
0.0
 10
5200.700431420659
 20
-371.5265283697495
 30
0.0
 10
5198.385211498783
 20
-366.7417405312079
 30
0.0
 10
5198.385211498783
 20
-360.2591247499579
 30
0.0
  0
SPLINE
  5
CE77
330
18
100
AcDbEntity
  8
01
100
AcDbSpline
210
0.0
220
0.0
230
1.0
 70
     8
 71
     3
 72
     8
 73
     4
 74
     0
 42
0.0000000001
 43
0.0000000001
 40
8.0
 40
8.0
 40
8.0
 40
8.0
 40
8.917537135781181
 40
8.917537135781181
 40
8.917537135781181
 40
8.917537135781181
 10
5198.385211498783
 20
-339.2735323370347
 30
0.0
 10
5198.385211498783
 20
-333.3254916207366
 30
0.0
 10
5200.919073182728
 20
-329.0666920270683
 30
0.0
 10
5205.986796550616
 20
-326.4971335560297
 30
0.0
  0
SPLINE
  5
CE78
330
18
100
AcDbEntity
  8
01
100
AcDbSpline
210
0.0
220
0.0
230
1.0
 70
     8
 71
     3
 72
     8
 73
     4
 74
     0
 42
0.0000000001
 43
0.0000000001
 40
9.086738711332057
 40
9.086738711332057
 40
9.086738711332057
 40
9.086738711332057
 40
10.0
 40
10.0
 40
10.0
 40
10.0
 10
5206.031378680962
 20
-325.0944376205088
 30
0.0
 10
5201.396977877217
 20
-322.3615296577522
 30
0.0
 10
5199.079777475345
 20
-318.5987548497193
 30
0.0
 10
5199.079777475345
 20
-313.8061131964096
 30
0.0
  0
SPLINE
  5
CE79
330
18
100
AcDbEntity
  8
01
100
AcDbSpline
210
0.0
220
0.0
230
1.0
 70
     8
 71
     3
 72
    17
 73
    13
 74
     0
 42
0.0000000001
 43
0.0000000001
 40
11.0
 40
11.0
 40
11.0
 40
11.0
 40
12.0
 40
12.0
 40
12.0
 40
13.0
 40
13.0
 40
13.0
 40
14.0
 40
14.0
 40
14.0
 40
15.0
 40
15.0
 40
15.0
 40
15.0
 10
5199.079777475345
 20
-297.2976434999578
 30
0.0
 10
5199.079777475345
 20
-291.7411156874578
 30
0.0
 10
5201.626519389409
 20
-287.2650238384994
 30
0.0
 10
5206.720003217533
 20
-283.8693679530828
 30
0.0
 10
5211.350443061283
 20
-280.7824080572496
 30
0.0
 10
5218.06458083472
 20
-279.2389281093328
 30
0.0
 10
5226.862416537844
 20
-279.2389281093328
 30
0.0
 10
5235.66025224097
 20
-279.2389281093328
 30
0.0
 10
5242.374390014409
 20
-280.7824080572496
 30
0.0
 10
5247.004829858158
 20
-283.8693679530828
 30
0.0
 10
5252.098313686283
 20
-287.2650238384994
 30
0.0
 10
5254.645055600345
 20
-291.7411156874578
 30
0.0
 10
5254.645055600345
 20
-297.2976434999578
 30
0.0
  0
LINE
  5
CE7A
330
18
100
AcDbEntity
  8
01
100
AcDbLine
 10
5199.079777475346
 20
-297.2976434999578
 30
0.0
 11
5199.079777475346
 21
-313.8061131964097
 31
0.0
  0
LINE
  5
CE7B
330
18
100
AcDbEntity
  8
01
100
AcDbLine
 10
5217.13849286597
 20
-297.2976434999578
 30
0.0
 11
5217.13849286597
 21
-313.8061131964097
 31
0.0
  0
LINE
  5
CE7C
330
18
100
AcDbEntity
  8
01
100
AcDbLine
 10
5236.58634020972
 20
-297.2976434999578
 30
0.0
 11
5236.58634020972
 21
-313.8061131964097
 31
0.0
  0
LINE
  5
CE7D
330
18
100
AcDbEntity
  8
01
100
AcDbLine
 10
5254.645055600346
 20
-297.2976434999578
 30
0.0
 11
5254.645055600346
 21
-313.8061131964097
 31
0.0
  0
LINE
  5
CE7E
330
18
100
AcDbEntity
  8
01
100
AcDbLine
 10
5198.385211498783
 20
-339.2735323370347
 30
0.0
 11
5198.385211498783
 21
-360.259124749958
 31
0.0
  0
LINE
  5
CE7F
330
18
100
AcDbEntity
  8
01
100
AcDbLine
 10
5216.443926889408
 20
-339.2735323370346
 30
0.0
 11
5216.443926889408
 21
-360.2591247499579
 31
0.0
  0
LINE
  5
CE80
330
18
100
AcDbEntity
  8
01
100
AcDbLine
 10
5237.280906186283
 20
-339.2735323370347
 30
0.0
 11
5237.280906186283
 21
-360.259124749958
 31
0.0
  0
LINE
  5
CE81
330
18
100
AcDbEntity
  8
01
100
AcDbLine
 10
5255.339621576908
 20
-339.2735323370347
 30
0.0
 11
5255.339621576908
 21
-360.2591247499579
 31
0.0
  0
ARC
  5
CE82
330
18
100
AcDbEntity
  8
01
100
AcDbCircle
 10
5205.624992434061
 20
-325.7835778239009
 30
0.0
 40
0.8000400000000001
100
AcDbArc
 50
296.8870114884734
 51
59.47213057290727
  0
ARC
  5
CE83
330
18
100
AcDbEntity
  8
01
100
AcDbCircle
 10
5248.099840641624
 20
-325.7835778239042
 30
0.0
 40
0.8000400000000001
100
AcDbArc
 50
120.5278694276178
 51
243.1129885116778
  0
LINE
  5
CE85
330
18
100
AcDbEntity
  8
1CENTER
100
AcDbLine
 10
5225.128996537846
 20
-373.743928109333
 30
0.0
 11
5228.595836537845
 21
-373.743928109333
 31
0.0
  0
LINE
  5
CE86
330
18
100
AcDbEntity
  8
1CENTER
100
AcDbLine
 10
5226.862416537845
 20
-375.477348109333
 30
0.0
 11
5226.862416537845
 21
-372.0105081093329
 31
0.0
  0
CIRCLE
  5
CE87
330
18
100
AcDbEntity
  8
1HIDDEN
100
AcDbCircle
 10
5226.862416537845
 20
-373.743928109333
 30
0.0
 40
2.0
  0
TEXT
  5
D245
330
18
100
AcDbEntity
  8
01
  6
CONTINUOUS
100
AcDbText
 10
5248.854903421927
 20
-264.2385195582278
 30
0.0
 40
3.5
  1
材質：アクリル
100
AcDbText
1001
ACADANNOTATIVE
1000
AnnotativeData
1002
{
1070
     1
1070
     0
1002
}
  0
TEXT
  5
D246
330
18
100
AcDbEntity
  8
01
  6
CONTINUOUS
100
AcDbText
 10
5248.971570088594
 20
-270.0718528915612
 30
0.0
 40
3.5
  1
仕上げ：各種仕上げ
100
AcDbText
1001
ACADANNOTATIVE
1000
AnnotativeData
1002
{
1070
     1
1070
     0
1002
}
  0
LINE
  5
D247
330
18
100
AcDbEntity
  8
1DIM
100
AcDbLine
 10
5292.92139890367
 20
-379.2439281093329
 30
0.0
 11
5292.92139890367
 21
-396.0
 31
0.0
1001
ACAD
1000
DSTYLE
1002
{
1070
     3
1000
t=<>
1070
    40
1040
1.0
1070
   271
1070
     1
1002
}
  0
LINE
  5
D248
330
18
100
AcDbEntity
  8
1DIM
100
AcDbLine
 10
5295.92139890367
 20
-379.2439281093329
 30
0.0
 11
5295.92139890367
 21
-396.0
 31
0.0
1001
ACAD
1000
DSTYLE
1002
{
1070
     3
1000
t=<>
1070
    40
1040
1.0
1070
   271
1070
     1
1002
}
  0
LINE
  5
D249
330
18
100
AcDbEntity
  8
1DIM
100
AcDbLine
 10
5292.92139890367
 20
-395.0
 30
0.0
 11
5278.688065570336
 21
-395.0
 31
0.0
1001
ACAD
1000
DSTYLE
1002
{
1070
     3
1000
t=<>
1070
    40
1040
1.0
1070
   271
1070
     1
1002
}
  0
LINE
  5
D24A
330
18
100
AcDbEntity
  8
1DIM
100
AcDbLine
 10
5292.92139890367
 20
-395.0
 30
0.0
 11
5295.92139890367
 21
-395.0
 31
0.0
1001
ACAD
1000
DSTYLE
1002
{
1070
     3
1000
t=<>
1070
    40
1040
1.0
1070
   271
1070
     1
1002
}
  0
LINE
  5
D24B
330
18
100
AcDbEntity
  8
1DIM
100
AcDbLine
 10
5290.92139890367
 20
-395.0
 30
0.0
 11
5288.92139890367
 21
-395.0
 31
0.0
1001
ACAD
1000
DSTYLE
1002
{
1070
     3
1000
t=<>
1070
    40
1040
1.0
1070
   271
1070
     1
1002
}
  0
LINE
  5
D24C
330
18
100
AcDbEntity
  8
1DIM
100
AcDbLine
 10
5297.92139890367
 20
-395.0
 30
0.0
 11
5299.92139890367
 21
-395.0
 31
0.0
1001
ACAD
1000
DSTYLE
1002
{
1070
     3
1000
t=<>
1070
    40
1040
1.0
1070
   271
1070
     1
1002
}
  0
LINE
  5
D250
330
18
100
AcDbEntity
  8
1DIM
100
AcDbLine
 10
5296.92139890367
 20
-280.4053281093325
 30
0.0
 11
5296.92139890367
 21
-266.0393563292833
 31
0.0
1001
ACAD
1000
DSTYLE
1002
{
1070
    40
1040
1.0
1002
}
  0
LINE
  5
D251
330
18
100
AcDbEntity
  8
1DIM
100
AcDbLine
 10
5306.92139890367
 20
-280.7389281093324
 30
0.0
 11
5306.92139890367
 21
-266.0393563292833
 31
0.0
1001
ACAD
1000
DSTYLE
1002
{
1070
    40
1040
1.0
1002
}
  0
LINE
  5
D252
330
18
100
AcDbEntity
  8
1DIM
100
AcDbLine
 10
5298.92139890367
 20
-267.0393563292833
 30
0.0
 11
5304.92139890367
 21
-267.0393563292833
 31
0.0
1001
ACAD
1000
DSTYLE
1002
{
1070
    40
1040
1.0
1002
}
  0
LINE
  5
D256
330
18
100
AcDbEntity
  8
1DIM
100
AcDbLine
 10
5296.92139890367
 20
-280.4053281093325
 30
0.0
 11
5296.92139890367
 21
-254.7217532678092
 31
0.0
1001
ACAD
1000
DSTYLE
1002
{
1070
    40
1040
1.0
1002
}
  0
LINE
  5
D257
330
18
100
AcDbEntity
  8
1DIM
100
AcDbLine
 10
5331.92139890367
 20
-283.0889281093326
 30
0.0
 11
5331.92139890367
 21
-254.7217532678092
 31
0.0
1001
ACAD
1000
DSTYLE
1002
{
1070
    40
1040
1.0
1002
}
  0
LINE
  5
D258
330
18
100
AcDbEntity
  8
1DIM
100
AcDbLine
 10
5298.92139890367
 20
-255.7217532678092
 30
0.0
 11
5329.92139890367
 21
-255.7217532678092
 31
0.0
1001
ACAD
1000
DSTYLE
1002
{
1070
    40
1040
1.0
1002
}
  0
TEXT
  5
D25C
330
18
100
AcDbEntity
  8
1DIM
  6
CONTINUOUS
100
AcDbText
 10
5322.407938210274
 20
-304.984295294176
 30
0.0
 40
3.5
  1
M4スタッド
100
AcDbText
  0
SOLID
  5
D25D
330
18
100
AcDbEntity
  8
1DIM
100
AcDbTrace
 10
5316.715150863985
 20
-289.1250938913187
 30
0.0
 11
5316.727633426826
 21
-287.0975448051716
 31
0.0
 12
5317.373409084511
 22
-289.0195450421782
 32
0.0
 13
5317.373409084511
 23
-289.0195450421782
 33
0.0
  0
LINE
  5
D25E
330
18
100
AcDbEntity
  8
1DIM
100
AcDbLine
 10
5317.044279974248
 20
-289.0723194667485
 30
0.0
 11
5319.707938210274
 21
-305.684295294176
 31
0.0
  0
LINE
  5
D25F
330
18
100
AcDbEntity
  8
1DIM
100
AcDbLine
 10
5319.707938210274
 20
-305.684295294176
 30
0.0
 11
5344.707938210274
 21
-305.684295294176
 31
0.0
  0
LINE
  5
D260
330
18
100
AcDbEntity
  8
1DIM
100
AcDbLine
 10
5306.92139890367
 20
-280.7389281093324
 30
0.0
 11
5306.92139890367
 21
-266.0393563292833
 31
0.0
  0
LINE
  5
D261
330
18
100
AcDbEntity
  8
1DIM
100
AcDbLine
 10
5331.92139890367
 20
-283.0889281093325
 30
0.0
 11
5331.92139890367
 21
-266.0393563292833
 31
0.0
  0
LINE
  5
D262
330
18
100
AcDbEntity
  8
1DIM
100
AcDbLine
 10
5308.92139890367
 20
-267.0393563292833
 30
0.0
 11
5329.92139890367
 21
-267.0393563292833
 31
0.0
  0
SOLID
  5
D266
330
18
100
AcDbEntity
  8
1DIM
100
AcDbTrace
 10
5241.17108307725
 20
-283.9389964145744
 30
0.0
 11
5239.882407942655
 21
-285.5043805554766
 31
0.0
 12
5240.59373280806
 22
-283.6056630812411
 32
0.0
 13
5240.59373280806
 23
-283.6056630812411
 33
0.0
1001
ACAD
1000
DSTYLE
1002
{
1070
    45
1040
0.5
1002
}
  0
LINE
  5
D267
330
18
100
AcDbEntity
  8
1DIM
100
AcDbLine
 10
5240.882407942655
 20
-283.7723297479077
 30
0.0
 11
5248.388236755261
 21
-270.7718528915611
 31
0.0
1001
ACAD
1000
DSTYLE
1002
{
1070
    45
1040
0.5
1002
}
  0
TEXT
  5
D268
330
18
100
AcDbEntity
  8
1DIM
  6
CONTINUOUS
100
AcDbText
 10
5312.030299786205
 20
-313.5992420712477
 30
0.0
 40
3.5
  1
樹脂スペーサー
100
AcDbText
  0
TEXT
  5
D269
330
18
100
AcDbEntity
  8
1DIM
  6
CONTINUOUS
100
AcDbText
 10
5309.230299786204
 20
-319.432575404581
 30
0.0
 40
3.5
  1
（内径φ4.3、
100
AcDbText
  0
TEXT
  5
D26A
330
18
100
AcDbEntity
  8
1DIM
  6
CONTINUOUS
100
AcDbText
 10
5312.030299786205
 20
-325.382575404581
 30
0.0
 40
3.5
  1
外径φ8、高さ10）
100
AcDbText
  0
SOLID
  5
D26B
330
18
100
AcDbEntity
  8
1DIM
100
AcDbTrace
 10
5301.409574639491
 20
-290.7347370236442
 30
0.0
 11
5301.316161487322
 21
-288.7093024791297
 31
0.0
 12
5302.061422970028
 22
-290.5949579178316
 32
0.0
 13
5302.061422970028
 23
-290.5949579178316
 33
0.0
  0
LINE
  5
D26C
330
18
100
AcDbEntity
  8
1DIM
100
AcDbLine
 10
5301.735498804759
 20
-290.6648474707379
 30
0.0
 11
5309.330299786205
 21
-326.082575404581
 31
0.0
  0
LINE
  5
D26D
330
18
100
AcDbEntity
  8
1DIM
100
AcDbLine
 10
5309.330299786205
 20
-326.082575404581
 30
0.0
 11
5348.046966452871
 21
-326.082575404581
 31
0.0
  0
LINE
  5
D26E
330
18
100
AcDbEntity
  8
1DIM
100
AcDbLine
 10
5295.92139890367
 20
-279.2389281093329
 30
0.0
 11
5295.92139890367
 21
-266.0393563292833
 31
0.0
  0
LINE
  5
D26F
330
18
100
AcDbEntity
  8
1DIM
100
AcDbLine
 10
5296.92139890367
 20
-280.4053281093325
 30
0.0
 11
5296.92139890367
 21
-266.0393563292833
 31
0.0
  0
LINE
  5
D270
330
18
100
AcDbEntity
  8
1DIM
100
AcDbLine
 10
5295.92139890367
 20
-267.0393563292833
 30
0.0
 11
5289.688065570336
 21
-267.0393563292833
 31
0.0
  0
LINE
  5
D271
330
18
100
AcDbEntity
  8
1DIM
100
AcDbLine
 10
5295.92139890367
 20
-267.0393563292833
 30
0.0
 11
5296.92139890367
 21
-267.0393563292833
 31
0.0
  0
LINE
  5
D272
330
18
100
AcDbEntity
  8
1DIM
100
AcDbLine
 10
5293.92139890367
 20
-267.0393563292833
 30
0.0
 11
5291.92139890367
 21
-267.0393563292833
 31
0.0
  0
LINE
  5
D273
330
18
100
AcDbEntity
  8
1DIM
100
AcDbLine
 10
5298.92139890367
 20
-267.0393563292833
 30
0.0
 11
5300.92139890367
 21
-267.0393563292833
 31
0.0
  0
TEXT
  5
D277
330
18
100
AcDbEntity
  8
1DIM
  6
CONTINUOUS
100
AcDbText
 10
5310.920502881049
 20
-340.403041594092
 30
0.0
 40
3.5
  1
材質：ステンレス
100
AcDbText
1001
ACADANNOTATIVE
1000
AnnotativeData
1002
{
1070
     1
1070
     0
1002
}
  0
SOLID
  5
D278
330
18
100
AcDbEntity
  8
1DIM
100
AcDbTrace
 10
5297.97676817193
 20
-329.4872612455918
 30
0.0
 11
5296.92139890367
 21
-327.755988067054
 31
0.0
 12
5298.481215188306
 22
-329.0513969867758
 32
0.0
 13
5298.481215188306
 23
-329.0513969867758
 33
0.0
  0
LINE
  5
D279
330
18
100
AcDbEntity
  8
1DIM
100
AcDbLine
 10
5298.228991680117
 20
-329.2693291161838
 30
0.0
 11
5308.453836214383
 21
-341.103041594092
 31
0.0
  0
LINE
  5
D27A
330
18
100
AcDbEntity
  8
1DIM
100
AcDbLine
 10
5308.453836214383
 20
-341.103041594092
 30
0.0
 11
5343.470502881049
 21
-341.103041594092
 31
0.0
  0
LINE
  5
D27B
330
18
100
AcDbEntity
  8
1DIM
100
AcDbLine
 10
5197.497187109097
 20
-279.2389281093329
 30
0.0
 11
5169.243502573957
 21
-279.2389281093329
 31
0.0
1001
ACAD
1000
DSTYLE
1002
{
1070
    40
1040
1.0
1070
   271
1070
     0
1002
}
  0
LINE
  5
D27C
330
18
100
AcDbEntity
  8
1DIM
100
AcDbLine
 10
5197.497187109097
 20
-379.243928109333
 30
0.0
 11
5169.243502573957
 21
-379.243928109333
 31
0.0
1001
ACAD
1000
DSTYLE
1002
{
1070
    40
1040
1.0
1070
   271
1070
     0
1002
}
  0
LINE
  5
D27D
330
18
100
AcDbEntity
  8
1DIM
100
AcDbLine
 10
5170.243502573957
 20
-281.2389281093329
 30
0.0
 11
5170.243502573957
 21
-377.243928109333
 31
0.0
1001
ACAD
1000
DSTYLE
1002
{
1070
    40
1040
1.0
1070
   271
1070
     0
1002
}
  0
LINE
  5
D281
330
18
100
AcDbEntity
  8
1DIM
100
AcDbLine
 10
5225.128996537846
 20
-373.743928109333
 30
0.0
 11
5179.873736345025
 21
-373.743928109333
 31
0.0
1001
ACAD
1000
DSTYLE
1002
{
1070
    70
1070
     0
1070
    69
1070
     0
1070
    40
1040
1.0
1070
   271
1070
     0
1002
}
  0
LINE
  5
D282
330
18
100
AcDbEntity
  8
1DIM
100
AcDbLine
 10
5225.128996537846
 20
-284.7389281093329
 30
0.0
 11
5179.873736345025
 21
-284.7389281093329
 31
0.0
1001
ACAD
1000
DSTYLE
1002
{
1070
    70
1070
     0
1070
    69
1070
     0
1070
    40
1040
1.0
1070
   271
1070
     0
1002
}
  0
LINE
  5
D283
330
18
100
AcDbEntity
  8
1DIM
100
AcDbLine
 10
5180.873736345025
 20
-371.743928109333
 30
0.0
 11
5180.873736345025
 21
-286.7389281093329
 31
0.0
1001
ACAD
1000
DSTYLE
1002
{
1070
    70
1070
     0
1070
    69
1070
     0
1070
    40
1040
1.0
1070
   271
1070
     0
1002
}
  0
LINE
  5
D287
330
18
100
AcDbEntity
  8
1DIM
100
AcDbLine
 10
5198.385211498783
 20
-360.259124749958
 30
0.0
 11
5198.385211498783
 21
-396.0
 31
0.0
1001
ACAD
1000
DSTYLE
1002
{
1070
    40
1040
1.0
1070
   271
1070
     0
1002
}
  0
LINE
  5
D288
330
18
100
AcDbEntity
  8
1DIM
100
AcDbLine
 10
5255.339621576908
 20
-360.2591247499579
 30
0.0
 11
5255.339621576908
 21
-396.0
 31
0.0
1001
ACAD
1000
DSTYLE
1002
{
1070
    40
1040
1.0
1070
   271
1070
     0
1002
}
  0
LINE
  5
D289
330
18
100
AcDbEntity
  8
1DIM
100
AcDbLine
 10
5200.385211498783
 20
-395.0
 30
0.0
 11
5253.339621576908
 21
-395.0
 31
0.0
1001
ACAD
1000
DSTYLE
1002
{
1070
    40
1040
1.0
1070
   271
1070
     0
1002
}
  0
TEXT
  5
D28D
330
18
100
AcDbEntity
  8
1TEXT
  6
CONTINUOUS
100
AcDbText
 10
5097.232391368919
 20
-423.1957537876793
 30
0.0
 40
2.4
  1
●ご使用方法
100
AcDbText
1001
ACADANNOTATIVE
1000
AnnotativeData
1002
{
1070
     1
1070
     0
1002
}
  0
TEXT
  5
D28E
330
18
100
AcDbEntity
  8
1TEXT
  6
CONTINUOUS
100
AcDbText
 10
5097.462791368919
 20
-427.3661537876793
 30
0.0
 40
2.4
  1
 ①ファイルはダウンロードし、Adobe Acrobat Readerをご使用ください。
100
AcDbText
1001
ACADANNOTATIVE
1000
AnnotativeData
1002
{
1070
     1
1070
     0
1002
}
  0
TEXT
  5
D28F
330
18
100
AcDbEntity
  8
1TEXT
  6
CONTINUOUS
100
AcDbText
 10
5097.462791368919
 20
-431.4741537876793
 30
0.0
 40
2.4
  1
　 ※ブラウザ等をご使用いただくと等倍されないことがあります。
100
AcDbText
1001
ACADANNOTATIVE
1000
AnnotativeData
1002
{
1070
     1
1070
     0
1002
}
  0
TEXT
  5
D290
330
18
100
AcDbEntity
  8
1TEXT
  6
CONTINUOUS
100
AcDbText
 10
5097.462791368919
 20
-435.6445537876792
 30
0.0
 40
2.4
  1
 ②印刷設定をＡ3サイズ・等倍（100％）に設定しプリントアウトしてください。
100
AcDbText
1001
ACADANNOTATIVE
1000
AnnotativeData
1002
{
1070
     1
1070
     0
1002
}
  0
TEXT
  5
D291
330
18
100
AcDbEntity
  8
1TEXT
  6
CONTINUOUS
100
AcDbText
 10
5097.462791368919
 20
-439.8149537876792
 30
0.0
 40
2.4
  1
 ③寸法が正確に出力されているかご確認ください。
100
AcDbText
1001
ACADANNOTATIVE
1000
AnnotativeData
1002
{
1070
     1
1070
     0
1002
}
  0
TEXT
  5
D292
330
18
100
AcDbEntity
  8
1TEXT
  6
CONTINUOUS
100
AcDbText
 10
5097.462791368919
 20
-443.9853537876792
 30
0.0
 40
2.4
  1
 ④取付け穴の位置出しとしてご使用ください。
100
AcDbText
1001
ACADANNOTATIVE
1000
AnnotativeData
1002
{
1070
     1
1070
     0
1002
}
  0
TEXT
  5
D293
330
18
100
AcDbEntity
  8
1TEXT
  6
CONTINUOUS
100
AcDbText
 10
5093.519171611638
 20
-413.1681783775661
 30
0.0
 40
3.0
  1
ルームナンバーGP-N002取付位置合わせ用の型紙としてご使用いただけます
100
AcDbText
1001
ACADANNOTATIVE
1000
AnnotativeData
1002
{
1070
     1
1070
     0
1002
}
  0
LINE
  5
D294
330
18
100
AcDbEntity
  8
0
  6
BYBLOCK
100
AcDbLine
 10
5290.92139890367
 20
-394.46410162
 30
0.0
 11
5292.92139890367
 21
-395.0
 31
0.0
  0
LINE
  5
D295
330
18
100
AcDbEntity
  8
0
  6
BYBLOCK
100
AcDbLine
 10
5292.92139890367
 20
-395.0
 30
0.0
 11
5290.92139890367
 21
-395.53589838
 31
0.0
  0
LINE
  5
D296
330
18
100
AcDbEntity
  8
0
  6
BYBLOCK
100
AcDbLine
 10
5292.92139890367
 20
-395.0
 30
0.0
 11
5290.92139890367
 21
-395.0
 31
0.0
  0
LINE
  5
D297
330
18
100
AcDbEntity
  8
0
  6
BYBLOCK
100
AcDbLine
 10
5297.92139890367
 20
-395.53589838
 30
0.0
 11
5295.92139890367
 21
-395.0
 31
0.0
  0
LINE
  5
D298
330
18
100
AcDbEntity
  8
0
  6
BYBLOCK
100
AcDbLine
 10
5295.92139890367
 20
-395.0
 30
0.0
 11
5297.92139890367
 21
-394.46410162
 31
0.0
  0
LINE
  5
D299
330
18
100
AcDbEntity
  8
0
  6
BYBLOCK
100
AcDbLine
 10
5295.92139890367
 20
-395.0
 30
0.0
 11
5297.92139890367
 21
-395.0
 31
0.0
  0
TEXT
  5
D29A
330
18
100
AcDbEntity
  8
1DIM
  6
CONTINUOUS
100
AcDbText
 10
5279.138065570336
 20
-394.3
 30
0.0
 40
3.5
  1
t=3
100
AcDbText
1001
ACAD
1000
DSTYLE
1002
{
1070
     3
1000
t=<>
1070
    40
1040
1.0
1070
   271
1070
     1
1002
}
  0
LINE
  5
D29B
330
18
100
AcDbEntity
  8
0
  6
BYBLOCK
100
AcDbLine
 10
5298.92139890367
 20
-267.5752547092833
 30
0.0
 11
5296.92139890367
 21
-267.0393563292833
 31
0.0
  0
LINE
  5
D29C
330
18
100
AcDbEntity
  8
0
  6
BYBLOCK
100
AcDbLine
 10
5296.92139890367
 20
-267.0393563292833
 30
0.0
 11
5298.92139890367
 21
-266.5034579492833
 31
0.0
  0
LINE
  5
D29D
330
18
100
AcDbEntity
  8
0
  6
BYBLOCK
100
AcDbLine
 10
5296.92139890367
 20
-267.0393563292833
 30
0.0
 11
5298.92139890367
 21
-267.0393563292833
 31
0.0
  0
LINE
  5
D29E
330
18
100
AcDbEntity
  8
0
  6
BYBLOCK
100
AcDbLine
 10
5304.92139890367
 20
-266.5034579492833
 30
0.0
 11
5306.92139890367
 21
-267.0393563292833
 31
0.0
  0
LINE
  5
D29F
330
18
100
AcDbEntity
  8
0
  6
BYBLOCK
100
AcDbLine
 10
5306.92139890367
 20
-267.0393563292833
 30
0.0
 11
5304.92139890367
 21
-267.5752547092833
 31
0.0
  0
LINE
  5
D2A0
330
18
100
AcDbEntity
  8
0
  6
BYBLOCK
100
AcDbLine
 10
5306.92139890367
 20
-267.0393563292833
 30
0.0
 11
5304.92139890367
 21
-267.0393563292833
 31
0.0
  0
TEXT
  5
D2A1
330
18
100
AcDbEntity
  8
1DIM
  6
CONTINUOUS
100
AcDbText
 10
5299.906182610066
 20
-266.3393563292833
 30
0.0
 40
3.5
  1
10
100
AcDbText
1001
ACAD
1000
DSTYLE
1002
{
1070
    40
1040
1.0
1002
}
  0
LINE
  5
D2A2
330
18
100
AcDbEntity
  8
0
  6
BYBLOCK
100
AcDbLine
 10
5298.92139890367
 20
-256.2576516478092
 30
0.0
 11
5296.92139890367
 21
-255.7217532678092
 31
0.0
  0
LINE
  5
D2A3
330
18
100
AcDbEntity
  8
0
  6
BYBLOCK
100
AcDbLine
 10
5296.92139890367
 20
-255.7217532678092
 30
0.0
 11
5298.92139890367
 21
-255.1858548878092
 31
0.0
  0
LINE
  5
D2A4
330
18
100
AcDbEntity
  8
0
  6
BYBLOCK
100
AcDbLine
 10
5296.92139890367
 20
-255.7217532678092
 30
0.0
 11
5298.92139890367
 21
-255.7217532678092
 31
0.0
  0
LINE
  5
D2A5
330
18
100
AcDbEntity
  8
0
  6
BYBLOCK
100
AcDbLine
 10
5329.92139890367
 20
-255.1858548878092
 30
0.0
 11
5331.92139890367
 21
-255.7217532678092
 31
0.0
  0
LINE
  5
D2A6
330
18
100
AcDbEntity
  8
0
  6
BYBLOCK
100
AcDbLine
 10
5331.92139890367
 20
-255.7217532678092
 30
0.0
 11
5329.92139890367
 21
-256.2576516478092
 31
0.0
  0
LINE
  5
D2A7
330
18
100
AcDbEntity
  8
0
  6
BYBLOCK
100
AcDbLine
 10
5331.92139890367
 20
-255.7217532678092
 30
0.0
 11
5329.92139890367
 21
-255.7217532678092
 31
0.0
  0
TEXT
  5
D2A8
330
18
100
AcDbEntity
  8
1DIM
  6
CONTINUOUS
100
AcDbText
 10
5311.504732237003
 20
-255.0217532678092
 30
0.0
 40
3.5
  1
35
100
AcDbText
1001
ACAD
1000
DSTYLE
1002
{
1070
    40
1040
1.0
1002
}
  0
LINE
  5
D2A9
330
18
100
AcDbEntity
  8
0
  6
BYBLOCK
100
AcDbLine
 10
5308.92139890367
 20
-267.5752547092833
 30
0.0
 11
5306.92139890367
 21
-267.0393563292833
 31
0.0
  0
LINE
  5
D2AA
330
18
100
AcDbEntity
  8
0
  6
BYBLOCK
100
AcDbLine
 10
5306.92139890367
 20
-267.0393563292833
 30
0.0
 11
5308.92139890367
 21
-266.5034579492833
 31
0.0
  0
LINE
  5
D2AB
330
18
100
AcDbEntity
  8
0
  6
BYBLOCK
100
AcDbLine
 10
5306.92139890367
 20
-267.0393563292833
 30
0.0
 11
5308.92139890367
 21
-267.0393563292833
 31
0.0
  0
LINE
  5
D2AC
330
18
100
AcDbEntity
  8
0
  6
BYBLOCK
100
AcDbLine
 10
5329.92139890367
 20
-266.5034579492833
 30
0.0
 11
5331.92139890367
 21
-267.0393563292833
 31
0.0
  0
LINE
  5
D2AD
330
18
100
AcDbEntity
  8
0
  6
BYBLOCK
100
AcDbLine
 10
5331.92139890367
 20
-267.0393563292833
 30
0.0
 11
5329.92139890367
 21
-267.5752547092833
 31
0.0
  0
LINE
  5
D2AE
330
18
100
AcDbEntity
  8
0
  6
BYBLOCK
100
AcDbLine
 10
5331.92139890367
 20
-267.0393563292833
 30
0.0
 11
5329.92139890367
 21
-267.0393563292833
 31
0.0
  0
TEXT
  5
D2AF
330
18
100
AcDbEntity
  8
1DIM
  6
CONTINUOUS
100
AcDbText
 10
5316.504732237003
 20
-266.3393563292832
 30
0.0
 40
3.5
  1
25
100
AcDbText
  0
LINE
  5
D2B0
330
18
100
AcDbEntity
  8
0
  6
BYBLOCK
100
AcDbLine
 10
5293.92139890367
 20
-266.5034579492833
 30
0.0
 11
5295.92139890367
 21
-267.0393563292833
 31
0.0
  0
LINE
  5
D2B1
330
18
100
AcDbEntity
  8
0
  6
BYBLOCK
100
AcDbLine
 10
5295.92139890367
 20
-267.0393563292833
 30
0.0
 11
5293.92139890367
 21
-267.5752547092833
 31
0.0
  0
LINE
  5
D2B2
330
18
100
AcDbEntity
  8
0
  6
BYBLOCK
100
AcDbLine
 10
5295.92139890367
 20
-267.0393563292833
 30
0.0
 11
5293.92139890367
 21
-267.0393563292833
 31
0.0
  0
LINE
  5
D2B3
330
18
100
AcDbEntity
  8
0
  6
BYBLOCK
100
AcDbLine
 10
5298.92139890367
 20
-267.5752547092833
 30
0.0
 11
5296.92139890367
 21
-267.0393563292833
 31
0.0
  0
LINE
  5
D2B4
330
18
100
AcDbEntity
  8
0
  6
BYBLOCK
100
AcDbLine
 10
5296.92139890367
 20
-267.0393563292833
 30
0.0
 11
5298.92139890367
 21
-266.5034579492833
 31
0.0
  0
LINE
  5
D2B5
330
18
100
AcDbEntity
  8
0
  6
BYBLOCK
100
AcDbLine
 10
5296.92139890367
 20
-267.0393563292833
 30
0.0
 11
5298.92139890367
 21
-267.0393563292833
 31
0.0
  0
TEXT
  5
D2B6
330
18
100
AcDbEntity
  8
1DIM
  6
CONTINUOUS
100
AcDbText
 10
5290.22139890367
 20
-266.3393563292833
 30
0.0
 40
3.5
  1
1
100
AcDbText
  0
LINE
  5
D2B7
330
18
100
AcDbEntity
  8
0
  6
BYBLOCK
100
AcDbLine
 10
5169.707604193957
 20
-281.2389281093329
 30
0.0
 11
5170.243502573957
 21
-279.2389281093329
 31
0.0
  0
LINE
  5
D2B8
330
18
100
AcDbEntity
  8
0
  6
BYBLOCK
100
AcDbLine
 10
5170.243502573957
 20
-279.2389281093329
 30
0.0
 11
5170.779400953957
 21
-281.2389281093329
 31
0.0
  0
LINE
  5
D2B9
330
18
100
AcDbEntity
  8
0
  6
BYBLOCK
100
AcDbLine
 10
5170.243502573957
 20
-279.2389281093329
 30
0.0
 11
5170.243502573957
 21
-281.2389281093329
 31
0.0
  0
LINE
  5
D2BA
330
18
100
AcDbEntity
  8
0
  6
BYBLOCK
100
AcDbLine
 10
5170.779400953957
 20
-377.243928109333
 30
0.0
 11
5170.243502573957
 21
-379.243928109333
 31
0.0
  0
LINE
  5
D2BB
330
18
100
AcDbEntity
  8
0
  6
BYBLOCK
100
AcDbLine
 10
5170.243502573957
 20
-379.243928109333
 30
0.0
 11
5169.707604193957
 21
-377.243928109333
 31
0.0
  0
LINE
  5
D2BC
330
18
100
AcDbEntity
  8
0
  6
BYBLOCK
100
AcDbLine
 10
5170.243502573957
 20
-379.243928109333
 30
0.0
 11
5170.243502573957
 21
-377.243928109333
 31
0.0
  0
TEXT
  5
D2BD
330
18
100
AcDbEntity
  8
1DIM
  6
CONTINUOUS
100
AcDbText
 10
5169.543502573957
 20
-332.8143447760003
 30
0.0
 40
3.5
  1
100
 50
90.0
100
AcDbText
1001
ACAD
1000
DSTYLE
1002
{
1070
    40
1040
1.0
1070
   271
1070
     0
1002
}
  0
LINE
  5
D2BE
330
18
100
AcDbEntity
  8
0
  6
BYBLOCK
100
AcDbLine
 10
5181.409634725024
 20
-371.743928109333
 30
0.0
 11
5180.873736345025
 21
-373.743928109333
 31
0.0
  0
LINE
  5
D2BF
330
18
100
AcDbEntity
  8
0
  6
BYBLOCK
100
AcDbLine
 10
5180.873736345025
 20
-373.743928109333
 30
0.0
 11
5180.337837965025
 21
-371.743928109333
 31
0.0
  0
LINE
  5
D2C0
330
18
100
AcDbEntity
  8
0
  6
BYBLOCK
100
AcDbLine
 10
5180.873736345025
 20
-373.743928109333
 30
0.0
 11
5180.873736345025
 21
-371.743928109333
 31
0.0
  0
LINE
  5
D2C1
330
18
100
AcDbEntity
  8
0
  6
BYBLOCK
100
AcDbLine
 10
5180.337837965025
 20
-286.7389281093329
 30
0.0
 11
5180.873736345025
 21
-284.7389281093329
 31
0.0
  0
LINE
  5
D2C2
330
18
100
AcDbEntity
  8
0
  6
BYBLOCK
100
AcDbLine
 10
5180.873736345025
 20
-284.7389281093329
 30
0.0
 11
5181.409634725024
 21
-286.7389281093329
 31
0.0
  0
LINE
  5
D2C3
330
18
100
AcDbEntity
  8
0
  6
BYBLOCK
100
AcDbLine
 10
5180.873736345025
 20
-284.7389281093329
 30
0.0
 11
5180.873736345025
 21
-286.7389281093329
 31
0.0
  0
TEXT
  5
D2C4
330
18
100
AcDbEntity
  8
1DIM
  6
CONTINUOUS
100
AcDbText
 10
5180.173736345025
 20
-333.9089049611848
 30
0.0
 40
3.5
  1
P89
 50
90.0
100
AcDbText
1001
ACAD
1000
DSTYLE
1002
{
1070
    70
1070
     0
1070
    69
1070
     0
1070
    40
1040
1.0
1070
   271
1070
     0
1002
}
  0
LINE
  5
D2C5
330
18
100
AcDbEntity
  8
0
  6
BYBLOCK
100
AcDbLine
 10
5200.385211498783
 20
-395.53589838
 30
0.0
 11
5198.385211498783
 21
-395.0
 31
0.0
  0
LINE
  5
D2C6
330
18
100
AcDbEntity
  8
0
  6
BYBLOCK
100
AcDbLine
 10
5198.385211498783
 20
-395.0
 30
0.0
 11
5200.385211498783
 21
-394.46410162
 31
0.0
  0
LINE
  5
D2C7
330
18
100
AcDbEntity
  8
0
  6
BYBLOCK
100
AcDbLine
 10
5198.385211498783
 20
-395.0
 30
0.0
 11
5200.385211498783
 21
-395.0
 31
0.0
  0
LINE
  5
D2C8
330
18
100
AcDbEntity
  8
0
  6
BYBLOCK
100
AcDbLine
 10
5253.339621576908
 20
-394.46410162
 30
0.0
 11
5255.339621576908
 21
-395.0
 31
0.0
  0
LINE
  5
D2C9
330
18
100
AcDbEntity
  8
0
  6
BYBLOCK
100
AcDbLine
 10
5255.339621576908
 20
-395.0
 30
0.0
 11
5253.339621576908
 21
-395.53589838
 31
0.0
  0
LINE
  5
D2CA
330
18
100
AcDbEntity
  8
0
  6
BYBLOCK
100
AcDbLine
 10
5255.339621576908
 20
-395.0
 30
0.0
 11
5253.339621576908
 21
-395.0
 31
0.0
  0
TEXT
  5
D2CB
330
18
100
AcDbEntity
  8
1DIM
  6
CONTINUOUS
100
AcDbText
 10
5223.933597093402
 20
-394.3
 30
0.0
 40
3.5
  1
57
100
AcDbText
1001
ACAD
1000
DSTYLE
1002
{
1070
    40
1040
1.0
1070
   271
1070
     0
1002
}
  0
VIEWPORT
  5
57
330
15
100
AcDbEntity
 67
     1
  8
0
100
AcDbViewport
 68
     1
 10
0.0
 20
0.0
 30
0.0
 40
547.8363136176066
 41
297.0
 68
     1
 69
     1
1001
ACAD
1000
MVIEW
1002
{
1070
    16
1010
0.0
1020
0.0
1030
0.0
1010
0.0
1020
0.0
1030
1.0
1040
0.0
1040
297.0
1040
5.728000000000009
1040
25.33899999999998
1040
50.0
1040
0.0
1040
0.0
1070
    16
1070
   100
1070
     0
1070
     1
1070
     0
1070
     0
1070
     0
1070
     0
1040
0.0
1040
0.0
1040
0.0
1040
10.0
1040
10.0
1040
10.0
1040
10.0
1070
     0
1002
{
1002
}
1002
}
  0
ENDSEC
  0
SECTION
  2
OBJECTS
  0
DICTIONARY
  5
C
330
0
100
AcDbDictionary
  3
ACAD_CIP_PREVIOUS_PRODUCT_INFO
350
AF9C
  3
ACAD_COLOR
350
18D
  3
ACAD_GROUP
350
D
  3
ACAD_LAYOUT
350
18E
  3
ACAD_MATERIAL
350
18C
  3
ACAD_MLEADERSTYLE
350
9583
  3
ACAD_MLINESTYLE
350
1B
  3
ACAD_PLOTSETTINGS
350
18F
  3
ACAD_SCALELIST
350
9561
  3
ACAD_VISUALSTYLE
350
9550
  3
ACDBHEADERROUNDTRIPXREC
350
D2CC
  3
ACDBVARIABLEDICTIONARY
350
37
  3
AEC_PROPERTY_SET_DEFS
350
ADE0
  3
CONTENTDICTIONARY
350
D8
  3
DRAWINGVARIABLESDICT
350
20
  3
DWGPROPS
350
D2CF
1001
ACAD
1000
TREAT_AS_HARD
1070
     0
  0
DICTIONARY
  5
96D9
330
2
100
AcDbDictionary
  3
ACAD_LAYERSTATES
360
96DA
1001
ACAD
1000
TREAT_AS_HARD
1070
     1
  0
DICTIONARY
  5
9593
330
E
100
AcDbDictionary
  3
ADSK_XREC_LAYER_RECONCILED
360
9594
1001
ACAD
1000
TREAT_AS_HARD
1070
     1
  0
DICTIONARY
  5
9595
330
29
100
AcDbDictionary
  3
ADSK_XREC_LAYER_RECONCILED
360
9596
1001
ACAD
1000
TREAT_AS_HARD
1070
     1
  0
DICTIONARY
  5
9597
330
31
100
AcDbDictionary
  3
ADSK_XREC_LAYER_RECONCILED
360
9598
1001
ACAD
1000
TREAT_AS_HARD
1070
     1
  0
DICTIONARY
  5
959D
330
243
100
AcDbDictionary
  3
ADSK_XREC_LAYER_RECONCILED
360
959E
1001
ACAD
1000
TREAT_AS_HARD
1070
     1
  0
DICTIONARY
  5
95A3
330
24E
100
AcDbDictionary
  3
ADSK_XREC_LAYER_RECONCILED
360
95A4
1001
ACAD
1000
TREAT_AS_HARD
1070
     1
  0
DICTIONARY
  5
95A5
330
252
100
AcDbDictionary
  3
ADSK_XREC_LAYER_RECONCILED
360
95A6
1001
ACAD
1000
TREAT_AS_HARD
1070
     1
  0
DICTIONARY
  5
95AF
330
2C05
100
AcDbDictionary
  3
ADSK_XREC_LAYER_RECONCILED
360
95B0
1001
ACAD
1000
TREAT_AS_HARD
1070
     1
  0
DICTIONARY
  5
88F
330
18
100
AcDbDictionary
  3
ACAD_SORTENTS
360
890
1001
ACAD
1000
TREAT_AS_HARD
1070
     1
  0
DICTIONARY
  5
B8CB
330
B8CA
100
AcDbDictionary
  3
ACAD_SORTENTS
360
B8CC
1001
ACAD
1000
TREAT_AS_HARD
1070
     1
  0
DICTIONARY
  5
BA77
330
BA76
100
AcDbDictionary
  3
ACAD_SORTENTS
360
BA78
1001
ACAD
1000
TREAT_AS_HARD
1070
     1
  0
XRECORD
  5
AF9C
102
{ACAD_REACTORS
330
C
102
}
330
C
100
AcDbXrecord
300
ACDLT
300
2012
300
ACDLT_F_S
  0
DICTIONARY
  5
18D
102
{ACAD_REACTORS
330
C
102
}
330
C
100
AcDbDictionary
1001
ACAD
1000
TREAT_AS_HARD
1070
     0
  0
DICTIONARY
  5
D
102
{ACAD_REACTORS
330
C
102
}
330
C
100
AcDbDictionary
1001
ACAD
1000
TREAT_AS_HARD
1070
     0
  0
DICTIONARY
  5
18E
102
{ACAD_REACTORS
330
C
102
}
330
C
100
AcDbDictionary
1001
ACAD
1000
TREAT_AS_HARD
1070
     0
  0
DICTIONARY
  5
18C
102
{ACAD_REACTORS
330
C
102
}
330
C
100
AcDbDictionary
  3
BYBLOCK
350
9540
  3
BYLAYER
350
9538
  3
GLOBAL
350
9548
1001
ACAD
1000
TREAT_AS_HARD
1070
     0
  0
DICTIONARY
  5
9583
102
{ACAD_REACTORS
330
C
102
}
330
C
100
AcDbDictionary
  3
BALLOON3
350
B8C9
  3
BALLOONA
350
C104
  3
BALLOONS005
350
C0F7
  3
BALLOONS01
350
C0EE
  3
BALLOONS02
350
C0F4
  3
BALLOONS03
350
C0F6
  3
BALLOONS05
350
C0F8
  3
BALLOONS07
350
C0F5
  3
BALLOONS1
350
C0E6
  3
BALLOONS10
350
C0F3
  3
BALLOONS100
350
C0FF
  3
BALLOONS13
350
C101
  3
BALLOONS15
350
C102
  3
BALLOONS2
350
C0EF
  3
BALLOONS20
350
C0FC
  3
BALLOONS200
350
C100
  3
BALLOONS25
350
C0FD
  3
BALLOONS3
350
C0F1
  3
BALLOONS30
350
C0FA
  3
BALLOONS4
350
C0F2
  3
BALLOONS40
350
C0FB
  3
BALLOONS5
350
C0F0
  3
BALLOONS50
350
C0F9
  3
BALLOONS500
350
C0FE
  3
BALLOONS7
350
C103
  3
LEADERMULTI
350
C105
  3
LEADERMULTIA
350
C11D
  3
LEADERMULTIS005
350
C117
  3
LEADERMULTIS01
350
C118
  3
LEADERMULTIS02
350
C119
  3
LEADERMULTIS03
350
C11A
  3
LEADERMULTIS05
350
C11B
  3
LEADERMULTIS07
350
C11C
  3
LEADERMULTIS1
350
C10A
  3
LEADERMULTIS10
350
C10C
  3
LEADERMULTIS100
350
C10D
  3
LEADERMULTIS13
350
C10E
  3
LEADERMULTIS15
350
C10F
  3
LEADERMULTIS2
350
C106
  3
LEADERMULTIS20
350
C110
  3
LEADERMULTIS200
350
C111
  3
LEADERMULTIS25
350
C112
  3
LEADERMULTIS3
350
C107
  3
LEADERMULTIS30
350
C113
  3
LEADERMULTIS4
350
C108
  3
LEADERMULTIS40
350
C114
  3
LEADERMULTIS5
350
C109
  3
LEADERMULTIS50
350
C115
  3
LEADERMULTIS500
350
C116
  3
LEADERMULTIS7
350
C10B
  3
STANDARD
350
9584
1001
ACAD
1000
TREAT_AS_HARD
1070
     0
  0
DICTIONARY
  5
1B
102
{ACAD_REACTORS
330
C
102
}
330
C
100
AcDbDictionary
  3
STANDARD
350
1C
1001
ACAD
1000
TREAT_AS_HARD
1070
     0
  0
DICTIONARY
  5
18F
102
{ACAD_REACTORS
330
C
102
}
330
C
100
AcDbDictionary
1001
ACAD
1000
TREAT_AS_HARD
1070
     0
  0
DICTIONARY
  5
9561
102
{ACAD_REACTORS
330
C
102
}
330
C
100
AcDbDictionary
  3
*A1
350
C147
  3
*A10
350
C150
  3
*A11
350
C151
  3
*A12
350
C152
  3
*A13
350
C153
  3
*A14
350
C154
  3
*A15
350
C155
  3
*A16
350
C156
  3
*A2
350
C148
  3
*A3
350
C149
  3
*A4
350
C14A
  3
*A5
350
C14B
  3
*A6
350
C14C
  3
*A7
350
C14D
  3
*A8
350
C14E
  3
*A9
350
C14F
  3
A0
350
9562
  3
A1
350
9563
  3
A2
350
9564
  3
A3
350
9565
  3
A4
350
9566
  3
A5
350
9567
  3
A6
350
9568
  3
A7
350
9569
  3
A8
350
956A
  3
A9
350
956B
  3
B0
350
956C
  3
B1
350
956D
  3
B2
350
956E
  3
B3
350
956F
  3
B4
350
9570
  3
B5
350
9571
  3
B6
350
9572
  3
B7
350
9573
  3
B8
350
9574
  3
B9
350
9575
  3
C0
350
9576
  3
C1
350
9577
  3
C2
350
9578
  3
C3
350
9579
  3
C4
350
957A
  3
C5
350
957B
  3
C6
350
957C
  3
C7
350
957D
  3
C8
350
957E
  3
C9
350
957F
  3
D0
350
9580
  3
D1
350
9581
  3
D2
350
9582
1001
ACAD
1000
TREAT_AS_HARD
1070
     0
  0
DICTIONARY
  5
9550
102
{ACAD_REACTORS
330
C
102
}
330
C
100
AcDbDictionary
  3
2DWIREFRAME
350
9556
  3
3D_HIDDEN
350
9558
  3
3DWIREFRAME
350
9557
  3
BASIC
350
9555
  3
BRIGHTEN
350
955C
  3
COLORCHANGE
350
9560
  3
CONCEPTUAL
350
9559
  3
DIM
350
955B
  3
EDGECOLOROFF
350
A211
  3
FACEPATTERN
350
955F
  3
FLAT
350
9551
  3
FLATWITHEDGES
350
9552
  3
GOURAUD
350
9553
  3
GOURAUDWITHEDGES
350
9554
  3
HIDDEN
350
A260
  3
JITTEROFF
350
A20F
  3
LINEPATTERN
350
955E
  3
MODELING
350
A266
  3
OVERHANGOFF
350
A210
  3
REALISTIC
350
955A
  3
SHADED
350
A265
  3
SHADED_WITH_EDGES
350
A264
  3
SHADES_OF_GRAY
350
A261
  3
SKETCHY
350
A262
  3
THICKEN
350
955D
  3
WIREFRAME
350
A25F
  3
X-RAY
350
A263
1001
ACAD
1000
TREAT_AS_HARD
1070
     0
  0
DICTIONARY
  5
D2CC
102
{ACAD_REACTORS
330
C
102
}
330
C
100
AcDbDictionary
  3
COLORDICT
350
D2CD
  3
MATERIALDICT
350
D2CE
1001
ACAD
1000
TREAT_AS_HARD
1070
     0
  0
DICTIONARY
  5
37
102
{ACAD_REACTORS
330
C
102
}
330
C
100
AcDbDictionary
  3
CANNOSCALE
350
AF43
  3
CMLEADERSTYLE
350
9627
  3
CTABLESTYLE
350
29E
  3
DIMADEC
350
38
  3
DIMASSOC
350
1CE
  3
HIDETEXT
350
704E
  3
INDEXCTL
350
962A
  3
INTERSECTIONCOLOR
350
7052
  3
INTERSECTIONDISPLAY
350
7051
  3
MSLTSCALE
350
AB30
  3
OBSCOLOR
350
704F
  3
OBSLTYPE
350
7050
  3
PROJECTNAME
350
1CF
  3
SORTENTS
350
9629
  3
XCLIPFRAME
350
B84C
1001
ACAD
1000
TREAT_AS_HARD
1070
     0
  0
DICTIONARY
  5
ADE0
102
{ACAD_REACTORS
330
C
102
}
330
C
100
AcDbDictionary
1001
ACAD
1000
TREAT_AS_HARD
1070
     0
  0
DICTIONARY
  5
D8
102
{ACAD_REACTORS
330
C
102
}
330
C
100
AcDbDictionary
1001
ACAD
1000
TREAT_AS_HARD
1070
     0
  0
DICTIONARY
  5
20
102
{ACAD_REACTORS
330
C
102
}
330
C
100
AcDbDictionary
1001
DRAWINGVARIABLESXDATA
1000
POLARANG
1000
0.261799387799149410000000
1000
POLARMODE
1000
1
1000
POLARSTYLE
1000
1
1001
ACAD
1000
TREAT_AS_HARD
1070
     0
  0
XRECORD
  5
D2CF
102
{ACAD_REACTORS
330
C
102
}
330
C
100
AcDbXrecord
  1
DWGPROPS COOKIE
  2

  3

  4

  6

  7

  8
619
  9

300
=
301
=
302
=
303
=
304
=
305
=
306
=
307
=
308
=
309
=
 40
0.0
 41
2451318.246352917
 42
2459640.282543287
  1

 90
        0
  0
DICTIONARY
  5
96DA
102
{ACAD_REACTORS
330
96D9
102
}
330
96D9
100
AcDbDictionary
  3
_LAYISO_STATE
350
C26F
1001
ACAD
1000
TREAT_AS_HARD
1070
     0
  0
ACAD_PROXY_OBJECT
  5
9594
102
{ACAD_REACTORS
330
9593
102
}
330
9593
100
AcDbZombieObject
 90
      499
 91
      519
 93
       34
310
40C8804040
  0
ACAD_PROXY_OBJECT
  5
9596
102
{ACAD_REACTORS
330
9595
102
}
330
9595
100
AcDbZombieObject
 90
      499
 91
      519
 93
       34
310
40C8804040
  0
ACAD_PROXY_OBJECT
  5
9598
102
{ACAD_REACTORS
330
9597
102
}
330
9597
100
AcDbZombieObject
 90
      499
 91
      519
 93
       34
310
40C8804040
  0
ACAD_PROXY_OBJECT
  5
959E
102
{ACAD_REACTORS
330
959D
102
}
330
959D
100
AcDbZombieObject
 90
      499
 91
      519
 93
       34
310
40C8804040
  0
ACAD_PROXY_OBJECT
  5
95A4
102
{ACAD_REACTORS
330
95A3
102
}
330
95A3
100
AcDbZombieObject
 90
      499
 91
      519
 93
       34
310
40C8804040
  0
ACAD_PROXY_OBJECT
  5
95A6
102
{ACAD_REACTORS
330
95A5
102
}
330
95A5
100
AcDbZombieObject
 90
      499
 91
      519
 93
       34
310
40C8804040
  0
ACAD_PROXY_OBJECT
  5
95B0
102
{ACAD_REACTORS
330
95AF
102
}
330
95AF
100
AcDbZombieObject
 90
      499
 91
      519
 93
       34
310
40C8804040
  0
SORTENTSTABLE
  5
890
102
{ACAD_REACTORS
330
88F
102
}
330
88F
100
AcDbSortentsTable
330
18
331
C6CE
  5
C6E3
331
C6CF
  5
C6E7
331
C6D2
  5
CE6F
331
C6D3
  5
CE70
331
C6D4
  5
CE71
331
C6D5
  5
CE72
331
C6D6
  5
CE73
331
C6D7
  5
CE74
331
C6D8
  5
CE75
331
C6D9
  5
CE76
331
C6DA
  5
CE7A
331
C6DB
  5
CE7B
331
C6DC
  5
CE7C
331
C6DD
  5
CE7D
331
C6DE
  5
CE7E
331
C6DF
  5
CE7F
331
C6E0
  5
CE80
331
C6E1
  5
CE81
331
C6E2
  5
CE82
331
C6E3
  5
CE83
331
C6E4
  5
CE84
331
C6E5
  5
CE85
331
C6E6
  5
CE87
331
C6E7
  5
D042
331
0
  5
C6EE
331
C6ED
  5
D258
331
C6EE
  5
D25C
331
C6EF
  5
D25D
331
C6F0
  5
D25E
331
C6F1
  5
D25F
331
C6F2
  5
D260
331
C6F3
  5
D261
331
C6F4
  5
D262
331
C6F5
  5
D266
331
C6F6
  5
D267
331
0
  5
C6F9
331
0
  5
C85A
331
C6F9
  5
D271
331
C85A
  5
D272
331
C85B
  5
D273
331
C85C
  5
D274
331
C85D
  5
D275
331
C85E
  5
D276
331
C85F
  5
D277
331
0
  5
C888
331
0
  5
CE68
331
0
  5
CE6A
331
0
  5
CE6C
331
0
  5
CE6D
331
CE6C
  5
D2A0
331
CE6D
  5
D2A1
331
CE6E
  5
D2A2
331
CE6F
  5
D2A3
331
CE70
  5
D2A4
331
CE71
  5
D2A5
331
CE72
  5
D2A6
331
CE73
  5
D2A7
331
CE74
  5
D2A8
331
CE75
  5
D2A9
331
CE76
  5
D2AA
331
CE77
  5
D2AB
331
CE78
  5
D2AC
331
CE79
  5
D2AD
331
CE7A
  5
D2AE
331
CE7B
  5
D2AF
331
CE7C
  5
D2B0
331
CE7D
  5
D2B1
331
CE7E
  5
D2B2
331
CE7F
  5
D2B3
331
CE80
  5
D2B4
331
CE81
  5
D2B5
331
CE82
  5
D2B6
331
CE83
  5
D2B7
331
0
  5
CE86
331
CE85
  5
D2C2
331
CE86
  5
D2C3
331
CE87
  5
D2C4
331
0
  5
D245
331
0
  5
D246
331
D245
  5
D254
331
D246
  5
D255
331
D247
  5
C6CE
331
D248
  5
C6CF
331
D249
  5
C6D2
331
D24A
  5
C6D3
331
D24B
  5
C6D4
331
D24C
  5
C6D5
331
0
  5
C6D6
331
0
  5
C6D7
331
0
  5
C6D8
331
D250
  5
C6EC
331
D251
  5
C6ED
331
D252
  5
C6EF
331
0
  5
C6DE
331
0
  5
C6DF
331
0
  5
C6E0
331
D256
  5
C6F7
331
D257
  5
C6F8
331
D258
  5
C85B
331
0
  5
C6E4
331
0
  5
C6E5
331
0
  5
C6E6
331
D25C
  5
D046
331
D25D
  5
D247
331
D25E
  5
D248
331
D25F
  5
D249
331
D260
  5
D24A
331
D261
  5
D24B
331
D262
  5
D24C
331
0
  5
CE77
331
0
  5
CE78
331
0
  5
CE79
331
D266
  5
D256
331
D267
  5
D257
331
D269
  5
D26C
331
D26A
  5
D26D
331
D26B
  5
D26E
331
D26C
  5
D26F
331
D26D
  5
D270
331
D26E
  5
D278
331
D26F
  5
D279
331
D270
  5
D27A
331
D271
  5
D27B
331
D272
  5
D27C
331
D273
  5
D27D
331
0
  5
D259
331
0
  5
D25A
331
0
  5
D25B
331
D277
  5
D285
331
D278
  5
D286
331
D279
  5
D28A
331
D27A
  5
D28B
331
D27B
  5
D28C
331
D27C
  5
D28D
331
D27D
  5
D28E
331
0
  5
D263
331
0
  5
D264
331
0
  5
D265
331
D281
  5
D296
331
D282
  5
D297
331
D283
  5
D298
331
0
  5
D269
331
0
  5
D26A
331
0
  5
D26B
331
D287
  5
D2B8
331
D288
  5
D2B9
331
D289
  5
D2BA
331
0
  5
D287
331
0
  5
D288
331
0
  5
D289
331
D28D
  5
D2C5
331
D28E
  5
D2C6
331
D28F
  5
D2C7
331
D290
  5
D2C8
331
D291
  5
D2C9
331
D292
  5
D2CA
331
D293
  5
D2CB
331
D294
  5
C6D9
331
D295
  5
C6DA
331
D296
  5
C6DB
331
D297
  5
C6DC
331
D298
  5
C6DD
331
D299
  5
C6E1
331
D29A
  5
C6E2
331
D29B
  5
C6F0
331
D29C
  5
C6F1
331
D29D
  5
C6F2
331
D29E
  5
C6F3
331
D29F
  5
C6F4
331
D2A0
  5
C6F5
331
D2A1
  5
C6F6
331
D2A2
  5
C85C
331
D2A3
  5
C85D
331
D2A4
  5
C85E
331
D2A5
  5
C85F
331
D2A6
  5
C877
331
D2A7
  5
C887
331
D2A8
  5
CE6E
331
D2A9
  5
D24D
331
D2AA
  5
D24E
331
D2AB
  5
D24F
331
D2AC
  5
D250
331
D2AD
  5
D251
331
D2AE
  5
D252
331
D2AF
  5
D253
331
D2B0
  5
D27E
331
D2B1
  5
D27F
331
D2B2
  5
D280
331
D2B3
  5
D281
331
D2B4
  5
D282
331
D2B5
  5
D283
331
D2B6
  5
D284
331
D2B7
  5
D28F
331
D2B8
  5
D290
331
D2B9
  5
D291
331
D2BA
  5
D292
331
D2BB
  5
D293
331
D2BC
  5
D294
331
D2BD
  5
D295
331
D2BE
  5
D299
331
D2BF
  5
D29A
331
D2C0
  5
D29B
331
D2C1
  5
D29C
331
D2C2
  5
D29D
331
D2C3
  5
D29E
331
D2C4
  5
D29F
331
D2C5
  5
D2BB
331
D2C6
  5
D2BC
331
D2C7
  5
D2BD
331
D2C8
  5
D2BE
331
D2C9
  5
D2BF
331
D2CA
  5
D2C0
331
D2CB
  5
D2C1
  0
SORTENTSTABLE
  5
B8CC
102
{ACAD_REACTORS
330
B8CB
102
}
330
B8CB
100
AcDbSortentsTable
330
B8CA
331
B8CE
  5
B8CF
331
B8CF
  5
B8CE
  0
SORTENTSTABLE
  5
BA78
102
{ACAD_REACTORS
330
BA77
102
}
330
BA77
100
AcDbSortentsTable
330
BA76
331
BA7A
  5
BA7B
331
BA7B
  5
BA7A
  0
MATERIAL
  5
9540
102
{ACAD_REACTORS
330
18C
102
}
102
{ACAD_XDICTIONARY
360
D469
102
}
330
18C
100
AcDbMaterial
  1
BYBLOCK
 72
     0
 73
     2
 43
0.0208333333333333
 43
0.0
 43
0.0
 43
0.0
 43
0.0
 43
0.0208333333333333
 43
0.0
 43
0.0
 43
0.0
 43
0.0
 43
1.0
 43
0.0
 43
0.0
 43
0.0
 43
0.0
 43
1.0
 77
     0
 78
     2
 47
0.0208333333333333
 47
0.0
 47
0.0
 47
0.0
 47
0.0
 47
0.0208333333333333
 47
0.0
 47
0.0
 47
0.0
 47
0.0
 47
1.0
 47
0.0
 47
0.0
 47
0.0
 47
0.0
 47
1.0
171
     0
172
     2
 49
0.0208333333333333
 49
0.0
 49
0.0
 49
0.0
 49
0.0
 49
0.0208333333333333
 49
0.0
 49
0.0
 49
0.0
 49
0.0
 49
1.0
 49
0.0
 49
0.0
 49
0.0
 49
0.0
 49
1.0
175
     0
176
     2
142
0.0208333333333333
142
0.0
142
0.0
142
0.0
142
0.0
142
0.0208333333333333
142
0.0
142
0.0
142
0.0
142
0.0
142
1.0
142
0.0
142
0.0
142
0.0
142
0.0
142
1.0
179
     0
270
     2
144
0.0208333333333333
144
0.0
144
0.0
144
0.0
144
0.0
144
0.0208333333333333
144
0.0
144
0.0
144
0.0
144
0.0
144
1.0
144
0.0
144
0.0
144
0.0
144
0.0
144
1.0
274
     2
147
0.0208333333333333
147
0.0
147
0.0
147
0.0
147
0.0
147
0.0208333333333333
147
0.0
147
0.0
147
0.0
147
0.0
147
1.0
147
0.0
147
0.0
147
0.0
147
0.0
147
1.0
  0
MATERIAL
  5
9538
102
{ACAD_REACTORS
330
18C
102
}
102
{ACAD_XDICTIONARY
360
D46B
102
}
330
18C
100
AcDbMaterial
  1
BYLAYER
 72
     0
 73
     2
 43
0.0208333333333333
 43
0.0
 43
0.0
 43
0.0
 43
0.0
 43
0.0208333333333333
 43
0.0
 43
0.0
 43
0.0
 43
0.0
 43
1.0
 43
0.0
 43
0.0
 43
0.0
 43
0.0
 43
1.0
 77
     0
 78
     2
 47
0.0208333333333333
 47
0.0
 47
0.0
 47
0.0
 47
0.0
 47
0.0208333333333333
 47
0.0
 47
0.0
 47
0.0
 47
0.0
 47
1.0
 47
0.0
 47
0.0
 47
0.0
 47
0.0
 47
1.0
171
     0
172
     2
 49
0.0208333333333333
 49
0.0
 49
0.0
 49
0.0
 49
0.0
 49
0.0208333333333333
 49
0.0
 49
0.0
 49
0.0
 49
0.0
 49
1.0
 49
0.0
 49
0.0
 49
0.0
 49
0.0
 49
1.0
175
     0
176
     2
142
0.0208333333333333
142
0.0
142
0.0
142
0.0
142
0.0
142
0.0208333333333333
142
0.0
142
0.0
142
0.0
142
0.0
142
1.0
142
0.0
142
0.0
142
0.0
142
0.0
142
1.0
179
     0
270
     2
144
0.0208333333333333
144
0.0
144
0.0
144
0.0
144
0.0
144
0.0208333333333333
144
0.0
144
0.0
144
0.0
144
0.0
144
1.0
144
0.0
144
0.0
144
0.0
144
0.0
144
1.0
274
     2
147
0.0208333333333333
147
0.0
147
0.0
147
0.0
147
0.0
147
0.0208333333333333
147
0.0
147
0.0
147
0.0
147
0.0
147
1.0
147
0.0
147
0.0
147
0.0
147
0.0
147
1.0
  0
MATERIAL
  5
9548
102
{ACAD_REACTORS
330
18C
102
}
102
{ACAD_XDICTIONARY
360
D46D
102
}
330
18C
100
AcDbMaterial
  1
GLOBAL
 72
     0
 73
     2
 43
0.0208333333333333
 43
0.0
 43
0.0
 43
0.0
 43
0.0
 43
0.0208333333333333
 43
0.0
 43
0.0
 43
0.0
 43
0.0
 43
1.0
 43
0.0
 43
0.0
 43
0.0
 43
0.0
 43
1.0
 77
     0
 78
     2
 47
0.0208333333333333
 47
0.0
 47
0.0
 47
0.0
 47
0.0
 47
0.0208333333333333
 47
0.0
 47
0.0
 47
0.0
 47
0.0
 47
1.0
 47
0.0
 47
0.0
 47
0.0
 47
0.0
 47
1.0
171
     0
172
     2
 49
0.0208333333333333
 49
0.0
 49
0.0
 49
0.0
 49
0.0
 49
0.0208333333333333
 49
0.0
 49
0.0
 49
0.0
 49
0.0
 49
1.0
 49
0.0
 49
0.0
 49
0.0
 49
0.0
 49
1.0
175
     0
176
     2
142
0.0208333333333333
142
0.0
142
0.0
142
0.0
142
0.0
142
0.0208333333333333
142
0.0
142
0.0
142
0.0
142
0.0
142
1.0
142
0.0
142
0.0
142
0.0
142
0.0
142
1.0
179
     0
270
     2
144
0.0208333333333333
144
0.0
144
0.0
144
0.0
144
0.0
144
0.0208333333333333
144
0.0
144
0.0
144
0.0
144
0.0
144
1.0
144
0.0
144
0.0
144
0.0
144
0.0
144
1.0
274
     2
147
0.0208333333333333
147
0.0
147
0.0
147
0.0
147
0.0
147
0.0208333333333333
147
0.0
147
0.0
147
0.0
147
0.0
147
1.0
147
0.0
147
0.0
147
0.0
147
0.0
147
1.0
  0
ACAD_PROXY_OBJECT
  5
B8C9
102
{ACAD_REACTORS
330
9583
102
}
330
9583
100
AcDbZombieObject
 90
      499
 91
      511
 93
      546
310
40501902A4063FBFFFFFE4D4CCCCCCCCCEC9FC00000000000020C08000000000000004090140501A26A666666666724FC00000000000005102575014000000000000039000
340
12
340
42
340
F
340
B8CA
 94
        0
1001
ACAD_MLEADERVER
1070
     2
  0
ACAD_PROXY_OBJECT
  5
C104
102
{ACAD_REACTORS
330
9583
102
}
330
9583
100
AcDbZombieObject
 90
      499
 91
      511
 93
      546
310
40501902A4063FBFFFFFE0000000000000020000000000000020408000000000000004090140501A0000000000000410000000000000004102575016000000000000039000
340
12
340
42
340
F
340
BA76
 94
        0
1001
ACAD_MLEADERVER
1070
     2
  0
ACAD_PROXY_OBJECT
  5
C0F7
102
{ACAD_REACTORS
330
9583
102
}
330
9583
100
AcDbZombieObject
 90
      499
 91
      511
 93
      610
310
40501902A4063FBFFFFFE0000000000000020000000000000020408000000000000004090140501A00000000000004100000000000000041025750126A6666666666A4FC000000000000039000
340
12
340
42
340
F
340
BA76
 94
        0
1001
ACAD_MLEADERVER
1070
     2
  0
ACAD_PROXY_OBJECT
  5
C0EE
102
{ACAD_REACTORS
330
9583
102
}
330
9583
100
AcDbZombieObject
 90
      499
 91
      511
 93
      610
310
40501902A4063FBFFFFFE0000000000000020000000000000020408000000000000004090140501A00000000000004100000000000000041025750126A6666666666E4FC000000000000039000
340
12
340
42
340
F
340
BA76
 94
        0
1001
ACAD_MLEADERVER
1070
     2
  0
ACAD_PROXY_OBJECT
  5
C0F4
102
{ACAD_REACTORS
330
9583
102
}
330
9583
100
AcDbZombieObject
 90
      499
 91
      511
 93
      610
310
40501902A4063FBFFFFFE0000000000000020000000000000020408000000000000004090140501A00000000000004100000000000000041025750126A666666666724FC000000000000039000
340
12
340
42
340
F
340
BA76
 94
        0
1001
ACAD_MLEADERVER
1070
     2
  0
ACAD_PROXY_OBJECT
  5
C0F6
102
{ACAD_REACTORS
330
9583
102
}
330
9583
100
AcDbZombieObject
 90
      499
 91
      511
 93
      610
310
40501902A4063FBFFFFFE0000000000000020000000000000020408000000000000004090140501A0000000000000410000000000000004102575010CCCCCCCCCCCF4CFC000000000000039000
340
12
340
42
340
F
340
BA76
 94
        0
1001
ACAD_MLEADERVER
1070
     2
  0
ACAD_PROXY_OBJECT
  5
C0F8
102
{ACAD_REACTORS
330
9583
102
}
330
9583
100
AcDbZombieObject
 90
      499
 91
      511
 93
      610
310
40501902A4063FBFFFFFE0000000000000020000000000000020408000000000000004090140501A000000000000041000000000000000410257501000000000000380FC000000000000039000
340
12
340
42
340
F
340
BA76
 94
        0
1001
ACAD_MLEADERVER
1070
     2
  0
ACAD_PROXY_OBJECT
  5
C0F5
102
{ACAD_REACTORS
330
9583
102
}
330
9583
100
AcDbZombieObject
 90
      499
 91
      511
 93
      610
310
40501902A4063FBFFFFFE0000000000000020000000000000020408000000000000004090140501A000000000000041000000000000000410257501199999999999B98FC000000000000039000
340
12
340
42
340
F
340
BA76
 94
        0
1001
ACAD_MLEADERVER
1070
     2
  0
ACAD_PROXY_OBJECT
  5
C0E6
102
{ACAD_REACTORS
330
9583
102
}
330
9583
100
AcDbZombieObject
 90
      499
 91
      511
 93
      546
310
40501902A4063FBFFFFFE0000000000000020000000000000020408000000000000004090140501A0000000000000410000000000000004102575014000000000000039000
340
12
340
42
340
F
340
BA76
 94
        0
1001
ACAD_MLEADERVER
1070
     2
  0
ACAD_PROXY_OBJECT
  5
C0F3
102
{ACAD_REACTORS
330
9583
102
}
330
9583
100
AcDbZombieObject
 90
      499
 91
      511
 93
      610
310
40501902A4063FBFFFFFE0000000000000020000000000000020408000000000000004090140501A00000000000004100000000000000041025750100000000000009100000000000000039000
340
12
340
42
340
F
340
BA76
 94
        0
1001
ACAD_MLEADERVER
1070
     2
  0
ACAD_PROXY_OBJECT
  5
C0FF
102
{ACAD_REACTORS
330
9583
102
}
330
9583
100
AcDbZombieObject
 90
      499
 91
      511
 93
      610
310
40501902A4063FBFFFFFE0000000000000020000000000000020408000000000000004090140501A00000000000004100000000000000041025750100000000000016500000000000000039000
340
12
340
42
340
F
340
BA76
 94
        0
1001
ACAD_MLEADERVER
1070
     2
  0
ACAD_PROXY_OBJECT
  5
C101
102
{ACAD_REACTORS
330
9583
102
}
330
9583
100
AcDbZombieObject
 90
      499
 91
      511
 93
      610
310
40501902A4063FBFFFFFE0000000000000020000000000000020408000000000000004090140501A0000000000000410000000000000004102575013373333333333D0FC000000000000039000
340
12
340
42
340
F
340
BA76
 94
        0
1001
ACAD_MLEADERVER
1070
     2
  0
ACAD_PROXY_OBJECT
  5
C102
102
{ACAD_REACTORS
330
9583
102
}
330
9583
100
AcDbZombieObject
 90
      499
 91
      511
 93
      610
310
40501902A4063FBFFFFFE0000000000000020000000000000020408000000000000004090140501A0000000000000410000000000000004102575010000000000000B900000000000000039000
340
12
340
42
340
F
340
BA76
 94
        0
1001
ACAD_MLEADERVER
1070
     2
  0
ACAD_PROXY_OBJECT
  5
C0EF
102
{ACAD_REACTORS
330
9583
102
}
330
9583
100
AcDbZombieObject
 90
      499
 91
      511
 93
      610
310
40501902A4063FBFFFFFE0000000000000020000000000000020408000000000000004090140501A00000000000004100000000000000041025750100000000000000100000000000000039000
340
12
340
42
340
F
340
BA76
 94
        0
1001
ACAD_MLEADERVER
1070
     2
  0
ACAD_PROXY_OBJECT
  5
C0FC
102
{ACAD_REACTORS
330
9583
102
}
330
9583
100
AcDbZombieObject
 90
      499
 91
      511
 93
      610
310
40501902A4063FBFFFFFE0000000000000020000000000000020408000000000000004090140501A0000000000000410000000000000004102575010000000000000D100000000000000039000
340
12
340
42
340
F
340
BA76
 94
        0
1001
ACAD_MLEADERVER
1070
     2
  0
ACAD_PROXY_OBJECT
  5
C100
102
{ACAD_REACTORS
330
9583
102
}
330
9583
100
AcDbZombieObject
 90
      499
 91
      511
 93
      610
310
40501902A4063FBFFFFFE0000000000000020000000000000020408000000000000004090140501A0000000000000410000000000000004102575010000000000001A500000000000000039000
340
12
340
42
340
F
340
BA76
 94
        0
1001
ACAD_MLEADERVER
1070
     2
  0
ACAD_PROXY_OBJECT
  5
C0FD
102
{ACAD_REACTORS
330
9583
102
}
330
9583
100
AcDbZombieObject
 90
      499
 91
      511
 93
      610
310
40501902A4063FBFFFFFE0000000000000020000000000000020408000000000000004090140501A0000000000000410000000000000004102575010000000000000E500000000000000039000
340
12
340
42
340
F
340
BA76
 94
        0
1001
ACAD_MLEADERVER
1070
     2
  0
ACAD_PROXY_OBJECT
  5
C0F1
102
{ACAD_REACTORS
330
9583
102
}
330
9583
100
AcDbZombieObject
 90
      499
 91
      511
 93
      610
310
40501902A4063FBFFFFFE0000000000000020000000000000020408000000000000004090140501A00000000000004100000000000000041025750100000000000002100000000000000039000
340
12
340
42
340
F
340
BA76
 94
        0
1001
ACAD_MLEADERVER
1070
     2
  0
ACAD_PROXY_OBJECT
  5
C0FA
102
{ACAD_REACTORS
330
9583
102
}
330
9583
100
AcDbZombieObject
 90
      499
 91
      511
 93
      610
310
40501902A4063FBFFFFFE0000000000000020000000000000020408000000000000004090140501A0000000000000410000000000000004102575010000000000000F900000000000000039000
340
12
340
42
340
F
340
BA76
 94
        0
1001
ACAD_MLEADERVER
1070
     2
  0
ACAD_PROXY_OBJECT
  5
C0F2
102
{ACAD_REACTORS
330
9583
102
}
330
9583
100
AcDbZombieObject
 90
      499
 91
      511
 93
      610
310
40501902A4063FBFFFFFE0000000000000020000000000000020408000000000000004090140501A00000000000004100000000000000041025750100000000000004100000000000000039000
340
12
340
42
340
F
340
BA76
 94
        0
1001
ACAD_MLEADERVER
1070
     2
  0
ACAD_PROXY_OBJECT
  5
C0FB
102
{ACAD_REACTORS
330
9583
102
}
330
9583
100
AcDbZombieObject
 90
      499
 91
      511
 93
      610
310
40501902A4063FBFFFFFE0000000000000020000000000000020408000000000000004090140501A00000000000004100000000000000041025750100000000000011100000000000000039000
340
12
340
42
340
F
340
BA76
 94
        0
1001
ACAD_MLEADERVER
1070
     2
  0
ACAD_PROXY_OBJECT
  5
C0F0
102
{ACAD_REACTORS
330
9583
102
}
330
9583
100
AcDbZombieObject
 90
      499
 91
      511
 93
      610
310
40501902A4063FBFFFFFE0000000000000020000000000000020408000000000000004090140501A00000000000004100000000000000041025750100000000000005100000000000000039000
340
12
340
42
340
F
340
BA76
 94
        0
1001
ACAD_MLEADERVER
1070
     2
  0
ACAD_PROXY_OBJECT
  5
C0F9
102
{ACAD_REACTORS
330
9583
102
}
330
9583
100
AcDbZombieObject
 90
      499
 91
      511
 93
      610
310
40501902A4063FBFFFFFE0000000000000020000000000000020408000000000000004090140501A00000000000004100000000000000041025750100000000000012500000000000000039000
340
12
340
42
340
F
340
BA76
 94
        0
1001
ACAD_MLEADERVER
1070
     2
  0
ACAD_PROXY_OBJECT
  5
C0FE
102
{ACAD_REACTORS
330
9583
102
}
330
9583
100
AcDbZombieObject
 90
      499
 91
      511
 93
      610
310
40501902A4063FBFFFFFE0000000000000020000000000000020408000000000000004090140501A0000000000000410000000000000004102575010000000000101FD00000000000000039000
340
12
340
42
340
F
340
BA76
 94
        0
1001
ACAD_MLEADERVER
1070
     2
  0
ACAD_PROXY_OBJECT
  5
C103
102
{ACAD_REACTORS
330
9583
102
}
330
9583
100
AcDbZombieObject
 90
      499
 91
      511
 93
      610
310
40501902A4063FBFFFFFE0000000000000020000000000000020408000000000000004090140501A00000000000004100000000000000041025750100000000000007100000000000000039000
340
12
340
42
340
F
340
BA76
 94
        0
1001
ACAD_MLEADERVER
1070
     2
  0
ACAD_PROXY_OBJECT
  5
C105
102
{ACAD_REACTORS
330
9583
102
}
330
9583
100
AcDbZombieObject
 90
      499
 91
      511
 93
      546
310
40901902A4063FBFFFFFE0000000000000020400000000000020C080000000000000040905415019C900000000000003100000000000000041025764000000000000039000
340
12
340
42
340
F
340
0
 94
        0
1001
ACAD_MLEADERVER
1070
     2
  0
ACAD_PROXY_OBJECT
  5
C11D
102
{ACAD_REACTORS
330
9583
102
}
330
9583
100
AcDbZombieObject
 90
      499
 91
      511
 93
      546
310
40901902A4063FBFFFFFE0000000000000020400000000000020C080000000000000040905415019C900000000000003100000000000000041025766000000000000039000
340
12
340
42
340
F
340
0
 94
        0
1001
ACAD_MLEADERVER
1070
     2
  0
ACAD_PROXY_OBJECT
  5
C117
102
{ACAD_REACTORS
330
9583
102
}
330
9583
100
AcDbZombieObject
 90
      499
 91
      511
 93
      610
310
40901902A4063FBFFFFFE0000000000000020400000000000020C080000000000000040905415019C9000000000000031000000000000000410257626A6666666666A4FC000000000000039000
340
12
340
42
340
F
340
0
 94
        0
1001
ACAD_MLEADERVER
1070
     2
  0
ACAD_PROXY_OBJECT
  5
C118
102
{ACAD_REACTORS
330
9583
102
}
330
9583
100
AcDbZombieObject
 90
      499
 91
      511
 93
      610
310
40901902A4063FBFFFFFE0000000000000020400000000000020C080000000000000040905415019C9000000000000031000000000000000410257626A6666666666E4FC000000000000039000
340
12
340
42
340
F
340
0
 94
        0
1001
ACAD_MLEADERVER
1070
     2
  0
ACAD_PROXY_OBJECT
  5
C119
102
{ACAD_REACTORS
330
9583
102
}
330
9583
100
AcDbZombieObject
 90
      499
 91
      511
 93
      610
310
40901902A4063FBFFFFFE0000000000000020400000000000020C080000000000000040905415019C9000000000000031000000000000000410257626A666666666724FC000000000000039000
340
12
340
42
340
F
340
0
 94
        0
1001
ACAD_MLEADERVER
1070
     2
  0
ACAD_PROXY_OBJECT
  5
C11A
102
{ACAD_REACTORS
330
9583
102
}
330
9583
100
AcDbZombieObject
 90
      499
 91
      511
 93
      610
310
40901902A4063FBFFFFFE0000000000000020400000000000020C080000000000000040905415019C900000000000003100000000000000041025760CCCCCCCCCCCF4CFC000000000000039000
340
12
340
42
340
F
340
0
 94
        0
1001
ACAD_MLEADERVER
1070
     2
  0
ACAD_PROXY_OBJECT
  5
C11B
102
{ACAD_REACTORS
330
9583
102
}
330
9583
100
AcDbZombieObject
 90
      499
 91
      511
 93
      610
310
40901902A4063FBFFFFFE0000000000000020400000000000020C080000000000000040905415019C90000000000000310000000000000004102576000000000000380FC000000000000039000
340
12
340
42
340
F
340
0
 94
        0
1001
ACAD_MLEADERVER
1070
     2
  0
ACAD_PROXY_OBJECT
  5
C11C
102
{ACAD_REACTORS
330
9583
102
}
330
9583
100
AcDbZombieObject
 90
      499
 91
      511
 93
      610
310
40901902A4063FBFFFFFE0000000000000020400000000000020C080000000000000040905415019C90000000000000310000000000000004102576199999999999B98FC000000000000039000
340
12
340
42
340
F
340
0
 94
        0
1001
ACAD_MLEADERVER
1070
     2
  0
ACAD_PROXY_OBJECT
  5
C10A
102
{ACAD_REACTORS
330
9583
102
}
330
9583
100
AcDbZombieObject
 90
      499
 91
      511
 93
      546
310
40901902A4063FBFFFFFE0000000000000020400000000000020C080000000000000040905415019C900000000000003100000000000000041025764000000000000039000
340
12
340
42
340
F
340
0
 94
        0
1001
ACAD_MLEADERVER
1070
     2
  0
ACAD_PROXY_OBJECT
  5
C10C
102
{ACAD_REACTORS
330
9583
102
}
330
9583
100
AcDbZombieObject
 90
      499
 91
      511
 93
      610
310
40901902A4063FBFFFFFE0000000000000020400000000000020C080000000000000040905415019C9000000000000031000000000000000410257600000000000009100000000000000039000
340
12
340
42
340
F
340
0
 94
        0
1001
ACAD_MLEADERVER
1070
     2
  0
ACAD_PROXY_OBJECT
  5
C10D
102
{ACAD_REACTORS
330
9583
102
}
330
9583
100
AcDbZombieObject
 90
      499
 91
      511
 93
      610
310
40901902A4063FBFFFFFE0000000000000020400000000000020C080000000000000040905415019C9000000000000031000000000000000410257600000000000016500000000000000039000
340
12
340
42
340
F
340
0
 94
        0
1001
ACAD_MLEADERVER
1070
     2
  0
ACAD_PROXY_OBJECT
  5
C10E
102
{ACAD_REACTORS
330
9583
102
}
330
9583
100
AcDbZombieObject
 90
      499
 91
      511
 93
      610
310
40901902A4063FBFFFFFE0000000000000020400000000000020C080000000000000040905415019C900000000000003100000000000000041025763373333333333D0FC000000000000039000
340
12
340
42
340
F
340
0
 94
        0
1001
ACAD_MLEADERVER
1070
     2
  0
ACAD_PROXY_OBJECT
  5
C10F
102
{ACAD_REACTORS
330
9583
102
}
330
9583
100
AcDbZombieObject
 90
      499
 91
      511
 93
      610
310
40901902A4063FBFFFFFE0000000000000020400000000000020C080000000000000040905415019C900000000000003100000000000000041025760000000000000B900000000000000039000
340
12
340
42
340
F
340
0
 94
        0
1001
ACAD_MLEADERVER
1070
     2
  0
ACAD_PROXY_OBJECT
  5
C106
102
{ACAD_REACTORS
330
9583
102
}
330
9583
100
AcDbZombieObject
 90
      499
 91
      511
 93
      610
310
40901902A4063FBFFFFFE0000000000000020400000000000020C080000000000000040905415019C9000000000000031000000000000000410257600000000000000100000000000000039000
340
12
340
42
340
F
340
0
 94
        0
1001
ACAD_MLEADERVER
1070
     2
  0
ACAD_PROXY_OBJECT
  5
C110
102
{ACAD_REACTORS
330
9583
102
}
330
9583
100
AcDbZombieObject
 90
      499
 91
      511
 93
      610
310
40901902A4063FBFFFFFE0000000000000020400000000000020C080000000000000040905415019C900000000000003100000000000000041025760000000000000D100000000000000039000
340
12
340
42
340
F
340
0
 94
        0
1001
ACAD_MLEADERVER
1070
     2
  0
ACAD_PROXY_OBJECT
  5
C111
102
{ACAD_REACTORS
330
9583
102
}
330
9583
100
AcDbZombieObject
 90
      499
 91
      511
 93
      610
310
40901902A4063FBFFFFFE0000000000000020400000000000020C080000000000000040905415019C900000000000003100000000000000041025760000000000001A500000000000000039000
340
12
340
42
340
F
340
0
 94
        0
1001
ACAD_MLEADERVER
1070
     2
  0
ACAD_PROXY_OBJECT
  5
C112
102
{ACAD_REACTORS
330
9583
102
}
330
9583
100
AcDbZombieObject
 90
      499
 91
      511
 93
      610
310
40901902A4063FBFFFFFE0000000000000020400000000000020C080000000000000040905415019C900000000000003100000000000000041025760000000000000E500000000000000039000
340
12
340
42
340
F
340
0
 94
        0
1001
ACAD_MLEADERVER
1070
     2
  0
ACAD_PROXY_OBJECT
  5
C107
102
{ACAD_REACTORS
330
9583
102
}
330
9583
100
AcDbZombieObject
 90
      499
 91
      511
 93
      610
310
40901902A4063FBFFFFFE0000000000000020400000000000020C080000000000000040905415019C9000000000000031000000000000000410257600000000000002100000000000000039000
340
12
340
42
340
F
340
0
 94
        0
1001
ACAD_MLEADERVER
1070
     2
  0
ACAD_PROXY_OBJECT
  5
C113
102
{ACAD_REACTORS
330
9583
102
}
330
9583
100
AcDbZombieObject
 90
      499
 91
      511
 93
      610
310
40901902A4063FBFFFFFE0000000000000020400000000000020C080000000000000040905415019C900000000000003100000000000000041025760000000000000F900000000000000039000
340
12
340
42
340
F
340
0
 94
        0
1001
ACAD_MLEADERVER
1070
     2
  0
ACAD_PROXY_OBJECT
  5
C108
102
{ACAD_REACTORS
330
9583
102
}
330
9583
100
AcDbZombieObject
 90
      499
 91
      511
 93
      610
310
40901902A4063FBFFFFFE0000000000000020400000000000020C080000000000000040905415019C9000000000000031000000000000000410257600000000000004100000000000000039000
340
12
340
42
340
F
340
0
 94
        0
1001
ACAD_MLEADERVER
1070
     2
  0
ACAD_PROXY_OBJECT
  5
C114
102
{ACAD_REACTORS
330
9583
102
}
330
9583
100
AcDbZombieObject
 90
      499
 91
      511
 93
      610
310
40901902A4063FBFFFFFE0000000000000020400000000000020C080000000000000040905415019C9000000000000031000000000000000410257600000000000011100000000000000039000
340
12
340
42
340
F
340
0
 94
        0
1001
ACAD_MLEADERVER
1070
     2
  0
ACAD_PROXY_OBJECT
  5
C109
102
{ACAD_REACTORS
330
9583
102
}
330
9583
100
AcDbZombieObject
 90
      499
 91
      511
 93
      610
310
40901902A4063FBFFFFFE0000000000000020400000000000020C080000000000000040905415019C9000000000000031000000000000000410257600000000000005100000000000000039000
340
12
340
42
340
F
340
0
 94
        0
1001
ACAD_MLEADERVER
1070
     2
  0
ACAD_PROXY_OBJECT
  5
C115
102
{ACAD_REACTORS
330
9583
102
}
330
9583
100
AcDbZombieObject
 90
      499
 91
      511
 93
      610
310
40901902A4063FBFFFFFE0000000000000020400000000000020C080000000000000040905415019C9000000000000031000000000000000410257600000000000012500000000000000039000
340
12
340
42
340
F
340
0
 94
        0
1001
ACAD_MLEADERVER
1070
     2
  0
ACAD_PROXY_OBJECT
  5
C116
102
{ACAD_REACTORS
330
9583
102
}
330
9583
100
AcDbZombieObject
 90
      499
 91
      511
 93
      610
310
40901902A4063FBFFFFFE0000000000000020400000000000020C080000000000000040905415019C900000000000003100000000000000041025760000000000101FD00000000000000039000
340
12
340
42
340
F
340
0
 94
        0
1001
ACAD_MLEADERVER
1070
     2
  0
ACAD_PROXY_OBJECT
  5
C10B
102
{ACAD_REACTORS
330
9583
102
}
330
9583
100
AcDbZombieObject
 90
      499
 91
      511
 93
      610
310
40901902A4063FBFFFFFE0000000000000020400000000000020C080000000000000040905415019C9000000000000031000000000000000410257600000000000007100000000000000039000
340
12
340
42
340
F
340
0
 94
        0
1001
ACAD_MLEADERVER
1070
     2
  0
ACAD_PROXY_OBJECT
  5
9584
102
{ACAD_REACTORS
330
9583
102
}
330
9583
100
AcDbZombieObject
 90
      499
 91
      511
 93
      610
310
40901902A4063FBFFFFFE000000000000002040AD7A3703D0AD73F4214DD185B99185C990000000000000104090141901A00000000000004100000000000000041025764000000000000300FC0
340
12
340
0
340
F
340
0
 94
        0
1001
ACAD_MLEADERVER
1070
     2
  0
MLINESTYLE
  5
1C
102
{ACAD_REACTORS
330
1B
102
}
330
1B
100
AcDbMlineStyle
  2
STANDARD
 70
     0
  3

 62
   256
 51
90.0
 52
90.0
 71
     2
 49
0.5
 62
   256
  6
BYLAYER
 49
-0.5
 62
   256
  6
BYLAYER
  0
ACAD_PROXY_OBJECT
  5
C147
102
{ACAD_REACTORS
330
9561
102
}
330
9561
100
AcDbZombieObject
 90
      499
 91
      510
 93
      153
310
909313A34305F585245464000000000000444000
  0
ACAD_PROXY_OBJECT
  5
C150
102
{ACAD_REACTORS
330
9561
102
}
330
9561
100
AcDbZombieObject
 90
      499
 91
      510
 93
      145
310
908313A345F585245464000000000000104000
  0
ACAD_PROXY_OBJECT
  5
C151
102
{ACAD_REACTORS
330
9561
102
}
330
9561
100
AcDbZombieObject
 90
      499
 91
      510
 93
      145
310
908313A355F585245464000000000000144000
  0
ACAD_PROXY_OBJECT
  5
C152
102
{ACAD_REACTORS
330
9561
102
}
330
9561
100
AcDbZombieObject
 90
      499
 91
      510
 93
      145
310
908313A385F585245464000000000000204000
  0
ACAD_PROXY_OBJECT
  5
C153
102
{ACAD_REACTORS
330
9561
102
}
330
9561
100
AcDbZombieObject
 90
      499
 91
      510
 93
      153
310
909313A31305F585245464000000000000244000
  0
ACAD_PROXY_OBJECT
  5
C154
102
{ACAD_REACTORS
330
9561
102
}
330
9561
100
AcDbZombieObject
 90
      499
 91
      510
 93
      153
310
909313A31365F585245464000000000000304000
  0
ACAD_PROXY_OBJECT
  5
C155
102
{ACAD_REACTORS
330
9561
102
}
330
9561
100
AcDbZombieObject
 90
      499
 91
      510
 93
      153
310
909313A32305F585245464000000000000344000
  0
ACAD_PROXY_OBJECT
  5
C156
102
{ACAD_REACTORS
330
9561
102
}
330
9561
100
AcDbZombieObject
 90
      499
 91
      510
 93
      153
310
909313A33305F5852454640000000000003E4000
  0
ACAD_PROXY_OBJECT
  5
C148
102
{ACAD_REACTORS
330
9561
102
}
330
9561
100
AcDbZombieObject
 90
      499
 91
      510
 93
      153
310
909313A35305F585245464000000000000494000
  0
ACAD_PROXY_OBJECT
  5
C149
102
{ACAD_REACTORS
330
9561
102
}
330
9561
100
AcDbZombieObject
 90
      499
 91
      510
 93
      161
310
90A313A3130305F585245464000000000000594000
  0
ACAD_PROXY_OBJECT
  5
C14A
102
{ACAD_REACTORS
330
9561
102
}
330
9561
100
AcDbZombieObject
 90
      499
 91
      510
 93
      145
310
908323A315F585245460000000000000010100
  0
ACAD_PROXY_OBJECT
  5
C14B
102
{ACAD_REACTORS
330
9561
102
}
330
9561
100
AcDbZombieObject
 90
      499
 91
      510
 93
      145
310
908343A315F585245460000000000000410100
  0
ACAD_PROXY_OBJECT
  5
C14C
102
{ACAD_REACTORS
330
9561
102
}
330
9561
100
AcDbZombieObject
 90
      499
 91
      510
 93
      145
310
908383A315F585245460000000000000810100
  0
ACAD_PROXY_OBJECT
  5
C14D
102
{ACAD_REACTORS
330
9561
102
}
330
9561
100
AcDbZombieObject
 90
      499
 91
      510
 93
      153
310
90931303A315F585245460000000000000910100
  0
ACAD_PROXY_OBJECT
  5
C14E
102
{ACAD_REACTORS
330
9561
102
}
330
9561
100
AcDbZombieObject
 90
      499
 91
      510
 93
      161
310
90A3130303A315F585245460000000000001650100
  0
ACAD_PROXY_OBJECT
  5
C14F
102
{ACAD_REACTORS
330
9561
102
}
330
9561
100
AcDbZombieObject
 90
      499
 91
      510
 93
      145
310
908313A325F585245464000000000000004000
  0
ACAD_PROXY_OBJECT
  5
9562
102
{ACAD_REACTORS
330
9561
102
}
330
9561
100
AcDbZombieObject
 90
      499
 91
      510
 93
       41
310
903313A31580
  0
ACAD_PROXY_OBJECT
  5
9563
102
{ACAD_REACTORS
330
9561
102
}
330
9561
100
AcDbZombieObject
 90
      499
 91
      510
 93
      105
310
903313A324000000000000004000
  0
ACAD_PROXY_OBJECT
  5
9564
102
{ACAD_REACTORS
330
9561
102
}
330
9561
100
AcDbZombieObject
 90
      499
 91
      510
 93
      105
310
903313A344000000000000104000
  0
ACAD_PROXY_OBJECT
  5
9565
102
{ACAD_REACTORS
330
9561
102
}
330
9561
100
AcDbZombieObject
 90
      499
 91
      510
 93
      105
310
903313A354000000000000144000
  0
ACAD_PROXY_OBJECT
  5
9566
102
{ACAD_REACTORS
330
9561
102
}
330
9561
100
AcDbZombieObject
 90
      499
 91
      510
 93
      105
310
903313A384000000000000204000
  0
ACAD_PROXY_OBJECT
  5
9567
102
{ACAD_REACTORS
330
9561
102
}
330
9561
100
AcDbZombieObject
 90
      499
 91
      510
 93
      113
310
904313A31304000000000000244000
  0
ACAD_PROXY_OBJECT
  5
9568
102
{ACAD_REACTORS
330
9561
102
}
330
9561
100
AcDbZombieObject
 90
      499
 91
      510
 93
      113
310
904313A31364000000000000304000
  0
ACAD_PROXY_OBJECT
  5
9569
102
{ACAD_REACTORS
330
9561
102
}
330
9561
100
AcDbZombieObject
 90
      499
 91
      510
 93
      113
310
904313A32304000000000000344000
  0
ACAD_PROXY_OBJECT
  5
956A
102
{ACAD_REACTORS
330
9561
102
}
330
9561
100
AcDbZombieObject
 90
      499
 91
      510
 93
      113
310
904313A333040000000000003E4000
  0
ACAD_PROXY_OBJECT
  5
956B
102
{ACAD_REACTORS
330
9561
102
}
330
9561
100
AcDbZombieObject
 90
      499
 91
      510
 93
      113
310
904313A34304000000000000444000
  0
ACAD_PROXY_OBJECT
  5
956C
102
{ACAD_REACTORS
330
9561
102
}
330
9561
100
AcDbZombieObject
 90
      499
 91
      510
 93
      113
310
904313A35304000000000000494000
  0
ACAD_PROXY_OBJECT
  5
956D
102
{ACAD_REACTORS
330
9561
102
}
330
9561
100
AcDbZombieObject
 90
      499
 91
      510
 93
      121
310
905313A3130304000000000000594000
  0
ACAD_PROXY_OBJECT
  5
956E
102
{ACAD_REACTORS
330
9561
102
}
330
9561
100
AcDbZombieObject
 90
      499
 91
      510
 93
      105
310
903323A310000000000000010100
  0
ACAD_PROXY_OBJECT
  5
956F
102
{ACAD_REACTORS
330
9561
102
}
330
9561
100
AcDbZombieObject
 90
      499
 91
      510
 93
      105
310
903343A310000000000000410100
  0
ACAD_PROXY_OBJECT
  5
9570
102
{ACAD_REACTORS
330
9561
102
}
330
9561
100
AcDbZombieObject
 90
      499
 91
      510
 93
      105
310
903383A310000000000000810100
  0
ACAD_PROXY_OBJECT
  5
9571
102
{ACAD_REACTORS
330
9561
102
}
330
9561
100
AcDbZombieObject
 90
      499
 91
      510
 93
      113
310
90431303A310000000000000910100
  0
ACAD_PROXY_OBJECT
  5
9572
102
{ACAD_REACTORS
330
9561
102
}
330
9561
100
AcDbZombieObject
 90
      499
 91
      510
 93
      121
310
9053130303A310000000000001650100
  0
ACAD_PROXY_OBJECT
  5
9573
102
{ACAD_REACTORS
330
9561
102
}
330
9561
100
AcDbZombieObject
 90
      499
 91
      510
 93
      257
310
90E312F31323822203D2031272D3022000000000000200FC000000000000284000
  0
ACAD_PROXY_OBJECT
  5
9574
102
{ACAD_REACTORS
330
9561
102
}
330
9561
100
AcDbZombieObject
 90
      499
 91
      510
 93
      249
310
90D312F363422203D2031272D3022000000000000240FC000000000000284000
  0
ACAD_PROXY_OBJECT
  5
9575
102
{ACAD_REACTORS
330
9561
102
}
330
9561
100
AcDbZombieObject
 90
      499
 91
      510
 93
      249
310
90D312F333222203D2031272D3022000000000000280FC000000000000284000
  0
ACAD_PROXY_OBJECT
  5
9576
102
{ACAD_REACTORS
330
9561
102
}
330
9561
100
AcDbZombieObject
 90
      499
 91
      510
 93
      249
310
90D312F313622203D2031272D30220000000000002C0FC000000000000284000
  0
ACAD_PROXY_OBJECT
  5
9577
102
{ACAD_REACTORS
330
9561
102
}
330
9561
100
AcDbZombieObject
 90
      499
 91
      510
 93
      249
310
90D332F333222203D2031272D30220000000000002E0FC000000000000284000
  0
ACAD_PROXY_OBJECT
  5
9578
102
{ACAD_REACTORS
330
9561
102
}
330
9561
100
AcDbZombieObject
 90
      499
 91
      510
 93
      241
310
90C312F3822203D2031272D3022000000000000300FC000000000000284000
  0
ACAD_PROXY_OBJECT
  5
9579
102
{ACAD_REACTORS
330
9561
102
}
330
9561
100
AcDbZombieObject
 90
      499
 91
      510
 93
      249
310
90D332F313622203D2031272D3022000000000000320FC000000000000284000
  0
ACAD_PROXY_OBJECT
  5
957A
102
{ACAD_REACTORS
330
9561
102
}
330
9561
100
AcDbZombieObject
 90
      499
 91
      510
 93
      241
310
90C312F3422203D2031272D3022000000000000340FC000000000000284000
  0
ACAD_PROXY_OBJECT
  5
957B
102
{ACAD_REACTORS
330
9561
102
}
330
9561
100
AcDbZombieObject
 90
      499
 91
      510
 93
      241
310
90C332F3822203D2031272D3022000000000000360FC000000000000284000
  0
ACAD_PROXY_OBJECT
  5
957C
102
{ACAD_REACTORS
330
9561
102
}
330
9561
100
AcDbZombieObject
 90
      499
 91
      510
 93
      241
310
90C312F3222203D2031272D3022000000000000380FC000000000000284000
  0
ACAD_PROXY_OBJECT
  5
957D
102
{ACAD_REACTORS
330
9561
102
}
330
9561
100
AcDbZombieObject
 90
      499
 91
      510
 93
      241
310
90C332F3422203D2031272D30220000000000003A0FC000000000000284000
  0
ACAD_PROXY_OBJECT
  5
957E
102
{ACAD_REACTORS
330
9561
102
}
330
9561
100
AcDbZombieObject
 90
      499
 91
      510
 93
      161
310
90A3122203D2031272D30224000000000000284000
  0
ACAD_PROXY_OBJECT
  5
957F
102
{ACAD_REACTORS
330
9561
102
}
330
9561
100
AcDbZombieObject
 90
      499
 91
      510
 93
      257
310
90E312D312F3222203D2031272D30220000000000003E0FC000000000000284000
  0
ACAD_PROXY_OBJECT
  5
9580
102
{ACAD_REACTORS
330
9561
102
}
330
9561
100
AcDbZombieObject
 90
      499
 91
      510
 93
      225
310
90A3322203D2031272D302200000000000002100000000000000284000
  0
ACAD_PROXY_OBJECT
  5
9581
102
{ACAD_REACTORS
330
9561
102
}
330
9561
100
AcDbZombieObject
 90
      499
 91
      510
 93
      225
310
90A3622203D2031272D302200000000000006100000000000000284000
  0
ACAD_PROXY_OBJECT
  5
9582
102
{ACAD_REACTORS
330
9561
102
}
330
9561
100
AcDbZombieObject
 90
      499
 91
      510
 93
      249
310
90D31272D3022203D2031272D30220000000000000A100000000000000284000
  0
ACAD_PROXY_OBJECT
  5
9556
102
{ACAD_REACTORS
330
9550
102
}
330
9550
100
AcDbZombieObject
 90
      499
 91
      509
 93
      436
310
42CC9915DA5C99599C985B595049028333333333333E3BF0000000000000FB0107901411070040501600405405064090741402480A0340
1001
ACAD
1000
AcDbSavedByObjectVersion
1070
     0
  0
ACAD_PROXY_OBJECT
  5
9558
102
{ACAD_REACTORS
330
9550
102
}
330
9550
100
AcDbZombieObject
 90
      499
 91
      509
 93
      500
310
424CD108121A5919195B90640502408333333333333E3BF0000000000000FB01079024090700405020000000000001110200405405064090740C02480A0340
1001
ACAD
1000
AcDbSavedByObjectVersion
1070
     0
  0
ACAD_PROXY_OBJECT
  5
9557
102
{ACAD_REACTORS
330
9550
102
}
330
9550
100
AcDbZombieObject
 90
      499
 91
      509
 93
      436
310
42CCD915DA5C99599C985B595059028333333333333E3BF0000000000000FB0107901411070040501600405405064090741402480A0340
1001
ACAD
1000
AcDbSavedByObjectVersion
1070
     0
  0
ACAD_PROXY_OBJECT
  5
9555
102
{ACAD_REACTORS
330
9550
102
}
330
9550
100
AcDbZombieObject
 90
      499
 91
      509
 93
      388
310
4150985CDA58D07406404333333333333E3BF0000000000000FB0107A41107004050150841D405064090741402480A0350
1001
ACAD
1000
AcDbSavedByObjectVersion
1070
     0
  0
ACAD_PROXY_OBJECT
  5
955C
102
{ACAD_REACTORS
330
9550
102
}
330
9550
100
AcDbZombieObject
 90
      499
 91
      509
 93
      428
310
42109C9A59DA1D195B90C409028333333333333E3BF0000000000000FB010790141107004050150841D405064090741402480A029950
1001
ACAD
1000
AcDbSavedByObjectVersion
1070
     0
  0
ACAD_PROXY_OBJECT
  5
9560
102
{ACAD_REACTORS
330
9550
102
}
330
9550
100
AcDbZombieObject
 90
      499
 91
      509
 93
      452
310
42D0DBDB1BDC90DA185B99D95104090240C333333333333E3BF0000000000000FB0108901411070040501508421405064090741402480A0350
1001
ACAD
1000
AcDbSavedByObjectVersion
1070
     0
  0
ACAD_PROXY_OBJECT
  5
9559
102
{ACAD_REACTORS
330
9550
102
}
330
9550
100
AcDbZombieObject
 90
      499
 91
      509
 93
      500
310
4290DBDB98D95C1D1D585B10940D028333333333333E3BF0000000000000FB0107902409070040501000000000000111010841D405064090740C02480A0340
1001
ACAD
1000
AcDbSavedByObjectVersion
1070
     0
  0
ACAD_PROXY_OBJECT
  5
955B
102
{ACAD_REACTORS
330
9550
102
}
330
9550
100
AcDbZombieObject
 90
      499
 91
      509
 93
      412
310
40D11A5B50B409028333333333333E3BF0000000000000FB010790141107004050150841D405064090741402480A02677FFFFFD0
1001
ACAD
1000
AcDbSavedByObjectVersion
1070
     0
  0
ACAD_PROXY_OBJECT
  5
A211
102
{ACAD_REACTORS
330
9550
102
}
330
9550
100
AcDbZombieObject
 90
      499
 91
      509
 93
      452
310
43115919D950DBDB1BDC93D999916409028333333333333E3BF0000000000000FB010790141107004050150841D405064090741402480A0350
1001
ACAD
1000
AcDbSavedByObjectVersion
1070
     0
  0
ACAD_PROXY_OBJECT
  5
955F
102
{ACAD_REACTORS
330
9550
102
}
330
9550
100
AcDbZombieObject
 90
      499
 91
      509
 93
      444
310
42D19858D95C185D1D195C9B90F409028333333333333E3BF0000000000000FB010790141107004050150841D405064090741402480A0350
1001
ACAD
1000
AcDbSavedByObjectVersion
1070
     0
  0
ACAD_PROXY_OBJECT
  5
9551
102
{ACAD_REACTORS
330
9550
102
}
330
9550
100
AcDbZombieObject
 90
      499
 91
      509
 93
      388
310
41119B185D240901404333333333333E3BF0000000000000F9010740A41107004050150841D405064090741402480A1B50
1001
ACAD
1000
AcDbSavedByObjectVersion
1070
     0
  0
ACAD_PROXY_OBJECT
  5
9552
102
{ACAD_REACTORS
330
9550
102
}
330
9550
100
AcDbZombieObject
 90
      499
 91
      509
 93
      476
310
43519B185D15DA5D1A115919D95CD0140901404333333333333E3BF0000000000000F9010740901411070040501600405405064090741402480A1B50
1001
ACAD
1000
AcDbSavedByObjectVersion
1070
     0
  0
ACAD_PROXY_OBJECT
  5
9553
102
{ACAD_REACTORS
330
9550
102
}
330
9550
100
AcDbZombieObject
 90
      499
 91
      509
 93
      412
310
41D1DBDD5C985D5910240902404333333333333E3BF0000000000000F9010740A411070040501641D405064090741402480A1B50
1001
ACAD
1000
AcDbSavedByObjectVersion
1070
     0
  0
ACAD_PROXY_OBJECT
  5
9554
102
{ACAD_REACTORS
330
9550
102
}
330
9550
100
AcDbZombieObject
 90
      499
 91
      509
 93
      500
310
4411DBDD5C985D5915DA5D1A115919D95CD0340902404333333333333E3BF0000000000000F9010740901411070040501600405405064090741402480A1B50
1001
ACAD
1000
AcDbSavedByObjectVersion
1070
     0
  0
ACAD_PROXY_OBJECT
  5
A260
102
{ACAD_REACTORS
330
9550
102
}
330
9550
100
AcDbZombieObject
 90
      499
 91
      509
 93
      476
310
41921A5919195B90640502408333333333333E3BF0000000000000FB01079024090700405020000000000001110200405405064090740C02480A0340
1001
ACAD
1000
AcDbSavedByObjectVersion
1070
     0
  0
ACAD_PROXY_OBJECT
  5
A20F
102
{ACAD_REACTORS
330
9550
102
}
330
9550
100
AcDbZombieObject
 90
      499
 91
      509
 93
      428
310
42529A5D1D195C93D999914409028333333333333E3BF0000000000000FB010790141107004050150A41D405064090741402480A0350
1001
ACAD
1000
AcDbSavedByObjectVersion
1070
     0
  0
ACAD_PROXY_OBJECT
  5
955E
102
{ACAD_REACTORS
330
9550
102
}
330
9550
100
AcDbZombieObject
 90
      499
 91
      509
 93
      444
310
42D31A5B995C185D1D195C9B90E409028333333333333E3BF0000000000000FB010790141107004050750841D405064090741402483A0350
1001
ACAD
1000
AcDbSavedByObjectVersion
1070
     0
  0
ACAD_PROXY_OBJECT
  5
A266
102
{ACAD_REACTORS
330
9550
102
}
330
9550
100
AcDbZombieObject
 90
      499
 91
      509
 93
      484
310
42135BD9195B1A5B99D0A409028333333333333E3BF0000000000000F901074090290700405010000000000201990108421405064090741402480A1B40
1001
ACAD
1000
AcDbSavedByObjectVersion
1070
     0
  0
ACAD_PROXY_OBJECT
  5
A210
102
{ACAD_REACTORS
330
9550
102
}
330
9550
100
AcDbZombieObject
 90
      499
 91
      509
 93
      444
310
42D3DD995C9A185B99D3D999915409028333333333333E3BF0000000000000FB010790141107004050150941D405064090741402480A0350
1001
ACAD
1000
AcDbSavedByObjectVersion
1070
     0
  0
ACAD_PROXY_OBJECT
  5
955A
102
{ACAD_REACTORS
330
9550
102
}
330
9550
100
AcDbZombieObject
 90
      499
 91
      509
 93
      420
310
425499585B1A5CDD1A58D08409028333333333333E3BF0000000000000FB01079019070040501508421405064090741402480A1B40
1001
ACAD
1000
AcDbSavedByObjectVersion
1070
     0
  0
ACAD_PROXY_OBJECT
  5
A265
102
{ACAD_REACTORS
330
9550
102
}
330
9550
100
AcDbZombieObject
 90
      499
 91
      509
 93
      420
310
4194DA1859195911B40902404333333333333E3BF0000000000000F9010740A41107004050150800405405064090840C02480A0B40
1001
ACAD
1000
AcDbSavedByObjectVersion
1070
     0
  0
ACAD_PROXY_OBJECT
  5
A264
102
{ACAD_REACTORS
330
9550
102
}
330
9550
100
AcDbZombieObject
 90
      499
 91
      509
 93
      516
310
4454DA18591959081DDA5D1A08195919D95CD1A40902404333333333333E3BF0000000000000F901074090142907004050250800405405064090740C02480A0B40
1001
ACAD
1000
AcDbSavedByObjectVersion
1070
     0
  0
ACAD_PROXY_OBJECT
  5
A261
102
{ACAD_REACTORS
330
9550
102
}
330
9550
100
AcDbZombieObject
 90
      499
 91
      509
 93
      532
310
4394DA1859195CC81BD98811DC985E5174090240C333333333333E3BF0000000000000FB01079024090741D01000000000000111010841D405064090740C02480A0340
1001
ACAD
1000
AcDbSavedByObjectVersion
1070
     0
  0
ACAD_PROXY_OBJECT
  5
A262
102
{ACAD_REACTORS
330
9550
102
}
330
9550
100
AcDbZombieObject
 90
      499
 91
      509
 93
      476
310
41D4DAD95D18DA1E51840502408333333333333E3BF0000000000000FB01079024090741D01000000000000111010B41D405064090741802480A0340
1001
ACAD
1000
AcDbSavedByObjectVersion
1070
     0
  0
ACAD_PROXY_OBJECT
  5
955D
102
{ACAD_REACTORS
330
9550
102
}
330
9550
100
AcDbZombieObject
 90
      499
 91
      509
 93
      412
310
41D51A1A58DAD95B90D409028333333333333E3BF0000000000000FB010790141107004050150C41D405064090741402480A0350
1001
ACAD
1000
AcDbSavedByObjectVersion
1070
     0
  0
ACAD_PROXY_OBJECT
  5
A25F
102
{ACAD_REACTORS
330
9550
102
}
330
9550
100
AcDbZombieObject
 90
      499
 91
      509
 93
      420
310
4255DA5C99599C985B595059028333333333333E3BF0000000000000FB0107901411070040501600405405064090740C02480A0340
1001
ACAD
1000
AcDbSavedByObjectVersion
1070
     0
  0
ACAD_PROXY_OBJECT
  5
A263
102
{ACAD_REACTORS
330
9550
102
}
330
9550
100
AcDbZombieObject
 90
      499
 91
      509
 93
      404
310
41560B54985E51940902404000000000000E03F0000000000000FB010740501907004050150841D405064090740C02480A1B40
1001
ACAD
1000
AcDbSavedByObjectVersion
1070
     0
  0
XRECORD
  5
D2CD
102
{ACAD_REACTORS
330
D2CC
102
}
330
D2CC
100
AcDbXrecord
340
18D
  0
XRECORD
  5
D2CE
102
{ACAD_REACTORS
330
D2CC
102
}
330
D2CC
100
AcDbXrecord
340
18C
  0
DICTIONARYVAR
  5
AF43
102
{ACAD_REACTORS
330
37
102
}
330
37
100
DictionaryVariables
280
     0
  1
1:1
  0
DICTIONARYVAR
  5
9627
102
{ACAD_REACTORS
330
37
102
}
330
37
100
DictionaryVariables
280
     0
  1
LeaderMulti
  0
DICTIONARYVAR
  5
29E
102
{ACAD_REACTORS
330
37
102
}
330
37
100
DictionaryVariables
280
     0
  1
Standard
  0
DICTIONARYVAR
  5
38
102
{ACAD_REACTORS
330
37
102
}
330
37
100
DictionaryVariables
280
     0
  1
-1
  0
DICTIONARYVAR
  5
1CE
102
{ACAD_REACTORS
330
37
102
}
330
37
100
DictionaryVariables
280
     0
  1
2
  0
DICTIONARYVAR
  5
704E
102
{ACAD_REACTORS
330
37
102
}
330
37
100
DictionaryVariables
280
     0
  1
1
  0
DICTIONARYVAR
  5
962A
102
{ACAD_REACTORS
330
37
102
}
330
37
100
DictionaryVariables
280
     0
  1
0
  0
DICTIONARYVAR
  5
7052
102
{ACAD_REACTORS
330
37
102
}
330
37
100
DictionaryVariables
280
     0
  1
8
  0
DICTIONARYVAR
  5
7051
102
{ACAD_REACTORS
330
37
102
}
330
37
100
DictionaryVariables
280
     0
  1
1
  0
DICTIONARYVAR
  5
AB30
102
{ACAD_REACTORS
330
37
102
}
330
37
100
DictionaryVariables
280
     0
  1
0
  0
DICTIONARYVAR
  5
704F
102
{ACAD_REACTORS
330
37
102
}
330
37
100
DictionaryVariables
280
     0
  1
8
  0
DICTIONARYVAR
  5
7050
102
{ACAD_REACTORS
330
37
102
}
330
37
100
DictionaryVariables
280
     0
  1
2
  0
DICTIONARYVAR
  5
1CF
102
{ACAD_REACTORS
330
37
102
}
330
37
100
DictionaryVariables
280
     0
  1

  0
DICTIONARYVAR
  5
9629
102
{ACAD_REACTORS
330
37
102
}
330
37
100
DictionaryVariables
280
     0
  1
127
  0
DICTIONARYVAR
  5
B84C
102
{ACAD_REACTORS
330
37
102
}
330
37
100
DictionaryVariables
280
     0
  1
2
  0
ACAD_PROXY_OBJECT
  5
C26F
102
{ACAD_REACTORS
330
96DA
102
}
330
96DA
100
AcDbZombieObject
 90
      499
 91
      519
 93
    49362
310
0586000016C005C080000B404000098880400B8041000996969616128043800000000000001680020000000F8001C01C80478012C04500000000000000004001C00990DBDB1BDC97CDEE0040000000128040000000000000001680020000000F8037401C80448012C04500000000000000004002400990DBDB1BDC97CC8C8C
310
6E0040000000128040000000000000001680020000000F8002001C80448012C04500000000000000004001C00990DBDB1BDC97CE2E0040000000128040000000000000001680020000000F8002001C80448012C04000000000000000004001C00990DBDB1BDC97CE2E0040000000128040000000000000001680020000000F
310
8032401C80464012C04500000000000000004002400990DBDB1BDC97CC8C0C6E0040000000128040000000000000001680020000000F8037401C80448012C04500000000000000004002400990DBDB1BDC97CC8C8C6E0040000000128040000000000000001680024000000F8000401C807F7FD2C045000000000000000040
310
01C00990DBDB1BDC97CC6E0040000000128040000000000000001680020000000F803F401C80434012C04500000000000000004002400990DBDB1BDC97CC8D4CEE0040000000128040000000000000001680000000000F8001C01C807F7FD2C04500000000000000004001C00990DBDB1BDC97CDEE00400000001280400000
310
00000000001680020000000F8002001C80448012C04500000000000000004001C00990DBDB1BDC97CE2E0040000000128040000000000000001680020000000F803F801C80434012C04000000000000000004002400990DBDB1BDC97CC8D4D2E0040000000128040000000000000001680020000000F8037401C80448012C0
310
4500000000000000004002400990DBDB1BDC97CC8C8C6E0040000000128040000000000000001680020000000F8000801C80478012C04500000000000000004001C00990DBDB1BDC97CCAE0040000000128040000000000000001680020000000F8035401C80478012C04500000000000000004002400990DBDB1BDC97CC8C
310
4CEE0040000000128040000000000000001680020000000F8038401C807F7FD2C04500000000000000004002400990DBDB1BDC97CC8C8D6E0040000000128040000000000000001680020000000F8001C01C807F7FD2C04500000000000000004001C00990DBDB1BDC97CDEE00400000001280400000000000000016800200
310
00000F8007801C807F7FD2C04500000000000000004002000990DBDB1BDC97CCCC2E0040000000128040000000000000001680020000000F803F001C804F0012C04500000000000000004002400990DBDB1BDC97CC8D4CAE0040000000128040000000000000001680024000000F8002001C807F7FD2C04500000000000000
310
004001C00990DBDB1BDC97CE2E0040000000128040000000000000001680020000000F8001801C80478012C04500000000000000004001C00990DBDB1BDC97CDAE0040000000128040000000000000001680020000000F8037801C807F7FD2C04500000000000000004002400990DBDB1BDC97CC8C8CAE0040000000128040
310
000000000000001680020000000F8000401C807F7FD2C04500000000000000004001C00990DBDB1BDC97CC6E0040000000128040000000000000001680020000000F8017C01C80478012C04500000000000000004002000990DBDB1BDC97CE4D6E0040000000128040000000000000001680000000000F803CC01C807F7FD2
310
C04500000000000000004002400990DBDB1BDC97CC8D0CEE0040000000128040000000000000001680020000000F8001001C80478012C04500000000000000004001C00990DBDB1BDC97CD2E0040000000128040000000000000001680020000000F8017401C80434012C04500000000000000004002000990DBDB1BDC97CE
310
4CEE0040000000128040000000000000001680020000000F8039C01C80434012C04500000000000000004002400990DBDB1BDC97CC8CCC6E0040000000128040000000000000001680020000000F8007C01C80434012C04500000000000000004002000990DBDB1BDC97CCCC6E004000000012804000000000000000168002
310
0000000F8001C01C80450012C04500000000000000004001C00990DBDB1BDC97CDEE0040000000128040000000000000001680020000000F8001401C80434012C04000000000000000004001C00990DBDB1BDC97CD6E0040000000128040000000000000001680020000000F8000401C80434012C040000000000000000040
310
01C00990DBDB1BDC97CC6E0040000000128040000000000000001680020000000F8002001C8043C012C04000000000000000004001C00990DBDB1BDC97CE2E0040000000128040000000000000001680020000000F8000401C80478012C04500000000000000004001C00990DBDB1BDC97CC6E004000000012804000000000
310
0000001680020000000F8000C01C80478012C04500000000000000004001C00990DBDB1BDC97CCEE0040000000128040000000000000001680020000000F8023401C80434012C04500000000000000004002400990DBDB1BDC97CC4D0C6E0040000000128040000000000000001680020000000F8014401C80434012C04500
310
000000000000004002000990DBDB1BDC97CE0C6E0040000000128040000000000000001680020000000F8003401C80434012C04500000000000000004002000990DBDB1BDC97CC4CEE0040000000128040000000000000001680020000000F800DC01C80434012C04500000000000000004002000990DBDB1BDC97CD4D6E00
310
40000000128040000000000000001680020000000F800D401C80434012C04500000000000000004002000990DBDB1BDC97CD4CEE0040000000128040000000000000001680020000000F8021801C80434012C04500000000000000004002400990DBDB1BDC97CC4CCD2E004000000012804000000000000000168002000000
310
0F800FC01C80434012C04500000000000000004002000990DBDB1BDC97CD8CEE0040000000128040000000000000001680020000000F803AC01C80434012C04500000000000000004002400990DBDB1BDC97CC8CCD6E0040000000128040000000000000001680020000000F8023401C80434012C045000000000000000040
310
02400990DBDB1BDC97CC4D0C6E0040000000128040000000000000001680020000000F8001401C80478012C04500000000000000004001C00990DBDB1BDC97CD6E0040000000128040000000000000001680020000000F8023C01C80478012C04500000000000000004002400990DBDB1BDC97CC4D0CEE0040000000128040
310
000000000000001680020000000F8003C01C80478012C04500000000000000004002000990DBDB1BDC97CC4D6E0040000000128040000000000000001680020000000F8001C01C80478012C04500000000000000004001C00990DBDB1BDC97CDEE0040000000128040000000000000001680020000000F803F801C80448012
310
C04500000000000000004002400990DBDB1BDC97CC8D4D2E0040000000128040000000000000001680020000000F8002001C80448012C04500000000000000004001C00990DBDB1BDC97CE2E0040000000128040000000000000001680020000000F8001C01C807F7FD2C04000000000000000004001C00990DBDB1BDC97CD
310
EE0040000000128040000000000000001680020000000F8001C01C807F7FD2C04000000000000000004001C00990DBDB1BDC97CDEE0040000000128040000000000000001680020000000F8001C01C807F7FD2C04000000000000000004001C00990DBDB1BDC97CDEE0040000000128040000000000000001680020000000F
310
8001C01C807F7FD2C04000000000000000004001C00990DBDB1BDC97CDEE0040000000128040000000000000001680020000000F8001C01C807F7FD2C04000000000000000004001C00990DBDB1BDC97CDEE0040000000128040000000000000001680020000000F8001C01C807F7FD2C04000000000000000004001C00990
310
DBDB1BDC97CDEE0040000000128040000000000000001680020000000F8002401C80450012C04500000000000000004001C00990DBDB1BDC97CE6E0040000000128040000000000000001680020000000F8001001C80400012C04000000000000000004001C00990DBDB1BDC97CD2E00400000001280400000000000000016
310
80020000000F8001001C80400012C04500000000000000004001C00990DBDB1BDC97CD2E0040000000128040000000000000001680020000000F8001001C80400012C04500000000000000004001C00990DBDB1BDC97CD2E0040000000128040000000000000001680020000000F8000401C80400012C04500000000000000
310
004001C00990DBDB1BDC97CC6E0040000000128040000000000000001680020000000F8001C01C80434012C04500000000000000004001C00990DBDB1BDC97CDEE0040000000128040000000000000001680020000000F8011801C80400012C04500000000000000004002000990DBDB1BDC97CDCC2E004000000012804000
310
0000000000001680020000000F8001001C80400012C04500000000000000004001C00990DBDB1BDC97CD2E0040000000128040000000000000001680020000000F8001C01C80448012C04500000000000000004001C00990DBDB1BDC97CDEE0040000000128040000000000000001680020000000F803F401C80434012C045
310
00000000000000004002400990DBDB1BDC97CC8D4CEE0040000000128040000000000000001680020000000F8000401C80478012C04500000000000000004001C00990DBDB1BDC97CC6E0040000000128040000000000000001680020000000F803F001C807F7FD2C04500000000000000004002400990DBDB1BDC97CC8D4C
310
AE0040000000128040000000000000001680020000000F800DC01C80434012C04500000000000000004002000990DBDB1BDC97CD4D6E0040000000128040000000000000001680020000000F8002801C807F7FD2C04500000000000000004002000990DBDB1BDC97CC4C2E0040000000128040000000000000001680020000
310
000F8002C01C807F7FD2C04500000000000000004002000990DBDB1BDC97CC4C6E0040000000128040000000000000001680020000000F8005401C807F7FD2C04500000000000000004002000990DBDB1BDC97CC8C6E0040000000128040000000000000001680020000000F8003001C807F7FD2C045000000000000000040
310
02000990DBDB1BDC97CC4CAE0040000000128040000000000000001680020000000F8005801C807F7FD2C04500000000000000004002000990DBDB1BDC97CC8CAE0040000000128040000000000000001680020000000F8008001C807F7FD2C04500000000000000004002000990DBDB1BDC97CCCCAE004000000012804000
310
0000000000001680020000000F8003C01C807F7FD2C04500000000000000004002000990DBDB1BDC97CC4D6E0040000000128040000000000000001680020000000F803C401C807F7FD2C04500000000000000004002400990DBDB1BDC97CC8D0C6E0040000000128040000000000000001680020000000F8000801C807F7F
310
D2C04500000000000000004001C00990DBDB1BDC97CCAE0040000000128040000000000000001680020000000F800D401C807F7FD2C04500000000000000004002000990DBDB1BDC97CD4CEE0040000000128040000000000000001680020000000F800DC01C807F7FD2C04500000000000000004002000990DBDB1BDC97CD
310
4D6E0040000000128040000000000000001680020000000F800D001C807F7FD2C04500000000000000004002000990DBDB1BDC97CD4CAE0040000000128040000000000000001680020000000F800A001C807F7FD2C04500000000000000004002000990DBDB1BDC97CD0C2E00400000001280400000000000000016800200
310
00000F800A401C807F7FD2C04500000000000000004002000990DBDB1BDC97CD0C6E0040000000128040000000000000001680020000000F800AC01C807F7FD2C04500000000000000004002000990DBDB1BDC97CD0CEE0040000000128040000000000000001680020000000F800A801C807F7FD2C0450000000000000000
310
4002000990DBDB1BDC97CD0CAE0040000000128040000000000000001680020000000F800B001C807F7FD2C04500000000000000004002000990DBDB1BDC97CD0D2E0040000000128040000000000000001680020000000F800B801C807F7FD2C04500000000000000004002000990DBDB1BDC97CD0DAE0040000000128040
310
000000000000001680020000000F800B401C807F7FD2C04500000000000000004002000990DBDB1BDC97CD0D6E0040000000128040000000000000001680020000000F800BC01C807F7FD2C04500000000000000004002000990DBDB1BDC97CD0DEE0040000000128040000000000000001680020000000F800E001C807F7F
310
D2C04500000000000000004002000990DBDB1BDC97CD4DAE0040000000128040000000000000001680020000000F8000C01C807F7FD2C04500000000000000004001C00990DBDB1BDC97CCEE0040000000128040000000000000001680020000000F800F001C807F7FD2C04500000000000000004002000990DBDB1BDC97CD
310
8C2E0040000000128040000000000000001680020000000F8014001C807F7FD2C04500000000000000004002000990DBDB1BDC97CE0C2E0040000000128040000000000000001680020000000F8019001C807F7FD2C04500000000000000004002400990DBDB1BDC97CC4C0C2E004000000012804000000000000000168002
310
0000000F800F401C807F7FD2C04500000000000000004002000990DBDB1BDC97CD8C6E0040000000128040000000000000001680020000000F8014401C807F7FD2C04500000000000000004002000990DBDB1BDC97CE0C6E0040000000128040000000000000001680020000000F8019401C807F7FD2C04500000000000000
310
004002400990DBDB1BDC97CC4C0C6E0040000000128040000000000000001680020000000F800FC01C807F7FD2C04500000000000000004002000990DBDB1BDC97CD8CEE0040000000128040000000000000001680020000000F8017401C807F7FD2C04500000000000000004002000990DBDB1BDC97CE4CEE004000000012
310
8040000000000000001680020000000F8012C01C807F7FD2C04500000000000000004002000990DBDB1BDC97CDCD6E0040000000128040000000000000001680020000000F801A401C807F7FD2C04500000000000000004002400990DBDB1BDC97CC4C0D6E0040000000128040000000000000001680020000000F8012801C
310
807F7FD2C04500000000000000004002000990DBDB1BDC97CDCD2E0040000000128040000000000000001680020000000F801A801C807F7FD2C04500000000000000004002400990DBDB1BDC97CC4C0DAE0040000000128040000000000000001680020000000F8001001C807F7FD2C04500000000000000004001C00990DB
310
DB1BDC97CD2E0040000000128040000000000000001680020000000F8021001C807F7FD2C04500000000000000004002400990DBDB1BDC97CC4CCCAE0040000000128040000000000000001680020000000F8022001C807F7FD2C04500000000000000004002400990DBDB1BDC97CC4CCDAE00400000001280400000000000
310
00001680020000000F8023001C807F7FD2C04500000000000000004002400990DBDB1BDC97CC4D0C2E0040000000128040000000000000001680020000000F8023801C807F7FD2C04500000000000000004002400990DBDB1BDC97CC4D0CAE0040000000128040000000000000001680020000000F8024001C807F7FD2C045
310
00000000000000004002400990DBDB1BDC97CC4D0D2E0040000000128040000000000000001680020000000F801EC01C807F7FD2C04500000000000000004002400990DBDB1BDC97CC4C8CEE0040000000128040000000000000001680020000000F8021C01C807F7FD2C04500000000000000004002400990DBDB1BDC97CC
310
4CCD6E0040000000128040000000000000001680020000000F8025C01C807F7FD2C04500000000000000004002400990DBDB1BDC97CC4D4C6E0040000000128040000000000000001680020000000F8028401C807F7FD2C04500000000000000004002400990DBDB1BDC97CC4D8C6E00400000001280400000000000000016
310
80020000000F8026001C807F7FD2C04500000000000000004002400990DBDB1BDC97CC4D4CAE0040000000128040000000000000001680020000000F8001401C807F7FD2C04500000000000000004001C00990DBDB1BDC97CD6E0040000000128040000000000000001680020000000F803F001C807F7FD2C0450000000000
310
0000004002400990DBDB1BDC97CC8D4CAE0040000000128040000000000000001680020000000F8001C01C807F7FD2C04500000000000000004001C00990DBDB1BDC97CDEE004000000000
  0
DICTIONARY
  5
D469
330
9540
100
AcDbDictionary
  3
ACAD_XREC_ROUNDTRIP
360
D46A
1001
ACAD
1000
TREAT_AS_HARD
1070
     1
  0
DICTIONARY
  5
D46B
330
9538
100
AcDbDictionary
  3
ACAD_XREC_ROUNDTRIP
360
D46C
1001
ACAD
1000
TREAT_AS_HARD
1070
     1
  0
DICTIONARY
  5
D46D
330
9548
100
AcDbDictionary
  3
ACAD_XREC_ROUNDTRIP
360
D46E
1001
ACAD
1000
TREAT_AS_HARD
1070
     1
  0
XRECORD
  5
D46A
102
{ACAD_REACTORS
330
D469
102
}
330
D469
100
AcDbXrecord
102
MATERIAL
148
0.0
149
0.0
149
0.0
 93
        0
 94
      127
282
     0
 72
     0
 77
     0
171
     0
175
     0
179
     0
273
     0
  0
XRECORD
  5
D46C
102
{ACAD_REACTORS
330
D46B
102
}
330
D46B
100
AcDbXrecord
102
MATERIAL
148
0.0
149
0.0
149
0.0
 93
        0
 94
      127
282
     0
 72
     0
 77
     0
171
     0
175
     0
179
     0
273
     0
  0
XRECORD
  5
D46E
102
{ACAD_REACTORS
330
D46D
102
}
330
D46D
100
AcDbXrecord
102
MATERIAL
148
0.0
149
0.0
149
0.0
 93
        0
 94
      127
282
     0
 72
     0
 77
     0
171
     0
175
     0
179
     0
273
     0
  0
ENDSEC
  0
EOF
