  0
SECTION
  2
HEADER
  9
$ACADVER
  1
AC1012
  9
$DWGCODEPAGE
  3
ansi_932
  9
$INSBASE
 10
0.0
 20
0.0
 30
0.0
  9
$EXTMIN
 10
4999.693024289326
 20
-330.845698500718
 30
0.0
  9
$EXTMAX
 10
5318.121309671757
 20
-85.84569850071796
 30
0.0
  9
$LIMMIN
 10
0.0
 20
0.0
  9
$LIMMAX
 10
420.0
 20
297.0
  9
$ORTHOMODE
 70
     0
  9
$REGENMODE
 70
     1
  9
$FILLMODE
 70
     1
  9
$QTEXTMODE
 70
     0
  9
$MIRRTEXT
 70
     0
  9
$DRAGMODE
 70
     2
  9
$LTSCALE
 40
0.5
  9
$OSMODE
 70
  2351
  9
$ATTMODE
 70
     1
  9
$TEXTSIZE
 40
4.0
  9
$TRACEWID
 40
1.0
  9
$TEXTSTYLE
  7
STANDARD
  9
$CLAYER
  8
1TEXT
  9
$CELTYPE
  6
BYLAYER
  9
$CECOLOR
 62
   256
  9
$CELTSCALE
 40
1.0
  9
$DELOBJ
 70
     1
  9
$DISPSILH
 70
     0
  9
$DIMSCALE
 40
1.0
  9
$DIMASZ
 40
2.0
  9
$DIMEXO
 40
0.0
  9
$DIMDLI
 40
7.0
  9
$DIMRND
 40
0.0
  9
$DIMDLE
 40
0.0
  9
$DIMEXE
 40
1.0
  9
$DIMTP
 40
0.0
  9
$DIMTM
 40
0.0
  9
$DIMTXT
 40
3.5
  9
$DIMCEN
 40
0.0
  9
$DIMTSZ
 40
0.0
  9
$DIMTOL
 70
     0
  9
$DIMLIM
 70
     0
  9
$DIMTIH
 70
     0
  9
$DIMTOH
 70
     0
  9
$DIMSE1
 70
     0
  9
$DIMSE2
 70
     0
  9
$DIMTAD
 70
     1
  9
$DIMZIN
 70
     8
  9
$DIMBLK
  1

  9
$DIMASO
 70
     1
  9
$DIMSHO
 70
     1
  9
$DIMPOST
  1
 
  9
$DIMAPOST
  1

  9
$DIMALT
 70
     0
  9
$DIMALTD
 70
     2
  9
$DIMALTF
 40
25.4
  9
$DIMLFAC
 40
1.0
  9
$DIMTOFL
 70
     1
  9
$DIMTVP
 40
0.0
  9
$DIMTIX
 70
     0
  9
$DIMSOXD
 70
     0
  9
$DIMSAH
 70
     1
  9
$DIMBLK1
  1
OPEN30
  9
$DIMBLK2
  1
OPEN30
  9
$DIMSTYLE
  2
NEWX10
  9
$DIMCLRD
 70
   256
  9
$DIMCLRE
 70
   256
  9
$DIMCLRT
 70
   201
  9
$DIMTFAC
 40
0.7
  9
$DIMGAP
 40
0.7
  9
$DIMJUST
 70
     0
  9
$DIMSD1
 70
     0
  9
$DIMSD2
 70
     0
  9
$DIMTOLJ
 70
     1
  9
$DIMTZIN
 70
     8
  9
$DIMALTZ
 70
     0
  9
$DIMALTTZ
 70
     0
  9
$DIMFIT
 70
     2
  9
$DIMUPT
 70
     0
  9
$DIMUNIT
 70
     2
  9
$DIMDEC
 70
     2
  9
$DIMTDEC
 70
     4
  9
$DIMALTU
 70
     2
  9
$DIMALTTD
 70
     2
  9
$DIMTXSTY
  7
STANDARD
  9
$DIMAUNIT
 70
     0
  9
$LUNITS
 70
     2
  9
$LUPREC
 70
     4
  9
$SKETCHINC
 40
1.0
  9
$FILLETRAD
 40
0.0
  9
$AUNITS
 70
     0
  9
$AUPREC
 70
     2
  9
$MENU
  1
acad
  9
$ELEVATION
 40
0.0
  9
$PELEVATION
 40
0.0
  9
$THICKNESS
 40
0.0
  9
$LIMCHECK
 70
     0
  9
$CHAMFERA
 40
10.0
  9
$CHAMFERB
 40
10.0
  9
$CHAMFERC
 40
20.0
  9
$CHAMFERD
 40
0.0
  9
$SKPOLY
 70
     0
  9
$TDCREATE
 40
2451318.621352917
  9
$TDUPDATE
 40
2458018.365916829
  9
$TDINDWG
 40
1.4788887963
  9
$TDUSRTIMER
 40
1.4788887963
  9
$USRTIMER
 70
     1
  9
$ANGBASE
 50
0.0
  9
$ANGDIR
 70
     0
  9
$PDMODE
 70
     0
  9
$PDSIZE
 40
0.0
  9
$PLINEWID
 40
0.0
  9
$COORDS
 70
     2
  9
$SPLFRAME
 70
     0
  9
$SPLINETYPE
 70
     6
  9
$SPLINESEGS
 70
     8
  9
$ATTDIA
 70
     0
  9
$ATTREQ
 70
     1
  9
$HANDLING
 70
     1
  9
$HANDSEED
  5
B2E0
  9
$SURFTAB1
 70
     6
  9
$SURFTAB2
 70
     6
  9
$SURFTYPE
 70
     6
  9
$SURFU
 70
     6
  9
$SURFV
 70
     6
  9
$UCSNAME
  2

  9
$UCSORG
 10
0.0
 20
0.0
 30
0.0
  9
$UCSXDIR
 10
1.0
 20
0.0
 30
0.0
  9
$UCSYDIR
 10
0.0
 20
1.0
 30
0.0
  9
$PUCSNAME
  2

  9
$PUCSORG
 10
0.0
 20
0.0
 30
0.0
  9
$PUCSXDIR
 10
1.0
 20
0.0
 30
0.0
  9
$PUCSYDIR
 10
0.0
 20
1.0
 30
0.0
  9
$USERI1
 70
     0
  9
$USERI2
 70
     0
  9
$USERI3
 70
     0
  9
$USERI4
 70
     0
  9
$USERI5
 70
     0
  9
$USERR1
 40
0.0
  9
$USERR2
 40
0.0
  9
$USERR3
 40
0.0
  9
$USERR4
 40
0.0
  9
$USERR5
 40
0.0
  9
$WORLDVIEW
 70
     1
  9
$SHADEDGE
 70
     3
  9
$SHADEDIF
 70
    70
  9
$TILEMODE
 70
     1
  9
$MAXACTVP
 70
    48
  9
$PINSBASE
 10
0.0
 20
0.0
 30
0.0
  9
$PLIMCHECK
 70
     0
  9
$PEXTMIN
 10
1.000000000000000E+20
 20
1.000000000000000E+20
 30
1.000000000000000E+20
  9
$PEXTMAX
 10
-1.000000000000000E+20
 20
-1.000000000000000E+20
 30
-1.000000000000000E+20
  9
$PLIMMIN
 10
0.0
 20
0.0
  9
$PLIMMAX
 10
420.0
 20
297.0
  9
$UNITMODE
 70
     0
  9
$VISRETAIN
 70
     1
  9
$PLINEGEN
 70
     0
  9
$PSLTSCALE
 70
     1
  9
$TREEDEPTH
 70
  3020
  9
$PICKSTYLE
 70
     1
  9
$CMLSTYLE
  2
STANDARD
  9
$CMLJUST
 70
     0
  9
$CMLSCALE
 40
20.0
  9
$SAVEIMAGES
 70
     1
  0
ENDSEC
  0
SECTION
  2
CLASSES
  0
CLASS
  1
DICTIONARYVAR
  2
AcDbDictionaryVar
  3
ObjectDBX Classes
 90
        0
280
     0
281
     0
  0
CLASS
  1
IDBUFFER
  2
AcDbIdBuffer
  3
ObjectDBX Classes
 90
    32768
280
     0
281
     0
  0
CLASS
  1
LWPOLYLINE
  2
AcDbPolyline
  3
ObjectDBX Classes
 90
    32768
280
     0
281
     1
  0
CLASS
  1
ACDBDICTIONARYWDFLT
  2
AcDbDictionaryWithDefault
  3
ObjectDBX Classes
 90
    32768
280
     0
281
     0
  0
CLASS
  1
ACDBPLACEHOLDER
  2
AcDbPlaceHolder
  3
ObjectDBX Classes
 90
        0
280
     0
281
     0
  0
CLASS
  1
LAYOUT
  2
AcDbLayout
  3
ObjectDBX Classes
 90
        0
280
     0
281
     0
  0
CLASS
  1
TABLESTYLE
  2
AcDbTableStyle
  3
ObjectDBX Classes
 90
     4095
280
     0
281
     0
  0
CLASS
  1
SORTENTSTABLE
  2
AcDbSortentsTable
  3
ObjectDBX Classes
 90
    32768
280
     0
281
     0
  0
CLASS
  1
MATERIAL
  2
AcDbMaterial
  3
ObjectDBX Classes
 90
     1153
280
     0
281
     0
  0
CLASS
  1
VISUALSTYLE
  2
AcDbVisualStyle
  3
ObjectDBX Classes
 90
     4095
280
     0
281
     0
  0
CLASS
  1
SCALE
  2
AcDbScale
  3
ObjectDBX Classes
 90
     1153
280
     0
281
     0
  0
CLASS
  1
MLEADERSTYLE
  2
AcDbMLeaderStyle
  3
ACDB_MLEADERSTYLE_CLASS
 90
     4095
280
     0
281
     0
  0
CLASS
  1
CELLSTYLEMAP
  2
AcDbCellStyleMap
  3
ObjectDBX Classes
 90
     1152
280
     0
281
     0
  0
CLASS
  1
SUN
  2
AcDbSun
  3
SCENEOE
 90
     1153
280
     0
281
     0
  0
CLASS
  1
AEC_REFEDIT_STATUS_TRACKER
  2
AecDbRefEditStatusTracker
  3
AecArchBase60|Product Desc: Autodesk Architectural Desktop 2007 |Company: Autodesk,Inc. |WEB Address: www.autodesk.com
 90
      129
280
     1
281
     0
  0
CLASS
  1
NPOCOLLECTION
  2
AcDbImpNonPersistentObjectsCollection
  3
ObjectDBX Classes
 90
     1153
280
     1
281
     0
  0
CLASS
  1
XRECORD
  2
AcDbXrecord
  3
ObjectDBX Classes
 90
    32768
280
     0
281
     0
  0
CLASS
  1
HATCH
  2
AcDbHatch
  3
ObjectDBX Classes
 90
    32768
280
     0
281
     1
  0
ENDSEC
  0
SECTION
  2
TABLES
  0
TABLE
  2
VPORT
  5
8
330
0
100
AcDbSymbolTable
 70
     1
  0
VPORT
  5
952D
330
8
100
AcDbSymbolTableRecord
100
AcDbViewportTableRecord
  2
*ACTIVE
 70
     0
 10
0.0
 20
0.0
 11
1.0
 21
1.0
 12
5158.907166980542
 22
-208.345698500718
 13
0.0
 23
0.0
 14
10.0
 24
10.0
 15
10.0
 25
10.0
 16
0.0
 26
0.0
 36
1.0
 17
0.0
 27
0.0
 37
0.0
 40
263.0526315789474
 41
2.122931442080378
 42
50.0
 43
0.0
 44
0.0
 50
0.0
 51
0.0
 71
    16
 72
   100
 73
     1
 74
     1
 75
     0
 76
     0
 77
     0
 78
     0
  0
ENDTAB
  0
TABLE
  2
LTYPE
  5
5
330
0
100
AcDbSymbolTable
 70
     2
  0
LTYPE
  5
12
330
5
100
AcDbSymbolTableRecord
100
AcDbLinetypeTableRecord
  2
BYBLOCK
 70
     0
  3

 72
    65
 73
     0
 40
0.0
  0
LTYPE
  5
13
330
5
100
AcDbSymbolTableRecord
100
AcDbLinetypeTableRecord
  2
BYLAYER
 70
     0
  3

 72
    65
 73
     0
 40
0.0
  0
LTYPE
  5
14
330
5
100
AcDbSymbolTableRecord
100
AcDbLinetypeTableRecord
  2
CONTINUOUS
 70
     0
  3
Solid line
 72
    65
 73
     0
 40
0.0
  0
LTYPE
  5
9837
330
5
100
AcDbSymbolTableRecord
100
AcDbLinetypeTableRecord
  2
CENTER2
 70
     0
  3
Center (.5x) ___ _ ___ _ ___ _ ___ _ ___ _ ___
 72
    65
 73
     4
 40
28.575
 49
19.05
 74
     0
 49
-3.175
 74
     0
 49
3.175
 74
     0
 49
-3.175
 74
     0
  0
ENDTAB
  0
TABLE
  2
LAYER
  5
2
102
{ACAD_XDICTIONARY
360
96D9
102
}
330
0
100
AcDbSymbolTable
 70
     5
  0
LAYER
  5
E
102
{ACAD_XDICTIONARY
360
9593
102
}
330
2
100
AcDbSymbolTableRecord
100
AcDbLayerTableRecord
  2
0
 70
     0
 62
     7
  6
CONTINUOUS
  0
LAYER
  5
29
102
{ACAD_XDICTIONARY
360
9595
102
}
330
2
100
AcDbSymbolTableRecord
100
AcDbLayerTableRecord
  2
1CENTER
 70
     0
 62
     7
  6
CENTER2
  0
LAYER
  5
31
102
{ACAD_XDICTIONARY
360
9597
102
}
330
2
100
AcDbSymbolTableRecord
100
AcDbLayerTableRecord
  2
1TEXT
 70
     0
 62
     7
  6
CONTINUOUS
  0
LAYER
  5
243
102
{ACAD_XDICTIONARY
360
959D
102
}
330
2
100
AcDbSymbolTableRecord
100
AcDbLayerTableRecord
  2
01
 70
     0
 62
     1
  6
CONTINUOUS
  0
LAYER
  5
24E
102
{ACAD_XDICTIONARY
360
95A3
102
}
330
2
100
AcDbSymbolTableRecord
100
AcDbLayerTableRecord
  2
1DIM
 70
     0
 62
     7
  6
CONTINUOUS
  0
ENDTAB
  0
TABLE
  2
STYLE
  5
3
330
0
100
AcDbSymbolTable
 70
     1
  0
STYLE
  5
F
330
3
100
AcDbSymbolTableRecord
100
AcDbTextStyleTableRecord
  2
STANDARD
 70
     0
 40
0.0
 41
1.0
 50
0.0
 71
     0
 42
4.0
  3
txt.shx
  4
extfont.shx
  0
ENDTAB
  0
TABLE
  2
VIEW
  5
6
330
0
100
AcDbSymbolTable
 70
     0
  0
ENDTAB
  0
TABLE
  2
UCS
  5
7
330
0
100
AcDbSymbolTable
 70
     0
  0
ENDTAB
  0
TABLE
  2
APPID
  5
9
330
0
100
AcDbSymbolTable
 70
    12
  0
APPID
  5
10
330
9
100
AcDbSymbolTableRecord
100
AcDbRegAppTableRecord
  2
ACAD
 70
     0
  0
APPID
  5
21
330
9
100
AcDbSymbolTableRecord
100
AcDbRegAppTableRecord
  2
DRAWINGVARIABLESXDATA
 70
     0
  0
APPID
  5
64
330
9
100
AcDbSymbolTableRecord
100
AcDbRegAppTableRecord
  2
CONTENTTABDATA
 70
     0
  0
APPID
  5
65
330
9
100
AcDbSymbolTableRecord
100
AcDbRegAppTableRecord
  2
CONTENTCURRENTTAB
 70
     0
  0
APPID
  5
66
330
9
100
AcDbSymbolTableRecord
100
AcDbRegAppTableRecord
  2
CONTENTBLOCKDESCRIPTION
 70
     0
  0
APPID
  5
67
330
9
100
AcDbSymbolTableRecord
100
AcDbRegAppTableRecord
  2
CONTENTBLOCKICON
 70
     0
  0
APPID
  5
68
330
9
100
AcDbSymbolTableRecord
100
AcDbRegAppTableRecord
  2
CONTENTLONGBLOCKNAME
 70
     0
  0
APPID
  5
2AE
330
9
100
AcDbSymbolTableRecord
100
AcDbRegAppTableRecord
  2
ACAD_PSEXT
 70
     0
  0
APPID
  5
9585
330
9
100
AcDbSymbolTableRecord
100
AcDbRegAppTableRecord
  2
ACAD_MLEADERVER
 70
     0
  0
APPID
  5
A2E3
330
9
100
AcDbSymbolTableRecord
100
AcDbRegAppTableRecord
  2
ACADANNOTATIVE
 70
     0
  0
APPID
  5
A2E4
330
9
100
AcDbSymbolTableRecord
100
AcDbRegAppTableRecord
  2
ACDBBLOCKREPETAG
 70
     0
  0
APPID
  5
AE8F
330
9
100
AcDbSymbolTableRecord
100
AcDbRegAppTableRecord
  2
ACAECLAYERSTANDARD
 70
     0
  0
ENDTAB
  0
TABLE
  2
DIMSTYLE
  5
A
330
0
100
AcDbSymbolTable
 70
     1
  0
DIMSTYLE
105
48
330
A
100
AcDbSymbolTableRecord
100
AcDbDimStyleTableRecord
  2
NEWX10
 70
     0
  3
 
  4

  5

  6
OPEN30
  7
OPEN30
 40
1.0
 41
2.0
 42
0.0
 43
7.0
 44
1.0
 45
0.0
 46
0.0
 47
0.0
 48
0.0
140
3.5
141
0.0
142
0.0
143
25.4
144
1.0
145
0.0
146
0.7
147
0.7
 71
     0
 72
     0
 73
     0
 74
     0
 75
     0
 76
     0
 77
     1
 78
     8
170
     0
171
     2
172
     1
173
     1
174
     0
175
     0
176
   256
177
   256
178
   201
179
     2
270
     2
271
     2
272
     4
273
     2
274
     2
340
F
275
     0
280
     0
281
     0
282
     0
283
     1
284
     8
285
     0
286
     0
287
     2
288
     0
  0
ENDTAB
  0
TABLE
  2
BLOCK_RECORD
  5
1
330
0
100
AcDbSymbolTable
 70
     8
  0
BLOCK_RECORD
  5
18
102
{ACAD_XDICTIONARY
360
88F
102
}
330
1
100
AcDbSymbolTableRecord
100
AcDbBlockTableRecord
  2
*MODEL_SPACE
  0
BLOCK_RECORD
  5
15
330
1
100
AcDbSymbolTableRecord
100
AcDbBlockTableRecord
  2
*PAPER_SPACE
  0
BLOCK_RECORD
  5
42
330
1
100
AcDbSymbolTableRecord
100
AcDbBlockTableRecord
  2
_OPEN30
  0
BLOCK_RECORD
  5
A333
330
1
100
AcDbSymbolTableRecord
100
AcDbBlockTableRecord
  2
A3WAKUKAWAJUN2017_HYOUDAI_
  0
BLOCK_RECORD
  5
B140
330
1
100
AcDbSymbolTableRecord
100
AcDbBlockTableRecord
  2
*X20
  0
BLOCK_RECORD
  5
B18E
330
1
100
AcDbSymbolTableRecord
100
AcDbBlockTableRecord
  2
*X21
  0
BLOCK_RECORD
  5
B1E0
330
1
100
AcDbSymbolTableRecord
100
AcDbBlockTableRecord
  2
*X22
  0
BLOCK_RECORD
  5
B231
330
1
100
AcDbSymbolTableRecord
100
AcDbBlockTableRecord
  2
*X23
  0
BLOCK_RECORD
  5
B26E
330
1
100
AcDbSymbolTableRecord
100
AcDbBlockTableRecord
  2
*X24
  0
BLOCK_RECORD
  5
B2AE
330
1
100
AcDbSymbolTableRecord
100
AcDbBlockTableRecord
  2
*X25
  0
ENDTAB
  0
ENDSEC
  0
SECTION
  2
BLOCKS
  0
BLOCK
  5
19
330
18
100
AcDbEntity
  8
0
100
AcDbBlockBegin
  2
*MODEL_SPACE
 70
     0
 10
0.0
 20
0.0
 30
0.0
  3
*MODEL_SPACE
  1

  0
ENDBLK
  5
1A
330
18
100
AcDbEntity
  8
0
100
AcDbBlockEnd
  0
BLOCK
  5
16
330
15
100
AcDbEntity
 67
     1
  8
0
100
AcDbBlockBegin
  2
*PAPER_SPACE
 70
     0
 10
0.0
 20
0.0
 30
0.0
  3
*PAPER_SPACE
  1

  0
ENDBLK
  5
17
330
15
100
AcDbEntity
 67
     1
  8
0
100
AcDbBlockEnd
  0
BLOCK
  5
43
330
42
100
AcDbEntity
  8
0
100
AcDbBlockBegin
  2
_OPEN30
 70
     0
 10
0.0
 20
0.0
 30
0.0
  3
_OPEN30
  1

  0
LINE
  5
44
330
42
100
AcDbEntity
  8
0
  6
BYBLOCK
 62
     0
100
AcDbLine
 10
-1.0
 20
0.26794919
 30
0.0
 11
0.0
 21
0.0
 31
0.0
  0
LINE
  5
45
330
42
100
AcDbEntity
  8
0
  6
BYBLOCK
 62
     0
100
AcDbLine
 10
0.0
 20
0.0
 30
0.0
 11
-1.0
 21
-0.26794919
 31
0.0
  0
LINE
  5
46
330
42
100
AcDbEntity
  8
0
  6
BYBLOCK
 62
     0
100
AcDbLine
 10
0.0
 20
0.0
 30
0.0
 11
-1.0
 21
0.0
 31
0.0
  0
ENDBLK
  5
47
330
42
100
AcDbEntity
  8
0
100
AcDbBlockEnd
  0
BLOCK
  5
AA56
330
A333
100
AcDbEntity
  8
0
100
AcDbBlockBegin
  2
A3WAKUKAWAJUN2017_HYOUDAI_
 70
     0
 10
0.0
 20
0.0
 30
0.0
  3
A3WAKUKAWAJUN2017_HYOUDAI_
  1

  0
LINE
  5
A335
330
A333
100
AcDbEntity
  8
0
100
AcDbLine
 10
13.26299999998673
 20
-0.0001000000000317
 30
0.0
 11
9.236999999990758
 21
8.999899999990987
 31
0.0
1001
ACAD
1000
ASC_BOUNDS
1002
{
1070
    19
1005
A376
1002
}
  0
LINE
  5
A336
330
A333
100
AcDbEntity
  8
0
100
AcDbLine
 10
5.657999999994331
 20
0.9999999999989768
 30
0.0
 11
9.236999999990758
 21
8.999999999991019
 31
0.0
1001
ACAD
1000
ASC_BOUNDS
1002
{
1070
    19
1005
A376
1002
}
  0
LINE
  5
A337
330
A333
100
AcDbEntity
  8
0
100
AcDbLine
 10
18.59199999998134
 20
-0.2368999999997641
 30
0.0
 11
16.46099999998353
 21
5.432899999994561
 31
0.0
1001
ACAD
1000
ASC_BOUNDS
1002
{
1070
    19
1005
A377
1002
}
  0
LINE
  5
A338
330
A333
100
AcDbEntity
  8
0
100
AcDbLine
 10
18.59199999998134
 20
-0.2368999999997641
 30
0.0
 11
22.38199999997767
 21
8.763099999991255
 31
0.0
1001
ACAD
1000
ASC_BOUNDS
1002
{
1070
    19
1005
A377
1002
}
  0
LINE
  5
A339
330
A333
100
AcDbEntity
  8
0
100
AcDbLine
 10
14.32899999998563
 20
-0.2368999999997641
 30
0.0
 11
16.46099999998353
 21
5.432899999994561
 31
0.0
1001
ACAD
1000
ASC_BOUNDS
1002
{
1070
    19
1005
A377
1002
}
  0
LINE
  5
A33A
330
A333
100
AcDbEntity
  8
0
100
AcDbLine
 10
14.32899999998563
 20
-0.2368999999997641
 30
0.0
 11
10.53899999998941
 21
8.763099999991255
 31
0.0
1001
ACAD
1000
ASC_BOUNDS
1002
{
1070
    19
1005
A377
1002
}
  0
LINE
  5
A33B
330
A333
100
AcDbEntity
  8
0
100
AcDbLine
 10
19.53899999998043
 20
-0.0001000000000317
 30
0.0
 11
23.56599999997638
 21
8.999899999990987
 31
0.0
1001
ACAD
1000
ASC_BOUNDS
1002
{
1070
    19
1005
A378
1002
}
  0
LINE
  5
A33C
330
A333
100
AcDbEntity
  8
0
100
AcDbLine
 10
26.97358892824991
 20
1.383099999991202
 30
0.0
 11
23.56599999997638
 21
8.999899999990987
 31
0.0
1001
ACAD
1000
ASC_BOUNDS
1002
{
1070
    19
1005
A378
1002
}
  0
LINE
  5
A33D
330
A333
100
AcDbEntity
  8
0
100
AcDbLine
 10
5.657999999994331
 20
0.9999999999989768
 30
0.0
 11
3.181999999996833
 21
4.668599999995308
 31
0.0
1001
ACAD
1000
ASC_BOUNDS
1002
{
1070
    19
1005
A376
1002
}
  0
LINE
  5
A33E
330
A333
100
AcDbEntity
  8
0
100
AcDbLine
 10
4.617999999995391
 20
-0.0001000000000317
 30
0.0
 11
1.420999999998571
 21
4.736799999995242
 31
0.0
1001
ACAD
1000
ASC_BOUNDS
1002
{
1070
    19
1005
A376
1002
}
  0
LINE
  5
A33F
330
A333
100
AcDbEntity
  8
0
100
AcDbLine
 10
1.420999999998571
 20
8.763099999991255
 30
0.0
 11
1.420999999998571
 21
0.0
 31
0.0
1001
ACAD
1000
ASC_BOUNDS
1002
{
1070
    19
1005
A37B
1002
}
  0
LINE
  5
A340
330
A333
100
AcDbEntity
  8
0
100
AcDbLine
 10
0.0
 20
8.763099999991255
 30
0.0
 11
0.0
 21
0.0
 31
0.0
1001
ACAD
1000
ASC_BOUNDS
1002
{
1070
    19
1005
A37B
1002
}
  0
LINE
  5
A341
330
A333
100
AcDbEntity
  8
0
100
AcDbLine
 10
6.766999999993232
 20
-0.0001000000000317
 30
0.0
 11
7.826999999992154
 21
2.368399999997621
 31
0.0
1001
ACAD
1000
ASC_BOUNDS
1002
{
1070
    19
1005
A376
1002
}
  0
LINE
  5
A342
330
A333
100
AcDbEntity
  8
0
100
AcDbLine
 10
0.0
 20
0.0
 30
0.0
 11
1.420999999998571
 21
0.0
 31
0.0
1001
ACAD
1000
ASC_BOUNDS
1002
{
1070
    19
1005
A37B
1002
}
  0
LINE
  5
A343
330
A333
100
AcDbEntity
  8
0
100
AcDbLine
 10
4.617999999995391
 20
0.0
 30
0.0
 11
6.766999999993232
 21
0.0
 31
0.0
1001
ACAD
1000
ASC_BOUNDS
1002
{
1070
    19
1005
A376
1002
}
  0
LINE
  5
A344
330
A333
100
AcDbEntity
  8
0
100
AcDbLine
 10
11.70599999998831
 20
-0.0001000000000317
 30
0.0
 11
10.64699999998936
 21
2.368399999997621
 31
0.0
1001
ACAD
1000
ASC_BOUNDS
1002
{
1070
    19
1005
A376
1002
}
  0
LINE
  5
A345
330
A333
100
AcDbEntity
  8
0
100
AcDbLine
 10
7.826999999992154
 20
2.368399999997621
 30
0.0
 11
10.64699999998936
 21
2.368399999997621
 31
0.0
1001
ACAD
1000
ASC_BOUNDS
1002
{
1070
    19
1005
A376
1002
}
  0
LINE
  5
A346
330
A333
100
AcDbEntity
  8
0
100
AcDbLine
 10
11.70599999998831
 20
0.0
 30
0.0
 11
13.26299999998673
 21
0.0
 31
0.0
1001
ACAD
1000
ASC_BOUNDS
1002
{
1070
    19
1005
A376
1002
}
  0
LINE
  5
A347
330
A333
100
AcDbEntity
  8
0
100
AcDbLine
 10
22.15599999997789
 20
2.368399999997621
 30
0.0
 11
24.97599999997499
 21
2.368399999997621
 31
0.0
1001
ACAD
1000
ASC_BOUNDS
1002
{
1070
    19
1005
A378
1002
}
  0
LINE
  5
A348
330
A333
100
AcDbEntity
  8
0
100
AcDbLine
 10
19.53899999998043
 20
0.0
 30
0.0
 11
21.09599999997886
 21
0.0
 31
0.0
1001
ACAD
1000
ASC_BOUNDS
1002
{
1070
    19
1005
A378
1002
}
  0
LINE
  5
A349
330
A333
100
AcDbEntity
  8
0
100
AcDbLine
 10
21.09599999997886
 20
-0.0001000000000317
 30
0.0
 11
22.15599999997789
 21
2.368399999997621
 31
0.0
1001
ACAD
1000
ASC_BOUNDS
1002
{
1070
    19
1005
A378
1002
}
  0
LINE
  5
A34A
330
A333
100
AcDbEntity
  8
0
100
AcDbLine
 10
26.02015566812236
 20
0.0330999999912365
 30
0.0
 11
24.97599999997499
 21
2.368399999997621
 31
0.0
1001
ACAD
1000
ASC_BOUNDS
1002
{
1070
    19
1005
A378
1002
}
  0
LINE
  5
A34B
330
A333
100
AcDbEntity
  8
0
100
AcDbLine
 10
14.32399999998563
 20
3.315799999996671
 30
0.0
 11
16.46099999998353
 21
8.999899999990987
 31
0.0
1001
ACAD
1000
ASC_BOUNDS
1002
{
1070
    19
1005
A377
1002
}
  0
LINE
  5
A34C
330
A333
100
AcDbEntity
  8
0
100
AcDbLine
 10
6.432999999993513
 20
8.763099999991255
 30
0.0
 11
3.181999999996833
 21
4.668599999995308
 31
0.0
1001
ACAD
1000
ASC_BOUNDS
1002
{
1070
    19
1005
A376
1002
}
  0
LINE
  5
A34D
330
A333
100
AcDbEntity
  8
0
100
AcDbLine
 10
4.617999999995391
 20
8.763099999991255
 30
0.0
 11
1.420999999998571
 21
4.736799999995242
 31
0.0
1001
ACAD
1000
ASC_BOUNDS
1002
{
1070
    19
1005
A376
1002
}
  0
LINE
  5
A34E
330
A333
100
AcDbEntity
  8
0
100
AcDbLine
 10
0.0
 20
8.763099999991255
 30
0.0
 11
1.420999999998571
 21
8.763099999991255
 31
0.0
1001
ACAD
1000
ASC_BOUNDS
1002
{
1070
    19
1005
A37B
1002
}
  0
LINE
  5
A34F
330
A333
100
AcDbEntity
  8
0
100
AcDbLine
 10
4.617999999995391
 20
8.763099999991255
 30
0.0
 11
6.432999999993513
 21
8.763099999991255
 31
0.0
1001
ACAD
1000
ASC_BOUNDS
1002
{
1070
    19
1005
A376
1002
}
  0
LINE
  5
A350
330
A333
100
AcDbEntity
  8
0
100
AcDbLine
 10
14.32399999998563
 20
3.315799999996671
 30
0.0
 11
12.02999999998792
 21
8.763099999991255
 31
0.0
1001
ACAD
1000
ASC_BOUNDS
1002
{
1070
    19
1005
A377
1002
}
  0
LINE
  5
A351
330
A333
100
AcDbEntity
  8
0
100
AcDbLine
 10
10.06399999998996
 20
3.670999999996297
 30
0.0
 11
9.236999999990758
 21
5.5200999999945
 31
0.0
1001
ACAD
1000
ASC_BOUNDS
1002
{
1070
    19
1005
A376
1002
}
  0
LINE
  5
A352
330
A333
100
AcDbEntity
  8
0
100
AcDbLine
 10
8.409999999991555
 20
3.670999999996297
 30
0.0
 11
9.236999999990758
 21
5.5200999999945
 31
0.0
1001
ACAD
1000
ASC_BOUNDS
1002
{
1070
    19
1005
A376
1002
}
  0
LINE
  5
A353
330
A333
100
AcDbEntity
  8
0
100
AcDbLine
 10
8.409999999991555
 20
3.670999999996297
 30
0.0
 11
10.06399999998996
 21
3.670999999996297
 31
0.0
1001
ACAD
1000
ASC_BOUNDS
1002
{
1070
    19
1005
A376
1002
}
  0
LINE
  5
A354
330
A333
100
AcDbEntity
  8
0
100
AcDbLine
 10
10.53899999998941
 20
8.763099999991255
 30
0.0
 11
12.02999999998792
 21
8.763099999991255
 31
0.0
1001
ACAD
1000
ASC_BOUNDS
1002
{
1070
    19
1005
A377
1002
}
  0
LINE
  5
A355
330
A333
100
AcDbEntity
  8
0
100
AcDbLine
 10
22.7389999999773
 20
3.670999999996297
 30
0.0
 11
23.56599999997638
 21
5.5200999999945
 31
0.0
1001
ACAD
1000
ASC_BOUNDS
1002
{
1070
    19
1005
A378
1002
}
  0
LINE
  5
A356
330
A333
100
AcDbEntity
  8
0
100
AcDbLine
 10
22.7389999999773
 20
3.670999999996297
 30
0.0
 11
24.39299999997559
 21
3.670999999996297
 31
0.0
1001
ACAD
1000
ASC_BOUNDS
1002
{
1070
    19
1005
A378
1002
}
  0
LINE
  5
A357
330
A333
100
AcDbEntity
  8
0
100
AcDbLine
 10
18.59799999998143
 20
3.315799999996671
 30
0.0
 11
20.89099999997916
 21
8.763099999991255
 31
0.0
1001
ACAD
1000
ASC_BOUNDS
1002
{
1070
    19
1005
A377
1002
}
  0
LINE
  5
A358
330
A333
100
AcDbEntity
  8
0
100
AcDbLine
 10
18.59799999998143
 20
3.315799999996671
 30
0.0
 11
16.46099999998353
 21
8.999899999990987
 31
0.0
1001
ACAD
1000
ASC_BOUNDS
1002
{
1070
    19
1005
A377
1002
}
  0
LINE
  5
A359
330
A333
100
AcDbEntity
  8
0
100
AcDbLine
 10
20.89099999997916
 20
8.763099999991255
 30
0.0
 11
22.38199999997767
 21
8.763099999991255
 31
0.0
1001
ACAD
1000
ASC_BOUNDS
1002
{
1070
    19
1005
A377
1002
}
  0
LINE
  5
A35A
330
A333
100
AcDbEntity
  8
0
100
AcDbLine
 10
24.39299999997559
 20
3.670999999996297
 30
0.0
 11
23.56599999997638
 21
5.5200999999945
 31
0.0
1001
ACAD
1000
ASC_BOUNDS
1002
{
1070
    19
1005
A378
1002
}
  0
LINE
  5
A35B
330
A333
100
AcDbEntity
  8
0
100
AcDbLine
 10
44.99999999995498
 20
-0.2368999999997641
 30
0.0
 11
40.02599999995994
 21
5.341799999994635
 31
0.0
1001
ACAD
1000
ASC_BOUNDS
1002
{
1070
    19
1005
A37A
1002
}
  0
LINE
  5
A35C
330
A333
100
AcDbEntity
  8
0
100
AcDbLine
 10
40.02599999995994
 20
5.341799999994635
 30
0.0
 11
40.02599999995994
 21
0.0
 31
0.0
1001
ACAD
1000
ASC_BOUNDS
1002
{
1070
    19
1005
A37A
1002
}
  0
LINE
  5
A35D
330
A333
100
AcDbEntity
  8
0
100
AcDbLine
 10
38.60499999996136
 20
8.999999999991019
 30
0.0
 11
38.60499999996136
 21
0.0
 31
0.0
1001
ACAD
1000
ASC_BOUNDS
1002
{
1070
    19
1005
A37A
1002
}
  0
LINE
  5
A35E
330
A333
100
AcDbEntity
  8
0
100
AcDbLine
 10
44.99999999995498
 20
8.763099999991255
 30
0.0
 11
44.99999999995498
 21
-0.2368999999997641
 31
0.0
1001
ACAD
1000
ASC_BOUNDS
1002
{
1070
    19
1005
A37A
1002
}
  0
LINE
  5
A35F
330
A333
100
AcDbEntity
  8
0
100
AcDbLine
 10
38.60499999996136
 20
0.0
 30
0.0
 11
40.02599999995994
 21
0.0
 31
0.0
1001
ACAD
1000
ASC_BOUNDS
1002
{
1070
    19
1005
A37A
1002
}
  0
LINE
  5
A360
330
A333
100
AcDbEntity
  8
0
100
AcDbLine
 10
43.57899999995641
 20
3.421199999996588
 30
0.0
 11
38.60499999996136
 21
8.999899999990987
 31
0.0
1001
ACAD
1000
ASC_BOUNDS
1002
{
1070
    19
1005
A37A
1002
}
  0
LINE
  5
A361
330
A333
100
AcDbEntity
  8
0
100
AcDbLine
 10
43.57899999995641
 20
8.763099999991255
 30
0.0
 11
43.57899999995641
 21
3.421199999996588
 31
0.0
1001
ACAD
1000
ASC_BOUNDS
1002
{
1070
    19
1005
A37A
1002
}
  0
LINE
  5
A362
330
A333
100
AcDbEntity
  8
0
100
AcDbLine
 10
43.57899999995641
 20
8.763099999991255
 30
0.0
 11
44.99999999995498
 21
8.763099999991255
 31
0.0
1001
ACAD
1000
ASC_BOUNDS
1002
{
1070
    19
1005
A37A
1002
}
  0
LINE
  5
A363
330
A333
100
AcDbEntity
  8
0
100
AcDbLine
 10
37.67199999996831
 20
8.763099999991255
 30
0.0
 11
36.23199999996837
 21
8.763099999991255
 31
0.0
  0
LINE
  5
A364
330
A333
100
AcDbEntity
  8
0
100
AcDbLine
 10
31.64199999996833
 20
8.763099999991255
 30
0.0
 11
31.64199999996833
 21
2.481619422925121
 31
0.0
  0
LINE
  5
A365
330
A333
100
AcDbEntity
  8
0
100
AcDbLine
 10
37.67199999996831
 20
8.763099999991255
 30
0.0
 11
37.67199999996831
 21
2.481619422925121
 31
0.0
  0
LINE
  5
A366
330
A333
100
AcDbEntity
  8
0
100
AcDbLine
 10
36.23199999996837
 20
8.763099999991255
 30
0.0
 11
36.23199999996837
 21
2.481619422925064
 31
0.0
  0
LINE
  5
A367
330
A333
100
AcDbEntity
  8
0
100
AcDbLine
 10
33.08199999996839
 20
8.763099999991255
 30
0.0
 11
33.08199999996839
 21
2.481619422925121
 31
0.0
  0
ARC
  5
A368
330
A333
100
AcDbEntity
  8
0
100
AcDbCircle
 10
34.65699999996832
 20
3.183099999991214
 30
0.0
 40
3.420000000000007
100
AcDbArc
 50
240.0000000000255
 51
299.9999999999766
  0
ARC
  5
A369
330
A333
100
AcDbEntity
  8
0
100
AcDbCircle
 10
34.65699999996832
 20
3.183099999991214
 30
0.0
 40
1.97999999999999
100
AcDbArc
 50
240.000000000026
 51
299.9999999999703
  0
LINE
  5
A36A
330
A333
100
AcDbEntity
  8
0
100
AcDbLine
 10
33.08199999996828
 20
8.763099999991255
 30
0.0
 11
31.64199999996833
 21
8.763099999991255
 31
0.0
  0
ARC
  5
A36B
330
A333
100
AcDbEntity
  8
0
100
AcDbCircle
 10
35.06199999996829
 20
2.481619422925064
 30
0.0
 40
1.17
100
AcDbArc
 50
299.9999999999699
 51
0.0
  0
ARC
  5
A36C
330
A333
100
AcDbEntity
  8
0
100
AcDbCircle
 10
34.25199999996835
 20
2.481619422925121
 30
0.0
 40
1.17
100
AcDbArc
 50
180.0
 51
240.0000000000238
  0
ARC
  5
A36D
330
A333
100
AcDbEntity
  8
0
100
AcDbCircle
 10
35.06199999996841
 20
2.481619422925121
 30
0.0
 40
2.61
100
AcDbArc
 50
299.9999999999756
 51
0.0
  0
ARC
  5
A36E
330
A333
100
AcDbEntity
  8
0
100
AcDbCircle
 10
34.25199999996835
 20
2.481619422925121
 30
0.0
 40
2.61
100
AcDbArc
 50
180.0
 51
240.0000000000244
  0
LINE
  5
A36F
330
A333
100
AcDbEntity
  8
0
100
AcDbLine
 10
29.30199999996933
 20
8.763099999991255
 30
0.0
 11
30.74199999996927
 21
8.763099999991255
 31
0.0
1001
ACAD
1000
ASC_BOUNDS
1002
{
1070
    19
1005
A378
1002
}
  0
LINE
  5
A370
330
A333
100
AcDbEntity
  8
0
100
AcDbLine
 10
30.74199999996927
 20
8.763099999991255
 30
0.0
 11
30.74199999996927
 21
2.373099999991211
 31
0.0
1001
ACAD
1000
ASC_BOUNDS
1002
{
1070
    19
1005
A378
1002
}
  0
LINE
  5
A371
330
A333
100
AcDbEntity
  8
0
100
AcDbLine
 10
26.02015566812236
 20
0.0330999999912365
 30
0.0
 11
28.40199999996923
 21
0.0330999999912365
 31
0.0
1001
ACAD
1000
ASC_BOUNDS
1002
{
1070
    19
1005
A378
1002
}
  0
LINE
  5
A372
330
A333
100
AcDbEntity
  8
0
100
AcDbLine
 10
29.30199999996933
 20
8.763099999991255
 30
0.0
 11
29.30199999996933
 21
2.283099999991236
 31
0.0
1001
ACAD
1000
ASC_BOUNDS
1002
{
1070
    19
1005
A378
1002
}
  0
LINE
  5
A373
330
A333
100
AcDbEntity
  8
0
100
AcDbLine
 10
26.97358892824991
 20
1.383099999991202
 30
0.0
 11
28.40199999996923
 21
1.383099999991202
 31
0.0
1001
ACAD
1000
ASC_BOUNDS
1002
{
1070
    19
1005
A378
1002
}
  0
ARC
  5
A374
330
A333
100
AcDbEntity
  8
0
100
AcDbCircle
 10
28.40199999996923
 20
2.283099999991236
 30
0.0
 40
0.9
100
AcDbArc
 50
270.0
 51
0.0
1001
ACAD
1000
ASC_BOUNDS
1002
{
1070
    19
1005
A378
1002
}
  0
ARC
  5
A375
330
A333
100
AcDbEntity
  8
0
100
AcDbCircle
 10
28.40199999996923
 20
2.373099999991211
 30
0.0
 40
2.34
100
AcDbArc
 50
270.0
 51
0.0
1001
ACAD
1000
ASC_BOUNDS
1002
{
1070
    19
1005
A378
1002
}
  0
INSERT
  5
A376
330
A333
100
AcDbEntity
  8
0
100
AcDbBlockReference
  2
*X20
 10
0.0
 20
0.0
 30
0.0
1001
ACAD
1000
HATCH
1002
{
1070
    19
1000
ANSI37
1040
0.15
1040
0.0
1000
ASC_BOUNDS
1070
     2
1070
     2
1070
    12
1005
A335
1005
A336
1005
A33D
1005
A34C
1005
A34F
1005
A34D
1005
A33E
1005
A343
1005
A341
1005
A345
1005
A344
1005
A346
1070
     2
1070
     3
1005
A351
1005
A353
1005
A352
1000
ASC_SEEDPOINT
1011
3.614004224891801
1021
2.996669441146025
1031
0.0
1000
R14_HATCH_DATA
1000
A376
1011
1.0
1021
0.0
1031
0.0
1011
0.0
1021
1.0
1031
0.0
1011
0.0
1021
0.0
1031
1.0
1040
0.0
1010
0.0
1020
0.0
1030
1.0
1000
ANSI37
1070
     0
1070
     1
1071
        2
1071
        7
1070
     0
1070
     1
1071
       17
1040
13.26299999998673
1040
-0.0001000000000317
1040
9.236999999990758
1040
8.999899999990987
1040
9.236999999990758
1040
8.999999999991019
1040
5.657999999994331
1040
0.9999999999989768
1040
3.181999999996833
1040
4.668599999995308
1040
6.432999999993513
1040
8.763099999991255
1040
4.617999999995391
1040
8.763099999991255
1040
1.420999999998571
1040
4.736799999995242
1040
4.617999999995391
1040
-0.0001000000000317
1040
4.617999999995391
1040
0.0
1040
6.766999999993232
1040
0.0
1040
6.766999999993232
1040
-0.0001000000000317
1040
7.826999999992154
1040
2.368399999997621
1040
10.64699999998936
1040
2.368399999997621
1040
11.70599999998831
1040
-0.0001000000000317
1040
11.70599999998831
1040
0.0
1040
13.26299999998673
1040
0.0
1071
       12
1005
A335
1005
A336
1005
A33D
1005
A34C
1005
A34F
1005
A34D
1005
A33E
1005
A343
1005
A341
1005
A345
1005
A344
1005
A346
1071
       22
1070
     0
1070
     1
1071
        3
1040
9.236999999990758
1040
5.5200999999945
1040
10.06399999998996
1040
3.670999999996297
1040
8.409999999991555
1040
3.670999999996297
1071
        3
1005
A351
1005
A353
1005
A352
1070
     0
1070
     1
1040
0.0
1040
0.15
1070
     0
1070
     2
1040
0.7853981633974483
1040
49.29960901727088
1040
-10.17736998311392
1040
-0.3367596045400932
1040
0.3367596045400932
1070
     0
1040
2.356194490192345
1040
49.29960901727088
1040
-10.17736998311392
1040
-0.3367596045400932
1040
-0.3367596045400932
1070
     0
1040
0.0110235143455945
1071
        2
1040
3.614004224891801
1040
2.996669441146025
1040
0.0
1040
3.614004224891801
1040
2.996669441146025
1040
0.0
1002
}
  0
INSERT
  5
A377
330
A333
100
AcDbEntity
  8
0
100
AcDbBlockReference
  2
*X21
 10
0.0
 20
0.0
 30
0.0
1001
ACAD
1000
HATCH
1002
{
1070
    19
1000
ANSI37
1040
0.15
1040
0.0
1000
ASC_BOUNDS
1070
     1
1070
     2
1070
    10
1005
A337
1005
A338
1005
A359
1005
A357
1005
A358
1005
A34B
1005
A350
1005
A354
1005
A33A
1005
A339
1000
ASC_SEEDPOINT
1011
14.73245321214324
1021
2.798246178283421
1031
0.0
1000
R14_HATCH_DATA
1000
A377
1011
1.0
1021
0.0
1031
0.0
1011
0.0
1021
1.0
1031
0.0
1011
0.0
1021
0.0
1031
1.0
1040
0.0
1010
0.0
1020
0.0
1030
1.0
1000
ANSI37
1070
     0
1070
     1
1071
        1
1071
        7
1070
     0
1070
     1
1071
       10
1040
16.46099999998353
1040
5.432899999994561
1040
18.59199999998134
1040
-0.2368999999997641
1040
22.38199999997767
1040
8.763099999991255
1040
20.89099999997916
1040
8.763099999991255
1040
18.59799999998143
1040
3.315799999996671
1040
16.46099999998353
1040
8.999899999990987
1040
14.32399999998563
1040
3.315799999996671
1040
12.02999999998792
1040
8.763099999991255
1040
10.53899999998941
1040
8.763099999991255
1040
14.32899999998563
1040
-0.2368999999997641
1071
       10
1005
A337
1005
A338
1005
A359
1005
A357
1005
A358
1005
A34B
1005
A350
1005
A354
1005
A33A
1005
A339
1070
     0
1070
     1
1040
0.0
1040
0.15
1070
     0
1070
     2
1040
0.7853981633974483
1040
49.29960901727088
1040
-10.17736998311392
1040
-0.3367596045400932
1040
0.3367596045400932
1070
     0
1040
2.356194490192345
1040
49.29960901727088
1040
-10.17736998311392
1040
-0.3367596045400932
1040
-0.3367596045400932
1070
     0
1040
0.0110235143455945
1071
        1
1040
14.73245321214324
1040
2.798246178283421
1040
0.0
1002
}
  0
INSERT
  5
A378
330
A333
100
AcDbEntity
  8
0
100
AcDbBlockReference
  2
*X22
 10
0.0
 20
0.0
 30
0.0
1001
ACAD
1000
HATCH
1002
{
1070
    19
1000
ANSI37
1040
0.15
1040
0.0
1000
ASC_BOUNDS
1070
     2
1070
     2
1070
    13
1005
A33B
1005
A348
1005
A349
1005
A347
1005
A34A
1005
A371
1005
A375
1005
A370
1005
A36F
1005
A372
1005
A374
1005
A373
1005
A33C
1070
     2
1070
     3
1005
A355
1005
A35A
1005
A356
1000
ASC_SEEDPOINT
1011
21.97929957367762
1021
3.294304244259308
1031
0.0
1000
R14_HATCH_DATA
1000
A378
1011
1.0
1021
0.0
1031
0.0
1011
0.0
1021
1.0
1031
0.0
1011
0.0
1021
0.0
1031
1.0
1040
0.0
1010
0.0
1020
0.0
1030
1.0
1000
ANSI37
1070
     0
1070
     1
1071
        2
1071
        7
1070
     1
1070
     1
1071
       15
1040
23.56599999997638
1040
8.999899999990987
1040
0.0
1040
19.53899999998043
1040
-0.0001000000000317
1040
0.0
1040
19.53899999998043
1040
0.0
1040
0.0
1040
21.09599999997886
1040
0.0
1040
0.0
1040
21.09599999997886
1040
-0.0001000000000317
1040
0.0
1040
22.15599999997789
1040
2.368399999997621
1040
0.0
1040
24.97599999997499
1040
2.368399999997621
1040
0.0
1040
26.02015566812236
1040
0.0330999999912365
1040
0.0
1040
28.40199999996923
1040
0.0330999999912365
1040
0.414213562373095
1040
30.74199999996923
1040
2.373099999991211
1040
0.0
1040
30.74199999996927
1040
8.763099999991255
1040
0.0
1040
29.30199999996933
1040
8.763099999991255
1040
0.0
1040
29.30199999996933
1040
2.283099999991236
1040
-0.414213562373095
1040
28.40199999996923
1040
1.383099999991237
1040
0.0
1040
26.97358892824991
1040
1.383099999991202
1040
0.0
1071
       13
1005
A33B
1005
A348
1005
A349
1005
A347
1005
A34A
1005
A371
1005
A375
1005
A370
1005
A36F
1005
A372
1005
A374
1005
A373
1005
A33C
1071
       22
1070
     0
1070
     1
1071
        3
1040
22.7389999999773
1040
3.670999999996297
1040
23.56599999997638
1040
5.5200999999945
1040
24.39299999997559
1040
3.670999999996297
1071
        3
1005
A355
1005
A35A
1005
A356
1070
     0
1070
     1
1040
0.0
1040
0.15
1070
     0
1070
     2
1040
0.7853981633974483
1040
49.29960901727088
1040
-10.17736998311392
1040
-0.3367596045400932
1040
0.3367596045400932
1070
     0
1040
2.356194490192345
1040
49.29960901727088
1040
-10.17736998311392
1040
-0.3367596045400932
1040
-0.3367596045400932
1070
     0
1040
0.0110235143455945
1071
        2
1040
21.97929957367762
1040
3.294304244259308
1040
0.0
1040
21.97929957367762
1040
3.294304244259308
1040
0.0
1002
}
  0
INSERT
  5
A379
330
A333
100
AcDbEntity
  8
0
100
AcDbBlockReference
  2
*X23
 10
0.0
 20
0.0
 30
0.0
1001
ACAD
1000
HATCH
1002
{
1070
    19
1000
ANSI37
1040
0.15
1040
0.0
1000
R14_HATCH_DATA
1000
A379
1011
1.0
1021
0.0
1031
0.0
1011
0.0
1021
1.0
1031
0.0
1011
0.0
1021
0.0
1031
1.0
1040
0.0
1010
0.0
1020
0.0
1030
1.0
1000
ANSI37
1070
     0
1070
     1
1071
        1
1071
        7
1070
     1
1070
     1
1071
       12
1040
31.64199999996833
1040
2.481619422925121
1040
0.2679491924310942
1040
32.94699999997067
1040
0.2212931190493919
1040
0.2679491924301353
1040
36.36699999995983
1040
0.2212931190459813
1040
0.2679491924321411
1040
37.67199999996831
1040
2.481619422928361
1040
0.0
1040
37.67199999996831
1040
8.763099999991255
1040
0.0
1040
36.23199999996837
1040
8.763099999991255
1040
0.0
1040
36.23199999996837
1040
2.481619422925064
1040
-0.2679491924310291
1040
35.64699999996708
1040
1.468369700498386
1040
-0.267949192430519
1040
33.66699999997093
1040
1.468369700497703
1040
-0.267949192431809
1040
33.08199999996839
1040
2.481619422926997
1040
0.0
1040
33.08199999996839
1040
8.763099999991255
1040
0.0
1040
31.64199999996833
1040
8.763099999991255
1040
0.0
1071
        0
1070
     0
1070
     1
1040
0.0
1040
0.15
1070
     0
1070
     2
1040
0.7853981633974483
1040
49.29960901727088
1040
-10.17736998311392
1040
-0.3367596045400932
1040
0.3367596045400932
1070
     0
1040
2.356194490192345
1040
49.29960901727088
1040
-10.17736998311392
1040
-0.3367596045400932
1040
-0.3367596045400932
1070
     0
1040
0.0110235143455945
1071
        1
1040
32.30357378967278
1040
3.988785755459219
1040
0.0
1002
}
  0
INSERT
  5
A37A
330
A333
100
AcDbEntity
  8
0
100
AcDbBlockReference
  2
*X24
 10
0.0
 20
0.0
 30
0.0
1001
ACAD
1000
HATCH
1002
{
1070
    19
1000
ANSI37
1040
0.15
1040
0.0
1000
ASC_BOUNDS
1070
     1
1070
     2
1070
     8
1005
A35B
1005
A35E
1005
A362
1005
A361
1005
A360
1005
A35D
1005
A35F
1005
A35C
1000
ASC_SEEDPOINT
1011
39.74896370716704
1021
4.484843821435049
1031
0.0
1000
R14_HATCH_DATA
1000
A37A
1011
1.0
1021
0.0
1031
0.0
1011
0.0
1021
1.0
1031
0.0
1011
0.0
1021
0.0
1031
1.0
1040
0.0
1010
0.0
1020
0.0
1030
1.0
1000
ANSI37
1070
     0
1070
     1
1071
        1
1071
        7
1070
     0
1070
     1
1071
        9
1040
40.02599999995994
1040
5.341799999994635
1040
44.99999999995498
1040
-0.2368999999997641
1040
44.99999999995498
1040
8.763099999991255
1040
43.57899999995641
1040
8.763099999991255
1040
43.57899999995641
1040
3.421199999996588
1040
38.60499999996136
1040
8.999899999990987
1040
38.60499999996136
1040
8.999999999991019
1040
38.60499999996136
1040
0.0
1040
40.02599999995994
1040
0.0
1071
        8
1005
A35B
1005
A35E
1005
A362
1005
A361
1005
A360
1005
A35D
1005
A35F
1005
A35C
1070
     0
1070
     1
1040
0.0
1040
0.15
1070
     0
1070
     2
1040
0.7853981633974483
1040
49.29960901727088
1040
-10.17736998311392
1040
-0.3367596045400932
1040
0.3367596045400932
1070
     0
1040
2.356194490192345
1040
49.29960901727088
1040
-10.17736998311392
1040
-0.3367596045400932
1040
-0.3367596045400932
1070
     0
1040
0.0110235143455945
1071
        1
1040
39.74896370716704
1040
4.484843821435049
1040
0.0
1002
}
  0
INSERT
  5
A37B
330
A333
100
AcDbEntity
  8
0
100
AcDbBlockReference
  2
*X25
 10
0.0
 20
0.0
 30
0.0
1001
ACAD
1000
HATCH
1002
{
1070
    19
1000
ANSI37
1040
0.15
1040
0.0
1000
ASC_BOUNDS
1070
     1
1070
     2
1070
     4
1005
A33F
1005
A34E
1005
A340
1005
A342
1000
ASC_SEEDPOINT
1011
1.079051535452663
1021
4.148538732891836
1031
0.0
1000
R14_HATCH_DATA
1000
A37B
1011
1.0
1021
0.0
1031
0.0
1011
0.0
1021
1.0
1031
0.0
1011
0.0
1021
0.0
1031
1.0
1040
0.0
1010
0.0
1020
0.0
1030
1.0
1000
ANSI37
1070
     0
1070
     1
1071
        1
1071
        7
1070
     0
1070
     1
1071
        4
1040
1.420999999998571
1040
0.0
1040
1.420999999998571
1040
8.763099999991255
1040
0.0
1040
8.763099999991255
1040
0.0
1040
0.0
1071
        4
1005
A33F
1005
A34E
1005
A340
1005
A342
1070
     0
1070
     1
1040
0.0
1040
0.15
1070
     0
1070
     2
1040
0.7853981633974483
1040
49.29960901727088
1040
-10.17736998311392
1040
-0.3367596045400932
1040
0.3367596045400932
1070
     0
1040
2.356194490192345
1040
49.29960901727088
1040
-10.17736998311392
1040
-0.3367596045400932
1040
-0.3367596045400932
1070
     0
1040
0.0053004257112761
1071
        1
1040
1.079051535452663
1040
4.148538732891836
1040
0.0
1002
}
  0
ENDBLK
  5
AA57
330
A333
100
AcDbEntity
  8
0
100
AcDbBlockEnd
  0
BLOCK
  5
B2CE
330
B140
100
AcDbEntity
  8
0
100
AcDbBlockBegin
  2
*X20
 70
     1
 10
0.0
 20
0.0
 30
0.0
  3
*X20
  1

  0
LINE
  5
B141
330
B140
100
AcDbEntity
  8
0
  6
CONTINUOUS
100
AcDbLine
 10
3.418023043697893
 20
7.251849696850613
 30
0.0
 11
4.929273346838536
 21
8.763099999991255
 31
0.0
  0
LINE
  5
B142
330
B140
100
AcDbEntity
  8
0
  6
CONTINUOUS
100
AcDbLine
 10
1.483656411257782
 20
4.643963855330318
 30
0.0
 11
5.60279255591872
 21
8.763099999991255
 31
0.0
  0
LINE
  5
B143
330
B140
100
AcDbEntity
  8
0
  6
CONTINUOUS
100
AcDbLine
 10
1.755053947328235
 20
4.241842182320584
 30
0.0
 11
6.276311764998907
 21
8.763099999991255
 31
0.0
  0
LINE
  5
B144
330
B140
100
AcDbEntity
  8
0
  6
CONTINUOUS
100
AcDbLine
 10
2.026451483398688
 20
3.839720509310849
 30
0.0
 11
4.441040904851878
 21
6.254309930764039
 31
0.0
  0
LINE
  5
B145
330
B140
100
AcDbEntity
  8
0
  6
CONTINUOUS
100
AcDbLine
 10
2.297849019469139
 20
3.437598836301114
 30
0.0
 11
3.321765168359338
 21
4.461514985191313
 31
0.0
  0
LINE
  5
B146
330
B140
100
AcDbEntity
  8
0
  6
CONTINUOUS
100
AcDbLine
 10
2.569246555539591
 20
3.03547716329138
 30
0.0
 11
3.593163397972743
 21
4.059394005724531
 31
0.0
  0
LINE
  5
B147
330
B140
100
AcDbEntity
  8
0
  6
CONTINUOUS
100
AcDbLine
 10
2.840644091610043
 20
2.633355490281646
 30
0.0
 11
3.864561627586149
 21
3.657273026257751
 31
0.0
  0
LINE
  5
B148
330
B140
100
AcDbEntity
  8
0
  6
CONTINUOUS
100
AcDbLine
 10
3.112041627680496
 20
2.231233817271911
 30
0.0
 11
4.135959857199554
 21
3.25515204679097
 31
0.0
  0
LINE
  5
B149
330
B140
100
AcDbEntity
  8
0
  6
CONTINUOUS
100
AcDbLine
 10
3.383439163750948
 20
1.829112144262177
 30
0.0
 11
4.40735808681296
 21
2.853031067324189
 31
0.0
  0
LINE
  5
B14A
330
B140
100
AcDbEntity
  8
0
  6
CONTINUOUS
100
AcDbLine
 10
3.654836699821399
 20
1.426990471252442
 30
0.0
 11
4.678756316426365
 21
2.450910087857407
 31
0.0
  0
LINE
  5
B14B
330
B140
100
AcDbEntity
  8
0
  6
CONTINUOUS
100
AcDbLine
 10
3.926234235891853
 20
1.024868798242709
 30
0.0
 11
4.95015454603977
 21
2.048789108390626
 31
0.0
  0
LINE
  5
B14C
330
B140
100
AcDbEntity
  8
0
  6
CONTINUOUS
100
AcDbLine
 10
4.197631771962304
 20
0.6227471252329737
 30
0.0
 11
5.221552775653176
 21
1.646668128923846
 31
0.0
  0
LINE
  5
B14D
330
B140
100
AcDbEntity
  8
0
  6
CONTINUOUS
100
AcDbLine
 10
8.715877546767851
 20
7.835069736359266
 30
0.0
 11
9.435953450375058
 21
8.555145639966472
 31
0.0
  0
LINE
  5
B14E
330
B140
100
AcDbEntity
  8
0
  6
CONTINUOUS
100
AcDbLine
 10
8.170620868422267
 20
6.616293848933497
 30
0.0
 11
9.644120833743461
 21
8.08979381425469
 31
0.0
  0
LINE
  5
B14F
330
B140
100
AcDbEntity
  8
0
  6
CONTINUOUS
100
AcDbLine
 10
7.625364190076684
 20
5.397517961507727
 30
0.0
 11
9.852288217111864
 21
7.624441988542907
 31
0.0
  0
LINE
  5
B150
330
B140
100
AcDbEntity
  8
0
  6
CONTINUOUS
100
AcDbLine
 10
7.080107511731101
 20
4.178742074081957
 30
0.0
 11
10.06045560048027
 21
7.159090162831124
 31
0.0
  0
LINE
  5
B151
330
B140
100
AcDbEntity
  8
0
  6
CONTINUOUS
100
AcDbLine
 10
6.534850833385518
 20
2.959966186656187
 30
0.0
 11
10.26862298384867
 21
6.693738337119342
 31
0.0
  0
LINE
  5
B152
330
B140
100
AcDbEntity
  8
0
  6
CONTINUOUS
100
AcDbLine
 10
4.469029308032756
 20
0.2206254522232385
 30
0.0
 11
5.492951005266582
 21
1.244547149457064
 31
0.0
  0
LINE
  5
B153
330
B140
100
AcDbEntity
  8
0
  6
CONTINUOUS
100
AcDbLine
 10
5.989594155039935
 20
1.741190299230417
 30
0.0
 11
8.806950407233131
 21
4.558546551423613
 31
0.0
  0
LINE
  5
B154
330
B140
100
AcDbEntity
  8
0
  6
CONTINUOUS
100
AcDbLine
 10
9.401251593263643
 20
5.152847737454126
 30
0.0
 11
10.47679036721708
 21
6.228386511407559
 31
0.0
  0
LINE
  5
B155
330
B140
100
AcDbEntity
  8
0
  6
CONTINUOUS
100
AcDbLine
 10
4.921837203428691
 20
-0.0000858614610131
 30
0.0
 11
8.592923064886001
 21
3.670999999996297
 31
0.0
  0
LINE
  5
B156
330
B140
100
AcDbEntity
  8
0
  6
CONTINUOUS
100
AcDbLine
 10
9.609390446785305
 20
4.6874673818956
 30
0.0
 11
10.68495775058548
 21
5.763034685695775
 31
0.0
  0
LINE
  5
B157
330
B140
100
AcDbEntity
  8
0
  6
CONTINUOUS
100
AcDbLine
 10
5.595387755019432
 20
-0.0000545189504582
 30
0.0
 11
7.716137258923768
 21
2.120694984953879
 31
0.0
  0
LINE
  5
B158
330
B140
100
AcDbEntity
  8
0
  6
CONTINUOUS
100
AcDbLine
 10
6.268938306610172
 20
-0.000023176439905
 30
0.0
 11
7.170485805526503
 21
0.9015243224764267
 31
0.0
  0
LINE
  5
B159
330
B140
100
AcDbEntity
  8
0
  6
CONTINUOUS
100
AcDbLine
 10
7.963842273967511
 20
2.368399999997621
 30
0.0
 11
9.266442273966188
 21
3.670999999996297
 31
0.0
  0
LINE
  5
B15A
330
B140
100
AcDbEntity
  8
0
  6
CONTINUOUS
100
AcDbLine
 10
8.637361483047696
 20
2.368399999997621
 30
0.0
 11
9.939961483046375
 21
3.670999999996297
 31
0.0
  0
LINE
  5
B15B
330
B140
100
AcDbEntity
  8
0
  6
CONTINUOUS
100
AcDbLine
 10
9.817529300306965
 20
4.222087026337075
 30
0.0
 11
10.89312513395388
 21
5.297682859983993
 31
0.0
  0
LINE
  5
B15C
330
B140
100
AcDbEntity
  8
0
  6
CONTINUOUS
100
AcDbLine
 10
10.02566815382863
 20
3.756706670778549
 30
0.0
 11
11.10129251732229
 21
4.832331034272211
 31
0.0
  0
LINE
  5
B15D
330
B140
100
AcDbEntity
  8
0
  6
CONTINUOUS
100
AcDbLine
 10
9.310880692127883
 20
2.368399999997621
 30
0.0
 11
11.30945990069069
 21
4.366979208560428
 31
0.0
  0
LINE
  5
B15E
330
B140
100
AcDbEntity
  8
0
  6
CONTINUOUS
100
AcDbLine
 10
9.98439990120807
 20
2.36839999999762
 30
0.0
 11
11.5176272840591
 21
3.901627382848645
 31
0.0
  0
LINE
  5
B15F
330
B140
100
AcDbEntity
  8
0
  6
CONTINUOUS
100
AcDbLine
 10
10.65037369446246
 20
2.36085458417182
 30
0.0
 11
11.7257946674275
 21
3.436275557136862
 31
0.0
  0
LINE
  5
B160
330
B140
100
AcDbEntity
  8
0
  6
CONTINUOUS
100
AcDbLine
 10
10.85847197087848
 20
1.895433651507656
 30
0.0
 11
11.9339620507959
 21
2.97092373142508
 31
0.0
  0
LINE
  5
B161
330
B140
100
AcDbEntity
  8
0
  6
CONTINUOUS
100
AcDbLine
 10
11.0665702472945
 20
1.430012718843491
 30
0.0
 11
12.14212943416431
 21
2.505571905713296
 31
0.0
  0
LINE
  5
B162
330
B140
100
AcDbEntity
  8
0
  6
CONTINUOUS
100
AcDbLine
 10
11.27466852371052
 20
0.9645917861793256
 30
0.0
 11
12.35029681753271
 21
2.040220080001513
 31
0.0
  0
LINE
  5
B163
330
B140
100
AcDbEntity
  8
0
  6
CONTINUOUS
100
AcDbLine
 10
11.48276680012654
 20
0.4991708535151611
 30
0.0
 11
12.55846420090111
 21
1.57486825428973
 31
0.0
  0
LINE
  5
B164
330
B140
100
AcDbEntity
  8
0
  6
CONTINUOUS
100
AcDbLine
 10
11.69086507654257
 20
0.0337499208509957
 30
0.0
 11
12.76663158426952
 21
1.109516428577947
 31
0.0
  0
LINE
  5
B165
330
B140
100
AcDbEntity
  8
0
  6
CONTINUOUS
100
AcDbLine
 10
12.33057447873954
 20
-0.0000598860322123
 30
0.0
 11
12.97479896763792
 21
0.6441646028661663
 31
0.0
  0
LINE
  5
B166
330
B140
100
AcDbEntity
  8
0
  6
CONTINUOUS
100
AcDbLine
 10
13.00413694809395
 20
-0.0000166257579952
 30
0.0
 11
13.18296635100632
 21
0.1788127771543824
 31
0.0
  0
LINE
  5
B167
330
B140
100
AcDbEntity
  8
0
  6
CONTINUOUS
100
AcDbLine
 10
4.772852165289667
 20
-0.000092794222212
 30
0.0
 11
4.296495091028902
 21
0.4762642800385528
 31
0.0
  0
LINE
  5
B168
330
B140
100
AcDbEntity
  8
0
  6
CONTINUOUS
100
AcDbLine
 10
5.446340034776103
 20
-0.0000614546284616
 30
0.0
 11
2.898195908335625
 21
2.548082671812017
 31
0.0
  0
LINE
  5
B169
330
B140
100
AcDbEntity
  8
0
  6
CONTINUOUS
100
AcDbLine
 10
6.119827904262539
 20
-0.0000301150347113
 30
0.0
 11
1.499896725642348
 21
4.61990106358548
 31
0.0
  0
LINE
  5
B16A
330
B140
100
AcDbEntity
  8
0
  6
CONTINUOUS
100
AcDbLine
 10
6.775136745476159
 20
0.0181802528318542
 30
0.0
 11
5.699826040202669
 21
1.093490958105344
 31
0.0
  0
LINE
  5
B16B
330
B140
100
AcDbEntity
  8
0
  6
CONTINUOUS
100
AcDbLine
 10
6.983376846288489
 20
0.4834593610997118
 30
0.0
 11
5.908008617934405
 21
1.558827589453796
 31
0.0
  0
LINE
  5
B16C
330
B140
100
AcDbEntity
  8
0
  6
CONTINUOUS
100
AcDbLine
 10
5.377063484962296
 20
1.416253513345719
 30
0.0
 11
1.702276957014131
 21
5.091040041293883
 31
0.0
  0
LINE
  5
B16D
330
B140
100
AcDbEntity
  8
0
  6
CONTINUOUS
100
AcDbLine
 10
3.978745891735324
 20
3.488090315652877
 30
0.0
 11
2.000373521109399
 21
5.466462686278803
 31
0.0
  0
LINE
  5
B16E
330
B140
100
AcDbEntity
  8
0
  6
CONTINUOUS
100
AcDbLine
 10
7.191616947100819
 20
0.948738469367568
 30
0.0
 11
6.11619119566614
 21
2.024164220802247
 31
0.0
  0
LINE
  5
B16F
330
B140
100
AcDbEntity
  8
0
  6
CONTINUOUS
100
AcDbLine
 10
7.399857047913149
 20
1.414017577635424
 30
0.0
 11
6.324373773397875
 21
2.489500852150698
 31
0.0
  0
LINE
  5
B170
330
B140
100
AcDbEntity
  8
0
  6
CONTINUOUS
100
AcDbLine
 10
7.608097148725479
 20
1.879296685903281
 30
0.0
 11
6.53255635112961
 21
2.95483748349915
 31
0.0
  0
LINE
  5
B171
330
B140
100
AcDbEntity
  8
0
  6
CONTINUOUS
100
AcDbLine
 10
7.816337249537808
 20
2.344575794171138
 30
0.0
 11
6.740738928861345
 21
3.420174114847601
 31
0.0
  0
LINE
  5
B172
330
B140
100
AcDbEntity
  8
0
  6
CONTINUOUS
100
AcDbLine
 10
3.310241080789734
 20
4.830114335678653
 30
0.0
 11
2.298470085204666
 21
5.84188533126372
 31
0.0
  0
LINE
  5
B173
330
B140
100
AcDbEntity
  8
0
  6
CONTINUOUS
100
AcDbLine
 10
3.60832983563551
 20
5.205544789913063
 30
0.0
 11
2.596566649299935
 21
6.217307976248638
 31
0.0
  0
LINE
  5
B174
330
B140
100
AcDbEntity
  8
0
  6
CONTINUOUS
100
AcDbLine
 10
3.906418590481286
 20
5.580975244147473
 30
0.0
 11
2.894663213395203
 21
6.592730621233557
 31
0.0
  0
LINE
  5
B175
330
B140
100
AcDbEntity
  8
0
  6
CONTINUOUS
100
AcDbLine
 10
4.204507345327062
 20
5.956405698381884
 30
0.0
 11
3.192759777490472
 21
6.968153266218474
 31
0.0
  0
LINE
  5
B176
330
B140
100
AcDbEntity
  8
0
  6
CONTINUOUS
100
AcDbLine
 10
8.466032252791512
 20
2.368399999997621
 30
0.0
 11
6.948921506593081
 21
3.885510746196053
 31
0.0
  0
LINE
  5
B177
330
B140
100
AcDbEntity
  8
0
  6
CONTINUOUS
100
AcDbLine
 10
9.139551461871699
 20
2.36839999999762
 30
0.0
 11
7.157104084324816
 21
4.350847377544504
 31
0.0
  0
LINE
  5
B178
330
B140
100
AcDbEntity
  8
0
  6
CONTINUOUS
100
AcDbLine
 10
4.502596100172839
 20
6.331836152616295
 30
0.0
 11
3.49085634158574
 21
7.343575911203393
 31
0.0
  0
LINE
  5
B179
330
B140
100
AcDbEntity
  8
0
  6
CONTINUOUS
100
AcDbLine
 10
4.800684855018615
 20
6.707266606850705
 30
0.0
 11
3.788952905681008
 21
7.718998556188312
 31
0.0
  0
LINE
  5
B17A
330
B140
100
AcDbEntity
  8
0
  6
CONTINUOUS
100
AcDbLine
 10
12.18154012887317
 20
-0.0000694579236642
 30
0.0
 11
11.32140332908496
 21
0.8600673418645499
 31
0.0
  0
LINE
  5
B17B
330
B140
100
AcDbEntity
  8
0
  6
CONTINUOUS
100
AcDbLine
 10
12.85501608323566
 20
-0.0000262032059659
 30
0.0
 11
10.77672456435345
 21
2.078265315676246
 31
0.0
  0
LINE
  5
B17C
330
B140
100
AcDbEntity
  8
0
  6
CONTINUOUS
100
AcDbLine
 10
9.813070670951886
 20
2.36839999999762
 30
0.0
 11
8.51047067095321
 21
3.670999999996297
 31
0.0
  0
LINE
  5
B17D
330
B140
100
AcDbEntity
  8
0
  6
CONTINUOUS
100
AcDbLine
 10
10.48658988003207
 20
2.36839999999762
 30
0.0
 11
9.183989880033396
 21
3.670999999996297
 31
0.0
  0
LINE
  5
B17E
330
B140
100
AcDbEntity
  8
0
  6
CONTINUOUS
100
AcDbLine
 10
8.441048632286794
 20
3.740422038662712
 30
0.0
 11
7.365286662056551
 21
4.816184008892956
 31
0.0
  0
LINE
  5
B17F
330
B140
100
AcDbEntity
  8
0
  6
CONTINUOUS
100
AcDbLine
 10
8.649187485808454
 20
4.205802394221237
 30
0.0
 11
7.573469239788285
 21
5.281520640241407
 31
0.0
  0
LINE
  5
B180
330
B140
100
AcDbEntity
  8
0
  6
CONTINUOUS
100
AcDbLine
 10
5.098773609864391
 20
7.082697061085115
 30
0.0
 11
4.087049469776277
 21
8.09442120117323
 31
0.0
  0
LINE
  5
B181
330
B140
100
AcDbEntity
  8
0
  6
CONTINUOUS
100
AcDbLine
 10
5.396862364710167
 20
7.458127515319526
 30
0.0
 11
4.385146033871544
 21
8.469843846158149
 31
0.0
  0
LINE
  5
B182
330
B140
100
AcDbEntity
  8
0
  6
CONTINUOUS
100
AcDbLine
 10
13.04801363231285
 20
0.4804954567970334
 30
0.0
 11
9.85750908911358
 21
3.670999999996297
 31
0.0
  0
LINE
  5
B183
330
B140
100
AcDbEntity
  8
0
  6
CONTINUOUS
100
AcDbLine
 10
8.857326339330116
 20
4.671182749779763
 30
0.0
 11
7.781651817520021
 21
5.746857271589858
 31
0.0
  0
LINE
  5
B184
330
B140
100
AcDbEntity
  8
0
  6
CONTINUOUS
100
AcDbLine
 10
5.694951119555943
 20
7.833557969553937
 30
0.0
 11
4.765409089118624
 21
8.763099999991255
 31
0.0
  0
LINE
  5
B185
330
B140
100
AcDbEntity
  8
0
  6
CONTINUOUS
100
AcDbLine
 10
12.50286117236978
 20
1.699167125820288
 30
0.0
 11
9.68611877250287
 21
4.515909525687196
 31
0.0
  0
LINE
  5
B186
330
B140
100
AcDbEntity
  8
0
  6
CONTINUOUS
100
AcDbLine
 10
9.065465192851777
 20
5.136563105338288
 30
0.0
 11
7.989834395251757
 21
6.21219390293831
 31
0.0
  0
LINE
  5
B187
330
B140
100
AcDbEntity
  8
0
  6
CONTINUOUS
100
AcDbLine
 10
5.993039874401719
 20
8.208988423788346
 30
0.0
 11
5.43892829819881
 21
8.763099999991255
 31
0.0
  0
LINE
  5
B188
330
B140
100
AcDbEntity
  8
0
  6
CONTINUOUS
100
AcDbLine
 10
11.95770871242671
 20
2.917838794843543
 30
0.0
 11
8.19801697298349
 21
6.677530534286761
 31
0.0
  0
LINE
  5
B189
330
B140
100
AcDbEntity
  8
0
  6
CONTINUOUS
100
AcDbLine
 10
6.291128629247495
 20
8.584418878022756
 30
0.0
 11
6.112447507278997
 21
8.763099999991255
 31
0.0
  0
LINE
  5
B18A
330
B140
100
AcDbEntity
  8
0
  6
CONTINUOUS
100
AcDbLine
 10
11.41255625248364
 20
4.136510463866797
 30
0.0
 11
8.406199550715227
 21
7.142867165635211
 31
0.0
  0
LINE
  5
B18B
330
B140
100
AcDbEntity
  8
0
  6
CONTINUOUS
100
AcDbLine
 10
10.86740379254057
 20
5.355182132890051
 30
0.0
 11
8.614382128446962
 21
7.608203796983664
 31
0.0
  0
LINE
  5
B18C
330
B140
100
AcDbEntity
  8
0
  6
CONTINUOUS
100
AcDbLine
 10
10.3222513325975
 20
6.573853801913305
 30
0.0
 11
8.822564706178696
 21
8.073540428332114
 31
0.0
  0
LINE
  5
B18D
330
B140
100
AcDbEntity
  8
0
  6
CONTINUOUS
100
AcDbLine
 10
9.777098872654436
 20
7.792525470936562
 30
0.0
 11
9.030747283910433
 21
8.538877059680566
 31
0.0
  0
ENDBLK
  5
B2CF
330
B140
100
AcDbEntity
  8
0
100
AcDbBlockEnd
  0
BLOCK
  5
B2D0
330
B18E
100
AcDbEntity
  8
0
100
AcDbBlockBegin
  2
*X21
 70
     1
 10
0.0
 20
0.0
 30
0.0
  3
*X21
  1

  0
LINE
  5
B18F
330
B18E
100
AcDbEntity
  8
0
  6
CONTINUOUS
100
AcDbLine
 10
10.67292308101235
 20
8.445076852443387
 30
0.0
 11
10.99094622856022
 21
8.763099999991255
 31
0.0
  0
LINE
  5
B190
330
B18E
100
AcDbEntity
  8
0
  6
CONTINUOUS
100
AcDbLine
 10
10.87250383178748
 20
7.971138394138331
 30
0.0
 11
11.6644654376404
 21
8.763099999991255
 31
0.0
  0
LINE
  5
B191
330
B18E
100
AcDbEntity
  8
0
  6
CONTINUOUS
100
AcDbLine
 10
11.07208458256261
 20
7.497199935833273
 30
0.0
 11
12.12126590876355
 21
8.546381262034211
 31
0.0
  0
LINE
  5
B192
330
B18E
100
AcDbEntity
  8
0
  6
CONTINUOUS
100
AcDbLine
 10
11.27166533333774
 20
7.023261477528216
 30
0.0
 11
12.32085164573666
 21
8.072447789927136
 31
0.0
  0
LINE
  5
B193
330
B18E
100
AcDbEntity
  8
0
  6
CONTINUOUS
100
AcDbLine
 10
11.47124608411287
 20
6.549323019223158
 30
0.0
 11
12.52043738270977
 21
7.59851431782006
 31
0.0
  0
LINE
  5
B194
330
B18E
100
AcDbEntity
  8
0
  6
CONTINUOUS
100
AcDbLine
 10
11.670826834888
 20
6.075384560918101
 30
0.0
 11
12.72002311968288
 21
7.124580845712984
 31
0.0
  0
LINE
  5
B195
330
B18E
100
AcDbEntity
  8
0
  6
CONTINUOUS
100
AcDbLine
 10
11.87040758566313
 20
5.601446102613043
 30
0.0
 11
12.91960885665599
 21
6.650647373605907
 31
0.0
  0
LINE
  5
B196
330
B18E
100
AcDbEntity
  8
0
  6
CONTINUOUS
100
AcDbLine
 10
12.06998833643825
 20
5.127507644307986
 30
0.0
 11
13.1191945936291
 21
6.176713901498832
 31
0.0
  0
LINE
  5
B197
330
B18E
100
AcDbEntity
  8
0
  6
CONTINUOUS
100
AcDbLine
 10
12.26956908721338
 20
4.65356918600293
 30
0.0
 11
13.31878033060221
 21
5.702780429391757
 31
0.0
  0
LINE
  5
B198
330
B18E
100
AcDbEntity
  8
0
  6
CONTINUOUS
100
AcDbLine
 10
12.46914983798851
 20
4.179630727697873
 30
0.0
 11
13.51836606757532
 21
5.228846957284683
 31
0.0
  0
LINE
  5
B199
330
B18E
100
AcDbEntity
  8
0
  6
CONTINUOUS
100
AcDbLine
 10
12.66873058876364
 20
3.705692269392816
 30
0.0
 11
13.71795180454843
 21
4.754913485177607
 31
0.0
  0
LINE
  5
B19A
330
B18E
100
AcDbEntity
  8
0
  6
CONTINUOUS
100
AcDbLine
 10
12.86831133953877
 20
3.231753811087759
 30
0.0
 11
13.91753754152154
 21
4.280980013070531
 31
0.0
  0
LINE
  5
B19B
330
B18E
100
AcDbEntity
  8
0
  6
CONTINUOUS
100
AcDbLine
 10
13.0678920903139
 20
2.757815352782702
 30
0.0
 11
14.11712327849465
 21
3.807046540963456
 31
0.0
  0
LINE
  5
B19C
330
B18E
100
AcDbEntity
  8
0
  6
CONTINUOUS
100
AcDbLine
 10
13.26747284108903
 20
2.283876894477644
 30
0.0
 11
14.31670901546777
 21
3.333113068856379
 31
0.0
  0
LINE
  5
B19D
330
B18E
100
AcDbEntity
  8
0
  6
CONTINUOUS
100
AcDbLine
 10
16.36767838827179
 20
8.751678487061342
 30
0.0
 11
16.50332410898388
 21
8.887324207773432
 31
0.0
  0
LINE
  5
B19E
330
B18E
100
AcDbEntity
  8
0
  6
CONTINUOUS
100
AcDbLine
 10
15.96190732182191
 20
7.67238821153127
 30
0.0
 11
16.68735328004734
 21
8.397834169756699
 31
0.0
  0
LINE
  5
B19F
330
B18E
100
AcDbEntity
  8
0
  6
CONTINUOUS
100
AcDbLine
 10
15.55613625537202
 20
6.593097936001196
 30
0.0
 11
16.87138245111079
 21
7.908344131739965
 31
0.0
  0
LINE
  5
B1A0
330
B18E
100
AcDbEntity
  8
0
  6
CONTINUOUS
100
AcDbLine
 10
15.15036518892213
 20
5.513807660471122
 30
0.0
 11
17.05541162217424
 21
7.418854093723231
 31
0.0
  0
LINE
  5
B1A1
330
B18E
100
AcDbEntity
  8
0
  6
CONTINUOUS
100
AcDbLine
 10
14.74459412247225
 20
4.434517384941048
 30
0.0
 11
17.2394407932377
 21
6.929364055706499
 31
0.0
  0
LINE
  5
B1A2
330
B18E
100
AcDbEntity
  8
0
  6
CONTINUOUS
100
AcDbLine
 10
14.33882305602236
 20
3.355227109410975
 30
0.0
 11
17.42346996430115
 21
6.439874017689766
 31
0.0
  0
LINE
  5
B1A3
330
B18E
100
AcDbEntity
  8
0
  6
CONTINUOUS
100
AcDbLine
 10
13.46705359186416
 20
1.809938436172586
 30
0.0
 11
16.0819338255367
 21
4.424818669845129
 31
0.0
  0
LINE
  5
B1A4
330
B18E
100
AcDbEntity
  8
0
  6
CONTINUOUS
100
AcDbLine
 10
16.63283254238972
 20
4.975717386698149
 30
0.0
 11
17.60749913536461
 21
5.950383979673033
 31
0.0
  0
LINE
  5
B1A5
330
B18E
100
AcDbEntity
  8
0
  6
CONTINUOUS
100
AcDbLine
 10
13.66663434263929
 20
1.335999977867529
 30
0.0
 11
15.67604797733754
 21
3.345413612565779
 31
0.0
  0
LINE
  5
B1A6
330
B18E
100
AcDbEntity
  8
0
  6
CONTINUOUS
100
AcDbLine
 10
13.86621509341442
 20
0.8620615195624723
 30
0.0
 11
15.27016212913838
 21
2.26600855528643
 31
0.0
  0
LINE
  5
B1A7
330
B18E
100
AcDbEntity
  8
0
  6
CONTINUOUS
100
AcDbLine
 10
16.81682257348267
 20
4.486188208710908
 30
0.0
 11
17.79152830642806
 21
5.460893941656299
 31
0.0
  0
LINE
  5
B1A8
330
B18E
100
AcDbEntity
  8
0
  6
CONTINUOUS
100
AcDbLine
 10
17.00081260457561
 20
3.996659030723667
 30
0.0
 11
17.97555747749151
 21
4.971403903639565
 31
0.0
  0
LINE
  5
B1A9
330
B18E
100
AcDbEntity
  8
0
  6
CONTINUOUS
100
AcDbLine
 10
20.74362343514722
 20
8.412989070375462
 30
0.0
 11
21.09373436476302
 21
8.763099999991256
 31
0.0
  0
LINE
  5
B1AA
330
B18E
100
AcDbEntity
  8
0
  6
CONTINUOUS
100
AcDbLine
 10
20.25401257174777
 20
7.249858997895826
 30
0.0
 11
21.7672535738432
 21
8.763099999991255
 31
0.0
  0
LINE
  5
B1AB
330
B18E
100
AcDbEntity
  8
0
  6
CONTINUOUS
100
AcDbLine
 10
14.06579584418955
 20
0.3881230612574149
 30
0.0
 11
14.86427628093921
 21
1.186603498007082
 31
0.0
  0
LINE
  5
B1AC
330
B18E
100
AcDbEntity
  8
0
  6
CONTINUOUS
100
AcDbLine
 10
14.26537659496467
 20
-0.0858153970476412
 30
0.0
 11
14.45839043274005
 21
0.1071984407277329
 31
0.0
  0
LINE
  5
B1AD
330
B18E
100
AcDbEntity
  8
0
  6
CONTINUOUS
100
AcDbLine
 10
17.18480263566856
 20
3.507129852736426
 30
0.0
 11
18.15958664855496
 21
4.481913865622833
 31
0.0
  0
LINE
  5
B1AE
330
B18E
100
AcDbEntity
  8
0
  6
CONTINUOUS
100
AcDbLine
 10
17.3687926667615
 20
3.017600674749186
 30
0.0
 11
18.34361581961842
 21
3.9924238276061
 31
0.0
  0
LINE
  5
B1AF
330
B18E
100
AcDbEntity
  8
0
  6
CONTINUOUS
100
AcDbLine
 10
19.76440170834832
 20
6.086728925416191
 30
0.0
 11
22.33924590259489
 21
8.661573119662755
 31
0.0
  0
LINE
  5
B1B0
330
B18E
100
AcDbEntity
  8
0
  6
CONTINUOUS
100
AcDbLine
 10
19.27479084494887
 20
4.923598852936555
 30
0.0
 11
21.84929622842713
 21
7.498104236414807
 31
0.0
  0
LINE
  5
B1B1
330
B18E
100
AcDbEntity
  8
0
  6
CONTINUOUS
100
AcDbLine
 10
17.55278269785445
 20
2.528071496761945
 30
0.0
 11
18.52764499068187
 21
3.502933789589366
 31
0.0
  0
LINE
  5
B1B2
330
B18E
100
AcDbEntity
  8
0
  6
CONTINUOUS
100
AcDbLine
 10
18.78517998154942
 20
3.760468780456919
 30
0.0
 11
21.35934655425936
 21
6.33463535316686
 31
0.0
  0
LINE
  5
B1B3
330
B18E
100
AcDbEntity
  8
0
  6
CONTINUOUS
100
AcDbLine
 10
17.73677272894739
 20
2.038542318774704
 30
0.0
 11
20.8693968800916
 21
5.171166469918914
 31
0.0
  0
LINE
  5
B1B4
330
B18E
100
AcDbEntity
  8
0
  6
CONTINUOUS
100
AcDbLine
 10
17.92076276004034
 20
1.549013140787464
 30
0.0
 11
20.37944720592384
 21
4.007697586670968
 31
0.0
  0
LINE
  5
B1B5
330
B18E
100
AcDbEntity
  8
0
  6
CONTINUOUS
100
AcDbLine
 10
18.10475279113329
 20
1.059483962800223
 30
0.0
 11
19.88949753175608
 21
2.84422870342302
 31
0.0
  0
LINE
  5
B1B6
330
B18E
100
AcDbEntity
  8
0
  6
CONTINUOUS
100
AcDbLine
 10
18.28874282222623
 20
0.5699547848129822
 30
0.0
 11
19.39954785758832
 21
1.680759820175074
 31
0.0
  0
LINE
  5
B1B7
330
B18E
100
AcDbEntity
  8
0
  6
CONTINUOUS
100
AcDbLine
 10
18.47273285331918
 20
0.0804256068257416
 30
0.0
 11
18.90959818342056
 21
0.517290936927127
 31
0.0
  0
LINE
  5
B1B8
330
B18E
100
AcDbEntity
  8
0
  6
CONTINUOUS
100
AcDbLine
 10
14.3590401358224
 20
-0.1570118376323384
 30
0.0
 11
14.24903296539946
 21
-0.0470046672093929
 31
0.0
  0
LINE
  5
B1B9
330
B18E
100
AcDbEntity
  8
0
  6
CONTINUOUS
100
AcDbLine
 10
14.54309291258661
 20
0.332454594683643
 30
0.0
 11
13.75908329123172
 21
1.116464216038529
 31
0.0
  0
LINE
  5
B1BA
330
B18E
100
AcDbEntity
  8
0
  6
CONTINUOUS
100
AcDbLine
 10
14.72714568935081
 20
0.8219210269996244
 30
0.0
 11
13.26913361706399
 21
2.27993309928645
 31
0.0
  0
LINE
  5
B1BB
330
B18E
100
AcDbEntity
  8
0
  6
CONTINUOUS
100
AcDbLine
 10
14.91119846611502
 20
1.311387459315606
 30
0.0
 11
12.77918394289625
 21
3.443401982534371
 31
0.0
  0
LINE
  5
B1BC
330
B18E
100
AcDbEntity
  8
0
  6
CONTINUOUS
100
AcDbLine
 10
15.09525124287922
 20
1.800853891631587
 30
0.0
 11
12.28923426872852
 21
4.606870865782293
 31
0.0
  0
LINE
  5
B1BD
330
B18E
100
AcDbEntity
  8
0
  6
CONTINUOUS
100
AcDbLine
 10
15.27930401964343
 20
2.290320323947569
 30
0.0
 11
11.79928459456078
 21
5.770339749030213
 31
0.0
  0
LINE
  5
B1BE
330
B18E
100
AcDbEntity
  8
0
  6
CONTINUOUS
100
AcDbLine
 10
15.46335679640763
 20
2.77978675626355
 30
0.0
 11
14.48885470994921
 21
3.754288842721972
 31
0.0
  0
LINE
  5
B1BF
330
B18E
100
AcDbEntity
  8
0
  6
CONTINUOUS
100
AcDbLine
 10
13.88507249233704
 20
4.358071060334137
 30
0.0
 11
11.30933492039305
 21
6.933808632278135
 31
0.0
  0
LINE
  5
B1C0
330
B18E
100
AcDbEntity
  8
0
  6
CONTINUOUS
100
AcDbLine
 10
18.75840522805855
 20
0.1582575336928151
 30
0.0
 11
18.25383727664818
 21
0.6628254851031863
 31
0.0
  0
LINE
  5
B1C1
330
B18E
100
AcDbEntity
  8
0
  6
CONTINUOUS
100
AcDbLine
 10
15.64740957317184
 20
3.269253188579531
 30
0.0
 11
14.67288388101266
 21
4.243778880738705
 31
0.0
  0
LINE
  5
B1C2
330
B18E
100
AcDbEntity
  8
0
  6
CONTINUOUS
100
AcDbLine
 10
13.39509276772158
 20
5.521569994029786
 30
0.0
 11
10.81938524622531
 21
8.097277515526056
 31
0.0
  0
LINE
  5
B1C3
330
B18E
100
AcDbEntity
  8
0
  6
CONTINUOUS
100
AcDbLine
 10
18.95798597883369
 20
0.6321959919978686
 30
0.0
 11
17.84825644852853
 21
1.741925522303024
 31
0.0
  0
LINE
  5
B1C4
330
B18E
100
AcDbEntity
  8
0
  6
CONTINUOUS
100
AcDbLine
 10
19.15756672960882
 20
1.106134450302922
 30
0.0
 11
17.44267562040888
 21
2.821025559502861
 31
0.0
  0
LINE
  5
B1C5
330
B18E
100
AcDbEntity
  8
0
  6
CONTINUOUS
100
AcDbLine
 10
15.83146234993604
 20
3.758719620895513
 30
0.0
 11
14.85691305207612
 21
4.733268918755439
 31
0.0
  0
LINE
  5
B1C6
330
B18E
100
AcDbEntity
  8
0
  6
CONTINUOUS
100
AcDbLine
 10
16.01551512670025
 20
4.248186053211494
 30
0.0
 11
15.04094222313957
 21
5.222758956772172
 31
0.0
  0
LINE
  5
B1C7
330
B18E
100
AcDbEntity
  8
0
  6
CONTINUOUS
100
AcDbLine
 10
12.90511304310612
 20
6.685068927725435
 30
0.0
 11
10.8270819708403
 21
8.763099999991255
 31
0.0
  0
LINE
  5
B1C8
330
B18E
100
AcDbEntity
  8
0
  6
CONTINUOUS
100
AcDbLine
 10
12.41513331849066
 20
7.848567861421083
 30
0.0
 11
11.50060117992049
 21
8.763099999991255
 31
0.0
  0
LINE
  5
B1C9
330
B18E
100
AcDbEntity
  8
0
  6
CONTINUOUS
100
AcDbLine
 10
19.35714748038395
 20
1.580072908607975
 30
0.0
 11
17.03709479228923
 21
3.900125596702697
 31
0.0
  0
LINE
  5
B1CA
330
B18E
100
AcDbEntity
  8
0
  6
CONTINUOUS
100
AcDbLine
 10
19.55672823115909
 20
2.054011366913028
 30
0.0
 11
16.63151396416958
 21
4.979225633902534
 31
0.0
  0
LINE
  5
B1CB
330
B18E
100
AcDbEntity
  8
0
  6
CONTINUOUS
100
AcDbLine
 10
16.19956790346445
 20
4.737652485527476
 30
0.0
 11
15.22497139420302
 21
5.712248994788904
 31
0.0
  0
LINE
  5
B1CC
330
B18E
100
AcDbEntity
  8
0
  6
CONTINUOUS
100
AcDbLine
 10
16.38362068022866
 20
5.227118917843457
 30
0.0
 11
15.40900056526648
 21
6.201739032805637
 31
0.0
  0
LINE
  5
B1CD
330
B18E
100
AcDbEntity
  8
0
  6
CONTINUOUS
100
AcDbLine
 10
19.75630898193422
 20
2.527949825218081
 30
0.0
 11
18.70774536448286
 21
3.576513442669441
 31
0.0
  0
LINE
  5
B1CE
330
B18E
100
AcDbEntity
  8
0
  6
CONTINUOUS
100
AcDbLine
 10
19.95588973270936
 20
3.001888283523134
 30
0.0
 11
18.90726987211446
 21
4.050508144118028
 31
0.0
  0
LINE
  5
B1CF
330
B18E
100
AcDbEntity
  8
0
  6
CONTINUOUS
100
AcDbLine
 10
20.15547048348449
 20
3.475826741828186
 30
0.0
 11
19.10679437974606
 21
4.524502845566614
 31
0.0
  0
LINE
  5
B1D0
330
B18E
100
AcDbEntity
  8
0
  6
CONTINUOUS
100
AcDbLine
 10
20.35505123425962
 20
3.94976520013324
 30
0.0
 11
19.30631888737766
 21
4.998497547015201
 31
0.0
  0
LINE
  5
B1D1
330
B18E
100
AcDbEntity
  8
0
  6
CONTINUOUS
100
AcDbLine
 10
20.55463198503475
 20
4.423703658438292
 30
0.0
 11
19.50584339500926
 21
5.472492248463787
 31
0.0
  0
LINE
  5
B1D2
330
B18E
100
AcDbEntity
  8
0
  6
CONTINUOUS
100
AcDbLine
 10
18.37481191085755
 20
3.909446896294752
 30
0.0
 11
15.59302973632993
 21
6.691229070822371
 31
0.0
  0
LINE
  5
B1D3
330
B18E
100
AcDbEntity
  8
0
  6
CONTINUOUS
100
AcDbLine
 10
17.96904084440766
 20
4.988737171824825
 30
0.0
 11
15.77705890739338
 21
7.180719108839104
 31
0.0
  0
LINE
  5
B1D4
330
B18E
100
AcDbEntity
  8
0
  6
CONTINUOUS
100
AcDbLine
 10
17.56326977795777
 20
6.068027447354899
 30
0.0
 11
15.96108807845684
 21
7.670209146855838
 31
0.0
  0
LINE
  5
B1D5
330
B18E
100
AcDbEntity
  8
0
  6
CONTINUOUS
100
AcDbLine
 10
17.15749871150789
 20
7.147317722884972
 30
0.0
 11
16.14511724952029
 21
8.15969918487257
 31
0.0
  0
LINE
  5
B1D6
330
B18E
100
AcDbEntity
  8
0
  6
CONTINUOUS
100
AcDbLine
 10
16.751727645058
 20
8.226607998415046
 30
0.0
 11
16.32914642058374
 21
8.649189222889303
 31
0.0
  0
LINE
  5
B1D7
330
B18E
100
AcDbEntity
  8
0
  6
CONTINUOUS
100
AcDbLine
 10
20.75421273580989
 20
4.897642116743345
 30
0.0
 11
19.70536790264086
 21
5.946486949912374
 31
0.0
  0
LINE
  5
B1D8
330
B18E
100
AcDbEntity
  8
0
  6
CONTINUOUS
100
AcDbLine
 10
20.95379348658502
 20
5.371580575048398
 30
0.0
 11
19.90489241027246
 21
6.42048165136096
 31
0.0
  0
LINE
  5
B1D9
330
B18E
100
AcDbEntity
  8
0
  6
CONTINUOUS
100
AcDbLine
 10
21.15337423736015
 20
5.845519033353452
 30
0.0
 11
20.10441691790406
 21
6.894476352809547
 31
0.0
  0
LINE
  5
B1DA
330
B18E
100
AcDbEntity
  8
0
  6
CONTINUOUS
100
AcDbLine
 10
21.35295498813529
 20
6.319457491658505
 30
0.0
 11
20.30394142553566
 21
7.368471054258134
 31
0.0
  0
LINE
  5
B1DB
330
B18E
100
AcDbEntity
  8
0
  6
CONTINUOUS
100
AcDbLine
 10
21.55253573891042
 20
6.793395949963558
 30
0.0
 11
20.50346593316726
 21
7.842465755706721
 31
0.0
  0
LINE
  5
B1DC
330
B18E
100
AcDbEntity
  8
0
  6
CONTINUOUS
100
AcDbLine
 10
21.75211648968556
 20
7.267334408268612
 30
0.0
 11
20.70299044079886
 21
8.316460457155308
 31
0.0
  0
LINE
  5
B1DD
330
B18E
100
AcDbEntity
  8
0
  6
CONTINUOUS
100
AcDbLine
 10
21.95169724046069
 20
7.741272866573663
 30
0.0
 11
20.9298701070431
 21
8.763099999991256
 31
0.0
  0
LINE
  5
B1DE
330
B18E
100
AcDbEntity
  8
0
  6
CONTINUOUS
100
AcDbLine
 10
22.15127799123582
 20
8.215211324878716
 30
0.0
 11
21.60338931612328
 21
8.763099999991256
 31
0.0
  0
LINE
  5
B1DF
330
B18E
100
AcDbEntity
  8
0
  6
CONTINUOUS
100
AcDbLine
 10
22.35085874201096
 20
8.689149783183769
 30
0.0
 11
22.27690852520347
 21
8.763099999991255
 31
0.0
  0
ENDBLK
  5
B2D1
330
B18E
100
AcDbEntity
  8
0
100
AcDbBlockEnd
  0
BLOCK
  5
B2D2
330
B1E0
100
AcDbEntity
  8
0
100
AcDbBlockBegin
  2
*X22
 70
     1
 10
0.0
 20
0.0
 30
0.0
  3
*X22
  1

  0
LINE
  5
B1E1
330
B1E0
100
AcDbEntity
  8
0
  6
CONTINUOUS
100
AcDbLine
 10
23.19462913593892
 20
8.169917934846424
 30
0.0
 11
23.70775465517246
 21
8.683043454079957
 31
0.0
  0
LINE
  5
B1E2
330
B1E0
100
AcDbEntity
  8
0
  6
CONTINUOUS
100
AcDbLine
 10
22.64923161835078
 20
6.951001208178088
 30
0.0
 11
23.9159364069932
 21
8.217705996820516
 31
0.0
  0
LINE
  5
B1E3
330
B1E0
100
AcDbEntity
  8
0
  6
CONTINUOUS
100
AcDbLine
 10
22.10383410076263
 20
5.732084481509751
 30
0.0
 11
24.12411815881395
 21
7.752368539561078
 31
0.0
  0
LINE
  5
B1E4
330
B1E0
100
AcDbEntity
  8
0
  6
CONTINUOUS
100
AcDbLine
 10
21.55843658317447
 20
4.513167754841414
 30
0.0
 11
24.3322999106347
 21
7.287031082301639
 31
0.0
  0
LINE
  5
B1E5
330
B1E0
100
AcDbEntity
  8
0
  6
CONTINUOUS
100
AcDbLine
 10
21.01303906558632
 20
3.294251028173077
 30
0.0
 11
24.54048166245544
 21
6.821693625042199
 31
0.0
  0
LINE
  5
B1E6
330
B1E0
100
AcDbEntity
  8
0
  6
CONTINUOUS
100
AcDbLine
 10
20.46764154799817
 20
2.075334301504738
 30
0.0
 11
23.28571549467848
 21
4.89340824818505
 31
0.0
  0
LINE
  5
B1E7
330
B1E0
100
AcDbEntity
  8
0
  6
CONTINUOUS
100
AcDbLine
 10
19.92224403041002
 20
0.8564175748364002
 30
0.0
 11
22.74075865492779
 21
3.674932199354171
 31
0.0
  0
LINE
  5
B1E8
330
B1E0
100
AcDbEntity
  8
0
  6
CONTINUOUS
100
AcDbLine
 10
23.67305085490148
 20
5.280743608408048
 30
0.0
 11
24.74866341427619
 21
6.356356167782759
 31
0.0
  0
LINE
  5
B1E9
330
B1E0
100
AcDbEntity
  8
0
  6
CONTINUOUS
100
AcDbLine
 10
23.88118970842314
 20
4.815363252849522
 30
0.0
 11
24.95684516609694
 21
5.89101871052332
 31
0.0
  0
LINE
  5
B1EA
330
B1E0
100
AcDbEntity
  8
0
  6
CONTINUOUS
100
AcDbLine
 10
19.73925852647308
 20
-0.0000871381807288
 30
0.0
 11
23.4103456646501
 21
3.670999999996297
 31
0.0
  0
LINE
  5
B1EB
330
B1E0
100
AcDbEntity
  8
0
  6
CONTINUOUS
100
AcDbLine
 10
24.0893285619448
 20
4.349982897290997
 30
0.0
 11
25.16502691791769
 21
5.42568125326388
 31
0.0
  0
LINE
  5
B1EC
330
B1E0
100
AcDbEntity
  8
0
  6
CONTINUOUS
100
AcDbLine
 10
20.41282099582748
 20
-0.0000438779065108
 30
0.0
 11
21.64944178675636
 21
1.236576913022366
 31
0.0
  0
LINE
  5
B1ED
330
B1E0
100
AcDbEntity
  8
0
  6
CONTINUOUS
100
AcDbLine
 10
22.78126487373161
 20
2.36839999999762
 30
0.0
 11
24.08386487373029
 21
3.670999999996297
 31
0.0
  0
LINE
  5
B1EE
330
B1E0
100
AcDbEntity
  8
0
  6
CONTINUOUS
100
AcDbLine
 10
24.29746741546646
 20
3.884602541732471
 30
0.0
 11
25.37320866973843
 21
4.960343796004441
 31
0.0
  0
LINE
  5
B1EF
330
B1E0
100
AcDbEntity
  8
0
  6
CONTINUOUS
100
AcDbLine
 10
21.08638346518189
 20
-0.0000006176322938
 30
0.0
 11
21.10379033335899
 21
0.0174062505448083
 31
0.0
  0
LINE
  5
B1F0
330
B1E0
100
AcDbEntity
  8
0
  6
CONTINUOUS
100
AcDbLine
 10
23.4547840828118
 20
2.36839999999762
 30
0.0
 11
25.58139042155918
 21
4.495006338745002
 31
0.0
  0
LINE
  5
B1F1
330
B1E0
100
AcDbEntity
  8
0
  6
CONTINUOUS
100
AcDbLine
 10
29.30199999996933
 20
8.215615917155148
 30
0.0
 11
29.84948408280543
 21
8.763099999991255
 31
0.0
  0
LINE
  5
B1F2
330
B1E0
100
AcDbEntity
  8
0
  6
CONTINUOUS
100
AcDbLine
 10
24.12830329189199
 20
2.36839999999762
 30
0.0
 11
25.78957217337993
 21
4.029668881485562
 31
0.0
  0
LINE
  5
B1F3
330
B1E0
100
AcDbEntity
  8
0
  6
CONTINUOUS
100
AcDbLine
 10
29.30199999996933
 20
7.54209670807496
 30
0.0
 11
30.52300329188562
 21
8.763099999991255
 31
0.0
  0
LINE
  5
B1F4
330
B1E0
100
AcDbEntity
  8
0
  6
CONTINUOUS
100
AcDbLine
 10
24.80182250097217
 20
2.36839999999762
 30
0.0
 11
25.99775392520067
 21
3.564331424226122
 31
0.0
  0
LINE
  5
B1F5
330
B1E0
100
AcDbEntity
  8
0
  6
CONTINUOUS
100
AcDbLine
 10
29.30199999996933
 20
6.868577498994774
 30
0.0
 11
30.74199999996926
 21
8.308577498994712
 31
0.0
  0
LINE
  5
B1F6
330
B1E0
100
AcDbEntity
  8
0
  6
CONTINUOUS
100
AcDbLine
 10
25.13028238392013
 20
2.023340673865392
 30
0.0
 11
26.20593567702142
 21
3.098993966966683
 31
0.0
  0
LINE
  5
B1F7
330
B1E0
100
AcDbEntity
  8
0
  6
CONTINUOUS
100
AcDbLine
 10
25.33838066033617
 20
1.557919741201244
 30
0.0
 11
26.41411742884217
 21
2.633656509707244
 31
0.0
  0
LINE
  5
B1F8
330
B1E0
100
AcDbEntity
  8
0
  6
CONTINUOUS
100
AcDbLine
 10
25.54647893675221
 20
1.092498808537098
 30
0.0
 11
26.62229918066291
 21
2.168319052447804
 31
0.0
  0
LINE
  5
B1F9
330
B1E0
100
AcDbEntity
  8
0
  6
CONTINUOUS
100
AcDbLine
 10
25.75457721316825
 20
0.62707787587295
 30
0.0
 11
26.83048093248366
 21
1.702981595188365
 31
0.0
  0
LINE
  5
B1FA
330
B1E0
100
AcDbEntity
  8
0
  6
CONTINUOUS
100
AcDbLine
 10
29.30199999996933
 20
6.195058289914587
 30
0.0
 11
30.74199999996926
 21
7.635058289914522
 31
0.0
  0
LINE
  5
B1FB
330
B1E0
100
AcDbEntity
  8
0
  6
CONTINUOUS
100
AcDbLine
 10
29.30199999996933
 20
5.521539080834401
 30
0.0
 11
30.74199999996926
 21
6.961539080834331
 31
0.0
  0
LINE
  5
B1FC
330
B1E0
100
AcDbEntity
  8
0
  6
CONTINUOUS
100
AcDbLine
 10
29.30199999996933
 20
4.848019871754214
 30
0.0
 11
30.74199999996925
 21
6.288019871754143
 31
0.0
  0
LINE
  5
B1FD
330
B1E0
100
AcDbEntity
  8
0
  6
CONTINUOUS
100
AcDbLine
 10
29.30199999996933
 20
4.174500662674028
 30
0.0
 11
30.74199999996925
 21
5.614500662673953
 31
0.0
  0
LINE
  5
B1FE
330
B1E0
100
AcDbEntity
  8
0
  6
CONTINUOUS
100
AcDbLine
 10
25.96267548958429
 20
0.1616569432088024
 30
0.0
 11
27.18411854636669
 21
1.383099999991207
 31
0.0
  0
LINE
  5
B1FF
330
B1E0
100
AcDbEntity
  8
0
  6
CONTINUOUS
100
AcDbLine
 10
29.30199999996933
 20
3.500981453593841
 30
0.0
 11
30.74199999996925
 21
4.940981453593762
 31
0.0
  0
LINE
  5
B200
330
B1E0
100
AcDbEntity
  8
0
  6
CONTINUOUS
100
AcDbLine
 10
26.50763775544691
 20
0.0330999999912356
 30
0.0
 11
27.85763775544689
 21
1.383099999991223
 31
0.0
  0
LINE
  5
B201
330
B1E0
100
AcDbEntity
  8
0
  6
CONTINUOUS
100
AcDbLine
 10
29.30199999996933
 20
2.827462244513656
 30
0.0
 11
30.74199999996925
 21
4.267462244513574
 31
0.0
  0
LINE
  5
B202
330
B1E0
100
AcDbEntity
  8
0
  6
CONTINUOUS
100
AcDbLine
 10
27.18115696452709
 20
0.0330999999912356
 30
0.0
 11
28.57843169463094
 21
1.430374730095086
 31
0.0
  0
LINE
  5
B203
330
B1E0
100
AcDbEntity
  8
0
  6
CONTINUOUS
100
AcDbLine
 10
29.2547252698654
 20
2.106668305329547
 30
0.0
 11
30.74199999996924
 21
3.593943035433384
 31
0.0
  0
LINE
  5
B204
330
B1E0
100
AcDbEntity
  8
0
  6
CONTINUOUS
100
AcDbLine
 10
27.85467617360728
 20
0.0330999999912356
 30
0.0
 11
30.74199999996924
 21
2.920423826353195
 31
0.0
  0
LINE
  5
B205
330
B1E0
100
AcDbEntity
  8
0
  6
CONTINUOUS
100
AcDbLine
 10
28.55194421293851
 20
0.0568488302422763
 30
0.0
 11
30.71825116971818
 21
2.223155787021951
 31
0.0
  0
LINE
  5
B206
330
B1E0
100
AcDbEntity
  8
0
  6
CONTINUOUS
100
AcDbLine
 10
29.51480923620385
 20
0.346194644427432
 30
0.0
 11
30.42890535553301
 21
1.260290763756593
 31
0.0
  0
LINE
  5
B207
330
B1E0
100
AcDbEntity
  8
0
  6
CONTINUOUS
100
AcDbLine
 10
19.59027867740337
 20
-0.0000967065718083
 30
0.0
 11
19.55485265190471
 21
0.035329318926844
 31
0.0
  0
LINE
  5
B208
330
B1E0
100
AcDbEntity
  8
0
  6
CONTINUOUS
100
AcDbLine
 10
20.26375463176586
 20
-0.0000534518541091
 30
0.0
 11
19.76305575737534
 21
0.5006454225364014
 31
0.0
  0
LINE
  5
B209
330
B1E0
100
AcDbEntity
  8
0
  6
CONTINUOUS
100
AcDbLine
 10
20.93723058612834
 20
-0.0000101971364099
 30
0.0
 11
19.97125886284597
 21
0.965961526145958
 31
0.0
  0
LINE
  5
B20A
330
B1E0
100
AcDbEntity
  8
0
  6
CONTINUOUS
100
AcDbLine
 10
21.25514828313686
 20
0.355591314935257
 30
0.0
 11
20.1794619683166
 21
1.431277629755512
 31
0.0
  0
LINE
  5
B20B
330
B1E0
100
AcDbEntity
  8
0
  6
CONTINUOUS
100
AcDbLine
 10
21.46338838394921
 20
0.8208704232030986
 30
0.0
 11
20.38766507378723
 21
1.896593733365069
 31
0.0
  0
LINE
  5
B20C
330
B1E0
100
AcDbEntity
  8
0
  6
CONTINUOUS
100
AcDbLine
 10
21.67162848476155
 20
1.28614953147094
 30
0.0
 11
20.59586817925786
 21
2.361909836974626
 31
0.0
  0
LINE
  5
B20D
330
B1E0
100
AcDbEntity
  8
0
  6
CONTINUOUS
100
AcDbLine
 10
21.8798685855739
 20
1.751428639738782
 30
0.0
 11
20.80407128472849
 21
2.827225940584183
 31
0.0
  0
LINE
  5
B20E
330
B1E0
100
AcDbEntity
  8
0
  6
CONTINUOUS
100
AcDbLine
 10
22.08810868638624
 20
2.216707748006623
 30
0.0
 11
21.01227439019912
 21
3.292542044193739
 31
0.0
  0
LINE
  5
B20F
330
B1E0
100
AcDbEntity
  8
0
  6
CONTINUOUS
100
AcDbLine
 10
22.60993564347543
 20
2.36839999999762
 30
0.0
 11
21.22047749566975
 21
3.757858147803296
 31
0.0
  0
LINE
  5
B210
330
B1E0
100
AcDbEntity
  8
0
  6
CONTINUOUS
100
AcDbLine
 10
23.28345485255561
 20
2.36839999999762
 30
0.0
 11
21.42868060114038
 21
4.223174251412853
 31
0.0
  0
LINE
  5
B211
330
B1E0
100
AcDbEntity
  8
0
  6
CONTINUOUS
100
AcDbLine
 10
26.29227406164219
 20
0.0330999999912356
 30
0.0
 11
25.80009199592872
 21
0.5252820657046957
 31
0.0
  0
LINE
  5
B212
330
B1E0
100
AcDbEntity
  8
0
  6
CONTINUOUS
100
AcDbLine
 10
23.9569740616358
 20
2.36839999999762
 30
0.0
 11
21.63688370661101
 21
4.688490355022409
 31
0.0
  0
LINE
  5
B213
330
B1E0
100
AcDbEntity
  8
0
  6
CONTINUOUS
100
AcDbLine
 10
26.96579327072237
 20
0.0330999999912356
 30
0.0
 11
25.2554132311971
 21
1.743480039516508
 31
0.0
  0
LINE
  5
B214
330
B1E0
100
AcDbEntity
  8
0
  6
CONTINUOUS
100
AcDbLine
 10
24.63049327071599
 20
2.36839999999762
 30
0.0
 11
23.32789327071731
 21
3.670999999996297
 31
0.0
  0
LINE
  5
B215
330
B1E0
100
AcDbEntity
  8
0
  6
CONTINUOUS
100
AcDbLine
 10
22.92098674744635
 20
4.077906523267254
 30
0.0
 11
21.84508681208164
 21
5.153806458631966
 31
0.0
  0
LINE
  5
B216
330
B1E0
100
AcDbEntity
  8
0
  6
CONTINUOUS
100
AcDbLine
 10
27.63931247980256
 20
0.0330999999912356
 30
0.0
 11
24.0014124797975
 21
3.670999999996297
 31
0.0
  0
LINE
  5
B217
330
B1E0
100
AcDbEntity
  8
0
  6
CONTINUOUS
100
AcDbLine
 10
23.129125600968
 20
4.5432868788258
 30
0.0
 11
22.05328991755227
 21
5.619122562241522
 31
0.0
  0
LINE
  5
B218
330
B1E0
100
AcDbEntity
  8
0
  6
CONTINUOUS
100
AcDbLine
 10
28.31283168888275
 20
0.0330999999912356
 30
0.0
 11
24.16488385994816
 21
4.181047828925828
 31
0.0
  0
LINE
  5
B219
330
B1E0
100
AcDbEntity
  8
0
  6
CONTINUOUS
100
AcDbLine
 10
23.33726445448964
 20
5.008667234384345
 30
0.0
 11
22.2614930230229
 21
6.084438665851079
 31
0.0
  0
LINE
  5
B21A
330
B1E0
100
AcDbEntity
  8
0
  6
CONTINUOUS
100
AcDbLine
 10
28.90645333830136
 20
0.1129975596528112
 30
0.0
 11
27.63635089796295
 21
1.383099999991217
 31
0.0
  0
LINE
  5
B21B
330
B1E0
100
AcDbEntity
  8
0
  6
CONTINUOUS
100
AcDbLine
 10
26.43704649509776
 20
2.582404402856405
 30
0.0
 11
23.61992702019732
 21
5.399523877756844
 31
0.0
  0
LINE
  5
B21C
330
B1E0
100
AcDbEntity
  8
0
  6
CONTINUOUS
100
AcDbLine
 10
23.54540330801128
 20
5.47404758994289
 30
0.0
 11
22.46969612849353
 21
6.549754769460635
 31
0.0
  0
LINE
  5
B21D
330
B1E0
100
AcDbEntity
  8
0
  6
CONTINUOUS
100
AcDbLine
 10
29.40349360806839
 20
0.2894764989659606
 30
0.0
 11
28.30987010704312
 21
1.383099999991234
 31
0.0
  0
LINE
  5
B21E
330
B1E0
100
AcDbEntity
  8
0
  6
CONTINUOUS
100
AcDbLine
 10
25.89179548232307
 20
3.801174624711282
 30
0.0
 11
22.67789923396416
 21
7.015070873070191
 31
0.0
  0
LINE
  5
B21F
330
B1E0
100
AcDbEntity
  8
0
  6
CONTINUOUS
100
AcDbLine
 10
29.83195328664716
 20
0.5345360294673855
 30
0.0
 11
28.85740608974929
 21
1.50908322636525
 31
0.0
  0
LINE
  5
B220
330
B1E0
100
AcDbEntity
  8
0
  6
CONTINUOUS
100
AcDbLine
 10
25.34654446954838
 20
5.01994484656616
 30
0.0
 11
22.88610233943479
 21
7.480386976679748
 31
0.0
  0
LINE
  5
B221
330
B1E0
100
AcDbEntity
  8
0
  6
CONTINUOUS
100
AcDbLine
 10
30.16871289118725
 20
0.8712956340074771
 30
0.0
 11
29.18680861743091
 21
1.853199907763824
 31
0.0
  0
LINE
  5
B222
330
B1E0
100
AcDbEntity
  8
0
  6
CONTINUOUS
100
AcDbLine
 10
24.80129345677369
 20
6.238715068421037
 30
0.0
 11
23.09430544490542
 21
7.945703080289305
 31
0.0
  0
LINE
  5
B223
330
B1E0
100
AcDbEntity
  8
0
  6
CONTINUOUS
100
AcDbLine
 10
30.43711825255073
 20
1.276409481724182
 30
0.0
 11
29.30199999996933
 21
2.411527734305588
 31
0.0
  0
LINE
  5
B224
330
B1E0
100
AcDbEntity
  8
0
  6
CONTINUOUS
100
AcDbLine
 10
24.256042443999
 20
7.457485290275915
 30
0.0
 11
23.30250855037605
 21
8.411019183898862
 31
0.0
  0
LINE
  5
B225
330
B1E0
100
AcDbEntity
  8
0
  6
CONTINUOUS
100
AcDbLine
 10
30.6424542258006
 20
1.744592717554502
 30
0.0
 11
29.30199999996933
 21
3.085046943385775
 31
0.0
  0
LINE
  5
B226
330
B1E0
100
AcDbEntity
  8
0
  6
CONTINUOUS
100
AcDbLine
 10
23.71079143122431
 20
8.676255512130794
 30
0.0
 11
23.51071165584668
 21
8.876335287508416
 31
0.0
  0
LINE
  5
B227
330
B1E0
100
AcDbEntity
  8
0
  6
CONTINUOUS
100
AcDbLine
 10
30.73454365592805
 20
2.326022496507238
 30
0.0
 11
29.30199999996933
 21
3.758566152465961
 31
0.0
  0
LINE
  5
B228
330
B1E0
100
AcDbEntity
  8
0
  6
CONTINUOUS
100
AcDbLine
 10
30.74199999996924
 20
2.992085361546236
 30
0.0
 11
29.30199999996933
 21
4.432085361546148
 31
0.0
  0
LINE
  5
B229
330
B1E0
100
AcDbEntity
  8
0
  6
CONTINUOUS
100
AcDbLine
 10
30.74199999996924
 20
3.665604570626419
 30
0.0
 11
29.30199999996933
 21
5.105604570626333
 31
0.0
  0
LINE
  5
B22A
330
B1E0
100
AcDbEntity
  8
0
  6
CONTINUOUS
100
AcDbLine
 10
30.74199999996925
 20
4.339123779706602
 30
0.0
 11
29.30199999996933
 21
5.77912377970652
 31
0.0
  0
LINE
  5
B22B
330
B1E0
100
AcDbEntity
  8
0
  6
CONTINUOUS
100
AcDbLine
 10
30.74199999996925
 20
5.012642988786785
 30
0.0
 11
29.30199999996933
 21
6.452642988786707
 31
0.0
  0
LINE
  5
B22C
330
B1E0
100
AcDbEntity
  8
0
  6
CONTINUOUS
100
AcDbLine
 10
30.74199999996925
 20
5.68616219786697
 30
0.0
 11
29.30199999996933
 21
7.126162197866894
 31
0.0
  0
LINE
  5
B22D
330
B1E0
100
AcDbEntity
  8
0
  6
CONTINUOUS
100
AcDbLine
 10
30.74199999996925
 20
6.359681406947153
 30
0.0
 11
29.30199999996933
 21
7.799681406947081
 31
0.0
  0
LINE
  5
B22E
330
B1E0
100
AcDbEntity
  8
0
  6
CONTINUOUS
100
AcDbLine
 10
30.74199999996926
 20
7.033200616027337
 30
0.0
 11
29.30199999996933
 21
8.473200616027269
 31
0.0
  0
LINE
  5
B22F
330
B1E0
100
AcDbEntity
  8
0
  6
CONTINUOUS
100
AcDbLine
 10
30.74199999996926
 20
7.706719825107518
 30
0.0
 11
29.68561982508552
 21
8.763099999991255
 31
0.0
  0
LINE
  5
B230
330
B1E0
100
AcDbEntity
  8
0
  6
CONTINUOUS
100
AcDbLine
 10
30.74199999996926
 20
8.380239034187703
 30
0.0
 11
30.35913903416571
 21
8.763099999991255
 31
0.0
  0
ENDBLK
  5
B2D3
330
B1E0
100
AcDbEntity
  8
0
100
AcDbBlockEnd
  0
BLOCK
  5
B2D4
330
B231
100
AcDbEntity
  8
0
100
AcDbBlockBegin
  2
*X23
 70
     1
 10
0.0
 20
0.0
 30
0.0
  3
*X23
  1

  0
LINE
  5
B232
330
B231
100
AcDbEntity
  8
0
  6
CONTINUOUS
100
AcDbLine
 10
31.64199999996833
 20
8.5350582899136
 30
0.0
 11
31.87004171004599
 21
8.763099999991255
 31
0.0
  0
LINE
  5
B233
330
B231
100
AcDbEntity
  8
0
  6
CONTINUOUS
100
AcDbLine
 10
31.64199999996833
 20
7.861539080833413
 30
0.0
 11
32.54356091912618
 21
8.763099999991255
 31
0.0
  0
LINE
  5
B234
330
B231
100
AcDbEntity
  8
0
  6
CONTINUOUS
100
AcDbLine
 10
31.64199999996833
 20
7.188019871753227
 30
0.0
 11
33.08199999996839
 21
8.628019871753281
 31
0.0
  0
LINE
  5
B235
330
B231
100
AcDbEntity
  8
0
  6
CONTINUOUS
100
AcDbLine
 10
31.64199999996833
 20
6.514500662673041
 30
0.0
 11
33.08199999996839
 21
7.954500662673095
 31
0.0
  0
LINE
  5
B236
330
B231
100
AcDbEntity
  8
0
  6
CONTINUOUS
100
AcDbLine
 10
31.64199999996833
 20
5.840981453592855
 30
0.0
 11
33.08199999996839
 21
7.28098145359291
 31
0.0
  0
LINE
  5
B237
330
B231
100
AcDbEntity
  8
0
  6
CONTINUOUS
100
AcDbLine
 10
31.64199999996833
 20
5.167462244512668
 30
0.0
 11
33.08199999996839
 21
6.607462244512723
 31
0.0
  0
LINE
  5
B238
330
B231
100
AcDbEntity
  8
0
  6
CONTINUOUS
100
AcDbLine
 10
31.64199999996833
 20
4.493943035432482
 30
0.0
 11
33.08199999996839
 21
5.933943035432536
 31
0.0
  0
LINE
  5
B239
330
B231
100
AcDbEntity
  8
0
  6
CONTINUOUS
100
AcDbLine
 10
31.64199999996833
 20
3.820423826352294
 30
0.0
 11
33.08199999996839
 21
5.260423826352349
 31
0.0
  0
LINE
  5
B23A
330
B231
100
AcDbEntity
  8
0
  6
CONTINUOUS
100
AcDbLine
 10
31.64199999996833
 20
3.146904617272108
 30
0.0
 11
33.08199999996839
 21
4.586904617272163
 31
0.0
  0
LINE
  5
B23B
330
B231
100
AcDbEntity
  8
0
  6
CONTINUOUS
100
AcDbLine
 10
36.23199999996837
 20
8.410423826352327
 30
0.0
 11
36.58467617360729
 21
8.763099999991255
 31
0.0
  0
LINE
  5
B23C
330
B231
100
AcDbEntity
  8
0
  6
CONTINUOUS
100
AcDbLine
 10
36.23199999996837
 20
7.73690461727214
 30
0.0
 11
37.25819538268748
 21
8.763099999991255
 31
0.0
  0
LINE
  5
B23D
330
B231
100
AcDbEntity
  8
0
  6
CONTINUOUS
100
AcDbLine
 10
31.64295791647285
 20
2.474343324696431
 30
0.0
 11
33.08199999996839
 21
3.913385408191976
 31
0.0
  0
LINE
  5
B23E
330
B231
100
AcDbEntity
  8
0
  6
CONTINUOUS
100
AcDbLine
 10
31.72131278798881
 20
1.879178987132208
 30
0.0
 11
33.08199999996839
 21
3.239866199111789
 31
0.0
  0
LINE
  5
B23F
330
B231
100
AcDbEntity
  8
0
  6
CONTINUOUS
100
AcDbLine
 10
36.23199999996837
 20
7.063385408191953
 30
0.0
 11
37.67199999996831
 21
8.503385408191894
 31
0.0
  0
LINE
  5
B240
330
B231
100
AcDbEntity
  8
0
  6
CONTINUOUS
100
AcDbLine
 10
36.23199999996837
 20
6.389866199111767
 30
0.0
 11
37.67199999996831
 21
7.829866199111708
 31
0.0
  0
LINE
  5
B241
330
B231
100
AcDbEntity
  8
0
  6
CONTINUOUS
100
AcDbLine
 10
31.90398109638795
 20
1.388328086451165
 30
0.0
 11
33.08199999996839
 21
2.566346990031603
 31
0.0
  0
LINE
  5
B242
330
B231
100
AcDbEntity
  8
0
  6
CONTINUOUS
100
AcDbLine
 10
36.23199999996837
 20
5.71634699003158
 30
0.0
 11
37.67199999996831
 21
7.156346990031522
 31
0.0
  0
LINE
  5
B243
330
B231
100
AcDbEntity
  8
0
  6
CONTINUOUS
100
AcDbLine
 10
32.15410588803598
 20
0.9649336690190076
 30
0.0
 11
33.19577568229511
 21
2.006603463278144
 31
0.0
  0
LINE
  5
B244
330
B231
100
AcDbEntity
  8
0
  6
CONTINUOUS
100
AcDbLine
 10
36.23199999996837
 20
5.042827780951393
 30
0.0
 11
37.67199999996831
 21
6.482827780951334
 31
0.0
  0
LINE
  5
B245
330
B231
100
AcDbEntity
  8
0
  6
CONTINUOUS
100
AcDbLine
 10
32.45868320364774
 20
0.5959917755505852
 30
0.0
 11
33.48433514284099
 21
1.621643714743831
 31
0.0
  0
LINE
  5
B246
330
B231
100
AcDbEntity
  8
0
  6
CONTINUOUS
100
AcDbLine
 10
36.23199999996837
 20
4.369308571871207
 30
0.0
 11
37.67199999996831
 21
5.809308571871148
 31
0.0
  0
LINE
  5
B247
330
B231
100
AcDbEntity
  8
0
  6
CONTINUOUS
100
AcDbLine
 10
32.83977805121244
 20
0.3035674140350983
 30
0.0
 11
33.9144983171802
 21
1.378287680002859
 31
0.0
  0
LINE
  5
B248
330
B231
100
AcDbEntity
  8
0
  6
CONTINUOUS
100
AcDbLine
 10
36.23199999996837
 20
3.695789362791021
 30
0.0
 11
37.67199999996831
 21
5.135789362790963
 31
0.0
  0
LINE
  5
B249
330
B231
100
AcDbEntity
  8
0
  6
CONTINUOUS
100
AcDbLine
 10
33.28925592101007
 20
0.0795260747525335
 30
0.0
 11
34.4429104952855
 21
1.233180649027971
 31
0.0
  0
LINE
  5
B24A
330
B231
100
AcDbEntity
  8
0
  6
CONTINUOUS
100
AcDbLine
 10
36.23199999996837
 20
3.022270153710834
 30
0.0
 11
37.67199999996831
 21
4.462270153710776
 31
0.0
  0
LINE
  5
B24B
330
B231
100
AcDbEntity
  8
0
  6
CONTINUOUS
100
AcDbLine
 10
33.76550592101022
 20
-0.1177431343275011
 30
0.0
 11
35.18258581678813
 21
1.299336761450407
 31
0.0
  0
LINE
  5
B24C
330
B231
100
AcDbEntity
  8
0
  6
CONTINUOUS
100
AcDbLine
 10
36.20355631289775
 20
2.320307257560033
 30
0.0
 11
37.67199999996831
 21
3.788750944630589
 31
0.0
  0
LINE
  5
B24D
330
B231
100
AcDbEntity
  8
0
  6
CONTINUOUS
100
AcDbLine
 10
34.35908899259119
 20
-0.1976792718267175
 30
0.0
 11
37.67199999996831
 21
3.115231735550402
 31
0.0
  0
LINE
  5
B24E
330
B231
100
AcDbEntity
  8
0
  6
CONTINUOUS
100
AcDbLine
 10
35.04438808203069
 20
-0.1858993914674008
 30
0.0
 11
37.66594960818956
 21
2.435662134691464
 31
0.0
  0
LINE
  5
B24F
330
B231
100
AcDbEntity
  8
0
  6
CONTINUOUS
100
AcDbLine
 10
35.95405053101277
 20
0.0502438484344916
 30
0.0
 11
37.49337557446166
 21
1.589568891883381
 31
0.0
  0
LINE
  5
B250
330
B231
100
AcDbEntity
  8
0
  6
CONTINUOUS
100
AcDbLine
 10
32.48400274193772
 20
0.5765634104975641
 30
0.0
 11
32.34694398754057
 21
0.7136221648947103
 31
0.0
  0
LINE
  5
B251
330
B231
100
AcDbEntity
  8
0
  6
CONTINUOUS
100
AcDbLine
 10
33.86697683926317
 20
-0.1328914777477044
 30
0.0
 11
31.70105830546678
 21
2.033027056048692
 31
0.0
  0
LINE
  5
B252
330
B231
100
AcDbEntity
  8
0
  6
CONTINUOUS
100
AcDbLine
 10
34.64261010498837
 20
-0.2350055343927187
 30
0.0
 11
31.64199999996833
 21
2.765604570627322
 31
0.0
  0
LINE
  5
B253
330
B231
100
AcDbEntity
  8
0
  6
CONTINUOUS
100
AcDbLine
 10
35.24112258276081
 20
-0.1599988030849646
 30
0.0
 11
31.64199999996833
 21
3.439123779707508
 31
0.0
  0
LINE
  5
B254
330
B231
100
AcDbEntity
  8
0
  6
CONTINUOUS
100
AcDbLine
 10
35.777520339722
 20
-0.0228773509659694
 30
0.0
 11
34.52146233972803
 21
1.233180649027998
 31
0.0
  0
LINE
  5
B255
330
B231
100
AcDbEntity
  8
0
  6
CONTINUOUS
100
AcDbLine
 10
33.08199999996839
 20
2.672642988787641
 30
0.0
 11
31.64199999996833
 21
4.112642988787695
 31
0.0
  0
LINE
  5
B256
330
B231
100
AcDbEntity
  8
0
  6
CONTINUOUS
100
AcDbLine
 10
36.25377033972294
 20
0.1743918581132773
 30
0.0
 11
35.14317118804349
 21
1.284991009792725
 31
0.0
  0
LINE
  5
B257
330
B231
100
AcDbEntity
  8
0
  6
CONTINUOUS
100
AcDbLine
 10
33.08199999996839
 20
3.346162197867827
 30
0.0
 11
31.64199999996833
 21
4.786162197867881
 31
0.0
  0
LINE
  5
B258
330
B231
100
AcDbEntity
  8
0
  6
CONTINUOUS
100
AcDbLine
 10
36.65748856908375
 20
0.4441928378326456
 30
0.0
 11
35.63696437513804
 21
1.464717031778358
 31
0.0
  0
LINE
  5
B259
330
B231
100
AcDbEntity
  8
0
  6
CONTINUOUS
100
AcDbLine
 10
33.08199999996839
 20
4.019681406948013
 30
0.0
 11
31.64199999996833
 21
5.459681406948068
 31
0.0
  0
LINE
  5
B25A
330
B231
100
AcDbEntity
  8
0
  6
CONTINUOUS
100
AcDbLine
 10
37.00809517418186
 20
0.7671054418147287
 30
0.0
 11
35.99025189342645
 21
1.784948722570141
 31
0.0
  0
LINE
  5
B25B
330
B231
100
AcDbEntity
  8
0
  6
CONTINUOUS
100
AcDbLine
 10
33.08199999996839
 20
4.6932006160282
 30
0.0
 11
31.64199999996833
 21
6.133200616028255
 31
0.0
  0
LINE
  5
B25C
330
B231
100
AcDbEntity
  8
0
  6
CONTINUOUS
100
AcDbLine
 10
37.30051953569851
 20
1.148200289378269
 30
0.0
 11
36.19229254868971
 21
2.256427276387067
 31
0.0
  0
LINE
  5
B25D
330
B231
100
AcDbEntity
  8
0
  6
CONTINUOUS
100
AcDbLine
 10
33.08199999996839
 20
5.366719825108387
 30
0.0
 11
31.64199999996833
 21
6.806719825108441
 31
0.0
  0
LINE
  5
B25E
330
B231
100
AcDbEntity
  8
0
  6
CONTINUOUS
100
AcDbLine
 10
37.50488468691001
 20
1.617354347246954
 30
0.0
 11
36.23199999996837
 21
2.890239034188595
 31
0.0
  0
LINE
  5
B25F
330
B231
100
AcDbEntity
  8
0
  6
CONTINUOUS
100
AcDbLine
 10
33.08199999996839
 20
6.040239034188573
 30
0.0
 11
31.64199999996833
 21
7.480239034188628
 31
0.0
  0
LINE
  5
B260
330
B231
100
AcDbEntity
  8
0
  6
CONTINUOUS
100
AcDbLine
 10
37.63036768068979
 20
2.165390562547355
 30
0.0
 11
36.23199999996837
 21
3.563758243268782
 31
0.0
  0
LINE
  5
B261
330
B231
100
AcDbEntity
  8
0
  6
CONTINUOUS
100
AcDbLine
 10
33.08199999996839
 20
6.713758243268759
 30
0.0
 11
31.64199999996833
 21
8.153758243268815
 31
0.0
  0
LINE
  5
B262
330
B231
100
AcDbEntity
  8
0
  6
CONTINUOUS
100
AcDbLine
 10
37.67199999996831
 20
2.797277452349027
 30
0.0
 11
36.23199999996837
 21
4.237277452348969
 31
0.0
  0
LINE
  5
B263
330
B231
100
AcDbEntity
  8
0
  6
CONTINUOUS
100
AcDbLine
 10
37.67199999996831
 20
3.470796661429214
 30
0.0
 11
36.23199999996837
 21
4.910796661429155
 31
0.0
  0
LINE
  5
B264
330
B231
100
AcDbEntity
  8
0
  6
CONTINUOUS
100
AcDbLine
 10
37.67199999996831
 20
4.1443158705094
 30
0.0
 11
36.23199999996837
 21
5.584315870509341
 31
0.0
  0
LINE
  5
B265
330
B231
100
AcDbEntity
  8
0
  6
CONTINUOUS
100
AcDbLine
 10
33.08199999996839
 20
7.387277452348947
 30
0.0
 11
31.70617745232608
 21
8.763099999991255
 31
0.0
  0
LINE
  5
B266
330
B231
100
AcDbEntity
  8
0
  6
CONTINUOUS
100
AcDbLine
 10
33.08199999996839
 20
8.060796661429134
 30
0.0
 11
32.37969666140626
 21
8.763099999991255
 31
0.0
  0
LINE
  5
B267
330
B231
100
AcDbEntity
  8
0
  6
CONTINUOUS
100
AcDbLine
 10
33.08199999996839
 20
8.73431587050932
 30
0.0
 11
33.05321587048645
 21
8.763099999991255
 31
0.0
  0
LINE
  5
B268
330
B231
100
AcDbEntity
  8
0
  6
CONTINUOUS
100
AcDbLine
 10
37.67199999996831
 20
4.817835079589587
 30
0.0
 11
36.23199999996837
 21
6.257835079589528
 31
0.0
  0
LINE
  5
B269
330
B231
100
AcDbEntity
  8
0
  6
CONTINUOUS
100
AcDbLine
 10
37.67199999996831
 20
5.491354288669773
 30
0.0
 11
36.23199999996837
 21
6.931354288669715
 31
0.0
  0
LINE
  5
B26A
330
B231
100
AcDbEntity
  8
0
  6
CONTINUOUS
100
AcDbLine
 10
37.67199999996831
 20
6.164873497749959
 30
0.0
 11
36.23199999996837
 21
7.6048734977499
 31
0.0
  0
LINE
  5
B26B
330
B231
100
AcDbEntity
  8
0
  6
CONTINUOUS
100
AcDbLine
 10
37.67199999996831
 20
6.838392706830145
 30
0.0
 11
36.23199999996837
 21
8.278392706830086
 31
0.0
  0
LINE
  5
B26C
330
B231
100
AcDbEntity
  8
0
  6
CONTINUOUS
100
AcDbLine
 10
37.67199999996831
 20
7.511911915910333
 30
0.0
 11
36.42081191588738
 21
8.763099999991255
 31
0.0
  0
LINE
  5
B26D
330
B231
100
AcDbEntity
  8
0
  6
CONTINUOUS
100
AcDbLine
 10
37.67199999996831
 20
8.18543112499052
 30
0.0
 11
37.09433112496757
 21
8.763099999991255
 31
0.0
  0
ENDBLK
  5
B2D5
330
B231
100
AcDbEntity
  8
0
100
AcDbBlockEnd
  0
BLOCK
  5
B2D6
330
B26E
100
AcDbEntity
  8
0
100
AcDbBlockBegin
  2
*X24
 70
     1
 10
0.0
 20
0.0
 30
0.0
  3
*X24
  1

  0
LINE
  5
B26F
330
B26E
100
AcDbEntity
  8
0
  6
CONTINUOUS
100
AcDbLine
 10
38.60499999996136
 20
8.762866199104765
 30
0.0
 11
38.71672554182345
 21
8.874591740966855
 31
0.0
  0
LINE
  5
B270
330
B26E
100
AcDbEntity
  8
0
  6
CONTINUOUS
100
AcDbLine
 10
38.60499999996136
 20
8.089346990024577
 30
0.0
 11
39.03418785440363
 21
8.518534844466847
 31
0.0
  0
LINE
  5
B271
330
B26E
100
AcDbEntity
  8
0
  6
CONTINUOUS
100
AcDbLine
 10
38.60499999996136
 20
7.41582778094439
 30
0.0
 11
39.35165016698382
 21
8.16247794796684
 31
0.0
  0
LINE
  5
B272
330
B26E
100
AcDbEntity
  8
0
  6
CONTINUOUS
100
AcDbLine
 10
38.60499999996136
 20
6.742308571864204
 30
0.0
 11
39.66911247956399
 21
7.806421051466834
 31
0.0
  0
LINE
  5
B273
330
B26E
100
AcDbEntity
  8
0
  6
CONTINUOUS
100
AcDbLine
 10
38.60499999996136
 20
6.068789362784018
 30
0.0
 11
39.98657479214418
 21
7.450364154966827
 31
0.0
  0
LINE
  5
B274
330
B26E
100
AcDbEntity
  8
0
  6
CONTINUOUS
100
AcDbLine
 10
38.60499999996136
 20
5.395270153703832
 30
0.0
 11
40.30403710472435
 21
7.09430725846682
 31
0.0
  0
LINE
  5
B275
330
B26E
100
AcDbEntity
  8
0
  6
CONTINUOUS
100
AcDbLine
 10
38.60499999996136
 20
4.721750944623645
 30
0.0
 11
40.62149941730453
 21
6.738250361966813
 31
0.0
  0
LINE
  5
B276
330
B26E
100
AcDbEntity
  8
0
  6
CONTINUOUS
100
AcDbLine
 10
38.60499999996136
 20
4.048231735543458
 30
0.0
 11
40.93896172988471
 21
6.382193465466806
 31
0.0
  0
LINE
  5
B277
330
B26E
100
AcDbEntity
  8
0
  6
CONTINUOUS
100
AcDbLine
 10
38.60499999996136
 20
3.374712526463272
 30
0.0
 11
40.02599999995994
 21
4.795712526461843
 31
0.0
  0
LINE
  5
B278
330
B26E
100
AcDbEntity
  8
0
  6
CONTINUOUS
100
AcDbLine
 10
38.60499999996136
 20
2.701193317383085
 30
0.0
 11
40.02599999995994
 21
4.122193317381657
 31
0.0
  0
LINE
  5
B279
330
B26E
100
AcDbEntity
  8
0
  6
CONTINUOUS
100
AcDbLine
 10
40.28339754687704
 20
5.053110073378947
 30
0.0
 11
41.25642404246489
 21
6.026136568966799
 31
0.0
  0
LINE
  5
B27A
330
B26E
100
AcDbEntity
  8
0
  6
CONTINUOUS
100
AcDbLine
 10
40.60085985945722
 20
4.697053176878939
 30
0.0
 11
41.57388635504507
 21
5.670079672466793
 31
0.0
  0
LINE
  5
B27B
330
B26E
100
AcDbEntity
  8
0
  6
CONTINUOUS
100
AcDbLine
 10
43.57899999995641
 20
8.348712526458318
 30
0.0
 11
43.99338747348935
 21
8.763099999991255
 31
0.0
  0
LINE
  5
B27C
330
B26E
100
AcDbEntity
  8
0
  6
CONTINUOUS
100
AcDbLine
 10
43.57899999995641
 20
7.675193317378131
 30
0.0
 11
44.66690668256953
 21
8.763099999991255
 31
0.0
  0
LINE
  5
B27D
330
B26E
100
AcDbEntity
  8
0
  6
CONTINUOUS
100
AcDbLine
 10
38.60499999996136
 20
2.027674108302898
 30
0.0
 11
40.02599999995994
 21
3.44867410830147
 31
0.0
  0
LINE
  5
B27E
330
B26E
100
AcDbEntity
  8
0
  6
CONTINUOUS
100
AcDbLine
 10
38.60499999996136
 20
1.354154899222712
 30
0.0
 11
40.02599999995994
 21
2.775154899221284
 31
0.0
  0
LINE
  5
B27F
330
B26E
100
AcDbEntity
  8
0
  6
CONTINUOUS
100
AcDbLine
 10
38.60499999996136
 20
0.6806356901425255
 30
0.0
 11
40.02599999995994
 21
2.101635690141098
 31
0.0
  0
LINE
  5
B280
330
B26E
100
AcDbEntity
  8
0
  6
CONTINUOUS
100
AcDbLine
 10
38.60499999996136
 20
0.0071164810623383
 30
0.0
 11
40.02599999995994
 21
1.428116481060911
 31
0.0
  0
LINE
  5
B281
330
B26E
100
AcDbEntity
  8
0
  6
CONTINUOUS
100
AcDbLine
 10
40.9183221720374
 20
4.340996280378933
 30
0.0
 11
41.89134866762525
 21
5.314022775966786
 31
0.0
  0
LINE
  5
B282
330
B26E
100
AcDbEntity
  8
0
  6
CONTINUOUS
100
AcDbLine
 10
41.23578448461758
 20
3.984939383878926
 30
0.0
 11
42.20881098020543
 21
4.957965879466778
 31
0.0
  0
LINE
  5
B283
330
B26E
100
AcDbEntity
  8
0
  6
CONTINUOUS
100
AcDbLine
 10
41.55324679719776
 20
3.628882487378919
 30
0.0
 11
42.52627329278561
 21
4.601908982966772
 31
0.0
  0
LINE
  5
B284
330
B26E
100
AcDbEntity
  8
0
  6
CONTINUOUS
100
AcDbLine
 10
41.87070910977793
 20
3.272825590878912
 30
0.0
 11
42.84373560536579
 21
4.245852086466765
 31
0.0
  0
LINE
  5
B285
330
B26E
100
AcDbEntity
  8
0
  6
CONTINUOUS
100
AcDbLine
 10
43.57899999995641
 20
7.001674108297943
 30
0.0
 11
44.99999999995498
 21
8.422674108296516
 31
0.0
  0
LINE
  5
B286
330
B26E
100
AcDbEntity
  8
0
  6
CONTINUOUS
100
AcDbLine
 10
43.57899999995641
 20
6.328154899217758
 30
0.0
 11
44.99999999995498
 21
7.749154899216329
 31
0.0
  0
LINE
  5
B287
330
B26E
100
AcDbEntity
  8
0
  6
CONTINUOUS
100
AcDbLine
 10
43.57899999995641
 20
5.654635690137571
 30
0.0
 11
44.99999999995498
 21
7.075635690136142
 31
0.0
  0
LINE
  5
B288
330
B26E
100
AcDbEntity
  8
0
  6
CONTINUOUS
100
AcDbLine
 10
43.57899999995641
 20
4.981116481057384
 30
0.0
 11
44.99999999995498
 21
6.402116481055955
 31
0.0
  0
LINE
  5
B289
330
B26E
100
AcDbEntity
  8
0
  6
CONTINUOUS
100
AcDbLine
 10
39.27140272797921
 20
-0.0000000000000009
 30
0.0
 11
40.02599999995994
 21
0.7545972719807246
 31
0.0
  0
LINE
  5
B28A
330
B26E
100
AcDbEntity
  8
0
  6
CONTINUOUS
100
AcDbLine
 10
39.9449219370594
 20
-0.0000000000000009
 30
0.0
 11
40.02599999995994
 21
0.0810780629005379
 31
0.0
  0
LINE
  5
B28B
330
B26E
100
AcDbEntity
  8
0
  6
CONTINUOUS
100
AcDbLine
 10
42.18817142235812
 20
2.916768694378905
 30
0.0
 11
43.16119791794597
 21
3.889795189966758
 31
0.0
  0
LINE
  5
B28C
330
B26E
100
AcDbEntity
  8
0
  6
CONTINUOUS
100
AcDbLine
 10
42.50563373493829
 20
2.560711797878898
 30
0.0
 11
43.47866023052615
 21
3.533738293466751
 31
0.0
  0
LINE
  5
B28D
330
B26E
100
AcDbEntity
  8
0
  6
CONTINUOUS
100
AcDbLine
 10
43.57899999995641
 20
4.307597271977198
 30
0.0
 11
44.99999999995498
 21
5.728597271975769
 31
0.0
  0
LINE
  5
B28E
330
B26E
100
AcDbEntity
  8
0
  6
CONTINUOUS
100
AcDbLine
 10
43.57899999995641
 20
3.634078062897011
 30
0.0
 11
44.99999999995498
 21
5.055078062895582
 31
0.0
  0
LINE
  5
B28F
330
B26E
100
AcDbEntity
  8
0
  6
CONTINUOUS
100
AcDbLine
 10
42.82309604751848
 20
2.204654901378891
 30
0.0
 11
44.99999999995498
 21
4.381558853815395
 31
0.0
  0
LINE
  5
B290
330
B26E
100
AcDbEntity
  8
0
  6
CONTINUOUS
100
AcDbLine
 10
43.14055836009865
 20
1.848598004878885
 30
0.0
 11
44.99999999995498
 21
3.70803964473521
 31
0.0
  0
LINE
  5
B291
330
B26E
100
AcDbEntity
  8
0
  6
CONTINUOUS
100
AcDbLine
 10
43.45802067267883
 20
1.492541108378878
 30
0.0
 11
44.99999999995498
 21
3.034520435655023
 31
0.0
  0
LINE
  5
B292
330
B26E
100
AcDbEntity
  8
0
  6
CONTINUOUS
100
AcDbLine
 10
43.77548298525902
 20
1.136484211878871
 30
0.0
 11
44.99999999995498
 21
2.361001226574837
 31
0.0
  0
LINE
  5
B293
330
B26E
100
AcDbEntity
  8
0
  6
CONTINUOUS
100
AcDbLine
 10
44.09294529783919
 20
0.7804273153788639
 30
0.0
 11
44.99999999995498
 21
1.687482017494649
 31
0.0
  0
LINE
  5
B294
330
B26E
100
AcDbEntity
  8
0
  6
CONTINUOUS
100
AcDbLine
 10
44.41040761041938
 20
0.4243704188788566
 30
0.0
 11
44.99999999995498
 21
1.013962808414463
 31
0.0
  0
LINE
  5
B295
330
B26E
100
AcDbEntity
  8
0
  6
CONTINUOUS
100
AcDbLine
 10
44.72786992299955
 20
0.0683135223788494
 30
0.0
 11
44.99999999995498
 21
0.340443599334276
 31
0.0
  0
LINE
  5
B296
330
B26E
100
AcDbEntity
  8
0
  6
CONTINUOUS
100
AcDbLine
 10
39.12223903415696
 20
-0.0000000000000009
 30
0.0
 11
38.60499999996136
 21
0.5172390341955961
 31
0.0
  0
LINE
  5
B297
330
B26E
100
AcDbEntity
  8
0
  6
CONTINUOUS
100
AcDbLine
 10
39.79575824323715
 20
-0.0000000000000009
 30
0.0
 11
38.60499999996136
 21
1.190758243275783
 31
0.0
  0
LINE
  5
B298
330
B26E
100
AcDbEntity
  8
0
  6
CONTINUOUS
100
AcDbLine
 10
40.02599999995994
 20
0.443277452357397
 30
0.0
 11
38.60499999996136
 21
1.864277452355969
 31
0.0
  0
LINE
  5
B299
330
B26E
100
AcDbEntity
  8
0
  6
CONTINUOUS
100
AcDbLine
 10
40.02599999995994
 20
1.116796661437583
 30
0.0
 11
38.60499999996136
 21
2.537796661436155
 31
0.0
  0
LINE
  5
B29A
330
B26E
100
AcDbEntity
  8
0
  6
CONTINUOUS
100
AcDbLine
 10
40.02599999995994
 20
1.79031587051777
 30
0.0
 11
38.60499999996136
 21
3.211315870516341
 31
0.0
  0
LINE
  5
B29B
330
B26E
100
AcDbEntity
  8
0
  6
CONTINUOUS
100
AcDbLine
 10
40.02599999995994
 20
2.463835079597956
 30
0.0
 11
38.60499999996136
 21
3.884835079596527
 31
0.0
  0
LINE
  5
B29C
330
B26E
100
AcDbEntity
  8
0
  6
CONTINUOUS
100
AcDbLine
 10
40.02599999995994
 20
3.137354288678143
 30
0.0
 11
38.60499999996136
 21
4.558354288676714
 31
0.0
  0
LINE
  5
B29D
330
B26E
100
AcDbEntity
  8
0
  6
CONTINUOUS
100
AcDbLine
 10
40.02599999995994
 20
3.810873497758329
 30
0.0
 11
38.60499999996136
 21
5.2318734977569
 31
0.0
  0
LINE
  5
B29E
330
B26E
100
AcDbEntity
  8
0
  6
CONTINUOUS
100
AcDbLine
 10
40.02599999995994
 20
4.484392706838515
 30
0.0
 11
38.60499999996136
 21
5.905392706837086
 31
0.0
  0
LINE
  5
B29F
330
B26E
100
AcDbEntity
  8
0
  6
CONTINUOUS
100
AcDbLine
 10
44.99999999995498
 20
0.183911915923658
 30
0.0
 11
41.53858364506288
 21
3.64532827081576
 31
0.0
  0
LINE
  5
B2A0
330
B26E
100
AcDbEntity
  8
0
  6
CONTINUOUS
100
AcDbLine
 10
40.02599999995994
 20
5.157911915918703
 30
0.0
 11
38.60499999996136
 21
6.578911915917274
 31
0.0
  0
LINE
  5
B2A1
330
B26E
100
AcDbEntity
  8
0
  6
CONTINUOUS
100
AcDbLine
 10
44.99999999995498
 20
0.8574311250038447
 30
0.0
 11
38.60499999996136
 21
7.25243112499746
 31
0.0
  0
LINE
  5
B2A2
330
B26E
100
AcDbEntity
  8
0
  6
CONTINUOUS
100
AcDbLine
 10
44.99999999995498
 20
1.530950334084031
 30
0.0
 11
38.60499999996136
 21
7.925950334077647
 31
0.0
  0
LINE
  5
B2A3
330
B26E
100
AcDbEntity
  8
0
  6
CONTINUOUS
100
AcDbLine
 10
44.99999999995498
 20
2.204469543164218
 30
0.0
 11
43.57899999995641
 21
3.625469543162789
 31
0.0
  0
LINE
  5
B2A4
330
B26E
100
AcDbEntity
  8
0
  6
CONTINUOUS
100
AcDbLine
 10
41.89876730984767
 20
5.305702233271528
 30
0.0
 11
38.60499999996136
 21
8.599469543157834
 31
0.0
  0
LINE
  5
B2A5
330
B26E
100
AcDbEntity
  8
0
  6
CONTINUOUS
100
AcDbLine
 10
44.99999999995498
 20
2.877988752244405
 30
0.0
 11
43.57899999995641
 21
4.298988752242975
 31
0.0
  0
LINE
  5
B2A6
330
B26E
100
AcDbEntity
  8
0
  6
CONTINUOUS
100
AcDbLine
 10
44.99999999995498
 20
3.551507961324591
 30
0.0
 11
43.57899999995641
 21
4.972507961323163
 31
0.0
  0
LINE
  5
B2A7
330
B26E
100
AcDbEntity
  8
0
  6
CONTINUOUS
100
AcDbLine
 10
44.99999999995498
 20
4.225027170404777
 30
0.0
 11
43.57899999995641
 21
5.646027170403348
 31
0.0
  0
LINE
  5
B2A8
330
B26E
100
AcDbEntity
  8
0
  6
CONTINUOUS
100
AcDbLine
 10
44.99999999995498
 20
4.898546379484964
 30
0.0
 11
43.57899999995641
 21
6.319546379483535
 31
0.0
  0
LINE
  5
B2A9
330
B26E
100
AcDbEntity
  8
0
  6
CONTINUOUS
100
AcDbLine
 10
44.99999999995498
 20
5.572065588565151
 30
0.0
 11
43.57899999995641
 21
6.993065588563722
 31
0.0
  0
LINE
  5
B2AA
330
B26E
100
AcDbEntity
  8
0
  6
CONTINUOUS
100
AcDbLine
 10
44.99999999995498
 20
6.245584797645336
 30
0.0
 11
43.57899999995641
 21
7.666584797643908
 31
0.0
  0
LINE
  5
B2AB
330
B26E
100
AcDbEntity
  8
0
  6
CONTINUOUS
100
AcDbLine
 10
44.99999999995498
 20
6.919104006725522
 30
0.0
 11
43.57899999995641
 21
8.340104006724093
 31
0.0
  0
LINE
  5
B2AC
330
B26E
100
AcDbEntity
  8
0
  6
CONTINUOUS
100
AcDbLine
 10
44.99999999995498
 20
7.592623215805709
 30
0.0
 11
43.82952321576943
 21
8.763099999991255
 31
0.0
  0
LINE
  5
B2AD
330
B26E
100
AcDbEntity
  8
0
  6
CONTINUOUS
100
AcDbLine
 10
44.99999999995498
 20
8.266142424885896
 30
0.0
 11
44.50304242484962
 21
8.763099999991255
 31
0.0
  0
ENDBLK
  5
B2D7
330
B26E
100
AcDbEntity
  8
0
100
AcDbBlockEnd
  0
BLOCK
  5
B2D8
330
B2AE
100
AcDbEntity
  8
0
100
AcDbBlockBegin
  2
*X25
 70
     1
 10
0.0
 20
0.0
 30
0.0
  3
*X25
  1

  0
LINE
  5
B2AF
330
B2AE
100
AcDbEntity
  8
0
  6
CONTINUOUS
100
AcDbLine
 10
0.0
 20
8.548461116714023
 30
0.0
 11
0.2146388832772324
 21
8.763099999991255
 31
0.0
  0
LINE
  5
B2B0
330
B2AE
100
AcDbEntity
  8
0
  6
CONTINUOUS
100
AcDbLine
 10
-0.0000000000000002
 20
7.874941907633837
 30
0.0
 11
0.8881580923574184
 21
8.763099999991255
 31
0.0
  0
LINE
  5
B2B1
330
B2AE
100
AcDbEntity
  8
0
  6
CONTINUOUS
100
AcDbLine
 10
0.0
 20
7.20142269855365
 30
0.0
 11
1.420999999998572
 21
8.622422698552223
 31
0.0
  0
LINE
  5
B2B2
330
B2AE
100
AcDbEntity
  8
0
  6
CONTINUOUS
100
AcDbLine
 10
-0.0000000000000001
 20
6.527903489473465
 30
0.0
 11
1.420999999998571
 21
7.948903489472036
 31
0.0
  0
LINE
  5
B2B3
330
B2AE
100
AcDbEntity
  8
0
  6
CONTINUOUS
100
AcDbLine
 10
-0.0000000000000002
 20
5.854384280393278
 30
0.0
 11
1.420999999998571
 21
7.275384280391849
 31
0.0
  0
LINE
  5
B2B4
330
B2AE
100
AcDbEntity
  8
0
  6
CONTINUOUS
100
AcDbLine
 10
-0.0000000000000002
 20
5.180865071313091
 30
0.0
 11
1.420999999998571
 21
6.601865071311663
 31
0.0
  0
LINE
  5
B2B5
330
B2AE
100
AcDbEntity
  8
0
  6
CONTINUOUS
100
AcDbLine
 10
0.0
 20
4.507345862232905
 30
0.0
 11
1.420999999998571
 21
5.928345862231477
 31
0.0
  0
LINE
  5
B2B6
330
B2AE
100
AcDbEntity
  8
0
  6
CONTINUOUS
100
AcDbLine
 10
-0.0000000000000003
 20
3.833826653152718
 30
0.0
 11
1.420999999998571
 21
5.25482665315129
 31
0.0
  0
LINE
  5
B2B7
330
B2AE
100
AcDbEntity
  8
0
  6
CONTINUOUS
100
AcDbLine
 10
-0.0000000000000002
 20
3.160307444072532
 30
0.0
 11
1.420999999998571
 21
4.581307444071103
 31
0.0
  0
LINE
  5
B2B8
330
B2AE
100
AcDbEntity
  8
0
  6
CONTINUOUS
100
AcDbLine
 10
-0.0000000000000001
 20
2.486788234992345
 30
0.0
 11
1.420999999998571
 21
3.907788234990917
 31
0.0
  0
LINE
  5
B2B9
330
B2AE
100
AcDbEntity
  8
0
  6
CONTINUOUS
100
AcDbLine
 10
-0.0000000000000006
 20
1.813269025912159
 30
0.0
 11
1.420999999998571
 21
3.234269025910731
 31
0.0
  0
LINE
  5
B2BA
330
B2AE
100
AcDbEntity
  8
0
  6
CONTINUOUS
100
AcDbLine
 10
0.0
 20
1.139749816831973
 30
0.0
 11
1.420999999998571
 21
2.560749816830544
 31
0.0
  0
LINE
  5
B2BB
330
B2AE
100
AcDbEntity
  8
0
  6
CONTINUOUS
100
AcDbLine
 10
0.0000000000000002
 20
0.466230607751787
 30
0.0
 11
1.420999999998571
 21
1.887230607750358
 31
0.0
  0
LINE
  5
B2BC
330
B2AE
100
AcDbEntity
  8
0
  6
CONTINUOUS
100
AcDbLine
 10
0.2072886013284003
 20
-0.0000000000000009
 30
0.0
 11
1.420999999998571
 21
1.213711398670171
 31
0.0
  0
LINE
  5
B2BD
330
B2AE
100
AcDbEntity
  8
0
  6
CONTINUOUS
100
AcDbLine
 10
0.8808078104085864
 20
-0.0000000000000009
 30
0.0
 11
1.420999999998571
 21
0.5401921895899839
 31
0.0
  0
LINE
  5
B2BE
330
B2AE
100
AcDbEntity
  8
0
  6
CONTINUOUS
100
AcDbLine
 10
0.0581249075061505
 20
-0.0000000000000009
 30
0.0
 11
-0.0000000000000002
 21
0.0581249075061496
 31
0.0
  0
LINE
  5
B2BF
330
B2AE
100
AcDbEntity
  8
0
  6
CONTINUOUS
100
AcDbLine
 10
0.7316441165863372
 20
-0.0000000000000009
 30
0.0
 11
-0.0000000000000002
 21
0.7316441165863363
 31
0.0
  0
LINE
  5
B2C0
330
B2AE
100
AcDbEntity
  8
0
  6
CONTINUOUS
100
AcDbLine
 10
1.405163325666523
 20
-0.0000000000000009
 30
0.0
 11
-0.0000000000000002
 21
1.405163325666523
 31
0.0
  0
LINE
  5
B2C1
330
B2AE
100
AcDbEntity
  8
0
  6
CONTINUOUS
100
AcDbLine
 10
1.420999999998572
 20
0.6576825347481381
 30
0.0
 11
-0.0000000000000001
 21
2.07868253474671
 31
0.0
  0
LINE
  5
B2C2
330
B2AE
100
AcDbEntity
  8
0
  6
CONTINUOUS
100
AcDbLine
 10
1.420999999998571
 20
1.331201743828324
 30
0.0
 11
-0.0000000000000001
 21
2.752201743826896
 31
0.0
  0
LINE
  5
B2C3
330
B2AE
100
AcDbEntity
  8
0
  6
CONTINUOUS
100
AcDbLine
 10
1.420999999998571
 20
2.004720952908511
 30
0.0
 11
-0.0000000000000002
 21
3.425720952907082
 31
0.0
  0
LINE
  5
B2C4
330
B2AE
100
AcDbEntity
  8
0
  6
CONTINUOUS
100
AcDbLine
 10
1.420999999998571
 20
2.678240161988697
 30
0.0
 11
-0.0000000000000001
 21
4.099240161987269
 31
0.0
  0
LINE
  5
B2C5
330
B2AE
100
AcDbEntity
  8
0
  6
CONTINUOUS
100
AcDbLine
 10
1.420999999998572
 20
3.351759371068884
 30
0.0
 11
0.0
 21
4.772759371067455
 31
0.0
  0
LINE
  5
B2C6
330
B2AE
100
AcDbEntity
  8
0
  6
CONTINUOUS
100
AcDbLine
 10
1.420999999998571
 20
4.02527858014907
 30
0.0
 11
-0.0000000000000003
 21
5.446278580147642
 31
0.0
  0
LINE
  5
B2C7
330
B2AE
100
AcDbEntity
  8
0
  6
CONTINUOUS
100
AcDbLine
 10
1.420999999998571
 20
4.698797789229257
 30
0.0
 11
0.0
 21
6.119797789227828
 31
0.0
  0
LINE
  5
B2C8
330
B2AE
100
AcDbEntity
  8
0
  6
CONTINUOUS
100
AcDbLine
 10
1.420999999998571
 20
5.372316998309444
 30
0.0
 11
-0.0000000000000001
 21
6.793316998308015
 31
0.0
  0
LINE
  5
B2C9
330
B2AE
100
AcDbEntity
  8
0
  6
CONTINUOUS
100
AcDbLine
 10
1.420999999998572
 20
6.045836207389629
 30
0.0
 11
-0.0000000000000004
 21
7.466836207388202
 31
0.0
  0
LINE
  5
B2CA
330
B2AE
100
AcDbEntity
  8
0
  6
CONTINUOUS
100
AcDbLine
 10
1.420999999998571
 20
6.719355416469816
 30
0.0
 11
0.0
 21
8.140355416468388
 31
0.0
  0
LINE
  5
B2CB
330
B2AE
100
AcDbEntity
  8
0
  6
CONTINUOUS
100
AcDbLine
 10
1.420999999998571
 20
7.392874625550003
 30
0.0
 11
0.0507746255573185
 21
8.763099999991255
 31
0.0
  0
LINE
  5
B2CC
330
B2AE
100
AcDbEntity
  8
0
  6
CONTINUOUS
100
AcDbLine
 10
1.420999999998571
 20
8.06639383463019
 30
0.0
 11
0.7242938346375052
 21
8.763099999991255
 31
0.0
  0
LINE
  5
B2CD
330
B2AE
100
AcDbEntity
  8
0
  6
CONTINUOUS
100
AcDbLine
 10
1.420999999998571
 20
8.739913043710375
 30
0.0
 11
1.397813043717691
 21
8.763099999991255
 31
0.0
  0
ENDBLK
  5
B2D9
330
B2AE
100
AcDbEntity
  8
0
100
AcDbBlockEnd
  0
ENDSEC
  0
SECTION
  2
ENTITIES
  0
LINE
  5
AF29
330
18
100
AcDbEntity
  8
01
100
AcDbLine
 10
5127.821309671756
 20
-99.34569850071796
 30
0.0
 11
5175.821309671756
 21
-99.34569850071796
 31
0.0
  0
LINE
  5
AF2A
330
18
100
AcDbEntity
  8
01
100
AcDbLine
 10
5126.821309671756
 20
-90.84569850071796
 30
0.0
 11
5126.821309671756
 21
-98.34569850071796
 31
0.0
  0
ARC
  5
AF2B
330
18
100
AcDbEntity
  8
01
100
AcDbCircle
 10
5127.821309671756
 20
-98.34569850071796
 30
0.0
 40
1.0
100
AcDbArc
 50
180.0
 51
270.0
  0
LINE
  5
AF2C
330
18
100
AcDbEntity
  8
01
100
AcDbLine
 10
5176.821309671756
 20
-90.84569850071796
 30
0.0
 11
5176.821309671756
 21
-98.34569850071796
 31
0.0
  0
ARC
  5
AF2D
330
18
100
AcDbEntity
  8
01
100
AcDbCircle
 10
5175.821309671756
 20
-98.34569850071796
 30
0.0
 40
1.0
100
AcDbArc
 50
270.0
 51
0.0
  0
ARC
  5
AF2E
330
18
100
AcDbEntity
  8
01
100
AcDbCircle
 10
5151.821309671756
 20
-280.845698500718
 30
0.0
 40
25.0
100
AcDbArc
 50
16.71142860579984
 51
343.2883100885542
  0
LINE
  5
AF30
330
18
100
AcDbEntity
  8
01
100
AcDbLine
 10
5001.821309671756
 20
-255.845698500718
 30
0.0
 11
5001.821309671756
 21
-305.845698500718
 31
0.0
  0
LINE
  5
AF31
330
18
100
AcDbEntity
  8
01
100
AcDbLine
 10
5010.321309671756
 20
-304.845698500718
 30
0.0
 11
5010.321309671756
 21
-256.845698500718
 31
0.0
  0
LINE
  5
AF32
330
18
100
AcDbEntity
  8
01
100
AcDbLine
 10
5001.821309671756
 20
-305.845698500718
 30
0.0
 11
5009.321309671756
 21
-305.845698500718
 31
0.0
  0
ARC
  5
AF33
330
18
100
AcDbEntity
  8
01
100
AcDbCircle
 10
5009.321309671756
 20
-304.845698500718
 30
0.0
 40
1.0
100
AcDbArc
 50
270.0
 51
0.0
  0
LINE
  5
AF34
330
18
100
AcDbEntity
  8
01
100
AcDbLine
 10
5001.821309671756
 20
-255.845698500718
 30
0.0
 11
5009.321309671756
 21
-255.845698500718
 31
0.0
  0
ARC
  5
AF35
330
18
100
AcDbEntity
  8
01
100
AcDbCircle
 10
5009.321309671756
 20
-256.845698500718
 30
0.0
 40
1.0
100
AcDbArc
 50
0.0
 51
90.0
  0
POINT
  5
AF36
330
18
100
AcDbEntity
  8
01
100
AcDbPoint
 10
5016.321309671756
 20
-280.845698500718
 30
0.0
  0
LINE
  5
AF37
330
18
100
AcDbEntity
  8
01
100
AcDbLine
 10
5015.921309661758
 20
-282.595698500718
 30
0.0
 11
5015.921309661758
 21
-281.7456984807178
 31
0.0
  0
LINE
  5
AF38
330
18
100
AcDbEntity
  8
01
100
AcDbLine
 10
5016.721309681759
 20
-282.595698500718
 30
0.0
 11
5016.721309681759
 21
-281.7456984807178
 31
0.0
  0
LINE
  5
AF39
330
18
100
AcDbEntity
  8
01
100
AcDbLine
 10
5015.421309691757
 20
-281.2456985107184
 30
0.0
 11
5014.571309671756
 21
-281.2456985107184
 31
0.0
  0
LINE
  5
AF3A
330
18
100
AcDbEntity
  8
01
100
AcDbLine
 10
5015.421309691757
 20
-280.4456984907184
 30
0.0
 11
5014.571309671756
 21
-280.4456984907184
 31
0.0
  0
LINE
  5
AF3B
330
18
100
AcDbEntity
  8
01
100
AcDbLine
 10
5014.571309671756
 20
-281.2456985107184
 30
0.0
 11
5014.571309671756
 21
-280.4456984907184
 31
0.0
  0
LINE
  5
AF3C
330
18
100
AcDbEntity
  8
01
100
AcDbLine
 10
5016.721309681759
 20
-282.595698500718
 30
0.0
 11
5015.921309661758
 21
-282.595698500718
 31
0.0
  0
LINE
  5
AF3D
330
18
100
AcDbEntity
  8
01
100
AcDbLine
 10
5016.721309681759
 20
-279.095698500718
 30
0.0
 11
5016.721309681759
 21
-279.9456985207181
 31
0.0
  0
LINE
  5
AF3E
330
18
100
AcDbEntity
  8
01
100
AcDbLine
 10
5015.921309661758
 20
-279.095698500718
 30
0.0
 11
5015.921309661758
 21
-279.9456985207181
 31
0.0
  0
LINE
  5
AF3F
330
18
100
AcDbEntity
  8
01
100
AcDbLine
 10
5017.221309651756
 20
-280.4456984907184
 30
0.0
 11
5018.071309671756
 21
-280.4456984907184
 31
0.0
  0
LINE
  5
AF40
330
18
100
AcDbEntity
  8
01
100
AcDbLine
 10
5017.221309651756
 20
-281.2456985107184
 30
0.0
 11
5018.071309671756
 21
-281.2456985107184
 31
0.0
  0
LINE
  5
AF41
330
18
100
AcDbEntity
  8
01
100
AcDbLine
 10
5018.071309671756
 20
-280.4456984907184
 30
0.0
 11
5018.071309671756
 21
-281.2456985107184
 31
0.0
  0
LINE
  5
AF42
330
18
100
AcDbEntity
  8
01
100
AcDbLine
 10
5015.921309661758
 20
-279.095698500718
 30
0.0
 11
5016.721309681759
 21
-279.095698500718
 31
0.0
  0
CIRCLE
  5
AF43
330
18
100
AcDbEntity
  8
01
100
AcDbCircle
 10
5016.321309671756
 20
-280.845698500718
 30
0.0
 40
2.5
  0
ARC
  5
AF44
330
18
100
AcDbEntity
  8
01
100
AcDbCircle
 10
5017.221309651756
 20
-279.9456985207181
 30
0.0
 40
0.5
100
AcDbArc
 50
179.999989999999
 51
270.0
  0
ARC
  5
AF45
330
18
100
AcDbEntity
  8
01
100
AcDbCircle
 10
5017.221309651756
 20
-281.7456984807178
 30
0.0
 40
0.5
100
AcDbArc
 50
90.00000299998466
 51
180.000010000001
  0
ARC
  5
AF46
330
18
100
AcDbEntity
  8
01
100
AcDbCircle
 10
5015.421309691757
 20
-281.7456984807178
 30
0.0
 40
0.5
100
AcDbArc
 50
0.0
 51
90.00000299998466
  0
ARC
  5
AF47
330
18
100
AcDbEntity
  8
01
100
AcDbCircle
 10
5015.421309691757
 20
-279.9456985207181
 30
0.0
 40
0.5
100
AcDbArc
 50
270.0
 51
0.0
  0
LINE
  5
AF49
330
18
100
AcDbEntity
  8
1CENTER
100
AcDbLine
 10
5016.321309671756
 20
-286.845698500718
 30
0.0
 11
5016.321309671756
 21
-274.845698500718
 31
0.0
  0
LINE
  5
AF4A
330
18
100
AcDbEntity
  8
01
100
AcDbLine
 10
4999.693024289326
 20
-280.845698500718
 30
0.0
 11
5022.321309671756
 21
-280.845698500718
 31
0.0
  0
LINE
  5
AF4C
330
18
100
AcDbEntity
  8
01
100
AcDbLine
 10
5126.821309671756
 20
-90.84569850071796
 30
0.0
 11
5176.821309671756
 21
-90.84569850071796
 31
0.0
  0
LINE
  5
AF4D
330
18
100
AcDbEntity
  8
01
  6
BYBLOCK
100
AcDbLine
 10
5100.822077514073
 20
-90.84569850071796
 30
0.0
 11
5254.576457669104
 21
-90.84569850071796
 31
0.0
  0
LINE
  5
AF4E
330
18
100
AcDbEntity
  8
1CENTER
100
AcDbLine
 10
5135.737634907816
 20
-105.345690467465
 30
0.0
 11
5143.871307269664
 21
-105.3456985007152
 31
0.0
  0
LINE
  5
AF4F
330
18
100
AcDbEntity
  8
01
100
AcDbLine
 10
5151.821309671756
 20
-85.84569850071796
 30
0.0
 11
5151.821309671756
 21
-112.345698500718
 31
0.0
  0
LINE
  5
AF55
330
18
100
AcDbEntity
  8
01
100
AcDbLine
 10
5001.821309671756
 20
-160.845698500718
 30
0.0
 11
5001.821309671756
 21
-330.845698500718
 31
0.0
  0
LINE
  5
AF56
330
18
100
AcDbEntity
  8
01
100
AcDbLine
 10
5121.821309671756
 20
-280.845698500718
 30
0.0
 11
5181.821309671756
 21
-280.845698500718
 31
0.0
  0
LINE
  5
AF57
330
18
100
AcDbEntity
  8
01
100
AcDbLine
 10
5151.821309671756
 20
-250.845698500718
 30
0.0
 11
5151.821309671756
 21
-310.845698500718
 31
0.0
  0
ARC
  5
AF58
330
18
100
AcDbEntity
  8
01
100
AcDbCircle
 10
5257.039702366367
 20
-154.3995661602695
 30
0.0
 40
29.99999367224552
100
AcDbArc
 50
38.03966914003855
 51
98.10980132618621
  0
LINE
  5
AF59
330
18
100
AcDbEntity
  8
01
100
AcDbLine
 10
5141.821322237268
 20
-99.64686639873582
 30
0.0
 11
5141.821322237268
 21
-99.84569850071068
 31
0.0
  0
LINE
  5
AF5A
330
18
100
AcDbEntity
  8
01
100
AcDbLine
 10
5161.821322237268
 20
-99.84569850071068
 30
0.0
 11
5161.821322237268
 21
-99.64686639873582
 31
0.0
  0
LINE
  5
AF5B
330
18
100
AcDbEntity
  8
01
100
AcDbLine
 10
5143.871356814372
 20
-99.34569850071796
 30
0.0
 11
5143.871356814373
 21
-99.64686639873582
 31
0.0
  0
LINE
  5
AF5C
330
18
100
AcDbEntity
  8
01
100
AcDbLine
 10
5159.771356814374
 20
-99.64686639873582
 30
0.0
 11
5159.771356814374
 21
-99.34569850071796
 31
0.0
  0
ARC
  5
AF5D
330
18
100
AcDbEntity
  8
01
100
AcDbCircle
 10
5278.308445669306
 20
-137.7670535700164
 30
0.0
 40
3.000002664820467
100
AcDbArc
 50
299.5960469086727
 51
38.162679109107
  0
SPLINE
  5
AF5E
330
18
100
AcDbEntity
  8
01
100
AcDbSpline
210
0.0
220
0.0
230
1.0
 70
     8
 71
     3
 72
    49
 73
    45
 74
     0
 42
0.0000000001
 43
0.0000000001
 40
0.0
 40
0.0
 40
0.0
 40
0.0
 40
0.0084411984591397
 40
0.0167826141762048
 40
0.0250249274298809
 40
0.0331685067236861
 40
0.0412132569345754
 40
0.0491575542076755
 40
0.0569992653069616
 40
0.0647390243308344
 40
0.0802775239148521
 40
0.0972409168572439
 40
0.1057499032732287
 40
0.1135586817314847
 40
0.1298821089565363
 40
0.1487244992275149
 40
0.167118968990518
 40
0.1854212963939551
 40
0.2039841961713436
 40
0.2224752081724015
 40
0.2408305665331412
 40
0.259060282523909
 40
0.2905403185949261
 40
0.3219599725862403
 40
0.353525792551172
 40
0.3854438529933294
 40
0.4160903379057522
 40
0.4474820583290461
 40
0.5087360047018943
 40
0.5698073123706823
 40
0.5991119794601586
 40
0.6305886145239503
 40
0.6609902899454153
 40
0.6914117809329596
 40
0.7523320347278784
 40
0.8134853658190982
 40
0.8443613917114342
 40
0.874997410013602
 40
0.9064131349601243
 40
0.9370372566339706
 40
0.9528556754039905
 40
0.9686151898477079
 40
0.9843278775659228
 40
1.0
 40
1.0
 40
1.0
 40
1.0
 10
5201.176945407902
 20
-156.2068750440495
 30
0.0
 10
5200.949649629545
 20
-156.2114023788591
 30
0.0
 10
5200.497744918323
 20
-156.2204035312103
 30
0.0
 10
5199.824024482316
 20
-156.2233054080544
 30
0.0
 10
5199.158560669526
 20
-156.2182305702273
 30
0.0
 10
5198.501445639364
 20
-156.2043704634726
 30
0.0
 10
5197.85283353373
 20
-156.1818353676559
 30
0.0
 10
5197.212927007902
 20
-156.1503425422685
 30
0.0
 10
5196.581884514442
 20
-156.1096935510897
 30
0.0
 10
5195.748298460287
 20
-156.0424164453567
 30
0.0
 10
5194.672794112605
 20
-155.9317112771879
 30
0.0
 10
5193.580974234952
 20
-155.802870539853
 30
0.0
 10
5192.697291919358
 20
-155.6865907634439
 30
0.0
 10
5191.833014358871
 20
-155.5590643053648
 30
0.0
 10
5190.700803647792
 20
-155.3633592250718
 30
0.0
 10
5189.300911698757
 20
-155.0697120097794
 30
0.0
 10
5187.865039006065
 20
-154.7033801956364
 30
0.0
 10
5186.455970602799
 20
-154.272437877281
 30
0.0
 10
5185.067132916592
 20
-153.7747889076801
 30
0.0
 10
5183.700700870932
 20
-153.2212205060551
 30
0.0
 10
5182.368113305858
 20
-152.6228281625664
 30
0.0
 10
5180.756037245566
 20
-151.8200030955933
 30
0.0
 10
5178.89904349783
 20
-150.7490910122661
 30
0.0
 10
5176.851571924627
 20
-149.3283820069884
 30
0.0
 10
5174.922256182514
 20
-147.7390668982781
 30
0.0
 10
5173.144994063778
 20
-146.0159357338654
 30
0.0
 10
5171.512169867429
 20
-144.1631244837259
 30
0.0
 10
5169.55587899411
 20
-141.5774951591603
 30
0.0
 10
5167.455186373071
 20
-138.105976926343
 30
0.0
 10
5165.768958038763
 20
-134.4625848170564
 30
0.0
 10
5164.59089643686
 20
-131.450997955266
 30
0.0
 10
5163.783013576579
 20
-129.163553882887
 30
0.0
 10
5163.034826057526
 20
-126.8192063651996
 30
0.0
 10
5162.129911564785
 20
-123.6957338771246
 30
0.0
 10
5161.171212335115
 20
-119.7247030190794
 30
0.0
 10
5160.46327451167
 20
-115.6794772848235
 30
0.0
 10
5160.040652644527
 20
-112.4098924863202
 30
0.0
 10
5159.795567296042
 20
-109.9217942904653
 30
0.0
 10
5159.630325985576
 20
-107.4316212248842
 30
0.0
 10
5159.564546506543
 20
-105.33426782857
 30
0.0
 10
5159.559618787157
 20
-103.6574490900686
 30
0.0
 10
5159.582222491621
 20
-102.3825294775307
 30
0.0
 10
5159.629202555453
 20
-101.1120122152043
 30
0.0
 10
5159.682473100597
 20
-100.2674279818103
 30
0.0
 10
5159.709073946726
 20
-99.84568168328599
 30
0.0
  0
SPLINE
  5
AF5F
330
18
100
AcDbEntity
  8
01
100
AcDbSpline
210
0.0
220
0.0
230
1.0
 70
     8
 71
     3
 72
   173
 73
   169
 74
     0
 42
0.0000000001
 43
0.0000000001
 40
25.38683082289074
 40
25.38683082289074
 40
25.38683082289074
 40
25.38683082289074
 40
25.4925351367922
 40
26.1815225729217
 40
26.8705100090512
 40
27.5594974451807
 40
28.2484848813102
 40
28.9374723174398
 40
29.6264597535693
 40
30.3154471896988
 40
31.0044346258283
 40
31.6934220619578
 40
32.3824094980873
 40
33.0713969342169
 40
33.7603843703464
 40
34.4493718064759
 40
35.1383592426054
 40
35.8273466787349
 40
36.5163341148645
 40
37.205321550994
 40
37.8943089871235
 40
38.583296423253
 40
39.2722838593825
 40
39.961271295512
 40
40.6502587316416
 40
41.3392461677711
 40
42.0282336039006
 40
42.7172210400301
 40
43.4062084761596
 40
44.0951959122892
 40
44.7841833484187
 40
45.4731707845482
 40
46.1621582206777
 40
46.8511456568072
 40
47.5401330929367
 40
48.2291205290663
 40
48.9181079651958
 40
49.6070954013253
 40
50.2960828374548
 40
50.9850702735843
 40
51.6740577097139
 40
52.3630451458434
 40
53.0520325819729
 40
53.7410200181024
 40
54.4300074542319
 40
55.1189948903614
 40
55.807982326491
 40
56.4969697626205
 40
57.18595719875
 40
57.8749446348795
 40
58.563932071009
 40
59.2529195071386
 40
59.9419069432681
 40
60.6308943793976
 40
61.3198818155271
 40
62.0088692516566
 40
62.6978566877862
 40
63.3868441239157
 40
64.0758315600452
 40
64.7648189961747
 40
65.4538064323042
 40
66.1427938684337
 40
66.8317813045633
 40
67.5207687406928
 40
68.2097561768223
 40
68.8987436129518
 40
69.5877310490813
 40
70.2767184852109
 40
70.9657059213404
 40
71.6546933574699
 40
72.3436807935994
 40
73.0326682297289
 40
73.7216556658584
 40
74.410643101988
 40
75.0996305381175
 40
75.788617974247
 40
76.4776054103765
 40
77.166592846506
 40
77.8555802826355
 40
78.5445677187651
 40
79.2335551548946
 40
79.9225425910241
 40
80.6115300271536
 40
81.3005174632831
 40
81.9895048994127
 40
82.6784923355422
 40
83.3674797716717
 40
84.0564672078012
 40
84.7454546439307
 40
85.4344420800603
 40
86.1234295161898
 40
86.8124169523193
 40
87.5014043884488
 40
88.1903918245783
 40
88.8793792607078
 40
89.5683666968374
 40
90.2573541329669
 40
90.9463415690964
 40
91.6353290052259
 40
92.3243164413554
 40
93.0133038774849
 40
93.7022913136145
 40
94.391278749744
 40
95.0802661858735
 40
95.769253622003
 40
96.4582410581325
 40
97.1472284942621
 40
97.8362159303916
 40
98.5252033665211
 40
99.2141908026506
 40
99.9031782387801
 40
100.59216567491
 40
101.281153111039
 40
101.970140547169
 40
102.659127983298
 40
103.348115419428
 40
104.037102855557
 40
104.726090291687
 40
105.415077727816
 40
106.104065163946
 40
106.793052600075
 40
107.482040036205
 40
108.171027472334
 40
108.860014908464
 40
109.549002344593
 40
110.237989780723
 40
110.926977216852
 40
111.615964652982
 40
112.304952089111
 40
112.993939525241
 40
113.68292696137
 40
114.3719143975
 40
115.06090183363
 40
115.749889269759
 40
116.438876705889
 40
117.127864142018
 40
117.816851578148
 40
118.505839014277
 40
119.194826450407
 40
119.883813886536
 40
120.572801322666
 40
121.261788758795
 40
121.950776194925
 40
122.639763631054
 40
123.328751067184
 40
124.017738503313
 40
124.706725939443
 40
125.395713375572
 40
126.084700811702
 40
126.773688247831
 40
127.462675683961
 40
128.15166312009
 40
128.84065055622
 40
129.529637992349
 40
130.218625428479
 40
130.907612864608
 40
131.596600300738
 40
132.285587736867
 40
132.974575172997
 40
133.663562609127
 40
134.352550045256
 40
135.041537481386
 40
135.730524917515
 40
136.419512353645
 40
137.108499789774
 40
137.797487225904
 40
138.486474662033
 40
139.175462098163
 40
139.175462098163
 40
139.175462098163
 40
139.175462098163
 10
5251.815305874582
 20
-124.8925954739371
 30
0.0
 10
5251.781445531872
 20
-124.9009778173159
 30
0.0
 10
5251.526901998988
 20
-124.9639763265878
 30
0.0
 10
5251.051263609239
 20
-125.0814805168953
 30
0.0
 10
5250.378928625571
 20
-125.2470208974929
 30
0.0
 10
5249.734418090678
 20
-125.4051766976537
 30
0.0
 10
5249.078032059815
 20
-125.5657219271085
 30
0.0
 10
5248.38794802174
 20
-125.7338766488102
 30
0.0
 10
5247.760467166176
 20
-125.8862441199195
 30
0.0
 10
5247.051889449236
 20
-126.0576513671145
 30
0.0
 10
5246.420295566566
 20
-126.2098421332531
 30
0.0
 10
5245.73146091016
 20
-126.3751883001538
 30
0.0
 10
5245.10247249403
 20
-126.5255553727067
 30
0.0
 10
5244.43536813973
 20
-126.6844185368324
 30
0.0
 10
5243.760813998871
 20
-126.8443505505317
 30
0.0
 10
5243.101418779423
 20
-127.0000095911092
 30
0.0
 10
5242.436302821765
 20
-127.1563316156058
 30
0.0
 10
5241.762951037588
 20
-127.3138450292291
 30
0.0
 10
5241.123519741323
 20
-127.462738313781
 30
0.0
 10
5240.444034170691
 20
-127.6202157431218
 30
0.0
 10
5239.7670504486
 20
-127.7762877744309
 30
0.0
 10
5239.127000402188
 20
-127.9231260912539
 30
0.0
 10
5238.434875104668
 20
-128.0810685101338
 30
0.0
 10
5237.79614131142
 20
-128.2260303663317
 30
0.0
 10
5237.12632711213
 20
-128.3772484405164
 30
0.0
 10
5236.44739422148
 20
-128.5296097813281
 30
0.0
 10
5235.801047482179
 20
-128.6738210810382
 30
0.0
 10
5235.122783784227
 20
-128.8242652250557
 30
0.0
 10
5234.445199966537
 20
-128.9735595085696
 30
0.0
 10
5233.819203085719
 20
-129.1106786467082
 30
0.0
 10
5233.09349255882
 20
-129.2685338635812
 30
0.0
 10
5232.478865833824
 20
-129.4013117995775
 30
0.0
 10
5231.775767645742
 20
-129.5521689007966
 30
0.0
 10
5231.145882674744
 20
-129.6863211376136
 30
0.0
 10
5230.455031599172
 20
-129.8323987920231
 30
0.0
 10
5229.803003094207
 20
-129.9691664851831
 30
0.0
 10
5229.13780015389
 20
-130.1076378935487
 30
0.0
 10
5228.458709592397
 20
-130.2478151430361
 30
0.0
 10
5227.792152984048
 20
-130.3842171220118
 30
0.0
 10
5227.133369053194
 20
-130.5178801080266
 30
0.0
 10
5226.439220798877
 20
-130.65742261568
 30
0.0
 10
5225.763163230911
 20
-130.7919804061436
 30
0.0
 10
5225.12671801018
 20
-130.9174588866819
 30
0.0
 10
5224.461216251268
 20
-131.0474428129083
 30
0.0
 10
5223.745934579548
 20
-131.1855546113476
 30
0.0
 10
5223.130182320173
 20
-131.3031844852413
 30
0.0
 10
5222.44306527717
 20
-131.4330575330079
 30
0.0
 10
5221.780697290676
 20
-131.5567420091671
 30
0.0
 10
5221.097550381004
 20
-131.6827750956483
 30
0.0
 10
5220.433235539724
 20
-131.8037547238583
 30
0.0
 10
5219.767597368629
 20
-131.9234443252818
 30
0.0
 10
5219.073465114245
 20
-132.0464928306625
 30
0.0
 10
5218.422213879717
 20
-132.1602875166747
 30
0.0
 10
5217.748670778825
 20
-132.276298218234
 30
0.0
 10
5217.068397167875
 20
-132.3916004790432
 30
0.0
 10
5216.400465112989
 20
-132.5029997561961
 30
0.0
 10
5215.710966005405
 20
-132.6160086904121
 30
0.0
 10
5215.055632000034
 20
-132.7215149203986
 30
0.0
 10
5214.380156426369
 20
-132.8282865256261
 30
0.0
 10
5213.709918035353
 20
-132.9321772609716
 30
0.0
 10
5213.014357854662
 20
-133.0377270035116
 30
0.0
 10
5212.36253542186
 20
-133.1344951451807
 30
0.0
 10
5211.690579031078
 20
-133.2321054658224
 30
0.0
 10
5210.994348833447
 20
-133.3307436591232
 30
0.0
 10
5210.318797581164
 20
-133.4239690234209
 30
0.0
 10
5209.65193723247
 20
-133.513574501983
 30
0.0
 10
5208.97933081468
 20
-133.6014180118137
 30
0.0
 10
5208.309705462743
 20
-133.6862205591516
 30
0.0
 10
5207.644451338461
 20
-133.7679021223227
 30
0.0
 10
5206.922437948013
 20
-133.8533363390462
 30
0.0
 10
5206.286849853205
 20
-133.9257388482903
 30
0.0
 10
5205.609306145418
 20
-134.0001632354425
 30
0.0
 10
5204.898695991805
 20
-134.0746766777594
 30
0.0
 10
5204.245611133556
 20
-134.1400080968621
 30
0.0
 10
5203.563695330166
 20
-134.2050016324216
 30
0.0
 10
5202.866648994161
 20
-134.2676960313744
 30
0.0
 10
5202.195983615792
 20
-134.3243966452511
 30
0.0
 10
5201.526020454267
 20
-134.3774498939689
 30
0.0
 10
5200.835414921371
 20
-134.4281685740026
 30
0.0
 10
5200.150146314183
 20
-134.4742832026819
 30
0.0
 10
5199.493697168306
 20
-134.5144916602377
 30
0.0
 10
5198.814166902455
 20
-134.551932875641
 30
0.0
 10
5198.110198468809
 20
-134.5858471671282
 30
0.0
 10
5197.433889993614
 20
-134.6136187017574
 30
0.0
 10
5196.763000314143
 20
-134.6364553812829
 30
0.0
 10
5196.085765135492
 20
-134.654418701739
 30
0.0
 10
5195.407445883712
 20
-134.6672786272817
 30
0.0
 10
5194.682561762196
 20
-134.674682329162
 30
0.0
 10
5194.044665255153
 20
-134.675752767084
 30
0.0
 10
5193.354970893344
 20
-134.671160066042
 30
0.0
 10
5192.670719306338
 20
-134.6599634429846
 30
0.0
 10
5191.998393394827
 20
-134.642541415497
 30
0.0
 10
5191.310575710667
 20
-134.6177717609982
 30
0.0
 10
5190.623764638488
 20
-134.5854675730094
 30
0.0
 10
5189.95895850444
 20
-134.5470570166727
 30
0.0
 10
5189.247512946176
 20
-134.4972428426264
 30
0.0
 10
5188.602821154987
 20
-134.4443589202266
 30
0.0
 10
5187.878227410384
 20
-134.3753732904671
 30
0.0
 10
5187.236288744662
 20
-134.3052258145573
 30
0.0
 10
5186.553857655048
 20
-134.2214849881681
 30
0.0
 10
5185.881991725438
 20
-134.1284473100642
 30
0.0
 10
5185.219711447284
 20
-134.0268152582813
 30
0.0
 10
5184.499889084223
 20
-133.9033005614602
 30
0.0
 10
5183.879771349997
 20
-133.7859231439485
 30
0.0
 10
5183.183997550565
 20
-133.6418171854413
 30
0.0
 10
5182.511694446312
 20
-133.4880514921316
 30
0.0
 10
5181.867981402732
 20
-133.3276436655343
 30
0.0
 10
5181.212567589626
 20
-133.1496799530361
 30
0.0
 10
5180.570525850287
 20
-132.9605325400709
 30
0.0
 10
5179.888372825227
 20
-132.7413670252892
 30
0.0
 10
5179.282236054222
 20
-132.5304035448163
 30
0.0
 10
5178.614839665132
 20
-132.2795486189872
 30
0.0
 10
5177.980149943696
 20
-132.0197055375621
 30
0.0
 10
5177.386256329924
 20
-131.758716175622
 30
0.0
 10
5176.726580132571
 20
-131.4446013514954
 30
0.0
 10
5176.154194126115
 20
-131.1500608523066
 30
0.0
 10
5175.54730999743
 20
-130.8146406428087
 30
0.0
 10
5174.967580227866
 20
-130.4686750861966
 30
0.0
 10
5174.388282854155
 20
-130.096357451199
 30
0.0
 10
5173.833780619334
 20
-129.7129183840858
 30
0.0
 10
5173.268495011336
 20
-129.2912170010273
 30
0.0
 10
5172.760864108219
 20
-128.8839706633204
 30
0.0
 10
5172.233698346645
 20
-128.4302097753081
 30
0.0
 10
5171.733259582554
 20
-127.9653104115733
 30
0.0
 10
5171.261313044506
 20
-127.495588734687
 30
0.0
 10
5170.775039658291
 20
-126.9739508642211
 30
0.0
 10
5170.349423947036
 20
-126.4832132073744
 30
0.0
 10
5169.914192742529
 20
-125.9456865181102
 30
0.0
 10
5169.507484264197
 20
-125.4049023932231
 30
0.0
 10
5169.11878981233
 20
-124.8512234584097
 30
0.0
 10
5168.736353015556
 20
-124.2649670033881
 30
0.0
 10
5168.39346022905
 20
-123.7009337131495
 30
0.0
 10
5168.052446629973
 20
-123.0997342591251
 30
0.0
 10
5167.736004527445
 20
-122.5000313228057
 30
0.0
 10
5167.433906182301
 20
-121.8863054909367
 30
0.0
 10
5167.147374788236
 20
-121.2601363220784
 30
0.0
 10
5166.886491274819
 20
-120.650113601862
 30
0.0
 10
5166.617449701262
 20
-119.9719644779008
 30
0.0
 10
5166.398215494777
 20
-119.3786383057096
 30
0.0
 10
5166.165219222441
 20
-118.7036211831929
 30
0.0
 10
5165.957542686832
 20
-118.0534034734229
 30
0.0
 10
5165.767833582604
 20
-117.4164968622428
 30
0.0
 10
5165.585808315815
 20
-116.7605114038189
 30
0.0
 10
5165.409257449413
 20
-116.0721901998223
 30
0.0
 10
5165.26141402121
 20
-115.4521305113641
 30
0.0
 10
5165.109108858367
 20
-114.7646927225652
 30
0.0
 10
5164.973409845714
 20
-114.100562075637
 30
0.0
 10
5164.844319283279
 20
-113.4178332823022
 30
0.0
 10
5164.725733178505
 20
-112.7348170907632
 30
0.0
 10
5164.624229749394
 20
-112.1019089473749
 30
0.0
 10
5164.522756269932
 20
-111.4156792147907
 30
0.0
 10
5164.429848031257
 20
-110.7254530732436
 30
0.0
 10
5164.349406038513
 20
-110.073589902022
 30
0.0
 10
5164.269104450544
 20
-109.356313810381
 30
0.0
 10
5164.203638714691
 20
-108.7088905528473
 30
0.0
 10
5164.140862328351
 20
-108.0246509226009
 30
0.0
 10
5164.084322728287
 20
-107.3320981619169
 30
0.0
 10
5164.03633931376
 20
-106.6747738133173
 30
0.0
 10
5163.990192400698
 20
-105.954107393619
 30
0.0
 10
5163.954895055293
 20
-105.3222000517291
 30
0.0
 10
5163.921223875173
 20
-104.6277886755098
 30
0.0
 10
5163.893778340675
 20
-103.9564540299845
 30
0.0
 10
5163.869621495126
 20
-103.2404313076869
 30
0.0
 10
5163.851540788795
 20
-102.5576914506993
 30
0.0
 10
5163.838358144239
 20
-101.916108988302
 30
0.0
 10
5163.828190048549
 20
-101.2079996792237
 30
0.0
 10
5163.822661466831
 20
-100.5453602981362
 30
0.0
 10
5163.821322237268
 20
-100.0766762902232
 30
0.0
 10
5163.821322237268
 20
-99.84569850071068
 30
0.0
  0
LINE
  5
AF60
330
18
100
AcDbEntity
  8
01
100
AcDbLine
 10
5279.563214359032
 20
-140.4364346790504
 30
0.0
 11
5279.579636414825
 21
-140.3842320931645
 31
0.0
  0
SPLINE
  5
AF61
330
18
100
AcDbEntity
  8
01
100
AcDbSpline
210
0.0
220
0.0
230
1.0
 70
     8
 71
     3
 72
   139
 73
   135
 74
     0
 42
0.0000000001
 43
0.0000000001
 40
8.890171510502814
 40
8.890171510502814
 40
8.890171510502814
 40
8.890171510502814
 40
9.36972215429937
 40
10.7082538906278
 40
12.0467856269563
 40
13.3853173632848
 40
14.7238490996133
 40
16.0623808359418
 40
17.4009125722703
 40
18.7394443085987
 40
20.0779760449272
 40
21.4165077812557
 40
22.7550395175842
 40
24.0935712539127
 40
25.4321029902411
 40
26.7706347265696
 40
28.1091664628981
 40
29.4476981992266
 40
30.7862299355551
 40
32.1247616718835
 40
33.463293408212
 40
34.8018251445405
 40
36.140356880869
 40
37.4788886171975
 40
38.8174203535259
 40
40.1559520898544
 40
41.4944838261829
 40
42.8330155625114
 40
44.1715472988399
 40
45.5100790351683
 40
46.8486107714968
 40
48.1871425078253
 40
49.5256742441538
 40
50.8642059804823
 40
52.2027377168108
 40
53.5412694531392
 40
54.8798011894677
 40
56.2183329257962
 40
57.5568646621247
 40
58.8953963984532
 40
60.2339281347816
 40
61.5724598711101
 40
62.9109916074386
 40
64.2495233437671
 40
65.5880550800956
 40
66.926586816424
 40
68.2651185527525
 40
69.603650289081
 40
70.9421820254095
 40
72.280713761738
 40
73.6192454980664
 40
74.9577772343949
 40
76.2963089707234
 40
77.6348407070519
 40
78.9733724433804
 40
80.3119041797088
 40
81.6504359160373
 40
82.9889676523658
 40
84.3274993886943
 40
85.6660311250228
 40
87.0045628613513
 40
88.3430945976797
 40
89.6816263340082
 40
91.0201580703367
 40
92.3586898066652
 40
93.6972215429937
 40
95.0357532793221
 40
96.3742850156506
 40
97.7128167519791
 40
99.0513484883076
 40
100.389880224636
 40
101.728411960965
 40
103.066943697293
 40
104.405475433622
 40
105.74400716995
 40
107.082538906278
 40
108.421070642607
 40
109.759602378935
 40
111.098134115264
 40
112.436665851592
 40
113.775197587921
 40
115.113729324249
 40
116.452261060578
 40
117.790792796906
 40
119.129324533235
 40
120.467856269563
 40
121.806388005892
 40
123.14491974222
 40
124.483451478549
 40
125.821983214877
 40
127.160514951206
 40
128.499046687534
 40
129.837578423863
 40
131.176110160191
 40
132.51464189652
 40
133.853173632848
 40
135.191705369177
 40
136.530237105505
 40
137.868768841834
 40
139.207300578162
 40
140.545832314491
 40
141.884364050819
 40
143.222895787147
 40
144.561427523476
 40
145.899959259804
 40
147.238490996133
 40
148.577022732461
 40
149.91555446879
 40
151.254086205118
 40
152.592617941447
 40
153.931149677775
 40
155.269681414104
 40
156.608213150432
 40
157.946744886761
 40
159.285276623089
 40
160.623808359418
 40
161.962340095746
 40
163.300871832075
 40
164.639403568403
 40
165.977935304732
 40
167.31646704106
 40
168.654998777389
 40
169.993530513717
 40
171.332062250046
 40
172.670593986374
 40
174.009125722703
 40
175.347657459031
 40
176.686189195359
 40
178.024720931688
 40
179.363252668016
 40
180.701784404345
 40
182.040316140673
 40
183.378847877002
 40
183.7099472211188
 40
183.7099472211188
 40
183.7099472211188
 40
183.7099472211188
 10
5135.91758307999
 20
-108.7535462542675
 30
0.0
 10
5135.92168083236
 20
-108.9086989313738
 30
0.0
 10
5135.93808892279
 20
-109.5000205156613
 30
0.0
 10
5135.973930332966
 20
-110.6036120952614
 30
0.0
 10
5136.027948510949
 20
-111.8957588976592
 30
0.0
 10
5136.096902530582
 20
-113.2447053833217
 30
0.0
 10
5136.18290732525
 20
-114.6002190213304
 30
0.0
 10
5136.283052582375
 20
-115.9299438564123
 30
0.0
 10
5136.403943946234
 20
-117.2692913485463
 30
0.0
 10
5136.544319886497
 20
-118.5962437119316
 30
0.0
 10
5136.706321607591
 20
-119.9236378389816
 30
0.0
 10
5136.903334343371
 20
-121.3057924104352
 30
0.0
 10
5137.109841380084
 20
-122.5787835168181
 30
0.0
 10
5137.358360702396
 20
-123.9270451749663
 30
0.0
 10
5137.62690710959
 20
-125.2125583272524
 30
0.0
 10
5137.943271894766
 20
-126.5644412746962
 30
0.0
 10
5138.278643636335
 20
-127.8363422537915
 30
0.0
 10
5138.660231727278
 20
-129.1387910427612
 30
0.0
 10
5139.059463484011
 20
-130.369984312879
 30
0.0
 10
5139.5350971831
 20
-131.6890976583624
 30
0.0
 10
5140.0197710968
 20
-132.9094076866369
 30
0.0
 10
5140.553994914295
 20
-134.1312164360889
 30
0.0
 10
5141.129737137895
 20
-135.3323959975324
 30
0.0
 10
5141.771503826842
 20
-136.5565903983953
 30
0.0
 10
5142.437786800959
 20
-137.7113089328496
 30
0.0
 10
5143.140251737816
 20
-138.8348146121253
 30
0.0
 10
5143.892400799607
 20
-139.9380718927265
 30
0.0
 10
5144.696436702228
 20
-141.0225378074794
 30
0.0
 10
5145.555613044477
 20
-142.0897254898611
 30
0.0
 10
5146.438415505437
 20
-143.0976751307354
 30
0.0
 10
5147.326002114897
 20
-144.0379028154886
 30
0.0
 10
5148.335319562003
 20
-145.0234668350159
 30
0.0
 10
5149.292015632783
 20
-145.8865603367495
 30
0.0
 10
5150.329131298849
 20
-146.7555900777935
 30
0.0
 10
5151.381669212188
 20
-147.5716183974274
 30
0.0
 10
5152.511513752676
 20
-148.3811351652495
 30
0.0
 10
5153.583999942211
 20
-149.0946853049728
 30
0.0
 10
5154.735889621675
 20
-149.8053969448084
 30
0.0
 10
5155.904850614575
 20
-150.4732600599165
 30
0.0
 10
5157.080070965545
 20
-151.0960665106651
 30
0.0
 10
5158.327545349377
 20
-151.7075853996222
 30
0.0
 10
5159.521105454913
 20
-152.2479648952232
 30
0.0
 10
5160.76943122213
 20
-152.7723248931758
 30
0.0
 10
5162.016649351775
 20
-153.2552560168534
 30
0.0
 10
5163.266261272986
 20
-153.7022267503636
 30
0.0
 10
5164.533114875872
 20
-154.1199972851938
 30
0.0
 10
5165.874028591151
 20
-154.5258754753123
 30
0.0
 10
5167.115537108974
 20
-154.8697945811001
 30
0.0
 10
5168.416247351567
 20
-155.2009895534148
 30
0.0
 10
5169.745573516484
 20
-155.5087557737817
 30
0.0
 10
5171.074358016325
 20
-155.7876429514691
 30
0.0
 10
5172.373956735211
 20
-156.0339875391511
 30
0.0
 10
5173.668243244364
 20
-156.2557267560688
 30
0.0
 10
5175.062256890824
 20
-156.46855140521
 30
0.0
 10
5176.346494852973
 20
-156.6415724576569
 30
0.0
 10
5177.721467306254
 20
-156.8045396734657
 30
0.0
 10
5178.993552221098
 20
-156.9350642714372
 30
0.0
 10
5180.348650086701
 20
-157.0543597497
 30
0.0
 10
5181.67710640667
 20
-157.1518397990059
 30
0.0
 10
5183.042683779859
 20
-157.2331106557996
 30
0.0
 10
5184.370350257111
 20
-157.2943231279884
 30
0.0
 10
5185.726568845297
 20
-157.3396502359502
 30
0.0
 10
5187.051790122305
 20
-157.3677035640704
 30
0.0
 10
5188.383036900575
 20
-157.3807149694413
 30
0.0
 10
5189.762479152893
 20
-157.3784234729538
 30
0.0
 10
5191.076608200751
 20
-157.3621060078159
 30
0.0
 10
5192.419182764147
 20
-157.3312767347498
 30
0.0
 10
5193.782467325848
 20
-157.2869582586992
 30
0.0
 10
5195.146981040374
 20
-157.2285958329331
 30
0.0
 10
5196.432262871873
 20
-157.1621856618164
 30
0.0
 10
5197.777248064025
 20
-157.0811611699161
 30
0.0
 10
5199.138532149106
 20
-156.9871641331471
 30
0.0
 10
5200.472344087073
 20
-156.8840421333522
 30
0.0
 10
5201.780880691969
 20
-156.772783881505
 30
0.0
 10
5203.163128736156
 20
-156.6441391307941
 30
0.0
 10
5204.459771258862
 20
-156.5142169048705
 30
0.0
 10
5205.833277218047
 20
-156.3665103333266
 30
0.0
 10
5207.137126311758
 20
-156.2174944640557
 30
0.0
 10
5208.46670903372
 20
-156.0570351528728
 30
0.0
 10
5209.801224560406
 20
-155.8869781740669
 30
0.0
 10
5211.143000789729
 20
-155.7080194307533
 30
0.0
 10
5212.462367251905
 20
-155.524134578187
 30
0.0
 10
5213.798206274389
 20
-155.3303955601287
 30
0.0
 10
5215.12958845159
 20
-155.1297965235145
 30
0.0
 10
5216.437946257718
 20
-154.9253550008453
 30
0.0
 10
5217.767932212384
 20
-154.7112928205707
 30
0.0
 10
5219.106419346495
 20
-154.4891040112522
 30
0.0
 10
5220.404986890871
 20
-154.2672076294053
 30
0.0
 10
5221.728657918612
 20
-154.0350029588814
 30
0.0
 10
5223.076591524211
 20
-153.7924186930956
 30
0.0
 10
5224.380209738481
 20
-153.5521852817466
 30
0.0
 10
5225.737704064463
 20
-153.2963615932478
 30
0.0
 10
5227.008820203169
 20
-153.0520082860604
 30
0.0
 10
5228.344695100923
 20
-152.7901088559566
 30
0.0
 10
5229.65819260442
 20
-152.527584805796
 30
0.0
 10
5230.948991317489
 20
-152.2652252931949
 30
0.0
 10
5232.306205156413
 20
-151.9844612536909
 30
0.0
 10
5233.57963809993
 20
-151.717251227493
 30
0.0
 10
5234.933030302087
 20
-151.4287103988901
 30
0.0
 10
5236.217184156069
 20
-151.1509275559748
 30
0.0
 10
5237.531090466689
 20
-150.863340022851
 30
0.0
 10
5238.864320203672
 20
-150.5676057258325
 30
0.0
 10
5240.158568810673
 20
-150.2769719315703
 30
0.0
 10
5241.447676163089
 20
-149.9843166193879
 30
0.0
 10
5242.770746113707
 20
-149.6808726492519
 30
0.0
 10
5244.098766947425
 20
-149.3729735955604
 30
0.0
 10
5245.359751152424
 20
-149.0780118328004
 30
0.0
 10
5246.721927828582
 20
-148.756418620812
 30
0.0
 10
5247.995902013734
 20
-148.4529316105092
 30
0.0
 10
5249.291558989786
 20
-148.1420181522695
 30
0.0
 10
5250.615365342468
 20
-147.8218367603796
 30
0.0
 10
5251.899022778668
 20
-147.5092811435408
 30
0.0
 10
5253.226017001674
 20
-147.1839819657295
 30
0.0
 10
5254.501482793793
 20
-146.8690932258606
 30
0.0
 10
5255.820039088048
 20
-146.5420291166507
 30
0.0
 10
5257.128838750085
 20
-146.2152970425296
 30
0.0
 10
5258.416977545688
 20
-145.8920315450179
 30
0.0
 10
5259.756120583678
 20
-145.554591189477
 30
0.0
 10
5261.00309664911
 20
-145.2389670069489
 30
0.0
 10
5262.328164853514
 20
-144.9021338227232
 30
0.0
 10
5263.644187522746
 20
-144.5661996837053
 30
0.0
 10
5264.921704625154
 20
-144.2389803025814
 30
0.0
 10
5266.240882119938
 20
-143.9000197567094
 30
0.0
 10
5267.524617738084
 20
-143.5691414984841
 30
0.0
 10
5268.834787356282
 20
-143.2307217993631
 30
0.0
 10
5270.105737261228
 20
-142.9018024706835
 30
0.0
 10
5271.462148052941
 20
-142.5497002921694
 30
0.0
 10
5272.70502796497
 20
-142.2264151288597
 30
0.0
 10
5274.012098698295
 20
-141.8860394144996
 30
0.0
 10
5275.327416817049
 20
-141.543184774219
 30
0.0
 10
5276.660223758223
 20
-141.1953335240388
 30
0.0
 10
5277.882025161553
 20
-140.8760647128526
 30
0.0
 10
5278.915500890427
 20
-140.6058340172732
 30
0.0
 10
5279.456709227607
 20
-140.4642904825624
 30
0.0
 10
5279.563214312892
 20
-140.4364347638804
 30
0.0
  0
SPLINE
  5
AF62
330
18
100
AcDbEntity
  8
01
100
AcDbSpline
210
0.0
220
0.0
230
1.0
 70
     8
 71
     3
 72
     9
 73
     5
 74
     0
 42
0.0000000001
 43
0.0000000001
 40
0.0
 40
0.0
 40
0.0
 40
0.0
 40
1.33853173632848
 40
2.112762212438407
 40
2.112762212438407
 40
2.112762212438407
 40
2.112762212438407
 10
5135.82132223509
 20
-99.84569850071796
 30
0.0
 10
5135.822776062139
 20
-100.286998170771
 30
0.0
 10
5135.825031449735
 20
-100.9773942706043
 30
0.0
 10
5135.82792880751
 20
-101.6872319510995
 30
0.0
 10
5135.829099204077
 20
-101.9471775295175
 30
0.0
  0
SPLINE
  5
AF63
330
18
100
AcDbEntity
  8
01
100
AcDbSpline
210
0.0
220
0.0
230
1.0
 70
     8
 71
     3
 72
     8
 73
     4
 74
     0
 42
0.0000000001
 43
0.0000000001
 40
0.0
 40
0.0
 40
0.0
 40
0.0
 40
1.0
 40
1.0
 40
1.0
 40
1.0
 10
5251.815306094564
 20
-124.8925954635203
 30
0.0
 10
5252.142410675333
 20
-124.8116186344042
 30
0.0
 10
5252.47403590974
 20
-124.7471149210961
 30
0.0
 10
5252.807644770956
 20
-124.6995777948561
 30
0.0
  0
LINE
  5
AF64
330
18
100
AcDbEntity
  8
01
100
AcDbLine
 10
5279.579636414825
 20
-140.3842320931645
 30
0.0
 11
5279.563214359032
 21
-140.4364346790504
 31
0.0
  0
SPLINE
  5
AF65
330
18
100
AcDbEntity
  8
01
100
AcDbSpline
210
0.0
220
0.0
230
1.0
 70
     8
 71
     3
 72
     9
 73
     5
 74
     0
 42
0.0000000001
 43
0.0000000001
 40
0.0
 40
0.0
 40
0.0
 40
0.0
 40
0.1320650765782578
 40
1.0
 40
1.0
 40
1.0
 40
1.0
 10
5159.659177439791
 20
-267.9126950601386
 30
0.0
 10
5159.616478464636
 20
-267.9099047597603
 30
0.0
 10
5159.293160777161
 20
-267.8887765368362
 30
0.0
 10
5158.977134017149
 20
-267.8787472983487
 30
0.0
 10
5158.702843355399
 20
-267.87004257201
 30
0.0
  0
SPLINE
  5
AF66
330
18
100
AcDbEntity
  8
01
100
AcDbSpline
210
0.0
220
0.0
230
1.0
 70
     8
 71
     3
 72
     9
 73
     5
 74
     0
 42
0.0000000001
 43
0.0000000001
 40
0.0
 40
0.0
 40
0.0
 40
0.0
 40
0.6193148951774979
 40
1.0
 40
1.0
 40
1.0
 40
1.0
 10
5159.676238569221
 20
-293.7761663900975
 30
0.0
 10
5159.70603429619
 20
-293.7738820261335
 30
0.0
 10
5159.754145083128
 20
-293.7701934922685
 30
0.0
 10
5159.808745348096
 20
-293.7578254170559
 30
0.0
 10
5159.829530855688
 20
-293.753117075047
 30
0.0
  0
LINE
  5
AF67
330
18
100
AcDbEntity
  8
01
100
AcDbLine
 10
5159.629311689823
 20
-293.781367038701
 30
0.0
 11
5159.676238569221
 21
-293.7761663900975
 31
0.0
  0
SPLINE
  5
AF68
330
18
100
AcDbEntity
  8
01
100
AcDbSpline
210
0.0
220
0.0
230
1.0
 70
     8
 71
     3
 72
    14
 73
    10
 74
     0
 42
0.0000000001
 43
0.0000000001
 40
0.0
 40
0.0
 40
0.0
 40
0.0
 40
0.105064096731632
 40
0.2172558062386611
 40
0.3289431041736705
 40
0.4404250016452118
 40
0.6263975861743594
 40
0.8128238916825151
 40
1.0
 40
1.0
 40
1.0
 40
1.0
 10
5160.265771074482
 20
-293.4190735015439
 30
0.0
 10
5160.284910173495
 20
-293.4026498804686
 30
0.0
 10
5160.324486779737
 20
-293.3686884497889
 30
0.0
 10
5160.5748166512
 20
-293.2009828533388
 30
0.0
 10
5160.837146404057
 20
-293.0411050845736
 30
0.0
 10
5161.248169851122
 20
-292.8029077298974
 30
0.0
 10
5161.889422784755
 20
-292.4563102371472
 30
0.0
 10
5162.81151626381
 20
-291.9961705636916
 30
0.0
 10
5163.58571712116
 20
-291.6190870526956
 30
0.0
 10
5163.973594442537
 20
-291.4301669025921
 30
0.0
  0
SPLINE
  5
AF69
330
18
100
AcDbEntity
  8
01
100
AcDbSpline
210
0.0
220
0.0
230
1.0
 70
     8
 71
     3
 72
    14
 73
    10
 74
     0
 42
0.0000000001
 43
0.0000000001
 40
0.0
 40
0.0
 40
0.0
 40
0.0
 40
0.1871761083174872
 40
0.3736024138256448
 40
0.5595749983547955
 40
0.6710568958263377
 40
0.7827441937613481
 40
0.8949359032683789
 40
0.9999999999999999
 40
0.9999999999999999
 40
0.9999999999999999
 40
0.9999999999999999
 10
5163.973594442537
 20
-270.2612300988438
 30
0.0
 10
5163.58571712116
 20
-270.0723099487406
 30
0.0
 10
5162.81151626381
 20
-269.6952264377443
 30
0.0
 10
5161.889422784755
 20
-269.2350867642887
 30
0.0
 10
5161.248169851121
 20
-268.8884892715386
 30
0.0
 10
5160.837146404057
 20
-268.6502919168623
 30
0.0
 10
5160.5748166512
 20
-268.4904141480971
 30
0.0
 10
5160.324486779737
 20
-268.322708551647
 30
0.0
 10
5160.284910173494
 20
-268.2887471209673
 30
0.0
 10
5160.265771074482
 20
-268.272323499892
 30
0.0
  0
LINE
  5
AF6A
330
18
100
AcDbEntity
  8
01
100
AcDbLine
 10
5159.676238569221
 20
-267.9152306113386
 30
0.0
 11
5159.629311689823
 21
-267.9100299627352
 31
0.0
  0
SPLINE
  5
AF6B
330
18
100
AcDbEntity
  8
01
100
AcDbSpline
210
0.0
220
0.0
230
1.0
 70
     8
 71
     3
 72
     9
 73
     5
 74
     0
 42
0.0000000001
 43
0.0000000001
 40
0.0
 40
0.0
 40
0.0
 40
0.0
 40
0.3806851048225285
 40
0.9999999999999999
 40
0.9999999999999999
 40
0.9999999999999999
 40
0.9999999999999999
 10
5159.829530855689
 20
-267.9382799263891
 30
0.0
 10
5159.808745348096
 20
-267.9335715843803
 30
0.0
 10
5159.754145083128
 20
-267.9212035091676
 30
0.0
 10
5159.70603429619
 20
-267.9175149753027
 30
0.0
 10
5159.676238569221
 20
-267.9152306113386
 30
0.0
  0
SPLINE
  5
AF6C
330
18
100
AcDbEntity
  8
01
100
AcDbSpline
210
0.0
220
0.0
230
1.0
 70
     8
 71
     3
 72
    53
 73
    49
 74
     0
 42
0.0000000001
 43
0.0000000001
 40
0.0
 40
0.0
 40
0.0
 40
0.0
 40
0.0672395043700929
 40
0.1337600106785266
 40
0.1968143584471079
 40
0.2562185533887492
 40
0.3120235563954951
 40
0.3514498982726572
 40
0.3887956006700375
 40
0.4233591496269761
 40
0.4552216823020246
 40
0.478682818388014
 40
0.5004207875164313
 40
0.5205847981448624
 40
0.5374269512337988
 40
0.5501181590267378
 40
0.5552717653687217
 40
0.561863849116297
 40
0.5707420403826019
 40
0.5820632147039747
 40
0.5954338138006616
 40
0.6114191233488258
 40
0.6319177626852566
 40
0.6506743061977786
 40
0.6675978832223637
 40
0.6824749814636292
 40
0.6976824963507806
 40
0.7106394108269088
 40
0.7249393534907336
 40
0.7414988681274552
 40
0.7603538384105281
 40
0.7789822906778084
 40
0.7995410317904245
 40
0.8190824939460751
 40
0.8371098684803204
 40
0.8532945440221672
 40
0.8670214572372991
 40
0.8821030704482794
 40
0.8940228444878646
 40
0.9060262034923128
 40
0.9181328925138926
 40
0.9319282553800516
 40
0.9423004897193576
 40
0.9534015195069204
 40
0.9663939484435028
 40
0.977693787246084
 40
0.9900773028540397
 40
1.0
 40
1.0
 40
1.0
 40
1.0
 10
5269.679902530177
 20
-275.9802626216994
 30
0.0
 10
5267.248163356327
 20
-276.0200788830156
 30
0.0
 10
5262.410687814101
 20
-276.099285646788
 30
0.0
 10
5255.273642117299
 20
-276.2210799059281
 30
0.0
 10
5248.403233101891
 20
-276.3351701641419
 30
0.0
 10
5241.90185261515
 20
-276.4370869701278
 30
0.0
 10
5236.243076951922
 20
-276.5160368690823
 30
0.0
 10
5231.376111693379
 20
-276.5740872278451
 30
0.0
 10
5227.278252407745
 20
-276.6133881753364
 30
0.0
 10
5223.448838905036
 20
-276.6407929582618
 30
0.0
 10
5220.123867479938
 20
-276.6545776778383
 30
0.0
 10
5217.267614697606
 20
-276.6583483113665
 30
0.0
 10
5214.841306795448
 20
-276.6553137759571
 30
0.0
 10
5212.658024419927
 20
-276.6452382480228
 30
0.0
 10
5210.809788695893
 20
-276.6327884736708
 30
0.0
 10
5209.519429657428
 20
-276.6162827205786
 30
0.0
 10
5208.610236179439
 20
-276.6002796645017
 30
0.0
 10
5207.843293422864
 20
-276.5849333085054
 30
0.0
 10
5206.847323055074
 20
-276.5614985685983
 30
0.0
 10
5205.599503892989
 20
-276.5260858385788
 30
0.0
 10
5204.087207059609
 20
-276.4755664032876
 30
0.0
 10
5202.233817221893
 20
-276.4003193266564
 30
0.0
 10
5200.180061101963
 20
-276.3100316784277
 30
0.0
 10
5198.093162303705
 20
-276.1895744006507
 30
0.0
 10
5196.216223387805
 20
-276.0660729592768
 30
0.0
 10
5194.472016906226
 20
-275.9406925195896
 30
0.0
 10
5192.875532464814
 20
-275.8184940731177
 30
0.0
 10
5191.300368939146
 20
-275.6914432179248
 30
0.0
 10
5189.676269002364
 20
-275.5492625505404
 30
0.0
 10
5187.835483050194
 20
-275.3686871136966
 30
0.0
 10
5185.835858693925
 20
-275.1505050933018
 30
0.0
 10
5183.693343695578
 20
-274.8910943457992
 30
0.0
 10
5181.536395015948
 20
-274.6040345488624
 30
0.0
 10
5179.423053161421
 20
-274.290083750711
 30
0.0
 10
5177.493125968943
 20
-273.9704140051057
 30
0.0
 10
5175.784248392384
 20
-273.6656298308088
 30
0.0
 10
5174.232456523749
 20
-273.3582348658521
 30
0.0
 10
5172.851297510109
 20
-273.0656385509152
 30
0.0
 10
5171.577202391221
 20
-272.7713791356106
 30
0.0
 10
5170.452827123696
 20
-272.4946210122117
 30
0.0
 10
5169.329535951465
 20
-272.196789418004
 30
0.0
 10
5168.328120103055
 20
-271.9047353216164
 30
0.0
 10
5167.420665688895
 20
-271.6233711258177
 30
0.0
 10
5166.605487216184
 20
-271.3488615073182
 30
0.0
 10
5165.82523304136
 20
-271.0636123075011
 30
0.0
 10
5165.090487944227
 20
-270.7684072710168
 30
0.0
 10
5164.462363272121
 20
-270.49777641652
 30
0.0
 10
5164.106238000579
 20
-270.3229081179676
 30
0.0
 10
5163.947819211404
 20
-270.2451196925587
 30
0.0
  0
SPLINE
  5
AF6D
330
18
100
AcDbEntity
  8
01
100
AcDbSpline
210
0.0
220
0.0
230
1.0
 70
     8
 71
     3
 72
    67
 73
    63
 74
     0
 42
0.0000000001
 43
0.0000000001
 40
0.0
 40
0.0
 40
0.0
 40
0.0
 40
0.0043035733617615
 40
0.0224391585526817
 40
0.0396749423482268
 40
0.0545769029381553
 40
0.0631453470749424
 40
0.0721981036082607
 40
0.0826160145356888
 40
0.0943931830855085
 40
0.1076315829847209
 40
0.1196801450706085
 40
0.1318273557671852
 40
0.1424605004091535
 40
0.1534892293426246
 40
0.166937858565698
 40
0.1838379961273942
 40
0.2056962044572042
 40
0.2252402070833107
 40
0.242116557215931
 40
0.2566764827214043
 40
0.2685751901549712
 40
0.2782654004342943
 40
0.284542493993428
 40
0.2925911257685663
 40
0.3032276960443747
 40
0.3163695691968496
 40
0.331883721213421
 40
0.3487224394385524
 40
0.3724769191067412
 40
0.3947616930406702
 40
0.4153718370820569
 40
0.4341688633374018
 40
0.4464799777753606
 40
0.4566454555889935
 40
0.4647199564485881
 40
0.4734469984296801
 40
0.4875409923073242
 40
0.5046223327299176
 40
0.5246331280910725
 40
0.5472201218540704
 40
0.5703976671404573
 40
0.5935105434530047
 40
0.6166170577197764
 40
0.6422029892668883
 40
0.6677305197967435
 40
0.693442563863073
 40
0.7191620962585946
 40
0.743276655313384
 40
0.7691126869062765
 40
0.7918713044342534
 40
0.8114744714751521
 40
0.8216862438201765
 40
0.8314708315362453
 40
0.8445780965032097
 40
0.8610090342619627
 40
0.8812076033660469
 40
0.9051074529604624
 40
0.9322800666941061
 40
0.9632319378942172
 40
0.9975790347187024
 40
1.0
 40
1.0
 40
1.0
 40
1.0
 10
5163.832412509761
 20
-291.5043596571305
 30
0.0
 10
5163.902844603035
 20
-291.4670106595487
 30
0.0
 10
5164.270082889766
 20
-291.2722701478693
 30
0.0
 10
5164.986091186895
 20
-290.9629324349897
 30
0.0
 10
5165.852970274563
 20
-290.6158789112154
 30
0.0
 10
5166.719501647027
 20
-290.3024996355608
 30
0.0
 10
5167.53197258358
 20
-290.0333275177335
 30
0.0
 10
5168.284069096787
 20
-289.8011789923077
 30
0.0
 10
5169.14639490183
 20
-289.5460423828914
 30
0.0
 10
5170.194531643354
 20
-289.2638950344307
 30
0.0
 10
5171.33955474858
 20
-288.9764740117586
 30
0.0
 10
5172.557212264176
 20
-288.692282135267
 30
0.0
 10
5173.733937240077
 20
-288.4373812544387
 30
0.0
 10
5174.894457998656
 20
-288.2011294621997
 30
0.0
 10
5176.128680112217
 20
-287.9633090632366
 30
0.0
 10
5177.599632468618
 20
-287.7037753407607
 30
0.0
 10
5179.470633597211
 20
-287.3931080040821
 30
0.0
 10
5181.603012255803
 20
-287.0773274484287
 30
0.0
 10
5183.755514163886
 20
-286.7928801098634
 30
0.0
 10
5185.645957190311
 20
-286.564235020359
 30
0.0
 10
5187.254958483898
 20
-286.3853374199961
 30
0.0
 10
5188.597661002694
 20
-286.247586497938
 30
0.0
 10
5189.633826336998
 20
-286.1484422284526
 30
0.0
 10
5190.527167667173
 20
-286.0674215912323
 30
0.0
 10
5191.455192388896
 20
-285.987949420101
 30
0.0
 10
5192.639150578182
 20
-285.8918812272722
 30
0.0
 10
5194.101764997306
 20
-285.7779576789295
 30
0.0
 10
5195.796689596112
 20
-285.6542217438517
 30
0.0
 10
5197.887772882023
 20
-285.5136941445245
 30
0.0
 10
5200.232335707339
 20
-285.3782812291576
 30
0.0
 10
5202.71918179593
 20
-285.2703102055769
 30
0.0
 10
5205.021624232703
 20
-285.1820710727776
 30
0.0
 10
5206.952746297591
 20
-285.1260208275463
 30
0.0
 10
5208.494031452346
 20
-285.0925727567429
 30
0.0
 10
5209.634881474752
 20
-285.073399956989
 30
0.0
 10
5210.642073034226
 20
-285.0613916729855
 30
0.0
 10
5211.795719396491
 20
-285.0518061702218
 30
0.0
 10
5213.284869170635
 20
-285.0429484127718
 30
0.0
 10
5215.193739948604
 20
-285.0356149146988
 30
0.0
 10
5217.417386048623
 20
-285.033183254974
 30
0.0
 10
5219.865809248294
 20
-285.0368982978913
 30
0.0
 10
5222.426009327699
 20
-285.0463323052232
 30
0.0
 10
5225.001994144353
 20
-285.0620425772448
 30
0.0
 10
5227.66334463049
 20
-285.083322805366
 30
0.0
 10
5230.409276209098
 20
-285.1093197016879
 30
0.0
 10
5233.246681216768
 20
-285.1411729844314
 30
0.0
 10
5236.08346428794
 20
-285.1761451671381
 30
0.0
 10
5238.862656616957
 20
-285.2133671132984
 30
0.0
 10
5241.642380354056
 20
-285.2533820147531
 30
0.0
 10
5244.309212996093
 20
-285.2936130097052
 30
0.0
 10
5246.806183260462
 20
-285.3324926080842
 30
0.0
 10
5248.727617115949
 20
-285.3635859212073
 30
0.0
 10
5250.171929083276
 20
-285.3865671684833
 30
0.0
 10
5251.377471092526
 20
-285.4068087168672
 30
0.0
 10
5252.807831670871
 20
-285.4300058010678
 30
0.0
 10
5254.615734308704
 20
-285.460135657244
 30
0.0
 10
5256.814299971345
 20
-285.497156430025
 30
0.0
 10
5259.400989047108
 20
-285.540240130506
 30
0.0
 10
5262.376164095468
 20
-285.5909769764932
 30
0.0
 10
5265.727723133463
 20
-285.6464215497728
 30
0.0
 10
5268.181322420212
 20
-285.6873732033613
 30
0.0
 10
5269.512680510131
 20
-285.7085990401894
 30
0.0
 10
5269.600342778091
 20
-285.7099966393849
 30
0.0
  0
LINE
  5
AF6E
330
18
100
AcDbEntity
  8
01
100
AcDbLine
 10
5281.283641270971
 20
-281.8465119942767
 30
0.0
 11
5281.308435768611
 21
-280.845698500718
 31
0.0
  0
LINE
  5
AF6F
330
18
100
AcDbEntity
  8
01
100
AcDbLine
 10
5281.308435768611
 20
-280.845698500718
 30
0.0
 11
5281.275208475886
 21
-279.7745477363338
 31
0.0
  0
SPLINE
  5
AF70
330
18
100
AcDbEntity
  8
01
100
AcDbSpline
210
0.0
220
0.0
230
1.0
 70
     8
 71
     3
 72
    11
 73
     7
 74
     0
 42
0.0000000001
 43
0.0000000001
 40
0.0898208668705382
 40
0.0898208668705382
 40
0.0898208668705382
 40
0.0898208668705382
 40
0.241925871295895
 40
0.4938757548338695
 40
0.7494123959740021
 40
1.0
 40
1.0
 40
1.0
 40
1.0
 10
5281.275208475885
 20
-279.7745477363338
 30
0.0
 10
5281.262780829879
 20
-279.6774076518701
 30
0.0
 10
5281.219941714182
 20
-279.4205213576473
 30
0.0
 10
5281.035243103412
 20
-279.014705060131
 30
0.0
 10
5280.716183416122
 20
-278.5891002053851
 30
0.0
 10
5280.419263895616
 20
-278.3686979729192
 30
0.0
 10
5280.272255820141
 20
-278.2595744367851
 30
0.0
  0
SPLINE
  5
AF71
330
18
100
AcDbEntity
  8
01
100
AcDbSpline
210
0.0
220
0.0
230
1.0
 70
     8
 71
     3
 72
    11
 73
     7
 74
     0
 42
0.0000000001
 43
0.0000000001
 40
0.0
 40
0.0
 40
0.0
 40
0.0
 40
0.2505876040259897
 40
0.5061242451661256
 40
0.7580741287040985
 40
0.9468569317596521
 40
0.9468569317596521
 40
0.9468569317596521
 40
0.9468569317596521
 10
5280.272255820141
 20
-283.4318225646508
 30
0.0
 10
5280.419263895616
 20
-283.3226990285169
 30
0.0
 10
5280.716183416122
 20
-283.1022967960508
 30
0.0
 10
5281.035243103412
 20
-282.676691941305
 30
0.0
 10
5281.230212219721
 20
-282.2483094830901
 30
0.0
 10
5281.269978906385
 20
-281.967283694977
 30
0.0
 10
5281.283641270971
 20
-281.8465119942767
 30
0.0
  0
LINE
  5
AF72
330
18
100
AcDbEntity
  8
01
100
AcDbLine
 10
5269.875217967644
 20
-275.9835649474529
 30
0.0
 11
5269.626417767247
 21
-275.9809171589715
 31
0.0
  0
SPLINE
  5
AF73
330
18
100
AcDbEntity
  8
01
100
AcDbSpline
210
0.0
220
0.0
230
1.0
 70
     8
 71
     3
 72
    13
 73
     9
 74
     0
 42
0.0000000001
 43
0.0000000001
 40
0.0
 40
0.0
 40
0.0
 40
0.0
 40
0.1512745913393768
 40
0.3102048140589075
 40
0.4779376432236135
 40
0.652528558076474
 40
0.8330621239861319
 40
1.0
 40
1.0
 40
1.0
 40
1.0
 10
5280.273165208265
 20
-278.2601673748173
 30
0.0
 10
5279.846636210115
 20
-278.0040555822646
 30
0.0
 10
5278.971992640498
 20
-277.478870815387
 30
0.0
 10
5277.460576721534
 20
-276.8885884371758
 30
0.0
 10
5275.768937221872
 20
-276.4319052515954
 30
0.0
 10
5273.888085317803
 20
-276.1342916353827
 30
0.0
 10
5271.919542538464
 20
-275.980329866141
 30
0.0
 10
5270.538649188338
 20
-275.982515087771
 30
0.0
 10
5269.875217967644
 20
-275.9835649474529
 30
0.0
  0
SPLINE
  5
AF74
330
18
100
AcDbEntity
  8
01
100
AcDbSpline
210
0.0
220
0.0
230
1.0
 70
     8
 71
     3
 72
    14
 73
    10
 74
     0
 42
0.0000000001
 43
0.0000000001
 40
0.0
 40
0.0
 40
0.0
 40
0.0
 40
0.1078034001228307
 40
0.2379576852707099
 40
0.3914086762031226
 40
0.5229704593698494
 40
0.6687267545596413
 40
0.8272780330852306
 40
1.0
 40
1.0
 40
1.0
 40
1.0
 10
5269.626417767246
 20
-285.7104798424645
 30
0.0
 10
5270.071096782904
 20
-285.7137513344306
 30
0.0
 10
5271.052650139603
 20
-285.7209725969768
 30
0.0
 10
5272.609342583137
 20
-285.6591741086719
 30
0.0
 10
5274.200174138849
 20
-285.5087599283528
 30
0.0
 10
5275.774242204332
 20
-285.2438271495261
 30
0.0
 10
5277.281844246105
 20
-284.8543592858754
 30
0.0
 10
5278.831898426505
 20
-284.2848426522515
 30
0.0
 10
5279.779235053192
 20
-283.7237675657835
 30
0.0
 10
5280.273165208265
 20
-283.4312296266186
 30
0.0
  0
SPLINE
  5
AF75
330
18
100
AcDbEntity
  8
01
100
AcDbSpline
210
0.0
220
0.0
230
1.0
 70
     8
 71
     3
 72
    20
 73
    16
 74
     0
 42
0.0000000001
 43
0.0000000001
 40
0.0
 40
0.0
 40
0.0
 40
0.0
 40
0.2499999999999999
 40
0.2499999999999999
 40
0.3749999999999999
 40
0.3749999999999999
 40
0.4374999999999999
 40
0.4374999999999999
 40
0.4999999999999999
 40
0.4999999999999999
 40
0.7499999999999998
 40
0.7499999999999998
 40
0.8749999999999999
 40
0.8749999999999999
 40
1.0
 40
1.0
 40
1.0
 40
1.0
 10
5159.709061390995
 20
-293.7707822958758
 30
0.0
 10
5157.618925529971
 20
-293.91975997411
 30
0.0
 10
5155.550541450969
 20
-293.8466217747151
 30
0.0
 10
5152.479211901879
 20
-293.4178436435899
 30
0.0
 10
5151.460659243819
 20
-293.2215747578817
 30
0.0
 10
5149.941017516538
 20
-292.8435681458885
 30
0.0
 10
5149.435125853261
 20
-292.7033313242595
 30
0.0
 10
5148.437860819682
 20
-292.3983748639467
 30
0.0
 10
5147.945051554331
 20
-292.233367136257
 30
0.0
 10
5145.509457520302
 20
-291.347109617723
 30
0.0
 10
5143.652066325483
 20
-290.4421242309814
 30
0.0
 10
5141.004470927291
 20
-288.7866635549998
 30
0.0
 10
5140.14364643273
 20
-288.1829903538807
 30
0.0
 10
5138.498723932213
 20
-286.8954086757063
 30
0.0
 10
5137.711412812556
 20
-286.2087493906716
 30
0.0
 10
5136.95879237275
 20
-285.4797819972842
 30
0.0
  0
SPLINE
  5
AF76
330
18
100
AcDbEntity
  8
01
100
AcDbSpline
210
0.0
220
0.0
230
1.0
 70
     8
 71
     3
 72
    17
 73
    13
 74
     0
 42
0.0000000001
 43
0.0000000001
 40
0.0
 40
0.0
 40
0.0
 40
0.0
 40
0.1027521421220898
 40
0.2062134109484129
 40
0.3119157340077762
 40
0.4183981049806803
 40
0.5211526172755678
 40
0.6246184250955331
 40
0.7303373569490398
 40
0.8368370407633615
 40
0.9391113668107673
 40
1.0
 40
1.0
 40
1.0
 40
1.0
 10
5136.95879237275
 20
-276.2116150041517
 30
0.0
 10
5137.561094213353
 20
-275.6551324483056
 30
0.0
 10
5138.769854579863
 20
-274.538326865431
 30
0.0
 10
5140.767868089583
 20
-273.048692245785
 30
0.0
 10
5142.899612936594
 20
-271.7048286894463
 30
0.0
 10
5145.136268476911
 20
-270.5539758676783
 30
0.0
 10
5147.445288999867
 20
-269.6036451657898
 30
0.0
 10
5149.819057449864
 20
-268.8492776131822
 30
0.0
 10
5152.277606818531
 20
-268.2893259835538
 30
0.0
 10
5154.765136819513
 20
-267.9525639133213
 30
0.0
 10
5156.916100799812
 20
-267.8136158164881
 30
0.0
 10
5158.216828416604
 20
-267.8697343951795
 30
0.0
 10
5158.702229803711
 20
-267.8906765475468
 30
0.0
  0
SPLINE
  5
AF77
330
18
100
AcDbEntity
  8
01
100
AcDbSpline
210
0.0
220
0.0
230
1.0
 70
     8
 71
     3
 72
    25
 73
    21
 74
     0
 42
0.0000000001
 43
0.0000000001
 40
0.0
 40
0.0
 40
0.0
 40
0.0
 40
0.020443690518632
 40
0.0416842360318415
 40
0.0635401523046719
 40
0.0953136583097774
 40
0.1270826816230924
 40
0.1584789877891589
 40
0.1901599105423033
 40
0.2215733258829723
 40
0.2529223058208761
 40
0.3778148536483753
 40
0.440260812867435
 40
0.502364516927418
 40
0.5609405409526983
 40
0.6295472390658604
 40
0.7068721157398279
 40
0.7957060732079316
 40
0.8932841890886968
 40
1.0
 40
1.0
 40
1.0
 40
1.0
 10
5140.311563464826
 20
-279.2226033388705
 30
0.0
 10
5140.236424058201
 20
-279.2124596342863
 30
0.0
 10
5140.083216458126
 20
-279.191776843391
 30
0.0
 10
5139.861729393606
 20
-279.1596148690988
 30
0.0
 10
5139.611611498818
 20
-279.1209959763963
 30
0.0
 10
5139.343680912924
 20
-279.0753559656283
 30
0.0
 10
5139.067136851076
 20
-279.0225606695727
 30
0.0
 10
5138.8113946499
 20
-278.9673775365208
 30
0.0
 10
5138.578324390081
 20
-278.9086038279964
 30
0.0
 10
5138.362016947813
 20
-278.8493681706879
 30
0.0
 10
5137.970314939874
 20
-278.7250377537445
 30
0.0
 10
5137.612021906721
 20
-278.5666188797983
 30
0.0
 10
5137.312420032461
 20
-278.3655318901848
 30
0.0
 10
5137.138690351644
 20
-278.208567760273
 30
0.0
 10
5136.999988931778
 20
-278.0360442708519
 30
0.0
 10
5136.890670486072
 20
-277.8366212948746
 30
0.0
 10
5136.808559756191
 20
-277.5922946303893
 30
0.0
 10
5136.758864323394
 20
-277.2947653019602
 30
0.0
 10
5136.739006558388
 20
-276.9414720834103
 30
0.0
 10
5136.738848614877
 20
-276.6689880444823
 30
0.0
 10
5136.738766110859
 20
-276.5266521677814
 30
0.0
  0
SPLINE
  5
AF78
330
18
100
AcDbEntity
  8
01
100
AcDbSpline
210
0.0
220
0.0
230
1.0
 70
     8
 71
     3
 72
    11
 73
     7
 74
     0
 42
0.0000000001
 43
0.0000000001
 40
0.0
 40
0.0
 40
0.0
 40
0.0
 40
0.2216950894975427
 40
0.4994517047591367
 40
0.7963800931780699
 40
1.0
 40
1.0
 40
1.0
 40
1.0
 10
5141.108149089532
 20
-279.3125814136607
 30
0.0
 10
5141.04619530081
 20
-279.3059505546418
 30
0.0
 10
5140.906621052846
 20
-279.291012046764
 30
0.0
 10
5140.690895899974
 20
-279.2680147018351
 30
0.0
 10
5140.487069173418
 20
-279.2450005591016
 30
0.0
 10
5140.362313350897
 20
-279.2290798027085
 30
0.0
 10
5140.311563464826
 20
-279.2226033388705
 30
0.0
  0
SPLINE
  5
AF79
330
18
100
AcDbEntity
  8
01
100
AcDbSpline
210
0.0
220
0.0
230
1.0
 70
     8
 71
     3
 72
    41
 73
    37
 74
     0
 42
0.0000000001
 43
0.0000000001
 40
0.0
 40
0.0
 40
0.0
 40
0.0
 40
0.0114489762641433
 40
0.0309000981216197
 40
0.0618338917828738
 40
0.1060783938912422
 40
0.1237492459189354
 40
0.1734141874155783
 40
0.2107874952692292
 40
0.2483101138206835
 40
0.2640583552470448
 40
0.2796788498985274
 40
0.3112057421399345
 40
0.3742128119562008
 40
0.398001649120295
 40
0.4372534441609353
 40
0.4688276972099427
 40
0.5003867671154678
 40
0.5318069163422642
 40
0.5631157733583719
 40
0.5943380166081621
 40
0.6255070107510425
 40
0.6566424979599308
 40
0.6877743526009893
 40
0.7033607003994717
 40
0.7189529191105649
 40
0.750182388201726
 40
0.7815173884834065
 40
0.8129643191218231
 40
0.8443887224997507
 40
0.8756464972691319
 40
0.906822630404734
 40
0.9379063013111472
 40
0.968957989908985
 40
0.9843409522891742
 40
1.0
 40
1.0
 40
1.0
 40
1.0
 10
5165.881172329425
 20
-279.8871526675774
 30
0.0
 10
5165.758758493264
 20
-279.8882965901417
 30
0.0
 10
5165.428370914363
 20
-279.8913839683197
 30
0.0
 10
5164.769132114297
 20
-279.8981649898889
 30
0.0
 10
5163.764978267962
 20
-279.9064134678271
 30
0.0
 10
5162.787950411416
 20
-279.9119475425556
 30
0.0
 10
5161.622016284088
 20
-279.9192610944305
 30
0.0
 10
5160.537862804459
 20
-279.9227624680719
 30
0.0
 10
5159.26414276046
 20
-279.9259129002752
 30
0.0
 10
5158.34989413652
 20
-279.9234125694539
 30
0.0
 10
5157.661887845528
 20
-279.9209681298154
 30
0.0
 10
5157.036689310002
 20
-279.9213430400638
 30
0.0
 10
5155.954682564463
 20
-279.9130173915913
 30
0.0
 10
5154.816522240469
 20
-279.9031789025199
 30
0.0
 10
5153.634523643199
 20
-279.8841056572211
 30
0.0
 10
5152.76372871572
 20
-279.8690364519304
 30
0.0
 10
5151.843683512503
 20
-279.8487324843967
 30
0.0
 10
5151.015604581675
 20
-279.8233476531128
 30
0.0
 10
5150.207305260888
 20
-279.803017750396
 30
0.0
 10
5149.427220488867
 20
-279.7733874759557
 30
0.0
 10
5148.669632579498
 20
-279.7464447754409
 30
0.0
 10
5147.936229138336
 20
-279.7185052678579
 30
0.0
 10
5147.230768807919
 20
-279.6852521446943
 30
0.0
 10
5146.657301115302
 20
-279.6648251358423
 30
0.0
 10
5146.213955160135
 20
-279.6439643450336
 30
0.0
 10
5145.778821743055
 20
-279.6225850739592
 30
0.0
 10
5145.24786143551
 20
-279.5972854310174
 30
0.0
 10
5144.636486392073
 20
-279.5649120948721
 30
0.0
 10
5144.047223078316
 20
-279.5343776189058
 30
0.0
 10
5143.48957675453
 20
-279.4989284380982
 30
0.0
 10
5142.955325374893
 20
-279.4666263180649
 30
0.0
 10
5142.451525581963
 20
-279.4308083038337
 30
0.0
 10
5141.97959369051
 20
-279.390099431405
 30
0.0
 10
5141.601735682086
 20
-279.3611109082793
 30
0.0
 10
5141.314415051997
 20
-279.3346413571027
 30
0.0
 10
5141.17731087514
 20
-279.3199781991535
 30
0.0
 10
5141.108149089532
 20
-279.3125814136607
 30
0.0
  0
SPLINE
  5
AF7A
330
18
100
AcDbEntity
  8
01
100
AcDbSpline
210
0.0
220
0.0
230
1.0
 70
     8
 71
     3
 72
    10
 73
     6
 74
     0
 42
0.0000000001
 43
0.0000000001
 40
0.0
 40
0.0
 40
0.0
 40
0.0
 40
0.5
 40
0.5
 40
1.0
 40
1.0
 40
1.0
 40
1.0
 10
5168.034870465597
 20
-279.8652417398399
 30
0.0
 10
5167.669155393075
 20
-279.8690102359363
 30
0.0
 10
5167.308481861925
 20
-279.8727248058664
 30
0.0
 10
5166.599009725201
 20
-279.8799900670764
 30
0.0
 10
5166.246022299971
 20
-279.8835667116392
 30
0.0
 10
5165.881172329425
 20
-279.8871526675774
 30
0.0
  0
SPLINE
  5
AF7B
330
18
100
AcDbEntity
  8
01
100
AcDbSpline
210
0.0
220
0.0
230
1.0
 70
     8
 71
     3
 72
    18
 73
    14
 74
     0
 42
0.0000000001
 43
0.0000000001
 40
0.0
 40
0.0
 40
0.0
 40
0.0
 40
0.0582108801254613
 40
0.1251510386741538
 40
0.2016532680038702
 40
0.2854158726050685
 40
0.3836273549491543
 40
0.4995506637617876
 40
0.6248154598482291
 40
0.7499928382852261
 40
0.8082344741527869
 40
0.8919943100759603
 40
1.0
 40
1.0
 40
1.0
 40
1.0
 10
5184.982438647071
 20
-279.6235469067093
 30
0.0
 10
5184.650538270939
 20
-279.6296105391945
 30
0.0
 10
5183.93696588173
 20
-279.6426471038716
 30
0.0
 10
5182.787706569126
 20
-279.6617124461069
 30
0.0
 10
5181.493553407087
 20
-279.6819331211606
 30
0.0
 10
5180.022606178994
 20
-279.7038735851248
 30
0.0
 10
5178.329533983851
 20
-279.7286645997123
 30
0.0
 10
5176.404505356837
 20
-279.7560469784513
 30
0.0
 10
5174.332923756934
 20
-279.7850257651354
 30
0.0
 10
5172.594563634758
 20
-279.8097948700362
 30
0.0
 10
5171.096215783423
 20
-279.8296385580071
 30
0.0
 10
5169.698431119198
 20
-279.8463572119473
 30
0.0
 10
5168.634240941046
 20
-279.858437762818
 30
0.0
 10
5168.034870465597
 20
-279.8652417398399
 30
0.0
  0
SPLINE
  5
AF7C
330
18
100
AcDbEntity
  8
01
100
AcDbSpline
210
0.0
220
0.0
230
1.0
 70
     8
 71
     3
 72
     9
 73
     5
 74
     0
 42
0.0000000001
 43
0.0000000001
 40
0.0
 40
0.0
 40
0.0
 40
0.0
 40
0.4070202330711345
 40
1.0
 40
1.0
 40
1.0
 40
1.0
 10
5188.229958458212
 20
-279.5661825253766
 30
0.0
 10
5187.789304181833
 20
-279.5734148919734
 30
0.0
 10
5186.706669362791
 20
-279.5911839511238
 30
0.0
 10
5185.624276006945
 20
-279.6114999377152
 30
0.0
 10
5184.982438647071
 20
-279.6235469067093
 30
0.0
  0
SPLINE
  5
AF7D
330
18
100
AcDbEntity
  8
01
100
AcDbSpline
210
0.0
220
0.0
230
1.0
 70
     8
 71
     3
 72
    18
 73
    14
 74
     0
 42
0.0000000001
 43
0.0000000001
 40
0.0
 40
0.0
 40
0.0
 40
0.0
 40
0.1102000840270075
 40
0.193855855235799
 40
0.2498123572489872
 40
0.3747979022931479
 40
0.437295447020205
 40
0.4998144407080634
 40
0.5623367768137048
 40
0.6248472647046767
 40
0.7498744974815041
 40
0.8733780606348572
 40
1.0
 40
1.0
 40
1.0
 40
1.0
 10
5201.193022145219
 20
-279.388849661084
 30
0.0
 10
5200.717995734416
 20
-279.3941171882865
 30
0.0
 10
5199.882364328696
 20
-279.4033834334065
 30
0.0
 10
5198.804608966087
 20
-279.4163496946338
 30
0.0
 10
5197.662811302196
 20
-279.4323279786978
 30
0.0
 10
5196.612002370106
 20
-279.452240459386
 30
0.0
 10
5195.532791014113
 20
-279.480328197889
 30
0.0
 10
5194.722617196798
 20
-279.4977230689204
 30
0.0
 10
5193.911596026536
 20
-279.5046680019678
 30
0.0
 10
5192.829932774726
 20
-279.5104373991704
 30
0.0
 10
5191.484231838247
 20
-279.5240692196495
 30
0.0
 10
5189.860660437235
 20
-279.5422056950246
 30
0.0
 10
5188.778024945613
 20
-279.5581240957191
 30
0.0
 10
5188.229958458212
 20
-279.5661825253766
 30
0.0
  0
SPLINE
  5
AF7E
330
18
100
AcDbEntity
  8
01
100
AcDbSpline
210
0.0
220
0.0
230
1.0
 70
     8
 71
     3
 72
    11
 73
     7
 74
     0
 42
0.0000000001
 43
0.0000000001
 40
3.253950710943755
 40
3.253950710943755
 40
3.253950710943755
 40
3.253950710943755
 40
4.06743842291407
 40
4.88092613507314
 40
5.69441384723222
 40
6.368605022613274
 40
6.368605022613274
 40
6.368605022613274
 40
6.368605022613274
 10
5135.821309669576
 20
-280.845698500718
 30
0.0
 10
5135.821291379699
 20
-280.4583800591944
 30
0.0
 10
5135.863679873806
 20
-279.6843085682723
 30
0.0
 10
5136.053564589665
 20
-278.5365491939689
 30
0.0
 10
5136.349628906216
 20
-277.4803053361421
 30
0.0
 10
5136.608318251378
 20
-276.8198671952306
 30
0.0
 10
5136.738766112758
 20
-276.5266521635111
 30
0.0
  0
SPLINE
  5
AF7F
330
18
100
AcDbEntity
  8
01
100
AcDbSpline
210
0.0
220
0.0
230
1.0
 70
     8
 71
     3
 72
    18
 73
    14
 74
     0
 42
0.0000000001
 43
0.0000000001
 40
0.0
 40
0.0
 40
0.0
 40
0.0
 40
0.0850941064112171
 40
0.1679943552536444
 40
0.2501262793465782
 40
0.3751534789463566
 40
0.4376639502496358
 40
0.5001862697644421
 40
0.5627052468623305
 40
0.6252027750051491
 40
0.7501882868833246
 40
0.8448982750794704
 40
1.0
 40
1.0
 40
1.0
 40
1.0
 10
5188.229958458212
 20
-282.1252144760593
 30
0.0
 10
5188.598277338524
 20
-282.1306803075751
 30
0.0
 10
5189.32541926921
 20
-282.1414710530231
 30
0.0
 10
5190.407976001741
 20
-282.155407623642
 30
0.0
 10
5191.663225081284
 20
-282.1691101354801
 30
0.0
 10
5192.829932586826
 20
-282.1809641273827
 30
0.0
 10
5193.91159601299
 20
-282.1867281410133
 30
0.0
 10
5194.722617395364
 20
-282.193674186481
 30
0.0
 10
5195.532790233563
 20
-282.2110686462137
 30
0.0
 10
5196.612006526705
 20
-282.2391570948865
 30
0.0
 10
5197.830061284773
 20
-282.2622351907736
 30
0.0
 10
5199.447422016251
 20
-282.2831659053696
 30
0.0
 10
5200.524371600211
 20
-282.2951232992735
 30
0.0
 10
5201.193022145219
 20
-282.3025473403521
 30
0.0
  0
SPLINE
  5
AF80
330
18
100
AcDbEntity
  8
01
100
AcDbSpline
210
0.0
220
0.0
230
1.0
 70
     8
 71
     3
 72
    11
 73
     7
 74
     0
 42
0.0000000001
 43
0.0000000001
 40
0.0
 40
0.0
 40
0.0
 40
0.0
 40
0.3214865501816755
 40
0.5929812495934518
 40
0.8197256890643895
 40
1.0
 40
1.0
 40
1.0
 40
1.0
 10
5184.982438647071
 20
-282.0678500947266
 30
0.0
 10
5185.330393129703
 20
-282.0743148725211
 30
0.0
 10
5185.972194423711
 20
-282.0862391412426
 30
0.0
 10
5186.859584094182
 20
-282.1023253894247
 30
0.0
 10
5187.594139065111
 20
-282.1151445790284
 30
0.0
 10
5188.034788600919
 20
-282.1221234404794
 30
0.0
 10
5188.229958458212
 20
-282.1252144760593
 30
0.0
  0
SPLINE
  5
AF81
330
18
100
AcDbEntity
  8
01
100
AcDbSpline
210
0.0
220
0.0
230
1.0
 70
     8
 71
     3
 72
    19
 73
    15
 74
     0
 42
0.0000000001
 43
0.0000000001
 40
0.0
 40
0.0
 40
0.0
 40
0.0
 40
0.0469735665511625
 40
0.0917776246393095
 40
0.1346835869123842
 40
0.1755817186042582
 40
0.2140079753782441
 40
0.25001182459125
 40
0.3751734492694217
 40
0.5004547036028041
 40
0.6264000106335657
 40
0.7502612247197816
 40
0.8737588958666632
 40
1.0
 40
1.0
 40
1.0
 40
1.0
 10
5168.034870465597
 20
-281.826155261596
 30
0.0
 10
5168.295227239434
 20
-281.8290978316762
 30
0.0
 10
5168.803916019442
 20
-281.8348470670891
 30
0.0
 10
5169.553278116286
 20
-281.8435451332701
 30
0.0
 10
5170.270560248217
 20
-281.8520786913965
 30
0.0
 10
5170.95383619299
 20
-281.8604435195067
 30
0.0
 10
5171.599797779334
 20
-281.8685978762434
 30
0.0
 10
5172.71973785821
 20
-281.8832715531954
 30
0.0
 10
5174.3327474224
 20
-281.9051971053374
 30
0.0
 10
5176.461087625011
 20
-281.936119205228
 30
0.0
 10
5178.588851295055
 20
-281.9676976351199
 30
0.0
 10
5180.711321575994
 20
-281.9974952014273
 30
0.0
 10
5182.838848069284
 20
-282.0288153353234
 30
0.0
 10
5184.262694702869
 20
-282.0547435659031
 30
0.0
 10
5184.982438647071
 20
-282.0678500947266
 30
0.0
  0
SPLINE
  5
AF82
330
18
100
AcDbEntity
  8
01
100
AcDbSpline
210
0.0
220
0.0
230
1.0
 70
     8
 71
     3
 72
    10
 73
     6
 74
     0
 42
0.0000000001
 43
0.0000000001
 40
0.0
 40
0.0
 40
0.0
 40
0.0
 40
0.5
 40
0.5
 40
1.0
 40
1.0
 40
1.0
 40
1.0
 10
5165.881172329425
 20
-281.8042443338587
 30
0.0
 10
5166.246022299971
 20
-281.8078302897967
 30
0.0
 10
5166.599009725201
 20
-281.8114069343595
 30
0.0
 10
5167.308481861925
 20
-281.8186721955695
 30
0.0
 10
5167.669155393075
 20
-281.8223867654996
 30
0.0
 10
5168.034870465597
 20
-281.826155261596
 30
0.0
  0
SPLINE
  5
AF83
330
18
100
AcDbEntity
  8
01
100
AcDbSpline
210
0.0
220
0.0
230
1.0
 70
     8
 71
     3
 72
    42
 73
    38
 74
     0
 42
0.0000000001
 43
0.0000000001
 40
0.0
 40
0.0
 40
0.0
 40
0.0
 40
0.0156603615417775
 40
0.0310416896499285
 40
0.046571209034249
 40
0.062094044411619
 40
0.0931776779952775
 40
0.1243537736971032
 40
0.155611510934679
 40
0.1870358765807279
 40
0.2184827694602169
 40
0.2498177321173663
 40
0.2812767926697019
 40
0.3122244953695483
 40
0.3277950011600456
 40
0.3433572545657043
 40
0.3744927043896173
 40
0.4056616611072971
 40
0.4368838668679451
 40
0.4681926862909129
 40
0.4996127977909381
 40
0.531171829802888
 40
0.5627460449400886
 40
0.6019978040784633
 40
0.6257866014491477
 40
0.6761828193304857
 40
0.7140298576085327
 40
0.7516911844787022
 40
0.7674918518517193
 40
0.7829697561473816
 40
0.8141443552234594
 40
0.8762509026615218
 40
0.8939218139846664
 40
0.9381661824615474
 40
0.9690999389800075
 40
0.9885509375723037
 40
0.9999999999999999
 40
0.9999999999999999
 40
0.9999999999999999
 40
0.9999999999999999
 10
5141.108149089532
 20
-282.3788155877754
 30
0.0
 10
5141.177582024043
 20
-282.3716796774437
 30
0.0
 10
5141.315210749843
 20
-282.3575350031148
 30
0.0
 10
5141.529771856445
 20
-282.3367406418257
 30
0.0
 10
5141.752216756225
 20
-282.3185877181623
 30
0.0
 10
5142.058243819406
 20
-282.2946031343866
 30
0.0
 10
5142.451487620999
 20
-282.2605614359039
 30
0.0
 10
5142.955335346714
 20
-282.2247776037544
 30
0.0
 10
5143.489574965482
 20
-282.192468246934
 30
0.0
 10
5144.047220172117
 20
-282.1570136415795
 30
0.0
 10
5144.636499797274
 20
-282.1265081624366
 30
0.0
 10
5145.249304164106
 20
-282.093945413974
 30
0.0
 10
5145.886481811655
 20
-282.0640193371322
 30
0.0
 10
5146.434712760175
 20
-282.0362663745738
 30
0.0
 10
5146.886776508331
 20
-282.0182701480045
 30
0.0
 10
5147.348328273378
 20
-282.0006773474755
 30
0.0
 10
5147.936226943281
 20
-281.9728667114638
 30
0.0
 10
5148.66963317021
 20
-281.9449589470925
 30
0.0
 10
5149.427220325431
 20
-281.9180077129998
 30
0.0
 10
5150.207305322037
 20
-281.8883797576151
 30
0.0
 10
5151.015604500853
 20
-281.8680491422716
 30
0.0
 10
5151.843683775561
 20
-281.8426648329151
 30
0.0
 10
5152.763727745139
 20
-281.8223593788099
 30
0.0
 10
5153.634527972212
 20
-281.807295908459
 30
0.0
 10
5154.698252973822
 20
-281.7901122347038
 30
0.0
 10
5155.772083695409
 20
-281.7798115339909
 30
0.0
 10
5157.003601277505
 20
-281.7699602367821
 30
0.0
 10
5157.912795032799
 20
-281.7688985409526
 30
0.0
 10
5158.605568163728
 20
-281.768485310669
 30
0.0
 10
5159.236212401398
 20
-281.765509293593
 30
0.0
 10
5160.345113214626
 20
-281.7683718496784
 30
0.0
 10
5161.492015198537
 20
-281.771311901273
 30
0.0
 10
5162.787949477829
 20
-281.7794526688734
 30
0.0
 10
5163.764979565648
 20
-281.7849827429965
 30
0.0
 10
5164.769130993314
 20
-281.793232109463
 30
0.0
 10
5165.42836985493
 20
-281.8000130147435
 30
0.0
 10
5165.758757427395
 20
-281.8031003990435
 30
0.0
 10
5165.881172329425
 20
-281.8042443338587
 30
0.0
  0
SPLINE
  5
AF84
330
18
100
AcDbEntity
  8
01
100
AcDbSpline
210
0.0
220
0.0
230
1.0
 70
     8
 71
     3
 72
    11
 73
     7
 74
     0
 42
0.0000000001
 43
0.0000000001
 40
0.0
 40
0.0
 40
0.0
 40
0.0
 40
0.2036186223160193
 40
0.5005482952078586
 40
0.7783053996265139
 40
1.0
 40
1.0
 40
1.0
 40
1.0
 10
5140.311563464826
 20
-282.4687936625654
 30
0.0
 10
5140.362313029599
 20
-282.4623172406297
 30
0.0
 10
5140.487068849285
 20
-282.4463964868095
 30
0.0
 10
5140.690895679104
 20
-282.4233823218379
 30
0.0
 10
5140.906621183161
 20
-282.4003849364318
 30
0.0
 10
5141.046195435541
 20
-282.3854464310542
 30
0.0
 10
5141.108149089532
 20
-282.3788155877754
 30
0.0
  0
SPLINE
  5
AF85
330
18
100
AcDbEntity
  8
01
100
AcDbSpline
210
0.0
220
0.0
230
1.0
 70
     8
 71
     3
 72
    29
 73
    25
 74
     0
 42
0.0000000001
 43
0.0000000001
 40
0.0
 40
0.0
 40
0.0
 40
0.0
 40
0.0556245364844182
 40
0.1103425895735767
 40
0.1638569423192015
 40
0.2155711735687713
 40
0.2666359731633604
 40
0.3161965437560486
 40
0.3631283403353917
 40
0.4093874337142959
 40
0.4543182125810428
 40
0.4976303727267803
 40
0.5597352490853228
 40
0.6221786102746923
 40
0.6537338548933582
 40
0.6845665873345262
 40
0.715810338154702
 40
0.7470880005367511
 40
0.8098468296341825
 40
0.8729197064231002
 40
0.9046890484379566
 40
0.9364615661404408
 40
0.9666226413430622
 40
1.0
 40
1.0
 40
1.0
 40
1.0
 10
5136.738766110859
 20
-285.1647448336545
 30
0.0
 10
5136.738816166822
 20
-285.0898082417735
 30
0.0
 10
5136.738915463016
 20
-284.9411562596707
 30
0.0
 10
5136.742163771826
 20
-284.7314283989364
 30
0.0
 10
5136.751288537651
 20
-284.5351276000573
 30
0.0
 10
5136.768601942801
 20
-284.3506818661009
 30
0.0
 10
5136.796358596878
 20
-284.1785712485467
 30
0.0
 10
5136.83608737763
 20
-284.0185328368294
 30
0.0
 10
5136.889121148717
 20
-283.8710277689671
 30
0.0
 10
5136.956323499649
 20
-283.7337983307876
 30
0.0
 10
5137.039215968615
 20
-283.606240104696
 30
0.0
 10
5137.153119481125
 20
-283.4696479494286
 30
0.0
 10
5137.312009437233
 20
-283.3253252253791
 30
0.0
 10
5137.499765522969
 20
-283.1998772953126
 30
0.0
 10
5137.67760570706
 20
-283.1048738038245
 30
0.0
 10
5137.823725447462
 20
-283.0346677310746
 30
0.0
 10
5137.987577331911
 20
-282.9695922101624
 30
0.0
 10
5138.224976611059
 20
-282.8822093048788
 30
0.0
 10
5138.569141706697
 20
-282.7817445846609
 30
0.0
 10
5138.97487739688
 20
-282.6864884830349
 30
0.0
 10
5139.343231388833
 20
-282.6156548730734
 30
0.0
 10
5139.638033109652
 20
-282.5660299535351
 30
0.0
 10
5139.958072622808
 20
-282.5171599961437
 30
0.0
 10
5140.189822824734
 20
-282.4854508081229
 30
0.0
 10
5140.311563464826
 20
-282.4687936625654
 30
0.0
  0
SPLINE
  5
AF86
330
18
100
AcDbEntity
  8
01
100
AcDbSpline
210
0.0
220
0.0
230
1.0
 70
     8
 71
     3
 72
    11
 73
     7
 74
     0
 42
0.0000000001
 43
0.0000000001
 40
3.253950711133887
 40
3.253950711133887
 40
3.253950711133887
 40
3.253950711133887
 40
3.928141886514314
 40
4.741629598673394
 40
5.555117310832464
 40
6.368605022612646
 40
6.368605022612646
 40
6.368605022612646
 40
6.368605022612646
 10
5136.738766112758
 20
-285.1647448379243
 30
0.0
 10
5136.608318251378
 20
-284.8715298062051
 30
0.0
 10
5136.349628906216
 20
-284.2110916652938
 30
0.0
 10
5136.053564589665
 20
-283.1548478074673
 30
0.0
 10
5135.863679873806
 20
-282.0070884331636
 30
0.0
 10
5135.821291379699
 20
-281.2330169422415
 30
0.0
 10
5135.821309669576
 20
-280.845698500718
 30
0.0
  0
SPLINE
  5
AF87
330
18
100
AcDbEntity
  8
01
100
AcDbSpline
210
0.0
220
0.0
230
1.0
 70
     8
 71
     3
 72
     8
 73
     4
 74
     0
 42
0.0000000001
 43
0.0000000001
 40
0.0
 40
0.0
 40
0.0
 40
0.0
 40
1.0
 40
1.0
 40
1.0
 40
1.0
 10
5136.738665010719
 20
-285.164789822894
 30
0.0
 10
5136.791142364171
 20
-285.2827132017816
 30
0.0
 10
5136.866024430976
 20
-285.3900363380177
 30
0.0
 10
5136.958741680213
 20
-285.4798343361812
 30
0.0
  0
SPLINE
  5
AF88
330
18
100
AcDbEntity
  8
01
100
AcDbSpline
210
0.0
220
0.0
230
1.0
 70
     8
 71
     3
 72
     8
 73
     4
 74
     0
 42
0.0000000001
 43
0.0000000001
 40
0.0
 40
0.0
 40
0.0
 40
0.0
 40
1.0
 40
1.0
 40
1.0
 40
1.0
 10
5136.958741680213
 20
-276.2115626652547
 30
0.0
 10
5136.866023850669
 20
-276.3013612254537
 30
0.0
 10
5136.79114269629
 20
-276.4086830533385
 30
0.0
 10
5136.738665010719
 20
-276.5266071785428
 30
0.0
  0
SPLINE
  5
AF89
330
18
100
AcDbEntity
  8
01
100
AcDbSpline
210
0.0
220
0.0
230
1.0
 70
     8
 71
     3
 72
    25
 73
    21
 74
     0
 42
0.0000000001
 43
0.0000000001
 40
0.0
 40
0.0
 40
0.0
 40
0.0
 40
0.0091000382611122
 40
0.0174197243594039
 40
0.024929705672642
 40
0.0316554211810434
 40
0.0479304093600386
 40
0.0636121251637702
 40
0.0772966321647635
 40
0.0948241793264012
 40
0.1105300914965124
 40
0.1261496825271736
 40
0.1732013897160555
 40
0.2507516065110412
 40
0.3542246785342706
 40
0.5004360421338326
 40
0.6250993302650615
 40
0.7502737634120228
 40
0.86683743784034
 40
1.0
 40
1.0
 40
1.0
 40
1.0
 10
5201.176971591631
 20
-279.0486009478046
 30
0.0
 10
5201.420133964361
 20
-279.0567267079874
 30
0.0
 10
5201.885606898213
 20
-279.0722814230927
 30
0.0
 10
5202.551338177203
 20
-279.0901264341686
 30
0.0
 10
5203.153369366553
 20
-279.1037511517189
 30
0.0
 10
5203.967386412077
 20
-279.1191512709883
 30
0.0
 10
5204.998736835061
 20
-279.1328346115839
 30
0.0
 10
5206.214261992915
 20
-279.1398820280832
 30
0.0
 10
5207.461929023319
 20
-279.138835284068
 30
0.0
 10
5208.708749048764
 20
-279.1311596428494
 30
0.0
 10
5210.006413425112
 20
-279.1258966226397
 30
0.0
 10
5212.086338048449
 20
-279.1162456393305
 30
0.0
 10
5215.802172902929
 20
-279.1017883015555
 30
0.0
 10
5221.828027274486
 20
-279.0830133170599
 30
0.0
 10
5230.437302490731
 20
-279.0654357395948
 30
0.0
 10
5240.234933857703
 20
-279.0576217050124
 30
0.0
 10
5250.554662124969
 20
-279.0603228110889
 30
0.0
 10
5260.073352470512
 20
-279.0704913346113
 30
0.0
 10
5269.794088233498
 20
-279.0855905025231
 30
0.0
 10
5276.261277434379
 20
-279.0971181178232
 30
0.0
 10
5279.709803691479
 20
-279.1032650361843
 30
0.0
  0
SPLINE
  5
AF8A
330
18
100
AcDbEntity
  8
01
100
AcDbSpline
210
0.0
220
0.0
230
1.0
 70
     8
 71
     3
 72
     8
 73
     4
 74
     0
 42
0.0000000001
 43
0.0000000001
 40
0.0
 40
0.0
 40
0.0
 40
0.0
 40
1.0
 40
1.0
 40
1.0
 40
1.0
 10
5279.709803691436
 20
-282.5881319649401
 30
0.0
 10
5279.711007719548
 20
-282.585470700703
 30
0.0
 10
5279.712206207424
 20
-282.5827706191591
 30
0.0
 10
5279.713398911688
 20
-282.5800322523966
 30
0.0
  0
SPLINE
  5
AF8B
330
18
100
AcDbEntity
  8
01
100
AcDbSpline
210
0.0
220
0.0
230
1.0
 70
     8
 71
     3
 72
    21
 73
    17
 74
     0
 42
0.0000000001
 43
0.0000000001
 40
0.0
 40
0.0
 40
0.0
 40
0.0
 40
0.1216695537439739
 40
0.2497276575236456
 40
0.3749044156174893
 40
0.499566927758002
 40
0.6282518102095372
 40
0.7492526960453342
 40
0.8738501557113327
 40
0.9051756942961631
 40
0.9203928096176576
 40
0.9363878465449245
 40
0.9520690623248007
 40
0.9683447375021705
 40
0.98258008552556
 40
1.0
 40
1.0
 40
1.0
 40
1.0
 10
5279.709803691479
 20
-282.5881319652518
 30
0.0
 10
5276.558915894137
 20
-282.5938150939386
 30
0.0
 10
5270.091695422483
 20
-282.6054797575351
 30
0.0
 10
5260.371867910729
 20
-282.6206429924583
 30
0.0
 10
5250.554847014514
 20
-282.6306489400059
 30
0.0
 10
5240.691552037237
 20
-282.6337185730662
 30
0.0
 10
5230.896758786272
 20
-282.6267062656067
 30
0.0
 10
5221.054015357048
 20
-282.607644052238
 30
0.0
 10
5213.729026772967
 20
-282.5817981683498
 30
0.0
 10
5209.185308594197
 20
-282.562576774577
 30
0.0
 10
5207.523212317195
 20
-282.5533323616902
 30
0.0
 10
5206.275849156582
 20
-282.551042579371
 30
0.0
 10
5204.998744727493
 20
-282.5585523892106
 30
0.0
 10
5203.767172952797
 20
-282.5750608775592
 30
0.0
 10
5202.488170062157
 20
-282.6008726460874
 30
0.0
 10
5201.642399667998
 20
-282.627914758872
 30
0.0
 10
5201.176971591631
 20
-282.6427960536313
 30
0.0
  0
SPLINE
  5
AF8C
330
18
100
AcDbEntity
  8
01
100
AcDbSpline
210
0.0
220
0.0
230
1.0
 70
     8
 71
     3
 72
    10
 73
     6
 74
     0
 42
0.0000000001
 43
0.0000000001
 40
0.0
 40
0.0
 40
0.0
 40
0.0
 40
0.2901150325820732
 40
0.6777054896061941
 40
0.9999999999999999
 40
0.9999999999999999
 40
0.9999999999999999
 40
0.9999999999999999
 10
5160.513758547622
 20
-293.2590894819879
 30
0.0
 10
5160.467216290965
 20
-293.3291579128553
 30
0.0
 10
5160.35849409703
 20
-293.4928369880976
 30
0.0
 10
5160.119566069761
 20
-293.6752705848654
 30
0.0
 10
5159.918797692283
 20
-293.7246815498519
 30
0.0
 10
5159.827646944075
 20
-293.7471145967528
 30
0.0
  0
SPLINE
  5
AF8D
330
18
100
AcDbEntity
  8
01
100
AcDbSpline
210
0.0
220
0.0
230
1.0
 70
     8
 71
     3
 72
    10
 73
     6
 74
     0
 42
0.0000000001
 43
0.0000000001
 40
0.0
 40
0.0
 40
0.0
 40
0.0
 40
0.2901150325814823
 40
0.6777054896048175
 40
1.0
 40
1.0
 40
1.0
 40
1.0
 10
5160.513758547623
 20
-268.4323075194501
 30
0.0
 10
5160.467216290966
 20
-268.3622390885824
 30
0.0
 10
5160.358494097031
 20
-268.1985600133399
 30
0.0
 10
5160.119566069762
 20
-268.0161264165712
 30
0.0
 10
5159.918797692284
 20
-267.9667154515843
 30
0.0
 10
5159.827646944076
 20
-267.9442824046831
 30
0.0
  0
LINE
  5
AF8E
330
18
100
AcDbEntity
  8
01
100
AcDbLine
 10
5269.60055507624
 20
-285.6984371435343
 30
0.0
 11
5269.985967176279
 21
-285.707420592221
 31
0.0
  0
SPLINE
  5
AF8F
330
18
100
AcDbEntity
  8
01
100
AcDbSpline
210
0.0
220
0.0
230
1.0
 70
     8
 71
     3
 72
     9
 73
     5
 74
     0
 42
0.0000000001
 43
0.0000000001
 40
0.0
 40
0.0
 40
0.0
 40
0.0
 40
0.5136099357955523
 40
1.0
 40
1.0
 40
1.0
 40
1.0
 10
5279.728736187496
 20
-282.5817971351718
 30
0.0
 10
5279.72567891161
 20
-282.583073235328
 30
0.0
 10
5279.719726386799
 20
-282.5855578059476
 30
0.0
 10
5279.713050633289
 20
-282.5872892628028
 30
0.0
 10
5279.709803613111
 20
-282.5881314262139
 30
0.0
  0
SPLINE
  5
AF90
330
18
100
AcDbEntity
  8
01
100
AcDbSpline
210
0.0
220
0.0
230
1.0
 70
     8
 71
     3
 72
    23
 73
    19
 74
     0
 42
0.0000000001
 43
0.0000000001
 40
0.0
 40
0.0
 40
0.0
 40
0.0
 40
0.0656033714939442
 40
0.1310451350362707
 40
0.1966792694675764
 40
0.2632111654527158
 40
0.3291633349126689
 40
0.3947371679983641
 40
0.4611291869441218
 40
0.5269967847064302
 40
0.5927509246569852
 40
0.6591560611152065
 40
0.7257392800099052
 40
0.7921615275325231
 40
0.8587163303667705
 40
0.9252129930252655
 40
0.9916877524870504
 40
1.0
 40
1.0
 40
1.0
 40
1.0
 10
5201.176971591645
 20
-282.6427960536308
 30
0.0
 10
5200.031693719453
 20
-282.7083068493824
 30
0.0
 10
5197.743959263163
 20
-282.8391670609861
 30
0.0
 10
5194.320817003257
 20
-283.0888783090091
 30
0.0
 10
5190.926111133886
 20
-283.5276392547495
 30
0.0
 10
5187.582101947893
 20
-284.0274223589867
 30
0.0
 10
5184.344999954503
 20
-284.5351565078546
 30
0.0
 10
5181.246493941713
 20
-285.1714440385568
 30
0.0
 10
5178.326701351954
 20
-285.8836933194965
 30
0.0
 10
5175.629958897382
 20
-286.6259646682707
 30
0.0
 10
5173.185067809382
 20
-287.4030628030374
 30
0.0
 10
5171.002462060093
 20
-288.189617699754
 30
0.0
 10
5169.092716722565
 20
-288.9597752521914
 30
0.0
 10
5167.450493637449
 20
-289.6938876647242
 30
0.0
 10
5166.05363243146
 20
-290.3728245455164
 30
0.0
 10
5164.89236869544
 20
-290.9664390814584
 30
0.0
 10
5164.17846143814
 20
-291.3371804834311
 30
0.0
 10
5163.863802685761
 20
-291.4821009135304
 30
0.0
 10
5163.828829746774
 20
-291.4982081831405
 30
0.0
  0
SPLINE
  5
AF91
330
18
100
AcDbEntity
  8
01
100
AcDbSpline
210
0.0
220
0.0
230
1.0
 70
     8
 71
     3
 72
    22
 73
    18
 74
     0
 42
0.0000000001
 43
0.0000000001
 40
0.0
 40
0.0
 40
0.0
 40
0.0
 40
0.0656840353314595
 40
0.1328349443517282
 40
0.200044565576434
 40
0.2671203273063091
 40
0.3343586441709732
 40
0.4014171264843696
 40
0.4678182072754769
 40
0.5343338621653453
 40
0.6013790979058941
 40
0.6675980978316787
 40
0.7341991565019349
 40
0.8013856455019711
 40
0.8676655400653362
 40
0.9337511710439206
 40
1.0
 40
1.0
 40
1.0
 40
1.0
 10
5163.955690798807
 20
-270.2527856925288
 30
0.0
 10
5164.263825139997
 20
-270.4067718567718
 30
0.0
 10
5164.88697516204
 20
-270.7181830460346
 30
0.0
 10
5166.057346852243
 20
-271.3215589169002
 30
0.0
 10
5167.449500273264
 20
-271.9967106540768
 30
0.0
 10
5169.092983416951
 20
-272.7318361763183
 30
0.0
 10
5171.002390716315
 20
-273.5017219400037
 30
0.0
 10
5173.18508669453
 20
-274.2883493823964
 30
0.0
 10
5175.629953849711
 20
-275.0654282747474
 30
0.0
 10
5178.326702718001
 20
-275.8077047802652
 30
0.0
 10
5181.246493579566
 20
-276.5199526717068
 30
0.0
 10
5184.345000051626
 20
-277.1562405716701
 30
0.0
 10
5187.582101921538
 20
-277.6639746212603
 30
0.0
 10
5190.926111140866
 20
-278.163757752298
 30
0.0
 10
5194.320817001412
 20
-278.6025186909441
 30
0.0
 10
5197.743959263625
 20
-278.8522299408211
 30
0.0
 10
5200.031693719607
 20
-278.9830901521774
 30
0.0
 10
5201.176971591645
 20
-279.0486009478053
 30
0.0
  0
SPLINE
  5
AF92
330
18
100
AcDbEntity
  8
01
100
AcDbSpline
210
0.0
220
0.0
230
1.0
 70
     8
 71
     3
 72
    14
 73
    10
 74
     0
 42
0.0000000001
 43
0.0000000001
 40
0.0
 40
0.0
 40
0.0
 40
0.0
 40
0.0185622469688945
 40
0.1270620624135872
 40
0.2407975520112173
 40
0.3725037176440312
 40
0.5171139176651486
 40
0.8398987082025917
 40
1.0
 40
1.0
 40
1.0
 40
1.0
 10
5010.821309671756
 20
-293.8458317825053
 30
0.0
 10
5010.858718789788
 20
-293.8456387354282
 30
0.0
 10
5011.114791219927
 20
-293.8443172919743
 30
0.0
 10
5011.672225631096
 20
-293.837214980984
 30
0.0
 10
5012.467448105926
 20
-293.8258707457372
 30
0.0
 10
5013.345670564386
 20
-293.808427204158
 30
0.0
 10
5014.68619152898
 20
-293.7744674183615
 30
0.0
 10
5016.084617825286
 20
-293.7288758772203
 30
0.0
 10
5017.139187356655
 20
-293.6832809920198
 30
0.0
 10
5017.488830782794
 20
-293.6681639690051
 30
0.0
  0
SPLINE
  5
AF93
330
18
100
AcDbEntity
  8
01
100
AcDbSpline
210
0.0
220
0.0
230
1.0
 70
     8
 71
     3
 72
    12
 73
     8
 74
     0
 42
0.0000000001
 43
0.0000000001
 40
0.0
 40
0.0
 40
0.0
 40
0.0
 40
0.0401698547536729
 40
0.3411777374538204
 40
0.6325212889559958
 40
0.9460058978808535
 40
1.0
 40
1.0
 40
1.0
 40
1.0
 10
5066.194213783136
 20
-283.5264898378447
 30
0.0
 10
5066.215994672219
 20
-283.5115565170801
 30
0.0
 10
5066.400987983809
 20
-283.3847221876423
 30
0.0
 10
5066.741860247189
 20
-283.1441011602529
 30
0.0
 10
5067.228856746141
 20
-282.796822846367
 30
0.0
 10
5067.566729917472
 20
-282.5524693116287
 30
0.0
 10
5067.728066631429
 20
-282.4344663723997
 30
0.0
 10
5067.751772034619
 20
-282.4171280543979
 30
0.0
  0
SPLINE
  5
AF94
330
18
100
AcDbEntity
  8
01
100
AcDbSpline
210
0.0
220
0.0
230
1.0
 70
     8
 71
     3
 72
    10
 73
     6
 74
     0
 42
0.0000000001
 43
0.0000000001
 40
0.0
 40
0.0
 40
0.0
 40
0.0
 40
0.146040426158701
 40
0.6612107395398832
 40
1.0
 40
1.0
 40
1.0
 40
1.0
 10
5067.751811971902
 20
-279.2749994478055
 30
0.0
 10
5067.685295188172
 20
-279.226357048573
 30
0.0
 10
5067.384134660782
 20
-279.0061243526317
 30
0.0
 10
5066.858623463149
 20
-278.6271361931541
 30
0.0
 10
5066.39171717185
 20
-278.3039566573017
 30
0.0
 10
5066.206482598718
 20
-278.1757424428343
 30
0.0
  0
SPLINE
  5
AF95
330
18
100
AcDbEntity
  8
01
100
AcDbSpline
210
0.0
220
0.0
230
1.0
 70
     8
 71
     3
 72
    13
 73
     9
 74
     0
 42
0.0000000001
 43
0.0000000001
 40
0.0
 40
0.0
 40
0.0
 40
0.0
 40
0.1376397423082653
 40
0.3724996244745542
 40
0.621520930286236
 40
0.8415508472244126
 40
0.9338705478899973
 40
1.0
 40
1.0
 40
1.0
 40
1.0
 10
5017.510613897324
 20
-268.0235735427424
 30
0.0
 10
5017.208720185993
 20
-268.0106635862049
 30
0.0
 10
5016.391693851764
 20
-267.9757248840416
 30
0.0
 10
5015.008872355502
 20
-267.9272618443248
 30
0.0
 10
5013.427042789659
 20
-267.8832915508757
 30
0.0
 10
5012.168274536485
 20
-267.8606796960722
 30
0.0
 10
5011.293025093314
 20
-267.8496113778511
 30
0.0
 10
5010.960252314017
 20
-267.8469278170779
 30
0.0
 10
5010.821368128229
 20
-267.8458078211644
 30
0.0
  0
SPLINE
  5
AF96
330
18
100
AcDbEntity
  8
01
100
AcDbSpline
210
0.0
220
0.0
230
1.0
 70
     8
 71
     3
 72
    11
 73
     7
 74
     0
 42
0.0000000001
 43
0.0000000001
 40
0.0
 40
0.0
 40
0.0
 40
0.0
 40
0.319824874171654
 40
0.6308024484827772
 40
0.9268636897749751
 40
0.9999999999999999
 40
0.9999999999999999
 40
0.9999999999999999
 40
0.9999999999999999
 10
5068.354814972082
 20
-280.8458080129031
 30
0.0
 10
5068.348796510325
 20
-280.7011027380769
 30
0.0
 10
5068.336926075225
 20
-280.4156951633687
 30
0.0
 10
5068.23406880019
 20
-280.0130089678352
 30
0.0
 10
5068.127237163168
 20
-279.7246776711073
 30
0.0
 10
5068.036894131767
 20
-279.5994184752964
 30
0.0
 10
5068.018997599289
 20
-279.574605213763
 30
0.0
  0
SPLINE
  5
AF97
330
18
100
AcDbEntity
  8
01
100
AcDbSpline
210
0.0
220
0.0
230
1.0
 70
     8
 71
     3
 72
    11
 73
     7
 74
     0
 42
0.0000000001
 43
0.0000000001
 40
0.0
 40
0.0
 40
0.0
 40
0.0
 40
0.0731363102249726
 40
0.3691975515169544
 40
0.6801751258280997
 40
1.0
 40
1.0
 40
1.0
 40
1.0
 10
5068.018997599289
 20
-282.1170108120424
 30
0.0
 10
5068.036894131767
 20
-282.0921975505099
 30
0.0
 10
5068.127237163168
 20
-281.966938354699
 30
0.0
 10
5068.23406880019
 20
-281.6786070579711
 30
0.0
 10
5068.336926075225
 20
-281.2759208624367
 30
0.0
 10
5068.348796510325
 20
-280.9905132877285
 30
0.0
 10
5068.354814972082
 20
-280.8458080129031
 30
0.0
  0
SPLINE
  5
AF98
330
18
100
AcDbEntity
  8
01
100
AcDbSpline
210
0.0
220
0.0
230
1.0
 70
     8
 71
     3
 72
     9
 73
     5
 74
     0
 42
0.0000000001
 43
0.0000000001
 40
0.0
 40
0.0
 40
0.0
 40
0.0
 40
0.4988707069244674
 40
1.0
 40
1.0
 40
1.0
 40
1.0
 10
5067.75082155358
 20
-282.4180827681231
 30
0.0
 10
5067.801116968271
 20
-282.377978022727
 30
0.0
 10
5067.901935505005
 20
-282.2975869617977
 30
0.0
 10
5067.977316029801
 20
-282.1906194749773
 30
0.0
 10
5068.015091418903
 20
-282.1370149339247
 30
0.0
  0
SPLINE
  5
AF99
330
18
100
AcDbEntity
  8
01
100
AcDbSpline
210
0.0
220
0.0
230
1.0
 70
     8
 71
     3
 72
     9
 73
     5
 74
     0
 42
0.0000000001
 43
0.0000000001
 40
0.0
 40
0.0
 40
0.0
 40
0.0
 40
0.5011292930755459
 40
1.0
 40
1.0
 40
1.0
 40
1.0
 10
5068.015091418903
 20
-279.5546010918816
 30
0.0
 10
5067.977316029801
 20
-279.500996550829
 30
0.0
 10
5067.901935505005
 20
-279.3940290640086
 30
0.0
 10
5067.801116968271
 20
-279.3136380030793
 30
0.0
 10
5067.75082155358
 20
-279.2735332576832
 30
0.0
  0
LINE
  5
AF9A
330
18
100
AcDbEntity
  8
01
100
AcDbLine
 10
5010.622581153039
 20
-290.8458080129031
 30
0.0
 11
5010.821413255015
 21
-290.8458080129031
 31
0.0
  0
LINE
  5
AF9B
330
18
100
AcDbEntity
  8
01
100
AcDbLine
 10
5010.821413255015
 20
-270.8458080129031
 30
0.0
 11
5010.622581153039
 21
-270.8458080129031
 31
0.0
  0
LINE
  5
AF9C
330
18
100
AcDbEntity
  8
01
100
AcDbLine
 10
5010.321309671755
 20
-288.7956986374749
 30
0.0
 11
5010.622581153039
 21
-288.7956986374749
 31
0.0
  0
LINE
  5
AF9D
330
18
100
AcDbEntity
  8
01
100
AcDbLine
 10
5010.622581153039
 20
-272.8956986374752
 30
0.0
 11
5010.321309671755
 21
-272.8956986374752
 31
0.0
  0
LINE
  5
AF9E
330
18
100
AcDbEntity
  8
01
100
AcDbLine
 10
5067.74571686402
 20
-282.4163796456716
 30
0.0
 11
5067.750438266135
 21
-282.415337762459
 31
0.0
  0
SPLINE
  5
AF9F
330
18
100
AcDbEntity
  8
01
100
AcDbSpline
210
0.0
220
0.0
230
1.0
 70
     8
 71
     3
 72
    26
 73
    22
 74
     0
 42
0.0000000001
 43
0.0000000001
 40
0.0
 40
0.0
 40
0.0
 40
0.0
 40
0.0373165497651963
 40
0.0908055401953221
 40
0.1437767361253174
 40
0.1974244706136056
 40
0.25085443392929
 40
0.3039926800512422
 40
0.3574992101681687
 40
0.4113637547766759
 40
0.4650461451924237
 40
0.5005494471460474
 40
0.529498350591898
 40
0.5939074411748861
 40
0.6582783236883577
 40
0.7223300093155087
 40
0.7860246637912249
 40
0.8495600792794306
 40
0.9131395499147736
 40
0.9769657452149769
 40
1.0
 40
1.0
 40
1.0
 40
1.0
 10
5066.202365156889
 20
-283.5051085775741
 30
0.0
 10
5066.045611804272
 20
-283.6150680533884
 30
0.0
 10
5065.66417051478
 20
-283.882641815264
 30
0.0
 10
5064.672663207121
 20
-284.3414710254575
 30
0.0
 10
5063.340550484001
 20
-284.9397039175293
 30
0.0
 10
5061.728055574198
 20
-285.6315407602452
 30
0.0
 10
5059.80541015063
 20
-286.350150653545
 30
0.0
 10
5057.610979611751
 20
-287.1010721799722
 30
0.0
 10
5055.171194263685
 20
-287.8713681678493
 30
0.0
 10
5052.500778291953
 20
-288.6283445324126
 30
0.0
 10
5050.003098681724
 20
-289.2885437300775
 30
0.0
 10
5047.793161639775
 20
-289.7783767697675
 30
0.0
 10
5045.436413579846
 20
-290.3361836824989
 30
0.0
 10
5042.379013659965
 20
-290.9283693238432
 30
0.0
 10
5038.59264803641
 20
-291.5786746816067
 30
0.0
 10
5034.742271719459
 20
-292.1341414454383
 30
0.0
 10
5030.851810239248
 20
-292.6144443109571
 30
0.0
 10
5026.920392894646
 20
-293.0273671850229
 30
0.0
 10
5022.948714835268
 20
-293.3601139267786
 30
0.0
 10
5019.799924733356
 20
-293.5781508676674
 30
0.0
 10
5017.972912849568
 20
-293.6403115132381
 30
0.0
 10
5017.488413204619
 20
-293.6567957030658
 30
0.0
  0
SPLINE
  5
AFA0
330
18
100
AcDbEntity
  8
01
100
AcDbSpline
210
0.0
220
0.0
230
1.0
 70
     8
 71
     3
 72
    26
 73
    22
 74
     0
 42
0.0000000001
 43
0.0000000001
 40
0.0
 40
0.0
 40
0.0
 40
0.0
 40
0.0376272056898338
 40
0.09180564309425
 40
0.145459611880207
 40
0.1997988394761991
 40
0.2539174889354845
 40
0.3077406611088224
 40
0.3619368642780393
 40
0.4164956965708579
 40
0.4320980364807161
 40
0.4708700267922965
 40
0.5361529896549736
 40
0.6013922819722277
 40
0.666592873736602
 40
0.7314701543226171
 40
0.7959858017999518
 40
0.8603401577769643
 40
0.9247391367504537
 40
0.989388020549287
 40
1.0
 40
1.0
 40
1.0
 40
1.0
 10
5066.200059626044
 20
-278.1850039338425
 30
0.0
 10
5066.043977782128
 20
-278.0755370350072
 30
0.0
 10
5065.663157739997
 20
-277.8084515881648
 30
0.0
 10
5064.672630699359
 20
-277.3501376944197
 30
0.0
 10
5063.340515431619
 20
-276.751924979999
 30
0.0
 10
5061.728231082204
 20
-276.0600305472163
 30
0.0
 10
5059.804748569095
 20
-275.3416300263581
 30
0.0
 10
5057.613444125493
 20
-274.5899315046146
 30
0.0
 10
5055.16189675131
 20
-273.8225576686165
 30
0.0
 10
5053.159868268509
 20
-273.2371263225961
 30
0.0
 10
5051.255513925797
 20
-272.7524881503042
 30
0.0
 10
5049.212275912585
 20
-272.2083693513433
 30
0.0
 10
5046.092140804254
 20
-271.5017765149297
 30
0.0
 10
5042.387706320407
 20
-270.7597506963149
 30
0.0
 10
5038.590330631892
 20
-270.1138813910676
 30
0.0
 10
5034.742892017792
 20
-269.557193226292
 30
0.0
 10
5030.851628398666
 20
-269.0773635596271
 30
0.0
 10
5026.920503005971
 20
-268.6637623802118
 30
0.0
 10
5022.948455447072
 20
-268.33326082833
 30
0.0
 10
5020.063355238054
 20
-268.1274144874279
 30
0.0
 10
5018.500783084518
 20
-268.0720320886059
 30
0.0
 10
5018.280456305531
 20
-268.064223024866
 30
0.0
  0
LINE
  5
AFA1
330
18
100
AcDbEntity
  8
01
100
AcDbLine
 10
5067.750802232437
 20
-279.2763585806707
 30
0.0
 11
5067.74571686402
 21
-279.2752363801347
 31
0.0
  0
SPLINE
  5
AFA2
330
18
100
AcDbEntity
  8
01
100
AcDbSpline
210
0.0
220
0.0
230
1.0
 70
     8
 71
     3
 72
    25
 73
    21
 74
     0
 42
0.0000000001
 43
0.0000000001
 40
0.0
 40
0.0
 40
0.0
 40
0.0
 40
0.020443690518632
 40
0.0416842360318415
 40
0.0635401523046719
 40
0.0953136583097774
 40
0.1270826816230924
 40
0.1584789877891589
 40
0.1901599105423033
 40
0.2215733258829723
 40
0.2529223058208761
 40
0.3778148536483753
 40
0.440260812867435
 40
0.502364516927418
 40
0.5609405409526983
 40
0.6295472390658604
 40
0.7068721157398279
 40
0.7957060732079316
 40
0.8932841890886968
 40
1.0
 40
1.0
 40
1.0
 40
1.0
 10
5042.683712862042
 20
-279.222712851055
 30
0.0
 10
5042.476648700478
 20
-279.2125691464718
 30
0.0
 10
5042.054449422099
 20
-279.1918863555767
 30
0.0
 10
5041.40663880533
 20
-279.159724381284
 30
0.0
 10
5040.639747893269
 20
-279.1211054885817
 30
0.0
 10
5039.759560070855
 20
-279.075465477814
 30
0.0
 10
5038.774939376859
 20
-279.0226701817575
 30
0.0
 10
5037.785860972437
 20
-278.9674870487062
 30
0.0
 10
5036.795370930813
 20
-278.9087133401819
 30
0.0
 10
5035.801640812925
 20
-278.849477682873
 30
0.0
 10
5033.819675689978
 20
-278.7251472659292
 30
0.0
 10
5031.491758398719
 20
-278.566728391983
 30
0.0
 10
5028.825440204036
 20
-278.36564140237
 30
0.0
 10
5026.863974500946
 20
-278.208677272458
 30
0.0
 10
5024.83425605491
 20
-278.0361537830369
 30
0.0
 10
5022.64005469831
 20
-277.8367308070593
 30
0.0
 10
5020.12089609123
 20
-277.5924041425743
 30
0.0
 10
5017.292160808536
 20
-277.2948748141454
 30
0.0
 10
5014.150247160645
 20
-276.9415815955955
 30
0.0
 10
5011.963625753735
 20
-276.6690975566672
 30
0.0
 10
5010.821413255015
 20
-276.5267616799666
 30
0.0
  0
SPLINE
  5
AFA3
330
18
100
AcDbEntity
  8
01
100
AcDbSpline
210
0.0
220
0.0
230
1.0
 70
     8
 71
     3
 72
    11
 73
     7
 74
     0
 42
0.0000000001
 43
0.0000000001
 40
0.0
 40
0.0
 40
0.0
 40
0.0
 40
0.2216950894975427
 40
0.4994517047591367
 40
0.7963800931780699
 40
1.0
 40
1.0
 40
1.0
 40
1.0
 10
5044.670905299998
 20
-279.3126909258455
 30
0.0
 10
5044.525310086536
 20
-279.3060600668269
 30
0.0
 10
5044.197302020445
 20
-279.2911215589485
 30
0.0
 10
5043.671388701698
 20
-279.2681242140198
 30
0.0
 10
5043.154594014766
 20
-279.2451100712871
 30
0.0
 10
5042.819874614534
 20
-279.2291893148941
 30
0.0
 10
5042.683712862042
 20
-279.2227128510559
 30
0.0
  0
SPLINE
  5
AFA4
330
18
100
AcDbEntity
  8
01
100
AcDbSpline
210
0.0
220
0.0
230
1.0
 70
     8
 71
     3
 72
    41
 73
    37
 74
     0
 42
0.0000000001
 43
0.0000000001
 40
0.0
 40
0.0
 40
0.0
 40
0.0
 40
0.0114489762641433
 40
0.0309000981216197
 40
0.0618338917828738
 40
0.1060783938912422
 40
0.1237492459189354
 40
0.1734141874155783
 40
0.2107874952692292
 40
0.2483101138206835
 40
0.2640583552470448
 40
0.2796788498985274
 40
0.3112057421399345
 40
0.3742128119562008
 40
0.398001649120295
 40
0.4372534441609353
 40
0.4688276972099427
 40
0.5003867671154678
 40
0.5318069163422642
 40
0.5631157733583719
 40
0.5943380166081621
 40
0.6255070107510425
 40
0.6566424979599308
 40
0.6877743526009893
 40
0.7033607003994717
 40
0.7189529191105649
 40
0.750182388201726
 40
0.7815173884834065
 40
0.8129643191218231
 40
0.8443887224997507
 40
0.8756464972691319
 40
0.906822630404734
 40
0.9379063013111472
 40
0.968957989908985
 40
0.9843409522891742
 40
1.0
 40
1.0
 40
1.0
 40
1.0
 10
5065.2924629824
 20
-279.8872621797628
 30
0.0
 10
5065.256837157622
 20
-279.8884061023265
 30
0.0
 10
5065.160685199933
 20
-279.8914934805044
 30
0.0
 10
5064.961840428949
 20
-279.8982745020741
 30
0.0
 10
5064.642065642403
 20
-279.9065229800127
 30
0.0
 10
5064.303161588927
 20
-279.9120570547403
 30
0.0
 10
5063.87355621946
 20
-279.9193706066154
 30
0.0
 10
5063.443512296858
 20
-279.9228719802569
 30
0.0
 10
5062.893796409573
 20
-279.9260224124602
 30
0.0
 10
5062.46548478965
 20
-279.9235220816391
 30
0.0
 10
5062.126045314077
 20
-279.9210776420006
 30
0.0
 10
5061.810223778499
 20
-279.9214525522494
 30
0.0
 10
5061.232052110007
 20
-279.9131269037763
 30
0.0
 10
5060.566579991775
 20
-279.9032884147047
 30
0.0
 10
5059.809575688998
 20
-279.8842151694063
 30
0.0
 10
5059.216119659596
 20
-279.8691459641151
 30
0.0
 10
5058.542644237223
 20
-279.8488419965817
 30
0.0
 10
5057.892497906018
 20
-279.8234571652976
 30
0.0
 10
5057.222318458505
 20
-279.8031272625814
 30
0.0
 10
5056.525404157725
 20
-279.7734969881404
 30
0.0
 10
5055.808188339968
 20
-279.7465542876263
 30
0.0
 10
5055.06886179609
 20
-279.7186147800431
 30
0.0
 10
5054.304541432154
 20
-279.6853616568789
 30
0.0
 10
5053.654431444537
 20
-279.6649346480273
 30
0.0
 10
5053.120980286574
 20
-279.6440738572184
 30
0.0
 10
5052.579477373291
 20
-279.6226945861437
 30
0.0
 10
5051.890100927261
 20
-279.5973949432029
 30
0.0
 10
5051.040676863669
 20
-279.5650216070572
 30
0.0
 10
5050.173022863394
 20
-279.5344871310909
 30
0.0
 10
5049.285935520414
 20
-279.4990379502834
 30
0.0
 10
5048.388023686051
 20
-279.4667358302505
 30
0.0
 10
5047.477015307053
 20
-279.4309178160185
 30
0.0
 10
5046.55200990337
 20
-279.3902089435898
 30
0.0
 10
5045.776290366238
 20
-279.3612204204647
 30
0.0
 10
5045.147824051392
 20
-279.3347508692879
 30
0.0
 10
5044.83081802647
 20
-279.3200877113387
 30
0.0
 10
5044.670905299998
 20
-279.3126909258455
 30
0.0
  0
SPLINE
  5
AFA5
330
18
100
AcDbEntity
  8
01
100
AcDbSpline
210
0.0
220
0.0
230
1.0
 70
     8
 71
     3
 72
    10
 73
     6
 74
     0
 42
0.0000000001
 43
0.0000000001
 40
0.0
 40
0.0
 40
0.0
 40
0.0
 40
0.5
 40
0.5
 40
1.0
 40
1.0
 40
1.0
 40
1.0
 10
5065.868514283594
 20
-279.8653512520251
 30
0.0
 10
5065.777917504871
 20
-279.8691197481213
 30
0.0
 10
5065.685204202295
 20
-279.872834318052
 30
0.0
 10
5065.495745782111
 20
-279.8800995792609
 30
0.0
 10
5065.397778753074
 20
-279.8836762238244
 30
0.0
 10
5065.2924629824
 20
-279.8872621797619
 30
0.0
  0
SPLINE
  5
AFA6
330
18
100
AcDbEntity
  8
01
100
AcDbSpline
210
0.0
220
0.0
230
1.0
 70
     8
 71
     3
 72
    18
 73
    14
 74
     0
 42
0.0000000001
 43
0.0000000001
 40
0.0
 40
0.0
 40
0.0
 40
0.0
 40
0.0582108801254613
 40
0.1251510386741538
 40
0.2016532680038702
 40
0.2854158726050685
 40
0.3836273549491543
 40
0.4995506637617876
 40
0.6248154598482291
 40
0.7499928382852261
 40
0.8082344741527869
 40
0.8919943100759603
 40
1.0
 40
1.0
 40
1.0
 40
1.0
 10
5067.98736004183
 20
-279.623656418894
 30
0.0
 10
5067.978288659639
 20
-279.6297200513801
 30
0.0
 10
5067.958785554703
 20
-279.6427566160565
 30
0.0
 10
5067.910882214288
 20
-279.6618219582925
 30
0.0
 10
5067.841399127679
 20
-279.6820426333453
 30
0.0
 10
5067.740060835406
 20
-279.70398309731
 30
0.0
 10
5067.59427370987
 20
-279.7287741118972
 30
0.0
 10
5067.386800037046
 20
-279.7561564906365
 30
0.0
 10
5067.109570883226
 20
-279.7851352773206
 30
0.0
 10
5066.82760644677
 20
-279.8099043822214
 30
0.0
 10
5066.548787874464
 20
-279.8297480701923
 30
0.0
 10
5066.264881696288
 20
-279.8464667241325
 30
0.0
 10
5066.011322977755
 20
-279.8585472750029
 30
0.0
 10
5065.868514283594
 20
-279.8653512520251
 30
0.0
  0
SPLINE
  5
AFA7
330
18
100
AcDbEntity
  8
01
100
AcDbSpline
210
0.0
220
0.0
230
1.0
 70
     8
 71
     3
 72
     9
 73
     5
 74
     0
 42
0.0000000001
 43
0.0000000001
 40
0.0
 40
0.0
 40
0.0
 40
0.0
 40
0.4070202330711345
 40
1.0
 40
1.0
 40
1.0
 40
1.0
 10
5068.019876240719
 20
-279.5662920375618
 30
0.0
 10
5068.020343573329
 20
-279.573524404159
 30
0.0
 10
5068.02149175362
 20
-279.5912934633089
 30
0.0
 10
5068.000065422602
 20
-279.6116094499004
 30
0.0
 10
5067.98736004183
 20
-279.623656418894
 30
0.0
  0
LINE
  5
AFA8
330
18
100
AcDbEntity
  8
01
100
AcDbLine
 10
5067.996351383939
 20
-279.5566360028507
 30
0.0
 11
5067.998617104972
 21
-279.557565992951
 31
0.0
  0
LINE
  5
AFA9
330
18
100
AcDbEntity
  8
01
100
AcDbLine
 10
5067.998617104972
 20
-282.1340500328553
 30
0.0
 11
5067.996351383939
 21
-282.1349800229556
 31
0.0
  0
SPLINE
  5
AFAA
330
18
100
AcDbEntity
  8
01
100
AcDbSpline
210
0.0
220
0.0
230
1.0
 70
     8
 71
     3
 72
    11
 73
     7
 74
     0
 42
0.0000000001
 43
0.0000000001
 40
0.0
 40
0.0
 40
0.0
 40
0.0
 40
0.3214865501816755
 40
0.5929812495934518
 40
0.8197256890643895
 40
1.0
 40
1.0
 40
1.0
 40
1.0
 10
5067.98736004183
 20
-282.0679596069114
 30
0.0
 10
5067.994911789194
 20
-282.0744243847058
 30
0.0
 10
5068.008840970947
 20
-282.0863486534273
 30
0.0
 10
5068.018026621807
 20
-282.1024349016099
 30
0.0
 10
5068.021090883157
 20
-282.1152540912136
 30
0.0
 10
5068.020249084948
 20
-282.1222329526646
 30
0.0
 10
5068.019876240719
 20
-282.1253239882445
 30
0.0
  0
SPLINE
  5
AFAB
330
18
100
AcDbEntity
  8
01
100
AcDbSpline
210
0.0
220
0.0
230
1.0
 70
     8
 71
     3
 72
    19
 73
    15
 74
     0
 42
0.0000000001
 43
0.0000000001
 40
0.0
 40
0.0
 40
0.0
 40
0.0
 40
0.0469735665511625
 40
0.0917776246393095
 40
0.1346835869123842
 40
0.1755817186042582
 40
0.2140079753782441
 40
0.25001182459125
 40
0.3751734492694217
 40
0.5004547036028041
 40
0.6264000106335657
 40
0.7502612247197816
 40
0.8737588958666632
 40
1.0
 40
1.0
 40
1.0
 40
1.0
 10
5065.868514283594
 20
-281.8262647737812
 30
0.0
 10
5065.931886647656
 20
-281.8292073438607
 30
0.0
 10
5066.055704476883
 20
-281.8349565792743
 30
0.0
 10
5066.225293960421
 20
-281.8436546454551
 30
0.0
 10
5066.37932641178
 20
-281.8521882035812
 30
0.0
 10
5066.51823259597
 20
-281.8605530316919
 30
0.0
 10
5066.642866272029
 20
-281.8687073884286
 30
0.0
 10
5066.847763244165
 20
-281.8833810653806
 30
0.0
 10
5067.110218126498
 20
-281.9053066175221
 30
0.0
 10
5067.39434140546
 20
-281.9362287174127
 30
0.0
 10
5067.62086020172
 20
-281.9678071473046
 30
0.0
 10
5067.794182847463
 20
-281.9976047136125
 30
0.0
 10
5067.921586898674
 20
-282.0289248475084
 30
0.0
 10
5067.965275683946
 20
-282.0548530780881
 30
0.0
 10
5067.98736004183
 20
-282.0679596069114
 30
0.0
  0
SPLINE
  5
AFAC
330
18
100
AcDbEntity
  8
01
100
AcDbSpline
210
0.0
220
0.0
230
1.0
 70
     8
 71
     3
 72
    10
 73
     6
 74
     0
 42
0.0000000001
 43
0.0000000001
 40
0.0
 40
0.0
 40
0.0
 40
0.0
 40
0.5
 40
0.5
 40
1.0
 40
1.0
 40
1.0
 40
1.0
 10
5065.2924629824
 20
-281.8043538460435
 30
0.0
 10
5065.397778753074
 20
-281.8079398019819
 30
0.0
 10
5065.495745782111
 20
-281.8115164465445
 30
0.0
 10
5065.685204202295
 20
-281.8187817077543
 30
0.0
 10
5065.777917504871
 20
-281.822496277685
 30
0.0
 10
5065.868514283594
 20
-281.8262647737812
 30
0.0
  0
SPLINE
  5
AFAD
330
18
100
AcDbEntity
  8
01
100
AcDbSpline
210
0.0
220
0.0
230
1.0
 70
     8
 71
     3
 72
    42
 73
    38
 74
     0
 42
0.0000000001
 43
0.0000000001
 40
0.0
 40
0.0
 40
0.0
 40
0.0
 40
0.0156603615417775
 40
0.0310416896499285
 40
0.046571209034249
 40
0.062094044411619
 40
0.0931776779952775
 40
0.1243537736971032
 40
0.155611510934679
 40
0.1870358765807279
 40
0.2184827694602169
 40
0.2498177321173663
 40
0.2812767926697019
 40
0.3122244953695483
 40
0.3277950011600456
 40
0.3433572545657043
 40
0.3744927043896173
 40
0.4056616611072971
 40
0.4368838668679451
 40
0.4681926862909129
 40
0.4996127977909381
 40
0.531171829802888
 40
0.5627460449400886
 40
0.6019978040784633
 40
0.6257866014491477
 40
0.6761828193304857
 40
0.7140298576085327
 40
0.7516911844787022
 40
0.7674918518517193
 40
0.7829697561473816
 40
0.8141443552234594
 40
0.8762509026615218
 40
0.8939218139846664
 40
0.9381661824615474
 40
0.9690999389800075
 40
0.9885509375723037
 40
0.9999999999999999
 40
0.9999999999999999
 40
0.9999999999999999
 40
0.9999999999999999
 10
5044.670905299998
 20
-282.3789250999599
 30
0.0
 10
5044.830726618036
 20
-282.3717891896287
 30
0.0
 10
5045.147521587347
 20
-282.3576445152995
 30
0.0
 10
5045.619259325755
 20
-282.3368501540109
 30
0.0
 10
5046.085734825116
 20
-282.3186972303475
 30
0.0
 10
5046.705879520784
 20
-282.2947126465716
 30
0.0
 10
5047.477038819167
 20
-282.2606709480889
 30
0.0
 10
5048.388017579229
 20
-282.2248871159392
 30
0.0
 10
5049.285936349166
 20
-282.1925777591188
 30
0.0
 10
5050.1730257174
 20
-282.1571231537647
 30
0.0
 10
5051.040664629473
 20
-282.1266176746213
 30
0.0
 10
5051.892221679626
 20
-282.0940549261596
 30
0.0
 10
5052.718774819579
 20
-282.0641288493172
 30
0.0
 10
5053.39184575264
 20
-282.0363758867589
 30
0.0
 10
5053.914649510969
 20
-282.0183796601897
 30
0.0
 10
5054.431867135908
 20
-282.0007868596605
 30
0.0
 10
5055.068873817007
 20
-281.9729762236494
 30
0.0
 10
5055.808185108391
 20
-281.9450684592776
 30
0.0
 10
5056.52540503923
 20
-281.9181172251848
 30
0.0
 10
5057.222318174574
 20
-281.8884892698007
 30
0.0
 10
5057.892498157325
 20
-281.8681586544573
 30
0.0
 10
5058.542643514162
 20
-281.8427743451003
 30
0.0
 10
5059.216122646995
 20
-281.8224688909951
 30
0.0
 10
5059.80956428116
 20
-281.8074054206446
 30
0.0
 10
5060.490878918542
 20
-281.7902217468892
 30
0.0
 10
5061.126868295816
 20
-281.7799210461764
 30
0.0
 10
5061.79749080876
 20
-281.7700697489673
 30
0.0
 10
5062.253238213711
 20
-281.7690080531376
 30
0.0
 10
5062.584103489223
 20
-281.7685948228537
 30
0.0
 10
5062.877389512607
 20
-281.7656188057782
 30
0.0
 10
5063.364719657458
 20
-281.7684813618636
 30
0.0
 10
5063.825652401437
 20
-281.7714214134577
 30
0.0
 10
5064.30316238177
 20
-281.7795621810584
 30
0.0
 10
5064.642065790974
 20
-281.7850922551817
 30
0.0
 10
5064.961840109021
 20
-281.7933416216475
 30
0.0
 10
5065.160684878922
 20
-281.8001225269292
 30
0.0
 10
5065.256836843993
 20
-281.8032099112289
 30
0.0
 10
5065.2924629824
 20
-281.8043538460435
 30
0.0
  0
SPLINE
  5
AFAE
330
18
100
AcDbEntity
  8
01
100
AcDbSpline
210
0.0
220
0.0
230
1.0
 70
     8
 71
     3
 72
    11
 73
     7
 74
     0
 42
0.0000000001
 43
0.0000000001
 40
0.0
 40
0.0
 40
0.0
 40
0.0
 40
0.2036186223160193
 40
0.5005482952078586
 40
0.7783053996265139
 40
1.0
 40
1.0
 40
1.0
 40
1.0
 10
5042.683712862042
 20
-282.4689031747504
 30
0.0
 10
5042.819873756011
 20
-282.4624267528144
 30
0.0
 10
5043.154593157286
 20
-282.4465059989944
 30
0.0
 10
5043.671388178631
 20
-282.4234918340227
 30
0.0
 10
5044.197302344237
 20
-282.400494448617
 30
0.0
 10
5044.525310408557
 20
-282.3855559432396
 30
0.0
 10
5044.670905299998
 20
-282.3789250999599
 30
0.0
  0
SPLINE
  5
AFAF
330
18
100
AcDbEntity
  8
01
100
AcDbSpline
210
0.0
220
0.0
230
1.0
 70
     8
 71
     3
 72
    29
 73
    25
 74
     0
 42
0.0000000001
 43
0.0000000001
 40
0.0
 40
0.0
 40
0.0
 40
0.0
 40
0.0556245364844182
 40
0.1103425895735767
 40
0.1638569423192015
 40
0.2155711735687713
 40
0.2666359731633604
 40
0.3161965437560486
 40
0.3631283403353917
 40
0.4093874337142959
 40
0.4543182125810428
 40
0.4976303727267803
 40
0.5597352490853228
 40
0.6221786102746923
 40
0.6537338548933582
 40
0.6845665873345262
 40
0.715810338154702
 40
0.7470880005367511
 40
0.8098468296341825
 40
0.8729197064231002
 40
0.9046890484379566
 40
0.9364615661404408
 40
0.9666226413430622
 40
1.0
 40
1.0
 40
1.0
 40
1.0
 10
5010.821413255015
 20
-285.1648543458397
 30
0.0
 10
5011.416690498248
 20
-285.0899177539587
 30
0.0
 10
5012.597544069062
 20
-284.9412657718559
 30
0.0
 10
5014.352451471723
 20
-284.7315379111216
 30
0.0
 10
5016.066440196281
 20
-284.5352371122427
 30
0.0
 10
5017.742048439187
 20
-284.3507913782861
 30
0.0
 10
5019.375950887126
 20
-284.1786807607315
 30
0.0
 10
5020.958985059247
 20
-284.0186423490142
 30
0.0
 10
5022.490753382464
 20
-283.8711372811523
 30
0.0
 10
5023.972732587821
 20
-283.7339078429724
 30
0.0
 10
5025.415536565541
 20
-283.6063496168809
 30
0.0
 10
5027.027476645703
 20
-283.4697574616131
 30
0.0
 10
5028.825428363892
 20
-283.3254347375643
 30
0.0
 10
5030.494193704328
 20
-283.1999868074982
 30
0.0
 10
5031.825491047005
 20
-283.1049833160097
 30
0.0
 10
5032.822367913141
 20
-283.0347772432598
 30
0.0
 10
5033.813791162363
 20
-282.9697017223481
 30
0.0
 10
5035.141237627085
 20
-282.8823188170637
 30
0.0
 10
5036.797897389222
 20
-282.7818540968457
 30
0.0
 10
5038.446407185429
 20
-282.68659799522
 30
0.0
 10
5039.759686577524
 20
-282.6157643852586
 30
0.0
 10
5040.725229994252
 20
-282.5661394657201
 30
0.0
 10
5041.701085187578
 20
-282.5172695083294
 30
0.0
 10
5042.345300355007
 20
-282.4855603203079
 30
0.0
 10
5042.683712862042
 20
-282.4689031747504
 30
0.0
  0
LINE
  5
AFB0
330
18
100
AcDbEntity
  8
01
100
AcDbLine
 10
5010.622581153039
 20
-270.8458080129031
 30
0.0
 11
5010.622581153039
 21
-290.8458080129031
 31
0.0
  0
LINE
  5
AFB1
330
18
100
AcDbEntity
  8
01
100
AcDbLine
 10
5018.280456305531
 20
-268.064223024866
 30
0.0
 11
5017.510170907199
 21
-268.0356280253101
 31
0.0
  0
LINE
  5
AFB2
330
18
100
AcDbEntity
  8
01
100
AcDbLine
 10
5067.998617104972
 20
-279.557565992951
 30
0.0
 11
5068.019876239452
 21
-279.566292038353
 31
0.0
  0
LINE
  5
AFB3
330
18
100
AcDbEntity
  8
01
100
AcDbLine
 10
5068.019876239452
 20
-282.1253239874533
 30
0.0
 11
5067.998617104972
 21
-282.1340500328553
 31
0.0
  0
LINE
  5
AFB4
330
18
100
AcDbEntity
  8
01
100
AcDbLine
 10
5141.821322237268
 20
-99.64686639873582
 30
0.0
 11
5161.821322237268
 21
-99.64686639873582
 31
0.0
  0
ARC
  5
AFB5
330
18
100
AcDbEntity
  8
01
100
AcDbCircle
 10
5128.873139919131
 20
-105.4413656211096
 30
0.0
 40
7.784261043493107
100
AcDbArc
 50
334.8178666377736
 51
26.67175794055146
  0
LINE
  5
AFB6
330
18
100
AcDbEntity
  8
01
100
AcDbLine
 10
5135.82132223509
 20
-99.84569850071796
 30
0.0
 11
5163.821322237268
 21
-99.84569850071796
 31
0.0
  0
LINE
  5
AFB7
330
18
100
AcDbEntity
  8
01
100
AcDbLine
 10
5279.563214312892
 20
-140.4364347638804
 30
0.0
 11
5279.79009261064
 21
-140.3756429072183
 31
0.0
  0
LINE
  5
AFB8
330
18
100
AcDbEntity
  8
01
100
AcDbLine
 10
5010.821309671756
 20
-293.8458317825053
 30
0.0
 11
5010.821309671756
 21
-267.8458078211644
 31
0.0
  0
LINE
  5
B0EC
330
18
100
AcDbEntity
  8
01
100
AcDbLine
 10
5151.821309671756
 20
-255.845698500718
 30
0.0
 11
5115.521309671756
 21
-255.845698500718
 31
0.0
1001
ACAD
1000
DSTYLE
1002
{
1070
     3
1000
φ<>
1070
    40
1040
1.3
1070
    45
1040
0.5
1002
}
  0
LINE
  5
B0ED
330
18
100
AcDbEntity
  8
01
100
AcDbLine
 10
5151.821309671756
 20
-305.845698500717
 30
0.0
 11
5115.521309671756
 21
-305.845698500717
 31
0.0
1001
ACAD
1000
DSTYLE
1002
{
1070
     3
1000
φ<>
1070
    40
1040
1.3
1070
    45
1040
0.5
1002
}
  0
LINE
  5
B0EE
330
18
100
AcDbEntity
  8
01
100
AcDbLine
 10
5116.821309671756
 20
-258.445698500718
 30
0.0
 11
5116.821309671756
 21
-303.245698500717
 31
0.0
1001
ACAD
1000
DSTYLE
1002
{
1070
     3
1000
φ<>
1070
    40
1040
1.3
1070
    45
1040
0.5
1002
}
  0
CIRCLE
  5
B0F2
330
18
100
AcDbEntity
  8
01
100
AcDbCircle
 10
5016.321309671756
 20
-280.845698500718
 30
0.0
 40
3.0
  0
LINE
  5
B0F3
330
18
100
AcDbEntity
  8
01
  6
BYBLOCK
100
AcDbLine
 10
5116.124641777757
 20
-258.445698500718
 30
0.0
 11
5116.821309671756
 21
-255.845698500718
 31
0.0
  0
LINE
  5
B0F4
330
18
100
AcDbEntity
  8
01
  6
BYBLOCK
100
AcDbLine
 10
5116.821309671756
 20
-255.845698500718
 30
0.0
 11
5117.517977565756
 21
-258.445698500718
 31
0.0
  0
LINE
  5
B0F5
330
18
100
AcDbEntity
  8
01
  6
BYBLOCK
100
AcDbLine
 10
5116.821309671756
 20
-255.845698500718
 30
0.0
 11
5116.821309671756
 21
-258.445698500718
 31
0.0
  0
LINE
  5
B0F6
330
18
100
AcDbEntity
  8
01
  6
BYBLOCK
100
AcDbLine
 10
5117.517977565756
 20
-303.245698500717
 30
0.0
 11
5116.821309671756
 21
-305.845698500717
 31
0.0
  0
LINE
  5
B0F7
330
18
100
AcDbEntity
  8
01
  6
BYBLOCK
100
AcDbLine
 10
5116.821309671756
 20
-305.845698500717
 30
0.0
 11
5116.124641777757
 21
-303.245698500717
 31
0.0
  0
LINE
  5
B0F8
330
18
100
AcDbEntity
  8
01
  6
BYBLOCK
100
AcDbLine
 10
5116.821309671756
 20
-305.845698500717
 30
0.0
 11
5116.821309671756
 21
-303.245698500717
 31
0.0
  0
TEXT
  5
B0F9
330
18
100
AcDbEntity
  8
01
  6
CONTINUOUS
100
AcDbText
 10
5115.911309671756
 20
-289.0452014073171
 30
0.0
 40
4.55
  1
φ50
 50
90.0
100
AcDbText
1001
ACAD
1000
DSTYLE
1002
{
1070
     3
1000
φ<>
1070
    40
1040
1.3
1070
    45
1040
0.5
1002
}
  0
LINE
  5
B0FA
330
18
100
AcDbEntity
  8
1DIM
100
AcDbLine
 10
5151.821309671756
 20
-112.345698500718
 30
0.0
 11
5151.821309671756
 21
-177.145698500718
 31
0.0
1001
ACAD
1000
DSTYLE
1002
{
1070
    40
1040
1.3
1070
    45
1040
0.5
1002
}
  0
LINE
  5
B0FB
330
18
100
AcDbEntity
  8
1DIM
100
AcDbLine
 10
5281.306600671468
 20
-137.6617797748992
 30
0.0
 11
5281.306600671468
 21
-177.145698500718
 31
0.0
1001
ACAD
1000
DSTYLE
1002
{
1070
    40
1040
1.3
1070
    45
1040
0.5
1002
}
  0
LINE
  5
B0FC
330
18
100
AcDbEntity
  8
1DIM
100
AcDbLine
 10
5154.421309671757
 20
-175.845698500718
 30
0.0
 11
5278.706600671468
 21
-175.845698500718
 31
0.0
1001
ACAD
1000
DSTYLE
1002
{
1070
    40
1040
1.3
1070
    45
1040
0.5
1002
}
  0
LINE
  5
B100
330
18
100
AcDbEntity
  8
1DIM
100
AcDbLine
 10
5135.82132223509
 20
-99.84569850071796
 30
0.0
 11
5135.82132223509
 21
-187.145698500718
 31
0.0
1001
ACAD
1000
DSTYLE
1002
{
1070
    40
1040
1.3
1070
    45
1040
0.5
1002
}
  0
LINE
  5
B101
330
18
100
AcDbEntity
  8
1DIM
100
AcDbLine
 10
5281.306600671468
 20
-137.6617797748992
 30
0.0
 11
5281.306600671468
 21
-187.145698500718
 31
0.0
1001
ACAD
1000
DSTYLE
1002
{
1070
    40
1040
1.3
1070
    45
1040
0.5
1002
}
  0
LINE
  5
B102
330
18
100
AcDbEntity
  8
1DIM
100
AcDbLine
 10
5138.42132223509
 20
-185.845698500718
 30
0.0
 11
5278.706600671468
 21
-185.845698500718
 31
0.0
1001
ACAD
1000
DSTYLE
1002
{
1070
    40
1040
1.3
1070
    45
1040
0.5
1002
}
  0
LINE
  5
B106
330
18
100
AcDbEntity
  8
1DIM
100
AcDbLine
 10
5257.039702366367
 20
-124.3995724880239
 30
0.0
 11
5308.121309671757
 21
-124.3995724880239
 31
0.0
1001
ACAD
1000
DSTYLE
1002
{
1070
    40
1040
1.3
1070
    45
1040
0.5
1002
}
  0
LINE
  5
B107
330
18
100
AcDbEntity
  8
1DIM
100
AcDbLine
 10
5254.576457669104
 20
-90.84569850071796
 30
0.0
 11
5308.121309671757
 21
-90.84569850071797
 31
0.0
1001
ACAD
1000
DSTYLE
1002
{
1070
    40
1040
1.3
1070
    45
1040
0.5
1002
}
  0
LINE
  5
B108
330
18
100
AcDbEntity
  8
1DIM
100
AcDbLine
 10
5306.821309671756
 20
-121.7995724880239
 30
0.0
 11
5306.821309671756
 21
-93.44569850071797
 31
0.0
1001
ACAD
1000
DSTYLE
1002
{
1070
    40
1040
1.3
1070
    45
1040
0.5
1002
}
  0
LINE
  5
B10C
330
18
100
AcDbEntity
  8
1DIM
100
AcDbLine
 10
5188.229971023725
 20
-157.3774176177845
 30
0.0
 11
5318.121309671757
 21
-157.3774176177846
 31
0.0
1001
ACAD
1000
DSTYLE
1002
{
1070
    40
1040
1.3
1070
    45
1040
0.5
1002
}
  0
LINE
  5
B10D
330
18
100
AcDbEntity
  8
1DIM
100
AcDbLine
 10
5254.576457669104
 20
-90.84569850071796
 30
0.0
 11
5318.121309671757
 21
-90.84569850071797
 31
0.0
1001
ACAD
1000
DSTYLE
1002
{
1070
    40
1040
1.3
1070
    45
1040
0.5
1002
}
  0
LINE
  5
B10E
330
18
100
AcDbEntity
  8
1DIM
100
AcDbLine
 10
5316.821309671756
 20
-154.7774176177846
 30
0.0
 11
5316.821309671756
 21
-93.44569850071797
 31
0.0
1001
ACAD
1000
DSTYLE
1002
{
1070
    40
1040
1.3
1070
    45
1040
0.5
1002
}
  0
LINE
  5
B112
330
18
100
AcDbEntity
  8
1DIM
100
AcDbLine
 10
5270.996864368651
 20
-285.7104798424645
 30
0.0
 11
5308.121309671757
 21
-285.7104798424645
 31
0.0
1001
ACAD
1000
DSTYLE
1002
{
1070
    40
1040
1.3
1070
    45
1040
0.5
1002
}
  0
LINE
  5
B113
330
18
100
AcDbEntity
  8
1DIM
100
AcDbLine
 10
5271.410681627264
 20
-275.9809171589715
 30
0.0
 11
5308.121309671757
 21
-275.9809171589715
 31
0.0
1001
ACAD
1000
DSTYLE
1002
{
1070
    40
1040
1.3
1070
    45
1040
0.5
1002
}
  0
LINE
  5
B114
330
18
100
AcDbEntity
  8
1DIM
100
AcDbLine
 10
5306.821309671756
 20
-283.1104798424644
 30
0.0
 11
5306.821309671756
 21
-278.5809171589715
 31
0.0
1001
ACAD
1000
DSTYLE
1002
{
1070
    40
1040
1.3
1070
    45
1040
0.5
1002
}
  0
LINE
  5
B115
330
18
100
AcDbEntity
  8
1DIM
100
AcDbLine
 10
5306.821309671756
 20
-275.9809171589715
 30
0.0
 11
5306.821309671756
 21
-262.0275838256381
 31
0.0
1001
ACAD
1000
DSTYLE
1002
{
1070
    40
1040
1.3
1070
    45
1040
0.5
1002
}
  0
LINE
  5
B119
330
18
100
AcDbEntity
  8
0
  6
BYBLOCK
100
AcDbLine
 10
5154.421309671757
 20
-176.542366394718
 30
0.0
 11
5151.821309671756
 21
-175.845698500718
 31
0.0
  0
LINE
  5
B11A
330
18
100
AcDbEntity
  8
0
  6
BYBLOCK
100
AcDbLine
 10
5151.821309671756
 20
-175.845698500718
 30
0.0
 11
5154.421309671757
 21
-175.149030606718
 31
0.0
  0
LINE
  5
B11B
330
18
100
AcDbEntity
  8
0
  6
BYBLOCK
100
AcDbLine
 10
5151.821309671756
 20
-175.845698500718
 30
0.0
 11
5154.421309671757
 21
-175.845698500718
 31
0.0
  0
LINE
  5
B11C
330
18
100
AcDbEntity
  8
0
  6
BYBLOCK
100
AcDbLine
 10
5278.706600671468
 20
-175.149030606718
 30
0.0
 11
5281.306600671468
 21
-175.845698500718
 31
0.0
  0
LINE
  5
B11D
330
18
100
AcDbEntity
  8
0
  6
BYBLOCK
100
AcDbLine
 10
5281.306600671468
 20
-175.845698500718
 30
0.0
 11
5278.706600671468
 21
-176.542366394718
 31
0.0
  0
LINE
  5
B11E
330
18
100
AcDbEntity
  8
0
  6
BYBLOCK
100
AcDbLine
 10
5281.306600671468
 20
-175.845698500718
 30
0.0
 11
5278.706600671468
 21
-175.845698500718
 31
0.0
  0
TEXT
  5
B11F
330
18
100
AcDbEntity
  8
1DIM
  6
CONTINUOUS
100
AcDbText
 10
5208.221235264205
 20
-174.935698500718
 30
0.0
 40
4.55
  1
129.5
100
AcDbText
1001
ACAD
1000
DSTYLE
1002
{
1070
    40
1040
1.3
1070
    45
1040
0.5
1002
}
  0
LINE
  5
B120
330
18
100
AcDbEntity
  8
0
  6
BYBLOCK
100
AcDbLine
 10
5138.42132223509
 20
-186.542366394718
 30
0.0
 11
5135.82132223509
 21
-185.845698500718
 31
0.0
  0
LINE
  5
B121
330
18
100
AcDbEntity
  8
0
  6
BYBLOCK
100
AcDbLine
 10
5135.82132223509
 20
-185.845698500718
 30
0.0
 11
5138.42132223509
 21
-185.149030606718
 31
0.0
  0
LINE
  5
B122
330
18
100
AcDbEntity
  8
0
  6
BYBLOCK
100
AcDbLine
 10
5135.82132223509
 20
-185.845698500718
 30
0.0
 11
5138.42132223509
 21
-185.845698500718
 31
0.0
  0
LINE
  5
B123
330
18
100
AcDbEntity
  8
0
  6
BYBLOCK
100
AcDbLine
 10
5278.706600671468
 20
-185.149030606718
 30
0.0
 11
5281.306600671468
 21
-185.845698500718
 31
0.0
  0
LINE
  5
B124
330
18
100
AcDbEntity
  8
0
  6
BYBLOCK
100
AcDbLine
 10
5281.306600671468
 20
-185.845698500718
 30
0.0
 11
5278.706600671468
 21
-186.542366394718
 31
0.0
  0
LINE
  5
B125
330
18
100
AcDbEntity
  8
0
  6
BYBLOCK
100
AcDbLine
 10
5281.306600671468
 20
-185.845698500718
 30
0.0
 11
5278.706600671468
 21
-185.845698500718
 31
0.0
  0
TEXT
  5
B126
330
18
100
AcDbEntity
  8
1DIM
  6
CONTINUOUS
100
AcDbText
 10
5200.206496175501
 20
-184.935698500718
 30
0.0
 40
4.55
  1
145.5
100
AcDbText
1001
ACAD
1000
DSTYLE
1002
{
1070
    40
1040
1.3
1070
    45
1040
0.5
1002
}
  0
LINE
  5
B127
330
18
100
AcDbEntity
  8
0
  6
BYBLOCK
100
AcDbLine
 10
5307.517977565756
 20
-121.7995724880239
 30
0.0
 11
5306.821309671756
 21
-124.3995724880239
 31
0.0
  0
LINE
  5
B128
330
18
100
AcDbEntity
  8
0
  6
BYBLOCK
100
AcDbLine
 10
5306.821309671756
 20
-124.3995724880239
 30
0.0
 11
5306.124641777757
 21
-121.7995724880239
 31
0.0
  0
LINE
  5
B129
330
18
100
AcDbEntity
  8
0
  6
BYBLOCK
100
AcDbLine
 10
5306.821309671756
 20
-124.3995724880239
 30
0.0
 11
5306.821309671756
 21
-121.7995724880239
 31
0.0
  0
LINE
  5
B12A
330
18
100
AcDbEntity
  8
0
  6
BYBLOCK
100
AcDbLine
 10
5306.124641777757
 20
-93.44569850071797
 30
0.0
 11
5306.821309671756
 21
-90.84569850071797
 31
0.0
  0
LINE
  5
B12B
330
18
100
AcDbEntity
  8
0
  6
BYBLOCK
100
AcDbLine
 10
5306.821309671756
 20
-90.84569850071797
 30
0.0
 11
5307.517977565756
 21
-93.44569850071797
 31
0.0
  0
LINE
  5
B12C
330
18
100
AcDbEntity
  8
0
  6
BYBLOCK
100
AcDbLine
 10
5306.821309671756
 20
-90.84569850071797
 30
0.0
 11
5306.821309671756
 21
-93.44569850071797
 31
0.0
  0
TEXT
  5
B12D
330
18
100
AcDbEntity
  8
1DIM
  6
CONTINUOUS
100
AcDbText
 10
5305.911309671756
 20
-114.4476354943699
 30
0.0
 40
4.55
  1
33.5
 50
90.0
100
AcDbText
1001
ACAD
1000
DSTYLE
1002
{
1070
    40
1040
1.3
1070
    45
1040
0.5
1002
}
  0
LINE
  5
B12E
330
18
100
AcDbEntity
  8
0
  6
BYBLOCK
100
AcDbLine
 10
5317.517977565756
 20
-154.7774176177846
 30
0.0
 11
5316.821309671756
 21
-157.3774176177846
 31
0.0
  0
LINE
  5
B12F
330
18
100
AcDbEntity
  8
0
  6
BYBLOCK
100
AcDbLine
 10
5316.821309671756
 20
-157.3774176177846
 30
0.0
 11
5316.124641777757
 21
-154.7774176177846
 31
0.0
  0
LINE
  5
B130
330
18
100
AcDbEntity
  8
0
  6
BYBLOCK
100
AcDbLine
 10
5316.821309671756
 20
-157.3774176177846
 30
0.0
 11
5316.821309671756
 21
-154.7774176177846
 31
0.0
  0
LINE
  5
B131
330
18
100
AcDbEntity
  8
0
  6
BYBLOCK
100
AcDbLine
 10
5316.124641777757
 20
-93.44569850071797
 30
0.0
 11
5316.821309671756
 21
-90.84569850071797
 31
0.0
  0
LINE
  5
B132
330
18
100
AcDbEntity
  8
0
  6
BYBLOCK
100
AcDbLine
 10
5316.821309671756
 20
-90.84569850071797
 30
0.0
 11
5317.517977565756
 21
-93.44569850071797
 31
0.0
  0
LINE
  5
B133
330
18
100
AcDbEntity
  8
0
  6
BYBLOCK
100
AcDbLine
 10
5316.821309671756
 20
-90.84569850071797
 30
0.0
 11
5316.821309671756
 21
-93.44569850071797
 31
0.0
  0
TEXT
  5
B134
330
18
100
AcDbEntity
  8
1DIM
  6
CONTINUOUS
100
AcDbText
 10
5315.911309671756
 20
-130.9681552814727
 30
0.0
 40
4.55
  1
66.5
 50
90.0
100
AcDbText
1001
ACAD
1000
DSTYLE
1002
{
1070
    40
1040
1.3
1070
    45
1040
0.5
1002
}
  0
LINE
  5
B135
330
18
100
AcDbEntity
  8
0
  6
BYBLOCK
100
AcDbLine
 10
5307.517977565756
 20
-283.1104798424644
 30
0.0
 11
5306.821309671756
 21
-285.7104798424645
 31
0.0
  0
LINE
  5
B136
330
18
100
AcDbEntity
  8
0
  6
BYBLOCK
100
AcDbLine
 10
5306.821309671756
 20
-285.7104798424645
 30
0.0
 11
5306.124641777757
 21
-283.1104798424644
 31
0.0
  0
LINE
  5
B137
330
18
100
AcDbEntity
  8
0
  6
BYBLOCK
100
AcDbLine
 10
5306.821309671756
 20
-285.7104798424645
 30
0.0
 11
5306.821309671756
 21
-283.1104798424644
 31
0.0
  0
LINE
  5
B138
330
18
100
AcDbEntity
  8
0
  6
BYBLOCK
100
AcDbLine
 10
5306.124641777757
 20
-278.5809171589715
 30
0.0
 11
5306.821309671756
 21
-275.9809171589715
 31
0.0
  0
LINE
  5
B139
330
18
100
AcDbEntity
  8
0
  6
BYBLOCK
100
AcDbLine
 10
5306.821309671756
 20
-275.9809171589715
 30
0.0
 11
5307.517977565756
 21
-278.5809171589715
 31
0.0
  0
LINE
  5
B13A
330
18
100
AcDbEntity
  8
0
  6
BYBLOCK
100
AcDbLine
 10
5306.821309671756
 20
-275.9809171589715
 30
0.0
 11
5306.821309671756
 21
-278.5809171589715
 31
0.0
  0
TEXT
  5
B13B
330
18
100
AcDbEntity
  8
1DIM
  6
CONTINUOUS
100
AcDbText
 10
5305.911309671756
 20
-272.2563569737858
 30
0.0
 40
4.55
  1
9.5
 50
90.0
100
AcDbText
1001
ACAD
1000
DSTYLE
1002
{
1070
    40
1040
1.3
1070
    45
1040
0.5
1002
}
  0
VIEWPORT
  5
57
330
15
100
AcDbEntity
 67
     1
  8
0
100
AcDbViewport
 68
     1
 10
0.0
 20
0.0
 30
0.0
 40
630.5106382978724
 41
297.0
 68
     1
 69
     1
1001
ACAD
1000
MVIEW
1002
{
1070
    16
1010
0.0
1020
0.0
1030
0.0
1010
0.0
1020
0.0
1030
1.0
1040
0.0
1040
297.0
1040
5.728000000000009
1040
25.339
1040
50.0
1040
0.0
1040
0.0
1070
    16
1070
   100
1070
     0
1070
     1
1070
     0
1070
     0
1070
     0
1070
     0
1040
0.0
1040
0.0
1040
0.0
1040
10.0
1040
10.0
1040
10.0
1040
10.0
1070
     0
1002
{
1002
}
1002
}
  0
ENDSEC
  0
SECTION
  2
OBJECTS
  0
DICTIONARY
  5
C
330
0
100
AcDbDictionary
  3
ACAD_COLOR
350
18D
  3
ACAD_GROUP
350
D
  3
ACAD_LAYOUT
350
18E
  3
ACAD_MATERIAL
350
18C
  3
ACAD_MLEADERSTYLE
350
9583
  3
ACAD_MLINESTYLE
350
1B
  3
ACAD_PLOTSETTINGS
350
18F
  3
ACAD_SCALELIST
350
9561
  3
ACAD_VISUALSTYLE
350
9550
  3
ACDBHEADERROUNDTRIPXREC
350
B13C
  3
ACDBVARIABLEDICTIONARY
350
37
  3
AEC_PROPERTY_SET_DEFS
350
AF25
  3
CONTENTDICTIONARY
350
D8
  3
DRAWINGVARIABLESDICT
350
20
  3
DWGPROPS
350
B13F
1001
ACAD
1000
TREAT_AS_HARD
1070
     0
  0
DICTIONARY
  5
96D9
330
2
100
AcDbDictionary
  3
ACAD_LAYERSTATES
360
96DA
1001
ACAD
1000
TREAT_AS_HARD
1070
     1
  0
DICTIONARY
  5
9593
330
E
100
AcDbDictionary
  3
ADSK_XREC_LAYER_RECONCILED
360
9594
1001
ACAD
1000
TREAT_AS_HARD
1070
     1
  0
DICTIONARY
  5
9595
330
29
100
AcDbDictionary
  3
ADSK_XREC_LAYER_RECONCILED
360
9596
1001
ACAD
1000
TREAT_AS_HARD
1070
     1
  0
DICTIONARY
  5
9597
330
31
100
AcDbDictionary
  3
ADSK_XREC_LAYER_RECONCILED
360
9598
1001
ACAD
1000
TREAT_AS_HARD
1070
     1
  0
DICTIONARY
  5
959D
330
243
100
AcDbDictionary
  3
ADSK_XREC_LAYER_RECONCILED
360
959E
1001
ACAD
1000
TREAT_AS_HARD
1070
     1
  0
DICTIONARY
  5
95A3
330
24E
100
AcDbDictionary
  3
ADSK_XREC_LAYER_RECONCILED
360
95A4
1001
ACAD
1000
TREAT_AS_HARD
1070
     1
  0
DICTIONARY
  5
88F
330
18
100
AcDbDictionary
  3
ACAD_SORTENTS
360
890
1001
ACAD
1000
TREAT_AS_HARD
1070
     1
  0
DICTIONARY
  5
18D
102
{ACAD_REACTORS
330
C
102
}
330
C
100
AcDbDictionary
1001
ACAD
1000
TREAT_AS_HARD
1070
     0
  0
DICTIONARY
  5
D
102
{ACAD_REACTORS
330
C
102
}
330
C
100
AcDbDictionary
1001
ACAD
1000
TREAT_AS_HARD
1070
     0
  0
DICTIONARY
  5
18E
102
{ACAD_REACTORS
330
C
102
}
330
C
100
AcDbDictionary
1001
ACAD
1000
TREAT_AS_HARD
1070
     0
  0
DICTIONARY
  5
18C
102
{ACAD_REACTORS
330
C
102
}
330
C
100
AcDbDictionary
  3
BYBLOCK
350
9540
  3
BYLAYER
350
9538
  3
GLOBAL
350
9548
1001
ACAD
1000
TREAT_AS_HARD
1070
     0
  0
DICTIONARY
  5
9583
102
{ACAD_REACTORS
330
C
102
}
330
C
100
AcDbDictionary
  3
STANDARD
350
9584
1001
ACAD
1000
TREAT_AS_HARD
1070
     0
  0
DICTIONARY
  5
1B
102
{ACAD_REACTORS
330
C
102
}
330
C
100
AcDbDictionary
  3
STANDARD
350
1C
1001
ACAD
1000
TREAT_AS_HARD
1070
     0
  0
DICTIONARY
  5
18F
102
{ACAD_REACTORS
330
C
102
}
330
C
100
AcDbDictionary
1001
ACAD
1000
TREAT_AS_HARD
1070
     0
  0
DICTIONARY
  5
9561
102
{ACAD_REACTORS
330
C
102
}
330
C
100
AcDbDictionary
  3
A0
350
9562
  3
A1
350
9563
  3
A2
350
9564
  3
A3
350
9565
  3
A4
350
9566
  3
A5
350
9567
  3
A6
350
9568
  3
A7
350
9569
  3
A8
350
956A
  3
A9
350
956B
  3
B0
350
956C
  3
B1
350
956D
  3
B2
350
956E
  3
B3
350
956F
  3
B4
350
9570
  3
B5
350
9571
  3
B6
350
9572
  3
B7
350
9573
  3
B8
350
9574
  3
B9
350
9575
  3
C0
350
9576
  3
C1
350
9577
  3
C2
350
9578
  3
C3
350
9579
  3
C4
350
957A
  3
C5
350
957B
  3
C6
350
957C
  3
C7
350
957D
  3
C8
350
957E
  3
C9
350
957F
  3
D0
350
9580
  3
D1
350
9581
  3
D2
350
9582
1001
ACAD
1000
TREAT_AS_HARD
1070
     0
  0
DICTIONARY
  5
9550
102
{ACAD_REACTORS
330
C
102
}
330
C
100
AcDbDictionary
  3
2DWIREFRAME
350
9556
  3
3D_HIDDEN
350
9558
  3
3DWIREFRAME
350
9557
  3
BASIC
350
9555
  3
BRIGHTEN
350
955C
  3
COLORCHANGE
350
9560
  3
CONCEPTUAL
350
9559
  3
DIM
350
955B
  3
EDGECOLOROFF
350
A211
  3
FACEPATTERN
350
955F
  3
FLAT
350
9551
  3
FLATWITHEDGES
350
9552
  3
GOURAUD
350
9553
  3
GOURAUDWITHEDGES
350
9554
  3
HIDDEN
350
A260
  3
JITTEROFF
350
A20F
  3
LINEPATTERN
350
955E
  3
MODELING
350
A266
  3
OVERHANGOFF
350
A210
  3
REALISTIC
350
955A
  3
SHADED
350
A265
  3
SHADED_WITH_EDGES
350
A264
  3
SHADES_OF_GRAY
350
A261
  3
SKETCHY
350
A262
  3
THICKEN
350
955D
  3
WIREFRAME
350
A25F
  3
X-RAY
350
A263
1001
ACAD
1000
TREAT_AS_HARD
1070
     0
  0
DICTIONARY
  5
B13C
102
{ACAD_REACTORS
330
C
102
}
330
C
100
AcDbDictionary
  3
COLORDICT
350
B13D
  3
MATERIALDICT
350
B13E
1001
ACAD
1000
TREAT_AS_HARD
1070
     0
  0
DICTIONARY
  5
37
102
{ACAD_REACTORS
330
C
102
}
330
C
100
AcDbDictionary
  3
CANNOSCALE
350
B073
  3
CMLEADERSTYLE
350
9627
  3
CTABLESTYLE
350
29E
  3
DIMADEC
350
38
  3
DIMASSOC
350
1CE
  3
HIDETEXT
350
704E
  3
INDEXCTL
350
962A
  3
INTERSECTIONCOLOR
350
7052
  3
INTERSECTIONDISPLAY
350
7051
  3
MSLTSCALE
350
AB30
  3
OBSCOLOR
350
704F
  3
OBSLTYPE
350
7050
  3
PROJECTNAME
350
1CF
  3
SORTENTS
350
9629
  3
XCLIPFRAME
350
B052
1001
ACAD
1000
TREAT_AS_HARD
1070
     0
  0
DICTIONARY
  5
AF25
102
{ACAD_REACTORS
330
C
102
}
330
C
100
AcDbDictionary
1001
ACAD
1000
TREAT_AS_HARD
1070
     0
  0
DICTIONARY
  5
D8
102
{ACAD_REACTORS
330
C
102
}
330
C
100
AcDbDictionary
1001
ACAD
1000
TREAT_AS_HARD
1070
     0
  0
DICTIONARY
  5
20
102
{ACAD_REACTORS
330
C
102
}
330
C
100
AcDbDictionary
1001
DRAWINGVARIABLESXDATA
1000
POLARANG
1000
0.261799387799149410000000
1000
POLARMODE
1000
1
1000
POLARSTYLE
1000
1
1001
ACAD
1000
TREAT_AS_HARD
1070
     0
  0
XRECORD
  5
B13F
102
{ACAD_REACTORS
330
C
102
}
330
C
100
AcDbXrecord
  1
DWGPROPS COOKIE
  2

  3

  4

  6

  7

  8
3684
  9

300
=
301
=
302
=
303
=
304
=
305
=
306
=
307
=
308
=
309
=
 40
0.0
 41
2451318.246352917
 42
2458017.990916829
  1

 90
        0
  0
DICTIONARY
  5
96DA
102
{ACAD_REACTORS
330
96D9
102
}
330
96D9
100
AcDbDictionary
1001
ACAD
1000
TREAT_AS_HARD
1070
     0
  0
ACAD_PROXY_OBJECT
  5
9594
102
{ACAD_REACTORS
330
9593
102
}
330
9593
100
AcDbZombieObject
 90
      499
 91
      516
 93
       34
310
40C8804040
  0
ACAD_PROXY_OBJECT
  5
9596
102
{ACAD_REACTORS
330
9595
102
}
330
9595
100
AcDbZombieObject
 90
      499
 91
      516
 93
       34
310
40C8804040
  0
ACAD_PROXY_OBJECT
  5
9598
102
{ACAD_REACTORS
330
9597
102
}
330
9597
100
AcDbZombieObject
 90
      499
 91
      516
 93
       34
310
40C8804040
  0
ACAD_PROXY_OBJECT
  5
959E
102
{ACAD_REACTORS
330
959D
102
}
330
959D
100
AcDbZombieObject
 90
      499
 91
      516
 93
       34
310
40C8804040
  0
ACAD_PROXY_OBJECT
  5
95A4
102
{ACAD_REACTORS
330
95A3
102
}
330
95A3
100
AcDbZombieObject
 90
      499
 91
      516
 93
       34
310
40C8804040
  0
SORTENTSTABLE
  5
890
102
{ACAD_REACTORS
330
88F
102
}
330
88F
100
AcDbSortentsTable
330
18
331
AF30
  5
AF3D
331
AF31
  5
AF3E
331
AF32
  5
AF3F
331
AF33
  5
AF40
331
AF34
  5
AF41
331
AF35
  5
AF42
331
AF36
  5
AF43
331
AF37
  5
AF44
331
AF38
  5
AF45
331
AF39
  5
AF46
331
AF3A
  5
AF47
331
AF3B
  5
AF49
331
AF3C
  5
AF4A
331
AF3D
  5
AF4C
331
AF3E
  5
AF4D
331
AF3F
  5
AF4E
331
AF40
  5
AF4F
331
AF41
  5
AF50
331
AF42
  5
AF51
331
AF43
  5
AF52
331
AF44
  5
AF53
331
AF45
  5
AF54
331
AF46
  5
AF55
331
AF47
  5
AF56
331
AF49
  5
AF58
331
AF4A
  5
AF59
331
AF4C
  5
AF5A
331
AF4D
  5
AF5B
331
AF4E
  5
AF5C
331
AF4F
  5
AF5D
331
0
  5
AF5E
331
0
  5
AF5F
331
0
  5
AF60
331
0
  5
AF61
331
0
  5
AF62
331
AF55
  5
AFA5
331
AF56
  5
AFA6
331
AF57
  5
AFA7
331
AF58
  5
AFA8
331
AF59
  5
AFA9
331
AF5A
  5
AFAA
331
AF5B
  5
AFAB
331
AF5C
  5
AFAC
331
AF5D
  5
AFAD
331
AF5E
  5
AFAE
331
AF5F
  5
AFAF
331
AF60
  5
AFB0
331
AF61
  5
AFB1
331
AF62
  5
AFB2
331
AF63
  5
AFB3
331
AF64
  5
AFB4
331
AF65
  5
AFB5
331
AF66
  5
AFB6
331
AF67
  5
AFB7
331
AF68
  5
AFB8
331
AF69
  5
B0EC
331
AF6A
  5
B0ED
331
AF6B
  5
B0EE
331
AF6C
  5
B0EF
331
AF6D
  5
B0F0
331
AF6E
  5
B0F1
331
AF6F
  5
B0F2
331
AF70
  5
B0F3
331
AF71
  5
B0F4
331
AF72
  5
B0F5
331
AF73
  5
B0F6
331
AF74
  5
B0F7
331
AF75
  5
B0F8
331
AF76
  5
B0F9
331
AF77
  5
B0FA
331
AF78
  5
B0FB
331
AF79
  5
B0FC
331
AF7A
  5
B0FD
331
AF7B
  5
B0FE
331
AF7C
  5
B0FF
331
AF7D
  5
B100
331
AF7E
  5
B101
331
AF7F
  5
B102
331
AF80
  5
B103
331
AF81
  5
B104
331
AF82
  5
B105
331
AF83
  5
B106
331
AF84
  5
B107
331
AF85
  5
B108
331
AF86
  5
B109
331
AF87
  5
B10A
331
AF88
  5
B10B
331
AF89
  5
B10C
331
AF8A
  5
B10D
331
AF8B
  5
B10E
331
AF8C
  5
B10F
331
AF8D
  5
B110
331
AF8E
  5
B111
331
AF8F
  5
B112
331
AF90
  5
B113
331
AF91
  5
B114
331
AF92
  5
B115
331
AF93
  5
B116
331
AF94
  5
B117
331
AF95
  5
B118
331
AF96
  5
B119
331
AF97
  5
B11A
331
AF98
  5
B11B
331
AF99
  5
B11C
331
AF9A
  5
B11D
331
AF9B
  5
B11E
331
AF9C
  5
B11F
331
AF9D
  5
B120
331
AF9E
  5
B121
331
AF9F
  5
B122
331
AFA0
  5
B123
331
AFA1
  5
B124
331
AFA2
  5
B125
331
AFA3
  5
B126
331
AFA4
  5
B127
331
AFA5
  5
B128
331
AFA6
  5
B129
331
AFA7
  5
B12A
331
AFA8
  5
B12B
331
AFA9
  5
B12C
331
AFAA
  5
B12D
331
AFAB
  5
B12E
331
AFAC
  5
B12F
331
AFAD
  5
B130
331
AFAE
  5
B131
331
AFAF
  5
B132
331
AFB0
  5
B133
331
AFB1
  5
B134
331
AFB2
  5
B135
331
AFB3
  5
B136
331
AFB4
  5
B137
331
AFB5
  5
B138
331
AFB6
  5
B139
331
AFB7
  5
B13A
331
AFB8
  5
B13B
331
B0EC
  5
AF30
331
B0ED
  5
AF31
331
B0EE
  5
AF32
331
0
  5
AF33
331
0
  5
AF34
331
0
  5
AF35
331
B0F2
  5
AF57
331
B0F3
  5
AF36
331
B0F4
  5
AF37
331
B0F5
  5
AF38
331
B0F6
  5
AF39
331
B0F7
  5
AF3A
331
B0F8
  5
AF3B
331
B0F9
  5
AF3C
331
B0FA
  5
AF63
331
B0FB
  5
AF64
331
B0FC
  5
AF65
331
0
  5
AF66
331
0
  5
AF67
331
0
  5
AF68
331
B100
  5
AF76
331
B101
  5
AF77
331
B102
  5
AF7B
331
0
  5
AF6C
331
0
  5
AF6D
331
0
  5
AF6E
331
B106
  5
AF86
331
B107
  5
AF87
331
B108
  5
AF88
331
0
  5
AF72
331
0
  5
AF73
331
0
  5
AF74
331
B10C
  5
AF90
331
B10D
  5
AF91
331
B10E
  5
AF92
331
0
  5
AF78
331
0
  5
AF79
331
0
  5
AF7A
331
B112
  5
AF9A
331
B113
  5
AF9B
331
B114
  5
AF9C
331
B115
  5
AF9D
331
0
  5
AF7F
331
0
  5
AF80
331
0
  5
AF81
331
B119
  5
AF69
331
B11A
  5
AF6A
331
B11B
  5
AF6B
331
B11C
  5
AF6F
331
B11D
  5
AF70
331
B11E
  5
AF71
331
B11F
  5
AF75
331
B120
  5
AF7C
331
B121
  5
AF7D
331
B122
  5
AF7E
331
B123
  5
AF82
331
B124
  5
AF83
331
B125
  5
AF84
331
B126
  5
AF85
331
B127
  5
AF89
331
B128
  5
AF8A
331
B129
  5
AF8B
331
B12A
  5
AF8C
331
B12B
  5
AF8D
331
B12C
  5
AF8E
331
B12D
  5
AF8F
331
B12E
  5
AF93
331
B12F
  5
AF94
331
B130
  5
AF95
331
B131
  5
AF96
331
B132
  5
AF97
331
B133
  5
AF98
331
B134
  5
AF99
331
B135
  5
AF9E
331
B136
  5
AF9F
331
B137
  5
AFA0
331
B138
  5
AFA1
331
B139
  5
AFA2
331
B13A
  5
AFA3
331
B13B
  5
AFA4
  0
MATERIAL
  5
9540
102
{ACAD_REACTORS
330
18C
102
}
102
{ACAD_XDICTIONARY
360
B2DA
102
}
330
18C
100
AcDbMaterial
  1
BYBLOCK
 72
     0
 73
     2
 43
0.0208333333333333
 43
0.0
 43
0.0
 43
0.0
 43
0.0
 43
0.0208333333333333
 43
0.0
 43
0.0
 43
0.0
 43
0.0
 43
1.0
 43
0.0
 43
0.0
 43
0.0
 43
0.0
 43
1.0
 77
     0
 78
     2
 47
0.0208333333333333
 47
0.0
 47
0.0
 47
0.0
 47
0.0
 47
0.0208333333333333
 47
0.0
 47
0.0
 47
0.0
 47
0.0
 47
1.0
 47
0.0
 47
0.0
 47
0.0
 47
0.0
 47
1.0
171
     0
172
     2
 49
0.0208333333333333
 49
0.0
 49
0.0
 49
0.0
 49
0.0
 49
0.0208333333333333
 49
0.0
 49
0.0
 49
0.0
 49
0.0
 49
1.0
 49
0.0
 49
0.0
 49
0.0
 49
0.0
 49
1.0
175
     0
176
     2
142
0.0208333333333333
142
0.0
142
0.0
142
0.0
142
0.0
142
0.0208333333333333
142
0.0
142
0.0
142
0.0
142
0.0
142
1.0
142
0.0
142
0.0
142
0.0
142
0.0
142
1.0
179
     0
270
     2
144
0.0208333333333333
144
0.0
144
0.0
144
0.0
144
0.0
144
0.0208333333333333
144
0.0
144
0.0
144
0.0
144
0.0
144
1.0
144
0.0
144
0.0
144
0.0
144
0.0
144
1.0
274
     2
147
0.0208333333333333
147
0.0
147
0.0
147
0.0
147
0.0
147
0.0208333333333333
147
0.0
147
0.0
147
0.0
147
0.0
147
1.0
147
0.0
147
0.0
147
0.0
147
0.0
147
1.0
  0
MATERIAL
  5
9538
102
{ACAD_REACTORS
330
18C
102
}
102
{ACAD_XDICTIONARY
360
B2DC
102
}
330
18C
100
AcDbMaterial
  1
BYLAYER
 72
     0
 73
     2
 43
0.0208333333333333
 43
0.0
 43
0.0
 43
0.0
 43
0.0
 43
0.0208333333333333
 43
0.0
 43
0.0
 43
0.0
 43
0.0
 43
1.0
 43
0.0
 43
0.0
 43
0.0
 43
0.0
 43
1.0
 77
     0
 78
     2
 47
0.0208333333333333
 47
0.0
 47
0.0
 47
0.0
 47
0.0
 47
0.0208333333333333
 47
0.0
 47
0.0
 47
0.0
 47
0.0
 47
1.0
 47
0.0
 47
0.0
 47
0.0
 47
0.0
 47
1.0
171
     0
172
     2
 49
0.0208333333333333
 49
0.0
 49
0.0
 49
0.0
 49
0.0
 49
0.0208333333333333
 49
0.0
 49
0.0
 49
0.0
 49
0.0
 49
1.0
 49
0.0
 49
0.0
 49
0.0
 49
0.0
 49
1.0
175
     0
176
     2
142
0.0208333333333333
142
0.0
142
0.0
142
0.0
142
0.0
142
0.0208333333333333
142
0.0
142
0.0
142
0.0
142
0.0
142
1.0
142
0.0
142
0.0
142
0.0
142
0.0
142
1.0
179
     0
270
     2
144
0.0208333333333333
144
0.0
144
0.0
144
0.0
144
0.0
144
0.0208333333333333
144
0.0
144
0.0
144
0.0
144
0.0
144
1.0
144
0.0
144
0.0
144
0.0
144
0.0
144
1.0
274
     2
147
0.0208333333333333
147
0.0
147
0.0
147
0.0
147
0.0
147
0.0208333333333333
147
0.0
147
0.0
147
0.0
147
0.0
147
1.0
147
0.0
147
0.0
147
0.0
147
0.0
147
1.0
  0
MATERIAL
  5
9548
102
{ACAD_REACTORS
330
18C
102
}
102
{ACAD_XDICTIONARY
360
B2DE
102
}
330
18C
100
AcDbMaterial
  1
GLOBAL
 72
     0
 73
     2
 43
0.0208333333333333
 43
0.0
 43
0.0
 43
0.0
 43
0.0
 43
0.0208333333333333
 43
0.0
 43
0.0
 43
0.0
 43
0.0
 43
1.0
 43
0.0
 43
0.0
 43
0.0
 43
0.0
 43
1.0
 77
     0
 78
     2
 47
0.0208333333333333
 47
0.0
 47
0.0
 47
0.0
 47
0.0
 47
0.0208333333333333
 47
0.0
 47
0.0
 47
0.0
 47
0.0
 47
1.0
 47
0.0
 47
0.0
 47
0.0
 47
0.0
 47
1.0
171
     0
172
     2
 49
0.0208333333333333
 49
0.0
 49
0.0
 49
0.0
 49
0.0
 49
0.0208333333333333
 49
0.0
 49
0.0
 49
0.0
 49
0.0
 49
1.0
 49
0.0
 49
0.0
 49
0.0
 49
0.0
 49
1.0
175
     0
176
     2
142
0.0208333333333333
142
0.0
142
0.0
142
0.0
142
0.0
142
0.0208333333333333
142
0.0
142
0.0
142
0.0
142
0.0
142
1.0
142
0.0
142
0.0
142
0.0
142
0.0
142
1.0
179
     0
270
     2
144
0.0208333333333333
144
0.0
144
0.0
144
0.0
144
0.0
144
0.0208333333333333
144
0.0
144
0.0
144
0.0
144
0.0
144
1.0
144
0.0
144
0.0
144
0.0
144
0.0
144
1.0
274
     2
147
0.0208333333333333
147
0.0
147
0.0
147
0.0
147
0.0
147
0.0208333333333333
147
0.0
147
0.0
147
0.0
147
0.0
147
1.0
147
0.0
147
0.0
147
0.0
147
0.0
147
1.0
  0
ACAD_PROXY_OBJECT
  5
9584
102
{ACAD_REACTORS
330
9583
102
}
330
9583
100
AcDbZombieObject
 90
      499
 91
      511
 93
      610
310
40901902A4063FBFFFFFE000000000000002040AD7A3703D0AD73F4214DD185B99185C990000000000000104090141901A00000000000004100000000000000041025764000000000000300FC0
340
12
340
0
340
F
340
0
 94
        0
1001
ACAD_MLEADERVER
1070
     2
  0
MLINESTYLE
  5
1C
102
{ACAD_REACTORS
330
1B
102
}
330
1B
100
AcDbMlineStyle
  2
STANDARD
 70
     0
  3

 62
   256
 51
90.0
 52
90.0
 71
     2
 49
0.5
 62
   256
  6
BYLAYER
 49
-0.5
 62
   256
  6
BYLAYER
  0
ACAD_PROXY_OBJECT
  5
9562
102
{ACAD_REACTORS
330
9561
102
}
330
9561
100
AcDbZombieObject
 90
      499
 91
      510
 93
       41
310
903313A31580
  0
ACAD_PROXY_OBJECT
  5
9563
102
{ACAD_REACTORS
330
9561
102
}
330
9561
100
AcDbZombieObject
 90
      499
 91
      510
 93
      105
310
903313A324000000000000004000
  0
ACAD_PROXY_OBJECT
  5
9564
102
{ACAD_REACTORS
330
9561
102
}
330
9561
100
AcDbZombieObject
 90
      499
 91
      510
 93
      105
310
903313A344000000000000104000
  0
ACAD_PROXY_OBJECT
  5
9565
102
{ACAD_REACTORS
330
9561
102
}
330
9561
100
AcDbZombieObject
 90
      499
 91
      510
 93
      105
310
903313A354000000000000144000
  0
ACAD_PROXY_OBJECT
  5
9566
102
{ACAD_REACTORS
330
9561
102
}
330
9561
100
AcDbZombieObject
 90
      499
 91
      510
 93
      105
310
903313A384000000000000204000
  0
ACAD_PROXY_OBJECT
  5
9567
102
{ACAD_REACTORS
330
9561
102
}
330
9561
100
AcDbZombieObject
 90
      499
 91
      510
 93
      113
310
904313A31304000000000000244000
  0
ACAD_PROXY_OBJECT
  5
9568
102
{ACAD_REACTORS
330
9561
102
}
330
9561
100
AcDbZombieObject
 90
      499
 91
      510
 93
      113
310
904313A31364000000000000304000
  0
ACAD_PROXY_OBJECT
  5
9569
102
{ACAD_REACTORS
330
9561
102
}
330
9561
100
AcDbZombieObject
 90
      499
 91
      510
 93
      113
310
904313A32304000000000000344000
  0
ACAD_PROXY_OBJECT
  5
956A
102
{ACAD_REACTORS
330
9561
102
}
330
9561
100
AcDbZombieObject
 90
      499
 91
      510
 93
      113
310
904313A333040000000000003E4000
  0
ACAD_PROXY_OBJECT
  5
956B
102
{ACAD_REACTORS
330
9561
102
}
330
9561
100
AcDbZombieObject
 90
      499
 91
      510
 93
      113
310
904313A34304000000000000444000
  0
ACAD_PROXY_OBJECT
  5
956C
102
{ACAD_REACTORS
330
9561
102
}
330
9561
100
AcDbZombieObject
 90
      499
 91
      510
 93
      113
310
904313A35304000000000000494000
  0
ACAD_PROXY_OBJECT
  5
956D
102
{ACAD_REACTORS
330
9561
102
}
330
9561
100
AcDbZombieObject
 90
      499
 91
      510
 93
      121
310
905313A3130304000000000000594000
  0
ACAD_PROXY_OBJECT
  5
956E
102
{ACAD_REACTORS
330
9561
102
}
330
9561
100
AcDbZombieObject
 90
      499
 91
      510
 93
      105
310
903323A310000000000000010100
  0
ACAD_PROXY_OBJECT
  5
956F
102
{ACAD_REACTORS
330
9561
102
}
330
9561
100
AcDbZombieObject
 90
      499
 91
      510
 93
      105
310
903343A310000000000000410100
  0
ACAD_PROXY_OBJECT
  5
9570
102
{ACAD_REACTORS
330
9561
102
}
330
9561
100
AcDbZombieObject
 90
      499
 91
      510
 93
      105
310
903383A310000000000000810100
  0
ACAD_PROXY_OBJECT
  5
9571
102
{ACAD_REACTORS
330
9561
102
}
330
9561
100
AcDbZombieObject
 90
      499
 91
      510
 93
      113
310
90431303A310000000000000910100
  0
ACAD_PROXY_OBJECT
  5
9572
102
{ACAD_REACTORS
330
9561
102
}
330
9561
100
AcDbZombieObject
 90
      499
 91
      510
 93
      121
310
9053130303A310000000000001650100
  0
ACAD_PROXY_OBJECT
  5
9573
102
{ACAD_REACTORS
330
9561
102
}
330
9561
100
AcDbZombieObject
 90
      499
 91
      510
 93
      257
310
90E312F31323822203D2031272D3022000000000000200FC000000000000284000
  0
ACAD_PROXY_OBJECT
  5
9574
102
{ACAD_REACTORS
330
9561
102
}
330
9561
100
AcDbZombieObject
 90
      499
 91
      510
 93
      249
310
90D312F363422203D2031272D3022000000000000240FC000000000000284000
  0
ACAD_PROXY_OBJECT
  5
9575
102
{ACAD_REACTORS
330
9561
102
}
330
9561
100
AcDbZombieObject
 90
      499
 91
      510
 93
      249
310
90D312F333222203D2031272D3022000000000000280FC000000000000284000
  0
ACAD_PROXY_OBJECT
  5
9576
102
{ACAD_REACTORS
330
9561
102
}
330
9561
100
AcDbZombieObject
 90
      499
 91
      510
 93
      249
310
90D312F313622203D2031272D30220000000000002C0FC000000000000284000
  0
ACAD_PROXY_OBJECT
  5
9577
102
{ACAD_REACTORS
330
9561
102
}
330
9561
100
AcDbZombieObject
 90
      499
 91
      510
 93
      249
310
90D332F333222203D2031272D30220000000000002E0FC000000000000284000
  0
ACAD_PROXY_OBJECT
  5
9578
102
{ACAD_REACTORS
330
9561
102
}
330
9561
100
AcDbZombieObject
 90
      499
 91
      510
 93
      241
310
90C312F3822203D2031272D3022000000000000300FC000000000000284000
  0
ACAD_PROXY_OBJECT
  5
9579
102
{ACAD_REACTORS
330
9561
102
}
330
9561
100
AcDbZombieObject
 90
      499
 91
      510
 93
      249
310
90D332F313622203D2031272D3022000000000000320FC000000000000284000
  0
ACAD_PROXY_OBJECT
  5
957A
102
{ACAD_REACTORS
330
9561
102
}
330
9561
100
AcDbZombieObject
 90
      499
 91
      510
 93
      241
310
90C312F3422203D2031272D3022000000000000340FC000000000000284000
  0
ACAD_PROXY_OBJECT
  5
957B
102
{ACAD_REACTORS
330
9561
102
}
330
9561
100
AcDbZombieObject
 90
      499
 91
      510
 93
      241
310
90C332F3822203D2031272D3022000000000000360FC000000000000284000
  0
ACAD_PROXY_OBJECT
  5
957C
102
{ACAD_REACTORS
330
9561
102
}
330
9561
100
AcDbZombieObject
 90
      499
 91
      510
 93
      241
310
90C312F3222203D2031272D3022000000000000380FC000000000000284000
  0
ACAD_PROXY_OBJECT
  5
957D
102
{ACAD_REACTORS
330
9561
102
}
330
9561
100
AcDbZombieObject
 90
      499
 91
      510
 93
      241
310
90C332F3422203D2031272D30220000000000003A0FC000000000000284000
  0
ACAD_PROXY_OBJECT
  5
957E
102
{ACAD_REACTORS
330
9561
102
}
330
9561
100
AcDbZombieObject
 90
      499
 91
      510
 93
      161
310
90A3122203D2031272D30224000000000000284000
  0
ACAD_PROXY_OBJECT
  5
957F
102
{ACAD_REACTORS
330
9561
102
}
330
9561
100
AcDbZombieObject
 90
      499
 91
      510
 93
      257
310
90E312D312F3222203D2031272D30220000000000003E0FC000000000000284000
  0
ACAD_PROXY_OBJECT
  5
9580
102
{ACAD_REACTORS
330
9561
102
}
330
9561
100
AcDbZombieObject
 90
      499
 91
      510
 93
      225
310
90A3322203D2031272D302200000000000002100000000000000284000
  0
ACAD_PROXY_OBJECT
  5
9581
102
{ACAD_REACTORS
330
9561
102
}
330
9561
100
AcDbZombieObject
 90
      499
 91
      510
 93
      225
310
90A3622203D2031272D302200000000000006100000000000000284000
  0
ACAD_PROXY_OBJECT
  5
9582
102
{ACAD_REACTORS
330
9561
102
}
330
9561
100
AcDbZombieObject
 90
      499
 91
      510
 93
      249
310
90D31272D3022203D2031272D30220000000000000A100000000000000284000
  0
ACAD_PROXY_OBJECT
  5
9556
102
{ACAD_REACTORS
330
9550
102
}
330
9550
100
AcDbZombieObject
 90
      499
 91
      509
 93
      436
310
42CC9915DA5C99599C985B595049028333333333333E3BF0000000000000FB0107901411070040501600405405064090741402480A0340
1001
ACAD
1000
AcDbSavedByObjectVersion
1070
     0
  0
ACAD_PROXY_OBJECT
  5
9558
102
{ACAD_REACTORS
330
9550
102
}
330
9550
100
AcDbZombieObject
 90
      499
 91
      509
 93
      500
310
424CD108121A5919195B90640502408333333333333E3BF0000000000000FB01079024090700405020000000000001110200405405064090740C02480A0340
1001
ACAD
1000
AcDbSavedByObjectVersion
1070
     0
  0
ACAD_PROXY_OBJECT
  5
9557
102
{ACAD_REACTORS
330
9550
102
}
330
9550
100
AcDbZombieObject
 90
      499
 91
      509
 93
      436
310
42CCD915DA5C99599C985B595059028333333333333E3BF0000000000000FB0107901411070040501600405405064090741402480A0340
1001
ACAD
1000
AcDbSavedByObjectVersion
1070
     0
  0
ACAD_PROXY_OBJECT
  5
9555
102
{ACAD_REACTORS
330
9550
102
}
330
9550
100
AcDbZombieObject
 90
      499
 91
      509
 93
      388
310
4150985CDA58D07406404333333333333E3BF0000000000000FB0107A41107004050150841D405064090741402480A0350
1001
ACAD
1000
AcDbSavedByObjectVersion
1070
     0
  0
ACAD_PROXY_OBJECT
  5
955C
102
{ACAD_REACTORS
330
9550
102
}
330
9550
100
AcDbZombieObject
 90
      499
 91
      509
 93
      428
310
42109C9A59DA1D195B90C409028333333333333E3BF0000000000000FB010790141107004050150841D405064090741402480A029950
1001
ACAD
1000
AcDbSavedByObjectVersion
1070
     0
  0
ACAD_PROXY_OBJECT
  5
9560
102
{ACAD_REACTORS
330
9550
102
}
330
9550
100
AcDbZombieObject
 90
      499
 91
      509
 93
      452
310
42D0DBDB1BDC90DA185B99D95104090240C333333333333E3BF0000000000000FB0108901411070040501508421405064090741402480A0350
1001
ACAD
1000
AcDbSavedByObjectVersion
1070
     0
  0
ACAD_PROXY_OBJECT
  5
9559
102
{ACAD_REACTORS
330
9550
102
}
330
9550
100
AcDbZombieObject
 90
      499
 91
      509
 93
      500
310
4290DBDB98D95C1D1D585B10940D028333333333333E3BF0000000000000FB0107902409070040501000000000000111010841D405064090740C02480A0340
1001
ACAD
1000
AcDbSavedByObjectVersion
1070
     0
  0
ACAD_PROXY_OBJECT
  5
955B
102
{ACAD_REACTORS
330
9550
102
}
330
9550
100
AcDbZombieObject
 90
      499
 91
      509
 93
      412
310
40D11A5B50B409028333333333333E3BF0000000000000FB010790141107004050150841D405064090741402480A02677FFFFFD0
1001
ACAD
1000
AcDbSavedByObjectVersion
1070
     0
  0
ACAD_PROXY_OBJECT
  5
A211
102
{ACAD_REACTORS
330
9550
102
}
330
9550
100
AcDbZombieObject
 90
      499
 91
      509
 93
      452
310
43115919D950DBDB1BDC93D999916409028333333333333E3BF0000000000000FB010790141107004050150841D405064090741402480A0350
1001
ACAD
1000
AcDbSavedByObjectVersion
1070
     0
  0
ACAD_PROXY_OBJECT
  5
955F
102
{ACAD_REACTORS
330
9550
102
}
330
9550
100
AcDbZombieObject
 90
      499
 91
      509
 93
      444
310
42D19858D95C185D1D195C9B90F409028333333333333E3BF0000000000000FB010790141107004050150841D405064090741402480A0350
1001
ACAD
1000
AcDbSavedByObjectVersion
1070
     0
  0
ACAD_PROXY_OBJECT
  5
9551
102
{ACAD_REACTORS
330
9550
102
}
330
9550
100
AcDbZombieObject
 90
      499
 91
      509
 93
      388
310
41119B185D240901404333333333333E3BF0000000000000F9010740A41107004050150841D405064090741402480A1B50
1001
ACAD
1000
AcDbSavedByObjectVersion
1070
     0
  0
ACAD_PROXY_OBJECT
  5
9552
102
{ACAD_REACTORS
330
9550
102
}
330
9550
100
AcDbZombieObject
 90
      499
 91
      509
 93
      476
310
43519B185D15DA5D1A115919D95CD0140901404333333333333E3BF0000000000000F9010740901411070040501600405405064090741402480A1B50
1001
ACAD
1000
AcDbSavedByObjectVersion
1070
     0
  0
ACAD_PROXY_OBJECT
  5
9553
102
{ACAD_REACTORS
330
9550
102
}
330
9550
100
AcDbZombieObject
 90
      499
 91
      509
 93
      412
310
41D1DBDD5C985D5910240902404333333333333E3BF0000000000000F9010740A411070040501641D405064090741402480A1B50
1001
ACAD
1000
AcDbSavedByObjectVersion
1070
     0
  0
ACAD_PROXY_OBJECT
  5
9554
102
{ACAD_REACTORS
330
9550
102
}
330
9550
100
AcDbZombieObject
 90
      499
 91
      509
 93
      500
310
4411DBDD5C985D5915DA5D1A115919D95CD0340902404333333333333E3BF0000000000000F9010740901411070040501600405405064090741402480A1B50
1001
ACAD
1000
AcDbSavedByObjectVersion
1070
     0
  0
ACAD_PROXY_OBJECT
  5
A260
102
{ACAD_REACTORS
330
9550
102
}
330
9550
100
AcDbZombieObject
 90
      499
 91
      509
 93
      476
310
41921A5919195B90640502408333333333333E3BF0000000000000FB01079024090700405020000000000001110200405405064090740C02480A0340
1001
ACAD
1000
AcDbSavedByObjectVersion
1070
     0
  0
ACAD_PROXY_OBJECT
  5
A20F
102
{ACAD_REACTORS
330
9550
102
}
330
9550
100
AcDbZombieObject
 90
      499
 91
      509
 93
      428
310
42529A5D1D195C93D999914409028333333333333E3BF0000000000000FB010790141107004050150A41D405064090741402480A0350
1001
ACAD
1000
AcDbSavedByObjectVersion
1070
     0
  0
ACAD_PROXY_OBJECT
  5
955E
102
{ACAD_REACTORS
330
9550
102
}
330
9550
100
AcDbZombieObject
 90
      499
 91
      509
 93
      444
310
42D31A5B995C185D1D195C9B90E409028333333333333E3BF0000000000000FB010790141107004050750841D405064090741402483A0350
1001
ACAD
1000
AcDbSavedByObjectVersion
1070
     0
  0
ACAD_PROXY_OBJECT
  5
A266
102
{ACAD_REACTORS
330
9550
102
}
330
9550
100
AcDbZombieObject
 90
      499
 91
      509
 93
      484
310
42135BD9195B1A5B99D0A409028333333333333E3BF0000000000000F901074090290700405010000000000201990108421405064090741402480A1B40
1001
ACAD
1000
AcDbSavedByObjectVersion
1070
     0
  0
ACAD_PROXY_OBJECT
  5
A210
102
{ACAD_REACTORS
330
9550
102
}
330
9550
100
AcDbZombieObject
 90
      499
 91
      509
 93
      444
310
42D3DD995C9A185B99D3D999915409028333333333333E3BF0000000000000FB010790141107004050150941D405064090741402480A0350
1001
ACAD
1000
AcDbSavedByObjectVersion
1070
     0
  0
ACAD_PROXY_OBJECT
  5
955A
102
{ACAD_REACTORS
330
9550
102
}
330
9550
100
AcDbZombieObject
 90
      499
 91
      509
 93
      420
310
425499585B1A5CDD1A58D08409028333333333333E3BF0000000000000FB01079019070040501508421405064090741402480A1B40
1001
ACAD
1000
AcDbSavedByObjectVersion
1070
     0
  0
ACAD_PROXY_OBJECT
  5
A265
102
{ACAD_REACTORS
330
9550
102
}
330
9550
100
AcDbZombieObject
 90
      499
 91
      509
 93
      420
310
4194DA1859195911B40902404333333333333E3BF0000000000000F9010740A41107004050150800405405064090840C02480A0B40
1001
ACAD
1000
AcDbSavedByObjectVersion
1070
     0
  0
ACAD_PROXY_OBJECT
  5
A264
102
{ACAD_REACTORS
330
9550
102
}
330
9550
100
AcDbZombieObject
 90
      499
 91
      509
 93
      516
310
4454DA18591959081DDA5D1A08195919D95CD1A40902404333333333333E3BF0000000000000F901074090142907004050250800405405064090740C02480A0B40
1001
ACAD
1000
AcDbSavedByObjectVersion
1070
     0
  0
ACAD_PROXY_OBJECT
  5
A261
102
{ACAD_REACTORS
330
9550
102
}
330
9550
100
AcDbZombieObject
 90
      499
 91
      509
 93
      532
310
4394DA1859195CC81BD98811DC985E5174090240C333333333333E3BF0000000000000FB01079024090741D01000000000000111010841D405064090740C02480A0340
1001
ACAD
1000
AcDbSavedByObjectVersion
1070
     0
  0
ACAD_PROXY_OBJECT
  5
A262
102
{ACAD_REACTORS
330
9550
102
}
330
9550
100
AcDbZombieObject
 90
      499
 91
      509
 93
      476
310
41D4DAD95D18DA1E51840502408333333333333E3BF0000000000000FB01079024090741D01000000000000111010B41D405064090741802480A0340
1001
ACAD
1000
AcDbSavedByObjectVersion
1070
     0
  0
ACAD_PROXY_OBJECT
  5
955D
102
{ACAD_REACTORS
330
9550
102
}
330
9550
100
AcDbZombieObject
 90
      499
 91
      509
 93
      412
310
41D51A1A58DAD95B90D409028333333333333E3BF0000000000000FB010790141107004050150C41D405064090741402480A0350
1001
ACAD
1000
AcDbSavedByObjectVersion
1070
     0
  0
ACAD_PROXY_OBJECT
  5
A25F
102
{ACAD_REACTORS
330
9550
102
}
330
9550
100
AcDbZombieObject
 90
      499
 91
      509
 93
      420
310
4255DA5C99599C985B595059028333333333333E3BF0000000000000FB0107901411070040501600405405064090740C02480A0340
1001
ACAD
1000
AcDbSavedByObjectVersion
1070
     0
  0
ACAD_PROXY_OBJECT
  5
A263
102
{ACAD_REACTORS
330
9550
102
}
330
9550
100
AcDbZombieObject
 90
      499
 91
      509
 93
      404
310
41560B54985E51940902404000000000000E03F0000000000000FB010740501907004050150841D405064090740C02480A1B40
1001
ACAD
1000
AcDbSavedByObjectVersion
1070
     0
  0
XRECORD
  5
B13D
102
{ACAD_REACTORS
330
B13C
102
}
330
B13C
100
AcDbXrecord
340
18D
  0
XRECORD
  5
B13E
102
{ACAD_REACTORS
330
B13C
102
}
330
B13C
100
AcDbXrecord
340
18C
  0
DICTIONARYVAR
  5
B073
102
{ACAD_REACTORS
330
37
102
}
330
37
100
DictionaryVariables
280
     0
  1
1:1
  0
DICTIONARYVAR
  5
9627
102
{ACAD_REACTORS
330
37
102
}
330
37
100
DictionaryVariables
280
     0
  1
Standard
  0
DICTIONARYVAR
  5
29E
102
{ACAD_REACTORS
330
37
102
}
330
37
100
DictionaryVariables
280
     0
  1
Standard
  0
DICTIONARYVAR
  5
38
102
{ACAD_REACTORS
330
37
102
}
330
37
100
DictionaryVariables
280
     0
  1
-1
  0
DICTIONARYVAR
  5
1CE
102
{ACAD_REACTORS
330
37
102
}
330
37
100
DictionaryVariables
280
     0
  1
2
  0
DICTIONARYVAR
  5
704E
102
{ACAD_REACTORS
330
37
102
}
330
37
100
DictionaryVariables
280
     0
  1
1
  0
DICTIONARYVAR
  5
962A
102
{ACAD_REACTORS
330
37
102
}
330
37
100
DictionaryVariables
280
     0
  1
0
  0
DICTIONARYVAR
  5
7052
102
{ACAD_REACTORS
330
37
102
}
330
37
100
DictionaryVariables
280
     0
  1
8
  0
DICTIONARYVAR
  5
7051
102
{ACAD_REACTORS
330
37
102
}
330
37
100
DictionaryVariables
280
     0
  1
1
  0
DICTIONARYVAR
  5
AB30
102
{ACAD_REACTORS
330
37
102
}
330
37
100
DictionaryVariables
280
     0
  1
0
  0
DICTIONARYVAR
  5
704F
102
{ACAD_REACTORS
330
37
102
}
330
37
100
DictionaryVariables
280
     0
  1
8
  0
DICTIONARYVAR
  5
7050
102
{ACAD_REACTORS
330
37
102
}
330
37
100
DictionaryVariables
280
     0
  1
2
  0
DICTIONARYVAR
  5
1CF
102
{ACAD_REACTORS
330
37
102
}
330
37
100
DictionaryVariables
280
     0
  1

  0
DICTIONARYVAR
  5
9629
102
{ACAD_REACTORS
330
37
102
}
330
37
100
DictionaryVariables
280
     0
  1
127
  0
DICTIONARYVAR
  5
B052
102
{ACAD_REACTORS
330
37
102
}
330
37
100
DictionaryVariables
280
     0
  1
2
  0
DICTIONARY
  5
B2DA
330
9540
100
AcDbDictionary
  3
ACAD_XREC_ROUNDTRIP
360
B2DB
1001
ACAD
1000
TREAT_AS_HARD
1070
     1
  0
DICTIONARY
  5
B2DC
330
9538
100
AcDbDictionary
  3
ACAD_XREC_ROUNDTRIP
360
B2DD
1001
ACAD
1000
TREAT_AS_HARD
1070
     1
  0
DICTIONARY
  5
B2DE
330
9548
100
AcDbDictionary
  3
ACAD_XREC_ROUNDTRIP
360
B2DF
1001
ACAD
1000
TREAT_AS_HARD
1070
     1
  0
XRECORD
  5
B2DB
102
{ACAD_REACTORS
330
B2DA
102
}
330
B2DA
100
AcDbXrecord
102
MATERIAL
148
0.0
149
0.0
149
0.0
 93
        0
 94
      127
282
     0
 72
     0
 77
     0
171
     0
175
     0
179
     0
273
     0
  0
XRECORD
  5
B2DD
102
{ACAD_REACTORS
330
B2DC
102
}
330
B2DC
100
AcDbXrecord
102
MATERIAL
148
0.0
149
0.0
149
0.0
 93
        0
 94
      127
282
     0
 72
     0
 77
     0
171
     0
175
     0
179
     0
273
     0
  0
XRECORD
  5
B2DF
102
{ACAD_REACTORS
330
B2DE
102
}
330
B2DE
100
AcDbXrecord
102
MATERIAL
148
0.0
149
0.0
149
0.0
 93
        0
 94
      127
282
     0
 72
     0
 77
     0
171
     0
175
     0
179
     0
273
     0
  0
ENDSEC
  0
EOF
