  0
SECTION
  2
HEADER
  9
$ACADVER
  1
AC1012
  9
$DWGCODEPAGE
  3
ansi_932
  9
$INSBASE
 10
0.0
 20
0.0
 30
0.0
  9
$EXTMIN
 10
-1380.023423454015
 20
526.6067642126236
 30
0.0
  9
$EXTMAX
 10
-775.3244814898106
 20
970.7805247866531
 30
0.0
  9
$LIMMIN
 10
0.0
 20
0.0
  9
$LIMMAX
 10
420.0
 20
297.0
  9
$ORTHOMODE
 70
     0
  9
$REGENMODE
 70
     1
  9
$FILLMODE
 70
     1
  9
$QTEXTMODE
 70
     0
  9
$MIRRTEXT
 70
     0
  9
$DRAGMODE
 70
     2
  9
$LTSCALE
 40
0.5
  9
$OSMODE
 70
  2351
  9
$ATTMODE
 70
     1
  9
$TEXTSIZE
 40
4.0
  9
$TRACEWID
 40
1.0
  9
$TEXTSTYLE
  7
STANDARD
  9
$CLAYER
  8
1TEXT
  9
$CELTYPE
  6
BYLAYER
  9
$CECOLOR
 62
   256
  9
$CELTSCALE
 40
1.0
  9
$DELOBJ
 70
     1
  9
$DISPSILH
 70
     0
  9
$DIMSCALE
 40
2.0
  9
$DIMASZ
 40
2.0
  9
$DIMEXO
 40
0.0
  9
$DIMDLI
 40
7.0
  9
$DIMRND
 40
0.0
  9
$DIMDLE
 40
0.0
  9
$DIMEXE
 40
1.0
  9
$DIMTP
 40
0.0
  9
$DIMTM
 40
0.0
  9
$DIMTXT
 40
3.5
  9
$DIMCEN
 40
0.0
  9
$DIMTSZ
 40
0.0
  9
$DIMTOL
 70
     0
  9
$DIMLIM
 70
     0
  9
$DIMTIH
 70
     0
  9
$DIMTOH
 70
     0
  9
$DIMSE1
 70
     0
  9
$DIMSE2
 70
     0
  9
$DIMTAD
 70
     1
  9
$DIMZIN
 70
     8
  9
$DIMBLK
  1

  9
$DIMASO
 70
     1
  9
$DIMSHO
 70
     1
  9
$DIMPOST
  1
 
  9
$DIMAPOST
  1

  9
$DIMALT
 70
     0
  9
$DIMALTD
 70
     2
  9
$DIMALTF
 40
25.4
  9
$DIMLFAC
 40
1.0
  9
$DIMTOFL
 70
     1
  9
$DIMTVP
 40
0.0
  9
$DIMTIX
 70
     0
  9
$DIMSOXD
 70
     0
  9
$DIMSAH
 70
     1
  9
$DIMBLK1
  1
OPEN30
  9
$DIMBLK2
  1
OPEN30
  9
$DIMSTYLE
  2
NEWX10
  9
$DIMCLRD
 70
   256
  9
$DIMCLRE
 70
   256
  9
$DIMCLRT
 70
   201
  9
$DIMTFAC
 40
0.7
  9
$DIMGAP
 40
0.7
  9
$DIMJUST
 70
     0
  9
$DIMSD1
 70
     0
  9
$DIMSD2
 70
     0
  9
$DIMTOLJ
 70
     1
  9
$DIMTZIN
 70
     8
  9
$DIMALTZ
 70
     0
  9
$DIMALTTZ
 70
     0
  9
$DIMFIT
 70
     2
  9
$DIMUPT
 70
     0
  9
$DIMUNIT
 70
     2
  9
$DIMDEC
 70
     2
  9
$DIMTDEC
 70
     4
  9
$DIMALTU
 70
     2
  9
$DIMALTTD
 70
     2
  9
$DIMTXSTY
  7
STANDARD
  9
$DIMAUNIT
 70
     0
  9
$LUNITS
 70
     2
  9
$LUPREC
 70
     4
  9
$SKETCHINC
 40
1.0
  9
$FILLETRAD
 40
0.0
  9
$AUNITS
 70
     0
  9
$AUPREC
 70
     2
  9
$MENU
  1
acad
  9
$ELEVATION
 40
0.0
  9
$PELEVATION
 40
0.0
  9
$THICKNESS
 40
0.0
  9
$LIMCHECK
 70
     0
  9
$CHAMFERA
 40
10.0
  9
$CHAMFERB
 40
10.0
  9
$CHAMFERC
 40
20.0
  9
$CHAMFERD
 40
0.0
  9
$SKPOLY
 70
     0
  9
$TDCREATE
 40
2451318.621352917
  9
$TDUPDATE
 40
2458065.389395104
  9
$TDINDWG
 40
8.4995335995
  9
$TDUSRTIMER
 40
8.4995335995
  9
$USRTIMER
 70
     1
  9
$ANGBASE
 50
0.0
  9
$ANGDIR
 70
     0
  9
$PDMODE
 70
     0
  9
$PDSIZE
 40
0.0
  9
$PLINEWID
 40
0.0
  9
$COORDS
 70
     3
  9
$SPLFRAME
 70
     0
  9
$SPLINETYPE
 70
     6
  9
$SPLINESEGS
 70
     8
  9
$ATTDIA
 70
     0
  9
$ATTREQ
 70
     1
  9
$HANDLING
 70
     1
  9
$HANDSEED
  5
F731
  9
$SURFTAB1
 70
     6
  9
$SURFTAB2
 70
     6
  9
$SURFTYPE
 70
     6
  9
$SURFU
 70
     6
  9
$SURFV
 70
     6
  9
$UCSNAME
  2

  9
$UCSORG
 10
0.0
 20
0.0
 30
0.0
  9
$UCSXDIR
 10
1.0
 20
0.0
 30
0.0
  9
$UCSYDIR
 10
0.0
 20
1.0
 30
0.0
  9
$PUCSNAME
  2

  9
$PUCSORG
 10
0.0
 20
0.0
 30
0.0
  9
$PUCSXDIR
 10
1.0
 20
0.0
 30
0.0
  9
$PUCSYDIR
 10
0.0
 20
1.0
 30
0.0
  9
$USERI1
 70
     0
  9
$USERI2
 70
     0
  9
$USERI3
 70
     0
  9
$USERI4
 70
     0
  9
$USERI5
 70
     0
  9
$USERR1
 40
0.0
  9
$USERR2
 40
0.0
  9
$USERR3
 40
0.0
  9
$USERR4
 40
0.0
  9
$USERR5
 40
0.0
  9
$WORLDVIEW
 70
     1
  9
$SHADEDGE
 70
     3
  9
$SHADEDIF
 70
    70
  9
$TILEMODE
 70
     1
  9
$MAXACTVP
 70
    48
  9
$PINSBASE
 10
0.0
 20
0.0
 30
0.0
  9
$PLIMCHECK
 70
     0
  9
$PEXTMIN
 10
1.000000000000000E+20
 20
1.000000000000000E+20
 30
1.000000000000000E+20
  9
$PEXTMAX
 10
-1.000000000000000E+20
 20
-1.000000000000000E+20
 30
-1.000000000000000E+20
  9
$PLIMMIN
 10
0.0
 20
0.0
  9
$PLIMMAX
 10
420.0
 20
297.0
  9
$UNITMODE
 70
     0
  9
$VISRETAIN
 70
     1
  9
$PLINEGEN
 70
     0
  9
$PSLTSCALE
 70
     1
  9
$TREEDEPTH
 70
  3020
  9
$PICKSTYLE
 70
     1
  9
$CMLSTYLE
  2
STANDARD
  9
$CMLJUST
 70
     0
  9
$CMLSCALE
 40
20.0
  9
$SAVEIMAGES
 70
     1
  0
ENDSEC
  0
SECTION
  2
CLASSES
  0
CLASS
  1
DICTIONARYVAR
  2
AcDbDictionaryVar
  3
ObjectDBX Classes
 90
        0
280
     0
281
     0
  0
CLASS
  1
IDBUFFER
  2
AcDbIdBuffer
  3
ObjectDBX Classes
 90
    32768
280
     0
281
     0
  0
CLASS
  1
LWPOLYLINE
  2
AcDbPolyline
  3
ObjectDBX Classes
 90
    32768
280
     0
281
     1
  0
CLASS
  1
HATCH
  2
AcDbHatch
  3
ObjectDBX Classes
 90
    32768
280
     0
281
     1
  0
CLASS
  1
OLE2FRAME
  2
AcDbOle2Frame
  3
ObjectDBX Classes
 90
    32768
280
     0
281
     1
  0
CLASS
  1
ACDBDICTIONARYWDFLT
  2
AcDbDictionaryWithDefault
  3
ObjectDBX Classes
 90
    32768
280
     0
281
     0
  0
CLASS
  1
TABLESTYLE
  2
AcDbTableStyle
  3
ObjectDBX Classes
 90
     4095
280
     0
281
     0
  0
CLASS
  1
SORTENTSTABLE
  2
AcDbSortentsTable
  3
ObjectDBX Classes
 90
    32768
280
     0
281
     0
  0
CLASS
  1
ACDBPLACEHOLDER
  2
AcDbPlaceHolder
  3
ObjectDBX Classes
 90
        0
280
     0
281
     0
  0
CLASS
  1
LAYOUT
  2
AcDbLayout
  3
ObjectDBX Classes
 90
        0
280
     0
281
     0
  0
CLASS
  1
MATERIAL
  2
AcDbMaterial
  3
ObjectDBX Classes
 90
     1153
280
     0
281
     0
  0
CLASS
  1
VISUALSTYLE
  2
AcDbVisualStyle
  3
ObjectDBX Classes
 90
     4095
280
     0
281
     0
  0
CLASS
  1
SCALE
  2
AcDbScale
  3
ObjectDBX Classes
 90
     1153
280
     0
281
     0
  0
CLASS
  1
MLEADERSTYLE
  2
AcDbMLeaderStyle
  3
ACDB_MLEADERSTYLE_CLASS
 90
     4095
280
     0
281
     0
  0
CLASS
  1
CELLSTYLEMAP
  2
AcDbCellStyleMap
  3
ObjectDBX Classes
 90
     1152
280
     0
281
     0
  0
CLASS
  1
SUN
  2
AcDbSun
  3
SCENEOE
 90
     1153
280
     0
281
     0
  0
CLASS
  1
XRECORD
  2
AcDbXrecord
  3
ObjectDBX Classes
 90
    32768
280
     0
281
     0
  0
ENDSEC
  0
SECTION
  2
TABLES
  0
TABLE
  2
VPORT
  5
8
330
0
100
AcDbSymbolTable
 70
     1
  0
VPORT
  5
EAE0
330
8
100
AcDbSymbolTableRecord
100
AcDbViewportTableRecord
  2
*ACTIVE
 70
     0
 10
0.0
 20
0.0
 11
1.0
 21
1.0
 12
-1077.673952471913
 22
748.6936444996384
 13
0.0
 23
0.0
 14
10.0
 24
10.0
 15
10.0
 25
10.0
 16
0.0
 26
0.0
 36
1.0
 17
0.0
 27
0.0
 37
0.0
 40
476.9023534584317
 41
2.122931442080378
 42
50.0
 43
0.0
 44
0.0
 50
0.0
 51
0.0
 71
    16
 72
   100
 73
     1
 74
     1
 75
     0
 76
     0
 77
     0
 78
     0
  0
ENDTAB
  0
TABLE
  2
LTYPE
  5
5
330
0
100
AcDbSymbolTable
 70
     4
  0
LTYPE
  5
12
330
5
100
AcDbSymbolTableRecord
100
AcDbLinetypeTableRecord
  2
BYBLOCK
 70
     0
  3

 72
    65
 73
     0
 40
0.0
  0
LTYPE
  5
13
330
5
100
AcDbSymbolTableRecord
100
AcDbLinetypeTableRecord
  2
BYLAYER
 70
     0
  3

 72
    65
 73
     0
 40
0.0
  0
LTYPE
  5
14
330
5
100
AcDbSymbolTableRecord
100
AcDbLinetypeTableRecord
  2
CONTINUOUS
 70
     0
  3
Solid line
 72
    65
 73
     0
 40
0.0
  0
LTYPE
  5
26
330
5
100
AcDbSymbolTableRecord
100
AcDbLinetypeTableRecord
  2
CENTER2
 70
     0
  3
Center (.5x) ___ _ ___ _ ___ _ ___ _ ___ _ ___
 72
    65
 73
     4
 40
28.575
 49
19.05
 74
     0
 49
-3.175
 74
     0
 49
3.175
 74
     0
 49
-3.175
 74
     0
  0
LTYPE
  5
6A
330
5
100
AcDbSymbolTableRecord
100
AcDbLinetypeTableRecord
  2
XREF1|CENTER2
 70
    16
  3
Center (.5x) ___ _ ___ _ ___ _ ___ _ ___ _ ___
 72
    65
 73
     4
 40
28.575
 49
19.05
 74
     0
 49
-3.175
 74
     0
 49
3.175
 74
     0
 49
-3.175
 74
     0
  0
LTYPE
  5
100
330
5
100
AcDbSymbolTableRecord
100
AcDbLinetypeTableRecord
  2
PHANTOM2
 70
     0
  3
Phantom (0.5x) ___ _ _ ___ _ _ ___ _ _ ___ _ _
 72
    65
 73
     6
 40
31.75
 49
15.875
 74
     0
 49
-3.175
 74
     0
 49
3.175
 74
     0
 49
-3.175
 74
     0
 49
3.175
 74
     0
 49
-3.175
 74
     0
  0
ENDTAB
  0
TABLE
  2
LAYER
  5
2
102
{ACAD_XDICTIONARY
360
EB69
102
}
330
0
100
AcDbSymbolTable
 70
     7
  0
LAYER
  5
E
102
{ACAD_XDICTIONARY
360
EB91
102
}
330
2
100
AcDbSymbolTableRecord
100
AcDbLayerTableRecord
  2
0
 70
     0
 62
     7
  6
CONTINUOUS
  0
LAYER
  5
29
102
{ACAD_XDICTIONARY
360
EB93
102
}
330
2
100
AcDbSymbolTableRecord
100
AcDbLayerTableRecord
  2
1CENTER
 70
     0
 62
     7
  6
CENTER2
  0
LAYER
  5
31
102
{ACAD_XDICTIONARY
360
EB95
102
}
330
2
100
AcDbSymbolTableRecord
100
AcDbLayerTableRecord
  2
1TEXT
 70
     0
 62
     7
  6
CONTINUOUS
  0
LAYER
  5
101
102
{ACAD_XDICTIONARY
360
EB9F
102
}
330
2
100
AcDbSymbolTableRecord
100
AcDbLayerTableRecord
  2
1DIM
 70
     0
 62
     7
  6
CONTINUOUS
  0
LAYER
  5
103
102
{ACAD_XDICTIONARY
360
EBA3
102
}
330
2
100
AcDbSymbolTableRecord
100
AcDbLayerTableRecord
  2
1PHANTOM
 70
     0
 62
     7
  6
PHANTOM2
  0
LAYER
  5
159
102
{ACAD_XDICTIONARY
360
EBAB
102
}
330
2
100
AcDbSymbolTableRecord
100
AcDbLayerTableRecord
  2
1HATCH
 70
     0
 62
     7
  6
CONTINUOUS
  0
LAYER
  5
15C
102
{ACAD_XDICTIONARY
360
EBB1
102
}
330
2
100
AcDbSymbolTableRecord
100
AcDbLayerTableRecord
  2
01
 70
     0
 62
     1
  6
CONTINUOUS
  0
ENDTAB
  0
TABLE
  2
STYLE
  5
3
330
0
100
AcDbSymbolTable
 70
     1
  0
STYLE
  5
F
330
3
100
AcDbSymbolTableRecord
100
AcDbTextStyleTableRecord
  2
STANDARD
 70
     0
 40
0.0
 41
1.0
 50
0.0
 71
     0
 42
4.0
  3
txt.shx
  4
extfont.shx
  0
ENDTAB
  0
TABLE
  2
VIEW
  5
6
330
0
100
AcDbSymbolTable
 70
     0
  0
ENDTAB
  0
TABLE
  2
UCS
  5
7
330
0
100
AcDbSymbolTable
 70
     0
  0
ENDTAB
  0
TABLE
  2
APPID
  5
9
330
0
100
AcDbSymbolTable
 70
    16
  0
APPID
  5
10
330
9
100
AcDbSymbolTableRecord
100
AcDbRegAppTableRecord
  2
ACAD
 70
     0
  0
APPID
  5
21
330
9
100
AcDbSymbolTableRecord
100
AcDbRegAppTableRecord
  2
DRAWINGVARIABLESXDATA
 70
     0
  0
APPID
  5
64
330
9
100
AcDbSymbolTableRecord
100
AcDbRegAppTableRecord
  2
CONTENTTABDATA
 70
     0
  0
APPID
  5
65
330
9
100
AcDbSymbolTableRecord
100
AcDbRegAppTableRecord
  2
CONTENTCURRENTTAB
 70
     0
  0
APPID
  5
66
330
9
100
AcDbSymbolTableRecord
100
AcDbRegAppTableRecord
  2
CONTENTBLOCKDESCRIPTION
 70
     0
  0
APPID
  5
67
330
9
100
AcDbSymbolTableRecord
100
AcDbRegAppTableRecord
  2
CONTENTBLOCKICON
 70
     0
  0
APPID
  5
68
330
9
100
AcDbSymbolTableRecord
100
AcDbRegAppTableRecord
  2
CONTENTLONGBLOCKNAME
 70
     0
  0
APPID
  5
239B
330
9
100
AcDbSymbolTableRecord
100
AcDbRegAppTableRecord
  2
GRPNAME
 70
     0
  0
APPID
  5
239C
330
9
100
AcDbSymbolTableRecord
100
AcDbRegAppTableRecord
  2
ITEMNAME
 70
     0
  0
APPID
  5
D731
330
9
100
AcDbSymbolTableRecord
100
AcDbRegAppTableRecord
  2
ACAD_PSEXT
 70
     0
  0
APPID
  5
DEEB
330
9
100
AcDbSymbolTableRecord
100
AcDbRegAppTableRecord
  2
LAYTOOL
 70
     0
  0
APPID
  5
E343
330
9
100
AcDbSymbolTableRecord
100
AcDbRegAppTableRecord
  2
LAYCODE
 70
     0
  0
APPID
  5
EB76
330
9
100
AcDbSymbolTableRecord
100
AcDbRegAppTableRecord
  2
ACAD_EXEMPT_FROM_CAD_STAND
 70
     0
  0
APPID
  5
EC1F
330
9
100
AcDbSymbolTableRecord
100
AcDbRegAppTableRecord
  2
ACAD_MLEADERVER
 70
     0
  0
APPID
  5
F3B4
330
9
100
AcDbSymbolTableRecord
100
AcDbRegAppTableRecord
  2
ACADANNOTATIVE
 70
     0
  0
APPID
  5
F3B5
330
9
100
AcDbSymbolTableRecord
100
AcDbRegAppTableRecord
  2
ACDBBLOCKREPETAG
 70
     0
  0
ENDTAB
  0
TABLE
  2
DIMSTYLE
  5
A
330
0
100
AcDbSymbolTable
 70
     1
  0
DIMSTYLE
105
48
330
A
100
AcDbSymbolTableRecord
100
AcDbDimStyleTableRecord
  2
NEWX10
 70
     0
  3
 
  4

  5

  6
OPEN30
  7
OPEN30
 40
1.0
 41
2.0
 42
0.0
 43
7.0
 44
1.0
 45
0.0
 46
0.0
 47
0.0
 48
0.0
140
3.5
141
0.0
142
0.0
143
25.4
144
1.0
145
0.0
146
0.7
147
0.7
 71
     0
 72
     0
 73
     0
 74
     0
 75
     0
 76
     0
 77
     1
 78
     8
170
     0
171
     2
172
     1
173
     1
174
     0
175
     0
176
   256
177
   256
178
   201
270
     2
271
     2
272
     4
273
     2
274
     2
340
F
275
     0
280
     0
281
     0
282
     0
283
     1
284
     8
285
     0
286
     0
287
     2
288
     0
  0
ENDTAB
  0
TABLE
  2
BLOCK_RECORD
  5
1
330
0
100
AcDbSymbolTable
 70
     9
  0
BLOCK_RECORD
  5
18
102
{ACAD_XDICTIONARY
360
D746
102
}
330
1
100
AcDbSymbolTableRecord
100
AcDbBlockTableRecord
  2
*MODEL_SPACE
  0
BLOCK_RECORD
  5
15
330
1
100
AcDbSymbolTableRecord
100
AcDbBlockTableRecord
  2
*PAPER_SPACE
  0
BLOCK_RECORD
  5
42
330
1
100
AcDbSymbolTableRecord
100
AcDbBlockTableRecord
  2
_OPEN30
  0
BLOCK_RECORD
  5
5B
330
1
100
AcDbSymbolTableRecord
100
AcDbBlockTableRecord
  2
XREF1
  0
BLOCK_RECORD
  5
EF5E
330
1
100
AcDbSymbolTableRecord
100
AcDbBlockTableRecord
  2
A3WAKUKAWAJUN2017_HYOUDAI_
  0
BLOCK_RECORD
  5
F591
330
1
100
AcDbSymbolTableRecord
100
AcDbBlockTableRecord
  2
*X45
  0
BLOCK_RECORD
  5
F5DF
330
1
100
AcDbSymbolTableRecord
100
AcDbBlockTableRecord
  2
*X46
  0
BLOCK_RECORD
  5
F631
330
1
100
AcDbSymbolTableRecord
100
AcDbBlockTableRecord
  2
*X47
  0
BLOCK_RECORD
  5
F682
330
1
100
AcDbSymbolTableRecord
100
AcDbBlockTableRecord
  2
*X48
  0
BLOCK_RECORD
  5
F6BF
330
1
100
AcDbSymbolTableRecord
100
AcDbBlockTableRecord
  2
*X49
  0
BLOCK_RECORD
  5
F6FF
330
1
100
AcDbSymbolTableRecord
100
AcDbBlockTableRecord
  2
*X50
  0
ENDTAB
  0
ENDSEC
  0
SECTION
  2
BLOCKS
  0
BLOCK
  5
19
330
18
100
AcDbEntity
  8
0
100
AcDbBlockBegin
  2
*MODEL_SPACE
 70
     0
 10
0.0
 20
0.0
 30
0.0
  3
*MODEL_SPACE
  1

  0
ENDBLK
  5
1A
330
18
100
AcDbEntity
  8
0
100
AcDbBlockEnd
  0
BLOCK
  5
16
330
15
100
AcDbEntity
 67
     1
  8
0
100
AcDbBlockBegin
  2
*PAPER_SPACE
 70
     0
 10
0.0
 20
0.0
 30
0.0
  3
*PAPER_SPACE
  1

  0
ENDBLK
  5
17
330
15
100
AcDbEntity
 67
     1
  8
0
100
AcDbBlockEnd
  0
BLOCK
  5
43
330
42
100
AcDbEntity
  8
0
100
AcDbBlockBegin
  2
_OPEN30
 70
     0
 10
0.0
 20
0.0
 30
0.0
  3
_OPEN30
  1

  0
LINE
  5
44
330
42
100
AcDbEntity
  8
0
  6
BYBLOCK
 62
     0
100
AcDbLine
 10
-1.0
 20
0.26794919
 30
0.0
 11
0.0
 21
0.0
 31
0.0
  0
LINE
  5
45
330
42
100
AcDbEntity
  8
0
  6
BYBLOCK
 62
     0
100
AcDbLine
 10
0.0
 20
0.0
 30
0.0
 11
-1.0
 21
-0.26794919
 31
0.0
  0
LINE
  5
46
330
42
100
AcDbEntity
  8
0
  6
BYBLOCK
 62
     0
100
AcDbLine
 10
0.0
 20
0.0
 30
0.0
 11
-1.0
 21
0.0
 31
0.0
  0
ENDBLK
  5
47
330
42
100
AcDbEntity
  8
0
100
AcDbBlockEnd
  0
BLOCK
  5
5C
330
5B
100
AcDbEntity
  8
0
100
AcDbBlockBegin
  2
XREF1
 70
     4
 10
0.0
 20
0.0
 30
0.0
  3
XREF1
  1
D:\ACLT\FORMAT\KAWAJUN(9)図面用.dwg
  0
ENDBLK
  5
5D
330
5B
100
AcDbEntity
  8
0
100
AcDbBlockEnd
  0
BLOCK
  5
EF5F
330
EF5E
100
AcDbEntity
  8
0
100
AcDbBlockBegin
  2
A3WAKUKAWAJUN2017_HYOUDAI_
 70
     0
 10
0.0
 20
0.0
 30
0.0
  3
A3WAKUKAWAJUN2017_HYOUDAI_
  1

  0
LINE
  5
EF60
330
EF5E
100
AcDbEntity
  8
0
100
AcDbLine
 10
13.26299999998673
 20
-0.0001000000000317
 30
0.0
 11
9.236999999990758
 21
8.999899999990987
 31
0.0
1001
ACAD
1000
ASC_BOUNDS
1002
{
1070
    19
1005
EFA1
1002
}
  0
LINE
  5
EF61
330
EF5E
100
AcDbEntity
  8
0
100
AcDbLine
 10
5.657999999994331
 20
0.9999999999989768
 30
0.0
 11
9.236999999990758
 21
8.999999999991019
 31
0.0
1001
ACAD
1000
ASC_BOUNDS
1002
{
1070
    19
1005
EFA1
1002
}
  0
LINE
  5
EF62
330
EF5E
100
AcDbEntity
  8
0
100
AcDbLine
 10
18.59199999998134
 20
-0.2368999999997641
 30
0.0
 11
16.46099999998353
 21
5.432899999994561
 31
0.0
1001
ACAD
1000
ASC_BOUNDS
1002
{
1070
    19
1005
EFA2
1002
}
  0
LINE
  5
EF63
330
EF5E
100
AcDbEntity
  8
0
100
AcDbLine
 10
18.59199999998134
 20
-0.2368999999997641
 30
0.0
 11
22.38199999997767
 21
8.763099999991255
 31
0.0
1001
ACAD
1000
ASC_BOUNDS
1002
{
1070
    19
1005
EFA2
1002
}
  0
LINE
  5
EF64
330
EF5E
100
AcDbEntity
  8
0
100
AcDbLine
 10
14.32899999998563
 20
-0.2368999999997641
 30
0.0
 11
16.46099999998353
 21
5.432899999994561
 31
0.0
1001
ACAD
1000
ASC_BOUNDS
1002
{
1070
    19
1005
EFA2
1002
}
  0
LINE
  5
EF65
330
EF5E
100
AcDbEntity
  8
0
100
AcDbLine
 10
14.32899999998563
 20
-0.2368999999997641
 30
0.0
 11
10.53899999998941
 21
8.763099999991255
 31
0.0
1001
ACAD
1000
ASC_BOUNDS
1002
{
1070
    19
1005
EFA2
1002
}
  0
LINE
  5
EF66
330
EF5E
100
AcDbEntity
  8
0
100
AcDbLine
 10
19.53899999998043
 20
-0.0001000000000317
 30
0.0
 11
23.56599999997638
 21
8.999899999990987
 31
0.0
1001
ACAD
1000
ASC_BOUNDS
1002
{
1070
    19
1005
EFA3
1002
}
  0
LINE
  5
EF67
330
EF5E
100
AcDbEntity
  8
0
100
AcDbLine
 10
26.97358892824991
 20
1.383099999991202
 30
0.0
 11
23.56599999997638
 21
8.999899999990987
 31
0.0
1001
ACAD
1000
ASC_BOUNDS
1002
{
1070
    19
1005
EFA3
1002
}
  0
LINE
  5
EF68
330
EF5E
100
AcDbEntity
  8
0
100
AcDbLine
 10
5.657999999994331
 20
0.9999999999989768
 30
0.0
 11
3.181999999996833
 21
4.668599999995308
 31
0.0
1001
ACAD
1000
ASC_BOUNDS
1002
{
1070
    19
1005
EFA1
1002
}
  0
LINE
  5
EF69
330
EF5E
100
AcDbEntity
  8
0
100
AcDbLine
 10
4.617999999995391
 20
-0.0001000000000317
 30
0.0
 11
1.420999999998571
 21
4.736799999995242
 31
0.0
1001
ACAD
1000
ASC_BOUNDS
1002
{
1070
    19
1005
EFA1
1002
}
  0
LINE
  5
EF6A
330
EF5E
100
AcDbEntity
  8
0
100
AcDbLine
 10
1.420999999998571
 20
8.763099999991255
 30
0.0
 11
1.420999999998571
 21
0.0
 31
0.0
1001
ACAD
1000
ASC_BOUNDS
1002
{
1070
    19
1005
EFA6
1002
}
  0
LINE
  5
EF6B
330
EF5E
100
AcDbEntity
  8
0
100
AcDbLine
 10
0.0
 20
8.763099999991255
 30
0.0
 11
0.0
 21
0.0
 31
0.0
1001
ACAD
1000
ASC_BOUNDS
1002
{
1070
    19
1005
EFA6
1002
}
  0
LINE
  5
EF6C
330
EF5E
100
AcDbEntity
  8
0
100
AcDbLine
 10
6.766999999993232
 20
-0.0001000000000317
 30
0.0
 11
7.826999999992154
 21
2.368399999997621
 31
0.0
1001
ACAD
1000
ASC_BOUNDS
1002
{
1070
    19
1005
EFA1
1002
}
  0
LINE
  5
EF6D
330
EF5E
100
AcDbEntity
  8
0
100
AcDbLine
 10
0.0
 20
0.0
 30
0.0
 11
1.420999999998571
 21
0.0
 31
0.0
1001
ACAD
1000
ASC_BOUNDS
1002
{
1070
    19
1005
EFA6
1002
}
  0
LINE
  5
EF6E
330
EF5E
100
AcDbEntity
  8
0
100
AcDbLine
 10
4.617999999995391
 20
0.0
 30
0.0
 11
6.766999999993232
 21
0.0
 31
0.0
1001
ACAD
1000
ASC_BOUNDS
1002
{
1070
    19
1005
EFA1
1002
}
  0
LINE
  5
EF6F
330
EF5E
100
AcDbEntity
  8
0
100
AcDbLine
 10
11.70599999998831
 20
-0.0001000000000317
 30
0.0
 11
10.64699999998936
 21
2.368399999997621
 31
0.0
1001
ACAD
1000
ASC_BOUNDS
1002
{
1070
    19
1005
EFA1
1002
}
  0
LINE
  5
EF70
330
EF5E
100
AcDbEntity
  8
0
100
AcDbLine
 10
7.826999999992154
 20
2.368399999997621
 30
0.0
 11
10.64699999998936
 21
2.368399999997621
 31
0.0
1001
ACAD
1000
ASC_BOUNDS
1002
{
1070
    19
1005
EFA1
1002
}
  0
LINE
  5
EF71
330
EF5E
100
AcDbEntity
  8
0
100
AcDbLine
 10
11.70599999998831
 20
0.0
 30
0.0
 11
13.26299999998673
 21
0.0
 31
0.0
1001
ACAD
1000
ASC_BOUNDS
1002
{
1070
    19
1005
EFA1
1002
}
  0
LINE
  5
EF72
330
EF5E
100
AcDbEntity
  8
0
100
AcDbLine
 10
22.15599999997789
 20
2.368399999997621
 30
0.0
 11
24.97599999997499
 21
2.368399999997621
 31
0.0
1001
ACAD
1000
ASC_BOUNDS
1002
{
1070
    19
1005
EFA3
1002
}
  0
LINE
  5
EF73
330
EF5E
100
AcDbEntity
  8
0
100
AcDbLine
 10
19.53899999998043
 20
0.0
 30
0.0
 11
21.09599999997886
 21
0.0
 31
0.0
1001
ACAD
1000
ASC_BOUNDS
1002
{
1070
    19
1005
EFA3
1002
}
  0
LINE
  5
EF74
330
EF5E
100
AcDbEntity
  8
0
100
AcDbLine
 10
21.09599999997886
 20
-0.0001000000000317
 30
0.0
 11
22.15599999997789
 21
2.368399999997621
 31
0.0
1001
ACAD
1000
ASC_BOUNDS
1002
{
1070
    19
1005
EFA3
1002
}
  0
LINE
  5
EF75
330
EF5E
100
AcDbEntity
  8
0
100
AcDbLine
 10
26.02015566812236
 20
0.0330999999912365
 30
0.0
 11
24.97599999997499
 21
2.368399999997621
 31
0.0
1001
ACAD
1000
ASC_BOUNDS
1002
{
1070
    19
1005
EFA3
1002
}
  0
LINE
  5
EF76
330
EF5E
100
AcDbEntity
  8
0
100
AcDbLine
 10
14.32399999998563
 20
3.315799999996671
 30
0.0
 11
16.46099999998353
 21
8.999899999990987
 31
0.0
1001
ACAD
1000
ASC_BOUNDS
1002
{
1070
    19
1005
EFA2
1002
}
  0
LINE
  5
EF77
330
EF5E
100
AcDbEntity
  8
0
100
AcDbLine
 10
6.432999999993513
 20
8.763099999991255
 30
0.0
 11
3.181999999996833
 21
4.668599999995308
 31
0.0
1001
ACAD
1000
ASC_BOUNDS
1002
{
1070
    19
1005
EFA1
1002
}
  0
LINE
  5
EF78
330
EF5E
100
AcDbEntity
  8
0
100
AcDbLine
 10
4.617999999995391
 20
8.763099999991255
 30
0.0
 11
1.420999999998571
 21
4.736799999995242
 31
0.0
1001
ACAD
1000
ASC_BOUNDS
1002
{
1070
    19
1005
EFA1
1002
}
  0
LINE
  5
EF79
330
EF5E
100
AcDbEntity
  8
0
100
AcDbLine
 10
0.0
 20
8.763099999991255
 30
0.0
 11
1.420999999998571
 21
8.763099999991255
 31
0.0
1001
ACAD
1000
ASC_BOUNDS
1002
{
1070
    19
1005
EFA6
1002
}
  0
LINE
  5
EF7A
330
EF5E
100
AcDbEntity
  8
0
100
AcDbLine
 10
4.617999999995391
 20
8.763099999991255
 30
0.0
 11
6.432999999993513
 21
8.763099999991255
 31
0.0
1001
ACAD
1000
ASC_BOUNDS
1002
{
1070
    19
1005
EFA1
1002
}
  0
LINE
  5
EF7B
330
EF5E
100
AcDbEntity
  8
0
100
AcDbLine
 10
14.32399999998563
 20
3.315799999996671
 30
0.0
 11
12.02999999998792
 21
8.763099999991255
 31
0.0
1001
ACAD
1000
ASC_BOUNDS
1002
{
1070
    19
1005
EFA2
1002
}
  0
LINE
  5
EF7C
330
EF5E
100
AcDbEntity
  8
0
100
AcDbLine
 10
10.06399999998996
 20
3.670999999996297
 30
0.0
 11
9.236999999990758
 21
5.5200999999945
 31
0.0
1001
ACAD
1000
ASC_BOUNDS
1002
{
1070
    19
1005
EFA1
1002
}
  0
LINE
  5
EF7D
330
EF5E
100
AcDbEntity
  8
0
100
AcDbLine
 10
8.409999999991555
 20
3.670999999996297
 30
0.0
 11
9.236999999990758
 21
5.5200999999945
 31
0.0
1001
ACAD
1000
ASC_BOUNDS
1002
{
1070
    19
1005
EFA1
1002
}
  0
LINE
  5
EF7E
330
EF5E
100
AcDbEntity
  8
0
100
AcDbLine
 10
8.409999999991555
 20
3.670999999996297
 30
0.0
 11
10.06399999998996
 21
3.670999999996297
 31
0.0
1001
ACAD
1000
ASC_BOUNDS
1002
{
1070
    19
1005
EFA1
1002
}
  0
LINE
  5
EF7F
330
EF5E
100
AcDbEntity
  8
0
100
AcDbLine
 10
10.53899999998941
 20
8.763099999991255
 30
0.0
 11
12.02999999998792
 21
8.763099999991255
 31
0.0
1001
ACAD
1000
ASC_BOUNDS
1002
{
1070
    19
1005
EFA2
1002
}
  0
LINE
  5
EF80
330
EF5E
100
AcDbEntity
  8
0
100
AcDbLine
 10
22.7389999999773
 20
3.670999999996297
 30
0.0
 11
23.56599999997638
 21
5.5200999999945
 31
0.0
1001
ACAD
1000
ASC_BOUNDS
1002
{
1070
    19
1005
EFA3
1002
}
  0
LINE
  5
EF81
330
EF5E
100
AcDbEntity
  8
0
100
AcDbLine
 10
22.7389999999773
 20
3.670999999996297
 30
0.0
 11
24.39299999997559
 21
3.670999999996297
 31
0.0
1001
ACAD
1000
ASC_BOUNDS
1002
{
1070
    19
1005
EFA3
1002
}
  0
LINE
  5
EF82
330
EF5E
100
AcDbEntity
  8
0
100
AcDbLine
 10
18.59799999998143
 20
3.315799999996671
 30
0.0
 11
20.89099999997916
 21
8.763099999991255
 31
0.0
1001
ACAD
1000
ASC_BOUNDS
1002
{
1070
    19
1005
EFA2
1002
}
  0
LINE
  5
EF83
330
EF5E
100
AcDbEntity
  8
0
100
AcDbLine
 10
18.59799999998143
 20
3.315799999996671
 30
0.0
 11
16.46099999998353
 21
8.999899999990987
 31
0.0
1001
ACAD
1000
ASC_BOUNDS
1002
{
1070
    19
1005
EFA2
1002
}
  0
LINE
  5
EF84
330
EF5E
100
AcDbEntity
  8
0
100
AcDbLine
 10
20.89099999997916
 20
8.763099999991255
 30
0.0
 11
22.38199999997767
 21
8.763099999991255
 31
0.0
1001
ACAD
1000
ASC_BOUNDS
1002
{
1070
    19
1005
EFA2
1002
}
  0
LINE
  5
EF85
330
EF5E
100
AcDbEntity
  8
0
100
AcDbLine
 10
24.39299999997559
 20
3.670999999996297
 30
0.0
 11
23.56599999997638
 21
5.5200999999945
 31
0.0
1001
ACAD
1000
ASC_BOUNDS
1002
{
1070
    19
1005
EFA3
1002
}
  0
LINE
  5
EF86
330
EF5E
100
AcDbEntity
  8
0
100
AcDbLine
 10
44.99999999995498
 20
-0.2368999999997641
 30
0.0
 11
40.02599999995994
 21
5.341799999994635
 31
0.0
1001
ACAD
1000
ASC_BOUNDS
1002
{
1070
    19
1005
EFA5
1002
}
  0
LINE
  5
EF87
330
EF5E
100
AcDbEntity
  8
0
100
AcDbLine
 10
40.02599999995994
 20
5.341799999994635
 30
0.0
 11
40.02599999995994
 21
0.0
 31
0.0
1001
ACAD
1000
ASC_BOUNDS
1002
{
1070
    19
1005
EFA5
1002
}
  0
LINE
  5
EF88
330
EF5E
100
AcDbEntity
  8
0
100
AcDbLine
 10
38.60499999996136
 20
8.999999999991019
 30
0.0
 11
38.60499999996136
 21
0.0
 31
0.0
1001
ACAD
1000
ASC_BOUNDS
1002
{
1070
    19
1005
EFA5
1002
}
  0
LINE
  5
EF89
330
EF5E
100
AcDbEntity
  8
0
100
AcDbLine
 10
44.99999999995498
 20
8.763099999991255
 30
0.0
 11
44.99999999995498
 21
-0.2368999999997641
 31
0.0
1001
ACAD
1000
ASC_BOUNDS
1002
{
1070
    19
1005
EFA5
1002
}
  0
LINE
  5
EF8A
330
EF5E
100
AcDbEntity
  8
0
100
AcDbLine
 10
38.60499999996136
 20
0.0
 30
0.0
 11
40.02599999995994
 21
0.0
 31
0.0
1001
ACAD
1000
ASC_BOUNDS
1002
{
1070
    19
1005
EFA5
1002
}
  0
LINE
  5
EF8B
330
EF5E
100
AcDbEntity
  8
0
100
AcDbLine
 10
43.57899999995641
 20
3.421199999996588
 30
0.0
 11
38.60499999996136
 21
8.999899999990987
 31
0.0
1001
ACAD
1000
ASC_BOUNDS
1002
{
1070
    19
1005
EFA5
1002
}
  0
LINE
  5
EF8C
330
EF5E
100
AcDbEntity
  8
0
100
AcDbLine
 10
43.57899999995641
 20
8.763099999991255
 30
0.0
 11
43.57899999995641
 21
3.421199999996588
 31
0.0
1001
ACAD
1000
ASC_BOUNDS
1002
{
1070
    19
1005
EFA5
1002
}
  0
LINE
  5
EF8D
330
EF5E
100
AcDbEntity
  8
0
100
AcDbLine
 10
43.57899999995641
 20
8.763099999991255
 30
0.0
 11
44.99999999995498
 21
8.763099999991255
 31
0.0
1001
ACAD
1000
ASC_BOUNDS
1002
{
1070
    19
1005
EFA5
1002
}
  0
LINE
  5
EF8E
330
EF5E
100
AcDbEntity
  8
0
100
AcDbLine
 10
37.67199999996831
 20
8.763099999991255
 30
0.0
 11
36.23199999996837
 21
8.763099999991255
 31
0.0
  0
LINE
  5
EF8F
330
EF5E
100
AcDbEntity
  8
0
100
AcDbLine
 10
31.64199999996833
 20
8.763099999991255
 30
0.0
 11
31.64199999996833
 21
2.481619422925121
 31
0.0
  0
LINE
  5
EF90
330
EF5E
100
AcDbEntity
  8
0
100
AcDbLine
 10
37.67199999996831
 20
8.763099999991255
 30
0.0
 11
37.67199999996831
 21
2.481619422925121
 31
0.0
  0
LINE
  5
EF91
330
EF5E
100
AcDbEntity
  8
0
100
AcDbLine
 10
36.23199999996837
 20
8.763099999991255
 30
0.0
 11
36.23199999996837
 21
2.481619422925064
 31
0.0
  0
LINE
  5
EF92
330
EF5E
100
AcDbEntity
  8
0
100
AcDbLine
 10
33.08199999996839
 20
8.763099999991255
 30
0.0
 11
33.08199999996839
 21
2.481619422925121
 31
0.0
  0
ARC
  5
EF93
330
EF5E
100
AcDbEntity
  8
0
100
AcDbCircle
 10
34.65699999996832
 20
3.183099999991214
 30
0.0
 40
3.420000000000007
100
AcDbArc
 50
240.0000000000255
 51
299.9999999999766
  0
ARC
  5
EF94
330
EF5E
100
AcDbEntity
  8
0
100
AcDbCircle
 10
34.65699999996832
 20
3.183099999991214
 30
0.0
 40
1.97999999999999
100
AcDbArc
 50
240.000000000026
 51
299.9999999999703
  0
LINE
  5
EF95
330
EF5E
100
AcDbEntity
  8
0
100
AcDbLine
 10
33.08199999996828
 20
8.763099999991255
 30
0.0
 11
31.64199999996833
 21
8.763099999991255
 31
0.0
  0
ARC
  5
EF96
330
EF5E
100
AcDbEntity
  8
0
100
AcDbCircle
 10
35.06199999996829
 20
2.481619422925064
 30
0.0
 40
1.17
100
AcDbArc
 50
299.9999999999699
 51
0.0
  0
ARC
  5
EF97
330
EF5E
100
AcDbEntity
  8
0
100
AcDbCircle
 10
34.25199999996835
 20
2.481619422925121
 30
0.0
 40
1.17
100
AcDbArc
 50
180.0
 51
240.0000000000238
  0
ARC
  5
EF98
330
EF5E
100
AcDbEntity
  8
0
100
AcDbCircle
 10
35.06199999996841
 20
2.481619422925121
 30
0.0
 40
2.61
100
AcDbArc
 50
299.9999999999756
 51
0.0
  0
ARC
  5
EF99
330
EF5E
100
AcDbEntity
  8
0
100
AcDbCircle
 10
34.25199999996835
 20
2.481619422925121
 30
0.0
 40
2.61
100
AcDbArc
 50
180.0
 51
240.0000000000244
  0
LINE
  5
EF9A
330
EF5E
100
AcDbEntity
  8
0
100
AcDbLine
 10
29.30199999996933
 20
8.763099999991255
 30
0.0
 11
30.74199999996927
 21
8.763099999991255
 31
0.0
1001
ACAD
1000
ASC_BOUNDS
1002
{
1070
    19
1005
EFA3
1002
}
  0
LINE
  5
EF9B
330
EF5E
100
AcDbEntity
  8
0
100
AcDbLine
 10
30.74199999996927
 20
8.763099999991255
 30
0.0
 11
30.74199999996927
 21
2.373099999991211
 31
0.0
1001
ACAD
1000
ASC_BOUNDS
1002
{
1070
    19
1005
EFA3
1002
}
  0
LINE
  5
EF9C
330
EF5E
100
AcDbEntity
  8
0
100
AcDbLine
 10
26.02015566812236
 20
0.0330999999912365
 30
0.0
 11
28.40199999996923
 21
0.0330999999912365
 31
0.0
1001
ACAD
1000
ASC_BOUNDS
1002
{
1070
    19
1005
EFA3
1002
}
  0
LINE
  5
EF9D
330
EF5E
100
AcDbEntity
  8
0
100
AcDbLine
 10
29.30199999996933
 20
8.763099999991255
 30
0.0
 11
29.30199999996933
 21
2.283099999991236
 31
0.0
1001
ACAD
1000
ASC_BOUNDS
1002
{
1070
    19
1005
EFA3
1002
}
  0
LINE
  5
EF9E
330
EF5E
100
AcDbEntity
  8
0
100
AcDbLine
 10
26.97358892824991
 20
1.383099999991202
 30
0.0
 11
28.40199999996923
 21
1.383099999991202
 31
0.0
1001
ACAD
1000
ASC_BOUNDS
1002
{
1070
    19
1005
EFA3
1002
}
  0
ARC
  5
EF9F
330
EF5E
100
AcDbEntity
  8
0
100
AcDbCircle
 10
28.40199999996923
 20
2.283099999991236
 30
0.0
 40
0.9
100
AcDbArc
 50
270.0
 51
0.0
1001
ACAD
1000
ASC_BOUNDS
1002
{
1070
    19
1005
EFA3
1002
}
  0
ARC
  5
EFA0
330
EF5E
100
AcDbEntity
  8
0
100
AcDbCircle
 10
28.40199999996923
 20
2.373099999991211
 30
0.0
 40
2.34
100
AcDbArc
 50
270.0
 51
0.0
1001
ACAD
1000
ASC_BOUNDS
1002
{
1070
    19
1005
EFA3
1002
}
  0
INSERT
  5
EFA1
330
EF5E
100
AcDbEntity
  8
0
100
AcDbBlockReference
  2
*X45
 10
0.0
 20
0.0
 30
0.0
1001
ACAD
1000
HATCH
1002
{
1070
    19
1000
ANSI37
1040
0.15
1040
0.0
1000
ASC_BOUNDS
1070
     2
1070
     2
1070
    12
1005
EF60
1005
EF61
1005
EF68
1005
EF77
1005
EF7A
1005
EF78
1005
EF69
1005
EF6E
1005
EF6C
1005
EF70
1005
EF6F
1005
EF71
1070
     2
1070
     3
1005
EF7C
1005
EF7E
1005
EF7D
1000
ASC_SEEDPOINT
1011
3.614004224891801
1021
2.996669441146025
1031
0.0
1000
R14_HATCH_DATA
1000
EFA1
1011
1.0
1021
0.0
1031
0.0
1011
0.0
1021
1.0
1031
0.0
1011
0.0
1021
0.0
1031
1.0
1040
0.0
1010
0.0
1020
0.0
1030
1.0
1000
ANSI37
1070
     0
1070
     1
1071
        2
1071
        7
1070
     0
1070
     1
1071
       17
1040
13.26299999998673
1040
-0.0001000000000317
1040
9.236999999990758
1040
8.999899999990987
1040
9.236999999990758
1040
8.999999999991019
1040
5.657999999994331
1040
0.9999999999989768
1040
3.181999999996833
1040
4.668599999995308
1040
6.432999999993513
1040
8.763099999991255
1040
4.617999999995391
1040
8.763099999991255
1040
1.420999999998571
1040
4.736799999995242
1040
4.617999999995391
1040
-0.0001000000000317
1040
4.617999999995391
1040
0.0
1040
6.766999999993232
1040
0.0
1040
6.766999999993232
1040
-0.0001000000000317
1040
7.826999999992154
1040
2.368399999997621
1040
10.64699999998936
1040
2.368399999997621
1040
11.70599999998831
1040
-0.0001000000000317
1040
11.70599999998831
1040
0.0
1040
13.26299999998673
1040
0.0
1071
       12
1005
EF60
1005
EF61
1005
EF68
1005
EF77
1005
EF7A
1005
EF78
1005
EF69
1005
EF6E
1005
EF6C
1005
EF70
1005
EF6F
1005
EF71
1071
       22
1070
     0
1070
     1
1071
        3
1040
9.236999999990758
1040
5.5200999999945
1040
10.06399999998996
1040
3.670999999996297
1040
8.409999999991555
1040
3.670999999996297
1071
        3
1005
EF7C
1005
EF7E
1005
EF7D
1070
     0
1070
     1
1040
0.0
1040
0.15
1070
     0
1070
     2
1040
0.7853981633974483
1040
49.29960901727088
1040
-10.17736998311392
1040
-0.3367596045400932
1040
0.3367596045400932
1070
     0
1040
2.356194490192345
1040
49.29960901727088
1040
-10.17736998311392
1040
-0.3367596045400932
1040
-0.3367596045400932
1070
     0
1040
0.0110235143455945
1071
        2
1040
3.614004224891801
1040
2.996669441146025
1040
0.0
1040
3.614004224891801
1040
2.996669441146025
1040
0.0
1002
}
  0
INSERT
  5
EFA2
330
EF5E
100
AcDbEntity
  8
0
100
AcDbBlockReference
  2
*X46
 10
0.0
 20
0.0
 30
0.0
1001
ACAD
1000
HATCH
1002
{
1070
    19
1000
ANSI37
1040
0.15
1040
0.0
1000
ASC_BOUNDS
1070
     1
1070
     2
1070
    10
1005
EF62
1005
EF63
1005
EF84
1005
EF82
1005
EF83
1005
EF76
1005
EF7B
1005
EF7F
1005
EF65
1005
EF64
1000
ASC_SEEDPOINT
1011
14.73245321214324
1021
2.798246178283421
1031
0.0
1000
R14_HATCH_DATA
1000
EFA2
1011
1.0
1021
0.0
1031
0.0
1011
0.0
1021
1.0
1031
0.0
1011
0.0
1021
0.0
1031
1.0
1040
0.0
1010
0.0
1020
0.0
1030
1.0
1000
ANSI37
1070
     0
1070
     1
1071
        1
1071
        7
1070
     0
1070
     1
1071
       10
1040
16.46099999998353
1040
5.432899999994561
1040
18.59199999998134
1040
-0.2368999999997641
1040
22.38199999997767
1040
8.763099999991255
1040
20.89099999997916
1040
8.763099999991255
1040
18.59799999998143
1040
3.315799999996671
1040
16.46099999998353
1040
8.999899999990987
1040
14.32399999998563
1040
3.315799999996671
1040
12.02999999998792
1040
8.763099999991255
1040
10.53899999998941
1040
8.763099999991255
1040
14.32899999998563
1040
-0.2368999999997641
1071
       10
1005
EF62
1005
EF63
1005
EF84
1005
EF82
1005
EF83
1005
EF76
1005
EF7B
1005
EF7F
1005
EF65
1005
EF64
1070
     0
1070
     1
1040
0.0
1040
0.15
1070
     0
1070
     2
1040
0.7853981633974483
1040
49.29960901727088
1040
-10.17736998311392
1040
-0.3367596045400932
1040
0.3367596045400932
1070
     0
1040
2.356194490192345
1040
49.29960901727088
1040
-10.17736998311392
1040
-0.3367596045400932
1040
-0.3367596045400932
1070
     0
1040
0.0110235143455945
1071
        1
1040
14.73245321214324
1040
2.798246178283421
1040
0.0
1002
}
  0
INSERT
  5
EFA3
330
EF5E
100
AcDbEntity
  8
0
100
AcDbBlockReference
  2
*X47
 10
0.0
 20
0.0
 30
0.0
1001
ACAD
1000
HATCH
1002
{
1070
    19
1000
ANSI37
1040
0.15
1040
0.0
1000
ASC_BOUNDS
1070
     2
1070
     2
1070
    13
1005
EF66
1005
EF73
1005
EF74
1005
EF72
1005
EF75
1005
EF9C
1005
EFA0
1005
EF9B
1005
EF9A
1005
EF9D
1005
EF9F
1005
EF9E
1005
EF67
1070
     2
1070
     3
1005
EF80
1005
EF85
1005
EF81
1000
ASC_SEEDPOINT
1011
21.97929957367762
1021
3.294304244259308
1031
0.0
1000
R14_HATCH_DATA
1000
EFA3
1011
1.0
1021
0.0
1031
0.0
1011
0.0
1021
1.0
1031
0.0
1011
0.0
1021
0.0
1031
1.0
1040
0.0
1010
0.0
1020
0.0
1030
1.0
1000
ANSI37
1070
     0
1070
     1
1071
        2
1071
        7
1070
     1
1070
     1
1071
       15
1040
23.56599999997638
1040
8.999899999990987
1040
0.0
1040
19.53899999998043
1040
-0.0001000000000317
1040
0.0
1040
19.53899999998043
1040
0.0
1040
0.0
1040
21.09599999997886
1040
0.0
1040
0.0
1040
21.09599999997886
1040
-0.0001000000000317
1040
0.0
1040
22.15599999997789
1040
2.368399999997621
1040
0.0
1040
24.97599999997499
1040
2.368399999997621
1040
0.0
1040
26.02015566812236
1040
0.0330999999912365
1040
0.0
1040
28.40199999996923
1040
0.0330999999912365
1040
0.414213562373095
1040
30.74199999996923
1040
2.373099999991211
1040
0.0
1040
30.74199999996927
1040
8.763099999991255
1040
0.0
1040
29.30199999996933
1040
8.763099999991255
1040
0.0
1040
29.30199999996933
1040
2.283099999991236
1040
-0.414213562373095
1040
28.40199999996923
1040
1.383099999991237
1040
0.0
1040
26.97358892824991
1040
1.383099999991202
1040
0.0
1071
       13
1005
EF66
1005
EF73
1005
EF74
1005
EF72
1005
EF75
1005
EF9C
1005
EFA0
1005
EF9B
1005
EF9A
1005
EF9D
1005
EF9F
1005
EF9E
1005
EF67
1071
       22
1070
     0
1070
     1
1071
        3
1040
22.7389999999773
1040
3.670999999996297
1040
23.56599999997638
1040
5.5200999999945
1040
24.39299999997559
1040
3.670999999996297
1071
        3
1005
EF80
1005
EF85
1005
EF81
1070
     0
1070
     1
1040
0.0
1040
0.15
1070
     0
1070
     2
1040
0.7853981633974483
1040
49.29960901727088
1040
-10.17736998311392
1040
-0.3367596045400932
1040
0.3367596045400932
1070
     0
1040
2.356194490192345
1040
49.29960901727088
1040
-10.17736998311392
1040
-0.3367596045400932
1040
-0.3367596045400932
1070
     0
1040
0.0110235143455945
1071
        2
1040
21.97929957367762
1040
3.294304244259308
1040
0.0
1040
21.97929957367762
1040
3.294304244259308
1040
0.0
1002
}
  0
INSERT
  5
EFA4
330
EF5E
100
AcDbEntity
  8
0
100
AcDbBlockReference
  2
*X48
 10
0.0
 20
0.0
 30
0.0
1001
ACAD
1000
HATCH
1002
{
1070
    19
1000
ANSI37
1040
0.15
1040
0.0
1000
R14_HATCH_DATA
1000
EFA4
1011
1.0
1021
0.0
1031
0.0
1011
0.0
1021
1.0
1031
0.0
1011
0.0
1021
0.0
1031
1.0
1040
0.0
1010
0.0
1020
0.0
1030
1.0
1000
ANSI37
1070
     0
1070
     1
1071
        1
1071
        7
1070
     1
1070
     1
1071
       12
1040
31.64199999996833
1040
2.481619422925121
1040
0.2679491924310942
1040
32.94699999997067
1040
0.2212931190493919
1040
0.2679491924301353
1040
36.36699999995983
1040
0.2212931190459813
1040
0.2679491924321411
1040
37.67199999996831
1040
2.481619422928361
1040
0.0
1040
37.67199999996831
1040
8.763099999991255
1040
0.0
1040
36.23199999996837
1040
8.763099999991255
1040
0.0
1040
36.23199999996837
1040
2.481619422925064
1040
-0.2679491924310291
1040
35.64699999996708
1040
1.468369700498386
1040
-0.267949192430519
1040
33.66699999997093
1040
1.468369700497703
1040
-0.267949192431809
1040
33.08199999996839
1040
2.481619422926997
1040
0.0
1040
33.08199999996839
1040
8.763099999991255
1040
0.0
1040
31.64199999996833
1040
8.763099999991255
1040
0.0
1071
        0
1070
     0
1070
     1
1040
0.0
1040
0.15
1070
     0
1070
     2
1040
0.7853981633974483
1040
49.29960901727088
1040
-10.17736998311392
1040
-0.3367596045400932
1040
0.3367596045400932
1070
     0
1040
2.356194490192345
1040
49.29960901727088
1040
-10.17736998311392
1040
-0.3367596045400932
1040
-0.3367596045400932
1070
     0
1040
0.0110235143455945
1071
        1
1040
32.30357378967278
1040
3.988785755459219
1040
0.0
1002
}
  0
INSERT
  5
EFA5
330
EF5E
100
AcDbEntity
  8
0
100
AcDbBlockReference
  2
*X49
 10
0.0
 20
0.0
 30
0.0
1001
ACAD
1000
HATCH
1002
{
1070
    19
1000
ANSI37
1040
0.15
1040
0.0
1000
ASC_BOUNDS
1070
     1
1070
     2
1070
     8
1005
EF86
1005
EF89
1005
EF8D
1005
EF8C
1005
EF8B
1005
EF88
1005
EF8A
1005
EF87
1000
ASC_SEEDPOINT
1011
39.74896370716704
1021
4.484843821435049
1031
0.0
1000
R14_HATCH_DATA
1000
EFA5
1011
1.0
1021
0.0
1031
0.0
1011
0.0
1021
1.0
1031
0.0
1011
0.0
1021
0.0
1031
1.0
1040
0.0
1010
0.0
1020
0.0
1030
1.0
1000
ANSI37
1070
     0
1070
     1
1071
        1
1071
        7
1070
     0
1070
     1
1071
        9
1040
40.02599999995994
1040
5.341799999994635
1040
44.99999999995498
1040
-0.2368999999997641
1040
44.99999999995498
1040
8.763099999991255
1040
43.57899999995641
1040
8.763099999991255
1040
43.57899999995641
1040
3.421199999996588
1040
38.60499999996136
1040
8.999899999990987
1040
38.60499999996136
1040
8.999999999991019
1040
38.60499999996136
1040
0.0
1040
40.02599999995994
1040
0.0
1071
        8
1005
EF86
1005
EF89
1005
EF8D
1005
EF8C
1005
EF8B
1005
EF88
1005
EF8A
1005
EF87
1070
     0
1070
     1
1040
0.0
1040
0.15
1070
     0
1070
     2
1040
0.7853981633974483
1040
49.29960901727088
1040
-10.17736998311392
1040
-0.3367596045400932
1040
0.3367596045400932
1070
     0
1040
2.356194490192345
1040
49.29960901727088
1040
-10.17736998311392
1040
-0.3367596045400932
1040
-0.3367596045400932
1070
     0
1040
0.0110235143455945
1071
        1
1040
39.74896370716704
1040
4.484843821435049
1040
0.0
1002
}
  0
INSERT
  5
EFA6
330
EF5E
100
AcDbEntity
  8
0
100
AcDbBlockReference
  2
*X50
 10
0.0
 20
0.0
 30
0.0
1001
ACAD
1000
HATCH
1002
{
1070
    19
1000
ANSI37
1040
0.15
1040
0.0
1000
ASC_BOUNDS
1070
     1
1070
     2
1070
     4
1005
EF6A
1005
EF79
1005
EF6B
1005
EF6D
1000
ASC_SEEDPOINT
1011
1.079051535452663
1021
4.148538732891836
1031
0.0
1000
R14_HATCH_DATA
1000
EFA6
1011
1.0
1021
0.0
1031
0.0
1011
0.0
1021
1.0
1031
0.0
1011
0.0
1021
0.0
1031
1.0
1040
0.0
1010
0.0
1020
0.0
1030
1.0
1000
ANSI37
1070
     0
1070
     1
1071
        1
1071
        7
1070
     0
1070
     1
1071
        4
1040
1.420999999998571
1040
0.0
1040
1.420999999998571
1040
8.763099999991255
1040
0.0
1040
8.763099999991255
1040
0.0
1040
0.0
1071
        4
1005
EF6A
1005
EF79
1005
EF6B
1005
EF6D
1070
     0
1070
     1
1040
0.0
1040
0.15
1070
     0
1070
     2
1040
0.7853981633974483
1040
49.29960901727088
1040
-10.17736998311392
1040
-0.3367596045400932
1040
0.3367596045400932
1070
     0
1040
2.356194490192345
1040
49.29960901727088
1040
-10.17736998311392
1040
-0.3367596045400932
1040
-0.3367596045400932
1070
     0
1040
0.0053004257112761
1071
        1
1040
1.079051535452663
1040
4.148538732891836
1040
0.0
1002
}
  0
ENDBLK
  5
EFA7
330
EF5E
100
AcDbEntity
  8
0
100
AcDbBlockEnd
  0
BLOCK
  5
F71F
330
F591
100
AcDbEntity
  8
0
100
AcDbBlockBegin
  2
*X45
 70
     1
 10
0.0
 20
0.0
 30
0.0
  3
*X45
  1

  0
LINE
  5
F592
330
F591
100
AcDbEntity
  8
0
  6
CONTINUOUS
100
AcDbLine
 10
3.418023043697893
 20
7.251849696850613
 30
0.0
 11
4.929273346838536
 21
8.763099999991255
 31
0.0
  0
LINE
  5
F593
330
F591
100
AcDbEntity
  8
0
  6
CONTINUOUS
100
AcDbLine
 10
1.483656411257782
 20
4.643963855330318
 30
0.0
 11
5.60279255591872
 21
8.763099999991255
 31
0.0
  0
LINE
  5
F594
330
F591
100
AcDbEntity
  8
0
  6
CONTINUOUS
100
AcDbLine
 10
1.755053947328235
 20
4.241842182320584
 30
0.0
 11
6.276311764998907
 21
8.763099999991255
 31
0.0
  0
LINE
  5
F595
330
F591
100
AcDbEntity
  8
0
  6
CONTINUOUS
100
AcDbLine
 10
2.026451483398688
 20
3.839720509310849
 30
0.0
 11
4.441040904851878
 21
6.254309930764039
 31
0.0
  0
LINE
  5
F596
330
F591
100
AcDbEntity
  8
0
  6
CONTINUOUS
100
AcDbLine
 10
2.297849019469139
 20
3.437598836301114
 30
0.0
 11
3.321765168359338
 21
4.461514985191313
 31
0.0
  0
LINE
  5
F597
330
F591
100
AcDbEntity
  8
0
  6
CONTINUOUS
100
AcDbLine
 10
2.569246555539591
 20
3.03547716329138
 30
0.0
 11
3.593163397972743
 21
4.059394005724531
 31
0.0
  0
LINE
  5
F598
330
F591
100
AcDbEntity
  8
0
  6
CONTINUOUS
100
AcDbLine
 10
2.840644091610043
 20
2.633355490281646
 30
0.0
 11
3.864561627586149
 21
3.657273026257751
 31
0.0
  0
LINE
  5
F599
330
F591
100
AcDbEntity
  8
0
  6
CONTINUOUS
100
AcDbLine
 10
3.112041627680496
 20
2.231233817271911
 30
0.0
 11
4.135959857199554
 21
3.25515204679097
 31
0.0
  0
LINE
  5
F59A
330
F591
100
AcDbEntity
  8
0
  6
CONTINUOUS
100
AcDbLine
 10
3.383439163750948
 20
1.829112144262177
 30
0.0
 11
4.40735808681296
 21
2.853031067324189
 31
0.0
  0
LINE
  5
F59B
330
F591
100
AcDbEntity
  8
0
  6
CONTINUOUS
100
AcDbLine
 10
3.654836699821399
 20
1.426990471252442
 30
0.0
 11
4.678756316426365
 21
2.450910087857407
 31
0.0
  0
LINE
  5
F59C
330
F591
100
AcDbEntity
  8
0
  6
CONTINUOUS
100
AcDbLine
 10
3.926234235891853
 20
1.024868798242709
 30
0.0
 11
4.95015454603977
 21
2.048789108390626
 31
0.0
  0
LINE
  5
F59D
330
F591
100
AcDbEntity
  8
0
  6
CONTINUOUS
100
AcDbLine
 10
4.197631771962304
 20
0.6227471252329737
 30
0.0
 11
5.221552775653176
 21
1.646668128923846
 31
0.0
  0
LINE
  5
F59E
330
F591
100
AcDbEntity
  8
0
  6
CONTINUOUS
100
AcDbLine
 10
8.715877546767851
 20
7.835069736359266
 30
0.0
 11
9.435953450375058
 21
8.555145639966472
 31
0.0
  0
LINE
  5
F59F
330
F591
100
AcDbEntity
  8
0
  6
CONTINUOUS
100
AcDbLine
 10
8.170620868422267
 20
6.616293848933497
 30
0.0
 11
9.644120833743461
 21
8.08979381425469
 31
0.0
  0
LINE
  5
F5A0
330
F591
100
AcDbEntity
  8
0
  6
CONTINUOUS
100
AcDbLine
 10
7.625364190076684
 20
5.397517961507727
 30
0.0
 11
9.852288217111864
 21
7.624441988542907
 31
0.0
  0
LINE
  5
F5A1
330
F591
100
AcDbEntity
  8
0
  6
CONTINUOUS
100
AcDbLine
 10
7.080107511731101
 20
4.178742074081957
 30
0.0
 11
10.06045560048027
 21
7.159090162831124
 31
0.0
  0
LINE
  5
F5A2
330
F591
100
AcDbEntity
  8
0
  6
CONTINUOUS
100
AcDbLine
 10
6.534850833385518
 20
2.959966186656187
 30
0.0
 11
10.26862298384867
 21
6.693738337119342
 31
0.0
  0
LINE
  5
F5A3
330
F591
100
AcDbEntity
  8
0
  6
CONTINUOUS
100
AcDbLine
 10
4.469029308032756
 20
0.2206254522232385
 30
0.0
 11
5.492951005266582
 21
1.244547149457064
 31
0.0
  0
LINE
  5
F5A4
330
F591
100
AcDbEntity
  8
0
  6
CONTINUOUS
100
AcDbLine
 10
5.989594155039935
 20
1.741190299230417
 30
0.0
 11
8.806950407233131
 21
4.558546551423613
 31
0.0
  0
LINE
  5
F5A5
330
F591
100
AcDbEntity
  8
0
  6
CONTINUOUS
100
AcDbLine
 10
9.401251593263643
 20
5.152847737454126
 30
0.0
 11
10.47679036721708
 21
6.228386511407559
 31
0.0
  0
LINE
  5
F5A6
330
F591
100
AcDbEntity
  8
0
  6
CONTINUOUS
100
AcDbLine
 10
4.921837203428691
 20
-0.0000858614610131
 30
0.0
 11
8.592923064886001
 21
3.670999999996297
 31
0.0
  0
LINE
  5
F5A7
330
F591
100
AcDbEntity
  8
0
  6
CONTINUOUS
100
AcDbLine
 10
9.609390446785305
 20
4.6874673818956
 30
0.0
 11
10.68495775058548
 21
5.763034685695775
 31
0.0
  0
LINE
  5
F5A8
330
F591
100
AcDbEntity
  8
0
  6
CONTINUOUS
100
AcDbLine
 10
5.595387755019432
 20
-0.0000545189504582
 30
0.0
 11
7.716137258923768
 21
2.120694984953879
 31
0.0
  0
LINE
  5
F5A9
330
F591
100
AcDbEntity
  8
0
  6
CONTINUOUS
100
AcDbLine
 10
6.268938306610172
 20
-0.000023176439905
 30
0.0
 11
7.170485805526503
 21
0.9015243224764267
 31
0.0
  0
LINE
  5
F5AA
330
F591
100
AcDbEntity
  8
0
  6
CONTINUOUS
100
AcDbLine
 10
7.963842273967511
 20
2.368399999997621
 30
0.0
 11
9.266442273966188
 21
3.670999999996297
 31
0.0
  0
LINE
  5
F5AB
330
F591
100
AcDbEntity
  8
0
  6
CONTINUOUS
100
AcDbLine
 10
8.637361483047696
 20
2.368399999997621
 30
0.0
 11
9.939961483046375
 21
3.670999999996297
 31
0.0
  0
LINE
  5
F5AC
330
F591
100
AcDbEntity
  8
0
  6
CONTINUOUS
100
AcDbLine
 10
9.817529300306965
 20
4.222087026337075
 30
0.0
 11
10.89312513395388
 21
5.297682859983993
 31
0.0
  0
LINE
  5
F5AD
330
F591
100
AcDbEntity
  8
0
  6
CONTINUOUS
100
AcDbLine
 10
10.02566815382863
 20
3.756706670778549
 30
0.0
 11
11.10129251732229
 21
4.832331034272211
 31
0.0
  0
LINE
  5
F5AE
330
F591
100
AcDbEntity
  8
0
  6
CONTINUOUS
100
AcDbLine
 10
9.310880692127883
 20
2.368399999997621
 30
0.0
 11
11.30945990069069
 21
4.366979208560428
 31
0.0
  0
LINE
  5
F5AF
330
F591
100
AcDbEntity
  8
0
  6
CONTINUOUS
100
AcDbLine
 10
9.98439990120807
 20
2.36839999999762
 30
0.0
 11
11.5176272840591
 21
3.901627382848645
 31
0.0
  0
LINE
  5
F5B0
330
F591
100
AcDbEntity
  8
0
  6
CONTINUOUS
100
AcDbLine
 10
10.65037369446246
 20
2.36085458417182
 30
0.0
 11
11.7257946674275
 21
3.436275557136862
 31
0.0
  0
LINE
  5
F5B1
330
F591
100
AcDbEntity
  8
0
  6
CONTINUOUS
100
AcDbLine
 10
10.85847197087848
 20
1.895433651507656
 30
0.0
 11
11.9339620507959
 21
2.97092373142508
 31
0.0
  0
LINE
  5
F5B2
330
F591
100
AcDbEntity
  8
0
  6
CONTINUOUS
100
AcDbLine
 10
11.0665702472945
 20
1.430012718843491
 30
0.0
 11
12.14212943416431
 21
2.505571905713296
 31
0.0
  0
LINE
  5
F5B3
330
F591
100
AcDbEntity
  8
0
  6
CONTINUOUS
100
AcDbLine
 10
11.27466852371052
 20
0.9645917861793256
 30
0.0
 11
12.35029681753271
 21
2.040220080001513
 31
0.0
  0
LINE
  5
F5B4
330
F591
100
AcDbEntity
  8
0
  6
CONTINUOUS
100
AcDbLine
 10
11.48276680012654
 20
0.4991708535151611
 30
0.0
 11
12.55846420090111
 21
1.57486825428973
 31
0.0
  0
LINE
  5
F5B5
330
F591
100
AcDbEntity
  8
0
  6
CONTINUOUS
100
AcDbLine
 10
11.69086507654257
 20
0.0337499208509957
 30
0.0
 11
12.76663158426952
 21
1.109516428577947
 31
0.0
  0
LINE
  5
F5B6
330
F591
100
AcDbEntity
  8
0
  6
CONTINUOUS
100
AcDbLine
 10
12.33057447873954
 20
-0.0000598860322123
 30
0.0
 11
12.97479896763792
 21
0.6441646028661663
 31
0.0
  0
LINE
  5
F5B7
330
F591
100
AcDbEntity
  8
0
  6
CONTINUOUS
100
AcDbLine
 10
13.00413694809395
 20
-0.0000166257579952
 30
0.0
 11
13.18296635100632
 21
0.1788127771543824
 31
0.0
  0
LINE
  5
F5B8
330
F591
100
AcDbEntity
  8
0
  6
CONTINUOUS
100
AcDbLine
 10
4.772852165289667
 20
-0.000092794222212
 30
0.0
 11
4.296495091028902
 21
0.4762642800385528
 31
0.0
  0
LINE
  5
F5B9
330
F591
100
AcDbEntity
  8
0
  6
CONTINUOUS
100
AcDbLine
 10
5.446340034776103
 20
-0.0000614546284616
 30
0.0
 11
2.898195908335625
 21
2.548082671812017
 31
0.0
  0
LINE
  5
F5BA
330
F591
100
AcDbEntity
  8
0
  6
CONTINUOUS
100
AcDbLine
 10
6.119827904262539
 20
-0.0000301150347113
 30
0.0
 11
1.499896725642348
 21
4.61990106358548
 31
0.0
  0
LINE
  5
F5BB
330
F591
100
AcDbEntity
  8
0
  6
CONTINUOUS
100
AcDbLine
 10
6.775136745476159
 20
0.0181802528318542
 30
0.0
 11
5.699826040202669
 21
1.093490958105344
 31
0.0
  0
LINE
  5
F5BC
330
F591
100
AcDbEntity
  8
0
  6
CONTINUOUS
100
AcDbLine
 10
6.983376846288489
 20
0.4834593610997118
 30
0.0
 11
5.908008617934405
 21
1.558827589453796
 31
0.0
  0
LINE
  5
F5BD
330
F591
100
AcDbEntity
  8
0
  6
CONTINUOUS
100
AcDbLine
 10
5.377063484962296
 20
1.416253513345719
 30
0.0
 11
1.702276957014131
 21
5.091040041293883
 31
0.0
  0
LINE
  5
F5BE
330
F591
100
AcDbEntity
  8
0
  6
CONTINUOUS
100
AcDbLine
 10
3.978745891735324
 20
3.488090315652877
 30
0.0
 11
2.000373521109399
 21
5.466462686278803
 31
0.0
  0
LINE
  5
F5BF
330
F591
100
AcDbEntity
  8
0
  6
CONTINUOUS
100
AcDbLine
 10
7.191616947100819
 20
0.948738469367568
 30
0.0
 11
6.11619119566614
 21
2.024164220802247
 31
0.0
  0
LINE
  5
F5C0
330
F591
100
AcDbEntity
  8
0
  6
CONTINUOUS
100
AcDbLine
 10
7.399857047913149
 20
1.414017577635424
 30
0.0
 11
6.324373773397875
 21
2.489500852150698
 31
0.0
  0
LINE
  5
F5C1
330
F591
100
AcDbEntity
  8
0
  6
CONTINUOUS
100
AcDbLine
 10
7.608097148725479
 20
1.879296685903281
 30
0.0
 11
6.53255635112961
 21
2.95483748349915
 31
0.0
  0
LINE
  5
F5C2
330
F591
100
AcDbEntity
  8
0
  6
CONTINUOUS
100
AcDbLine
 10
7.816337249537808
 20
2.344575794171138
 30
0.0
 11
6.740738928861345
 21
3.420174114847601
 31
0.0
  0
LINE
  5
F5C3
330
F591
100
AcDbEntity
  8
0
  6
CONTINUOUS
100
AcDbLine
 10
3.310241080789734
 20
4.830114335678653
 30
0.0
 11
2.298470085204666
 21
5.84188533126372
 31
0.0
  0
LINE
  5
F5C4
330
F591
100
AcDbEntity
  8
0
  6
CONTINUOUS
100
AcDbLine
 10
3.60832983563551
 20
5.205544789913063
 30
0.0
 11
2.596566649299935
 21
6.217307976248638
 31
0.0
  0
LINE
  5
F5C5
330
F591
100
AcDbEntity
  8
0
  6
CONTINUOUS
100
AcDbLine
 10
3.906418590481286
 20
5.580975244147473
 30
0.0
 11
2.894663213395203
 21
6.592730621233557
 31
0.0
  0
LINE
  5
F5C6
330
F591
100
AcDbEntity
  8
0
  6
CONTINUOUS
100
AcDbLine
 10
4.204507345327062
 20
5.956405698381884
 30
0.0
 11
3.192759777490472
 21
6.968153266218474
 31
0.0
  0
LINE
  5
F5C7
330
F591
100
AcDbEntity
  8
0
  6
CONTINUOUS
100
AcDbLine
 10
8.466032252791512
 20
2.368399999997621
 30
0.0
 11
6.948921506593081
 21
3.885510746196053
 31
0.0
  0
LINE
  5
F5C8
330
F591
100
AcDbEntity
  8
0
  6
CONTINUOUS
100
AcDbLine
 10
9.139551461871699
 20
2.36839999999762
 30
0.0
 11
7.157104084324816
 21
4.350847377544504
 31
0.0
  0
LINE
  5
F5C9
330
F591
100
AcDbEntity
  8
0
  6
CONTINUOUS
100
AcDbLine
 10
4.502596100172839
 20
6.331836152616295
 30
0.0
 11
3.49085634158574
 21
7.343575911203393
 31
0.0
  0
LINE
  5
F5CA
330
F591
100
AcDbEntity
  8
0
  6
CONTINUOUS
100
AcDbLine
 10
4.800684855018615
 20
6.707266606850705
 30
0.0
 11
3.788952905681008
 21
7.718998556188312
 31
0.0
  0
LINE
  5
F5CB
330
F591
100
AcDbEntity
  8
0
  6
CONTINUOUS
100
AcDbLine
 10
12.18154012887317
 20
-0.0000694579236642
 30
0.0
 11
11.32140332908496
 21
0.8600673418645499
 31
0.0
  0
LINE
  5
F5CC
330
F591
100
AcDbEntity
  8
0
  6
CONTINUOUS
100
AcDbLine
 10
12.85501608323566
 20
-0.0000262032059659
 30
0.0
 11
10.77672456435345
 21
2.078265315676246
 31
0.0
  0
LINE
  5
F5CD
330
F591
100
AcDbEntity
  8
0
  6
CONTINUOUS
100
AcDbLine
 10
9.813070670951886
 20
2.36839999999762
 30
0.0
 11
8.51047067095321
 21
3.670999999996297
 31
0.0
  0
LINE
  5
F5CE
330
F591
100
AcDbEntity
  8
0
  6
CONTINUOUS
100
AcDbLine
 10
10.48658988003207
 20
2.36839999999762
 30
0.0
 11
9.183989880033396
 21
3.670999999996297
 31
0.0
  0
LINE
  5
F5CF
330
F591
100
AcDbEntity
  8
0
  6
CONTINUOUS
100
AcDbLine
 10
8.441048632286794
 20
3.740422038662712
 30
0.0
 11
7.365286662056551
 21
4.816184008892956
 31
0.0
  0
LINE
  5
F5D0
330
F591
100
AcDbEntity
  8
0
  6
CONTINUOUS
100
AcDbLine
 10
8.649187485808454
 20
4.205802394221237
 30
0.0
 11
7.573469239788285
 21
5.281520640241407
 31
0.0
  0
LINE
  5
F5D1
330
F591
100
AcDbEntity
  8
0
  6
CONTINUOUS
100
AcDbLine
 10
5.098773609864391
 20
7.082697061085115
 30
0.0
 11
4.087049469776277
 21
8.09442120117323
 31
0.0
  0
LINE
  5
F5D2
330
F591
100
AcDbEntity
  8
0
  6
CONTINUOUS
100
AcDbLine
 10
5.396862364710167
 20
7.458127515319526
 30
0.0
 11
4.385146033871544
 21
8.469843846158149
 31
0.0
  0
LINE
  5
F5D3
330
F591
100
AcDbEntity
  8
0
  6
CONTINUOUS
100
AcDbLine
 10
13.04801363231285
 20
0.4804954567970334
 30
0.0
 11
9.85750908911358
 21
3.670999999996297
 31
0.0
  0
LINE
  5
F5D4
330
F591
100
AcDbEntity
  8
0
  6
CONTINUOUS
100
AcDbLine
 10
8.857326339330116
 20
4.671182749779763
 30
0.0
 11
7.781651817520021
 21
5.746857271589858
 31
0.0
  0
LINE
  5
F5D5
330
F591
100
AcDbEntity
  8
0
  6
CONTINUOUS
100
AcDbLine
 10
5.694951119555943
 20
7.833557969553937
 30
0.0
 11
4.765409089118624
 21
8.763099999991255
 31
0.0
  0
LINE
  5
F5D6
330
F591
100
AcDbEntity
  8
0
  6
CONTINUOUS
100
AcDbLine
 10
12.50286117236978
 20
1.699167125820288
 30
0.0
 11
9.68611877250287
 21
4.515909525687196
 31
0.0
  0
LINE
  5
F5D7
330
F591
100
AcDbEntity
  8
0
  6
CONTINUOUS
100
AcDbLine
 10
9.065465192851777
 20
5.136563105338288
 30
0.0
 11
7.989834395251757
 21
6.21219390293831
 31
0.0
  0
LINE
  5
F5D8
330
F591
100
AcDbEntity
  8
0
  6
CONTINUOUS
100
AcDbLine
 10
5.993039874401719
 20
8.208988423788346
 30
0.0
 11
5.43892829819881
 21
8.763099999991255
 31
0.0
  0
LINE
  5
F5D9
330
F591
100
AcDbEntity
  8
0
  6
CONTINUOUS
100
AcDbLine
 10
11.95770871242671
 20
2.917838794843543
 30
0.0
 11
8.19801697298349
 21
6.677530534286761
 31
0.0
  0
LINE
  5
F5DA
330
F591
100
AcDbEntity
  8
0
  6
CONTINUOUS
100
AcDbLine
 10
6.291128629247495
 20
8.584418878022756
 30
0.0
 11
6.112447507278997
 21
8.763099999991255
 31
0.0
  0
LINE
  5
F5DB
330
F591
100
AcDbEntity
  8
0
  6
CONTINUOUS
100
AcDbLine
 10
11.41255625248364
 20
4.136510463866797
 30
0.0
 11
8.406199550715227
 21
7.142867165635211
 31
0.0
  0
LINE
  5
F5DC
330
F591
100
AcDbEntity
  8
0
  6
CONTINUOUS
100
AcDbLine
 10
10.86740379254057
 20
5.355182132890051
 30
0.0
 11
8.614382128446962
 21
7.608203796983664
 31
0.0
  0
LINE
  5
F5DD
330
F591
100
AcDbEntity
  8
0
  6
CONTINUOUS
100
AcDbLine
 10
10.3222513325975
 20
6.573853801913305
 30
0.0
 11
8.822564706178696
 21
8.073540428332114
 31
0.0
  0
LINE
  5
F5DE
330
F591
100
AcDbEntity
  8
0
  6
CONTINUOUS
100
AcDbLine
 10
9.777098872654436
 20
7.792525470936562
 30
0.0
 11
9.030747283910433
 21
8.538877059680566
 31
0.0
  0
ENDBLK
  5
F720
330
F591
100
AcDbEntity
  8
0
100
AcDbBlockEnd
  0
BLOCK
  5
F721
330
F5DF
100
AcDbEntity
  8
0
100
AcDbBlockBegin
  2
*X46
 70
     1
 10
0.0
 20
0.0
 30
0.0
  3
*X46
  1

  0
LINE
  5
F5E0
330
F5DF
100
AcDbEntity
  8
0
  6
CONTINUOUS
100
AcDbLine
 10
10.67292308101235
 20
8.445076852443387
 30
0.0
 11
10.99094622856022
 21
8.763099999991255
 31
0.0
  0
LINE
  5
F5E1
330
F5DF
100
AcDbEntity
  8
0
  6
CONTINUOUS
100
AcDbLine
 10
10.87250383178748
 20
7.971138394138331
 30
0.0
 11
11.6644654376404
 21
8.763099999991255
 31
0.0
  0
LINE
  5
F5E2
330
F5DF
100
AcDbEntity
  8
0
  6
CONTINUOUS
100
AcDbLine
 10
11.07208458256261
 20
7.497199935833273
 30
0.0
 11
12.12126590876355
 21
8.546381262034211
 31
0.0
  0
LINE
  5
F5E3
330
F5DF
100
AcDbEntity
  8
0
  6
CONTINUOUS
100
AcDbLine
 10
11.27166533333774
 20
7.023261477528216
 30
0.0
 11
12.32085164573666
 21
8.072447789927136
 31
0.0
  0
LINE
  5
F5E4
330
F5DF
100
AcDbEntity
  8
0
  6
CONTINUOUS
100
AcDbLine
 10
11.47124608411287
 20
6.549323019223158
 30
0.0
 11
12.52043738270977
 21
7.59851431782006
 31
0.0
  0
LINE
  5
F5E5
330
F5DF
100
AcDbEntity
  8
0
  6
CONTINUOUS
100
AcDbLine
 10
11.670826834888
 20
6.075384560918101
 30
0.0
 11
12.72002311968288
 21
7.124580845712984
 31
0.0
  0
LINE
  5
F5E6
330
F5DF
100
AcDbEntity
  8
0
  6
CONTINUOUS
100
AcDbLine
 10
11.87040758566313
 20
5.601446102613043
 30
0.0
 11
12.91960885665599
 21
6.650647373605907
 31
0.0
  0
LINE
  5
F5E7
330
F5DF
100
AcDbEntity
  8
0
  6
CONTINUOUS
100
AcDbLine
 10
12.06998833643825
 20
5.127507644307986
 30
0.0
 11
13.1191945936291
 21
6.176713901498832
 31
0.0
  0
LINE
  5
F5E8
330
F5DF
100
AcDbEntity
  8
0
  6
CONTINUOUS
100
AcDbLine
 10
12.26956908721338
 20
4.65356918600293
 30
0.0
 11
13.31878033060221
 21
5.702780429391757
 31
0.0
  0
LINE
  5
F5E9
330
F5DF
100
AcDbEntity
  8
0
  6
CONTINUOUS
100
AcDbLine
 10
12.46914983798851
 20
4.179630727697873
 30
0.0
 11
13.51836606757532
 21
5.228846957284683
 31
0.0
  0
LINE
  5
F5EA
330
F5DF
100
AcDbEntity
  8
0
  6
CONTINUOUS
100
AcDbLine
 10
12.66873058876364
 20
3.705692269392816
 30
0.0
 11
13.71795180454843
 21
4.754913485177607
 31
0.0
  0
LINE
  5
F5EB
330
F5DF
100
AcDbEntity
  8
0
  6
CONTINUOUS
100
AcDbLine
 10
12.86831133953877
 20
3.231753811087759
 30
0.0
 11
13.91753754152154
 21
4.280980013070531
 31
0.0
  0
LINE
  5
F5EC
330
F5DF
100
AcDbEntity
  8
0
  6
CONTINUOUS
100
AcDbLine
 10
13.0678920903139
 20
2.757815352782702
 30
0.0
 11
14.11712327849465
 21
3.807046540963456
 31
0.0
  0
LINE
  5
F5ED
330
F5DF
100
AcDbEntity
  8
0
  6
CONTINUOUS
100
AcDbLine
 10
13.26747284108903
 20
2.283876894477644
 30
0.0
 11
14.31670901546777
 21
3.333113068856379
 31
0.0
  0
LINE
  5
F5EE
330
F5DF
100
AcDbEntity
  8
0
  6
CONTINUOUS
100
AcDbLine
 10
16.36767838827179
 20
8.751678487061342
 30
0.0
 11
16.50332410898388
 21
8.887324207773432
 31
0.0
  0
LINE
  5
F5EF
330
F5DF
100
AcDbEntity
  8
0
  6
CONTINUOUS
100
AcDbLine
 10
15.96190732182191
 20
7.67238821153127
 30
0.0
 11
16.68735328004734
 21
8.397834169756699
 31
0.0
  0
LINE
  5
F5F0
330
F5DF
100
AcDbEntity
  8
0
  6
CONTINUOUS
100
AcDbLine
 10
15.55613625537202
 20
6.593097936001196
 30
0.0
 11
16.87138245111079
 21
7.908344131739965
 31
0.0
  0
LINE
  5
F5F1
330
F5DF
100
AcDbEntity
  8
0
  6
CONTINUOUS
100
AcDbLine
 10
15.15036518892213
 20
5.513807660471122
 30
0.0
 11
17.05541162217424
 21
7.418854093723231
 31
0.0
  0
LINE
  5
F5F2
330
F5DF
100
AcDbEntity
  8
0
  6
CONTINUOUS
100
AcDbLine
 10
14.74459412247225
 20
4.434517384941048
 30
0.0
 11
17.2394407932377
 21
6.929364055706499
 31
0.0
  0
LINE
  5
F5F3
330
F5DF
100
AcDbEntity
  8
0
  6
CONTINUOUS
100
AcDbLine
 10
14.33882305602236
 20
3.355227109410975
 30
0.0
 11
17.42346996430115
 21
6.439874017689766
 31
0.0
  0
LINE
  5
F5F4
330
F5DF
100
AcDbEntity
  8
0
  6
CONTINUOUS
100
AcDbLine
 10
13.46705359186416
 20
1.809938436172586
 30
0.0
 11
16.0819338255367
 21
4.424818669845129
 31
0.0
  0
LINE
  5
F5F5
330
F5DF
100
AcDbEntity
  8
0
  6
CONTINUOUS
100
AcDbLine
 10
16.63283254238972
 20
4.975717386698149
 30
0.0
 11
17.60749913536461
 21
5.950383979673033
 31
0.0
  0
LINE
  5
F5F6
330
F5DF
100
AcDbEntity
  8
0
  6
CONTINUOUS
100
AcDbLine
 10
13.66663434263929
 20
1.335999977867529
 30
0.0
 11
15.67604797733754
 21
3.345413612565779
 31
0.0
  0
LINE
  5
F5F7
330
F5DF
100
AcDbEntity
  8
0
  6
CONTINUOUS
100
AcDbLine
 10
13.86621509341442
 20
0.8620615195624723
 30
0.0
 11
15.27016212913838
 21
2.26600855528643
 31
0.0
  0
LINE
  5
F5F8
330
F5DF
100
AcDbEntity
  8
0
  6
CONTINUOUS
100
AcDbLine
 10
16.81682257348267
 20
4.486188208710908
 30
0.0
 11
17.79152830642806
 21
5.460893941656299
 31
0.0
  0
LINE
  5
F5F9
330
F5DF
100
AcDbEntity
  8
0
  6
CONTINUOUS
100
AcDbLine
 10
17.00081260457561
 20
3.996659030723667
 30
0.0
 11
17.97555747749151
 21
4.971403903639565
 31
0.0
  0
LINE
  5
F5FA
330
F5DF
100
AcDbEntity
  8
0
  6
CONTINUOUS
100
AcDbLine
 10
20.74362343514722
 20
8.412989070375462
 30
0.0
 11
21.09373436476302
 21
8.763099999991256
 31
0.0
  0
LINE
  5
F5FB
330
F5DF
100
AcDbEntity
  8
0
  6
CONTINUOUS
100
AcDbLine
 10
20.25401257174777
 20
7.249858997895826
 30
0.0
 11
21.7672535738432
 21
8.763099999991255
 31
0.0
  0
LINE
  5
F5FC
330
F5DF
100
AcDbEntity
  8
0
  6
CONTINUOUS
100
AcDbLine
 10
14.06579584418955
 20
0.3881230612574149
 30
0.0
 11
14.86427628093921
 21
1.186603498007082
 31
0.0
  0
LINE
  5
F5FD
330
F5DF
100
AcDbEntity
  8
0
  6
CONTINUOUS
100
AcDbLine
 10
14.26537659496467
 20
-0.0858153970476412
 30
0.0
 11
14.45839043274005
 21
0.1071984407277329
 31
0.0
  0
LINE
  5
F5FE
330
F5DF
100
AcDbEntity
  8
0
  6
CONTINUOUS
100
AcDbLine
 10
17.18480263566856
 20
3.507129852736426
 30
0.0
 11
18.15958664855496
 21
4.481913865622833
 31
0.0
  0
LINE
  5
F5FF
330
F5DF
100
AcDbEntity
  8
0
  6
CONTINUOUS
100
AcDbLine
 10
17.3687926667615
 20
3.017600674749186
 30
0.0
 11
18.34361581961842
 21
3.9924238276061
 31
0.0
  0
LINE
  5
F600
330
F5DF
100
AcDbEntity
  8
0
  6
CONTINUOUS
100
AcDbLine
 10
19.76440170834832
 20
6.086728925416191
 30
0.0
 11
22.33924590259489
 21
8.661573119662755
 31
0.0
  0
LINE
  5
F601
330
F5DF
100
AcDbEntity
  8
0
  6
CONTINUOUS
100
AcDbLine
 10
19.27479084494887
 20
4.923598852936555
 30
0.0
 11
21.84929622842713
 21
7.498104236414807
 31
0.0
  0
LINE
  5
F602
330
F5DF
100
AcDbEntity
  8
0
  6
CONTINUOUS
100
AcDbLine
 10
17.55278269785445
 20
2.528071496761945
 30
0.0
 11
18.52764499068187
 21
3.502933789589366
 31
0.0
  0
LINE
  5
F603
330
F5DF
100
AcDbEntity
  8
0
  6
CONTINUOUS
100
AcDbLine
 10
18.78517998154942
 20
3.760468780456919
 30
0.0
 11
21.35934655425936
 21
6.33463535316686
 31
0.0
  0
LINE
  5
F604
330
F5DF
100
AcDbEntity
  8
0
  6
CONTINUOUS
100
AcDbLine
 10
17.73677272894739
 20
2.038542318774704
 30
0.0
 11
20.8693968800916
 21
5.171166469918914
 31
0.0
  0
LINE
  5
F605
330
F5DF
100
AcDbEntity
  8
0
  6
CONTINUOUS
100
AcDbLine
 10
17.92076276004034
 20
1.549013140787464
 30
0.0
 11
20.37944720592384
 21
4.007697586670968
 31
0.0
  0
LINE
  5
F606
330
F5DF
100
AcDbEntity
  8
0
  6
CONTINUOUS
100
AcDbLine
 10
18.10475279113329
 20
1.059483962800223
 30
0.0
 11
19.88949753175608
 21
2.84422870342302
 31
0.0
  0
LINE
  5
F607
330
F5DF
100
AcDbEntity
  8
0
  6
CONTINUOUS
100
AcDbLine
 10
18.28874282222623
 20
0.5699547848129822
 30
0.0
 11
19.39954785758832
 21
1.680759820175074
 31
0.0
  0
LINE
  5
F608
330
F5DF
100
AcDbEntity
  8
0
  6
CONTINUOUS
100
AcDbLine
 10
18.47273285331918
 20
0.0804256068257416
 30
0.0
 11
18.90959818342056
 21
0.517290936927127
 31
0.0
  0
LINE
  5
F609
330
F5DF
100
AcDbEntity
  8
0
  6
CONTINUOUS
100
AcDbLine
 10
14.3590401358224
 20
-0.1570118376323384
 30
0.0
 11
14.24903296539946
 21
-0.0470046672093929
 31
0.0
  0
LINE
  5
F60A
330
F5DF
100
AcDbEntity
  8
0
  6
CONTINUOUS
100
AcDbLine
 10
14.54309291258661
 20
0.332454594683643
 30
0.0
 11
13.75908329123172
 21
1.116464216038529
 31
0.0
  0
LINE
  5
F60B
330
F5DF
100
AcDbEntity
  8
0
  6
CONTINUOUS
100
AcDbLine
 10
14.72714568935081
 20
0.8219210269996244
 30
0.0
 11
13.26913361706399
 21
2.27993309928645
 31
0.0
  0
LINE
  5
F60C
330
F5DF
100
AcDbEntity
  8
0
  6
CONTINUOUS
100
AcDbLine
 10
14.91119846611502
 20
1.311387459315606
 30
0.0
 11
12.77918394289625
 21
3.443401982534371
 31
0.0
  0
LINE
  5
F60D
330
F5DF
100
AcDbEntity
  8
0
  6
CONTINUOUS
100
AcDbLine
 10
15.09525124287922
 20
1.800853891631587
 30
0.0
 11
12.28923426872852
 21
4.606870865782293
 31
0.0
  0
LINE
  5
F60E
330
F5DF
100
AcDbEntity
  8
0
  6
CONTINUOUS
100
AcDbLine
 10
15.27930401964343
 20
2.290320323947569
 30
0.0
 11
11.79928459456078
 21
5.770339749030213
 31
0.0
  0
LINE
  5
F60F
330
F5DF
100
AcDbEntity
  8
0
  6
CONTINUOUS
100
AcDbLine
 10
15.46335679640763
 20
2.77978675626355
 30
0.0
 11
14.48885470994921
 21
3.754288842721972
 31
0.0
  0
LINE
  5
F610
330
F5DF
100
AcDbEntity
  8
0
  6
CONTINUOUS
100
AcDbLine
 10
13.88507249233704
 20
4.358071060334137
 30
0.0
 11
11.30933492039305
 21
6.933808632278135
 31
0.0
  0
LINE
  5
F611
330
F5DF
100
AcDbEntity
  8
0
  6
CONTINUOUS
100
AcDbLine
 10
18.75840522805855
 20
0.1582575336928151
 30
0.0
 11
18.25383727664818
 21
0.6628254851031863
 31
0.0
  0
LINE
  5
F612
330
F5DF
100
AcDbEntity
  8
0
  6
CONTINUOUS
100
AcDbLine
 10
15.64740957317184
 20
3.269253188579531
 30
0.0
 11
14.67288388101266
 21
4.243778880738705
 31
0.0
  0
LINE
  5
F613
330
F5DF
100
AcDbEntity
  8
0
  6
CONTINUOUS
100
AcDbLine
 10
13.39509276772158
 20
5.521569994029786
 30
0.0
 11
10.81938524622531
 21
8.097277515526056
 31
0.0
  0
LINE
  5
F614
330
F5DF
100
AcDbEntity
  8
0
  6
CONTINUOUS
100
AcDbLine
 10
18.95798597883369
 20
0.6321959919978686
 30
0.0
 11
17.84825644852853
 21
1.741925522303024
 31
0.0
  0
LINE
  5
F615
330
F5DF
100
AcDbEntity
  8
0
  6
CONTINUOUS
100
AcDbLine
 10
19.15756672960882
 20
1.106134450302922
 30
0.0
 11
17.44267562040888
 21
2.821025559502861
 31
0.0
  0
LINE
  5
F616
330
F5DF
100
AcDbEntity
  8
0
  6
CONTINUOUS
100
AcDbLine
 10
15.83146234993604
 20
3.758719620895513
 30
0.0
 11
14.85691305207612
 21
4.733268918755439
 31
0.0
  0
LINE
  5
F617
330
F5DF
100
AcDbEntity
  8
0
  6
CONTINUOUS
100
AcDbLine
 10
16.01551512670025
 20
4.248186053211494
 30
0.0
 11
15.04094222313957
 21
5.222758956772172
 31
0.0
  0
LINE
  5
F618
330
F5DF
100
AcDbEntity
  8
0
  6
CONTINUOUS
100
AcDbLine
 10
12.90511304310612
 20
6.685068927725435
 30
0.0
 11
10.8270819708403
 21
8.763099999991255
 31
0.0
  0
LINE
  5
F619
330
F5DF
100
AcDbEntity
  8
0
  6
CONTINUOUS
100
AcDbLine
 10
12.41513331849066
 20
7.848567861421083
 30
0.0
 11
11.50060117992049
 21
8.763099999991255
 31
0.0
  0
LINE
  5
F61A
330
F5DF
100
AcDbEntity
  8
0
  6
CONTINUOUS
100
AcDbLine
 10
19.35714748038395
 20
1.580072908607975
 30
0.0
 11
17.03709479228923
 21
3.900125596702697
 31
0.0
  0
LINE
  5
F61B
330
F5DF
100
AcDbEntity
  8
0
  6
CONTINUOUS
100
AcDbLine
 10
19.55672823115909
 20
2.054011366913028
 30
0.0
 11
16.63151396416958
 21
4.979225633902534
 31
0.0
  0
LINE
  5
F61C
330
F5DF
100
AcDbEntity
  8
0
  6
CONTINUOUS
100
AcDbLine
 10
16.19956790346445
 20
4.737652485527476
 30
0.0
 11
15.22497139420302
 21
5.712248994788904
 31
0.0
  0
LINE
  5
F61D
330
F5DF
100
AcDbEntity
  8
0
  6
CONTINUOUS
100
AcDbLine
 10
16.38362068022866
 20
5.227118917843457
 30
0.0
 11
15.40900056526648
 21
6.201739032805637
 31
0.0
  0
LINE
  5
F61E
330
F5DF
100
AcDbEntity
  8
0
  6
CONTINUOUS
100
AcDbLine
 10
19.75630898193422
 20
2.527949825218081
 30
0.0
 11
18.70774536448286
 21
3.576513442669441
 31
0.0
  0
LINE
  5
F61F
330
F5DF
100
AcDbEntity
  8
0
  6
CONTINUOUS
100
AcDbLine
 10
19.95588973270936
 20
3.001888283523134
 30
0.0
 11
18.90726987211446
 21
4.050508144118028
 31
0.0
  0
LINE
  5
F620
330
F5DF
100
AcDbEntity
  8
0
  6
CONTINUOUS
100
AcDbLine
 10
20.15547048348449
 20
3.475826741828186
 30
0.0
 11
19.10679437974606
 21
4.524502845566614
 31
0.0
  0
LINE
  5
F621
330
F5DF
100
AcDbEntity
  8
0
  6
CONTINUOUS
100
AcDbLine
 10
20.35505123425962
 20
3.94976520013324
 30
0.0
 11
19.30631888737766
 21
4.998497547015201
 31
0.0
  0
LINE
  5
F622
330
F5DF
100
AcDbEntity
  8
0
  6
CONTINUOUS
100
AcDbLine
 10
20.55463198503475
 20
4.423703658438292
 30
0.0
 11
19.50584339500926
 21
5.472492248463787
 31
0.0
  0
LINE
  5
F623
330
F5DF
100
AcDbEntity
  8
0
  6
CONTINUOUS
100
AcDbLine
 10
18.37481191085755
 20
3.909446896294752
 30
0.0
 11
15.59302973632993
 21
6.691229070822371
 31
0.0
  0
LINE
  5
F624
330
F5DF
100
AcDbEntity
  8
0
  6
CONTINUOUS
100
AcDbLine
 10
17.96904084440766
 20
4.988737171824825
 30
0.0
 11
15.77705890739338
 21
7.180719108839104
 31
0.0
  0
LINE
  5
F625
330
F5DF
100
AcDbEntity
  8
0
  6
CONTINUOUS
100
AcDbLine
 10
17.56326977795777
 20
6.068027447354899
 30
0.0
 11
15.96108807845684
 21
7.670209146855838
 31
0.0
  0
LINE
  5
F626
330
F5DF
100
AcDbEntity
  8
0
  6
CONTINUOUS
100
AcDbLine
 10
17.15749871150789
 20
7.147317722884972
 30
0.0
 11
16.14511724952029
 21
8.15969918487257
 31
0.0
  0
LINE
  5
F627
330
F5DF
100
AcDbEntity
  8
0
  6
CONTINUOUS
100
AcDbLine
 10
16.751727645058
 20
8.226607998415046
 30
0.0
 11
16.32914642058374
 21
8.649189222889303
 31
0.0
  0
LINE
  5
F628
330
F5DF
100
AcDbEntity
  8
0
  6
CONTINUOUS
100
AcDbLine
 10
20.75421273580989
 20
4.897642116743345
 30
0.0
 11
19.70536790264086
 21
5.946486949912374
 31
0.0
  0
LINE
  5
F629
330
F5DF
100
AcDbEntity
  8
0
  6
CONTINUOUS
100
AcDbLine
 10
20.95379348658502
 20
5.371580575048398
 30
0.0
 11
19.90489241027246
 21
6.42048165136096
 31
0.0
  0
LINE
  5
F62A
330
F5DF
100
AcDbEntity
  8
0
  6
CONTINUOUS
100
AcDbLine
 10
21.15337423736015
 20
5.845519033353452
 30
0.0
 11
20.10441691790406
 21
6.894476352809547
 31
0.0
  0
LINE
  5
F62B
330
F5DF
100
AcDbEntity
  8
0
  6
CONTINUOUS
100
AcDbLine
 10
21.35295498813529
 20
6.319457491658505
 30
0.0
 11
20.30394142553566
 21
7.368471054258134
 31
0.0
  0
LINE
  5
F62C
330
F5DF
100
AcDbEntity
  8
0
  6
CONTINUOUS
100
AcDbLine
 10
21.55253573891042
 20
6.793395949963558
 30
0.0
 11
20.50346593316726
 21
7.842465755706721
 31
0.0
  0
LINE
  5
F62D
330
F5DF
100
AcDbEntity
  8
0
  6
CONTINUOUS
100
AcDbLine
 10
21.75211648968556
 20
7.267334408268612
 30
0.0
 11
20.70299044079886
 21
8.316460457155308
 31
0.0
  0
LINE
  5
F62E
330
F5DF
100
AcDbEntity
  8
0
  6
CONTINUOUS
100
AcDbLine
 10
21.95169724046069
 20
7.741272866573663
 30
0.0
 11
20.9298701070431
 21
8.763099999991256
 31
0.0
  0
LINE
  5
F62F
330
F5DF
100
AcDbEntity
  8
0
  6
CONTINUOUS
100
AcDbLine
 10
22.15127799123582
 20
8.215211324878716
 30
0.0
 11
21.60338931612328
 21
8.763099999991256
 31
0.0
  0
LINE
  5
F630
330
F5DF
100
AcDbEntity
  8
0
  6
CONTINUOUS
100
AcDbLine
 10
22.35085874201096
 20
8.689149783183769
 30
0.0
 11
22.27690852520347
 21
8.763099999991255
 31
0.0
  0
ENDBLK
  5
F722
330
F5DF
100
AcDbEntity
  8
0
100
AcDbBlockEnd
  0
BLOCK
  5
F723
330
F631
100
AcDbEntity
  8
0
100
AcDbBlockBegin
  2
*X47
 70
     1
 10
0.0
 20
0.0
 30
0.0
  3
*X47
  1

  0
LINE
  5
F632
330
F631
100
AcDbEntity
  8
0
  6
CONTINUOUS
100
AcDbLine
 10
23.19462913593892
 20
8.169917934846424
 30
0.0
 11
23.70775465517246
 21
8.683043454079957
 31
0.0
  0
LINE
  5
F633
330
F631
100
AcDbEntity
  8
0
  6
CONTINUOUS
100
AcDbLine
 10
22.64923161835078
 20
6.951001208178088
 30
0.0
 11
23.9159364069932
 21
8.217705996820516
 31
0.0
  0
LINE
  5
F634
330
F631
100
AcDbEntity
  8
0
  6
CONTINUOUS
100
AcDbLine
 10
22.10383410076263
 20
5.732084481509751
 30
0.0
 11
24.12411815881395
 21
7.752368539561078
 31
0.0
  0
LINE
  5
F635
330
F631
100
AcDbEntity
  8
0
  6
CONTINUOUS
100
AcDbLine
 10
21.55843658317447
 20
4.513167754841414
 30
0.0
 11
24.3322999106347
 21
7.287031082301639
 31
0.0
  0
LINE
  5
F636
330
F631
100
AcDbEntity
  8
0
  6
CONTINUOUS
100
AcDbLine
 10
21.01303906558632
 20
3.294251028173077
 30
0.0
 11
24.54048166245544
 21
6.821693625042199
 31
0.0
  0
LINE
  5
F637
330
F631
100
AcDbEntity
  8
0
  6
CONTINUOUS
100
AcDbLine
 10
20.46764154799817
 20
2.075334301504738
 30
0.0
 11
23.28571549467848
 21
4.89340824818505
 31
0.0
  0
LINE
  5
F638
330
F631
100
AcDbEntity
  8
0
  6
CONTINUOUS
100
AcDbLine
 10
19.92224403041002
 20
0.8564175748364002
 30
0.0
 11
22.74075865492779
 21
3.674932199354171
 31
0.0
  0
LINE
  5
F639
330
F631
100
AcDbEntity
  8
0
  6
CONTINUOUS
100
AcDbLine
 10
23.67305085490148
 20
5.280743608408048
 30
0.0
 11
24.74866341427619
 21
6.356356167782759
 31
0.0
  0
LINE
  5
F63A
330
F631
100
AcDbEntity
  8
0
  6
CONTINUOUS
100
AcDbLine
 10
23.88118970842314
 20
4.815363252849522
 30
0.0
 11
24.95684516609694
 21
5.89101871052332
 31
0.0
  0
LINE
  5
F63B
330
F631
100
AcDbEntity
  8
0
  6
CONTINUOUS
100
AcDbLine
 10
19.73925852647308
 20
-0.0000871381807288
 30
0.0
 11
23.4103456646501
 21
3.670999999996297
 31
0.0
  0
LINE
  5
F63C
330
F631
100
AcDbEntity
  8
0
  6
CONTINUOUS
100
AcDbLine
 10
24.0893285619448
 20
4.349982897290997
 30
0.0
 11
25.16502691791769
 21
5.42568125326388
 31
0.0
  0
LINE
  5
F63D
330
F631
100
AcDbEntity
  8
0
  6
CONTINUOUS
100
AcDbLine
 10
20.41282099582748
 20
-0.0000438779065108
 30
0.0
 11
21.64944178675636
 21
1.236576913022366
 31
0.0
  0
LINE
  5
F63E
330
F631
100
AcDbEntity
  8
0
  6
CONTINUOUS
100
AcDbLine
 10
22.78126487373161
 20
2.36839999999762
 30
0.0
 11
24.08386487373029
 21
3.670999999996297
 31
0.0
  0
LINE
  5
F63F
330
F631
100
AcDbEntity
  8
0
  6
CONTINUOUS
100
AcDbLine
 10
24.29746741546646
 20
3.884602541732471
 30
0.0
 11
25.37320866973843
 21
4.960343796004441
 31
0.0
  0
LINE
  5
F640
330
F631
100
AcDbEntity
  8
0
  6
CONTINUOUS
100
AcDbLine
 10
21.08638346518189
 20
-0.0000006176322938
 30
0.0
 11
21.10379033335899
 21
0.0174062505448083
 31
0.0
  0
LINE
  5
F641
330
F631
100
AcDbEntity
  8
0
  6
CONTINUOUS
100
AcDbLine
 10
23.4547840828118
 20
2.36839999999762
 30
0.0
 11
25.58139042155918
 21
4.495006338745002
 31
0.0
  0
LINE
  5
F642
330
F631
100
AcDbEntity
  8
0
  6
CONTINUOUS
100
AcDbLine
 10
29.30199999996933
 20
8.215615917155148
 30
0.0
 11
29.84948408280543
 21
8.763099999991255
 31
0.0
  0
LINE
  5
F643
330
F631
100
AcDbEntity
  8
0
  6
CONTINUOUS
100
AcDbLine
 10
24.12830329189199
 20
2.36839999999762
 30
0.0
 11
25.78957217337993
 21
4.029668881485562
 31
0.0
  0
LINE
  5
F644
330
F631
100
AcDbEntity
  8
0
  6
CONTINUOUS
100
AcDbLine
 10
29.30199999996933
 20
7.54209670807496
 30
0.0
 11
30.52300329188562
 21
8.763099999991255
 31
0.0
  0
LINE
  5
F645
330
F631
100
AcDbEntity
  8
0
  6
CONTINUOUS
100
AcDbLine
 10
24.80182250097217
 20
2.36839999999762
 30
0.0
 11
25.99775392520067
 21
3.564331424226122
 31
0.0
  0
LINE
  5
F646
330
F631
100
AcDbEntity
  8
0
  6
CONTINUOUS
100
AcDbLine
 10
29.30199999996933
 20
6.868577498994774
 30
0.0
 11
30.74199999996926
 21
8.308577498994712
 31
0.0
  0
LINE
  5
F647
330
F631
100
AcDbEntity
  8
0
  6
CONTINUOUS
100
AcDbLine
 10
25.13028238392013
 20
2.023340673865392
 30
0.0
 11
26.20593567702142
 21
3.098993966966683
 31
0.0
  0
LINE
  5
F648
330
F631
100
AcDbEntity
  8
0
  6
CONTINUOUS
100
AcDbLine
 10
25.33838066033617
 20
1.557919741201244
 30
0.0
 11
26.41411742884217
 21
2.633656509707244
 31
0.0
  0
LINE
  5
F649
330
F631
100
AcDbEntity
  8
0
  6
CONTINUOUS
100
AcDbLine
 10
25.54647893675221
 20
1.092498808537098
 30
0.0
 11
26.62229918066291
 21
2.168319052447804
 31
0.0
  0
LINE
  5
F64A
330
F631
100
AcDbEntity
  8
0
  6
CONTINUOUS
100
AcDbLine
 10
25.75457721316825
 20
0.62707787587295
 30
0.0
 11
26.83048093248366
 21
1.702981595188365
 31
0.0
  0
LINE
  5
F64B
330
F631
100
AcDbEntity
  8
0
  6
CONTINUOUS
100
AcDbLine
 10
29.30199999996933
 20
6.195058289914587
 30
0.0
 11
30.74199999996926
 21
7.635058289914522
 31
0.0
  0
LINE
  5
F64C
330
F631
100
AcDbEntity
  8
0
  6
CONTINUOUS
100
AcDbLine
 10
29.30199999996933
 20
5.521539080834401
 30
0.0
 11
30.74199999996926
 21
6.961539080834331
 31
0.0
  0
LINE
  5
F64D
330
F631
100
AcDbEntity
  8
0
  6
CONTINUOUS
100
AcDbLine
 10
29.30199999996933
 20
4.848019871754214
 30
0.0
 11
30.74199999996925
 21
6.288019871754143
 31
0.0
  0
LINE
  5
F64E
330
F631
100
AcDbEntity
  8
0
  6
CONTINUOUS
100
AcDbLine
 10
29.30199999996933
 20
4.174500662674028
 30
0.0
 11
30.74199999996925
 21
5.614500662673953
 31
0.0
  0
LINE
  5
F64F
330
F631
100
AcDbEntity
  8
0
  6
CONTINUOUS
100
AcDbLine
 10
25.96267548958429
 20
0.1616569432088024
 30
0.0
 11
27.18411854636669
 21
1.383099999991207
 31
0.0
  0
LINE
  5
F650
330
F631
100
AcDbEntity
  8
0
  6
CONTINUOUS
100
AcDbLine
 10
29.30199999996933
 20
3.500981453593841
 30
0.0
 11
30.74199999996925
 21
4.940981453593762
 31
0.0
  0
LINE
  5
F651
330
F631
100
AcDbEntity
  8
0
  6
CONTINUOUS
100
AcDbLine
 10
26.50763775544691
 20
0.0330999999912356
 30
0.0
 11
27.85763775544689
 21
1.383099999991223
 31
0.0
  0
LINE
  5
F652
330
F631
100
AcDbEntity
  8
0
  6
CONTINUOUS
100
AcDbLine
 10
29.30199999996933
 20
2.827462244513656
 30
0.0
 11
30.74199999996925
 21
4.267462244513574
 31
0.0
  0
LINE
  5
F653
330
F631
100
AcDbEntity
  8
0
  6
CONTINUOUS
100
AcDbLine
 10
27.18115696452709
 20
0.0330999999912356
 30
0.0
 11
28.57843169463094
 21
1.430374730095086
 31
0.0
  0
LINE
  5
F654
330
F631
100
AcDbEntity
  8
0
  6
CONTINUOUS
100
AcDbLine
 10
29.2547252698654
 20
2.106668305329547
 30
0.0
 11
30.74199999996924
 21
3.593943035433384
 31
0.0
  0
LINE
  5
F655
330
F631
100
AcDbEntity
  8
0
  6
CONTINUOUS
100
AcDbLine
 10
27.85467617360728
 20
0.0330999999912356
 30
0.0
 11
30.74199999996924
 21
2.920423826353195
 31
0.0
  0
LINE
  5
F656
330
F631
100
AcDbEntity
  8
0
  6
CONTINUOUS
100
AcDbLine
 10
28.55194421293851
 20
0.0568488302422763
 30
0.0
 11
30.71825116971818
 21
2.223155787021951
 31
0.0
  0
LINE
  5
F657
330
F631
100
AcDbEntity
  8
0
  6
CONTINUOUS
100
AcDbLine
 10
29.51480923620385
 20
0.346194644427432
 30
0.0
 11
30.42890535553301
 21
1.260290763756593
 31
0.0
  0
LINE
  5
F658
330
F631
100
AcDbEntity
  8
0
  6
CONTINUOUS
100
AcDbLine
 10
19.59027867740337
 20
-0.0000967065718083
 30
0.0
 11
19.55485265190471
 21
0.035329318926844
 31
0.0
  0
LINE
  5
F659
330
F631
100
AcDbEntity
  8
0
  6
CONTINUOUS
100
AcDbLine
 10
20.26375463176586
 20
-0.0000534518541091
 30
0.0
 11
19.76305575737534
 21
0.5006454225364014
 31
0.0
  0
LINE
  5
F65A
330
F631
100
AcDbEntity
  8
0
  6
CONTINUOUS
100
AcDbLine
 10
20.93723058612834
 20
-0.0000101971364099
 30
0.0
 11
19.97125886284597
 21
0.965961526145958
 31
0.0
  0
LINE
  5
F65B
330
F631
100
AcDbEntity
  8
0
  6
CONTINUOUS
100
AcDbLine
 10
21.25514828313686
 20
0.355591314935257
 30
0.0
 11
20.1794619683166
 21
1.431277629755512
 31
0.0
  0
LINE
  5
F65C
330
F631
100
AcDbEntity
  8
0
  6
CONTINUOUS
100
AcDbLine
 10
21.46338838394921
 20
0.8208704232030986
 30
0.0
 11
20.38766507378723
 21
1.896593733365069
 31
0.0
  0
LINE
  5
F65D
330
F631
100
AcDbEntity
  8
0
  6
CONTINUOUS
100
AcDbLine
 10
21.67162848476155
 20
1.28614953147094
 30
0.0
 11
20.59586817925786
 21
2.361909836974626
 31
0.0
  0
LINE
  5
F65E
330
F631
100
AcDbEntity
  8
0
  6
CONTINUOUS
100
AcDbLine
 10
21.8798685855739
 20
1.751428639738782
 30
0.0
 11
20.80407128472849
 21
2.827225940584183
 31
0.0
  0
LINE
  5
F65F
330
F631
100
AcDbEntity
  8
0
  6
CONTINUOUS
100
AcDbLine
 10
22.08810868638624
 20
2.216707748006623
 30
0.0
 11
21.01227439019912
 21
3.292542044193739
 31
0.0
  0
LINE
  5
F660
330
F631
100
AcDbEntity
  8
0
  6
CONTINUOUS
100
AcDbLine
 10
22.60993564347543
 20
2.36839999999762
 30
0.0
 11
21.22047749566975
 21
3.757858147803296
 31
0.0
  0
LINE
  5
F661
330
F631
100
AcDbEntity
  8
0
  6
CONTINUOUS
100
AcDbLine
 10
23.28345485255561
 20
2.36839999999762
 30
0.0
 11
21.42868060114038
 21
4.223174251412853
 31
0.0
  0
LINE
  5
F662
330
F631
100
AcDbEntity
  8
0
  6
CONTINUOUS
100
AcDbLine
 10
26.29227406164219
 20
0.0330999999912356
 30
0.0
 11
25.80009199592872
 21
0.5252820657046957
 31
0.0
  0
LINE
  5
F663
330
F631
100
AcDbEntity
  8
0
  6
CONTINUOUS
100
AcDbLine
 10
23.9569740616358
 20
2.36839999999762
 30
0.0
 11
21.63688370661101
 21
4.688490355022409
 31
0.0
  0
LINE
  5
F664
330
F631
100
AcDbEntity
  8
0
  6
CONTINUOUS
100
AcDbLine
 10
26.96579327072237
 20
0.0330999999912356
 30
0.0
 11
25.2554132311971
 21
1.743480039516508
 31
0.0
  0
LINE
  5
F665
330
F631
100
AcDbEntity
  8
0
  6
CONTINUOUS
100
AcDbLine
 10
24.63049327071599
 20
2.36839999999762
 30
0.0
 11
23.32789327071731
 21
3.670999999996297
 31
0.0
  0
LINE
  5
F666
330
F631
100
AcDbEntity
  8
0
  6
CONTINUOUS
100
AcDbLine
 10
22.92098674744635
 20
4.077906523267254
 30
0.0
 11
21.84508681208164
 21
5.153806458631966
 31
0.0
  0
LINE
  5
F667
330
F631
100
AcDbEntity
  8
0
  6
CONTINUOUS
100
AcDbLine
 10
27.63931247980256
 20
0.0330999999912356
 30
0.0
 11
24.0014124797975
 21
3.670999999996297
 31
0.0
  0
LINE
  5
F668
330
F631
100
AcDbEntity
  8
0
  6
CONTINUOUS
100
AcDbLine
 10
23.129125600968
 20
4.5432868788258
 30
0.0
 11
22.05328991755227
 21
5.619122562241522
 31
0.0
  0
LINE
  5
F669
330
F631
100
AcDbEntity
  8
0
  6
CONTINUOUS
100
AcDbLine
 10
28.31283168888275
 20
0.0330999999912356
 30
0.0
 11
24.16488385994816
 21
4.181047828925828
 31
0.0
  0
LINE
  5
F66A
330
F631
100
AcDbEntity
  8
0
  6
CONTINUOUS
100
AcDbLine
 10
23.33726445448964
 20
5.008667234384345
 30
0.0
 11
22.2614930230229
 21
6.084438665851079
 31
0.0
  0
LINE
  5
F66B
330
F631
100
AcDbEntity
  8
0
  6
CONTINUOUS
100
AcDbLine
 10
28.90645333830136
 20
0.1129975596528112
 30
0.0
 11
27.63635089796295
 21
1.383099999991217
 31
0.0
  0
LINE
  5
F66C
330
F631
100
AcDbEntity
  8
0
  6
CONTINUOUS
100
AcDbLine
 10
26.43704649509776
 20
2.582404402856405
 30
0.0
 11
23.61992702019732
 21
5.399523877756844
 31
0.0
  0
LINE
  5
F66D
330
F631
100
AcDbEntity
  8
0
  6
CONTINUOUS
100
AcDbLine
 10
23.54540330801128
 20
5.47404758994289
 30
0.0
 11
22.46969612849353
 21
6.549754769460635
 31
0.0
  0
LINE
  5
F66E
330
F631
100
AcDbEntity
  8
0
  6
CONTINUOUS
100
AcDbLine
 10
29.40349360806839
 20
0.2894764989659606
 30
0.0
 11
28.30987010704312
 21
1.383099999991234
 31
0.0
  0
LINE
  5
F66F
330
F631
100
AcDbEntity
  8
0
  6
CONTINUOUS
100
AcDbLine
 10
25.89179548232307
 20
3.801174624711282
 30
0.0
 11
22.67789923396416
 21
7.015070873070191
 31
0.0
  0
LINE
  5
F670
330
F631
100
AcDbEntity
  8
0
  6
CONTINUOUS
100
AcDbLine
 10
29.83195328664716
 20
0.5345360294673855
 30
0.0
 11
28.85740608974929
 21
1.50908322636525
 31
0.0
  0
LINE
  5
F671
330
F631
100
AcDbEntity
  8
0
  6
CONTINUOUS
100
AcDbLine
 10
25.34654446954838
 20
5.01994484656616
 30
0.0
 11
22.88610233943479
 21
7.480386976679748
 31
0.0
  0
LINE
  5
F672
330
F631
100
AcDbEntity
  8
0
  6
CONTINUOUS
100
AcDbLine
 10
30.16871289118725
 20
0.8712956340074771
 30
0.0
 11
29.18680861743091
 21
1.853199907763824
 31
0.0
  0
LINE
  5
F673
330
F631
100
AcDbEntity
  8
0
  6
CONTINUOUS
100
AcDbLine
 10
24.80129345677369
 20
6.238715068421037
 30
0.0
 11
23.09430544490542
 21
7.945703080289305
 31
0.0
  0
LINE
  5
F674
330
F631
100
AcDbEntity
  8
0
  6
CONTINUOUS
100
AcDbLine
 10
30.43711825255073
 20
1.276409481724182
 30
0.0
 11
29.30199999996933
 21
2.411527734305588
 31
0.0
  0
LINE
  5
F675
330
F631
100
AcDbEntity
  8
0
  6
CONTINUOUS
100
AcDbLine
 10
24.256042443999
 20
7.457485290275915
 30
0.0
 11
23.30250855037605
 21
8.411019183898862
 31
0.0
  0
LINE
  5
F676
330
F631
100
AcDbEntity
  8
0
  6
CONTINUOUS
100
AcDbLine
 10
30.6424542258006
 20
1.744592717554502
 30
0.0
 11
29.30199999996933
 21
3.085046943385775
 31
0.0
  0
LINE
  5
F677
330
F631
100
AcDbEntity
  8
0
  6
CONTINUOUS
100
AcDbLine
 10
23.71079143122431
 20
8.676255512130794
 30
0.0
 11
23.51071165584668
 21
8.876335287508416
 31
0.0
  0
LINE
  5
F678
330
F631
100
AcDbEntity
  8
0
  6
CONTINUOUS
100
AcDbLine
 10
30.73454365592805
 20
2.326022496507238
 30
0.0
 11
29.30199999996933
 21
3.758566152465961
 31
0.0
  0
LINE
  5
F679
330
F631
100
AcDbEntity
  8
0
  6
CONTINUOUS
100
AcDbLine
 10
30.74199999996924
 20
2.992085361546236
 30
0.0
 11
29.30199999996933
 21
4.432085361546148
 31
0.0
  0
LINE
  5
F67A
330
F631
100
AcDbEntity
  8
0
  6
CONTINUOUS
100
AcDbLine
 10
30.74199999996924
 20
3.665604570626419
 30
0.0
 11
29.30199999996933
 21
5.105604570626333
 31
0.0
  0
LINE
  5
F67B
330
F631
100
AcDbEntity
  8
0
  6
CONTINUOUS
100
AcDbLine
 10
30.74199999996925
 20
4.339123779706602
 30
0.0
 11
29.30199999996933
 21
5.77912377970652
 31
0.0
  0
LINE
  5
F67C
330
F631
100
AcDbEntity
  8
0
  6
CONTINUOUS
100
AcDbLine
 10
30.74199999996925
 20
5.012642988786785
 30
0.0
 11
29.30199999996933
 21
6.452642988786707
 31
0.0
  0
LINE
  5
F67D
330
F631
100
AcDbEntity
  8
0
  6
CONTINUOUS
100
AcDbLine
 10
30.74199999996925
 20
5.68616219786697
 30
0.0
 11
29.30199999996933
 21
7.126162197866894
 31
0.0
  0
LINE
  5
F67E
330
F631
100
AcDbEntity
  8
0
  6
CONTINUOUS
100
AcDbLine
 10
30.74199999996925
 20
6.359681406947153
 30
0.0
 11
29.30199999996933
 21
7.799681406947081
 31
0.0
  0
LINE
  5
F67F
330
F631
100
AcDbEntity
  8
0
  6
CONTINUOUS
100
AcDbLine
 10
30.74199999996926
 20
7.033200616027337
 30
0.0
 11
29.30199999996933
 21
8.473200616027269
 31
0.0
  0
LINE
  5
F680
330
F631
100
AcDbEntity
  8
0
  6
CONTINUOUS
100
AcDbLine
 10
30.74199999996926
 20
7.706719825107518
 30
0.0
 11
29.68561982508552
 21
8.763099999991255
 31
0.0
  0
LINE
  5
F681
330
F631
100
AcDbEntity
  8
0
  6
CONTINUOUS
100
AcDbLine
 10
30.74199999996926
 20
8.380239034187703
 30
0.0
 11
30.35913903416571
 21
8.763099999991255
 31
0.0
  0
ENDBLK
  5
F724
330
F631
100
AcDbEntity
  8
0
100
AcDbBlockEnd
  0
BLOCK
  5
F725
330
F682
100
AcDbEntity
  8
0
100
AcDbBlockBegin
  2
*X48
 70
     1
 10
0.0
 20
0.0
 30
0.0
  3
*X48
  1

  0
LINE
  5
F683
330
F682
100
AcDbEntity
  8
0
  6
CONTINUOUS
100
AcDbLine
 10
31.64199999996833
 20
8.5350582899136
 30
0.0
 11
31.87004171004599
 21
8.763099999991255
 31
0.0
  0
LINE
  5
F684
330
F682
100
AcDbEntity
  8
0
  6
CONTINUOUS
100
AcDbLine
 10
31.64199999996833
 20
7.861539080833413
 30
0.0
 11
32.54356091912618
 21
8.763099999991255
 31
0.0
  0
LINE
  5
F685
330
F682
100
AcDbEntity
  8
0
  6
CONTINUOUS
100
AcDbLine
 10
31.64199999996833
 20
7.188019871753227
 30
0.0
 11
33.08199999996839
 21
8.628019871753281
 31
0.0
  0
LINE
  5
F686
330
F682
100
AcDbEntity
  8
0
  6
CONTINUOUS
100
AcDbLine
 10
31.64199999996833
 20
6.514500662673041
 30
0.0
 11
33.08199999996839
 21
7.954500662673095
 31
0.0
  0
LINE
  5
F687
330
F682
100
AcDbEntity
  8
0
  6
CONTINUOUS
100
AcDbLine
 10
31.64199999996833
 20
5.840981453592855
 30
0.0
 11
33.08199999996839
 21
7.28098145359291
 31
0.0
  0
LINE
  5
F688
330
F682
100
AcDbEntity
  8
0
  6
CONTINUOUS
100
AcDbLine
 10
31.64199999996833
 20
5.167462244512668
 30
0.0
 11
33.08199999996839
 21
6.607462244512723
 31
0.0
  0
LINE
  5
F689
330
F682
100
AcDbEntity
  8
0
  6
CONTINUOUS
100
AcDbLine
 10
31.64199999996833
 20
4.493943035432482
 30
0.0
 11
33.08199999996839
 21
5.933943035432536
 31
0.0
  0
LINE
  5
F68A
330
F682
100
AcDbEntity
  8
0
  6
CONTINUOUS
100
AcDbLine
 10
31.64199999996833
 20
3.820423826352294
 30
0.0
 11
33.08199999996839
 21
5.260423826352349
 31
0.0
  0
LINE
  5
F68B
330
F682
100
AcDbEntity
  8
0
  6
CONTINUOUS
100
AcDbLine
 10
31.64199999996833
 20
3.146904617272108
 30
0.0
 11
33.08199999996839
 21
4.586904617272163
 31
0.0
  0
LINE
  5
F68C
330
F682
100
AcDbEntity
  8
0
  6
CONTINUOUS
100
AcDbLine
 10
36.23199999996837
 20
8.410423826352327
 30
0.0
 11
36.58467617360729
 21
8.763099999991255
 31
0.0
  0
LINE
  5
F68D
330
F682
100
AcDbEntity
  8
0
  6
CONTINUOUS
100
AcDbLine
 10
36.23199999996837
 20
7.73690461727214
 30
0.0
 11
37.25819538268748
 21
8.763099999991255
 31
0.0
  0
LINE
  5
F68E
330
F682
100
AcDbEntity
  8
0
  6
CONTINUOUS
100
AcDbLine
 10
31.64295791647285
 20
2.474343324696431
 30
0.0
 11
33.08199999996839
 21
3.913385408191976
 31
0.0
  0
LINE
  5
F68F
330
F682
100
AcDbEntity
  8
0
  6
CONTINUOUS
100
AcDbLine
 10
31.72131278798881
 20
1.879178987132208
 30
0.0
 11
33.08199999996839
 21
3.239866199111789
 31
0.0
  0
LINE
  5
F690
330
F682
100
AcDbEntity
  8
0
  6
CONTINUOUS
100
AcDbLine
 10
36.23199999996837
 20
7.063385408191953
 30
0.0
 11
37.67199999996831
 21
8.503385408191894
 31
0.0
  0
LINE
  5
F691
330
F682
100
AcDbEntity
  8
0
  6
CONTINUOUS
100
AcDbLine
 10
36.23199999996837
 20
6.389866199111767
 30
0.0
 11
37.67199999996831
 21
7.829866199111708
 31
0.0
  0
LINE
  5
F692
330
F682
100
AcDbEntity
  8
0
  6
CONTINUOUS
100
AcDbLine
 10
31.90398109638795
 20
1.388328086451165
 30
0.0
 11
33.08199999996839
 21
2.566346990031603
 31
0.0
  0
LINE
  5
F693
330
F682
100
AcDbEntity
  8
0
  6
CONTINUOUS
100
AcDbLine
 10
36.23199999996837
 20
5.71634699003158
 30
0.0
 11
37.67199999996831
 21
7.156346990031522
 31
0.0
  0
LINE
  5
F694
330
F682
100
AcDbEntity
  8
0
  6
CONTINUOUS
100
AcDbLine
 10
32.15410588803598
 20
0.9649336690190076
 30
0.0
 11
33.19577568229511
 21
2.006603463278144
 31
0.0
  0
LINE
  5
F695
330
F682
100
AcDbEntity
  8
0
  6
CONTINUOUS
100
AcDbLine
 10
36.23199999996837
 20
5.042827780951393
 30
0.0
 11
37.67199999996831
 21
6.482827780951334
 31
0.0
  0
LINE
  5
F696
330
F682
100
AcDbEntity
  8
0
  6
CONTINUOUS
100
AcDbLine
 10
32.45868320364774
 20
0.5959917755505852
 30
0.0
 11
33.48433514284099
 21
1.621643714743831
 31
0.0
  0
LINE
  5
F697
330
F682
100
AcDbEntity
  8
0
  6
CONTINUOUS
100
AcDbLine
 10
36.23199999996837
 20
4.369308571871207
 30
0.0
 11
37.67199999996831
 21
5.809308571871148
 31
0.0
  0
LINE
  5
F698
330
F682
100
AcDbEntity
  8
0
  6
CONTINUOUS
100
AcDbLine
 10
32.83977805121244
 20
0.3035674140350983
 30
0.0
 11
33.9144983171802
 21
1.378287680002859
 31
0.0
  0
LINE
  5
F699
330
F682
100
AcDbEntity
  8
0
  6
CONTINUOUS
100
AcDbLine
 10
36.23199999996837
 20
3.695789362791021
 30
0.0
 11
37.67199999996831
 21
5.135789362790963
 31
0.0
  0
LINE
  5
F69A
330
F682
100
AcDbEntity
  8
0
  6
CONTINUOUS
100
AcDbLine
 10
33.28925592101007
 20
0.0795260747525335
 30
0.0
 11
34.4429104952855
 21
1.233180649027971
 31
0.0
  0
LINE
  5
F69B
330
F682
100
AcDbEntity
  8
0
  6
CONTINUOUS
100
AcDbLine
 10
36.23199999996837
 20
3.022270153710834
 30
0.0
 11
37.67199999996831
 21
4.462270153710776
 31
0.0
  0
LINE
  5
F69C
330
F682
100
AcDbEntity
  8
0
  6
CONTINUOUS
100
AcDbLine
 10
33.76550592101022
 20
-0.1177431343275011
 30
0.0
 11
35.18258581678813
 21
1.299336761450407
 31
0.0
  0
LINE
  5
F69D
330
F682
100
AcDbEntity
  8
0
  6
CONTINUOUS
100
AcDbLine
 10
36.20355631289775
 20
2.320307257560033
 30
0.0
 11
37.67199999996831
 21
3.788750944630589
 31
0.0
  0
LINE
  5
F69E
330
F682
100
AcDbEntity
  8
0
  6
CONTINUOUS
100
AcDbLine
 10
34.35908899259119
 20
-0.1976792718267175
 30
0.0
 11
37.67199999996831
 21
3.115231735550402
 31
0.0
  0
LINE
  5
F69F
330
F682
100
AcDbEntity
  8
0
  6
CONTINUOUS
100
AcDbLine
 10
35.04438808203069
 20
-0.1858993914674008
 30
0.0
 11
37.66594960818956
 21
2.435662134691464
 31
0.0
  0
LINE
  5
F6A0
330
F682
100
AcDbEntity
  8
0
  6
CONTINUOUS
100
AcDbLine
 10
35.95405053101277
 20
0.0502438484344916
 30
0.0
 11
37.49337557446166
 21
1.589568891883381
 31
0.0
  0
LINE
  5
F6A1
330
F682
100
AcDbEntity
  8
0
  6
CONTINUOUS
100
AcDbLine
 10
32.48400274193772
 20
0.5765634104975641
 30
0.0
 11
32.34694398754057
 21
0.7136221648947103
 31
0.0
  0
LINE
  5
F6A2
330
F682
100
AcDbEntity
  8
0
  6
CONTINUOUS
100
AcDbLine
 10
33.86697683926317
 20
-0.1328914777477044
 30
0.0
 11
31.70105830546678
 21
2.033027056048692
 31
0.0
  0
LINE
  5
F6A3
330
F682
100
AcDbEntity
  8
0
  6
CONTINUOUS
100
AcDbLine
 10
34.64261010498837
 20
-0.2350055343927187
 30
0.0
 11
31.64199999996833
 21
2.765604570627322
 31
0.0
  0
LINE
  5
F6A4
330
F682
100
AcDbEntity
  8
0
  6
CONTINUOUS
100
AcDbLine
 10
35.24112258276081
 20
-0.1599988030849646
 30
0.0
 11
31.64199999996833
 21
3.439123779707508
 31
0.0
  0
LINE
  5
F6A5
330
F682
100
AcDbEntity
  8
0
  6
CONTINUOUS
100
AcDbLine
 10
35.777520339722
 20
-0.0228773509659694
 30
0.0
 11
34.52146233972803
 21
1.233180649027998
 31
0.0
  0
LINE
  5
F6A6
330
F682
100
AcDbEntity
  8
0
  6
CONTINUOUS
100
AcDbLine
 10
33.08199999996839
 20
2.672642988787641
 30
0.0
 11
31.64199999996833
 21
4.112642988787695
 31
0.0
  0
LINE
  5
F6A7
330
F682
100
AcDbEntity
  8
0
  6
CONTINUOUS
100
AcDbLine
 10
36.25377033972294
 20
0.1743918581132773
 30
0.0
 11
35.14317118804349
 21
1.284991009792725
 31
0.0
  0
LINE
  5
F6A8
330
F682
100
AcDbEntity
  8
0
  6
CONTINUOUS
100
AcDbLine
 10
33.08199999996839
 20
3.346162197867827
 30
0.0
 11
31.64199999996833
 21
4.786162197867881
 31
0.0
  0
LINE
  5
F6A9
330
F682
100
AcDbEntity
  8
0
  6
CONTINUOUS
100
AcDbLine
 10
36.65748856908375
 20
0.4441928378326456
 30
0.0
 11
35.63696437513804
 21
1.464717031778358
 31
0.0
  0
LINE
  5
F6AA
330
F682
100
AcDbEntity
  8
0
  6
CONTINUOUS
100
AcDbLine
 10
33.08199999996839
 20
4.019681406948013
 30
0.0
 11
31.64199999996833
 21
5.459681406948068
 31
0.0
  0
LINE
  5
F6AB
330
F682
100
AcDbEntity
  8
0
  6
CONTINUOUS
100
AcDbLine
 10
37.00809517418186
 20
0.7671054418147287
 30
0.0
 11
35.99025189342645
 21
1.784948722570141
 31
0.0
  0
LINE
  5
F6AC
330
F682
100
AcDbEntity
  8
0
  6
CONTINUOUS
100
AcDbLine
 10
33.08199999996839
 20
4.6932006160282
 30
0.0
 11
31.64199999996833
 21
6.133200616028255
 31
0.0
  0
LINE
  5
F6AD
330
F682
100
AcDbEntity
  8
0
  6
CONTINUOUS
100
AcDbLine
 10
37.30051953569851
 20
1.148200289378269
 30
0.0
 11
36.19229254868971
 21
2.256427276387067
 31
0.0
  0
LINE
  5
F6AE
330
F682
100
AcDbEntity
  8
0
  6
CONTINUOUS
100
AcDbLine
 10
33.08199999996839
 20
5.366719825108387
 30
0.0
 11
31.64199999996833
 21
6.806719825108441
 31
0.0
  0
LINE
  5
F6AF
330
F682
100
AcDbEntity
  8
0
  6
CONTINUOUS
100
AcDbLine
 10
37.50488468691001
 20
1.617354347246954
 30
0.0
 11
36.23199999996837
 21
2.890239034188595
 31
0.0
  0
LINE
  5
F6B0
330
F682
100
AcDbEntity
  8
0
  6
CONTINUOUS
100
AcDbLine
 10
33.08199999996839
 20
6.040239034188573
 30
0.0
 11
31.64199999996833
 21
7.480239034188628
 31
0.0
  0
LINE
  5
F6B1
330
F682
100
AcDbEntity
  8
0
  6
CONTINUOUS
100
AcDbLine
 10
37.63036768068979
 20
2.165390562547355
 30
0.0
 11
36.23199999996837
 21
3.563758243268782
 31
0.0
  0
LINE
  5
F6B2
330
F682
100
AcDbEntity
  8
0
  6
CONTINUOUS
100
AcDbLine
 10
33.08199999996839
 20
6.713758243268759
 30
0.0
 11
31.64199999996833
 21
8.153758243268815
 31
0.0
  0
LINE
  5
F6B3
330
F682
100
AcDbEntity
  8
0
  6
CONTINUOUS
100
AcDbLine
 10
37.67199999996831
 20
2.797277452349027
 30
0.0
 11
36.23199999996837
 21
4.237277452348969
 31
0.0
  0
LINE
  5
F6B4
330
F682
100
AcDbEntity
  8
0
  6
CONTINUOUS
100
AcDbLine
 10
37.67199999996831
 20
3.470796661429214
 30
0.0
 11
36.23199999996837
 21
4.910796661429155
 31
0.0
  0
LINE
  5
F6B5
330
F682
100
AcDbEntity
  8
0
  6
CONTINUOUS
100
AcDbLine
 10
37.67199999996831
 20
4.1443158705094
 30
0.0
 11
36.23199999996837
 21
5.584315870509341
 31
0.0
  0
LINE
  5
F6B6
330
F682
100
AcDbEntity
  8
0
  6
CONTINUOUS
100
AcDbLine
 10
33.08199999996839
 20
7.387277452348947
 30
0.0
 11
31.70617745232608
 21
8.763099999991255
 31
0.0
  0
LINE
  5
F6B7
330
F682
100
AcDbEntity
  8
0
  6
CONTINUOUS
100
AcDbLine
 10
33.08199999996839
 20
8.060796661429134
 30
0.0
 11
32.37969666140626
 21
8.763099999991255
 31
0.0
  0
LINE
  5
F6B8
330
F682
100
AcDbEntity
  8
0
  6
CONTINUOUS
100
AcDbLine
 10
33.08199999996839
 20
8.73431587050932
 30
0.0
 11
33.05321587048645
 21
8.763099999991255
 31
0.0
  0
LINE
  5
F6B9
330
F682
100
AcDbEntity
  8
0
  6
CONTINUOUS
100
AcDbLine
 10
37.67199999996831
 20
4.817835079589587
 30
0.0
 11
36.23199999996837
 21
6.257835079589528
 31
0.0
  0
LINE
  5
F6BA
330
F682
100
AcDbEntity
  8
0
  6
CONTINUOUS
100
AcDbLine
 10
37.67199999996831
 20
5.491354288669773
 30
0.0
 11
36.23199999996837
 21
6.931354288669715
 31
0.0
  0
LINE
  5
F6BB
330
F682
100
AcDbEntity
  8
0
  6
CONTINUOUS
100
AcDbLine
 10
37.67199999996831
 20
6.164873497749959
 30
0.0
 11
36.23199999996837
 21
7.6048734977499
 31
0.0
  0
LINE
  5
F6BC
330
F682
100
AcDbEntity
  8
0
  6
CONTINUOUS
100
AcDbLine
 10
37.67199999996831
 20
6.838392706830145
 30
0.0
 11
36.23199999996837
 21
8.278392706830086
 31
0.0
  0
LINE
  5
F6BD
330
F682
100
AcDbEntity
  8
0
  6
CONTINUOUS
100
AcDbLine
 10
37.67199999996831
 20
7.511911915910333
 30
0.0
 11
36.42081191588738
 21
8.763099999991255
 31
0.0
  0
LINE
  5
F6BE
330
F682
100
AcDbEntity
  8
0
  6
CONTINUOUS
100
AcDbLine
 10
37.67199999996831
 20
8.18543112499052
 30
0.0
 11
37.09433112496757
 21
8.763099999991255
 31
0.0
  0
ENDBLK
  5
F726
330
F682
100
AcDbEntity
  8
0
100
AcDbBlockEnd
  0
BLOCK
  5
F727
330
F6BF
100
AcDbEntity
  8
0
100
AcDbBlockBegin
  2
*X49
 70
     1
 10
0.0
 20
0.0
 30
0.0
  3
*X49
  1

  0
LINE
  5
F6C0
330
F6BF
100
AcDbEntity
  8
0
  6
CONTINUOUS
100
AcDbLine
 10
38.60499999996136
 20
8.762866199104765
 30
0.0
 11
38.71672554182345
 21
8.874591740966855
 31
0.0
  0
LINE
  5
F6C1
330
F6BF
100
AcDbEntity
  8
0
  6
CONTINUOUS
100
AcDbLine
 10
38.60499999996136
 20
8.089346990024577
 30
0.0
 11
39.03418785440363
 21
8.518534844466847
 31
0.0
  0
LINE
  5
F6C2
330
F6BF
100
AcDbEntity
  8
0
  6
CONTINUOUS
100
AcDbLine
 10
38.60499999996136
 20
7.41582778094439
 30
0.0
 11
39.35165016698382
 21
8.16247794796684
 31
0.0
  0
LINE
  5
F6C3
330
F6BF
100
AcDbEntity
  8
0
  6
CONTINUOUS
100
AcDbLine
 10
38.60499999996136
 20
6.742308571864204
 30
0.0
 11
39.66911247956399
 21
7.806421051466834
 31
0.0
  0
LINE
  5
F6C4
330
F6BF
100
AcDbEntity
  8
0
  6
CONTINUOUS
100
AcDbLine
 10
38.60499999996136
 20
6.068789362784018
 30
0.0
 11
39.98657479214418
 21
7.450364154966827
 31
0.0
  0
LINE
  5
F6C5
330
F6BF
100
AcDbEntity
  8
0
  6
CONTINUOUS
100
AcDbLine
 10
38.60499999996136
 20
5.395270153703832
 30
0.0
 11
40.30403710472435
 21
7.09430725846682
 31
0.0
  0
LINE
  5
F6C6
330
F6BF
100
AcDbEntity
  8
0
  6
CONTINUOUS
100
AcDbLine
 10
38.60499999996136
 20
4.721750944623645
 30
0.0
 11
40.62149941730453
 21
6.738250361966813
 31
0.0
  0
LINE
  5
F6C7
330
F6BF
100
AcDbEntity
  8
0
  6
CONTINUOUS
100
AcDbLine
 10
38.60499999996136
 20
4.048231735543458
 30
0.0
 11
40.93896172988471
 21
6.382193465466806
 31
0.0
  0
LINE
  5
F6C8
330
F6BF
100
AcDbEntity
  8
0
  6
CONTINUOUS
100
AcDbLine
 10
38.60499999996136
 20
3.374712526463272
 30
0.0
 11
40.02599999995994
 21
4.795712526461843
 31
0.0
  0
LINE
  5
F6C9
330
F6BF
100
AcDbEntity
  8
0
  6
CONTINUOUS
100
AcDbLine
 10
38.60499999996136
 20
2.701193317383085
 30
0.0
 11
40.02599999995994
 21
4.122193317381657
 31
0.0
  0
LINE
  5
F6CA
330
F6BF
100
AcDbEntity
  8
0
  6
CONTINUOUS
100
AcDbLine
 10
40.28339754687704
 20
5.053110073378947
 30
0.0
 11
41.25642404246489
 21
6.026136568966799
 31
0.0
  0
LINE
  5
F6CB
330
F6BF
100
AcDbEntity
  8
0
  6
CONTINUOUS
100
AcDbLine
 10
40.60085985945722
 20
4.697053176878939
 30
0.0
 11
41.57388635504507
 21
5.670079672466793
 31
0.0
  0
LINE
  5
F6CC
330
F6BF
100
AcDbEntity
  8
0
  6
CONTINUOUS
100
AcDbLine
 10
43.57899999995641
 20
8.348712526458318
 30
0.0
 11
43.99338747348935
 21
8.763099999991255
 31
0.0
  0
LINE
  5
F6CD
330
F6BF
100
AcDbEntity
  8
0
  6
CONTINUOUS
100
AcDbLine
 10
43.57899999995641
 20
7.675193317378131
 30
0.0
 11
44.66690668256953
 21
8.763099999991255
 31
0.0
  0
LINE
  5
F6CE
330
F6BF
100
AcDbEntity
  8
0
  6
CONTINUOUS
100
AcDbLine
 10
38.60499999996136
 20
2.027674108302898
 30
0.0
 11
40.02599999995994
 21
3.44867410830147
 31
0.0
  0
LINE
  5
F6CF
330
F6BF
100
AcDbEntity
  8
0
  6
CONTINUOUS
100
AcDbLine
 10
38.60499999996136
 20
1.354154899222712
 30
0.0
 11
40.02599999995994
 21
2.775154899221284
 31
0.0
  0
LINE
  5
F6D0
330
F6BF
100
AcDbEntity
  8
0
  6
CONTINUOUS
100
AcDbLine
 10
38.60499999996136
 20
0.6806356901425255
 30
0.0
 11
40.02599999995994
 21
2.101635690141098
 31
0.0
  0
LINE
  5
F6D1
330
F6BF
100
AcDbEntity
  8
0
  6
CONTINUOUS
100
AcDbLine
 10
38.60499999996136
 20
0.0071164810623383
 30
0.0
 11
40.02599999995994
 21
1.428116481060911
 31
0.0
  0
LINE
  5
F6D2
330
F6BF
100
AcDbEntity
  8
0
  6
CONTINUOUS
100
AcDbLine
 10
40.9183221720374
 20
4.340996280378933
 30
0.0
 11
41.89134866762525
 21
5.314022775966786
 31
0.0
  0
LINE
  5
F6D3
330
F6BF
100
AcDbEntity
  8
0
  6
CONTINUOUS
100
AcDbLine
 10
41.23578448461758
 20
3.984939383878926
 30
0.0
 11
42.20881098020543
 21
4.957965879466778
 31
0.0
  0
LINE
  5
F6D4
330
F6BF
100
AcDbEntity
  8
0
  6
CONTINUOUS
100
AcDbLine
 10
41.55324679719776
 20
3.628882487378919
 30
0.0
 11
42.52627329278561
 21
4.601908982966772
 31
0.0
  0
LINE
  5
F6D5
330
F6BF
100
AcDbEntity
  8
0
  6
CONTINUOUS
100
AcDbLine
 10
41.87070910977793
 20
3.272825590878912
 30
0.0
 11
42.84373560536579
 21
4.245852086466765
 31
0.0
  0
LINE
  5
F6D6
330
F6BF
100
AcDbEntity
  8
0
  6
CONTINUOUS
100
AcDbLine
 10
43.57899999995641
 20
7.001674108297943
 30
0.0
 11
44.99999999995498
 21
8.422674108296516
 31
0.0
  0
LINE
  5
F6D7
330
F6BF
100
AcDbEntity
  8
0
  6
CONTINUOUS
100
AcDbLine
 10
43.57899999995641
 20
6.328154899217758
 30
0.0
 11
44.99999999995498
 21
7.749154899216329
 31
0.0
  0
LINE
  5
F6D8
330
F6BF
100
AcDbEntity
  8
0
  6
CONTINUOUS
100
AcDbLine
 10
43.57899999995641
 20
5.654635690137571
 30
0.0
 11
44.99999999995498
 21
7.075635690136142
 31
0.0
  0
LINE
  5
F6D9
330
F6BF
100
AcDbEntity
  8
0
  6
CONTINUOUS
100
AcDbLine
 10
43.57899999995641
 20
4.981116481057384
 30
0.0
 11
44.99999999995498
 21
6.402116481055955
 31
0.0
  0
LINE
  5
F6DA
330
F6BF
100
AcDbEntity
  8
0
  6
CONTINUOUS
100
AcDbLine
 10
39.27140272797921
 20
-0.0000000000000009
 30
0.0
 11
40.02599999995994
 21
0.7545972719807246
 31
0.0
  0
LINE
  5
F6DB
330
F6BF
100
AcDbEntity
  8
0
  6
CONTINUOUS
100
AcDbLine
 10
39.9449219370594
 20
-0.0000000000000009
 30
0.0
 11
40.02599999995994
 21
0.0810780629005379
 31
0.0
  0
LINE
  5
F6DC
330
F6BF
100
AcDbEntity
  8
0
  6
CONTINUOUS
100
AcDbLine
 10
42.18817142235812
 20
2.916768694378905
 30
0.0
 11
43.16119791794597
 21
3.889795189966758
 31
0.0
  0
LINE
  5
F6DD
330
F6BF
100
AcDbEntity
  8
0
  6
CONTINUOUS
100
AcDbLine
 10
42.50563373493829
 20
2.560711797878898
 30
0.0
 11
43.47866023052615
 21
3.533738293466751
 31
0.0
  0
LINE
  5
F6DE
330
F6BF
100
AcDbEntity
  8
0
  6
CONTINUOUS
100
AcDbLine
 10
43.57899999995641
 20
4.307597271977198
 30
0.0
 11
44.99999999995498
 21
5.728597271975769
 31
0.0
  0
LINE
  5
F6DF
330
F6BF
100
AcDbEntity
  8
0
  6
CONTINUOUS
100
AcDbLine
 10
43.57899999995641
 20
3.634078062897011
 30
0.0
 11
44.99999999995498
 21
5.055078062895582
 31
0.0
  0
LINE
  5
F6E0
330
F6BF
100
AcDbEntity
  8
0
  6
CONTINUOUS
100
AcDbLine
 10
42.82309604751848
 20
2.204654901378891
 30
0.0
 11
44.99999999995498
 21
4.381558853815395
 31
0.0
  0
LINE
  5
F6E1
330
F6BF
100
AcDbEntity
  8
0
  6
CONTINUOUS
100
AcDbLine
 10
43.14055836009865
 20
1.848598004878885
 30
0.0
 11
44.99999999995498
 21
3.70803964473521
 31
0.0
  0
LINE
  5
F6E2
330
F6BF
100
AcDbEntity
  8
0
  6
CONTINUOUS
100
AcDbLine
 10
43.45802067267883
 20
1.492541108378878
 30
0.0
 11
44.99999999995498
 21
3.034520435655023
 31
0.0
  0
LINE
  5
F6E3
330
F6BF
100
AcDbEntity
  8
0
  6
CONTINUOUS
100
AcDbLine
 10
43.77548298525902
 20
1.136484211878871
 30
0.0
 11
44.99999999995498
 21
2.361001226574837
 31
0.0
  0
LINE
  5
F6E4
330
F6BF
100
AcDbEntity
  8
0
  6
CONTINUOUS
100
AcDbLine
 10
44.09294529783919
 20
0.7804273153788639
 30
0.0
 11
44.99999999995498
 21
1.687482017494649
 31
0.0
  0
LINE
  5
F6E5
330
F6BF
100
AcDbEntity
  8
0
  6
CONTINUOUS
100
AcDbLine
 10
44.41040761041938
 20
0.4243704188788566
 30
0.0
 11
44.99999999995498
 21
1.013962808414463
 31
0.0
  0
LINE
  5
F6E6
330
F6BF
100
AcDbEntity
  8
0
  6
CONTINUOUS
100
AcDbLine
 10
44.72786992299955
 20
0.0683135223788494
 30
0.0
 11
44.99999999995498
 21
0.340443599334276
 31
0.0
  0
LINE
  5
F6E7
330
F6BF
100
AcDbEntity
  8
0
  6
CONTINUOUS
100
AcDbLine
 10
39.12223903415696
 20
-0.0000000000000009
 30
0.0
 11
38.60499999996136
 21
0.5172390341955961
 31
0.0
  0
LINE
  5
F6E8
330
F6BF
100
AcDbEntity
  8
0
  6
CONTINUOUS
100
AcDbLine
 10
39.79575824323715
 20
-0.0000000000000009
 30
0.0
 11
38.60499999996136
 21
1.190758243275783
 31
0.0
  0
LINE
  5
F6E9
330
F6BF
100
AcDbEntity
  8
0
  6
CONTINUOUS
100
AcDbLine
 10
40.02599999995994
 20
0.443277452357397
 30
0.0
 11
38.60499999996136
 21
1.864277452355969
 31
0.0
  0
LINE
  5
F6EA
330
F6BF
100
AcDbEntity
  8
0
  6
CONTINUOUS
100
AcDbLine
 10
40.02599999995994
 20
1.116796661437583
 30
0.0
 11
38.60499999996136
 21
2.537796661436155
 31
0.0
  0
LINE
  5
F6EB
330
F6BF
100
AcDbEntity
  8
0
  6
CONTINUOUS
100
AcDbLine
 10
40.02599999995994
 20
1.79031587051777
 30
0.0
 11
38.60499999996136
 21
3.211315870516341
 31
0.0
  0
LINE
  5
F6EC
330
F6BF
100
AcDbEntity
  8
0
  6
CONTINUOUS
100
AcDbLine
 10
40.02599999995994
 20
2.463835079597956
 30
0.0
 11
38.60499999996136
 21
3.884835079596527
 31
0.0
  0
LINE
  5
F6ED
330
F6BF
100
AcDbEntity
  8
0
  6
CONTINUOUS
100
AcDbLine
 10
40.02599999995994
 20
3.137354288678143
 30
0.0
 11
38.60499999996136
 21
4.558354288676714
 31
0.0
  0
LINE
  5
F6EE
330
F6BF
100
AcDbEntity
  8
0
  6
CONTINUOUS
100
AcDbLine
 10
40.02599999995994
 20
3.810873497758329
 30
0.0
 11
38.60499999996136
 21
5.2318734977569
 31
0.0
  0
LINE
  5
F6EF
330
F6BF
100
AcDbEntity
  8
0
  6
CONTINUOUS
100
AcDbLine
 10
40.02599999995994
 20
4.484392706838515
 30
0.0
 11
38.60499999996136
 21
5.905392706837086
 31
0.0
  0
LINE
  5
F6F0
330
F6BF
100
AcDbEntity
  8
0
  6
CONTINUOUS
100
AcDbLine
 10
44.99999999995498
 20
0.183911915923658
 30
0.0
 11
41.53858364506288
 21
3.64532827081576
 31
0.0
  0
LINE
  5
F6F1
330
F6BF
100
AcDbEntity
  8
0
  6
CONTINUOUS
100
AcDbLine
 10
40.02599999995994
 20
5.157911915918703
 30
0.0
 11
38.60499999996136
 21
6.578911915917274
 31
0.0
  0
LINE
  5
F6F2
330
F6BF
100
AcDbEntity
  8
0
  6
CONTINUOUS
100
AcDbLine
 10
44.99999999995498
 20
0.8574311250038447
 30
0.0
 11
38.60499999996136
 21
7.25243112499746
 31
0.0
  0
LINE
  5
F6F3
330
F6BF
100
AcDbEntity
  8
0
  6
CONTINUOUS
100
AcDbLine
 10
44.99999999995498
 20
1.530950334084031
 30
0.0
 11
38.60499999996136
 21
7.925950334077647
 31
0.0
  0
LINE
  5
F6F4
330
F6BF
100
AcDbEntity
  8
0
  6
CONTINUOUS
100
AcDbLine
 10
44.99999999995498
 20
2.204469543164218
 30
0.0
 11
43.57899999995641
 21
3.625469543162789
 31
0.0
  0
LINE
  5
F6F5
330
F6BF
100
AcDbEntity
  8
0
  6
CONTINUOUS
100
AcDbLine
 10
41.89876730984767
 20
5.305702233271528
 30
0.0
 11
38.60499999996136
 21
8.599469543157834
 31
0.0
  0
LINE
  5
F6F6
330
F6BF
100
AcDbEntity
  8
0
  6
CONTINUOUS
100
AcDbLine
 10
44.99999999995498
 20
2.877988752244405
 30
0.0
 11
43.57899999995641
 21
4.298988752242975
 31
0.0
  0
LINE
  5
F6F7
330
F6BF
100
AcDbEntity
  8
0
  6
CONTINUOUS
100
AcDbLine
 10
44.99999999995498
 20
3.551507961324591
 30
0.0
 11
43.57899999995641
 21
4.972507961323163
 31
0.0
  0
LINE
  5
F6F8
330
F6BF
100
AcDbEntity
  8
0
  6
CONTINUOUS
100
AcDbLine
 10
44.99999999995498
 20
4.225027170404777
 30
0.0
 11
43.57899999995641
 21
5.646027170403348
 31
0.0
  0
LINE
  5
F6F9
330
F6BF
100
AcDbEntity
  8
0
  6
CONTINUOUS
100
AcDbLine
 10
44.99999999995498
 20
4.898546379484964
 30
0.0
 11
43.57899999995641
 21
6.319546379483535
 31
0.0
  0
LINE
  5
F6FA
330
F6BF
100
AcDbEntity
  8
0
  6
CONTINUOUS
100
AcDbLine
 10
44.99999999995498
 20
5.572065588565151
 30
0.0
 11
43.57899999995641
 21
6.993065588563722
 31
0.0
  0
LINE
  5
F6FB
330
F6BF
100
AcDbEntity
  8
0
  6
CONTINUOUS
100
AcDbLine
 10
44.99999999995498
 20
6.245584797645336
 30
0.0
 11
43.57899999995641
 21
7.666584797643908
 31
0.0
  0
LINE
  5
F6FC
330
F6BF
100
AcDbEntity
  8
0
  6
CONTINUOUS
100
AcDbLine
 10
44.99999999995498
 20
6.919104006725522
 30
0.0
 11
43.57899999995641
 21
8.340104006724093
 31
0.0
  0
LINE
  5
F6FD
330
F6BF
100
AcDbEntity
  8
0
  6
CONTINUOUS
100
AcDbLine
 10
44.99999999995498
 20
7.592623215805709
 30
0.0
 11
43.82952321576943
 21
8.763099999991255
 31
0.0
  0
LINE
  5
F6FE
330
F6BF
100
AcDbEntity
  8
0
  6
CONTINUOUS
100
AcDbLine
 10
44.99999999995498
 20
8.266142424885896
 30
0.0
 11
44.50304242484962
 21
8.763099999991255
 31
0.0
  0
ENDBLK
  5
F728
330
F6BF
100
AcDbEntity
  8
0
100
AcDbBlockEnd
  0
BLOCK
  5
F729
330
F6FF
100
AcDbEntity
  8
0
100
AcDbBlockBegin
  2
*X50
 70
     1
 10
0.0
 20
0.0
 30
0.0
  3
*X50
  1

  0
LINE
  5
F700
330
F6FF
100
AcDbEntity
  8
0
  6
CONTINUOUS
100
AcDbLine
 10
0.0
 20
8.548461116714023
 30
0.0
 11
0.2146388832772324
 21
8.763099999991255
 31
0.0
  0
LINE
  5
F701
330
F6FF
100
AcDbEntity
  8
0
  6
CONTINUOUS
100
AcDbLine
 10
-0.0000000000000002
 20
7.874941907633837
 30
0.0
 11
0.8881580923574184
 21
8.763099999991255
 31
0.0
  0
LINE
  5
F702
330
F6FF
100
AcDbEntity
  8
0
  6
CONTINUOUS
100
AcDbLine
 10
0.0
 20
7.20142269855365
 30
0.0
 11
1.420999999998572
 21
8.622422698552223
 31
0.0
  0
LINE
  5
F703
330
F6FF
100
AcDbEntity
  8
0
  6
CONTINUOUS
100
AcDbLine
 10
-0.0000000000000001
 20
6.527903489473465
 30
0.0
 11
1.420999999998571
 21
7.948903489472036
 31
0.0
  0
LINE
  5
F704
330
F6FF
100
AcDbEntity
  8
0
  6
CONTINUOUS
100
AcDbLine
 10
-0.0000000000000002
 20
5.854384280393278
 30
0.0
 11
1.420999999998571
 21
7.275384280391849
 31
0.0
  0
LINE
  5
F705
330
F6FF
100
AcDbEntity
  8
0
  6
CONTINUOUS
100
AcDbLine
 10
-0.0000000000000002
 20
5.180865071313091
 30
0.0
 11
1.420999999998571
 21
6.601865071311663
 31
0.0
  0
LINE
  5
F706
330
F6FF
100
AcDbEntity
  8
0
  6
CONTINUOUS
100
AcDbLine
 10
0.0
 20
4.507345862232905
 30
0.0
 11
1.420999999998571
 21
5.928345862231477
 31
0.0
  0
LINE
  5
F707
330
F6FF
100
AcDbEntity
  8
0
  6
CONTINUOUS
100
AcDbLine
 10
-0.0000000000000003
 20
3.833826653152718
 30
0.0
 11
1.420999999998571
 21
5.25482665315129
 31
0.0
  0
LINE
  5
F708
330
F6FF
100
AcDbEntity
  8
0
  6
CONTINUOUS
100
AcDbLine
 10
-0.0000000000000002
 20
3.160307444072532
 30
0.0
 11
1.420999999998571
 21
4.581307444071103
 31
0.0
  0
LINE
  5
F709
330
F6FF
100
AcDbEntity
  8
0
  6
CONTINUOUS
100
AcDbLine
 10
-0.0000000000000001
 20
2.486788234992345
 30
0.0
 11
1.420999999998571
 21
3.907788234990917
 31
0.0
  0
LINE
  5
F70A
330
F6FF
100
AcDbEntity
  8
0
  6
CONTINUOUS
100
AcDbLine
 10
-0.0000000000000006
 20
1.813269025912159
 30
0.0
 11
1.420999999998571
 21
3.234269025910731
 31
0.0
  0
LINE
  5
F70B
330
F6FF
100
AcDbEntity
  8
0
  6
CONTINUOUS
100
AcDbLine
 10
0.0
 20
1.139749816831973
 30
0.0
 11
1.420999999998571
 21
2.560749816830544
 31
0.0
  0
LINE
  5
F70C
330
F6FF
100
AcDbEntity
  8
0
  6
CONTINUOUS
100
AcDbLine
 10
0.0000000000000002
 20
0.466230607751787
 30
0.0
 11
1.420999999998571
 21
1.887230607750358
 31
0.0
  0
LINE
  5
F70D
330
F6FF
100
AcDbEntity
  8
0
  6
CONTINUOUS
100
AcDbLine
 10
0.2072886013284003
 20
-0.0000000000000009
 30
0.0
 11
1.420999999998571
 21
1.213711398670171
 31
0.0
  0
LINE
  5
F70E
330
F6FF
100
AcDbEntity
  8
0
  6
CONTINUOUS
100
AcDbLine
 10
0.8808078104085864
 20
-0.0000000000000009
 30
0.0
 11
1.420999999998571
 21
0.5401921895899839
 31
0.0
  0
LINE
  5
F70F
330
F6FF
100
AcDbEntity
  8
0
  6
CONTINUOUS
100
AcDbLine
 10
0.0581249075061505
 20
-0.0000000000000009
 30
0.0
 11
-0.0000000000000002
 21
0.0581249075061496
 31
0.0
  0
LINE
  5
F710
330
F6FF
100
AcDbEntity
  8
0
  6
CONTINUOUS
100
AcDbLine
 10
0.7316441165863372
 20
-0.0000000000000009
 30
0.0
 11
-0.0000000000000002
 21
0.7316441165863363
 31
0.0
  0
LINE
  5
F711
330
F6FF
100
AcDbEntity
  8
0
  6
CONTINUOUS
100
AcDbLine
 10
1.405163325666523
 20
-0.0000000000000009
 30
0.0
 11
-0.0000000000000002
 21
1.405163325666523
 31
0.0
  0
LINE
  5
F712
330
F6FF
100
AcDbEntity
  8
0
  6
CONTINUOUS
100
AcDbLine
 10
1.420999999998572
 20
0.6576825347481381
 30
0.0
 11
-0.0000000000000001
 21
2.07868253474671
 31
0.0
  0
LINE
  5
F713
330
F6FF
100
AcDbEntity
  8
0
  6
CONTINUOUS
100
AcDbLine
 10
1.420999999998571
 20
1.331201743828324
 30
0.0
 11
-0.0000000000000001
 21
2.752201743826896
 31
0.0
  0
LINE
  5
F714
330
F6FF
100
AcDbEntity
  8
0
  6
CONTINUOUS
100
AcDbLine
 10
1.420999999998571
 20
2.004720952908511
 30
0.0
 11
-0.0000000000000002
 21
3.425720952907082
 31
0.0
  0
LINE
  5
F715
330
F6FF
100
AcDbEntity
  8
0
  6
CONTINUOUS
100
AcDbLine
 10
1.420999999998571
 20
2.678240161988697
 30
0.0
 11
-0.0000000000000001
 21
4.099240161987269
 31
0.0
  0
LINE
  5
F716
330
F6FF
100
AcDbEntity
  8
0
  6
CONTINUOUS
100
AcDbLine
 10
1.420999999998572
 20
3.351759371068884
 30
0.0
 11
0.0
 21
4.772759371067455
 31
0.0
  0
LINE
  5
F717
330
F6FF
100
AcDbEntity
  8
0
  6
CONTINUOUS
100
AcDbLine
 10
1.420999999998571
 20
4.02527858014907
 30
0.0
 11
-0.0000000000000003
 21
5.446278580147642
 31
0.0
  0
LINE
  5
F718
330
F6FF
100
AcDbEntity
  8
0
  6
CONTINUOUS
100
AcDbLine
 10
1.420999999998571
 20
4.698797789229257
 30
0.0
 11
0.0
 21
6.119797789227828
 31
0.0
  0
LINE
  5
F719
330
F6FF
100
AcDbEntity
  8
0
  6
CONTINUOUS
100
AcDbLine
 10
1.420999999998571
 20
5.372316998309444
 30
0.0
 11
-0.0000000000000001
 21
6.793316998308015
 31
0.0
  0
LINE
  5
F71A
330
F6FF
100
AcDbEntity
  8
0
  6
CONTINUOUS
100
AcDbLine
 10
1.420999999998572
 20
6.045836207389629
 30
0.0
 11
-0.0000000000000004
 21
7.466836207388202
 31
0.0
  0
LINE
  5
F71B
330
F6FF
100
AcDbEntity
  8
0
  6
CONTINUOUS
100
AcDbLine
 10
1.420999999998571
 20
6.719355416469816
 30
0.0
 11
0.0
 21
8.140355416468388
 31
0.0
  0
LINE
  5
F71C
330
F6FF
100
AcDbEntity
  8
0
  6
CONTINUOUS
100
AcDbLine
 10
1.420999999998571
 20
7.392874625550003
 30
0.0
 11
0.0507746255573185
 21
8.763099999991255
 31
0.0
  0
LINE
  5
F71D
330
F6FF
100
AcDbEntity
  8
0
  6
CONTINUOUS
100
AcDbLine
 10
1.420999999998571
 20
8.06639383463019
 30
0.0
 11
0.7242938346375052
 21
8.763099999991255
 31
0.0
  0
LINE
  5
F71E
330
F6FF
100
AcDbEntity
  8
0
  6
CONTINUOUS
100
AcDbLine
 10
1.420999999998571
 20
8.739913043710375
 30
0.0
 11
1.397813043717691
 21
8.763099999991255
 31
0.0
  0
ENDBLK
  5
F72A
330
F6FF
100
AcDbEntity
  8
0
100
AcDbBlockEnd
  0
ENDSEC
  0
SECTION
  2
ENTITIES
  0
LINE
  5
95A2
330
18
100
AcDbEntity
  8
1CENTER
100
AcDbLine
 10
-1161.438745392362
 20
835.0702331110148
 30
0.0
 11
-1161.438745392362
 21
970.7805247866531
 31
0.0
  0
ARC
  5
95A3
330
18
100
AcDbEntity
  8
01
100
AcDbCircle
 10
-1161.438745392362
 20
946.2159469371857
 30
0.0
 40
17.49999999999955
100
AcDbArc
 50
302.8783495643798
 51
237.1216504356208
  0
LINE
  5
95C5
330
18
100
AcDbEntity
  8
1CENTER
100
AcDbLine
 10
-1106.426810043308
 20
946.2159469371854
 30
0.0
 11
-1183.567359542402
 21
946.2159469371859
 31
0.0
  0
LINE
  5
95CB
330
18
100
AcDbEntity
  8
01
100
AcDbLine
 10
-1139.438745392362
 20
931.2159469371852
 30
0.0
 11
-1139.438745392362
 21
961.2159469371854
 31
0.0
  0
LINE
  5
95CC
330
18
100
AcDbEntity
  8
01
100
AcDbLine
 10
-1140.438745392362
 20
931.2159469371852
 30
0.0
 11
-1140.438745392362
 21
961.2159469371854
 31
0.0
  0
LINE
  5
95D0
330
18
100
AcDbEntity
  8
01
100
AcDbLine
 10
-1151.938745392362
 20
931.2159469371854
 30
0.0
 11
-1140.438745392362
 21
931.2159469371852
 31
0.0
  0
LINE
  5
95D8
330
18
100
AcDbEntity
  8
01
100
AcDbLine
 10
-1152.424867203702
 20
961.2159469371854
 30
0.0
 11
-1140.438745392362
 21
961.2159469371854
 31
0.0
  0
LINE
  5
9A85
330
18
100
AcDbEntity
  8
1CENTER
100
AcDbLine
 10
-880.6833880912145
 20
546.1641757019545
 30
0.0
 11
-880.6833880912143
 21
729.4296668409282
 31
0.0
  0
LINE
  5
9A86
330
18
100
AcDbEntity
  8
01
100
AcDbLine
 10
-890.183388091214
 20
692.4667325038984
 30
0.0
 11
-890.1833880912143
 21
729.4296668409283
 31
0.0
  0
LINE
  5
9A87
330
18
100
AcDbEntity
  8
01
100
AcDbLine
 10
-871.1833880912138
 20
687.4296668409291
 30
0.0
 11
-871.183388091214
 21
729.4296668409283
 31
0.0
  0
LINE
  5
9A8C
330
18
100
AcDbEntity
  8
01
100
AcDbLine
 10
-898.1833880912147
 20
614.4296668409279
 30
0.0
 11
-898.1833880912143
 21
682.629666840929
 31
0.0
  0
LINE
  5
9A8D
330
18
100
AcDbEntity
  8
01
100
AcDbLine
 10
-863.183388091215
 20
614.4296668409286
 30
0.0
 11
-863.183388091214
 21
682.6296668409294
 31
0.0
  0
LINE
  5
9A92
330
18
100
AcDbEntity
  8
01
100
AcDbLine
 10
-898.1833880912147
 20
614.4296668409279
 30
0.0
 11
-863.183388091215
 21
614.4296668409286
 31
0.0
  0
LINE
  5
9A95
330
18
100
AcDbEntity
  8
01
100
AcDbLine
 10
-894.6833880912143
 20
683.4296668409291
 30
0.0
 11
-894.683388091214
 21
686.6296668409286
 31
0.0
  0
LINE
  5
9A96
330
18
100
AcDbEntity
  8
01
100
AcDbLine
 10
-866.6833880912143
 20
683.4296668409294
 30
0.0
 11
-866.683388091214
 21
686.629666840929
 31
0.0
  0
ARC
  5
9B9D
330
18
100
AcDbEntity
  8
01
100
AcDbCircle
 10
-1161.438745392362
 20
946.2159469371857
 30
0.0
 40
9.500000000000227
100
AcDbArc
 50
0.0
 51
90.0
  0
LINE
  5
9BA4
330
18
100
AcDbEntity
  8
01
100
AcDbLine
 10
-1170.938745392362
 20
852.369337090529
 30
0.0
 11
-1170.938745392362
 21
946.2159469371859
 31
0.0
  0
LINE
  5
9BA5
330
18
100
AcDbEntity
  8
01
100
AcDbLine
 10
-1151.938745392362
 20
852.3464052834059
 30
0.0
 11
-1151.938745392362
 21
946.2159469371877
 31
0.0
  0
LINE
  5
9DE7
330
18
100
AcDbEntity
  8
1CENTER
100
AcDbLine
 10
-1161.438745392363
 20
546.1641757019547
 30
0.0
 11
-1161.438745392362
 21
792.5321639135325
 31
0.0
  0
LINE
  5
9DE8
330
18
100
AcDbEntity
  8
01
100
AcDbLine
 10
-1151.938745392362
 20
687.429666840929
 30
0.0
 11
-1151.938745392362
 21
774.4296668409289
 31
0.0
  0
LINE
  5
9DE9
330
18
100
AcDbEntity
  8
01
100
AcDbLine
 10
-1170.938745392362
 20
687.4296668409288
 30
0.0
 11
-1170.938745392362
 21
774.4296668409288
 31
0.0
  0
LINE
  5
9DEF
330
18
100
AcDbEntity
  8
01
100
AcDbLine
 10
-1178.938745392363
 20
614.429666840928
 30
0.0
 11
-1143.938745392363
 21
614.4296668409287
 31
0.0
  0
LINE
  5
9DF1
330
18
100
AcDbEntity
  8
01
100
AcDbLine
 10
-1178.438745392363
 20
683.4296668409287
 30
0.0
 11
-1144.438745392362
 21
683.4296668409293
 31
0.0
  0
LINE
  5
9DF2
330
18
100
AcDbEntity
  8
01
100
AcDbLine
 10
-1174.938745392362
 20
687.4296668409288
 30
0.0
 11
-1147.938745392362
 21
687.429666840929
 31
0.0
  0
ARC
  5
9DF3
330
18
100
AcDbEntity
  8
1PHANTOM
100
AcDbCircle
 10
-1134.924867203703
 20
646.4296668409288
 30
0.0
 40
17.49999999999952
100
AcDbArc
 50
121.0027191338707
 51
238.9972808661278
  0
LINE
  5
9DF6
330
18
100
AcDbEntity
  8
01
100
AcDbLine
 10
-1139.438745392363
 20
631.4296668409288
 30
0.0
 11
-1139.438745392363
 21
661.4296668409289
 31
0.0
  0
LINE
  5
9DF7
330
18
100
AcDbEntity
  8
01
100
AcDbLine
 10
-1140.438745392362
 20
631.4296668409288
 30
0.0
 11
-1140.438745392363
 21
661.4296668409289
 31
0.0
  0
LINE
  5
9DFA
330
18
100
AcDbEntity
  8
01
100
AcDbLine
 10
-1142.938745392363
 20
631.4296668409289
 30
0.0
 11
-1140.438745392362
 21
631.4296668409289
 31
0.0
  0
LINE
  5
9DFC
330
18
100
AcDbEntity
  8
01
100
AcDbLine
 10
-1143.938745392363
 20
614.4296668409287
 30
0.0
 11
-1143.938745392363
 21
630.4296668409289
 31
0.0
  0
LINE
  5
9DFF
330
18
100
AcDbEntity
  8
01
100
AcDbLine
 10
-1142.938745392362
 20
661.429666840929
 30
0.0
 11
-1140.438745392363
 21
661.4296668409288
 31
0.0
  0
LINE
  5
9E03
330
18
100
AcDbEntity
  8
01
100
AcDbLine
 10
-1143.938745392362
 20
662.429666840929
 30
0.0
 11
-1143.938745392362
 21
682.9296668409293
 31
0.0
  0
LINE
  5
9E04
330
18
100
AcDbEntity
  8
01
100
AcDbLine
 10
-1147.438745392362
 20
683.4296668409289
 30
0.0
 11
-1147.438745392362
 21
686.929666840929
 31
0.0
  0
LINE
  5
9E05
330
18
100
AcDbEntity
  8
01
100
AcDbLine
 10
-1178.938745392363
 20
614.429666840928
 30
0.0
 11
-1178.938745392363
 21
682.9296668409287
 31
0.0
  0
LINE
  5
9E06
330
18
100
AcDbEntity
  8
01
100
AcDbLine
 10
-1175.438745392362
 20
683.4296668409288
 30
0.0
 11
-1175.438745392362
 21
686.9296668409288
 31
0.0
  0
ARC
  5
9E07
330
18
100
AcDbEntity
  8
01
100
AcDbCircle
 10
-1161.438745392362
 20
774.4296668409289
 30
0.0
 40
9.499999999999432
100
AcDbArc
 50
0.000000000000007
 51
180.0000000000007
  0
LINE
  5
9E7F
330
18
100
AcDbEntity
  8
1CENTER
100
AcDbLine
 10
-880.6833880912145
 20
631.4296668409215
 30
0.0
 11
-880.6833880912145
 21
683.4296668409218
 31
0.0
  0
LINE
  5
9E8E
330
18
100
AcDbEntity
  8
01
100
AcDbLine
 10
-1140.438745392363
 20
654.4296668409288
 30
0.0
 11
-1139.438745392363
 21
654.4296668409288
 31
0.0
  0
LINE
  5
9E8F
330
18
100
AcDbEntity
  8
01
100
AcDbLine
 10
-1140.438745392363
 20
638.4296668409288
 30
0.0
 11
-1139.438745392363
 21
638.4296668409288
 31
0.0
  0
LINE
  5
9EAB
330
18
100
AcDbEntity
  8
01
100
AcDbLine
 10
-897.3833880912143
 20
683.4296668409289
 30
0.0
 11
-889.4729205572326
 21
683.4296668409289
 31
0.0
  0
ARC
  5
A1DA
330
18
100
AcDbEntity
  8
01
100
AcDbCircle
 10
-1142.938745392362
 20
662.429666840929
 30
0.0
 40
1.0
100
AcDbArc
 50
180.0
 51
269.9999999999978
  0
ARC
  5
A1DB
330
18
100
AcDbEntity
  8
01
100
AcDbCircle
 10
-1142.938745392363
 20
630.4296668409289
 30
0.0
 40
1.0
100
AcDbArc
 50
90.0
 51
179.9999999999992
  0
ARC
  5
A1DC
330
18
100
AcDbEntity
  8
01
100
AcDbCircle
 10
-1178.438745392363
 20
682.9296668409287
 30
0.0
 40
0.5
100
AcDbArc
 50
90.00000000000092
 51
180.0
  0
ARC
  5
A1DD
330
18
100
AcDbEntity
  8
01
100
AcDbCircle
 10
-1144.438745392362
 20
682.9296668409293
 30
0.0
 40
0.5
100
AcDbArc
 50
0.0
 51
90.00000000000092
  0
ARC
  5
A1DE
330
18
100
AcDbEntity
  8
01
100
AcDbCircle
 10
-1147.938745392362
 20
686.929666840929
 30
0.0
 40
0.5
100
AcDbArc
 50
0.0
 51
90.00000000000072
  0
ARC
  5
A1DF
330
18
100
AcDbEntity
  8
01
100
AcDbCircle
 10
-1174.938745392362
 20
686.9296668409288
 30
0.0
 40
0.5
100
AcDbArc
 50
90.0000000000005
 51
180.0
  0
LINE
  5
A1E9
330
18
100
AcDbEntity
  8
01
100
AcDbLine
 10
-1140.438745392362
 20
938.2159469371852
 30
0.0
 11
-1139.438745392362
 21
938.2159469371852
 31
0.0
  0
LINE
  5
A1EA
330
18
100
AcDbEntity
  8
01
100
AcDbLine
 10
-1140.438745392362
 20
954.2159469371854
 30
0.0
 11
-1139.438745392362
 21
954.2159469371852
 31
0.0
  0
ARC
  5
A1F6
330
18
100
AcDbEntity
  8
01
100
AcDbCircle
 10
-1161.438745392362
 20
946.2159469371857
 30
0.0
 40
9.500000000000227
100
AcDbArc
 50
90.0
 51
180.0
  0
LINE
  5
A73B
330
18
100
AcDbEntity
  8
1CENTER
100
AcDbLine
 10
-854.9344690214832
 20
646.4296668409195
 30
0.0
 11
-900.2925895408011
 21
646.4296668409195
 31
0.0
  0
LINE
  5
A79C
330
18
100
AcDbEntity
  8
1CENTER
100
AcDbLine
 10
-880.6833880912145
 20
661.429666840934
 30
0.0
 11
-880.6833880912145
 21
631.4296668409236
 31
0.0
  0
LINE
  5
A9AD
330
18
100
AcDbEntity
  8
01
100
AcDbLine
 10
-1174.938745392362
 20
687.4296668409288
 30
0.0
 11
-1147.938745392362
 21
687.429666840929
 31
0.0
  0
LINE
  5
AA5F
330
18
100
AcDbEntity
  8
1CENTER
100
AcDbLine
 10
-880.6833880912175
 20
646.4296668409286
 30
0.0
 11
-880.6833880912156
 21
631.4296668409122
 31
0.0
  0
LINE
  5
B05E
330
18
100
AcDbEntity
  8
1PHANTOM
100
AcDbLine
 10
-1165.958745392362
 20
683.4296668409289
 30
0.0
 11
-1165.958745392362
 21
687.4296668409289
 31
0.0
  0
LINE
  5
B05F
330
18
100
AcDbEntity
  8
1PHANTOM
100
AcDbLine
 10
-1156.918745392362
 20
683.4296668409289
 30
0.0
 11
-1156.918745392362
 21
687.4296668409289
 31
0.0
  0
ARC
  5
B06A
330
18
100
AcDbEntity
  8
01
100
AcDbCircle
 10
-1161.438745392362
 20
946.2159469371857
 30
0.0
 40
14.0
100
AcDbArc
 50
312.7321100426034
 51
90.0
  0
ARC
  5
B06C
330
18
100
AcDbEntity
  8
01
100
AcDbCircle
 10
-1161.438745392362
 20
946.2159469371857
 30
0.0
 40
14.0
100
AcDbArc
 50
90.0
 51
227.2678899573966
  0
LINE
  5
B06E
330
18
100
AcDbEntity
  8
01
100
AcDbLine
 10
-1156.917960062356
 20
959.4659469371859
 30
0.0
 11
-1165.959530722368
 21
959.4659469371859
 31
0.0
  0
LINE
  5
B205
330
18
100
AcDbEntity
  8
1CENTER
100
AcDbLine
 10
-880.6833880912172
 20
629.547542666151
 30
0.0
 11
-880.6833880912172
 21
663.7891643639848
 31
0.0
  0
LINE
  5
B213
330
18
100
AcDbEntity
  8
1CENTER
100
AcDbLine
 10
-880.683388091217
 20
646.4296668409381
 30
0.0
 11
-880.6833880912156
 21
631.4296668409218
 31
0.0
  0
LINE
  5
B506
330
18
100
AcDbEntity
  8
01
100
AcDbLine
 10
-1139.438745392362
 20
931.2159469371925
 30
0.0
 11
-1139.438745392362
 21
961.2159469371925
 31
0.0
  0
LINE
  5
B522
330
18
100
AcDbEntity
  8
1CENTER
100
AcDbLine
 10
-1105.735392550693
 20
646.4296668409291
 30
0.0
 11
-1161.438745392363
 21
646.4296668409291
 31
0.0
  0
LINE
  5
B523
330
18
100
AcDbEntity
  8
01
100
AcDbLine
 10
-1139.438745392363
 20
661.4296668409296
 30
0.0
 11
-1139.438745392363
 21
631.4296668409294
 31
0.0
  0
LINE
  5
B542
330
18
100
AcDbEntity
  8
01
100
AcDbLine
 10
-883.978423611004
 20
683.4296668409289
 30
0.0
 11
-863.983388091214
 21
683.4296668409294
 31
0.0
  0
LINE
  5
B947
330
18
100
AcDbEntity
  8
01
100
AcDbLine
 10
-1139.438745392363
 20
661.4296668409296
 30
0.0
 11
-1139.438745392363
 21
631.4296668409294
 31
0.0
  0
LINE
  5
BD83
330
18
100
AcDbEntity
  8
01
100
AcDbLine
 10
-893.8833880912141
 20
687.4296668409286
 30
0.0
 11
-892.708789284786
 21
687.4296668409286
 31
0.0
  0
LINE
  5
BD9D
330
18
100
AcDbEntity
  8
01
100
AcDbLine
 10
-1139.438745392363
 20
661.4296668409296
 30
0.0
 11
-1139.438745392363
 21
631.4296668409294
 31
0.0
  0
LINE
  5
BD9F
330
18
100
AcDbEntity
  8
01
100
AcDbLine
 10
-1139.438745392363
 20
661.4296668409296
 30
0.0
 11
-1139.438745392363
 21
631.4296668409294
 31
0.0
  0
ARC
  5
D172
330
18
100
AcDbEntity
  8
01
100
AcDbCircle
 10
-893.8833880912141
 20
686.6296668409286
 30
0.0
 40
0.8
100
AcDbArc
 50
90.0000000000012
 51
179.9999999999976
  0
ARC
  5
D173
330
18
100
AcDbEntity
  8
01
100
AcDbCircle
 10
-867.483388091214
 20
686.629666840929
 30
0.0
 40
0.8
100
AcDbArc
 50
359.9999999999977
 51
90.00000000000122
  0
ARC
  5
D174
330
18
100
AcDbEntity
  8
01
100
AcDbCircle
 10
-897.3833880912143
 20
682.629666840929
 30
0.0
 40
0.8
100
AcDbArc
 50
90.0
 51
179.9999999999998
  0
ARC
  5
D175
330
18
100
AcDbEntity
  8
01
100
AcDbCircle
 10
-863.983388091214
 20
682.6296668409294
 30
0.0
 40
0.8
100
AcDbArc
 50
359.9999999999993
 51
90.00000000000118
  0
LINE
  5
D176
330
18
100
AcDbEntity
  8
01
100
AcDbLine
 10
-886.9336456918611
 20
687.4296668409285
 30
0.0
 11
-867.483388091214
 21
687.4296668409289
 31
0.0
  0
ARC
  5
D1F4
330
18
100
AcDbEntity
  8
01
100
AcDbCircle
 10
-1115.654839000774
 20
950.7350813663707
 30
0.0
 40
0.8183926298962196
100
AcDbArc
 50
271.1267875137476
 51
4.295661096747265
  0
ARC
  5
D1F5
330
18
100
AcDbEntity
  8
01
100
AcDbCircle
 10
-1112.838501377881
 20
951.1872289060511
 30
0.0
 40
1.999859008411043
100
AcDbArc
 50
191.0561164276654
 51
269.9930090071938
  0
ARC
  5
D1F6
330
18
100
AcDbEntity
  8
01
100
AcDbCircle
 10
-1121.568964431317
 20
947.1368533014197
 30
0.0
 40
2.781748641757068
100
AcDbArc
 50
88.0629284540586
 51
176.2379084766973
  0
LINE
  5
D1F7
330
18
100
AcDbEntity
  8
01
100
AcDbLine
 10
-1115.638745404282
 20
931.2159469371854
 30
0.0
 11
-1139.438745392362
 21
931.2159469371854
 31
0.0
  0
ARC
  5
D1F8
330
18
100
AcDbEntity
  8
01
100
AcDbCircle
 10
-1125.759404429149
 20
934.0135239599022
 30
0.0
 40
1.009051787766197
100
AcDbArc
 50
181.9271213964771
 51
265.983081210574
  0
ARC
  5
D1F9
330
18
100
AcDbEntity
  8
01
100
AcDbCircle
 10
-912.2659763798791
 20
853.7146964134649
 30
0.0
 40
230.1260917592995
100
AcDbArc
 50
155.8534893135605
 51
158.8642222170042
  0
SPLINE
  5
D1FA
330
18
100
AcDbEntity
  8
01
100
AcDbSpline
210
0.0
220
0.0
230
1.0
 70
  1064
 71
     3
 72
    14
 73
    10
 74
     8
 42
0.000000001
 43
0.0000000001
 44
0.000001
 12
0.1744494329177209
 22
-0.984666133953375
 32
0.0
 13
0.3998231506202966
 23
0.9165923020776792
 33
0.0
 40
0.0
 40
0.0
 40
0.0
 40
0.0
 40
0.1195176944927191
 40
0.2170900138504293
 40
0.2900974420040738
 40
0.3405667205975716
 40
0.3795396708042724
 40
0.4287081584941006
 40
0.5002475002058407
 40
0.5002475002058407
 40
0.5002475002058407
 40
0.5002475002058407
 10
-1114.859667757642
 20
934.1169026182306
 30
0.0
 10
-1114.852717826299
 20
934.0776742761722
 30
0.0
 10
-1114.837475969607
 20
934.0069505210793
 30
0.0
 10
-1114.807347406675
 20
933.9143565847377
 30
0.0
 10
-1114.773383495234
 20
933.8495109540755
 30
0.0
 10
-1114.734452694064
 20
933.807259010545
 30
0.0
 10
-1114.683134796193
 20
933.8058464345906
 30
0.0
 10
-1114.643528743253
 20
933.8466864312561
 30
0.0
 10
-1114.625105955806
 20
933.8820019433854
 30
0.0
 10
-1114.61557159414
 20
933.9038594133549
 30
0.0
 11
-1114.859667757642
 21
934.1169026182306
 31
0.0
 11
-1114.833722218487
 21
934.0002354899093
 31
0.0
 11
-1114.802018176248
 21
933.9079572320466
 31
0.0
 11
-1114.76620904586
 21
933.8443345323044
 31
0.0
 11
-1114.727979471368
 21
933.8113848221215
 31
0.0
 11
-1114.689015588066
 21
933.8105323781128
 31
0.0
 11
-1114.650988452835
 21
933.8417010959761
 31
0.0
 11
-1114.61557159414
 21
933.9038594133549
 31
0.0
  0
ARC
  5
D1FB
330
18
100
AcDbEntity
  8
01
100
AcDbCircle
 10
-1112.952667750491
 20
935.8179892112253
 30
0.0
 40
2.174368885012851
100
AcDbArc
 50
164.245659723116
 51
189.9759953212752
  0
LINE
  5
D1FC
330
18
100
AcDbEntity
  8
01
100
AcDbLine
 10
-1115.094161087584
 20
935.4413111851854
 30
0.0
 11
-1114.859667757642
 21
934.1169026182306
 31
0.0
  0
LINE
  5
D209
330
18
100
AcDbEntity
  8
01
100
AcDbLine
 10
-1125.830106851995
 20
933.006902570773
 30
0.0
 11
-1115.482000911
 21
933.006902570773
 31
0.0
  0
ARC
  5
D20A
330
18
100
AcDbEntity
  8
01
100
AcDbCircle
 10
-1115.638745404282
 20
932.0159469491068
 30
0.0
 40
0.800000011920929
100
AcDbArc
 50
270.000000000001
 51
0.0
  0
SPLINE
  5
D20B
330
18
100
AcDbEntity
  8
01
100
AcDbSpline
210
0.0
220
0.0
230
1.0
 70
  1064
 71
     3
 72
    10
 73
     6
 74
     4
 42
0.000000001
 43
0.0000000001
 44
0.000001
 12
-0.3980293512165195
 22
-0.9173726808501312
 32
0.0
 13
-0.9999999995647111
 23
-2.950555840099176E-5
 33
0.0
 40
0.0
 40
0.0
 40
0.0
 40
0.0
 40
0.3384053060549505
 40
0.6969311606876809
 40
1.062284529009135
 40
1.062284529009135
 40
1.062284529009135
 40
1.062284529009135
 10
-1114.656730376926
 20
933.5854359278014
 30
0.0
 10
-1114.701628791732
 20
933.4819546668582
 30
0.0
 10
-1114.825032738672
 20
933.2794870749022
 30
0.0
 10
-1115.115734155999
 20
933.0609061383091
 30
0.0
 10
-1115.360244029227
 20
933.0069082799658
 30
0.0
 10
-1115.482028485281
 20
933.0069046866474
 30
0.0
 11
-1114.656730376926
 21
933.5854359278014
 31
0.0
 11
-1114.837340472028
 21
933.299257509836
 31
0.0
 11
-1115.125250885191
 21
933.0856026032147
 31
0.0
 11
-1115.482028485281
 21
933.0069046866474
 31
0.0
  0
LINE
  5
D20C
330
18
100
AcDbEntity
  8
01
100
AcDbLine
 10
-1114.838745392361
 20
933.2976995399995
 30
0.0
 11
-1114.838745392361
 21
932.0159469491064
 31
0.0
  0
LINE
  5
D20D
330
18
100
AcDbEntity
  8
01
100
AcDbLine
 10
-1109.938745392362
 20
943.9872969958374
 30
0.0
 11
-1109.938745392362
 21
948.3807337858984
 31
0.0
  0
ARC
  5
D20E
330
18
100
AcDbEntity
  8
01
100
AcDbCircle
 10
-1110.739260122247
 20
948.3868312152072
 30
0.0
 40
0.8004545508394714
100
AcDbArc
 50
359.5635487381065
 51
90.29624095218719
  0
SPLINE
  5
D20F
330
18
100
AcDbEntity
  8
01
100
AcDbSpline
210
0.0
220
0.0
230
1.0
 70
  1064
 71
     3
 72
    13
 73
     9
 74
     7
 42
0.000000001
 43
0.0000000001
 44
0.000001
 12
0.4231061860699556
 22
0.9060801042453897
 32
0.0
 13
-0.4373727165602905
 23
-0.8992803271553714
 33
0.0
 40
0.0
 40
0.0
 40
0.0
 40
0.0
 40
0.0157460311423686
 40
0.019293917408131
 40
0.0226567255207851
 40
0.0237443293344446
 40
0.026246087958803
 40
0.0280810532529885
 40
0.0280810532529885
 40
0.0280810532529885
 40
0.0280810532529885
 10
-1110.012867547671
 20
943.6511498393961
 30
0.0
 10
-1110.010646799943
 20
943.6559055612424
 30
0.0
 10
-1110.016541417139
 20
943.6432497254575
 30
0.0
 10
-1110.022292544169
 20
943.6313310605159
 30
0.0
 10
-1110.019064443661
 20
943.6380429723707
 30
0.0
 10
-1110.020497492063
 20
943.6351325240455
 30
0.0
 10
-1110.021135003912
 20
943.6337886190935
 30
0.0
 10
-1110.021797074746
 20
943.6324266336442
 30
0.0
 10
-1110.022064595998
 20
943.6318765842475
 30
0.0
 11
-1110.012867547671
 21
943.6511498393961
 31
0.0
 11
-1110.01960447451
 21
943.636916680698
 31
0.0
 11
-1110.021142464347
 21
943.63371948125
 31
0.0
 11
-1110.019695906665
 21
943.6367552595943
 31
0.0
 11
-1110.02017721961
 21
943.635779954257
 31
0.0
 11
-1110.021264510397
 21
943.6335268241933
 31
0.0
 11
-1110.022064595998
 21
943.6318765842475
 31
0.0
  0
ARC
  5
D210
330
18
100
AcDbEntity
  8
01
100
AcDbCircle
 10
-1110.7400117604
 20
943.9874351318053
 30
0.0
 40
0.8011901001689539
100
AcDbArc
 50
333.3441020553861
 51
359.9901211487222
  0
LINE
  5
D211
330
18
100
AcDbEntity
  8
01
100
AcDbLine
 10
-1112.838745392361
 20
948.8073953620283
 30
0.0
 11
-1112.838745392361
 21
949.1873638475959
 31
0.0
  0
LINE
  5
D212
330
18
100
AcDbEntity
  8
01
100
AcDbLine
 10
-1110.743397840841
 20
949.187369905676
 30
0.0
 11
-1112.838745392361
 21
949.187369905676
 31
0.0
  0
SPLINE
  5
D213
330
18
100
AcDbEntity
  8
01
100
AcDbSpline
210
0.0
220
0.0
230
1.0
 70
  1064
 71
     3
 72
    28
 73
    24
 74
    22
 42
0.000000001
 43
0.0000000001
 44
0.000001
 12
0.905936172763015
 22
-0.4234142780770395
 32
0.0
 13
-0.3585586293362408
 23
-0.9335072090393925
 33
0.0
 40
0.0
 40
0.0
 40
0.0
 40
0.0
 40
0.0043618635079776
 40
0.0174551253699815
 40
0.0392875698965286
 40
0.0698662009045513
 40
0.1091912742518104
 40
0.1572611288271452
 40
0.2796286485458531
 40
0.4369560095051501
 40
0.6292309477933206
 40
0.8564417040044001
 40
1.118577028288851
 40
1.41554116512865
 40
1.746883594544175
 40
2.510530488016464
 40
3.405173341873477
 40
4.426411889810662
 40
5.569669885289789
 40
6.830291013919005
 40
8.205039360443482
 40
9.694081210739766
 40
13.01787807689585
 40
13.01787807689585
 40
13.01787807689585
 40
13.01787807689585
 10
-1109.938828824427
 20
948.3807338948418
 30
0.0
 10
-1109.93751163445
 20
948.3801182697457
 30
0.0
 10
-1109.944643948117
 20
948.3731198687143
 30
0.0
 10
-1109.945648426063
 20
948.3629124673819
 30
0.0
 10
-1109.957458752746
 20
948.3421745304686
 30
0.0
 10
-1109.969249311164
 20
948.314885053607
 30
0.0
 10
-1109.986311398647
 20
948.2790823288709
 30
0.0
 10
-1110.015613897816
 20
948.2157733461956
 30
0.0
 10
-1110.061749321726
 20
948.1166219029308
 30
0.0
 10
-1110.127667056245
 20
947.9738242425028
 30
0.0
 10
-1110.207985791905
 20
947.7991147252643
 30
0.0
 10
-1110.302448622971
 20
947.5924814632925
 30
0.0
 10
-1110.410937299314
 20
947.3538824610094
 30
0.0
 10
-1110.533223609295
 20
947.0834303370324
 30
0.0
 10
-1110.72360043624
 20
946.6603006945129
 30
0.0
 10
-1110.994124670434
 20
946.0547706925756
 30
0.0
 10
-1111.356050761484
 20
945.2382077046938
 30
0.0
 10
-1111.766616620372
 20
944.304798009847
 30
0.0
 10
-1112.222860274429
 20
943.2582132699151
 30
0.0
 10
-1112.722037953601
 20
942.101807246248
 30
0.0
 10
-1113.26107074542
 20
940.8370711225912
 30
0.0
 10
-1114.055085202343
 20
938.9334876147504
 30
0.0
 10
-1114.648097071223
 20
937.4426221854425
 30
0.0
 10
-1115.045355754063
 20
936.4083594067961
 30
0.0
 11
-1109.938828824427
 21
948.3807338948418
 31
0.0
 11
-1109.940659653454
 21
948.3767740875032
 31
0.0
 11
-1109.946185428647
 21
948.3649039865631
 31
0.0
 11
-1109.955411929809
 21
948.3451169378063
 31
0.0
 11
-1109.968341450213
 21
948.3174062870175
 31
0.0
 11
-1109.984960329077
 21
948.2817653799816
 31
0.0
 11
-1110.005250344889
 21
948.2381875624837
 31
0.0
 11
-1110.056770899866
 21
948.1271945792405
 31
0.0
 11
-1110.122757340164
 21
947.9843741035661
 31
0.0
 11
-1110.203063890804
 21
947.8096729017402
 31
0.0
 11
-1110.297544776809
 21
947.6030377400407
 31
0.0
 11
-1110.406054223198
 21
947.3644153847467
 31
0.0
 11
-1110.528424334049
 21
947.0938359052334
 31
0.0
 11
-1110.664394825403
 21
946.7916772859171
 31
0.0
 11
-1110.975999350685
 21
946.0944978264783
 31
0.0
 11
-1111.338592525569
 21
945.2766274049304
 31
0.0
 11
-1111.74975745018
 21
944.3418164200348
 31
0.0
 11
-1112.206629900355
 21
943.2938152705506
 31
0.0
 11
-1112.706110422318
 21
942.1363677172972
 31
0.0
 11
-1113.244570558735
 21
940.8714591446501
 31
0.0
 11
-1113.817289699703
 21
939.4969634495715
 31
0.0
 11
-1115.045355754063
 21
936.4083594067961
 31
0.0
  0
SPLINE
  5
D214
330
18
100
AcDbEntity
  8
01
100
AcDbSpline
210
0.0
220
0.0
230
1.0
 70
  1064
 71
     3
 72
    28
 73
    24
 74
    22
 42
0.000000001
 43
0.0000000001
 44
0.000001
 12
0.3980352785476558
 22
0.9173701090789314
 32
0.0
 13
0.9042918648051209
 23
-0.4269147728145244
 33
0.0
 40
0.0
 40
0.0
 40
0.0
 40
0.0
 40
2.796066692301856
 40
4.057077597641662
 40
5.222670494741349
 40
6.28989924712434
 40
7.255919211841939
 40
8.118026984896453
 40
8.87378349194503
 40
9.520855142977476
 40
10.05713581321581
 40
10.28323157004955
 40
10.48105369929862
 40
10.65045493173673
 40
10.79131986666339
 40
10.9034870567134
 40
10.94874666729282
 40
10.98678514170926
 40
11.01757306919013
 40
11.04097669414413
 40
11.05011034029427
 40
11.05698838896343
 40
11.06336277559052
 40
11.06336277559052
 40
11.06336277559052
 40
11.06336277559052
 10
-1114.656138815336
 20
933.5867993389134
 30
0.0
 10
-1114.2851610871
 20
934.4418086744163
 30
0.0
 10
-1113.739317460114
 20
935.6791629324673
 30
0.0
 10
-1113.023225974115
 20
937.2659607703445
 30
0.0
 10
-1112.538839190518
 20
938.3250639512721
 30
0.0
 10
-1112.091008563768
 20
939.2927459183205
 30
0.0
 10
-1111.682149138299
 20
940.166984405088
 30
0.0
 10
-1111.314445394117
 20
940.9458460604824
 30
0.0
 10
-1110.989965670871
 20
941.6275404666048
 30
0.0
 10
-1110.710670010001
 20
942.2104540478813
 30
0.0
 10
-1110.506689522078
 20
942.6336793983046
 30
0.0
 10
-1110.367280146272
 20
942.9217889367021
 30
0.0
 10
-1110.280993027085
 20
943.0997472531565
 30
0.0
 10
-1110.20699625424
 20
943.25208598628
 30
0.0
 10
-1110.145409755011
 20
943.3787254520669
 30
0.0
 10
-1110.101876772931
 20
943.4680947414765
 30
0.0
 10
-1110.073363463395
 20
943.5267187031561
 30
0.0
 10
-1110.056671807301
 20
943.5608021920689
 30
0.0
 10
-1110.043305220482
 20
943.5887237509355
 30
0.0
 10
-1110.03383211546
 20
943.607060849972
 30
0.0
 10
-1110.028404766112
 20
943.6198155334387
 30
0.0
 10
-1110.024471409319
 20
943.6246139823248
 30
0.0
 10
-1110.023974895909
 20
943.6327782750507
 30
0.0
 10
-1110.022053460586
 20
943.6318711684444
 30
0.0
 11
-1114.656138815336
 21
933.5867993389134
 31
0.0
 11
-1113.527834650225
 21
936.1451024053413
 31
0.0
 11
-1113.009141122486
 21
937.294495953106
 31
0.0
 11
-1112.524375771459
 21
938.354500366408
 31
0.0
 11
-1112.076158968973
 21
939.3230451035652
 31
0.0
 11
-1111.666916459603
 21
940.1980966110464
 31
0.0
 11
-1111.298871574008
 21
940.9776944397677
 31
0.0
 11
-1110.974081075738
 21
941.6601012320707
 31
0.0
 11
-1110.694467746182
 21
942.2436405259386
 31
0.0
 11
-1110.461622901729
 21
942.7267349635736
 31
0.0
 11
-1110.363145501347
 21
942.9302576720697
 31
0.0
 11
-1110.276837413556
 21
943.1082591012928
 31
0.0
 11
-1110.202825883977
 21
943.2606371543188
 31
0.0
 11
-1110.141213733883
 21
943.3873134064538
 31
0.0
 11
-1110.092117233185
 21
943.4881648424375
 31
0.0
 11
-1110.072299092545
 21
943.528854812319
 31
0.0
 11
-1110.055639698375
 21
943.5630511588702
 31
0.0
 11
-1110.042153057692
 21
943.590727990229
 31
0.0
 11
-1110.031897365297
 21
943.6117648726245
 31
0.0
 11
-1110.027895815026
 21
943.619975297675
 31
0.0
 11
-1110.024876061424
 21
943.6261549927517
 31
0.0
 11
-1110.022053460586
 21
943.6318711684444
 31
0.0
  0
SPLINE
  5
D215
330
18
100
AcDbEntity
  8
01
100
AcDbSpline
210
0.0
220
0.0
230
1.0
 70
  1064
 71
     3
 72
    28
 73
    24
 74
    22
 42
0.000000001
 43
0.0000000001
 44
0.000001
 12
0.3998231506201338
 22
0.9165923020777503
 32
0.0
 13
0.8986396510579859
 23
-0.4386875625617634
 33
0.0
 40
0.0
 40
0.0
 40
0.0
 40
0.0
 40
2.842777005588257
 40
4.122878109379191
 40
5.304576079386171
 40
6.38479754560985
 40
7.360448548131021
 40
8.228775210943587
 40
8.987111765337838
 40
9.632970200013272
 40
9.913126408312147
 40
10.16447593614895
 40
10.38680008323339
 40
10.57987998206021
 40
10.74351027825249
 40
10.87755214885167
 40
10.98188799598019
 40
11.02288892492765
 40
11.05644066819721
 40
11.08254076127614
 40
11.10118673964448
 40
11.11237613904752
 40
11.11610579075782
 40
11.11610579075782
 40
11.11610579075782
 40
11.11610579075782
 10
-1114.61557159414
 20
933.9038594133549
 30
0.0
 10
-1114.236702241178
 20
934.7724152533035
 30
0.0
 10
-1113.679448886151
 20
936.0287084518884
 30
0.0
 10
-1112.948584009454
 20
937.6387880145678
 30
0.0
 10
-1112.45513254587
 20
938.7114052932903
 30
0.0
 10
-1111.999630951532
 20
939.6897592613798
 30
0.0
 10
-1111.584652252439
 20
940.5717467453665
 30
0.0
 10
-1111.212481267663
 20
941.3552903435456
 30
0.0
 10
-1110.885289167919
 20
942.0384916999213
 30
0.0
 10
-1110.641500310596
 20
942.5442525656459
 30
0.0
 10
-1110.470450935525
 20
942.8974706844899
 30
0.0
 10
-1110.360689840199
 20
943.1235065473797
 30
0.0
 10
-1110.263414955401
 20
943.3233412606317
 30
0.0
 10
-1110.17879164124
 20
943.4968072713676
 30
0.0
 10
-1110.106992964969
 20
943.6438082277302
 30
0.0
 10
-1110.04809603879
 20
943.7641305121367
 30
0.0
 10
-1110.007190194581
 20
943.8478909366165
 30
0.0
 10
-1109.980903547383
 20
943.9012623937452
 30
0.0
 10
-1109.966275011489
 20
943.93177405391
 30
0.0
 10
-1109.954456289018
 20
943.9542274882303
 30
0.0
 10
-1109.947009393274
 20
943.9731958236611
 30
0.0
 10
-1109.940751670322
 20
943.9793367661762
 30
0.0
 10
-1109.939938115014
 20
943.9878423894169
 30
0.0
 10
-1109.938820910711
 20
943.9872970054776
 30
0.0
 11
-1114.61557159414
 21
933.9038594133549
 31
0.0
 11
-1113.463102098116
 21
936.5025496595158
 31
0.0
 11
-1112.934004956876
 21
937.6681889909773
 31
0.0
 11
-1112.44014392157
 21
938.7417398142375
 31
0.0
 11
-1111.984226187104
 21
939.7210341701293
 31
0.0
 11
-1111.568851691342
 21
940.6038472347
 31
0.0
 11
-1111.196304684755
 21
941.388194046534
 31
0.0
 11
-1110.868783270921
 21
942.0721560726843
 31
0.0
 11
-1110.588324059087
 21
942.6539427587841
 31
0.0
 11
-1110.46621783626
 21
942.906088691514
 31
0.0
 11
-1110.356424779759
 21
943.1321905930731
 31
0.0
 11
-1110.259118072787
 21
943.3320891452431
 31
0.0
 11
-1110.174470898544
 21
943.5056250298057
 31
0.0
 11
-1110.102645451457
 21
943.6526487659485
 31
0.0
 11
-1110.043750334093
 21
943.7730588495369
 31
0.0
 11
-1109.997877068743
 21
943.8667691079099
 31
0.0
 11
-1109.979844858103
 21
943.9035918665422
 31
0.0
 11
-1109.965085837104
 21
943.9337230924389
 31
0.0
 11
-1109.953601968806
 21
943.9571610024395
 31
0.0
 11
-1109.945395216268
 21
943.9739038133857
 31
0.0
 11
-1109.940467542549
 21
943.9839497421185
 31
0.0
 11
-1109.938820910711
 21
943.9872970054776
 31
0.0
  0
ARC
  5
D216
330
18
100
AcDbEntity
  8
01
100
AcDbCircle
 10
-1124.10760588701
 20
935.8160816792265
 30
0.0
 40
2.937613891435282
100
AcDbArc
 50
162.6233797544483
 51
190.0611405287519
  0
LINE
  5
D217
330
18
100
AcDbEntity
  8
01
100
AcDbLine
 10
-1126.767875271577
 20
933.9795325562336
 30
0.0
 11
-1126.998721737553
 21
935.3039418173985
 31
0.0
  0
ARC
  5
D218
330
18
100
AcDbEntity
  8
01
100
AcDbCircle
 10
-1116.313790123927
 20
935.8008406594158
 30
0.0
 40
9.931021985898397
100
AcDbArc
 50
172.6702121253675
 51
184.6508578896406
  0
LINE
  5
D219
330
18
100
AcDbEntity
  8
01
100
AcDbLine
 10
-1125.979757586748
 20
933.6711883725216
 30
0.0
 11
-1126.212112215872
 21
934.9955969394764
 31
0.0
  0
ARC
  5
D21A
330
18
100
AcDbEntity
  8
01
100
AcDbCircle
 10
-908.202705848587
 20
853.7908823650787
 30
0.0
 40
233.3281572739717
100
AcDbArc
 50
156.0703056368912
 51
159.0895010621635
  0
ARC
  5
D21B
330
18
100
AcDbEntity
  8
01
100
AcDbCircle
 10
-1124.884371874797
 20
933.569101454339
 30
0.0
 40
1.100132536020595
100
AcDbArc
 50
174.6755718084614
 51
210.729411817877
  0
LINE
  5
D21E
330
18
100
AcDbEntity
  8
01
100
AcDbLine
 10
-1126.163658262026
 20
937.0678431639321
 30
0.0
 11
-1115.818901526292
 21
937.0678431639321
 31
0.0
  0
LINE
  5
D21F
330
18
100
AcDbEntity
  8
01
100
AcDbLine
 10
-1115.867706859813
 20
934.9955969394764
 30
0.0
 11
-1115.63342284989
 21
933.6711883725216
 31
0.0
  0
ARC
  5
D220
330
18
100
AcDbEntity
  8
01
100
AcDbCircle
 10
-1106.051562645053
 20
935.8011059449645
 30
0.0
 40
9.849138642688
100
AcDbArc
 50
172.6104913839377
 51
184.6911586499319
  0
ARC
  5
D221
330
18
100
AcDbEntity
  8
01
100
AcDbCircle
 10
-1114.993122791859
 20
954.2523039028652
 30
0.0
 40
5.855627297071864
100
AcDbArc
 50
263.6698819651062
 51
291.5871323380462
  0
LINE
  5
D222
330
18
100
AcDbEntity
  8
01
100
AcDbLine
 10
-1121.474875382355
 20
948.4323766315906
 30
0.0
 11
-1115.638745404282
 21
948.4323766315906
 31
0.0
  0
SPLINE
  5
D223
330
18
100
AcDbEntity
  8
01
100
AcDbSpline
210
0.0
220
0.0
230
1.0
 70
  1064
 71
     3
 72
    14
 73
    10
 74
     8
 42
0.000000001
 43
0.0000000001
 44
0.000001
 12
0.08195987878744242
 22
-0.9966356296406164
 32
0.0
 13
0.9999999995185475
 23
3.103071367757477E-5
 33
0.0
 40
0.0
 40
0.0
 40
0.0
 40
0.0
 40
0.1678145911540699
 40
0.3158241252697253
 40
0.4411577204943922
 40
0.5416361162776149
 40
0.6166078409560496
 40
0.6664131171465523
 40
0.6953841925245754
 40
0.6953841925245754
 40
0.6953841925245754
 40
0.6953841925245754
 10
-1115.63342284989
 20
933.6711883725216
 30
0.0
 10
-1115.62883816204
 20
933.6154383722824
 30
0.0
 10
-1115.618956569778
 20
933.5106110215779
 30
0.0
 10
-1115.600882644751
 20
933.364658398154
 30
0.0
 10
-1115.580610988519
 20
933.2416304578642
 30
0.0
 10
-1115.559342239799
 20
933.1436982202913
 30
0.0
 10
-1115.53580056941
 20
933.071845223865
 30
0.0
 10
-1115.514957712712
 20
933.0257705956823
 30
0.0
 10
-1115.49168551062
 20
933.0069043869826
 30
0.0
 10
-1115.482028485499
 20
933.006904686647
 30
0.0
 11
-1115.63342284989
 21
933.6711883725216
 31
0.0
 11
-1115.61747312699
 21
933.5041342597974
 31
0.0
 11
-1115.59889049496
 21
933.3572958972122
 31
0.0
 11
-1115.578116018274
 21
933.2336960311472
 31
0.0
 11
-1115.555593239229
 21
933.135774498448
 31
0.0
 11
-1115.531771153529
 21
933.0646882192332
 31
0.0
 11
-1115.507099483281
 21
933.021423226664
 31
0.0
 11
-1115.482028485499
 21
933.006904686647
 31
0.0
  0
SPLINE
  5
D224
330
18
100
AcDbEntity
  8
01
100
AcDbSpline
210
0.0
220
0.0
230
1.0
 70
  1064
 71
     3
 72
    29
 73
    25
 74
    23
 42
0.000000001
 43
0.0000000001
 44
0.000001
 12
-0.9148292984778764
 22
0.4038407540683291
 32
0.0
 13
-0.354927806694633
 23
-0.9348937116244485
 33
0.0
 40
0.0
 40
0.0
 40
0.0
 40
0.0
 40
0.0044418835379461
 40
0.0177667873555259
 40
0.0399837485348648
 40
0.0710975152501027
 40
0.1110963452713997
 40
0.1599637956220443
 40
0.2842386714098999
 40
0.4437903026414833
 40
0.6384868147751268
 40
0.8681963490447352
 40
1.132787077810316
 40
1.432082558539706
 40
1.765720323736116
 40
2.534380519955765
 40
3.435491204139643
 40
4.465608394731566
 40
5.62074018446522
 40
6.896804491685105
 40
8.29024345143296
 40
9.798699657863661
 40
11.41984738219396
 40
13.14096654097711
 40
13.14096654097711
 40
13.14096654097711
 40
13.14096654097711
 10
-1110.743397384731
 20
949.1872747067246
 30
0.0
 10
-1110.744751906465
 20
949.1878726445904
 30
0.0
 10
-1110.74565196556
 20
949.1778634778931
 30
0.0
 10
-1110.752700736438
 20
949.1702080933256
 30
0.0
 10
-1110.760919003969
 20
949.1473809601982
 30
0.0
 10
-1110.773988542827
 20
949.1201033296816
 30
0.0
 10
-1110.790099089994
 20
949.0831271634183
 30
0.0
 10
-1110.819018733324
 20
949.0184091292608
 30
0.0
 10
-1110.863949631178
 20
948.9169050828777
 30
0.0
 10
-1110.928654659485
 20
948.7711613406955
 30
0.0
 10
-1111.007613938249
 20
948.5932244522188
 30
0.0
 10
-1111.100853002982
 20
948.3833432046646
 30
0.0
 10
-1111.208341511195
 20
948.1416318901054
 30
0.0
 10
-1111.330026723276
 20
947.8683228579371
 30
0.0
 10
-1111.519876252561
 20
947.4414374168792
 30
0.0
 10
-1111.790243062972
 20
946.8308118629787
 30
0.0
 10
-1112.151543236866
 20
946.0065545501833
 30
0.0
 10
-1112.56016688031
 20
945.0623951711887
 30
0.0
 10
-1113.013080714051
 20
944.0012311676584
 30
0.0
 10
-1113.507159609695
 20
942.8259789867359
 30
0.0
 10
-1114.039625072095
 20
941.5391283828776
 30
0.0
 10
-1114.607883389499
 20
940.1426281771253
 30
0.0
 10
-1115.209504081234
 20
938.6418137030537
 30
0.0
 10
-1115.61527717693
 20
937.6041976567664
 30
0.0
 10
-1115.818901526292
 20
937.0678431639321
 30
0.0
 11
-1110.743397384731
 21
949.1872747067246
 31
0.0
 11
-1110.745341126706
 21
949.1832799150388
 31
0.0
 11
-1110.750868045511
 21
949.1711553097821
 31
0.0
 11
-1110.759976674565
 21
949.1508913975044
 31
0.0
 11
-1110.772665547285
 21
949.1224826151115
 31
0.0
 11
-1110.788933197091
 21
949.08594126978
 31
0.0
 11
-1110.808778157398
 21
949.0412847449284
 31
0.0
 11
-1110.859194143194
 21
948.9276956917215
 31
0.0
 11
-1110.923901772018
 21
948.78185452561
 31
0.0
 11
-1111.002889311213
 21
948.6039003167143
 31
0.0
 11
-1111.096145028125
 21
948.3939721351535
 31
0.0
 11
-1111.203657190096
 21
948.1522090510471
 31
0.0
 11
-1111.325352425013
 21
947.8787715724775
 31
0.0
 11
-1111.460900542723
 21
947.57390952783
 31
0.0
 11
-1111.771967164156
 21
946.8710040899127
 31
0.0
 11
-1112.133680528848
 21
946.0456775442226
 31
0.0
 11
-1112.542864111092
 21
945.1003150624306
 31
0.0
 11
-1112.996341385181
 21
944.0379178615067
 31
0.0
 11
-1113.490936884752
 21
942.861603530208
 31
0.0
 11
-1114.023755101781
 21
941.5740566850213
 31
0.0
 11
-1114.592554824816
 21
940.1769500337459
 31
0.0
 11
-1115.195044009577
 21
938.6719162417166
 31
0.0
 11
-1115.818901526292
 21
937.0678431639321
 31
0.0
  0
ARC
  5
D225
330
18
100
AcDbEntity
  8
01
100
AcDbCircle
 10
-1121.360205767588
 20
947.4488518967592
 30
0.0
 40
0.990180136717816
100
AcDbArc
 50
96.64916422680494
 51
162.7011763689517
  0
LINE
  5
D226
330
18
100
AcDbEntity
  8
01
100
AcDbLine
 10
-1124.327751762145
 20
943.521832681407
 30
0.0
 11
-1124.344666111399
 21
947.3199565239674
 31
0.0
  0
LINE
  5
D227
330
18
100
AcDbEntity
  8
01
100
AcDbLine
 10
-1124.327788766037
 20
943.522048132781
 30
0.0
 11
-1124.292364069313
 21
943.1740694785531
 31
0.0
  0
LINE
  5
D228
330
18
100
AcDbEntity
  8
01
100
AcDbLine
 10
-1115.638745404282
 20
933.006902570773
 30
0.0
 11
-1115.638745404282
 21
931.2159469371854
 31
0.0
  0
LINE
  5
D229
330
18
100
AcDbEntity
  8
01
100
AcDbLine
 10
-1139.438745392362
 20
961.2159469371854
 30
0.0
 11
-1115.638745404282
 21
961.2159469371854
 31
0.0
  0
ARC
  5
D22A
330
18
100
AcDbEntity
  8
01
100
AcDbCircle
 10
-1115.638745404282
 20
960.415946925265
 30
0.0
 40
0.800000011920929
100
AcDbArc
 50
0.0
 51
90.0
  0
LINE
  5
D22B
330
18
100
AcDbEntity
  8
01
100
AcDbLine
 10
-1114.838745392361
 20
960.4159469252645
 30
0.0
 11
-1114.838745392361
 21
950.7963816027227
 31
0.0
  0
LINE
  5
D22C
330
18
100
AcDbEntity
  8
1PHANTOM
100
AcDbLine
 10
-1115.638745404282
 20
961.2159469371854
 30
0.0
 11
-1115.638745404282
 21
949.9168469911328
 31
0.0
  0
LINE
  5
D22D
330
18
100
AcDbEntity
  8
01
100
AcDbLine
 10
-1121.474875382355
 20
949.9170167880848
 30
0.0
 11
-1115.638745404282
 21
949.9170167880848
 31
0.0
  0
ARC
  5
D427
330
18
100
AcDbEntity
  8
01
100
AcDbCircle
 10
-925.683388091214
 20
729.4296668409283
 30
0.0
 40
35.5
100
AcDbArc
 50
0.0000000000013028
 51
157.000000000001
  0
ARC
  5
D428
330
18
100
AcDbEntity
  8
01
100
AcDbCircle
 10
-925.683388091214
 20
729.4296668409283
 30
0.0
 40
54.5
100
AcDbArc
 50
0.0000000000013028
 51
157.000000000001
  0
ARC
  5
D429
330
18
100
AcDbEntity
  8
1CENTER
100
AcDbCircle
 10
-925.683388091214
 20
729.4296668409283
 30
0.0
 40
45.0
100
AcDbArc
 50
359.9999999999998
 51
157.0000000000009
  0
ARC
  5
D528
330
18
100
AcDbEntity
  8
01
100
AcDbCircle
 10
-1161.438745392362
 20
946.2159469371857
 30
0.0
 40
10.50000000000023
100
AcDbArc
 50
90.0
 51
205.208765296756
  0
ARC
  5
D529
330
18
100
AcDbEntity
  8
01
100
AcDbCircle
 10
-1161.438745392362
 20
946.2159469371857
 30
0.0
 40
10.50000000000023
100
AcDbArc
 50
334.791234703244
 51
90.0
  0
LINE
  5
D543
330
18
100
AcDbEntity
  8
01
100
AcDbLine
 10
-958.3613103887758
 20
743.3006219022975
 30
0.0
 11
-975.8509026043723
 21
750.7245133435937
 31
0.0
  0
LINE
  5
D546
330
18
100
AcDbEntity
  8
1CENTER
100
AcDbLine
 10
-967.1061064965743
 20
747.0125676229451
 30
0.0
 11
-974.5299979378706
 21
729.5229754073486
 31
0.0
  0
LINE
  5
D549
330
18
100
AcDbEntity
  8
01
100
AcDbLine
 10
-982.3542891922161
 20
732.844189999508
 30
0.0
 11
-966.7057066835248
 21
726.2017608151903
 31
0.0
  0
LINE
  5
D54B
330
18
100
AcDbEntity
  8
01
100
AcDbLine
 10
-975.8509026043725
 20
750.7245133435932
 30
0.0
 11
-982.8840629171793
 21
734.1554259814498
 31
0.0
  0
LINE
  5
D54C
330
18
100
AcDbEntity
  8
01
100
AcDbLine
 10
-958.361310388776
 20
743.3006219022969
 30
0.0
 11
-965.394470701583
 21
726.7315345401535
 31
0.0
  0
LINE
  5
D560
330
18
100
AcDbEntity
  8
1CENTER
100
AcDbLine
 10
-1146.08002551943
 20
729.5229754073486
 30
0.0
 11
-1174.537716226932
 21
729.5229754073486
 31
0.0
  0
ELLIPSE
  5
D563
330
18
100
AcDbEntity
  8
01
100
AcDbEllipse
 10
-1161.438745392362
 20
729.5229754073486
 30
0.0
 11
9.499999999999545
 21
0.0
 31
0.0
210
0.0
220
0.0
230
1.0
 40
0.3907311284892972
 41
0.0
 42
6.283185307179586
  0
SPLINE
  5
D565
330
18
100
AcDbEntity
  8
01
100
AcDbSpline
210
0.0
220
0.0
230
1.0
 70
     9
 71
     3
 72
    54
 73
    50
 74
     0
 42
0.0000000001
 43
0.0000000001
 40
0.0
 40
0.0
 40
0.0
 40
0.0
 40
0.1588465126102314
 40
0.1588465126102314
 40
0.3176930252204628
 40
0.3176930252204628
 40
0.4765395378306942
 40
0.4765395378306942
 40
0.7859160114025687
 40
0.7859160114025687
 40
1.095292484974443
 40
1.095292484974443
 40
1.404668958546318
 40
1.404668958546318
 40
1.848084433343414
 40
1.848084433343414
 40
2.291499908140509
 40
2.291499908140509
 40
2.572981035841313
 40
2.572981035841313
 40
2.800157880827742
 40
2.800157880827742
 40
2.97691130672232
 40
2.97691130672232
 40
3.153664732616899
 40
3.153664732616899
 40
3.330418158511477
 40
3.330418158511477
 40
3.507171584406056
 40
3.507171584406056
 40
3.683925010300634
 40
3.683925010300634
 40
4.015499790520956
 40
4.015499790520956
 40
4.347074570741277
 40
4.347074570741277
 40
4.678649350961598
 40
4.678649350961598
 40
5.109877853411286
 40
5.109877853411286
 40
5.541106355860974
 40
5.541106355860974
 40
5.794359169015482
 40
5.794359169015482
 40
6.003776279804216
 40
6.003776279804216
 40
6.171371206209112
 40
6.171371206209112
 40
6.283185307179586
 40
6.283185307179586
 40
6.283185307179586
 40
6.283185307179586
 10
-1152.938745392363
 20
729.5229754073486
 30
0.0
 10
-1152.938745392363
 20
729.5840064113291
 30
0.0
 10
-1152.949172990386
 20
729.6468086872707
 30
0.0
 10
-1153.01803004206
 20
729.8147565005947
 30
0.0
 10
-1153.07872140992
 20
729.9191471066487
 30
0.0
 10
-1153.279775445592
 20
730.1580481303768
 30
0.0
 10
-1153.419789996502
 20
730.2914034542707
 30
0.0
 10
-1153.952996879685
 20
730.694991807389
 30
0.0
 10
-1154.460293924998
 20
730.9723894696785
 30
0.0
 10
-1155.716345897538
 20
731.4626600399466
 30
0.0
 10
-1156.464037639904
 20
731.6771951822448
 30
0.0
 10
-1158.109988189332
 20
732.0083458181117
 30
0.0
 10
-1159.008117072208
 20
732.1253522371246
 30
0.0
 10
-1161.258981471146
 20
732.2728174974111
 30
0.0
 10
-1162.639603648231
 20
732.2426314087363
 30
0.0
 10
-1165.218048518376
 20
731.9558823517408
 30
0.0
 10
-1166.414895116926
 20
731.6984127715277
 30
0.0
 10
-1167.998081551129
 20
731.1550878585957
 30
0.0
 10
-1168.520802228188
 20
730.9140387875398
 30
0.0
 10
-1169.246243088275
 20
730.4704594101654
 30
0.0
 10
-1169.490051677364
 20
730.2695428026411
 30
0.0
 10
-1169.775431070998
 20
729.9557508129234
 30
0.0
 10
-1169.84958983386
 20
729.8351054922127
 30
0.0
 10
-1169.930394506071
 20
729.64512061822
 30
0.0
 10
-1169.940633934122
 20
729.5771373594645
 30
0.0
 10
-1169.936426364535
 20
729.4409596104418
 30
0.0
 10
-1169.921221437861
 20
729.3670904692437
 30
0.0
 10
-1169.821924350685
 20
729.1640657641417
 30
0.0
 10
-1169.73498319452
 20
729.0370294244944
 30
0.0
 10
-1169.458264946285
 20
728.7545673527288
 30
0.0
 10
-1169.269361039402
 20
728.6003839162526
 30
0.0
 10
-1168.585341901914
 20
728.156863199692
 30
0.0
 10
-1167.967462626748
 20
727.8696603499427
 30
0.0
 10
-1166.483227308598
 20
727.3842621269885
 30
0.0
 10
-1165.617557152684
 20
727.1843981562854
 30
0.0
 10
-1163.751937539929
 20
726.9055854321922
 30
0.0
 10
-1162.752189858825
 20
726.8263247475553
 30
0.0
 10
-1160.437458450592
 20
726.7957977731114
 30
0.0
 10
-1159.118742622686
 20
726.8911072309255
 30
0.0
 10
-1156.727527040589
 20
727.2833697219953
 30
0.0
 10
-1155.655786978657
 20
727.5818414302308
 30
0.0
 10
-1154.342894799372
 20
728.1413166083847
 30
0.0
 10
-1153.941679846831
 20
728.3666552564704
 30
0.0
 10
-1153.396711275878
 20
728.7670005976886
 30
0.0
 10
-1153.221737657813
 20
728.9433290086038
 30
0.0
 10
-1153.026340563229
 20
729.2094281489431
 30
0.0
 10
-1152.981456000083
 20
729.3074392170264
 30
0.0
 10
-1152.944307614618
 20
729.4367117246691
 30
0.0
 10
-1152.938745392363
 20
729.4800148995648
 30
0.0
 10
-1152.938745392363
 20
729.5229754073486
 30
0.0
  0
ELLIPSE
  5
D567
330
18
100
AcDbEntity
  8
01
100
AcDbEllipse
 10
-1161.438745392362
 20
746.9401088175858
 30
0.0
 11
9.499999999999545
 21
0.0
 31
0.0
210
0.0
220
0.0
230
1.0
 40
0.3907311284892972
 41
6.283185307179586
 42
9.42477796076938
  0
ELLIPSE
  5
D56F
330
18
100
AcDbEntity
  8
01
100
AcDbEllipse
 10
-1161.438745392362
 20
852.369337090529
 30
0.0
 11
9.500000000000229
 21
0.03301245693569342
 31
0.0
210
0.0
220
0.0
230
1.0
 40
0.9204992956815277
 41
3.135195213649628
 42
6.283185307179586
  0
ELLIPSE
  5
D572
330
18
100
AcDbEntity
  8
01
100
AcDbEllipse
 10
-1161.46913333572
 20
859.9638779810333
 30
0.0
 11
9.500000000000229
 21
0.03301245693569342
 31
0.0
210
0.0
220
0.0
230
1.0
 40
0.9204992956815277
 41
3.135195213649628
 42
6.283185307179586
  0
ARC
  5
D59B
330
18
100
AcDbEntity
  8
01
100
AcDbCircle
 10
-981.9635580637269
 20
733.7646948529605
 30
0.0
 40
1.0
100
AcDbArc
 50
157.0
 51
247.0000000000002
  0
ARC
  5
D59C
330
18
100
AcDbEntity
  8
01
100
AcDbCircle
 10
-966.3149755550355
 20
727.1222656686427
 30
0.0
 40
1.0
100
AcDbArc
 50
247.0000000000002
 51
336.9999999999999
  0
LINE
  5
D97B
330
18
100
AcDbEntity
  8
01
100
AcDbLine
 10
-1113.938745392363
 20
660.0056828089341
 30
0.0
 11
-1113.938745392363
 21
632.4296668409303
 31
0.0
  0
LINE
  5
D97E
330
18
100
AcDbEntity
  8
01
100
AcDbLine
 10
-1139.438745392363
 20
631.4296668409294
 30
0.0
 11
-1113.163406864393
 21
631.4296668409304
 31
0.0
  0
ARC
  5
D97F
330
18
100
AcDbEntity
  8
01
100
AcDbCircle
 10
-1114.938745392363
 20
632.4296668409303
 30
0.0
 40
1.0
100
AcDbArc
 50
270.0000000000022
 51
0.0000000000004905
  0
LINE
  5
D982
330
18
100
AcDbEntity
  8
01
100
AcDbLine
 10
-1114.938745392363
 20
661.0056828089341
 30
0.0
 11
-1126.244537080637
 21
661.0056828089341
 31
0.0
  0
ARC
  5
D983
330
18
100
AcDbEntity
  8
01
100
AcDbCircle
 10
-1114.938745392363
 20
660.0056828089344
 30
0.0
 40
1.0
100
AcDbArc
 50
359.9999999999886
 51
90.00000000001303
  0
LINE
  5
D984
330
18
100
AcDbEntity
  8
01
100
AcDbLine
 10
-1127.112639414102
 20
661.4296668409293
 30
0.0
 11
-1139.438745392363
 21
661.4296668409296
 31
0.0
  0
ARC
  5
DB93
330
18
100
AcDbEntity
  8
01
100
AcDbCircle
 10
-950.4257711878679
 20
652.4296668409381
 30
0.0
 40
72.5
100
AcDbArc
 50
343.1737037380113
 51
8.171447342036897
  0
ARC
  5
DB94
330
18
100
AcDbEntity
  8
01
100
AcDbCircle
 10
-950.4257711878679
 20
652.4296668409381
 30
0.0
 40
72.5
100
AcDbArc
 50
8.171447342036897
 51
33.21913994100354
  0
ARC
  5
DB95
330
18
100
AcDbEntity
  8
01
100
AcDbCircle
 10
-876.6821558751117
 20
663.018774480595
 30
0.0
 40
2.0
100
AcDbArc
 50
188.1714473420371
 51
257.377195629618
  0
ARC
  5
DB96
330
18
100
AcDbEntity
  8
01
100
AcDbCircle
 10
-890.4428883536277
 20
691.7099897379553
 30
0.0
 40
0.8
100
AcDbArc
 50
33.21913994100549
 51
123.8584366594485
  0
ARC
  5
DB97
330
18
100
AcDbEntity
  8
01
100
AcDbCircle
 10
-950.4257711878679
 20
652.4296668409381
 30
0.0
 40
67.5
100
AcDbArc
 50
342.8187799468355
 51
8.911385605254418
  0
ARC
  5
DB98
330
18
100
AcDbEntity
  8
01
100
AcDbCircle
 10
-950.4257711878679
 20
652.4296668409381
 30
0.0
 40
67.5
100
AcDbArc
 50
8.91138560525445
 51
33.18731408597949
  0
ARC
  5
DB99
330
18
100
AcDbEntity
  8
01
100
AcDbCircle
 10
-893.2664895263495
 20
689.8155802300656
 30
0.0
 40
0.8
100
AcDbArc
 50
123.8584366594642
 51
213.1873140859799
  0
ARC
  5
DB9A
330
18
100
AcDbEntity
  8
01
100
AcDbCircle
 10
-880.3971939260116
 20
646.4296668409307
 30
0.0
 40
15.0
100
AcDbArc
 50
108.2338049342187
 51
257.8829109203038
  0
ARC
  5
DB9B
330
18
100
AcDbEntity
  8
01
100
AcDbCircle
 10
-885.7164149552641
 20
662.5760561475824
 30
0.0
 40
2.0
100
AcDbArc
 50
288.2338049342194
 51
8.911385605254987
  0
ARC
  5
DB9C
330
18
100
AcDbEntity
  8
01
100
AcDbCircle
 10
-880.3971939260116
 20
646.4296668409307
 30
0.0
 40
15.0
100
AcDbArc
 50
257.8829109203038
 51
77.37719562961627
  0
LINE
  5
DB9D
330
18
100
AcDbEntity
  8
01
100
AcDbLine
 10
-890.8886026393418
 20
692.3743230695819
 30
0.0
 11
-893.712203812064
 21
690.4799135616925
 31
0.0
  0
LINE
  5
E039
330
18
100
AcDbEntity
  8
01
100
AcDbLine
 10
-1139.438745392363
 20
661.4296668409296
 30
0.0
 11
-1139.438745392363
 21
631.4296668409294
 31
0.0
  0
LINE
  5
E03A
330
18
100
AcDbEntity
  8
01
100
AcDbLine
 10
-1138.938745392363
 20
631.4296668409291
 30
0.0
 11
-1112.743257923311
 21
631.4296668409291
 31
0.0
  0
ARC
  5
E03B
330
18
100
AcDbEntity
  8
01
100
AcDbCircle
 10
-1360.938745392363
 20
652.4296668409291
 30
0.0
 40
250.0
100
AcDbArc
 50
355.3929665516781
 51
8.80187861942172
  0
ARC
  5
E03C
330
18
100
AcDbEntity
  8
01
100
AcDbCircle
 10
-1112.743257923311
 20
632.4296668409291
 30
0.0
 40
1.0
100
AcDbArc
 50
270.0
 51
355.3929665516845
  0
ARC
  5
E03D
330
18
100
AcDbEntity
  8
01
100
AcDbCircle
 10
-1116.056995594594
 20
690.3475862983993
 30
0.0
 40
2.2
100
AcDbArc
 50
8.801878619421004
 51
90.0
  0
LINE
  5
E03E
330
18
100
AcDbEntity
  8
01
100
AcDbLine
 10
-1116.056995594594
 20
692.5475862983993
 30
0.0
 11
-1125.23175797511
 21
692.5475862983993
 31
0.0
  0
ARC
  5
E03F
330
18
100
AcDbEntity
  8
01
100
AcDbCircle
 10
-1474.938745392363
 20
652.429666840929
 30
0.0
 40
350.0
100
AcDbArc
 50
1.811375212402595
 51
6.253039684454635
  0
ARC
  5
E040
330
18
100
AcDbEntity
  8
01
100
AcDbCircle
 10
-1127.112639414102
 20
663.429666840929
 30
0.0
 40
2.0
100
AcDbArc
 50
270.0
 51
1.811375212402595
  0
ARC
  5
E041
330
18
100
AcDbEntity
  8
01
100
AcDbCircle
 10
-1125.23175797511
 20
690.7475862983993
 30
0.0
 40
1.8
100
AcDbArc
 50
90.0
 51
186.2530396844516
  0
LINE
  5
E04F
330
18
100
AcDbEntity
  8
01
100
AcDbLine
 10
-1124.898951482862
 20
689.3776778770451
 30
0.0
 11
-1115.587128872247
 21
689.3776778770451
 31
0.0
  0
ARC
  5
E050
330
18
100
AcDbEntity
  8
01
100
AcDbCircle
 10
-1124.898951482862
 20
687.5776778770446
 30
0.0
 40
1.8
100
AcDbArc
 50
90.0
 51
185.7339343839099
  0
ARC
  5
E051
330
18
100
AcDbEntity
  8
01
100
AcDbCircle
 10
-1115.587128872247
 20
687.1776778770446
 30
0.0
 40
2.2
100
AcDbArc
 50
8.060926023082102
 51
89.99999999999409
  0
LINE
  5
E073
330
18
100
AcDbEntity
  8
01
100
AcDbLine
 10
-1174.938745392362
 20
683.4296668409288
 30
0.0
 11
-1147.938745392362
 21
683.429666840929
 31
0.0
  0
LINE
  5
E074
330
18
100
AcDbEntity
  8
1DIM
100
AcDbLine
 10
-1164.861765225315
 20
621.4296668409283
 30
0.0
 11
-1158.149948027544
 21
621.4296668409285
 31
0.0
  0
LINE
  5
E170
330
18
100
AcDbEntity
  8
01
100
AcDbLine
 10
-1156.75452317014
 20
622.4296668409263
 30
0.0
 11
-1156.438745392363
 21
622.4296668409263
 31
0.0
  0
LINE
  5
E171
330
18
100
AcDbEntity
  8
01
100
AcDbLine
 10
-1157.859856503472
 20
620.4823112853726
 30
0.0
 11
-1157.544078725695
 21
620.4823112853726
 31
0.0
  0
LINE
  5
E172
330
18
100
AcDbEntity
  8
01
100
AcDbLine
 10
-1156.438745392363
 20
620.4296668409283
 30
0.0
 11
-1157.544078725695
 21
621.6693779520381
 31
0.0
  0
LINE
  5
E173
330
18
100
AcDbEntity
  8
01
100
AcDbLine
 10
-1157.544078725695
 20
621.6693779520381
 30
0.0
 11
-1157.544078725695
 21
620.4823112853726
 31
0.0
  0
LINE
  5
E174
330
18
100
AcDbEntity
  8
01
100
AcDbLine
 10
-1157.859856503472
 20
622.4823112853705
 30
0.0
 11
-1157.859856503472
 21
620.4823112853726
 31
0.0
  0
LINE
  5
E175
330
18
100
AcDbEntity
  8
01
100
AcDbLine
 10
-1156.438745392363
 20
622.4296668409263
 30
0.0
 11
-1156.438745392363
 21
620.4296668409283
 31
0.0
  0
LINE
  5
E176
330
18
100
AcDbEntity
  8
01
100
AcDbLine
 10
-1156.75452317014
 20
621.2425779520386
 30
0.0
 11
-1157.859856503472
 21
622.4822890631485
 31
0.0
  0
LINE
  5
E177
330
18
100
AcDbEntity
  8
01
100
AcDbLine
 10
-1156.75452317014
 20
622.4296668409263
 30
0.0
 11
-1156.75452317014
 21
621.2425779520386
 31
0.0
  0
LINE
  5
E178
330
18
100
AcDbEntity
  8
01
100
AcDbLine
 10
-1158.067189836804
 20
622.4296668409263
 30
0.0
 11
-1158.387189836804
 21
622.4296668409263
 31
0.0
  0
LINE
  5
E179
330
18
100
AcDbEntity
  8
01
100
AcDbLine
 10
-1159.087189836804
 20
622.4296668409263
 30
0.0
 11
-1159.407189836804
 21
622.4296668409263
 31
0.0
  0
LINE
  5
E17A
330
18
100
AcDbEntity
  8
01
100
AcDbLine
 10
-1159.927189836804
 20
622.4296668409263
 30
0.0
 11
-1159.607189836804
 21
622.4296668409263
 31
0.0
  0
ARC
  5
E17B
330
18
100
AcDbEntity
  8
01
100
AcDbCircle
 10
-1158.647189836804
 20
621.033782268245
 30
0.0
 40
0.26
100
AcDbArc
 50
299.9999999999698
 51
0.0
  0
ARC
  5
E17C
330
18
100
AcDbEntity
  8
01
100
AcDbCircle
 10
-1158.827189836804
 20
621.033782268245
 30
0.0
 40
0.26
100
AcDbArc
 50
180.0
 51
240.0000000000229
  0
ARC
  5
E17D
330
18
100
AcDbEntity
  8
01
100
AcDbCircle
 10
-1158.737189836804
 20
621.1896668409263
 30
0.0
 40
0.4399999999999977
100
AcDbArc
 50
240.0000000000229
 51
299.9999999999698
  0
ARC
  5
E17E
330
18
100
AcDbEntity
  8
01
100
AcDbCircle
 10
-1158.737189836804
 20
621.1896668409263
 30
0.0
 40
0.7600000000000016
100
AcDbArc
 50
240.0000000000229
 51
299.9999999999771
  0
ARC
  5
E17F
330
18
100
AcDbEntity
  8
01
100
AcDbCircle
 10
-1158.827189836804
 20
621.033782268245
 30
0.0
 40
0.58
100
AcDbArc
 50
180.0
 51
240.0000000000229
  0
LINE
  5
E180
330
18
100
AcDbEntity
  8
01
100
AcDbLine
 10
-1160.444614519408
 20
620.7896668409262
 30
0.0
 11
-1160.127189836804
 21
620.7896668409262
 31
0.0
  0
ARC
  5
E181
330
18
100
AcDbEntity
  8
01
100
AcDbCircle
 10
-1160.127189836804
 20
620.9896668409262
 30
0.0
 40
0.2
100
AcDbArc
 50
270.0
 51
0.0
  0
LINE
  5
E182
330
18
100
AcDbEntity
  8
01
100
AcDbLine
 10
-1161.385634281246
 20
621.2980890631495
 30
0.0
 11
-1161.018078725691
 21
621.2980890631495
 31
0.0
  0
LINE
  5
E183
330
18
100
AcDbEntity
  8
01
100
AcDbLine
 10
-1160.656488577214
 20
620.4896668409262
 30
0.0
 11
-1160.127189836804
 21
620.4896668409262
 31
0.0
  0
LINE
  5
E184
330
18
100
AcDbEntity
  8
01
100
AcDbLine
 10
-1160.656488577214
 20
620.4896668409262
 30
0.0
 11
-1160.888523170136
 21
621.0086223964831
 31
0.0
  0
ARC
  5
E185
330
18
100
AcDbEntity
  8
01
100
AcDbCircle
 10
-1160.127189836804
 20
621.0096668409262
 30
0.0
 40
0.52
100
AcDbArc
 50
270.0
 51
0.0
  0
LINE
  5
E186
330
18
100
AcDbEntity
  8
01
100
AcDbLine
 10
-1160.444614519408
 20
620.7896668409262
 30
0.0
 11
-1161.201856503469
 21
622.4822890631485
 31
0.0
  0
LINE
  5
E187
330
18
100
AcDbEntity
  8
01
100
AcDbLine
 10
-1161.385634281246
 20
621.2980890631495
 30
0.0
 11
-1161.201856503469
 21
621.7090001742604
 31
0.0
  0
LINE
  5
E188
330
18
100
AcDbEntity
  8
01
100
AcDbLine
 10
-1161.018078725691
 20
621.2980890631495
 30
0.0
 11
-1161.201856503469
 21
621.7090001742604
 31
0.0
  0
LINE
  5
E189
330
18
100
AcDbEntity
  8
01
100
AcDbLine
 10
-1159.407189836804
 20
622.4296668409263
 30
0.0
 11
-1159.407189836804
 21
621.033782268245
 31
0.0
  0
LINE
  5
E18A
330
18
100
AcDbEntity
  8
01
100
AcDbLine
 10
-1158.067189836804
 20
622.4296668409263
 30
0.0
 11
-1158.067189836804
 21
621.033782268245
 31
0.0
  0
LINE
  5
E18B
330
18
100
AcDbEntity
  8
01
100
AcDbLine
 10
-1158.387189836804
 20
622.4296668409263
 30
0.0
 11
-1158.387189836804
 21
621.033782268245
 31
0.0
  0
LINE
  5
E18C
330
18
100
AcDbEntity
  8
01
100
AcDbLine
 10
-1159.087189836804
 20
622.4296668409263
 30
0.0
 11
-1159.087189836804
 21
621.033782268245
 31
0.0
  0
LINE
  5
E18D
330
18
100
AcDbEntity
  8
01
100
AcDbLine
 10
-1159.607189836804
 20
622.4296668409263
 30
0.0
 11
-1159.607189836804
 21
621.0096668409262
 31
0.0
  0
LINE
  5
E18E
330
18
100
AcDbEntity
  8
01
100
AcDbLine
 10
-1159.927189836804
 20
622.4296668409263
 30
0.0
 11
-1159.927189836804
 21
620.9896668409262
 31
0.0
  0
ARC
  5
E18F
330
18
100
AcDbEntity
  8
01
100
AcDbCircle
 10
-1158.647189836804
 20
621.033782268245
 30
0.0
 40
0.58
100
AcDbArc
 50
299.9999999999771
 51
0.0
  0
LINE
  5
E190
330
18
100
AcDbEntity
  8
01
100
AcDbLine
 10
-1161.796300947913
 20
622.4296668409263
 30
0.0
 11
-1161.46496761458
 21
622.4296668409263
 31
0.0
  0
LINE
  5
E191
330
18
100
AcDbEntity
  8
01
100
AcDbLine
 10
-1164.096745392355
 20
622.4296668409263
 30
0.0
 11
-1163.765412059022
 21
622.4296668409263
 31
0.0
  0
LINE
  5
E192
330
18
100
AcDbEntity
  8
01
100
AcDbLine
 10
-1162.096745392357
 20
620.4823112853726
 30
0.0
 11
-1161.750745392357
 21
620.4823112853726
 31
0.0
  0
LINE
  5
E193
330
18
100
AcDbEntity
  8
01
100
AcDbLine
 10
-1161.750745392357
 20
620.4822890631503
 30
0.0
 11
-1161.515189836802
 21
621.0086223964831
 31
0.0
  0
LINE
  5
E194
330
18
100
AcDbEntity
  8
01
100
AcDbLine
 10
-1164.699412059021
 20
621.0086223964831
 30
0.0
 11
-1164.072745392355
 21
621.0086223964831
 31
0.0
  0
LINE
  5
E195
330
18
100
AcDbEntity
  8
01
100
AcDbLine
 10
-1164.569856503465
 20
621.2980890631495
 30
0.0
 11
-1164.20230094791
 21
621.2980890631495
 31
0.0
  0
LINE
  5
E196
330
18
100
AcDbEntity
  8
01
100
AcDbLine
 10
-1163.837412059022
 20
620.4823112853726
 30
0.0
 11
-1163.491412059022
 21
620.4823112853726
 31
0.0
  0
LINE
  5
E197
330
18
100
AcDbEntity
  8
01
100
AcDbLine
 10
-1163.837412059022
 20
620.4822890631503
 30
0.0
 11
-1164.072745392355
 21
621.0086223964831
 31
0.0
  0
LINE
  5
E198
330
18
100
AcDbEntity
  8
01
100
AcDbLine
 10
-1163.491412059022
 20
620.4822890631503
 30
0.0
 11
-1164.386078725688
 21
622.4822890631485
 31
0.0
  0
LINE
  5
E199
330
18
100
AcDbEntity
  8
01
100
AcDbLine
 10
-1162.307189836801
 20
620.4296668409283
 30
0.0
 11
-1162.780745392356
 21
621.6896223964825
 31
0.0
  0
LINE
  5
E19A
330
18
100
AcDbEntity
  8
01
100
AcDbLine
 10
-1162.307189836801
 20
620.4296668409283
 30
0.0
 11
-1161.46496761458
 21
622.4296668409263
 31
0.0
  0
LINE
  5
E19B
330
18
100
AcDbEntity
  8
01
100
AcDbLine
 10
-1163.254523170134
 20
620.4296668409283
 30
0.0
 11
-1162.780745392356
 21
621.6896223964825
 31
0.0
  0
LINE
  5
E19C
330
18
100
AcDbEntity
  8
01
100
AcDbLine
 10
-1163.254523170134
 20
620.4296668409283
 30
0.0
 11
-1164.096745392355
 21
622.4296668409263
 31
0.0
  0
LINE
  5
E19D
330
18
100
AcDbEntity
  8
01
100
AcDbLine
 10
-1163.255634281245
 20
621.2191557298163
 30
0.0
 11
-1162.780745392356
 21
622.4822890631485
 31
0.0
  0
LINE
  5
E19E
330
18
100
AcDbEntity
  8
01
100
AcDbLine
 10
-1163.255634281245
 20
621.2191557298163
 30
0.0
 11
-1163.765412059022
 21
622.4296668409263
 31
0.0
  0
LINE
  5
E19F
330
18
100
AcDbEntity
  8
01
100
AcDbLine
 10
-1164.20230094791
 20
621.2980890631495
 30
0.0
 11
-1164.386078725688
 21
621.7090001742604
 31
0.0
  0
LINE
  5
E1A0
330
18
100
AcDbEntity
  8
01
100
AcDbLine
 10
-1164.569856503465
 20
621.2980890631495
 30
0.0
 11
-1164.386078725688
 21
621.7090001742604
 31
0.0
  0
LINE
  5
E1A1
330
18
100
AcDbEntity
  8
01
100
AcDbLine
 10
-1162.305856503468
 20
621.2191557298163
 30
0.0
 11
-1161.796300947913
 21
622.4296668409263
 31
0.0
  0
LINE
  5
E1A2
330
18
100
AcDbEntity
  8
01
100
AcDbLine
 10
-1162.305856503468
 20
621.2191557298163
 30
0.0
 11
-1162.780745392356
 21
622.4822890631485
 31
0.0
  0
LINE
  5
E1A3
330
18
100
AcDbEntity
  8
01
100
AcDbLine
 10
-1165.412523170131
 20
622.4296668409263
 30
0.0
 11
-1165.009189836798
 21
622.4296668409263
 31
0.0
  0
LINE
  5
E1A4
330
18
100
AcDbEntity
  8
01
100
AcDbLine
 10
-1166.438745392353
 20
622.4296668409263
 30
0.0
 11
-1166.122967614575
 21
622.4296668409263
 31
0.0
  0
LINE
  5
E1A5
330
18
100
AcDbEntity
  8
01
100
AcDbLine
 10
-1165.009189836798
 20
622.4296668409263
 30
0.0
 11
-1165.731634281242
 21
621.5197779520383
 31
0.0
  0
LINE
  5
E1A6
330
18
100
AcDbEntity
  8
01
100
AcDbLine
 10
-1165.412523170131
 20
622.4296668409263
 30
0.0
 11
-1166.122967614575
 21
621.5349335075939
 31
0.0
  0
LINE
  5
E1A7
330
18
100
AcDbEntity
  8
01
100
AcDbLine
 10
-1165.412523170131
 20
620.4823112853726
 30
0.0
 11
-1164.934967614576
 21
620.4823112853726
 31
0.0
  0
LINE
  5
E1A8
330
18
100
AcDbEntity
  8
01
100
AcDbLine
 10
-1166.438745392353
 20
620.4823112853726
 30
0.0
 11
-1166.122967614575
 21
620.4823112853726
 31
0.0
  0
LINE
  5
E1A9
330
18
100
AcDbEntity
  8
01
100
AcDbLine
 10
-1165.18141205902
 20
620.7045335075945
 30
0.0
 11
-1165.731634281242
 21
621.5197779520383
 31
0.0
  0
LINE
  5
E1AA
330
18
100
AcDbEntity
  8
01
100
AcDbLine
 10
-1165.412523170131
 20
620.4822890631503
 30
0.0
 11
-1166.122967614575
 21
621.5349335075939
 31
0.0
  0
LINE
  5
E1AB
330
18
100
AcDbEntity
  8
01
100
AcDbLine
 10
-1166.122967614575
 20
622.4296668409263
 30
0.0
 11
-1166.122967614575
 21
620.4823112853726
 31
0.0
  0
LINE
  5
E1AC
330
18
100
AcDbEntity
  8
01
100
AcDbLine
 10
-1166.438745392353
 20
622.4296668409263
 30
0.0
 11
-1166.438745392353
 21
620.4823112853726
 31
0.0
  0
LINE
  5
E1AD
330
18
100
AcDbEntity
  8
01
100
AcDbLine
 10
-1165.18141205902
 20
620.7045335075945
 30
0.0
 11
-1164.386078725688
 21
622.4823112853705
 31
0.0
  0
LINE
  5
E1AE
330
18
100
AcDbEntity
  8
01
100
AcDbLine
 10
-1164.934967614576
 20
620.4822890631503
 30
0.0
 11
-1164.699412059021
 21
621.0086223964831
 31
0.0
  0
LINE
  5
E1AF
330
18
100
AcDbEntity
  8
01
100
AcDbLine
 10
-1162.096745392357
 20
620.4822890631503
 30
0.0
 11
-1161.201856503469
 21
622.4822890631485
 31
0.0
  0
LINE
  5
E1B0
330
18
100
AcDbEntity
  8
01
100
AcDbLine
 10
-1161.515189836802
 20
621.0086223964831
 30
0.0
 11
-1160.888523170136
 21
621.0086223964831
 31
0.0
  0
LINE
  5
E445
330
18
100
AcDbEntity
  8
01
100
AcDbLine
 10
-864.683388091215
 20
612.4096668409279
 30
0.0
 11
-880.6833880912147
 21
612.4096668409278
 31
0.0
  0
LINE
  5
E446
330
18
100
AcDbEntity
  8
01
100
AcDbLine
 10
-896.6833880912145
 20
612.4096668409278
 30
0.0
 11
-880.6833880912147
 21
612.4096668409278
 31
0.0
  0
LINE
  5
E447
330
18
100
AcDbEntity
  8
01
100
AcDbLine
 10
-896.6833880912145
 20
612.4096668409278
 30
0.0
 11
-896.6833880912145
 21
614.4296668409282
 31
0.0
  0
LINE
  5
E448
330
18
100
AcDbEntity
  8
01
100
AcDbLine
 10
-864.683388091215
 20
612.4096668409278
 30
0.0
 11
-864.683388091215
 21
614.4296668409282
 31
0.0
  0
LINE
  5
E449
330
18
100
AcDbEntity
  8
01
100
AcDbLine
 10
-862.7033880912145
 20
603.4096668409278
 30
0.0
 11
-862.7033880912145
 21
601.9096668409278
 31
0.0
  0
LINE
  5
E44A
330
18
100
AcDbEntity
  8
01
100
AcDbLine
 10
-898.7033880912147
 20
603.4096668409278
 30
0.0
 11
-898.7033880912147
 21
601.9096668409278
 31
0.0
  0
LINE
  5
E44B
330
18
100
AcDbEntity
  8
01
100
AcDbLine
 10
-898.7033880912147
 20
602.6596668409278
 30
0.0
 11
-880.7033880912147
 21
602.6596668409278
 31
0.0
  0
LINE
  5
E44C
330
18
100
AcDbEntity
  8
01
100
AcDbLine
 10
-880.7033880912147
 20
602.6596668409278
 30
0.0
 11
-862.7033880912145
 21
602.6596668409278
 31
0.0
  0
LINE
  5
E44D
330
18
100
AcDbEntity
  8
01
100
AcDbLine
 10
-898.7033880912147
 20
601.9096668409278
 30
0.0
 11
-880.7033880912147
 21
601.9096668409278
 31
0.0
  0
LINE
  5
E44E
330
18
100
AcDbEntity
  8
01
100
AcDbLine
 10
-880.7033880912147
 20
601.9096668409278
 30
0.0
 11
-862.7033880912145
 21
601.9096668409278
 31
0.0
  0
LINE
  5
E44F
330
18
100
AcDbEntity
  8
01
100
AcDbLine
 10
-862.7033880912145
 20
603.4096668409278
 30
0.0
 11
-898.7033880912147
 21
603.4096668409278
 31
0.0
  0
LINE
  5
E450
330
18
100
AcDbEntity
  8
01
100
AcDbLine
 10
-860.7033880912145
 20
601.4096668409278
 30
0.0
 11
-860.7033880912145
 21
600.4096668409278
 31
0.0
  0
LINE
  5
E451
330
18
100
AcDbEntity
  8
01
100
AcDbLine
 10
-869.8903880912146
 20
601.4096668409278
 30
0.0
 11
-870.0783880912147
 21
601.9096668409278
 31
0.0
  0
LINE
  5
E452
330
18
100
AcDbEntity
  8
01
100
AcDbLine
 10
-870.6273880912147
 20
601.4096668409278
 30
0.0
 11
-870.0783880912147
 21
601.9096668409278
 31
0.0
  0
LINE
  5
E453
330
18
100
AcDbEntity
  8
01
100
AcDbLine
 10
-872.0513880912147
 20
601.4096668409278
 30
0.0
 11
-872.9253880912147
 21
601.9096668409278
 31
0.0
  0
LINE
  5
E454
330
18
100
AcDbEntity
  8
01
100
AcDbLine
 10
-874.0643880912148
 20
601.4096668409278
 30
0.0
 11
-872.9253880912147
 21
601.9096668409278
 31
0.0
  0
LINE
  5
E455
330
18
100
AcDbEntity
  8
01
100
AcDbLine
 10
-876.5293880912145
 20
601.4096668409278
 30
0.0
 11
-877.8563880912147
 21
601.9096668409278
 31
0.0
  0
LINE
  5
E456
330
18
100
AcDbEntity
  8
01
100
AcDbLine
 10
-880.7033880912147
 20
601.9096668409278
 30
0.0
 11
-870.0783880912147
 21
601.9096668409278
 31
0.0
  0
LINE
  5
E457
330
18
100
AcDbEntity
  8
01
100
AcDbLine
 10
-879.2793880912145
 20
601.4096668409278
 30
0.0
 11
-877.8563880912147
 21
601.9096668409278
 31
0.0
  0
LINE
  5
E458
330
18
100
AcDbEntity
  8
01
100
AcDbLine
 10
-860.7033880912145
 20
601.4096668409278
 30
0.0
 11
-880.7033880912147
 21
601.4096668409278
 31
0.0
  0
LINE
  5
E459
330
18
100
AcDbEntity
  8
01
100
AcDbLine
 10
-882.1273880912147
 20
601.4096668409278
 30
0.0
 11
-883.5503880912147
 21
601.9096668409278
 31
0.0
  0
LINE
  5
E45A
330
18
100
AcDbEntity
  8
01
100
AcDbLine
 10
-884.8773880912147
 20
601.4096668409278
 30
0.0
 11
-883.5503880912147
 21
601.9096668409278
 31
0.0
  0
LINE
  5
E45B
330
18
100
AcDbEntity
  8
01
100
AcDbLine
 10
-887.3423880912146
 20
601.4096668409278
 30
0.0
 11
-888.4813880912147
 21
601.9096668409278
 31
0.0
  0
LINE
  5
E45C
330
18
100
AcDbEntity
  8
01
100
AcDbLine
 10
-889.3553880912145
 20
601.4096668409278
 30
0.0
 11
-888.4813880912147
 21
601.9096668409278
 31
0.0
  0
LINE
  5
E45D
330
18
100
AcDbEntity
  8
01
100
AcDbLine
 10
-891.5163880912146
 20
601.4096668409278
 30
0.0
 11
-891.3283880912147
 21
601.9096668409278
 31
0.0
  0
LINE
  5
E45E
330
18
100
AcDbEntity
  8
01
100
AcDbLine
 10
-890.7793880912145
 20
601.4096668409278
 30
0.0
 11
-891.3283880912147
 21
601.9096668409278
 31
0.0
  0
LINE
  5
E45F
330
18
100
AcDbEntity
  8
01
100
AcDbLine
 10
-880.7033880912147
 20
601.9096668409278
 30
0.0
 11
-891.3283880912147
 21
601.9096668409278
 31
0.0
  0
LINE
  5
E460
330
18
100
AcDbEntity
  8
01
100
AcDbLine
 10
-900.7033880912147
 20
601.4096668409278
 30
0.0
 11
-880.7033880912147
 21
601.4096668409278
 31
0.0
  0
LINE
  5
E461
330
18
100
AcDbEntity
  8
01
100
AcDbLine
 10
-900.7033880912147
 20
601.4096668409278
 30
0.0
 11
-900.7033880912147
 21
600.4096668409278
 31
0.0
  0
LINE
  5
E462
330
18
100
AcDbEntity
  8
01
100
AcDbLine
 10
-896.7033880912147
 20
600.4096668409278
 30
0.0
 11
-891.7033880912147
 21
599.9096668409278
 31
0.0
  0
LINE
  5
E463
330
18
100
AcDbEntity
  8
01
100
AcDbLine
 10
-891.7033880912147
 20
600.4096668409278
 30
0.0
 11
-891.7033880912147
 21
599.9096668409278
 31
0.0
  0
LINE
  5
E464
330
18
100
AcDbEntity
  8
01
100
AcDbLine
 10
-891.5163880912146
 20
600.4096668409278
 30
0.0
 11
-891.7033880912147
 21
599.9096668409278
 31
0.0
  0
LINE
  5
E465
330
18
100
AcDbEntity
  8
01
100
AcDbLine
 10
-890.7793880912145
 20
600.4096668409278
 30
0.0
 11
-890.2293880912148
 21
599.9096668409278
 31
0.0
  0
LINE
  5
E466
330
18
100
AcDbEntity
  8
01
100
AcDbLine
 10
-889.3553880912145
 20
600.4096668409278
 30
0.0
 11
-890.2293880912148
 21
599.9096668409278
 31
0.0
  0
LINE
  5
E467
330
18
100
AcDbEntity
  8
01
100
AcDbLine
 10
-887.3423880912146
 20
600.4096668409278
 30
0.0
 11
-886.2033880912147
 21
599.9096668409278
 31
0.0
  0
LINE
  5
E468
330
18
100
AcDbEntity
  8
01
100
AcDbLine
 10
-884.8773880912147
 20
600.4096668409278
 30
0.0
 11
-886.2033880912147
 21
599.9096668409278
 31
0.0
  0
LINE
  5
E469
330
18
100
AcDbEntity
  8
01
100
AcDbLine
 10
-900.7033880912147
 20
600.4096668409278
 30
0.0
 11
-880.7033880912147
 21
600.4096668409278
 31
0.0
  0
LINE
  5
E46A
330
18
100
AcDbEntity
  8
01
100
AcDbLine
 10
-882.1273880912147
 20
600.4096668409278
 30
0.0
 11
-880.7033880912147
 21
599.9096668409278
 31
0.0
  0
LINE
  5
E46B
330
18
100
AcDbEntity
  8
01
100
AcDbLine
 10
-879.2793880912145
 20
600.4096668409278
 30
0.0
 11
-880.7033880912147
 21
599.9096668409278
 31
0.0
  0
LINE
  5
E46C
330
18
100
AcDbEntity
  8
01
100
AcDbLine
 10
-876.5293880912145
 20
600.4096668409278
 30
0.0
 11
-875.2033880912147
 21
599.9096668409278
 31
0.0
  0
LINE
  5
E46D
330
18
100
AcDbEntity
  8
01
100
AcDbLine
 10
-874.0643880912148
 20
600.4096668409278
 30
0.0
 11
-875.2033880912147
 21
599.9096668409278
 31
0.0
  0
LINE
  5
E46E
330
18
100
AcDbEntity
  8
01
100
AcDbLine
 10
-872.0513880912147
 20
600.4096668409278
 30
0.0
 11
-871.1773880912147
 21
599.9096668409278
 31
0.0
  0
LINE
  5
E46F
330
18
100
AcDbEntity
  8
01
100
AcDbLine
 10
-870.6273880912147
 20
600.4096668409278
 30
0.0
 11
-871.1773880912147
 21
599.9096668409278
 31
0.0
  0
LINE
  5
E470
330
18
100
AcDbEntity
  8
01
100
AcDbLine
 10
-860.7033880912145
 20
600.4096668409278
 30
0.0
 11
-880.7033880912147
 21
600.4096668409278
 31
0.0
  0
LINE
  5
E471
330
18
100
AcDbEntity
  8
01
100
AcDbLine
 10
-869.7033880912147
 20
600.4096668409278
 30
0.0
 11
-869.7033880912147
 21
599.9096668409278
 31
0.0
  0
LINE
  5
E472
330
18
100
AcDbEntity
  8
01
100
AcDbLine
 10
-864.7033880912145
 20
600.4096668409278
 30
0.0
 11
-869.7033880912147
 21
599.9096668409278
 31
0.0
  0
LINE
  5
E473
330
18
100
AcDbEntity
  8
01
100
AcDbLine
 10
-869.8903880912146
 20
600.4096668409278
 30
0.0
 11
-869.7033880912147
 21
599.9096668409278
 31
0.0
  0
LINE
  5
E474
330
18
100
AcDbEntity
  8
01
100
AcDbLine
 10
-880.7033880912147
 20
599.9096668409278
 30
0.0
 11
-869.7033880912147
 21
599.9096668409278
 31
0.0
  0
LINE
  5
E475
330
18
100
AcDbEntity
  8
01
100
AcDbLine
 10
-880.7033880912147
 20
599.9096668409278
 30
0.0
 11
-891.7033880912147
 21
599.9096668409278
 31
0.0
  0
LINE
  5
E476
330
18
100
AcDbEntity
  8
01
100
AcDbLine
 10
-880.6833880912145
 20
594.9736668409278
 30
0.0
 11
-880.6833880912145
 21
599.9096668409278
 31
0.0
  0
LINE
  5
E477
330
18
100
AcDbEntity
  8
01
100
AcDbLine
 10
-868.6833880912145
 20
599.9096668409278
 30
0.0
 11
-892.6833880912145
 21
599.9096668409278
 31
0.0
  0
LINE
  5
E478
330
18
100
AcDbEntity
  8
01
100
AcDbLine
 10
-868.6833880912145
 20
599.9096668409278
 30
0.0
 11
-868.6833880912145
 21
593.9096668409278
 31
0.0
  0
LINE
  5
E479
330
18
100
AcDbEntity
  8
01
100
AcDbLine
 10
-892.6833880912145
 20
599.9096668409278
 30
0.0
 11
-892.6833880912145
 21
593.9096668409278
 31
0.0
  0
LINE
  5
E47C
330
18
100
AcDbEntity
  8
01
100
AcDbLine
 10
-868.6833880912145
 20
593.9096668409278
 30
0.0
 11
-892.6833880912145
 21
593.9096668409278
 31
0.0
  0
LINE
  5
E47D
330
18
100
AcDbEntity
  8
1PHANTOM
100
AcDbLine
 10
-869.7723880912147
 20
554.9296668409282
 30
0.0
 11
-891.594096526389
 21
554.9296668409282
 31
0.0
  0
ARC
  5
E47E
330
18
100
AcDbEntity
  8
1PHANTOM
100
AcDbCircle
 10
-879.5833880912146
 20
560.9296668409281
 30
0.0
 40
11.5
100
AcDbArc
 50
328.5500000000012
 51
31.44899999999783
  0
LINE
  5
E47F
330
18
100
AcDbEntity
  8
1PHANTOM
100
AcDbLine
 10
-869.7723880912147
 20
566.9296668409282
 30
0.0
 11
-891.5940965263889
 21
566.9296668409282
 31
0.0
  0
ARC
  5
E485
330
18
100
AcDbEntity
  8
1PHANTOM
100
AcDbCircle
 10
-881.7833880912146
 20
560.9296668409281
 30
0.0
 40
11.5
100
AcDbArc
 50
148.5510000000022
 51
211.4489999999978
  0
LINE
  5
E487
330
18
100
AcDbEntity
  8
01
100
AcDbLine
 10
-1145.438745392363
 20
612.409666840928
 30
0.0
 11
-1161.438745392363
 21
612.4096668409279
 31
0.0
  0
LINE
  5
E488
330
18
100
AcDbEntity
  8
01
100
AcDbLine
 10
-1177.438745392362
 20
612.4096668409279
 30
0.0
 11
-1161.438745392363
 21
612.4096668409279
 31
0.0
  0
LINE
  5
E489
330
18
100
AcDbEntity
  8
01
100
AcDbLine
 10
-1177.438745392362
 20
612.4096668409279
 30
0.0
 11
-1177.438745392362
 21
614.4296668409283
 31
0.0
  0
LINE
  5
E48A
330
18
100
AcDbEntity
  8
01
100
AcDbLine
 10
-1145.438745392363
 20
612.4096668409279
 30
0.0
 11
-1145.438745392363
 21
614.4296668409283
 31
0.0
  0
LINE
  5
E48B
330
18
100
AcDbEntity
  8
01
100
AcDbLine
 10
-1143.458745392363
 20
603.4096668409279
 30
0.0
 11
-1143.458745392363
 21
601.9096668409279
 31
0.0
  0
LINE
  5
E48C
330
18
100
AcDbEntity
  8
01
100
AcDbLine
 10
-1179.458745392363
 20
603.4096668409279
 30
0.0
 11
-1179.458745392363
 21
601.9096668409279
 31
0.0
  0
LINE
  5
E48D
330
18
100
AcDbEntity
  8
01
100
AcDbLine
 10
-1179.458745392363
 20
602.6596668409279
 30
0.0
 11
-1161.458745392363
 21
602.6596668409279
 31
0.0
  0
LINE
  5
E48E
330
18
100
AcDbEntity
  8
01
100
AcDbLine
 10
-1161.458745392363
 20
602.6596668409279
 30
0.0
 11
-1143.458745392363
 21
602.6596668409279
 31
0.0
  0
LINE
  5
E48F
330
18
100
AcDbEntity
  8
01
100
AcDbLine
 10
-1179.458745392363
 20
601.9096668409279
 30
0.0
 11
-1161.458745392363
 21
601.9096668409279
 31
0.0
  0
LINE
  5
E490
330
18
100
AcDbEntity
  8
01
100
AcDbLine
 10
-1161.458745392363
 20
601.9096668409279
 30
0.0
 11
-1143.458745392363
 21
601.9096668409279
 31
0.0
  0
LINE
  5
E491
330
18
100
AcDbEntity
  8
01
100
AcDbLine
 10
-1143.458745392363
 20
603.4096668409279
 30
0.0
 11
-1179.458745392363
 21
603.4096668409279
 31
0.0
  0
LINE
  5
E492
330
18
100
AcDbEntity
  8
01
100
AcDbLine
 10
-1141.458745392363
 20
601.4096668409279
 30
0.0
 11
-1141.458745392363
 21
600.4096668409279
 31
0.0
  0
LINE
  5
E493
330
18
100
AcDbEntity
  8
01
100
AcDbLine
 10
-1150.645745392362
 20
601.4096668409279
 30
0.0
 11
-1150.833745392363
 21
601.9096668409279
 31
0.0
  0
LINE
  5
E494
330
18
100
AcDbEntity
  8
01
100
AcDbLine
 10
-1151.382745392362
 20
601.4096668409279
 30
0.0
 11
-1150.833745392363
 21
601.9096668409279
 31
0.0
  0
LINE
  5
E495
330
18
100
AcDbEntity
  8
01
100
AcDbLine
 10
-1152.806745392362
 20
601.4096668409279
 30
0.0
 11
-1153.680745392362
 21
601.9096668409279
 31
0.0
  0
LINE
  5
E496
330
18
100
AcDbEntity
  8
01
100
AcDbLine
 10
-1154.819745392362
 20
601.4096668409279
 30
0.0
 11
-1153.680745392362
 21
601.9096668409279
 31
0.0
  0
LINE
  5
E497
330
18
100
AcDbEntity
  8
01
100
AcDbLine
 10
-1157.284745392363
 20
601.4096668409279
 30
0.0
 11
-1158.611745392362
 21
601.9096668409279
 31
0.0
  0
LINE
  5
E498
330
18
100
AcDbEntity
  8
01
100
AcDbLine
 10
-1161.458745392363
 20
601.9096668409279
 30
0.0
 11
-1150.833745392363
 21
601.9096668409279
 31
0.0
  0
LINE
  5
E499
330
18
100
AcDbEntity
  8
01
100
AcDbLine
 10
-1160.034745392363
 20
601.4096668409279
 30
0.0
 11
-1158.611745392362
 21
601.9096668409279
 31
0.0
  0
LINE
  5
E49A
330
18
100
AcDbEntity
  8
01
100
AcDbLine
 10
-1141.458745392363
 20
601.4096668409279
 30
0.0
 11
-1161.458745392363
 21
601.4096668409279
 31
0.0
  0
LINE
  5
E49B
330
18
100
AcDbEntity
  8
01
100
AcDbLine
 10
-1162.882745392362
 20
601.4096668409279
 30
0.0
 11
-1164.305745392362
 21
601.9096668409279
 31
0.0
  0
LINE
  5
E49C
330
18
100
AcDbEntity
  8
01
100
AcDbLine
 10
-1165.632745392362
 20
601.4096668409279
 30
0.0
 11
-1164.305745392362
 21
601.9096668409279
 31
0.0
  0
LINE
  5
E49D
330
18
100
AcDbEntity
  8
01
100
AcDbLine
 10
-1168.097745392362
 20
601.4096668409279
 30
0.0
 11
-1169.236745392362
 21
601.9096668409279
 31
0.0
  0
LINE
  5
E49E
330
18
100
AcDbEntity
  8
01
100
AcDbLine
 10
-1170.110745392363
 20
601.4096668409279
 30
0.0
 11
-1169.236745392362
 21
601.9096668409279
 31
0.0
  0
LINE
  5
E49F
330
18
100
AcDbEntity
  8
01
100
AcDbLine
 10
-1172.271745392363
 20
601.4096668409279
 30
0.0
 11
-1172.083745392363
 21
601.9096668409279
 31
0.0
  0
LINE
  5
E4A0
330
18
100
AcDbEntity
  8
01
100
AcDbLine
 10
-1171.534745392363
 20
601.4096668409279
 30
0.0
 11
-1172.083745392363
 21
601.9096668409279
 31
0.0
  0
LINE
  5
E4A1
330
18
100
AcDbEntity
  8
01
100
AcDbLine
 10
-1161.458745392363
 20
601.9096668409279
 30
0.0
 11
-1172.083745392363
 21
601.9096668409279
 31
0.0
  0
LINE
  5
E4A2
330
18
100
AcDbEntity
  8
01
100
AcDbLine
 10
-1181.458745392363
 20
601.4096668409279
 30
0.0
 11
-1161.458745392363
 21
601.4096668409279
 31
0.0
  0
LINE
  5
E4A3
330
18
100
AcDbEntity
  8
01
100
AcDbLine
 10
-1181.458745392363
 20
601.4096668409279
 30
0.0
 11
-1181.458745392363
 21
600.4096668409279
 31
0.0
  0
LINE
  5
E4A4
330
18
100
AcDbEntity
  8
01
100
AcDbLine
 10
-1177.458745392363
 20
600.4096668409279
 30
0.0
 11
-1172.458745392363
 21
599.9096668409279
 31
0.0
  0
LINE
  5
E4A5
330
18
100
AcDbEntity
  8
01
100
AcDbLine
 10
-1172.458745392363
 20
600.4096668409279
 30
0.0
 11
-1172.458745392363
 21
599.9096668409279
 31
0.0
  0
LINE
  5
E4A6
330
18
100
AcDbEntity
  8
01
100
AcDbLine
 10
-1172.271745392363
 20
600.4096668409279
 30
0.0
 11
-1172.458745392363
 21
599.9096668409279
 31
0.0
  0
LINE
  5
E4A7
330
18
100
AcDbEntity
  8
01
100
AcDbLine
 10
-1171.534745392363
 20
600.4096668409279
 30
0.0
 11
-1170.984745392362
 21
599.9096668409279
 31
0.0
  0
LINE
  5
E4A8
330
18
100
AcDbEntity
  8
01
100
AcDbLine
 10
-1170.110745392363
 20
600.4096668409279
 30
0.0
 11
-1170.984745392362
 21
599.9096668409279
 31
0.0
  0
LINE
  5
E4A9
330
18
100
AcDbEntity
  8
01
100
AcDbLine
 10
-1168.097745392362
 20
600.4096668409279
 30
0.0
 11
-1166.958745392363
 21
599.9096668409279
 31
0.0
  0
LINE
  5
E4AA
330
18
100
AcDbEntity
  8
01
100
AcDbLine
 10
-1165.632745392362
 20
600.4096668409279
 30
0.0
 11
-1166.958745392363
 21
599.9096668409279
 31
0.0
  0
LINE
  5
E4AB
330
18
100
AcDbEntity
  8
01
100
AcDbLine
 10
-1181.458745392363
 20
600.4096668409279
 30
0.0
 11
-1161.458745392363
 21
600.4096668409279
 31
0.0
  0
LINE
  5
E4AC
330
18
100
AcDbEntity
  8
01
100
AcDbLine
 10
-1162.882745392362
 20
600.4096668409279
 30
0.0
 11
-1161.458745392363
 21
599.9096668409279
 31
0.0
  0
LINE
  5
E4AD
330
18
100
AcDbEntity
  8
01
100
AcDbLine
 10
-1160.034745392363
 20
600.4096668409279
 30
0.0
 11
-1161.458745392363
 21
599.9096668409279
 31
0.0
  0
LINE
  5
E4AE
330
18
100
AcDbEntity
  8
01
100
AcDbLine
 10
-1157.284745392363
 20
600.4096668409279
 30
0.0
 11
-1155.958745392363
 21
599.9096668409279
 31
0.0
  0
LINE
  5
E4AF
330
18
100
AcDbEntity
  8
01
100
AcDbLine
 10
-1154.819745392362
 20
600.4096668409279
 30
0.0
 11
-1155.958745392363
 21
599.9096668409279
 31
0.0
  0
LINE
  5
E4B0
330
18
100
AcDbEntity
  8
01
100
AcDbLine
 10
-1152.806745392362
 20
600.4096668409279
 30
0.0
 11
-1151.932745392362
 21
599.9096668409279
 31
0.0
  0
LINE
  5
E4B1
330
18
100
AcDbEntity
  8
01
100
AcDbLine
 10
-1151.382745392362
 20
600.4096668409279
 30
0.0
 11
-1151.932745392362
 21
599.9096668409279
 31
0.0
  0
LINE
  5
E4B2
330
18
100
AcDbEntity
  8
01
100
AcDbLine
 10
-1141.458745392363
 20
600.4096668409279
 30
0.0
 11
-1161.458745392363
 21
600.4096668409279
 31
0.0
  0
LINE
  5
E4B3
330
18
100
AcDbEntity
  8
01
100
AcDbLine
 10
-1150.458745392363
 20
600.4096668409279
 30
0.0
 11
-1150.458745392363
 21
599.9096668409279
 31
0.0
  0
LINE
  5
E4B4
330
18
100
AcDbEntity
  8
01
100
AcDbLine
 10
-1145.458745392363
 20
600.4096668409279
 30
0.0
 11
-1150.458745392363
 21
599.9096668409279
 31
0.0
  0
LINE
  5
E4B5
330
18
100
AcDbEntity
  8
01
100
AcDbLine
 10
-1150.645745392362
 20
600.4096668409279
 30
0.0
 11
-1150.458745392363
 21
599.9096668409279
 31
0.0
  0
LINE
  5
E4B6
330
18
100
AcDbEntity
  8
01
100
AcDbLine
 10
-1161.458745392363
 20
599.9096668409279
 30
0.0
 11
-1150.458745392363
 21
599.9096668409279
 31
0.0
  0
LINE
  5
E4B7
330
18
100
AcDbEntity
  8
01
100
AcDbLine
 10
-1161.458745392363
 20
599.9096668409279
 30
0.0
 11
-1172.458745392363
 21
599.9096668409279
 31
0.0
  0
LINE
  5
E4B8
330
18
100
AcDbEntity
  8
01
100
AcDbLine
 10
-1161.438745392363
 20
594.9736668409279
 30
0.0
 11
-1161.438745392363
 21
599.9096668409279
 31
0.0
  0
LINE
  5
E4B9
330
18
100
AcDbEntity
  8
01
100
AcDbLine
 10
-1149.438745392363
 20
599.9096668409279
 30
0.0
 11
-1173.438745392363
 21
599.9096668409279
 31
0.0
  0
LINE
  5
E4BA
330
18
100
AcDbEntity
  8
01
100
AcDbLine
 10
-1149.438745392363
 20
599.9096668409279
 30
0.0
 11
-1149.438745392363
 21
593.9096668409279
 31
0.0
  0
LINE
  5
E4BB
330
18
100
AcDbEntity
  8
01
100
AcDbLine
 10
-1173.438745392363
 20
599.9096668409279
 30
0.0
 11
-1173.438745392363
 21
593.9096668409279
 31
0.0
  0
LINE
  5
E4BE
330
18
100
AcDbEntity
  8
01
100
AcDbLine
 10
-1149.438745392363
 20
593.9096668409279
 30
0.0
 11
-1173.438745392363
 21
593.9096668409279
 31
0.0
  0
LINE
  5
E4D1
330
18
100
AcDbEntity
  8
01
100
AcDbLine
 10
-889.9833880912142
 20
603.4096668409278
 30
0.0
 11
-889.9833880912145
 21
612.4096668409278
 31
0.0
  0
LINE
  5
E4D2
330
18
100
AcDbEntity
  8
01
100
AcDbLine
 10
-891.1833880912145
 20
603.4096668409279
 30
0.0
 11
-891.1833880912145
 21
612.4096668409277
 31
0.0
  0
LINE
  5
E4D3
330
18
100
AcDbEntity
  8
01
100
AcDbLine
 10
-870.1833880912147
 20
603.4096668409278
 30
0.0
 11
-870.1833880912147
 21
612.4096668409279
 31
0.0
  0
LINE
  5
E4D4
330
18
100
AcDbEntity
  8
01
100
AcDbLine
 10
-871.3833880912146
 20
603.4096668409278
 30
0.0
 11
-871.3833880912146
 21
612.4096668409278
 31
0.0
  0
LINE
  5
E4D9
330
18
100
AcDbEntity
  8
01
100
AcDbLine
 10
-870.1833880912147
 20
562.6296668409278
 30
0.0
 11
-870.1833880912145
 21
593.9096668409278
 31
0.0
  0
LINE
  5
E4DA
330
18
100
AcDbEntity
  8
1DIM
100
AcDbLine
 10
-871.3833880912148
 20
561.4296668409278
 30
0.0
 11
-871.3833880912148
 21
593.9096668409278
 31
0.0
  0
LINE
  5
E4DB
330
18
100
AcDbEntity
  8
1DIM
100
AcDbLine
 10
-889.9833880912139
 20
561.4296668409286
 30
0.0
 11
-889.983388091214
 21
593.9096668409278
 31
0.0
  0
LINE
  5
E4DC
330
18
100
AcDbEntity
  8
01
100
AcDbLine
 10
-891.1833880912145
 20
562.6296668409291
 30
0.0
 11
-891.1833880912145
 21
593.9096668409279
 31
0.0
  0
LINE
  5
E4DD
330
18
100
AcDbEntity
  8
1DIM
100
AcDbLine
 10
-1170.738745392362
 20
603.4096668409278
 30
0.0
 11
-1170.738745392362
 21
612.4096668409279
 31
0.0
  0
LINE
  5
E4DE
330
18
100
AcDbEntity
  8
01
100
AcDbLine
 10
-1171.938745392363
 20
603.4096668409279
 30
0.0
 11
-1171.938745392363
 21
612.409666840928
 31
0.0
  0
LINE
  5
E4E1
330
18
100
AcDbEntity
  8
01
100
AcDbLine
 10
-1150.938745392362
 20
603.4096668409279
 30
0.0
 11
-1150.938745392362
 21
612.409666840928
 31
0.0
  0
LINE
  5
E4E2
330
18
100
AcDbEntity
  8
1DIM
100
AcDbLine
 10
-1152.138745392362
 20
603.4096668409278
 30
0.0
 11
-1152.138745392362
 21
612.4096668409281
 31
0.0
  0
LINE
  5
E4E5
330
18
100
AcDbEntity
  8
01
100
AcDbLine
 10
-1150.938745392363
 20
566.9296668409282
 30
0.0
 11
-1150.938745392362
 21
593.9096668409279
 31
0.0
  0
LINE
  5
E4E6
330
18
100
AcDbEntity
  8
1DIM
100
AcDbLine
 10
-1152.138745392362
 20
566.9296668409283
 30
0.0
 11
-1152.138745392362
 21
593.9096668409279
 31
0.0
  0
LINE
  5
E4E7
330
18
100
AcDbEntity
  8
1DIM
100
AcDbLine
 10
-1170.738745392362
 20
566.9296668409285
 30
0.0
 11
-1170.738745392362
 21
593.9096668409279
 31
0.0
  0
LINE
  5
E4E8
330
18
100
AcDbEntity
  8
01
100
AcDbLine
 10
-1171.938745392362
 20
566.9296668409285
 30
0.0
 11
-1171.938745392363
 21
593.9096668409278
 31
0.0
  0
ARC
  5
E4FE
330
18
100
AcDbEntity
  8
01
100
AcDbCircle
 10
-1167.427865432312
 20
611.2976069158335
 30
0.0
 40
17.3879434788029
100
AcDbArc
 50
249.775931672545
 51
290.224068327455
  0
ARC
  5
E500
330
18
100
AcDbEntity
  8
01
100
AcDbCircle
 10
-1155.449625352413
 20
611.2976069158335
 30
0.0
 40
17.3879434788029
100
AcDbArc
 50
249.775931672545
 51
290.224068327455
  0
ARC
  5
E50A
330
18
100
AcDbEntity
  8
01
100
AcDbCircle
 10
-886.6725081311645
 20
611.2976069158334
 30
0.0
 40
17.3879434788029
100
AcDbArc
 50
249.775931672545
 51
290.224068327455
  0
ARC
  5
E50B
330
18
100
AcDbEntity
  8
01
100
AcDbCircle
 10
-874.694268051265
 20
611.2976069158334
 30
0.0
 40
17.3879434788029
100
AcDbArc
 50
249.775931672545
 51
290.224068327455
  0
LINE
  5
E789
330
18
100
AcDbEntity
  8
1HATCH
100
AcDbLine
 10
-1380.023423454015
 20
959.4292638333577
 30
0.0
 11
-1380.02342345401
 21
885.9292638333578
 31
0.0
  0
TEXT
  5
E78B
330
18
100
AcDbEntity
  8
1TEXT
100
AcDbText
 10
-1367.341890164533
 20
929.8577283578838
 30
0.0
 40
6.0
  1
HL009
 72
     1
 11
-1354.340501275645
 21
929.8577283578838
 31
0.0
100
AcDbText
  0
TEXT
  5
E78C
330
18
100
AcDbEntity
  8
1TEXT
100
AcDbText
 10
-1378.723423454023
 20
940.6792638333577
 30
0.0
 40
6.0
  1
対応洗面ボール
 72
     1
 11
-1353.923423454023
 21
940.6792638333577
 31
0.0
100
AcDbText
  0
LINE
  5
E78D
330
18
100
AcDbEntity
  8
1HATCH
100
AcDbLine
 10
-1380.023423454013
 20
938.4292638333577
 30
0.0
 11
-1275.023423454017
 21
938.4292638333576
 31
0.0
  0
LINE
  5
E78E
330
18
100
AcDbEntity
  8
1HATCH
100
AcDbLine
 10
-1380.023423454013
 20
927.9292638333576
 30
0.0
 11
-1275.023423454017
 21
927.9292638333576
 31
0.0
  0
LINE
  5
E791
330
18
100
AcDbEntity
  8
1HATCH
100
AcDbLine
 10
-1380.023423454014
 20
948.9292638333576
 30
0.0
 11
-1275.023423454017
 21
948.9292638333576
 31
0.0
  0
LINE
  5
E794
330
18
100
AcDbEntity
  8
1HATCH
100
AcDbLine
 10
-1380.023423454012
 20
917.4292638333576
 30
0.0
 11
-1275.023423454017
 21
917.4292638333577
 31
0.0
  0
LINE
  5
E795
330
18
100
AcDbEntity
  8
1HATCH
100
AcDbLine
 10
-1380.023423454015
 20
959.4292638333577
 30
0.0
 11
-1275.023423454017
 21
959.4292638333576
 31
0.0
  0
TEXT
  5
E796
330
18
100
AcDbEntity
  8
1TEXT
100
AcDbText
 10
-1368.808758242334
 20
951.0382901924281
 30
0.0
 40
6.0
  1
HA008XC水栓対応表
 72
     1
 11
-1331.408758242334
 21
951.0382901924281
 31
0.0
100
AcDbText
  0
LINE
  5
E798
330
18
100
AcDbEntity
  8
1HATCH
100
AcDbLine
 10
-1380.023423454011
 20
906.9292638333578
 30
0.0
 11
-1275.023423454017
 21
906.9292638333577
 31
0.0
  0
LINE
  5
E79E
330
18
100
AcDbEntity
  8
1HATCH
100
AcDbLine
 10
-1275.023423454017
 20
959.4292638333576
 30
0.0
 11
-1275.023423454017
 21
885.9292638333577
 31
0.0
  0
TEXT
  5
E79F
330
18
100
AcDbEntity
  8
1TEXT
100
AcDbText
 10
-1311.340501275647
 20
929.8577283578838
 30
0.0
 40
6.0
  1
HN01
 72
     1
 11
-1301.840501275647
 21
929.8577283578838
 31
0.0
100
AcDbText
  0
TEXT
  5
E7A0
330
18
100
AcDbEntity
  8
1TEXT
100
AcDbText
 10
-1318.923423454026
 20
940.6792638333577
 30
0.0
 40
6.0
  1
対応止水栓
 72
     1
 11
-1301.423423454026
 21
940.6792638333577
 31
0.0
100
AcDbText
  0
TEXT
  5
E7A1
330
18
100
AcDbEntity
  8
1TEXT
100
AcDbText
 10
-1312.340501275647
 20
919.357728357884
 30
0.0
 40
6.0
  1
HN02
 72
     1
 11
-1301.840501275647
 21
919.357728357884
 31
0.0
100
AcDbText
  0
LINE
  5
E7A2
330
18
100
AcDbEntity
  8
1HATCH
100
AcDbLine
 10
-1327.523423454015
 20
948.9292638333578
 30
0.0
 11
-1327.523423454015
 21
885.9292638333578
 31
0.0
  0
LINE
  5
E800
330
18
100
AcDbEntity
  8
1DIM
100
AcDbLine
 10
-870.1833880912143
 20
562.6296668409284
 30
0.0
 11
-891.1833880912143
 21
562.6296668409288
 31
0.0
  0
LINE
  5
E801
330
18
100
AcDbEntity
  8
01
100
AcDbLine
 10
-891.1833880912143
 20
562.6296668409288
 30
0.0
 11
-889.983388091214
 21
561.4296668409288
 31
0.0
  0
LINE
  5
E802
330
18
100
AcDbEntity
  8
01
100
AcDbLine
 10
-870.1833880912143
 20
562.6296668409284
 30
0.0
 11
-871.3833880912141
 21
561.4296668409283
 31
0.0
  0
LINE
  5
E803
330
18
100
AcDbEntity
  8
01
100
AcDbLine
 10
-871.3833880912127
 20
561.4296668409282
 30
0.0
 11
-889.9833880912131
 21
561.4296668409288
 31
0.0
  0
LINE
  5
E918
330
18
100
AcDbEntity
  8
1DIM
100
AcDbLine
 10
-925.683388091214
 20
729.4296668409283
 30
0.0
 11
-944.9589790493919
 21
737.6116697702323
 31
0.0
  0
LINE
  5
E92D
330
18
100
AcDbEntity
  8
01
100
AcDbLine
 10
-1150.527745392363
 20
554.9296668409283
 30
0.0
 11
-1161.438745392363
 21
554.9296668409283
 31
0.0
  0
ARC
  5
E92E
330
18
100
AcDbEntity
  8
01
100
AcDbCircle
 10
-1160.338745392363
 20
560.9296668409282
 30
0.0
 40
11.5
100
AcDbArc
 50
328.5500000000012
 51
31.44899999999783
  0
LINE
  5
E92F
330
18
100
AcDbEntity
  8
01
100
AcDbLine
 10
-1150.938745392363
 20
566.9296668409282
 30
0.0
 11
-1172.349453827537
 21
566.9296668409286
 31
0.0
  0
ARC
  5
E930
330
18
100
AcDbEntity
  8
01
100
AcDbCircle
 10
-1162.538745392363
 20
560.9296668409282
 30
0.0
 40
11.5
100
AcDbArc
 50
148.5510186106185
 51
211.4489999999978
  0
LINE
  5
E931
330
18
100
AcDbEntity
  8
01
100
AcDbLine
 10
-1172.349745392363
 20
554.9296668409283
 30
0.0
 11
-1161.438745392363
 21
554.9296668409283
 31
0.0
  0
ELLIPSE
  5
E932
330
18
100
AcDbEntity
  8
01
100
AcDbEllipse
 10
-1161.438745392363
 20
560.9296668409282
 30
0.0
 11
-5.148999999999887
 21
0.0
 31
0.0
210
0.0
220
0.0
230
1.0
 40
0.9531947951058916
 41
0.0
 42
6.283185307179586
  0
ELLIPSE
  5
E933
330
18
100
AcDbEntity
  8
01
100
AcDbEllipse
 10
-1151.479745392363
 20
560.9296668409282
 30
0.0
 11
0.0
 21
4.908000000000129
 31
0.0
210
0.0
220
0.0
230
1.0
 40
0.5241868994143343
 41
0.0
 42
6.283185307179586
  0
ELLIPSE
  5
E934
330
18
100
AcDbEntity
  8
01
100
AcDbEllipse
 10
-1171.397745392363
 20
560.9296668409282
 30
0.0
 11
0.0
 21
4.908000000000129
 31
0.0
210
0.0
220
0.0
230
-1.0
 40
0.5241868994143343
 41
0.0
 42
6.283185307179586
  0
TEXT
  5
EAAD
330
18
100
AcDbEntity
  8
1TEXT
100
AcDbText
 10
-1312.340501275647
 20
908.857728357884
 30
0.0
 40
6.0
  1
HN03
 72
     1
 11
-1301.840501275647
 21
908.857728357884
 31
0.0
100
AcDbText
  0
TEXT
  5
EAAE
330
18
100
AcDbEntity
  8
1TEXT
100
AcDbText
 10
-1366.465501275644
 20
919.3577283578838
 30
0.0
 40
6.0
  1
HL010
 72
     1
 11
-1354.340501275644
 21
919.3577283578838
 31
0.0
100
AcDbText
  0
LINE
  5
EB82
330
18
100
AcDbEntity
  8
1HATCH
100
AcDbLine
 10
-1380.023423454011
 20
896.4292638333579
 30
0.0
 11
-1275.023423454017
 21
896.4292638333578
 31
0.0
  0
LINE
  5
EB83
330
18
100
AcDbEntity
  8
1HATCH
100
AcDbLine
 10
-1380.02342345401
 20
885.9292638333578
 30
0.0
 11
-1275.023423454016
 21
885.9292638333577
 31
0.0
  0
TEXT
  5
EB85
330
18
100
AcDbEntity
  8
1TEXT
100
AcDbText
 10
-1367.840501275643
 20
908.857728357884
 30
0.0
 40
6.0
  1
HL028
 72
     1
 11
-1354.340501275643
 21
908.857728357884
 31
0.0
100
AcDbText
  0
TEXT
  5
EB86
330
18
100
AcDbEntity
  8
1TEXT
100
AcDbText
 10
-1367.841890164531
 20
898.3577283578838
 30
0.0
 40
6.0
  1
HL029
 72
     1
 11
-1354.340501275642
 21
898.3577283578838
 31
0.0
100
AcDbText
  0
TEXT
  5
EB87
330
18
100
AcDbEntity
  8
1TEXT
100
AcDbText
 10
-1367.465501275641
 20
887.857728357884
 30
0.0
 40
6.0
  1
HL030
 72
     1
 11
-1354.340501275641
 21
887.857728357884
 31
0.0
100
AcDbText
  0
TEXT
  5
EC8F
330
18
100
AcDbEntity
  8
1TEXT
100
AcDbText
 10
-1312.340501275647
 20
898.3577283578842
 30
0.0
 40
6.0
  1
HN05
 72
     1
 11
-1301.840501275647
 21
898.3577283578842
 31
0.0
100
AcDbText
  0
LINE
  5
F4C7
330
18
100
AcDbEntity
  8
1DIM
100
AcDbLine
 10
-898.1833880912145
 20
682.929666840929
 30
0.0
 11
-898.1833880912145
 21
713.034274364237
 31
0.0
1001
ACAD
1000
DSTYLE
1002
{
1070
     3
1000
φ<>
1070
    40
1040
2.0
1002
}
  0
LINE
  5
F4C8
330
18
100
AcDbEntity
  8
1DIM
100
AcDbLine
 10
-863.183388091214
 20
682.9296668409295
 30
0.0
 11
-863.183388091214
 21
713.034274364237
 31
0.0
1001
ACAD
1000
DSTYLE
1002
{
1070
     3
1000
φ<>
1070
    40
1040
2.0
1002
}
  0
LINE
  5
F4C9
330
18
100
AcDbEntity
  8
1DIM
100
AcDbLine
 10
-867.183388091214
 20
711.034274364237
 30
0.0
 11
-894.1833880912145
 21
711.034274364237
 31
0.0
1001
ACAD
1000
DSTYLE
1002
{
1070
     3
1000
φ<>
1070
    40
1040
2.0
1002
}
  0
LINE
  5
F4CA
330
18
100
AcDbEntity
  8
1DIM
100
AcDbLine
 10
-898.1833880912145
 20
711.034274364237
 30
0.0
 11
-924.3167214245478
 21
711.034274364237
 31
0.0
1001
ACAD
1000
DSTYLE
1002
{
1070
     3
1000
φ<>
1070
    40
1040
2.0
1002
}
  0
LINE
  5
F4CE
330
18
100
AcDbEntity
  8
1DIM
100
AcDbLine
 10
-900.292589540801
 20
646.429666840929
 30
0.0
 11
-933.6947550602742
 21
646.4296668409293
 31
0.0
1001
ACAD
1000
DSTYLE
1002
{
1070
    40
1040
2.0
1070
    79
1070
     2
1070
   179
1070
     2
1002
}
  0
ARC
  5
F4CF
330
18
100
AcDbEntity
  8
1DIM
100
AcDbCircle
 10
-880.6833880912144
 20
646.4296668409288
 30
0.0
 40
51.01136696905978
100
AcDbArc
 50
94.49393710576133
 51
175.5060628942383
1001
ACAD
1000
DSTYLE
1002
{
1070
    40
1040
2.0
1070
    79
1070
     2
1070
   179
1070
     2
1002
}
  0
SOLID
  5
F4D3
330
18
100
AcDbEntity
  8
1DIM
100
AcDbTrace
 10
-1123.312769751316
 20
694.3199704660647
 30
0.0
 11
-1125.23175797511
 21
690.7475862983993
 31
0.0
 12
-1124.575109925899
 22
694.749243178232
 32
0.0
 13
-1124.575109925899
 23
694.749243178232
 33
0.0
1001
ACAD
1000
DSTYLE
1002
{
1070
    40
1040
2.0
1070
   341
1005
0
1002
}
  0
LINE
  5
F4D4
330
18
100
AcDbEntity
  8
1DIM
100
AcDbLine
 10
-1123.943939838608
 20
694.5346068221482
 30
0.0
 11
-1105.983344284081
 21
747.3504059290743
 31
0.0
1001
ACAD
1000
DSTYLE
1002
{
1070
    40
1040
2.0
1070
   341
1005
0
1002
}
  0
LINE
  5
F4D5
330
18
100
AcDbEntity
  8
1DIM
100
AcDbLine
 10
-1105.983344284081
 20
747.3504059290743
 30
0.0
 11
-1011.450010950747
 21
747.3504059290743
 31
0.0
1001
ACAD
1000
DSTYLE
1002
{
1070
    40
1040
2.0
1070
   341
1005
0
1002
}
  0
TEXT
  5
F4D6
330
18
100
AcDbEntity
  8
1DIM
  6
CONTINUOUS
100
AcDbText
 10
-1101.050010950747
 20
760.1837392624076
 30
0.0
 40
7.0
  1
材質：亜鉛ダイキャスト
100
AcDbText
  0
TEXT
  5
F4D7
330
18
100
AcDbEntity
  8
1DIM
  6
CONTINUOUS
100
AcDbText
 10
-1100.816677617414
 20
748.517072595741
 30
0.0
 40
7.0
  1
仕上げ：クローム
100
AcDbText
  0
LINE
  5
F4D9
330
18
100
AcDbEntity
  8
1DIM
100
AcDbLine
 10
-870.1545477131519
 20
619.4450657404702
 30
0.0
 11
-846.2911481564773
 21
579.3023454732535
 31
0.0
1001
ACAD
1000
DSTYLE
1002
{
1070
    40
1040
2.0
1002
}
  0
LINE
  5
F4DA
330
18
100
AcDbEntity
  8
1DIM
100
AcDbLine
 10
-846.2911481564773
 20
579.3023454732535
 30
0.0
 11
-775.3244814898106
 21
579.3023454732535
 31
0.0
1001
ACAD
1000
DSTYLE
1002
{
1070
    40
1040
2.0
1002
}
  0
TEXT
  5
F4DB
330
18
100
AcDbEntity
  8
1DIM
  6
CONTINUOUS
100
AcDbText
 10
-841.357814823144
 20
592.3690121399201
 30
0.0
 40
7.0
  1
材質：真鍮
100
AcDbText
  0
TEXT
  5
F4DC
330
18
100
AcDbEntity
  8
1DIM
  6
CONTINUOUS
100
AcDbText
 10
-841.1244814898107
 20
580.7023454732534
 30
0.0
 40
7.0
  1
仕上げ：クローム
100
AcDbText
  0
LINE
  5
F4DD
330
18
100
AcDbEntity
  8
1DIM
100
AcDbLine
 10
-925.683388091214
 20
783.9296668409283
 30
0.0
 11
-826.8483582250029
 21
783.9296668409283
 31
0.0
1001
ACAD
1000
DSTYLE
1002
{
1070
    40
1040
2.0
1070
   341
1005
0
1002
}
  0
LINE
  5
F4DE
330
18
100
AcDbEntity
  8
1DIM
100
AcDbLine
 10
-863.183388091215
 20
614.4296668409286
 30
0.0
 11
-826.848358225003
 21
614.4296668409286
 31
0.0
1001
ACAD
1000
DSTYLE
1002
{
1070
    40
1040
2.0
1070
   341
1005
0
1002
}
  0
LINE
  5
F4DF
330
18
100
AcDbEntity
  8
1DIM
100
AcDbLine
 10
-828.8483582250029
 20
779.9296668409283
 30
0.0
 11
-828.848358225003
 21
618.4296668409286
 31
0.0
1001
ACAD
1000
DSTYLE
1002
{
1070
    40
1040
2.0
1070
   341
1005
0
1002
}
  0
LINE
  5
F4E3
330
18
100
AcDbEntity
  8
1DIM
100
AcDbLine
 10
-1143.938745392363
 20
614.4296668409287
 30
0.0
 11
-1093.783054202814
 21
614.4296668409287
 31
0.0
1001
ACAD
1000
DSTYLE
1002
{
1070
    40
1040
2.0
1070
   341
1005
0
1002
}
  0
LINE
  5
F4E4
330
18
100
AcDbEntity
  8
1DIM
100
AcDbLine
 10
-1105.735392550693
 20
646.4296668409291
 30
0.0
 11
-1093.783054202814
 21
646.4296668409291
 31
0.0
1001
ACAD
1000
DSTYLE
1002
{
1070
    40
1040
2.0
1070
   341
1005
0
1002
}
  0
LINE
  5
F4E5
330
18
100
AcDbEntity
  8
1DIM
100
AcDbLine
 10
-1095.783054202814
 20
618.4296668409287
 30
0.0
 11
-1095.783054202814
 21
642.4296668409291
 31
0.0
1001
ACAD
1000
DSTYLE
1002
{
1070
    40
1040
2.0
1070
   341
1005
0
1002
}
  0
TEXT
  5
F4E9
330
18
100
AcDbEntity
  8
1DIM
  6
CONTINUOUS
100
AcDbText
 10
-910.4863205491571
 20
696.4653707995095
 30
0.0
 40
8.0
  1
閉
100
AcDbText
  0
TEXT
  5
F4EA
330
18
100
AcDbEntity
  8
1DIM
  6
CONTINUOUS
100
AcDbText
 10
-943.6598747397674
 20
648.0487026901212
 30
0.0
 40
8.0
  1
開
100
AcDbText
  0
LINE
  5
F4EB
330
18
100
AcDbEntity
  8
1DIM
100
AcDbLine
 10
-1178.938745392363
 20
614.429666840928
 30
0.0
 11
-1196.693586021975
 21
614.429666840928
 31
0.0
1001
ACAD
1000
DSTYLE
1002
{
1070
    40
1040
2.0
1070
   341
1005
0
1002
}
  0
LINE
  5
F4EC
330
18
100
AcDbEntity
  8
1DIM
100
AcDbLine
 10
-1179.458745392363
 20
603.4096668409279
 30
0.0
 11
-1196.693586021975
 21
603.4096668409279
 31
0.0
1001
ACAD
1000
DSTYLE
1002
{
1070
    40
1040
2.0
1070
   341
1005
0
1002
}
  0
LINE
  5
F4ED
330
18
100
AcDbEntity
  8
1DIM
100
AcDbLine
 10
-1194.693586021975
 20
607.4096668409279
 30
0.0
 11
-1194.693586021975
 21
610.429666840928
 31
0.0
1001
ACAD
1000
DSTYLE
1002
{
1070
    40
1040
2.0
1070
   341
1005
0
1002
}
  0
LINE
  5
F4EE
330
18
100
AcDbEntity
  8
1DIM
100
AcDbLine
 10
-1194.693586021975
 20
614.429666840928
 30
0.0
 11
-1194.693586021975
 21
652.8963335075947
 31
0.0
1001
ACAD
1000
DSTYLE
1002
{
1070
    40
1040
2.0
1070
   341
1005
0
1002
}
  0
LINE
  5
F4F2
330
18
100
AcDbEntity
  8
1DIM
100
AcDbLine
 10
-974.5299979378706
 20
729.5229754073486
 30
0.0
 11
-974.5299979378706
 21
526.6067642126236
 31
0.0
1001
ACAD
1000
DSTYLE
1002
{
1070
     3
1000
(<>)
1070
    40
1040
2.0
1070
   271
1070
     0
1070
   341
1005
0
1002
}
  0
LINE
  5
F4F3
330
18
100
AcDbEntity
  8
1DIM
100
AcDbLine
 10
-880.6833880912145
 20
546.1641757019545
 30
0.0
 11
-880.6833880912145
 21
526.6067642126236
 31
0.0
1001
ACAD
1000
DSTYLE
1002
{
1070
     3
1000
(<>)
1070
    40
1040
2.0
1070
   271
1070
     0
1070
   341
1005
0
1002
}
  0
LINE
  5
F4F4
330
18
100
AcDbEntity
  8
1DIM
100
AcDbLine
 10
-970.5299979378706
 20
528.6067642126236
 30
0.0
 11
-884.6833880912145
 21
528.6067642126236
 31
0.0
1001
ACAD
1000
DSTYLE
1002
{
1070
     3
1000
(<>)
1070
    40
1040
2.0
1070
   271
1070
     0
1070
   341
1005
0
1002
}
  0
LINE
  5
F4F8
330
18
100
AcDbEntity
  8
1DIM
100
AcDbLine
 10
-1171.938745392363
 20
593.9096668409278
 30
0.0
 11
-1171.938745392363
 21
576.4873707837519
 31
0.0
1001
ACAD
1000
DSTYLE
1002
{
1070
    40
1040
2.0
1002
}
  0
LINE
  5
F4F9
330
18
100
AcDbEntity
  8
1DIM
100
AcDbLine
 10
-1150.938745392362
 20
593.9096668409279
 30
0.0
 11
-1150.938745392362
 21
576.4873707837519
 31
0.0
1001
ACAD
1000
DSTYLE
1002
{
1070
    40
1040
2.0
1002
}
  0
LINE
  5
F4FA
330
18
100
AcDbEntity
  8
1DIM
100
AcDbLine
 10
-1154.938745392362
 20
578.4873707837519
 30
0.0
 11
-1167.938745392363
 21
578.4873707837519
 31
0.0
1001
ACAD
1000
DSTYLE
1002
{
1070
    40
1040
2.0
1002
}
  0
LINE
  5
F4FB
330
18
100
AcDbEntity
  8
1DIM
100
AcDbLine
 10
-1171.938745392363
 20
578.4873707837519
 30
0.0
 11
-1291.472078725696
 21
578.4873707837519
 31
0.0
1001
ACAD
1000
DSTYLE
1002
{
1070
    40
1040
2.0
1002
}
  0
LINE
  5
F4FF
330
18
100
AcDbEntity
  8
1DIM
100
AcDbLine
 10
-925.683388091214
 20
729.4296668409283
 30
0.0
 11
-1010.996954498935
 21
729.4296668409283
 31
0.0
1001
ACAD
1000
DSTYLE
1002
{
1070
    40
1040
2.0
1002
}
  0
LINE
  5
F500
330
18
100
AcDbEntity
  8
1DIM
100
AcDbLine
 10
-898.1833880912147
 20
614.4296668409279
 30
0.0
 11
-1010.996954498935
 21
614.4296668409279
 31
0.0
1001
ACAD
1000
DSTYLE
1002
{
1070
    40
1040
2.0
1002
}
  0
LINE
  5
F501
330
18
100
AcDbEntity
  8
1DIM
100
AcDbLine
 10
-1008.996954498935
 20
725.4296668409283
 30
0.0
 11
-1008.996954498935
 21
618.4296668409279
 31
0.0
1001
ACAD
1000
DSTYLE
1002
{
1070
    40
1040
2.0
1002
}
  0
LINE
  5
F505
330
18
100
AcDbEntity
  8
1DIM
100
AcDbLine
 10
-925.683388091215
 20
729.4296668409281
 30
0.0
 11
-910.9923256569151
 21
767.7072410136933
 31
0.0
1001
ACAD
1000
DSTYLE
1002
{
1070
    40
1040
2.0
1002
}
  0
LINE
  5
F508
330
18
100
AcDbEntity
  8
1DIM
100
AcDbLine
 10
-958.3613103887758
 20
743.3006219022975
 30
0.0
 11
-944.9589790493919
 21
737.6116697702324
 31
0.0
1001
ACAD
1000
DSTYLE
1002
{
1070
    40
1040
2.0
1002
}
  0
LINE
  5
F509
330
18
100
AcDbEntity
  8
1DIM
100
AcDbLine
 10
-925.6833880912142
 20
729.4296668409283
 30
0.0
 11
-950.6236263592504
 21
729.4296668409285
 31
0.0
1001
ACAD
1000
DSTYLE
1002
{
1070
    40
1040
2.0
1002
}
  0
ARC
  5
F50A
330
18
100
AcDbEntity
  8
1DIM
100
AcDbCircle
 10
-925.6833880912142
 20
729.4296668409283
 30
0.0
 40
22.94023826803626
100
AcDbArc
 50
146.9968585614639
 51
157.0000000000003
1001
ACAD
1000
DSTYLE
1002
{
1070
    40
1040
2.0
1002
}
  0
LINE
  5
F50B
330
18
100
AcDbEntity
  8
1DIM
100
AcDbLine
 10
-944.9220056845706
 20
741.9248709165274
 30
0.0
 11
-935.7168288938898
 21
756.0978988305726
 31
0.0
1001
ACAD
1000
DSTYLE
1002
{
1070
    40
1040
2.0
1002
}
  0
ARC
  5
F50C
330
18
100
AcDbEntity
  8
1DIM
100
AcDbCircle
 10
-925.6833880912142
 20
729.4296668409283
 30
0.0
 40
22.94023826803626
100
AcDbArc
 50
167.0031414385366
 51
169.9968585614637
1001
ACAD
1000
DSTYLE
1002
{
1070
    40
1040
2.0
1002
}
  0
LINE
  5
F510
330
18
100
AcDbEntity
  8
1DIM
100
AcDbLine
 10
-898.1833880912147
 20
614.4296668409279
 30
0.0
 11
-1010.996954498935
 21
614.4296668409279
 31
0.0
1001
ACAD
1000
DSTYLE
1002
{
1070
    40
1040
2.0
1002
}
  0
LINE
  5
F511
330
18
100
AcDbEntity
  8
1DIM
100
AcDbLine
 10
-889.9833880912131
 20
561.4296668409288
 30
0.0
 11
-1010.996954498935
 21
561.4296668409288
 31
0.0
1001
ACAD
1000
DSTYLE
1002
{
1070
    40
1040
2.0
1002
}
  0
LINE
  5
F512
330
18
100
AcDbEntity
  8
1DIM
100
AcDbLine
 10
-1008.996954498935
 20
610.4296668409279
 30
0.0
 11
-1008.996954498935
 21
565.4296668409288
 31
0.0
1001
ACAD
1000
DSTYLE
1002
{
1070
    40
1040
2.0
1002
}
  0
LINE
  5
F516
330
18
100
AcDbEntity
  8
1DIM
100
AcDbLine
 10
-1178.438745392363
 20
683.4296668409287
 30
0.0
 11
-1214.136627083793
 21
683.4296668409287
 31
0.0
1001
ACAD
1000
DSTYLE
1002
{
1070
    40
1040
2.0
1002
}
  0
LINE
  5
F517
330
18
100
AcDbEntity
  8
1DIM
100
AcDbLine
 10
-1174.938745392362
 20
687.4296668409288
 30
0.0
 11
-1214.136627083793
 21
687.4296668409288
 31
0.0
1001
ACAD
1000
DSTYLE
1002
{
1070
    40
1040
2.0
1002
}
  0
LINE
  5
F518
330
18
100
AcDbEntity
  8
1DIM
100
AcDbLine
 10
-1212.136627083793
 20
679.4296668409287
 30
0.0
 11
-1212.136627083793
 21
675.4296668409287
 31
0.0
1001
ACAD
1000
DSTYLE
1002
{
1070
    40
1040
2.0
1002
}
  0
LINE
  5
F519
330
18
100
AcDbEntity
  8
1DIM
100
AcDbLine
 10
-1212.136627083793
 20
691.4296668409288
 30
0.0
 11
-1212.136627083793
 21
703.2296668409288
 31
0.0
1001
ACAD
1000
DSTYLE
1002
{
1070
    40
1040
2.0
1002
}
  0
LINE
  5
F51A
330
18
100
AcDbEntity
  8
1DIM
100
AcDbLine
 10
-1212.136627083793
 20
683.4296668409287
 30
0.0
 11
-1212.136627083793
 21
687.4296668409288
 31
0.0
1001
ACAD
1000
DSTYLE
1002
{
1070
    40
1040
2.0
1002
}
  0
LINE
  5
F51E
330
18
100
AcDbEntity
  8
1DIM
100
AcDbLine
 10
-1178.938745392363
 20
614.429666840928
 30
0.0
 11
-1214.136627083793
 21
614.429666840928
 31
0.0
1001
ACAD
1000
DSTYLE
1002
{
1070
    40
1040
2.0
1002
}
  0
LINE
  5
F51F
330
18
100
AcDbEntity
  8
1DIM
100
AcDbLine
 10
-1178.438745392363
 20
683.4296668409287
 30
0.0
 11
-1214.136627083793
 21
683.4296668409287
 31
0.0
1001
ACAD
1000
DSTYLE
1002
{
1070
    40
1040
2.0
1002
}
  0
LINE
  5
F520
330
18
100
AcDbEntity
  8
1DIM
100
AcDbLine
 10
-1212.136627083793
 20
618.429666840928
 30
0.0
 11
-1212.136627083793
 21
679.4296668409287
 31
0.0
1001
ACAD
1000
DSTYLE
1002
{
1070
    40
1040
2.0
1002
}
  0
LINE
  5
F524
330
18
100
AcDbEntity
  8
1DIM
100
AcDbLine
 10
-1178.938745392363
 20
614.429666840928
 30
0.0
 11
-1178.938745392363
 21
526.6067642126236
 31
0.0
1001
ACAD
1000
DSTYLE
1002
{
1070
    40
1040
2.0
1002
}
  0
LINE
  5
F525
330
18
100
AcDbEntity
  8
1DIM
100
AcDbLine
 10
-1110.938745392363
 20
652.4296668409291
 30
0.0
 11
-1110.938745392363
 21
526.6067642126236
 31
0.0
1001
ACAD
1000
DSTYLE
1002
{
1070
    40
1040
2.0
1002
}
  0
LINE
  5
F526
330
18
100
AcDbEntity
  8
1DIM
100
AcDbLine
 10
-1174.938745392363
 20
528.6067642126236
 30
0.0
 11
-1114.938745392363
 21
528.6067642126236
 31
0.0
1001
ACAD
1000
DSTYLE
1002
{
1070
    40
1040
2.0
1002
}
  0
LINE
  5
F52A
330
18
100
AcDbEntity
  8
0
  6
BYBLOCK
100
AcDbLine
 10
-867.183388091214
 20
712.106071124237
 30
0.0
 11
-863.183388091214
 21
711.034274364237
 31
0.0
  0
LINE
  5
F52B
330
18
100
AcDbEntity
  8
0
  6
BYBLOCK
100
AcDbLine
 10
-863.183388091214
 20
711.034274364237
 30
0.0
 11
-867.183388091214
 21
709.962477604237
 31
0.0
  0
LINE
  5
F52C
330
18
100
AcDbEntity
  8
0
  6
BYBLOCK
100
AcDbLine
 10
-863.183388091214
 20
711.034274364237
 30
0.0
 11
-867.183388091214
 21
711.034274364237
 31
0.0
  0
LINE
  5
F52D
330
18
100
AcDbEntity
  8
0
  6
BYBLOCK
100
AcDbLine
 10
-894.1833880912145
 20
709.962477604237
 30
0.0
 11
-898.1833880912145
 21
711.034274364237
 31
0.0
  0
LINE
  5
F52E
330
18
100
AcDbEntity
  8
0
  6
BYBLOCK
100
AcDbLine
 10
-898.1833880912145
 20
711.034274364237
 30
0.0
 11
-894.1833880912145
 21
712.106071124237
 31
0.0
  0
LINE
  5
F52F
330
18
100
AcDbEntity
  8
0
  6
BYBLOCK
100
AcDbLine
 10
-898.1833880912145
 20
711.034274364237
 30
0.0
 11
-894.1833880912145
 21
711.034274364237
 31
0.0
  0
TEXT
  5
F530
330
18
100
AcDbEntity
  8
1DIM
  6
CONTINUOUS
100
AcDbText
 10
-924.2167214245479
 20
712.4342743642371
 30
0.0
 40
7.0
  1
φ35
100
AcDbText
1001
ACAD
1000
DSTYLE
1002
{
1070
     3
1000
φ<>
1070
    40
1040
2.0
1002
}
  0
LINE
  5
F531
330
18
100
AcDbEntity
  8
0
  6
BYBLOCK
100
AcDbLine
 10
-884.7223344189117
 20
698.3551786873068
 30
0.0
 11
-880.6833880912144
 21
697.4410338099887
 31
0.0
  0
LINE
  5
F532
330
18
100
AcDbEntity
  8
0
  6
BYBLOCK
100
AcDbLine
 10
-880.6833880912144
 20
697.4410338099887
 30
0.0
 11
-884.6382906597511
 21
696.2132333505784
 31
0.0
  0
LINE
  5
F533
330
18
100
AcDbEntity
  8
0
  6
BYBLOCK
100
AcDbLine
 10
-880.6833880912144
 20
697.4410338099887
 30
0.0
 11
-884.6803125393315
 21
697.2842060189425
 31
0.0
  0
LINE
  5
F534
330
18
100
AcDbEntity
  8
0
  6
BYBLOCK
100
AcDbLine
 10
-930.4669546008638
 20
650.3845694094659
 30
0.0
 11
-931.6947550602741
 21
646.4296668409293
 31
0.0
  0
LINE
  5
F535
330
18
100
AcDbEntity
  8
0
  6
BYBLOCK
100
AcDbLine
 10
-931.6947550602741
 20
646.4296668409293
 30
0.0
 11
-932.6088999375921
 21
650.4686131686266
 31
0.0
  0
LINE
  5
F536
330
18
100
AcDbEntity
  8
0
  6
BYBLOCK
100
AcDbLine
 10
-931.6947550602741
 20
646.4296668409293
 30
0.0
 11
-931.537927269228
 21
650.4265912890463
 31
0.0
  0
TEXT
  5
F537
330
18
100
AcDbEntity
  8
1DIM
  6
CONTINUOUS
100
AcDbText
 10
-921.1043118285875
 20
680.6452422519329
 30
0.0
 40
7.0
  1
90°
 50
41.5128354283111
100
AcDbText
1001
ACAD
1000
DSTYLE
1002
{
1070
    40
1040
2.0
1070
    79
1070
     2
1070
   179
1070
     2
1002
}
  0
LINE
  5
F538
330
18
100
AcDbEntity
  8
0
  6
BYBLOCK
100
AcDbLine
 10
-871.0758483677122
 20
618.897385725632
 30
0.0
 11
-872.1985173733635
 21
622.8834066235321
 31
0.0
  0
LINE
  5
F539
330
18
100
AcDbEntity
  8
0
  6
BYBLOCK
100
AcDbLine
 10
-872.1985173733635
 20
622.8834066235321
 30
0.0
 11
-869.2332470585916
 21
619.9927457553085
 31
0.0
  0
LINE
  5
F53A
330
18
100
AcDbEntity
  8
0
  6
BYBLOCK
100
AcDbLine
 10
-872.1985173733635
 20
622.8834066235321
 30
0.0
 11
-870.1545477131519
 21
619.4450657404702
 31
0.0
  0
LINE
  5
F53B
330
18
100
AcDbEntity
  8
0
  6
BYBLOCK
100
AcDbLine
 10
-829.9201549850029
 20
779.9296668409283
 30
0.0
 11
-828.8483582250029
 21
783.9296668409283
 31
0.0
  0
LINE
  5
F53C
330
18
100
AcDbEntity
  8
0
  6
BYBLOCK
100
AcDbLine
 10
-828.8483582250029
 20
783.9296668409283
 30
0.0
 11
-827.7765614650029
 21
779.9296668409283
 31
0.0
  0
LINE
  5
F53D
330
18
100
AcDbEntity
  8
0
  6
BYBLOCK
100
AcDbLine
 10
-828.8483582250029
 20
783.9296668409283
 30
0.0
 11
-828.8483582250029
 21
779.9296668409283
 31
0.0
  0
LINE
  5
F53E
330
18
100
AcDbEntity
  8
0
  6
BYBLOCK
100
AcDbLine
 10
-827.776561465003
 20
618.4296668409286
 30
0.0
 11
-828.848358225003
 21
614.4296668409286
 31
0.0
  0
LINE
  5
F53F
330
18
100
AcDbEntity
  8
0
  6
BYBLOCK
100
AcDbLine
 10
-828.848358225003
 20
614.4296668409286
 30
0.0
 11
-829.920154985003
 21
618.4296668409286
 31
0.0
  0
LINE
  5
F540
330
18
100
AcDbEntity
  8
0
  6
BYBLOCK
100
AcDbLine
 10
-828.848358225003
 20
614.4296668409286
 30
0.0
 11
-828.848358225003
 21
618.4296668409286
 31
0.0
  0
TEXT
  5
F541
330
18
100
AcDbEntity
  8
1DIM
  6
CONTINUOUS
100
AcDbText
 10
-830.2483582250032
 20
686.3204075816689
 30
0.0
 40
7.0
  1
169.5
 50
90.0
100
AcDbText
1001
ACAD
1000
DSTYLE
1002
{
1070
    40
1040
2.0
1070
   341
1005
0
1002
}
  0
LINE
  5
F542
330
18
100
AcDbEntity
  8
0
  6
BYBLOCK
100
AcDbLine
 10
-1094.711257442814
 20
618.4296668409287
 30
0.0
 11
-1095.783054202814
 21
614.4296668409287
 31
0.0
  0
LINE
  5
F543
330
18
100
AcDbEntity
  8
0
  6
BYBLOCK
100
AcDbLine
 10
-1095.783054202814
 20
614.4296668409287
 30
0.0
 11
-1096.854850962814
 21
618.4296668409287
 31
0.0
  0
LINE
  5
F544
330
18
100
AcDbEntity
  8
0
  6
BYBLOCK
100
AcDbLine
 10
-1095.783054202814
 20
614.4296668409287
 30
0.0
 11
-1095.783054202814
 21
618.4296668409287
 31
0.0
  0
LINE
  5
F545
330
18
100
AcDbEntity
  8
0
  6
BYBLOCK
100
AcDbLine
 10
-1096.854850962814
 20
642.4296668409291
 30
0.0
 11
-1095.783054202814
 21
646.4296668409291
 31
0.0
  0
LINE
  5
F546
330
18
100
AcDbEntity
  8
0
  6
BYBLOCK
100
AcDbLine
 10
-1095.783054202814
 20
646.4296668409291
 30
0.0
 11
-1094.711257442814
 21
642.4296668409291
 31
0.0
  0
LINE
  5
F547
330
18
100
AcDbEntity
  8
0
  6
BYBLOCK
100
AcDbLine
 10
-1095.783054202814
 20
646.4296668409291
 30
0.0
 11
-1095.783054202814
 21
642.4296668409291
 31
0.0
  0
TEXT
  5
F548
330
18
100
AcDbEntity
  8
1DIM
  6
CONTINUOUS
100
AcDbText
 10
-1097.183054202815
 20
624.5963335075955
 30
0.0
 40
7.0
  1
32
 50
90.0
100
AcDbText
1001
ACAD
1000
DSTYLE
1002
{
1070
    40
1040
2.0
1070
   341
1005
0
1002
}
  0
LINE
  5
F549
330
18
100
AcDbEntity
  8
0
  6
BYBLOCK
100
AcDbLine
 10
-1193.621789261975
 20
607.4096668409279
 30
0.0
 11
-1194.693586021975
 21
603.4096668409279
 31
0.0
  0
LINE
  5
F54A
330
18
100
AcDbEntity
  8
0
  6
BYBLOCK
100
AcDbLine
 10
-1194.693586021975
 20
603.4096668409279
 30
0.0
 11
-1195.765382781975
 21
607.4096668409279
 31
0.0
  0
LINE
  5
F54B
330
18
100
AcDbEntity
  8
0
  6
BYBLOCK
100
AcDbLine
 10
-1194.693586021975
 20
603.4096668409279
 30
0.0
 11
-1194.693586021975
 21
607.4096668409279
 31
0.0
  0
LINE
  5
F54C
330
18
100
AcDbEntity
  8
0
  6
BYBLOCK
100
AcDbLine
 10
-1195.765382781975
 20
610.429666840928
 30
0.0
 11
-1194.693586021975
 21
614.429666840928
 31
0.0
  0
LINE
  5
F54D
330
18
100
AcDbEntity
  8
0
  6
BYBLOCK
100
AcDbLine
 10
-1194.693586021975
 20
614.429666840928
 30
0.0
 11
-1193.621789261975
 21
610.429666840928
 31
0.0
  0
LINE
  5
F54E
330
18
100
AcDbEntity
  8
0
  6
BYBLOCK
100
AcDbLine
 10
-1194.693586021975
 20
614.429666840928
 30
0.0
 11
-1194.693586021975
 21
610.429666840928
 31
0.0
  0
TEXT
  5
F54F
330
18
100
AcDbEntity
  8
1DIM
  6
CONTINUOUS
100
AcDbText
 10
-1196.093586021976
 20
619.767166840928
 30
0.0
 40
7.0
  1
MAX30
 50
90.0
100
AcDbText
1001
ACAD
1000
DSTYLE
1002
{
1070
    40
1040
2.0
1070
   341
1005
0
1002
}
  0
LINE
  5
F550
330
18
100
AcDbEntity
  8
0
  6
BYBLOCK
100
AcDbLine
 10
-970.5299979378706
 20
527.5349674526236
 30
0.0
 11
-974.5299979378706
 21
528.6067642126236
 31
0.0
  0
LINE
  5
F551
330
18
100
AcDbEntity
  8
0
  6
BYBLOCK
100
AcDbLine
 10
-974.5299979378706
 20
528.6067642126236
 30
0.0
 11
-970.5299979378706
 21
529.6785609726236
 31
0.0
  0
LINE
  5
F552
330
18
100
AcDbEntity
  8
0
  6
BYBLOCK
100
AcDbLine
 10
-974.5299979378706
 20
528.6067642126236
 30
0.0
 11
-970.5299979378706
 21
528.6067642126236
 31
0.0
  0
LINE
  5
F553
330
18
100
AcDbEntity
  8
0
  6
BYBLOCK
100
AcDbLine
 10
-884.6833880912145
 20
529.6785609726236
 30
0.0
 11
-880.6833880912145
 21
528.6067642126236
 31
0.0
  0
LINE
  5
F554
330
18
100
AcDbEntity
  8
0
  6
BYBLOCK
100
AcDbLine
 10
-880.6833880912145
 20
528.6067642126236
 30
0.0
 11
-884.6833880912145
 21
527.5349674526236
 31
0.0
  0
LINE
  5
F555
330
18
100
AcDbEntity
  8
0
  6
BYBLOCK
100
AcDbLine
 10
-880.6833880912145
 20
528.6067642126236
 30
0.0
 11
-884.6833880912145
 21
528.6067642126236
 31
0.0
  0
TEXT
  5
F556
330
18
100
AcDbEntity
  8
1DIM
  6
CONTINUOUS
100
AcDbText
 10
-937.8166467182463
 20
531.840097545957
 30
0.0
 40
7.0
  1
(94)
100
AcDbText
1001
ACAD
1000
DSTYLE
1002
{
1070
     3
1000
(<>)
1070
    40
1040
2.0
1070
   271
1070
     0
1070
   341
1005
0
1002
}
  0
LINE
  5
F557
330
18
100
AcDbEntity
  8
0
  6
BYBLOCK
100
AcDbLine
 10
-1154.938745392362
 20
579.5591675437519
 30
0.0
 11
-1150.938745392362
 21
578.4873707837519
 31
0.0
  0
LINE
  5
F558
330
18
100
AcDbEntity
  8
0
  6
BYBLOCK
100
AcDbLine
 10
-1150.938745392362
 20
578.4873707837519
 30
0.0
 11
-1154.938745392362
 21
577.4155740237519
 31
0.0
  0
LINE
  5
F559
330
18
100
AcDbEntity
  8
0
  6
BYBLOCK
100
AcDbLine
 10
-1150.938745392362
 20
578.4873707837519
 30
0.0
 11
-1154.938745392362
 21
578.4873707837519
 31
0.0
  0
LINE
  5
F55A
330
18
100
AcDbEntity
  8
0
  6
BYBLOCK
100
AcDbLine
 10
-1167.938745392363
 20
577.4155740237519
 30
0.0
 11
-1171.938745392363
 21
578.4873707837519
 31
0.0
  0
LINE
  5
F55B
330
18
100
AcDbEntity
  8
0
  6
BYBLOCK
100
AcDbLine
 10
-1171.938745392363
 20
578.4873707837519
 30
0.0
 11
-1167.938745392363
 21
579.5591675437519
 31
0.0
  0
LINE
  5
F55C
330
18
100
AcDbEntity
  8
0
  6
BYBLOCK
100
AcDbLine
 10
-1171.938745392363
 20
578.4873707837519
 30
0.0
 11
-1167.938745392363
 21
578.4873707837519
 31
0.0
  0
TEXT
  5
F55D
330
18
100
AcDbEntity
  8
1DIM
  6
CONTINUOUS
100
AcDbText
 10
-1290.055412059029
 20
579.8873707837519
 30
0.0
 40
7.0
  1
21 （取付け穴径Φ22～27）
100
AcDbText
1001
ACAD
1000
DSTYLE
1002
{
1070
    40
1040
2.0
1002
}
  0
LINE
  5
F55E
330
18
100
AcDbEntity
  8
0
  6
BYBLOCK
100
AcDbLine
 10
-1010.068751258935
 20
725.4296668409283
 30
0.0
 11
-1008.996954498935
 21
729.4296668409283
 31
0.0
  0
LINE
  5
F55F
330
18
100
AcDbEntity
  8
0
  6
BYBLOCK
100
AcDbLine
 10
-1008.996954498935
 20
729.4296668409283
 30
0.0
 11
-1007.925157738935
 21
725.4296668409283
 31
0.0
  0
LINE
  5
F560
330
18
100
AcDbEntity
  8
0
  6
BYBLOCK
100
AcDbLine
 10
-1008.996954498935
 20
729.4296668409283
 30
0.0
 11
-1008.996954498935
 21
725.4296668409283
 31
0.0
  0
LINE
  5
F561
330
18
100
AcDbEntity
  8
0
  6
BYBLOCK
100
AcDbLine
 10
-1007.925157738935
 20
618.4296668409279
 30
0.0
 11
-1008.996954498935
 21
614.4296668409279
 31
0.0
  0
LINE
  5
F562
330
18
100
AcDbEntity
  8
0
  6
BYBLOCK
100
AcDbLine
 10
-1008.996954498935
 20
614.4296668409279
 30
0.0
 11
-1010.068751258935
 21
618.4296668409279
 31
0.0
  0
LINE
  5
F563
330
18
100
AcDbEntity
  8
0
  6
BYBLOCK
100
AcDbLine
 10
-1008.996954498935
 20
614.4296668409279
 30
0.0
 11
-1008.996954498935
 21
618.4296668409279
 31
0.0
  0
TEXT
  5
F564
330
18
100
AcDbEntity
  8
1DIM
  6
CONTINUOUS
100
AcDbText
 10
-1010.396954498935
 20
664.9296668409279
 30
0.0
 40
7.0
  1
115
 50
90.0
100
AcDbText
1001
ACAD
1000
DSTYLE
1002
{
1070
    40
1040
2.0
1002
}
  0
LINE
  5
F565
330
18
100
AcDbEntity
  8
0
  6
BYBLOCK
100
AcDbLine
 10
-911.9929544368916
 20
768.0912857238895
 30
0.0
 11
-909.5590512730812
 21
771.4416384939632
 31
0.0
  0
LINE
  5
F566
330
18
100
AcDbEntity
  8
0
  6
BYBLOCK
100
AcDbLine
 10
-909.5590512730812
 20
771.4416384939632
 30
0.0
 11
-909.991696876939
 21
767.3231963034973
 31
0.0
  0
LINE
  5
F567
330
18
100
AcDbEntity
  8
0
  6
BYBLOCK
100
AcDbLine
 10
-909.5590512730812
 20
771.4416384939632
 30
0.0
 11
-910.9923256569153
 21
767.7072410136934
 31
0.0
  0
TEXT
  5
F568
330
18
100
AcDbEntity
  8
1DIM
  6
CONTINUOUS
100
AcDbText
 10
-922.9892028877728
 20
740.3565058410235
 30
0.0
 40
7.0
  1
R45
 50
69.00302890190908
100
AcDbText
1001
ACAD
1000
DSTYLE
1002
{
1070
    40
1040
2.0
1002
}
  0
LINE
  5
F569
330
18
100
AcDbEntity
  8
0
  6
BYBLOCK
100
AcDbLine
 10
-949.0553008154743
 20
734.9200475464539
 30
0.0
 11
-946.7999887562969
 21
738.393132027211
 31
0.0
  0
LINE
  5
F56A
330
18
100
AcDbEntity
  8
0
  6
BYBLOCK
100
AcDbLine
 10
-946.7999887562969
 20
738.393132027211
 30
0.0
 11
-947.0166040713879
 21
734.2576966087798
 31
0.0
  0
LINE
  5
F56B
330
18
100
AcDbEntity
  8
0
  6
BYBLOCK
100
AcDbLine
 10
-946.7999887562969
 20
738.393132027211
 30
0.0
 11
-948.035952443431
 21
734.5888720776169
 31
0.0
  0
LINE
  5
F56C
330
18
100
AcDbEntity
  8
0
  6
BYBLOCK
100
AcDbLine
 10
-947.2071784602856
 20
733.320993561247
 30
0.0
 11
-948.6236263592504
 21
729.4296668409285
 31
0.0
  0
LINE
  5
F56D
330
18
100
AcDbEntity
  8
0
  6
BYBLOCK
100
AcDbLine
 10
-948.6236263592504
 20
729.4296668409285
 30
0.0
 11
-949.3426098372681
 21
733.5078785878935
 31
0.0
  0
LINE
  5
F56E
330
18
100
AcDbEntity
  8
0
  6
BYBLOCK
100
AcDbLine
 10
-948.6236263592504
 20
729.4296668409285
 30
0.0
 11
-948.2748941487769
 21
733.4144360745703
 31
0.0
  0
TEXT
  5
F56F
330
18
100
AcDbEntity
  8
1DIM
  6
CONTINUOUS
100
AcDbText
 10
-945.9435404329195
 20
742.9223269899169
 30
0.0
 40
7.0
  1
23°
 50
56.99685856146392
100
AcDbText
1001
ACAD
1000
DSTYLE
1002
{
1070
    40
1040
2.0
1002
}
  0
LINE
  5
F570
330
18
100
AcDbEntity
  8
0
  6
BYBLOCK
100
AcDbLine
 10
-1010.068751258935
 20
610.4296668409279
 30
0.0
 11
-1008.996954498935
 21
614.4296668409279
 31
0.0
  0
LINE
  5
F571
330
18
100
AcDbEntity
  8
0
  6
BYBLOCK
100
AcDbLine
 10
-1008.996954498935
 20
614.4296668409279
 30
0.0
 11
-1007.925157738935
 21
610.4296668409279
 31
0.0
  0
LINE
  5
F572
330
18
100
AcDbEntity
  8
0
  6
BYBLOCK
100
AcDbLine
 10
-1008.996954498935
 20
614.4296668409279
 30
0.0
 11
-1008.996954498935
 21
610.4296668409279
 31
0.0
  0
LINE
  5
F573
330
18
100
AcDbEntity
  8
0
  6
BYBLOCK
100
AcDbLine
 10
-1007.925157738935
 20
565.4296668409288
 30
0.0
 11
-1008.996954498935
 21
561.4296668409288
 31
0.0
  0
LINE
  5
F574
330
18
100
AcDbEntity
  8
0
  6
BYBLOCK
100
AcDbLine
 10
-1008.996954498935
 20
561.4296668409288
 30
0.0
 11
-1010.068751258935
 21
565.4296668409288
 31
0.0
  0
LINE
  5
F575
330
18
100
AcDbEntity
  8
0
  6
BYBLOCK
100
AcDbLine
 10
-1008.996954498935
 20
561.4296668409288
 30
0.0
 11
-1008.996954498935
 21
565.4296668409288
 31
0.0
  0
TEXT
  5
F576
330
18
100
AcDbEntity
  8
1DIM
  6
CONTINUOUS
100
AcDbText
 10
-1010.396954498935
 20
582.0720279520394
 30
0.0
 40
7.0
  1
53
 50
90.0
100
AcDbText
1001
ACAD
1000
DSTYLE
1002
{
1070
    40
1040
2.0
1002
}
  0
LINE
  5
F577
330
18
100
AcDbEntity
  8
0
  6
BYBLOCK
100
AcDbLine
 10
-1213.208423843794
 20
679.4296668409287
 30
0.0
 11
-1212.136627083793
 21
683.4296668409287
 31
0.0
  0
LINE
  5
F578
330
18
100
AcDbEntity
  8
0
  6
BYBLOCK
100
AcDbLine
 10
-1212.136627083793
 20
683.4296668409287
 30
0.0
 11
-1211.064830323793
 21
679.4296668409287
 31
0.0
  0
LINE
  5
F579
330
18
100
AcDbEntity
  8
0
  6
BYBLOCK
100
AcDbLine
 10
-1212.136627083793
 20
683.4296668409287
 30
0.0
 11
-1212.136627083793
 21
679.4296668409287
 31
0.0
  0
LINE
  5
F57A
330
18
100
AcDbEntity
  8
0
  6
BYBLOCK
100
AcDbLine
 10
-1211.064830323793
 20
691.4296668409288
 30
0.0
 11
-1212.136627083793
 21
687.4296668409288
 31
0.0
  0
LINE
  5
F57B
330
18
100
AcDbEntity
  8
0
  6
BYBLOCK
100
AcDbLine
 10
-1212.136627083793
 20
687.4296668409288
 30
0.0
 11
-1213.208423843794
 21
691.4296668409288
 31
0.0
  0
LINE
  5
F57C
330
18
100
AcDbEntity
  8
0
  6
BYBLOCK
100
AcDbLine
 10
-1212.136627083793
 20
687.4296668409288
 30
0.0
 11
-1212.136627083793
 21
691.4296668409288
 31
0.0
  0
TEXT
  5
F57D
330
18
100
AcDbEntity
  8
1DIM
  6
CONTINUOUS
100
AcDbText
 10
-1213.536627083794
 20
696.9963335075954
 30
0.0
 40
7.0
  1
4
 50
90.0
100
AcDbText
1001
ACAD
1000
DSTYLE
1002
{
1070
    40
1040
2.0
1002
}
  0
LINE
  5
F57E
330
18
100
AcDbEntity
  8
0
  6
BYBLOCK
100
AcDbLine
 10
-1211.064830323793
 20
618.429666840928
 30
0.0
 11
-1212.136627083793
 21
614.429666840928
 31
0.0
  0
LINE
  5
F57F
330
18
100
AcDbEntity
  8
0
  6
BYBLOCK
100
AcDbLine
 10
-1212.136627083793
 20
614.429666840928
 30
0.0
 11
-1213.208423843794
 21
618.429666840928
 31
0.0
  0
LINE
  5
F580
330
18
100
AcDbEntity
  8
0
  6
BYBLOCK
100
AcDbLine
 10
-1212.136627083793
 20
614.429666840928
 30
0.0
 11
-1212.136627083793
 21
618.429666840928
 31
0.0
  0
LINE
  5
F581
330
18
100
AcDbEntity
  8
0
  6
BYBLOCK
100
AcDbLine
 10
-1213.208423843794
 20
679.4296668409287
 30
0.0
 11
-1212.136627083793
 21
683.4296668409287
 31
0.0
  0
LINE
  5
F582
330
18
100
AcDbEntity
  8
0
  6
BYBLOCK
100
AcDbLine
 10
-1212.136627083793
 20
683.4296668409287
 30
0.0
 11
-1211.064830323793
 21
679.4296668409287
 31
0.0
  0
LINE
  5
F583
330
18
100
AcDbEntity
  8
0
  6
BYBLOCK
100
AcDbLine
 10
-1212.136627083793
 20
683.4296668409287
 30
0.0
 11
-1212.136627083793
 21
679.4296668409287
 31
0.0
  0
TEXT
  5
F584
330
18
100
AcDbEntity
  8
1DIM
  6
CONTINUOUS
100
AcDbText
 10
-1213.536627083794
 20
643.0704075816689
 30
0.0
 40
7.0
  1
69
 50
90.0
100
AcDbText
1001
ACAD
1000
DSTYLE
1002
{
1070
    40
1040
2.0
1002
}
  0
LINE
  5
F585
330
18
100
AcDbEntity
  8
0
  6
BYBLOCK
100
AcDbLine
 10
-1174.938745392363
 20
527.5349674526236
 30
0.0
 11
-1178.938745392363
 21
528.6067642126236
 31
0.0
  0
LINE
  5
F586
330
18
100
AcDbEntity
  8
0
  6
BYBLOCK
100
AcDbLine
 10
-1178.938745392363
 20
528.6067642126236
 30
0.0
 11
-1174.938745392363
 21
529.6785609726236
 31
0.0
  0
LINE
  5
F587
330
18
100
AcDbEntity
  8
0
  6
BYBLOCK
100
AcDbLine
 10
-1178.938745392363
 20
528.6067642126236
 30
0.0
 11
-1174.938745392363
 21
528.6067642126236
 31
0.0
  0
LINE
  5
F588
330
18
100
AcDbEntity
  8
0
  6
BYBLOCK
100
AcDbLine
 10
-1114.938745392363
 20
529.6785609726236
 30
0.0
 11
-1110.938745392363
 21
528.6067642126236
 31
0.0
  0
LINE
  5
F589
330
18
100
AcDbEntity
  8
0
  6
BYBLOCK
100
AcDbLine
 10
-1110.938745392363
 20
528.6067642126236
 30
0.0
 11
-1114.938745392363
 21
527.5349674526236
 31
0.0
  0
LINE
  5
F58A
330
18
100
AcDbEntity
  8
0
  6
BYBLOCK
100
AcDbLine
 10
-1110.938745392363
 20
528.6067642126236
 30
0.0
 11
-1114.938745392363
 21
528.6067642126236
 31
0.0
  0
TEXT
  5
F58B
330
18
100
AcDbEntity
  8
1DIM
  6
CONTINUOUS
100
AcDbText
 10
-1150.796384281251
 20
530.0067642126236
 30
0.0
 40
7.0
  1
68
100
AcDbText
1001
ACAD
1000
DSTYLE
1002
{
1070
    40
1040
2.0
1002
}
  0
VIEWPORT
  5
57
330
15
100
AcDbEntity
 67
     1
  8
0
100
AcDbViewport
 68
     1
 10
0.0
 20
0.0
 30
0.0
 40
630.5106382978724
 41
297.0
 68
     1
 69
     1
1001
ACAD
1000
MVIEW
1002
{
1070
    16
1010
0.0
1020
0.0
1030
0.0
1010
0.0
1020
0.0
1030
1.0
1040
0.0
1040
297.0
1040
-4.171999999925276
1040
12.53903210976955
1040
50.0
1040
0.0
1040
0.0
1070
    16
1070
   100
1070
     0
1070
     1
1070
     0
1070
     0
1070
     0
1070
     0
1040
0.0
1040
0.0
1040
0.0
1040
10.0
1040
10.0
1040
10.0
1040
10.0
1070
     0
1002
{
1002
}
1002
}
  0
ENDSEC
  0
SECTION
  2
OBJECTS
  0
DICTIONARY
  5
C
330
0
100
AcDbDictionary
  3
ACAD_COLOR
350
D717
  3
ACAD_GROUP
350
D
  3
ACAD_LAYOUT
350
D71A
  3
ACAD_MATERIAL
350
D716
  3
ACAD_MLEADERSTYLE
350
EB47
  3
ACAD_MLINESTYLE
350
1B
  3
ACAD_PLOTSETTINGS
350
D71B
  3
ACAD_SCALELIST
350
EB35
  3
ACAD_VISUALSTYLE
350
EB21
  3
ACDBHEADERROUNDTRIPXREC
350
F58D
  3
ACDBVARIABLEDICTIONARY
350
37
  3
AEC_PROPERTY_SET_DEFS
350
F3C8
  3
CONTENTDICTIONARY
350
D8
  3
DRAWINGVARIABLESDICT
350
20
  3
DWGPROPS
350
F590
1001
ACAD
1000
TREAT_AS_HARD
1070
     0
  0
DICTIONARY
  5
EB69
330
2
100
AcDbDictionary
  3
ACAD_LAYERSTATES
360
EB6A
1001
ACAD
1000
TREAT_AS_HARD
1070
     1
  0
DICTIONARY
  5
EB91
330
E
100
AcDbDictionary
  3
ADSK_XREC_LAYER_RECONCILED
360
EB92
1001
ACAD
1000
TREAT_AS_HARD
1070
     1
  0
DICTIONARY
  5
EB93
330
29
100
AcDbDictionary
  3
ADSK_XREC_LAYER_RECONCILED
360
EB94
1001
ACAD
1000
TREAT_AS_HARD
1070
     1
  0
DICTIONARY
  5
EB95
330
31
100
AcDbDictionary
  3
ADSK_XREC_LAYER_RECONCILED
360
EB96
1001
ACAD
1000
TREAT_AS_HARD
1070
     1
  0
DICTIONARY
  5
EB9F
330
101
100
AcDbDictionary
  3
ADSK_XREC_LAYER_RECONCILED
360
EBA0
1001
ACAD
1000
TREAT_AS_HARD
1070
     1
  0
DICTIONARY
  5
EBA3
330
103
100
AcDbDictionary
  3
ADSK_XREC_LAYER_RECONCILED
360
EBA4
1001
ACAD
1000
TREAT_AS_HARD
1070
     1
  0
DICTIONARY
  5
EBAB
330
159
100
AcDbDictionary
  3
ADSK_XREC_LAYER_RECONCILED
360
EBAC
1001
ACAD
1000
TREAT_AS_HARD
1070
     1
  0
DICTIONARY
  5
EBB1
330
15C
100
AcDbDictionary
  3
ADSK_XREC_LAYER_RECONCILED
360
EBB2
1001
ACAD
1000
TREAT_AS_HARD
1070
     1
  0
DICTIONARY
  5
D746
330
18
100
AcDbDictionary
  3
ACAD_SORTENTS
360
D747
1001
ACAD
1000
TREAT_AS_HARD
1070
     1
  0
DICTIONARY
  5
D717
102
{ACAD_REACTORS
330
C
102
}
330
C
100
AcDbDictionary
1001
ACAD
1000
TREAT_AS_HARD
1070
     0
  0
DICTIONARY
  5
D
102
{ACAD_REACTORS
330
C
102
}
330
C
100
AcDbDictionary
1001
ACAD
1000
TREAT_AS_HARD
1070
     0
  0
DICTIONARY
  5
D71A
102
{ACAD_REACTORS
330
C
102
}
330
C
100
AcDbDictionary
1001
ACAD
1000
TREAT_AS_HARD
1070
     0
  0
DICTIONARY
  5
D716
102
{ACAD_REACTORS
330
C
102
}
330
C
100
AcDbDictionary
  3
BYBLOCK
350
EB11
  3
BYLAYER
350
EB09
  3
GLOBAL
350
EB19
1001
ACAD
1000
TREAT_AS_HARD
1070
     0
  0
DICTIONARY
  5
EB47
102
{ACAD_REACTORS
330
C
102
}
330
C
100
AcDbDictionary
  3
STANDARD
350
EB48
1001
ACAD
1000
TREAT_AS_HARD
1070
     0
  0
DICTIONARY
  5
1B
102
{ACAD_REACTORS
330
C
102
}
330
C
100
AcDbDictionary
  3
STANDARD
350
1C
1001
ACAD
1000
TREAT_AS_HARD
1070
     0
  0
DICTIONARY
  5
D71B
102
{ACAD_REACTORS
330
C
102
}
330
C
100
AcDbDictionary
1001
ACAD
1000
TREAT_AS_HARD
1070
     0
  0
DICTIONARY
  5
EB35
102
{ACAD_REACTORS
330
C
102
}
330
C
100
AcDbDictionary
  3
*A1
350
EB55
  3
*A10
350
EB58
  3
*A11
350
EB59
  3
*A12
350
EB5A
  3
*A13
350
EB5B
  3
*A14
350
EB5C
  3
*A15
350
EB5D
  3
*A16
350
EB5E
  3
*A2
350
EB5F
  3
*A3
350
EB60
  3
*A4
350
EB61
  3
*A5
350
EB62
  3
*A6
350
EB63
  3
*A7
350
EB64
  3
*A8
350
EB56
  3
*A9
350
EB57
  3
A0
350
EB36
  3
A1
350
EB37
  3
A2
350
EB38
  3
A3
350
EB39
  3
A4
350
EB3A
  3
A5
350
EB3B
  3
A6
350
EB3C
  3
A7
350
EB3D
  3
A8
350
EB3E
  3
A9
350
EB3F
  3
B0
350
EB40
  3
B1
350
EB41
  3
B2
350
EB42
  3
B3
350
EB43
  3
B4
350
EB44
  3
B5
350
EB45
  3
B6
350
EB46
1001
ACAD
1000
TREAT_AS_HARD
1070
     0
  0
DICTIONARY
  5
EB21
102
{ACAD_REACTORS
330
C
102
}
330
C
100
AcDbDictionary
  3
2DWIREFRAME
350
EB27
  3
3D_HIDDEN
350
EB29
  3
3DWIREFRAME
350
EB28
  3
BASIC
350
EB26
  3
BRIGHTEN
350
EB2D
  3
COLORCHANGE
350
EB31
  3
CONCEPTUAL
350
EB2A
  3
DIM
350
EB2C
  3
EDGECOLOROFF
350
EB34
  3
FACEPATTERN
350
EB30
  3
FLAT
350
EB22
  3
FLATWITHEDGES
350
EB23
  3
GOURAUD
350
EB24
  3
GOURAUDWITHEDGES
350
EB25
  3
HIDDEN
350
F41F
  3
JITTEROFF
350
EB32
  3
LINEPATTERN
350
EB2F
  3
MODELING
350
F425
  3
OVERHANGOFF
350
EB33
  3
REALISTIC
350
EB2B
  3
SHADED
350
F424
  3
SHADED_WITH_EDGES
350
F423
  3
SHADES_OF_GRAY
350
F420
  3
SKETCHY
350
F421
  3
THICKEN
350
EB2E
  3
WIREFRAME
350
F41E
  3
X-RAY
350
F422
1001
ACAD
1000
TREAT_AS_HARD
1070
     0
  0
DICTIONARY
  5
F58D
102
{ACAD_REACTORS
330
C
102
}
330
C
100
AcDbDictionary
  3
COLORDICT
350
F58E
  3
MATERIALDICT
350
F58F
1001
ACAD
1000
TREAT_AS_HARD
1070
     0
  0
DICTIONARY
  5
37
102
{ACAD_REACTORS
330
C
102
}
330
C
100
AcDbDictionary
  3
CANNOSCALE
350
F45D
  3
CMLEADERSTYLE
350
EC20
  3
CTABLESTYLE
350
D733
  3
DIMADEC
350
38
  3
DIMASSOC
350
D78B
  3
HIDETEXT
350
F58C
  3
INDEXCTL
350
EC22
  3
MSLTSCALE
350
F4AD
  3
PROJECTNAME
350
D78C
  3
SORTENTS
350
18FA
  3
XCLIPFRAME
350
F41D
1001
ACAD
1000
TREAT_AS_HARD
1070
     0
  0
DICTIONARY
  5
F3C8
102
{ACAD_REACTORS
330
C
102
}
330
C
100
AcDbDictionary
1001
ACAD
1000
TREAT_AS_HARD
1070
     0
  0
DICTIONARY
  5
D8
102
{ACAD_REACTORS
330
C
102
}
330
C
100
AcDbDictionary
1001
CONTENTTABDATA
1070
     3
1000
CHILDREN.dwg
1000
D:\ACLT\TABSET\CHILDREN.dwg
1070
     0
1070
     0
1070
     1
1000
REGION.dwg
1000
D:\ACLT\TABSET\REGION.dwg
1070
     0
1070
     0
1070
     1
1000
std_sym_all.dwg
1000
D:\ACLT\TABSET\std_sym_all.dwg
1070
     0
1070
     0
1070
     1
1001
CONTENTCURRENTTAB
1070
     0
1001
ACAD
1000
TREAT_AS_HARD
1070
     0
  0
DICTIONARY
  5
20
102
{ACAD_REACTORS
330
C
102
}
330
C
100
AcDbDictionary
1001
DRAWINGVARIABLESXDATA
1000
POLARANG
1000
0.261799387799149410000000
1000
POLARMODE
1000
1
1000
POLARSTYLE
1000
1
1001
ACAD
1000
TREAT_AS_HARD
1070
     0
  0
XRECORD
  5
F590
102
{ACAD_REACTORS
330
C
102
}
330
C
100
AcDbXrecord
  1
DWGPROPS COOKIE
  2

  3

  4

  6

  7

  8
3684
  9

300
=
301
=
302
=
303
=
304
=
305
=
306
=
307
=
308
=
309
=
 40
0.0
 41
2451318.246352917
 42
2458065.014395104
  1

 90
        0
  0
DICTIONARY
  5
EB6A
102
{ACAD_REACTORS
330
EB69
102
}
330
EB69
100
AcDbDictionary
1001
ACAD
1000
TREAT_AS_HARD
1070
     0
  0
ACAD_PROXY_OBJECT
  5
EB92
102
{ACAD_REACTORS
330
EB91
102
}
330
EB91
100
AcDbZombieObject
 90
      499
 91
      516
 93
       34
310
40C8804040
  0
ACAD_PROXY_OBJECT
  5
EB94
102
{ACAD_REACTORS
330
EB93
102
}
330
EB93
100
AcDbZombieObject
 90
      499
 91
      516
 93
       34
310
40C8804040
  0
ACAD_PROXY_OBJECT
  5
EB96
102
{ACAD_REACTORS
330
EB95
102
}
330
EB95
100
AcDbZombieObject
 90
      499
 91
      516
 93
       34
310
40C8804040
  0
ACAD_PROXY_OBJECT
  5
EBA0
102
{ACAD_REACTORS
330
EB9F
102
}
330
EB9F
100
AcDbZombieObject
 90
      499
 91
      516
 93
       34
310
40C8804040
  0
ACAD_PROXY_OBJECT
  5
EBA4
102
{ACAD_REACTORS
330
EBA3
102
}
330
EBA3
100
AcDbZombieObject
 90
      499
 91
      516
 93
       34
310
40C8804040
  0
ACAD_PROXY_OBJECT
  5
EBAC
102
{ACAD_REACTORS
330
EBAB
102
}
330
EBAB
100
AcDbZombieObject
 90
      499
 91
      516
 93
       34
310
40C8804040
  0
ACAD_PROXY_OBJECT
  5
EBB2
102
{ACAD_REACTORS
330
EBB1
102
}
330
EBB1
100
AcDbZombieObject
 90
      499
 91
      516
 93
       34
310
40C8804040
  0
SORTENTSTABLE
  5
D747
102
{ACAD_REACTORS
330
D746
102
}
330
D746
100
AcDbSortentsTable
330
18
331
9B9D
  5
9BA4
331
9BA4
  5
9BA5
331
9BA5
  5
9DE5
331
9DE7
  5
9DE8
331
9DE8
  5
9DE9
331
9DE9
  5
9DEA
331
9DEF
  5
9DF2
331
9DF1
  5
9DF7
331
9DF2
  5
9DFA
331
9DF3
  5
9DFC
331
9DF6
  5
9DFF
331
9DF7
  5
9E03
331
9DFA
  5
9E04
331
9DFC
  5
9E05
331
9DFF
  5
9E06
331
9E03
  5
9E07
331
9E04
  5
9E7F
331
9E05
  5
9E8E
331
9E06
  5
9E8F
331
9E07
  5
9E94
331
9E7F
  5
9E95
331
9E8E
  5
9EAB
331
9E8F
  5
A1D4
331
9EAB
  5
A1DA
331
A1DA
  5
A1DE
331
A1DB
  5
A1DF
331
A1DC
  5
A1E9
331
A1DD
  5
A1EA
331
A1DE
  5
A1F6
331
A1DF
  5
A27F
331
A1E9
  5
A28E
331
A1EA
  5
A2C4
331
A1F6
  5
A307
331
0
  5
A397
331
A73B
  5
B378
331
A79C
  5
B506
331
A9AD
  5
B522
331
AA5F
  5
BA14
331
B05E
  5
D233
331
B05F
  5
D235
331
B06A
  5
D236
331
B06C
  5
D237
331
B06E
  5
D238
331
B205
  5
D23D
331
B213
  5
D248
331
B506
  5
D249
331
B522
  5
D24A
331
B523
  5
D24B
331
B542
  5
D24C
331
B947
  5
D24D
331
BD83
  5
D24E
331
BD9D
  5
D24F
331
BD9F
  5
D250
331
D172
  5
D54C
331
D173
  5
D54E
331
D174
  5
D55E
331
D175
  5
D560
331
D176
  5
D563
331
0
  5
D247
331
D1F4
  5
D5B3
331
D1F5
  5
D5B4
331
D1F6
  5
D5B7
331
D1F7
  5
D5B8
331
D1F8
  5
D5E5
331
D1F9
  5
D5E8
331
D1FA
  5
D5EA
331
D1FB
  5
D5EB
331
D1FC
  5
D5EC
331
D209
  5
D5EF
331
D20A
  5
D5F0
331
D20B
  5
D5F2
331
D20C
  5
D5F5
331
D20D
  5
D5F6
331
D20E
  5
D75A
331
D20F
  5
D75D
331
D210
  5
D75F
331
D211
  5
D993
331
D212
  5
DABE
331
D213
  5
DAC0
331
D214
  5
DB93
331
D215
  5
DBA3
331
D216
  5
DBA4
331
D217
  5
DBA6
331
D218
  5
DBA7
331
D219
  5
DBA8
331
D21A
  5
DD97
331
D21B
  5
DD98
331
D21E
  5
DF44
331
D21F
  5
DF46
331
D220
  5
DF47
331
D221
  5
DF49
331
D222
  5
E039
331
D223
  5
E03A
331
D224
  5
E03E
331
D225
  5
E03F
331
D226
  5
E040
331
D227
  5
E041
331
D228
  5
E04F
331
D229
  5
E050
331
D22A
  5
E051
331
D22B
  5
E072
331
D22C
  5
E172
331
D22D
  5
E173
331
D427
  5
E174
331
D428
  5
E175
331
D429
  5
E176
331
D528
  5
E177
331
D529
  5
E178
331
D543
  5
E179
331
D546
  5
E17A
331
D549
  5
E17B
331
D54B
  5
E17C
331
D54C
  5
E185
331
D560
  5
E186
331
D563
  5
E187
331
D565
  5
E188
331
D567
  5
E189
331
D56F
  5
E18A
331
D572
  5
E18B
331
D59B
  5
E18C
331
D59C
  5
E18D
331
D97B
  5
E18E
331
D97E
  5
E191
331
D97F
  5
E192
331
D982
  5
E193
331
D983
  5
E194
331
D984
  5
E195
331
DB93
  5
E196
331
DB94
  5
E197
331
DB95
  5
E198
331
DB96
  5
E199
331
DB97
  5
E19A
331
DB98
  5
E19B
331
DB99
  5
E19C
331
DB9A
  5
E19D
331
DB9B
  5
E19E
331
DB9C
  5
E19F
331
DB9D
  5
E1A0
331
E039
  5
E1A1
331
E03A
  5
E1A2
331
E03B
  5
E1A3
331
E03C
  5
E1A4
331
E03D
  5
E1A5
331
E03E
  5
E1A6
331
E03F
  5
E1A7
331
E040
  5
E1A8
331
E041
  5
E1A9
331
E04F
  5
E1AA
331
E050
  5
E1AB
331
E051
  5
E1AC
331
E073
  5
B947
331
E074
  5
9DF6
331
E170
  5
E1AD
331
E171
  5
E1AE
331
E172
  5
E1AF
331
E173
  5
E1B0
331
E174
  5
E1B3
331
E175
  5
E403
331
E176
  5
E404
331
E177
  5
E405
331
E178
  5
E406
331
E179
  5
E407
331
E17A
  5
E408
331
E17B
  5
E409
331
E17C
  5
E40A
331
E17D
  5
E40B
331
E17E
  5
E40C
331
E17F
  5
E40D
331
E180
  5
E40E
331
E181
  5
E40F
331
E182
  5
E410
331
E183
  5
E411
331
E184
  5
E412
331
E185
  5
E413
331
E186
  5
E414
331
E187
  5
E415
331
E188
  5
E416
331
E189
  5
E417
331
E18A
  5
E418
331
E18B
  5
E419
331
E18C
  5
E41A
331
E18D
  5
E41B
331
E18E
  5
E41C
331
E18F
  5
E41D
331
E190
  5
E41E
331
E191
  5
E41F
331
E192
  5
E420
331
E193
  5
E421
331
E194
  5
E422
331
E195
  5
E423
331
E196
  5
E424
331
E197
  5
E467
331
E198
  5
E468
331
E199
  5
E469
331
E19A
  5
E46A
331
E19B
  5
E46B
331
E19C
  5
E46C
331
E19D
  5
E46D
331
E19E
  5
E46E
331
E19F
  5
E46F
331
E1A0
  5
E470
331
E1A1
  5
E471
331
E1A2
  5
E472
331
E1A3
  5
E473
331
E1A4
  5
E474
331
E1A5
  5
E475
331
E1A6
  5
E476
331
E1A7
  5
E477
331
E1A8
  5
E478
331
E1A9
  5
E479
331
E1AA
  5
E47A
331
E1AB
  5
E47B
331
E1AC
  5
E47C
331
E1AD
  5
E47D
331
E1AE
  5
E47E
331
E1AF
  5
E47F
331
E1B0
  5
E480
331
E445
  5
E481
331
E446
  5
E482
331
E447
  5
E483
331
E448
  5
E484
331
E449
  5
E485
331
E44A
  5
E486
331
E44B
  5
E487
331
E44C
  5
E488
331
E44D
  5
E489
331
E44E
  5
E48A
331
E44F
  5
E48B
331
E450
  5
E48C
331
E451
  5
E48D
331
E452
  5
E48E
331
E453
  5
E48F
331
E454
  5
E490
331
E455
  5
E491
331
E456
  5
E492
331
E457
  5
E493
331
E458
  5
E494
331
E459
  5
E495
331
E45A
  5
E496
331
E45B
  5
E497
331
E45C
  5
E498
331
E45D
  5
E499
331
E45E
  5
E49C
331
E45F
  5
E49D
331
E460
  5
E49E
331
E461
  5
E49F
331
E462
  5
E4A4
331
E463
  5
E4A5
331
E464
  5
E4A7
331
E465
  5
E4A9
331
E466
  5
E4AA
331
E467
  5
E4AB
331
E468
  5
E4AC
331
E469
  5
E4AD
331
E46A
  5
E4AE
331
E46B
  5
E4AF
331
E46C
  5
E4B0
331
E46D
  5
E4B1
331
E46E
  5
E4B2
331
E46F
  5
E4B3
331
E470
  5
E4B4
331
E471
  5
E4B5
331
E472
  5
E4B6
331
E473
  5
E4B7
331
E474
  5
E4B8
331
E475
  5
E4B9
331
E476
  5
E4BA
331
E477
  5
E4BB
331
E478
  5
E4BC
331
E479
  5
E4BD
331
E47C
  5
E4BE
331
E47D
  5
E4BF
331
E47E
  5
E4C0
331
E47F
  5
E4C1
331
E485
  5
E4C2
331
E487
  5
E4C3
331
E488
  5
E4C4
331
E489
  5
E4C5
331
E48A
  5
E4C6
331
E48B
  5
E4C7
331
E48C
  5
E4C8
331
E48D
  5
E4C9
331
E48E
  5
E4CA
331
E48F
  5
E4CB
331
E490
  5
E4CC
331
E491
  5
E4CD
331
E492
  5
E4CE
331
E493
  5
E4CF
331
E494
  5
E4D0
331
E495
  5
E4D1
331
E496
  5
E4D2
331
E497
  5
E4D3
331
E498
  5
E4D4
331
E499
  5
E4D5
331
E49A
  5
E4D6
331
E49B
  5
E4D7
331
E49C
  5
E4D8
331
E49D
  5
E4D9
331
E49E
  5
E4DA
331
E49F
  5
E4DB
331
E4A0
  5
E4ED
331
E4A1
  5
E4EE
331
E4A2
  5
E4EF
331
E4A3
  5
E507
331
E4A4
  5
E508
331
E4A5
  5
E50C
331
E4A6
  5
E50D
331
E4A7
  5
E78C
331
E4A8
  5
E78E
331
E4A9
  5
E790
331
E4AA
  5
E791
331
E4AB
  5
E792
331
E4AC
  5
E794
331
E4AD
  5
E798
331
E4AE
  5
E79E
331
E4AF
  5
E79F
331
E4B0
  5
E7A0
331
E4B1
  5
E7A1
331
E4B2
  5
E7A3
331
E4B3
  5
E7BF
331
E4B4
  5
E800
331
E4B5
  5
E801
331
E4B6
  5
E803
331
E4B7
  5
E891
331
E4B8
  5
E8E4
331
E4B9
  5
E92F
331
E4BA
  5
E930
331
E4BB
  5
E931
331
E4BE
  5
E932
331
E4D1
  5
D222
331
E4D2
  5
D227
331
E4D3
  5
D21A
331
E4D4
  5
D218
331
E4D9
  5
D219
331
E4DA
  5
D217
331
E4DB
  5
D221
331
E4DC
  5
D223
331
E4DD
  5
D22B
331
E4DE
  5
D229
331
E4E1
  5
D231
331
E4E2
  5
D22D
331
E4E5
  5
D230
331
E4E6
  5
D22C
331
E4E7
  5
D22A
331
E4E8
  5
D228
331
E4FE
  5
E933
331
E500
  5
E934
331
E50A
  5
EABA
331
E50B
  5
EABB
331
0
  5
E53E
331
0
  5
E53F
331
0
  5
E5FF
331
0
  5
E615
331
0
  5
E638
331
0
  5
E6C9
331
0
  5
E6CB
331
0
  5
E6CE
331
E789
  5
F4EF
331
E78B
  5
F4F4
331
E78C
  5
F4F7
331
E78D
  5
F4F8
331
E78E
  5
F4F9
331
E791
  5
F4FA
331
E794
  5
F4FB
331
E795
  5
F4FF
331
E796
  5
F500
331
E798
  5
F501
331
E79E
  5
F502
331
E79F
  5
F503
331
E7A0
  5
F504
331
E7A1
  5
F505
331
E7A2
  5
F4F0
331
0
  5
E802
331
E800
  5
F517
331
E801
  5
F518
331
E802
  5
F51C
331
E803
  5
F51D
331
0
  5
E8F1
331
0
  5
E8FB
331
0
  5
E918
331
0
  5
E92D
331
0
  5
E92E
331
E918
  5
F551
331
E92D
  5
F552
331
E92E
  5
F553
331
E92F
  5
F554
331
E930
  5
F555
331
E931
  5
F556
331
E932
  5
F557
331
E933
  5
F558
331
E934
  5
F559
331
0
  5
EA52
331
0
  5
EAAD
331
0
  5
EAAE
331
0
  5
EAB9
331
EAAD
  5
F584
331
EAAE
  5
F585
331
EB82
  5
F586
331
EB83
  5
F587
331
EB85
  5
F588
331
EB86
  5
F589
331
EB87
  5
F58A
331
EC8F
  5
F58B
331
F4C7
  5
AA5F
331
F4C8
  5
AAD8
331
F4C9
  5
AADA
331
F4CA
  5
AADB
331
0
  5
AADC
331
0
  5
AE5C
331
0
  5
AFD3
331
F4CE
  5
D565
331
F4CF
  5
D567
331
0
  5
D546
331
0
  5
D549
331
0
  5
D54B
331
F4D3
  5
EB82
331
F4D4
  5
EB87
331
F4D5
  5
EC8F
331
F4D6
  5
F4C7
331
F4D7
  5
F4C8
331
0
  5
E8B9
331
F4D9
  5
F4CC
331
F4DA
  5
F4CD
331
F4DB
  5
F4CE
331
F4DC
  5
F4CF
331
F4DD
  5
F4D0
331
F4DE
  5
F4D1
331
F4DF
  5
F4D2
331
0
  5
E936
331
0
  5
E959
331
0
  5
E968
331
F4E3
  5
F4DD
331
F4E4
  5
F4DE
331
F4E5
  5
F4DF
331
0
  5
EB83
331
0
  5
EB85
331
0
  5
EB86
331
F4E9
  5
F4EA
331
F4EA
  5
F4EE
331
F4EB
  5
F506
331
F4EC
  5
F507
331
F4ED
  5
F508
331
F4EE
  5
F509
331
0
  5
F4DA
331
0
  5
F4DB
331
0
  5
F4DC
331
F4F2
  5
F51E
331
F4F3
  5
F522
331
F4F4
  5
F523
331
0
  5
F4E4
331
0
  5
F4E5
331
0
  5
F4E6
331
F4F8
  5
F52B
331
F4F9
  5
F52C
331
F4FA
  5
F52D
331
F4FB
  5
F52E
331
0
  5
F4EB
331
0
  5
F4EC
331
0
  5
F4ED
331
F4FF
  5
F536
331
F500
  5
F537
331
F501
  5
F538
331
0
  5
F4F1
331
0
  5
F4F2
331
0
  5
F4F3
331
F505
  5
F540
331
0
  5
F4F5
331
0
  5
F4F6
331
F508
  5
F545
331
F509
  5
F546
331
F50A
  5
F547
331
F50B
  5
F548
331
F50C
  5
F549
331
0
  5
F4FC
331
0
  5
F4FD
331
0
  5
F4FE
331
F510
  5
F55A
331
F511
  5
F55B
331
F512
  5
F55C
331
0
  5
F50B
331
0
  5
F50C
331
0
  5
F50D
331
F516
  5
F564
331
F517
  5
F565
331
F518
  5
F566
331
F519
  5
F567
331
F51A
  5
F568
331
0
  5
F513
331
0
  5
F514
331
0
  5
F515
331
F51E
  5
F570
331
F51F
  5
F571
331
F520
  5
F572
331
0
  5
F519
331
0
  5
F51A
331
0
  5
F51B
331
F524
  5
F57A
331
F525
  5
F57B
331
F526
  5
F57C
331
0
  5
F51F
331
0
  5
F520
331
0
  5
F521
331
F52A
  5
B01D
331
F52B
  5
B062
331
F52C
  5
B066
331
F52D
  5
B067
331
F52E
  5
B06A
331
F52F
  5
B06C
331
F530
  5
B0BB
331
F531
  5
D56F
331
F532
  5
D572
331
F533
  5
D582
331
F534
  5
D58F
331
F535
  5
D59B
331
F536
  5
D5B1
331
F537
  5
D5B2
331
F538
  5
F4C9
331
F539
  5
F4CA
331
F53A
  5
F4CB
331
F53B
  5
F4D3
331
F53C
  5
F4D4
331
F53D
  5
F4D5
331
F53E
  5
F4D6
331
F53F
  5
F4D7
331
F540
  5
F4D8
331
F541
  5
F4D9
331
F542
  5
F4E0
331
F543
  5
F4E1
331
F544
  5
F4E2
331
F545
  5
F4E3
331
F546
  5
F4E7
331
F547
  5
F4E8
331
F548
  5
F4E9
331
F549
  5
F50A
331
F54A
  5
F50E
331
F54B
  5
F50F
331
F54C
  5
F510
331
F54D
  5
F511
331
F54E
  5
F512
331
F54F
  5
F516
331
F550
  5
F524
331
F551
  5
F525
331
F552
  5
F526
331
F553
  5
F527
331
F554
  5
F528
331
F555
  5
F529
331
F556
  5
F52A
331
F557
  5
F52F
331
F558
  5
F530
331
F559
  5
F531
331
F55A
  5
F532
331
F55B
  5
F533
331
F55C
  5
F534
331
F55D
  5
F535
331
F55E
  5
F539
331
F55F
  5
F53A
331
F560
  5
F53B
331
F561
  5
F53C
331
F562
  5
F53D
331
F563
  5
F53E
331
F564
  5
F53F
331
F565
  5
F541
331
F566
  5
F542
331
F567
  5
F543
331
F568
  5
F544
331
F569
  5
F54A
331
F56A
  5
F54B
331
F56B
  5
F54C
331
F56C
  5
F54D
331
F56D
  5
F54E
331
F56E
  5
F54F
331
F56F
  5
F550
331
F570
  5
F55D
331
F571
  5
F55E
331
F572
  5
F55F
331
F573
  5
F560
331
F574
  5
F561
331
F575
  5
F562
331
F576
  5
F563
331
F577
  5
F569
331
F578
  5
F56A
331
F579
  5
F56B
331
F57A
  5
F56C
331
F57B
  5
F56D
331
F57C
  5
F56E
331
F57D
  5
F56F
331
F57E
  5
F573
331
F57F
  5
F574
331
F580
  5
F575
331
F581
  5
F576
331
F582
  5
F577
331
F583
  5
F578
331
F584
  5
F579
331
F585
  5
F57D
331
F586
  5
F57E
331
F587
  5
F57F
331
F588
  5
F580
331
F589
  5
F581
331
F58A
  5
F582
331
F58B
  5
F583
  0
MATERIAL
  5
EB11
102
{ACAD_REACTORS
330
D716
102
}
102
{ACAD_XDICTIONARY
360
F72B
102
}
330
D716
100
AcDbMaterial
  1
BYBLOCK
 72
     0
 73
     2
 43
0.0208333333333333
 43
0.0
 43
0.0
 43
0.0
 43
0.0
 43
0.0208333333333333
 43
0.0
 43
0.0
 43
0.0
 43
0.0
 43
1.0
 43
0.0
 43
0.0
 43
0.0
 43
0.0
 43
1.0
 77
     0
 78
     2
 47
0.0208333333333333
 47
0.0
 47
0.0
 47
0.0
 47
0.0
 47
0.0208333333333333
 47
0.0
 47
0.0
 47
0.0
 47
0.0
 47
1.0
 47
0.0
 47
0.0
 47
0.0
 47
0.0
 47
1.0
171
     0
172
     2
 49
0.0208333333333333
 49
0.0
 49
0.0
 49
0.0
 49
0.0
 49
0.0208333333333333
 49
0.0
 49
0.0
 49
0.0
 49
0.0
 49
1.0
 49
0.0
 49
0.0
 49
0.0
 49
0.0
 49
1.0
175
     0
176
     2
142
0.0208333333333333
142
0.0
142
0.0
142
0.0
142
0.0
142
0.0208333333333333
142
0.0
142
0.0
142
0.0
142
0.0
142
1.0
142
0.0
142
0.0
142
0.0
142
0.0
142
1.0
179
     0
270
     2
144
0.0208333333333333
144
0.0
144
0.0
144
0.0
144
0.0
144
0.0208333333333333
144
0.0
144
0.0
144
0.0
144
0.0
144
1.0
144
0.0
144
0.0
144
0.0
144
0.0
144
1.0
274
     2
147
0.0208333333333333
147
0.0
147
0.0
147
0.0
147
0.0
147
0.0208333333333333
147
0.0
147
0.0
147
0.0
147
0.0
147
1.0
147
0.0
147
0.0
147
0.0
147
0.0
147
1.0
  0
MATERIAL
  5
EB09
102
{ACAD_REACTORS
330
D716
102
}
102
{ACAD_XDICTIONARY
360
F72D
102
}
330
D716
100
AcDbMaterial
  1
BYLAYER
 72
     0
 73
     2
 43
0.0208333333333333
 43
0.0
 43
0.0
 43
0.0
 43
0.0
 43
0.0208333333333333
 43
0.0
 43
0.0
 43
0.0
 43
0.0
 43
1.0
 43
0.0
 43
0.0
 43
0.0
 43
0.0
 43
1.0
 77
     0
 78
     2
 47
0.0208333333333333
 47
0.0
 47
0.0
 47
0.0
 47
0.0
 47
0.0208333333333333
 47
0.0
 47
0.0
 47
0.0
 47
0.0
 47
1.0
 47
0.0
 47
0.0
 47
0.0
 47
0.0
 47
1.0
171
     0
172
     2
 49
0.0208333333333333
 49
0.0
 49
0.0
 49
0.0
 49
0.0
 49
0.0208333333333333
 49
0.0
 49
0.0
 49
0.0
 49
0.0
 49
1.0
 49
0.0
 49
0.0
 49
0.0
 49
0.0
 49
1.0
175
     0
176
     2
142
0.0208333333333333
142
0.0
142
0.0
142
0.0
142
0.0
142
0.0208333333333333
142
0.0
142
0.0
142
0.0
142
0.0
142
1.0
142
0.0
142
0.0
142
0.0
142
0.0
142
1.0
179
     0
270
     2
144
0.0208333333333333
144
0.0
144
0.0
144
0.0
144
0.0
144
0.0208333333333333
144
0.0
144
0.0
144
0.0
144
0.0
144
1.0
144
0.0
144
0.0
144
0.0
144
0.0
144
1.0
274
     2
147
0.0208333333333333
147
0.0
147
0.0
147
0.0
147
0.0
147
0.0208333333333333
147
0.0
147
0.0
147
0.0
147
0.0
147
1.0
147
0.0
147
0.0
147
0.0
147
0.0
147
1.0
  0
MATERIAL
  5
EB19
102
{ACAD_REACTORS
330
D716
102
}
102
{ACAD_XDICTIONARY
360
F72F
102
}
330
D716
100
AcDbMaterial
  1
GLOBAL
 72
     0
 73
     2
 43
0.0208333333333333
 43
0.0
 43
0.0
 43
0.0
 43
0.0
 43
0.0208333333333333
 43
0.0
 43
0.0
 43
0.0
 43
0.0
 43
1.0
 43
0.0
 43
0.0
 43
0.0
 43
0.0
 43
1.0
 77
     0
 78
     2
 47
0.0208333333333333
 47
0.0
 47
0.0
 47
0.0
 47
0.0
 47
0.0208333333333333
 47
0.0
 47
0.0
 47
0.0
 47
0.0
 47
1.0
 47
0.0
 47
0.0
 47
0.0
 47
0.0
 47
1.0
171
     0
172
     2
 49
0.0208333333333333
 49
0.0
 49
0.0
 49
0.0
 49
0.0
 49
0.0208333333333333
 49
0.0
 49
0.0
 49
0.0
 49
0.0
 49
1.0
 49
0.0
 49
0.0
 49
0.0
 49
0.0
 49
1.0
175
     0
176
     2
142
0.0208333333333333
142
0.0
142
0.0
142
0.0
142
0.0
142
0.0208333333333333
142
0.0
142
0.0
142
0.0
142
0.0
142
1.0
142
0.0
142
0.0
142
0.0
142
0.0
142
1.0
179
     0
270
     2
144
0.0208333333333333
144
0.0
144
0.0
144
0.0
144
0.0
144
0.0208333333333333
144
0.0
144
0.0
144
0.0
144
0.0
144
1.0
144
0.0
144
0.0
144
0.0
144
0.0
144
1.0
274
     2
147
0.0208333333333333
147
0.0
147
0.0
147
0.0
147
0.0
147
0.0208333333333333
147
0.0
147
0.0
147
0.0
147
0.0
147
1.0
147
0.0
147
0.0
147
0.0
147
0.0
147
1.0
  0
ACAD_PROXY_OBJECT
  5
EB48
102
{ACAD_REACTORS
330
EB47
102
}
330
EB47
100
AcDbZombieObject
 90
      499
 91
      513
 93
      610
310
40901902A4063FBFFFFFE000000000000002040AD7A3703D0AD73F4214DD185B99185C990000000000000104090141901A00000000000004100000000000000041025764000000000000300FC0
340
12
340
0
340
F
340
0
 94
        0
1001
ACAD_MLEADERVER
1070
     2
  0
MLINESTYLE
  5
1C
102
{ACAD_REACTORS
330
1B
102
}
330
1B
100
AcDbMlineStyle
  2
STANDARD
 70
     0
  3

 62
   256
 51
90.0
 52
90.0
 71
     2
 49
0.5
 62
   256
  6
BYLAYER
 49
-0.5
 62
   256
  6
BYLAYER
  0
ACAD_PROXY_OBJECT
  5
EB55
102
{ACAD_REACTORS
330
EB35
102
}
330
EB35
100
AcDbZombieObject
 90
      499
 91
      512
 93
      297
310
913312F31323822203D2031272D30225F58524546000000000000200FC000000000000284000
  0
ACAD_PROXY_OBJECT
  5
EB58
102
{ACAD_REACTORS
330
EB35
102
}
330
EB35
100
AcDbZombieObject
 90
      499
 91
      512
 93
      289
310
912312F313622203D2031272D30225F585245460000000000002C0FC000000000000284000
  0
ACAD_PROXY_OBJECT
  5
EB59
102
{ACAD_REACTORS
330
EB35
102
}
330
EB35
100
AcDbZombieObject
 90
      499
 91
      512
 93
      289
310
912332F333222203D2031272D30225F585245460000000000002E0FC000000000000284000
  0
ACAD_PROXY_OBJECT
  5
EB5A
102
{ACAD_REACTORS
330
EB35
102
}
330
EB35
100
AcDbZombieObject
 90
      499
 91
      512
 93
      281
310
911312F3822203D2031272D30225F58524546000000000000300FC000000000000284000
  0
ACAD_PROXY_OBJECT
  5
EB5B
102
{ACAD_REACTORS
330
EB35
102
}
330
EB35
100
AcDbZombieObject
 90
      499
 91
      512
 93
      289
310
912332F313622203D2031272D30225F58524546000000000000320FC000000000000284000
  0
ACAD_PROXY_OBJECT
  5
EB5C
102
{ACAD_REACTORS
330
EB35
102
}
330
EB35
100
AcDbZombieObject
 90
      499
 91
      512
 93
      281
310
911312F3422203D2031272D30225F58524546000000000000340FC000000000000284000
  0
ACAD_PROXY_OBJECT
  5
EB5D
102
{ACAD_REACTORS
330
EB35
102
}
330
EB35
100
AcDbZombieObject
 90
      499
 91
      512
 93
      281
310
911332F3822203D2031272D30225F58524546000000000000360FC000000000000284000
  0
ACAD_PROXY_OBJECT
  5
EB5E
102
{ACAD_REACTORS
330
EB35
102
}
330
EB35
100
AcDbZombieObject
 90
      499
 91
      512
 93
      281
310
911312F3222203D2031272D30225F58524546000000000000380FC000000000000284000
  0
ACAD_PROXY_OBJECT
  5
EB5F
102
{ACAD_REACTORS
330
EB35
102
}
330
EB35
100
AcDbZombieObject
 90
      499
 91
      512
 93
      281
310
911332F3422203D2031272D30225F585245460000000000003A0FC000000000000284000
  0
ACAD_PROXY_OBJECT
  5
EB60
102
{ACAD_REACTORS
330
EB35
102
}
330
EB35
100
AcDbZombieObject
 90
      499
 91
      512
 93
      201
310
90F3122203D2031272D30225F585245464000000000000284000
  0
ACAD_PROXY_OBJECT
  5
EB61
102
{ACAD_REACTORS
330
EB35
102
}
330
EB35
100
AcDbZombieObject
 90
      499
 91
      512
 93
      297
310
913312D312F3222203D2031272D30225F585245460000000000003E0FC000000000000284000
  0
ACAD_PROXY_OBJECT
  5
EB62
102
{ACAD_REACTORS
330
EB35
102
}
330
EB35
100
AcDbZombieObject
 90
      499
 91
      512
 93
      265
310
90F3322203D2031272D30225F5852454600000000000002100000000000000284000
  0
ACAD_PROXY_OBJECT
  5
EB63
102
{ACAD_REACTORS
330
EB35
102
}
330
EB35
100
AcDbZombieObject
 90
      499
 91
      512
 93
      265
310
90F3622203D2031272D30225F5852454600000000000006100000000000000284000
  0
ACAD_PROXY_OBJECT
  5
EB64
102
{ACAD_REACTORS
330
EB35
102
}
330
EB35
100
AcDbZombieObject
 90
      499
 91
      512
 93
      289
310
91231272D3022203D2031272D30225F585245460000000000000A100000000000000284000
  0
ACAD_PROXY_OBJECT
  5
EB56
102
{ACAD_REACTORS
330
EB35
102
}
330
EB35
100
AcDbZombieObject
 90
      499
 91
      512
 93
      289
310
912312F363422203D2031272D30225F58524546000000000000240FC000000000000284000
  0
ACAD_PROXY_OBJECT
  5
EB57
102
{ACAD_REACTORS
330
EB35
102
}
330
EB35
100
AcDbZombieObject
 90
      499
 91
      512
 93
      289
310
912312F333222203D2031272D30225F58524546000000000000280FC000000000000284000
  0
ACAD_PROXY_OBJECT
  5
EB36
102
{ACAD_REACTORS
330
EB35
102
}
330
EB35
100
AcDbZombieObject
 90
      499
 91
      512
 93
       41
310
903313A31580
  0
ACAD_PROXY_OBJECT
  5
EB37
102
{ACAD_REACTORS
330
EB35
102
}
330
EB35
100
AcDbZombieObject
 90
      499
 91
      512
 93
      105
310
903313A324000000000000004000
  0
ACAD_PROXY_OBJECT
  5
EB38
102
{ACAD_REACTORS
330
EB35
102
}
330
EB35
100
AcDbZombieObject
 90
      499
 91
      512
 93
      105
310
903313A344000000000000104000
  0
ACAD_PROXY_OBJECT
  5
EB39
102
{ACAD_REACTORS
330
EB35
102
}
330
EB35
100
AcDbZombieObject
 90
      499
 91
      512
 93
      105
310
903313A354000000000000144000
  0
ACAD_PROXY_OBJECT
  5
EB3A
102
{ACAD_REACTORS
330
EB35
102
}
330
EB35
100
AcDbZombieObject
 90
      499
 91
      512
 93
      105
310
903313A384000000000000204000
  0
ACAD_PROXY_OBJECT
  5
EB3B
102
{ACAD_REACTORS
330
EB35
102
}
330
EB35
100
AcDbZombieObject
 90
      499
 91
      512
 93
      113
310
904313A31304000000000000244000
  0
ACAD_PROXY_OBJECT
  5
EB3C
102
{ACAD_REACTORS
330
EB35
102
}
330
EB35
100
AcDbZombieObject
 90
      499
 91
      512
 93
      113
310
904313A31364000000000000304000
  0
ACAD_PROXY_OBJECT
  5
EB3D
102
{ACAD_REACTORS
330
EB35
102
}
330
EB35
100
AcDbZombieObject
 90
      499
 91
      512
 93
      113
310
904313A32304000000000000344000
  0
ACAD_PROXY_OBJECT
  5
EB3E
102
{ACAD_REACTORS
330
EB35
102
}
330
EB35
100
AcDbZombieObject
 90
      499
 91
      512
 93
      113
310
904313A333040000000000003E4000
  0
ACAD_PROXY_OBJECT
  5
EB3F
102
{ACAD_REACTORS
330
EB35
102
}
330
EB35
100
AcDbZombieObject
 90
      499
 91
      512
 93
      113
310
904313A34304000000000000444000
  0
ACAD_PROXY_OBJECT
  5
EB40
102
{ACAD_REACTORS
330
EB35
102
}
330
EB35
100
AcDbZombieObject
 90
      499
 91
      512
 93
      113
310
904313A35304000000000000494000
  0
ACAD_PROXY_OBJECT
  5
EB41
102
{ACAD_REACTORS
330
EB35
102
}
330
EB35
100
AcDbZombieObject
 90
      499
 91
      512
 93
      121
310
905313A3130304000000000000594000
  0
ACAD_PROXY_OBJECT
  5
EB42
102
{ACAD_REACTORS
330
EB35
102
}
330
EB35
100
AcDbZombieObject
 90
      499
 91
      512
 93
      105
310
903323A310000000000000010100
  0
ACAD_PROXY_OBJECT
  5
EB43
102
{ACAD_REACTORS
330
EB35
102
}
330
EB35
100
AcDbZombieObject
 90
      499
 91
      512
 93
      105
310
903343A310000000000000410100
  0
ACAD_PROXY_OBJECT
  5
EB44
102
{ACAD_REACTORS
330
EB35
102
}
330
EB35
100
AcDbZombieObject
 90
      499
 91
      512
 93
      105
310
903383A310000000000000810100
  0
ACAD_PROXY_OBJECT
  5
EB45
102
{ACAD_REACTORS
330
EB35
102
}
330
EB35
100
AcDbZombieObject
 90
      499
 91
      512
 93
      113
310
90431303A310000000000000910100
  0
ACAD_PROXY_OBJECT
  5
EB46
102
{ACAD_REACTORS
330
EB35
102
}
330
EB35
100
AcDbZombieObject
 90
      499
 91
      512
 93
      121
310
9053130303A310000000000001650100
  0
ACAD_PROXY_OBJECT
  5
EB27
102
{ACAD_REACTORS
330
EB21
102
}
330
EB21
100
AcDbZombieObject
 90
      499
 91
      511
 93
      436
310
42CC9915DA5C99599C985B595049028333333333333E3BF0000000000000FB0107901411070040501600405405064090741402480A0340
1001
ACAD
1000
AcDbSavedByObjectVersion
1070
     0
  0
ACAD_PROXY_OBJECT
  5
EB29
102
{ACAD_REACTORS
330
EB21
102
}
330
EB21
100
AcDbZombieObject
 90
      499
 91
      511
 93
      500
310
424CD108121A5919195B90640502408333333333333E3BF0000000000000FB01079024090700405020000000000181990200405405064090740C02480A0340
1001
ACAD
1000
AcDbSavedByObjectVersion
1070
     0
  0
ACAD_PROXY_OBJECT
  5
EB28
102
{ACAD_REACTORS
330
EB21
102
}
330
EB21
100
AcDbZombieObject
 90
      499
 91
      511
 93
      436
310
42CCD915DA5C99599C985B595059028333333333333E3BF0000000000000FB0107901411070040501600405405064090741402480A0340
1001
ACAD
1000
AcDbSavedByObjectVersion
1070
     0
  0
ACAD_PROXY_OBJECT
  5
EB26
102
{ACAD_REACTORS
330
EB21
102
}
330
EB21
100
AcDbZombieObject
 90
      499
 91
      511
 93
      388
310
4150985CDA58D07406404333333333333E3BF0000000000000FB0107A41107004050150841D405064090741402480A0350
1001
ACAD
1000
AcDbSavedByObjectVersion
1070
     0
  0
ACAD_PROXY_OBJECT
  5
EB2D
102
{ACAD_REACTORS
330
EB21
102
}
330
EB21
100
AcDbZombieObject
 90
      499
 91
      511
 93
      428
310
42109C9A59DA1D195B90C409028333333333333E3BF0000000000000FB010790141107004050150841D405064090741402480A029950
1001
ACAD
1000
AcDbSavedByObjectVersion
1070
     0
  0
ACAD_PROXY_OBJECT
  5
EB31
102
{ACAD_REACTORS
330
EB21
102
}
330
EB21
100
AcDbZombieObject
 90
      499
 91
      511
 93
      452
310
42D0DBDB1BDC90DA185B99D95104090240C333333333333E3BF0000000000000FB0108901411070040501508421405064090741402480A0350
1001
ACAD
1000
AcDbSavedByObjectVersion
1070
     0
  0
ACAD_PROXY_OBJECT
  5
EB2A
102
{ACAD_REACTORS
330
EB21
102
}
330
EB21
100
AcDbZombieObject
 90
      499
 91
      511
 93
      500
310
4290DBDB98D95C1D1D585B10940D028333333333333E3BF0000000000000FB0107902409070040501000000000018199010841D405064090740C02480A0340
1001
ACAD
1000
AcDbSavedByObjectVersion
1070
     0
  0
ACAD_PROXY_OBJECT
  5
EB2C
102
{ACAD_REACTORS
330
EB21
102
}
330
EB21
100
AcDbZombieObject
 90
      499
 91
      511
 93
      412
310
40D11A5B50B409028333333333333E3BF0000000000000FB010790141107004050150841D405064090741402480A02677FFFFFD0
1001
ACAD
1000
AcDbSavedByObjectVersion
1070
     0
  0
ACAD_PROXY_OBJECT
  5
EB34
102
{ACAD_REACTORS
330
EB21
102
}
330
EB21
100
AcDbZombieObject
 90
      499
 91
      511
 93
      452
310
43115919D950DBDB1BDC93D999916409028333333333333E3BF0000000000000FB010790141107004050150841D405064090741402480A0350
1001
ACAD
1000
AcDbSavedByObjectVersion
1070
     0
  0
ACAD_PROXY_OBJECT
  5
EB30
102
{ACAD_REACTORS
330
EB21
102
}
330
EB21
100
AcDbZombieObject
 90
      499
 91
      511
 93
      444
310
42D19858D95C185D1D195C9B90F409028333333333333E3BF0000000000000FB010790141107004050150841D405064090741402480A0350
1001
ACAD
1000
AcDbSavedByObjectVersion
1070
     0
  0
ACAD_PROXY_OBJECT
  5
EB22
102
{ACAD_REACTORS
330
EB21
102
}
330
EB21
100
AcDbZombieObject
 90
      499
 91
      511
 93
      388
310
41119B185D240901404333333333333E3BF0000000000000F9010740A41107004050150841D405064090741402480A1B50
1001
ACAD
1000
AcDbSavedByObjectVersion
1070
     0
  0
ACAD_PROXY_OBJECT
  5
EB23
102
{ACAD_REACTORS
330
EB21
102
}
330
EB21
100
AcDbZombieObject
 90
      499
 91
      511
 93
      476
310
43519B185D15DA5D1A115919D95CD0140901404333333333333E3BF0000000000000F9010740901411070040501600405405064090741402480A1B50
1001
ACAD
1000
AcDbSavedByObjectVersion
1070
     0
  0
ACAD_PROXY_OBJECT
  5
EB24
102
{ACAD_REACTORS
330
EB21
102
}
330
EB21
100
AcDbZombieObject
 90
      499
 91
      511
 93
      412
310
41D1DBDD5C985D5910240902404333333333333E3BF0000000000000F9010740A411070040501641D405064090741402480A1B50
1001
ACAD
1000
AcDbSavedByObjectVersion
1070
     0
  0
ACAD_PROXY_OBJECT
  5
EB25
102
{ACAD_REACTORS
330
EB21
102
}
330
EB21
100
AcDbZombieObject
 90
      499
 91
      511
 93
      500
310
4411DBDD5C985D5915DA5D1A115919D95CD0340902404333333333333E3BF0000000000000F9010740901411070040501600405405064090741402480A1B50
1001
ACAD
1000
AcDbSavedByObjectVersion
1070
     0
  0
ACAD_PROXY_OBJECT
  5
F41F
102
{ACAD_REACTORS
330
EB21
102
}
330
EB21
100
AcDbZombieObject
 90
      499
 91
      511
 93
      476
310
41921A5919195B90640502408333333333333E33F0000000000000F901079024090700405020000000000001110200405405064090740C02480A0340
1001
ACAD
1000
AcDbSavedByObjectVersion
1070
     0
  0
ACAD_PROXY_OBJECT
  5
EB32
102
{ACAD_REACTORS
330
EB21
102
}
330
EB21
100
AcDbZombieObject
 90
      499
 91
      511
 93
      428
310
42529A5D1D195C93D999914409028333333333333E3BF0000000000000FB010790141107004050150A41D405064090741402480A0350
1001
ACAD
1000
AcDbSavedByObjectVersion
1070
     0
  0
ACAD_PROXY_OBJECT
  5
EB2F
102
{ACAD_REACTORS
330
EB21
102
}
330
EB21
100
AcDbZombieObject
 90
      499
 91
      511
 93
      444
310
42D31A5B995C185D1D195C9B90E409028333333333333E3BF0000000000000FB010790141107004050750841D405064090741402483A0350
1001
ACAD
1000
AcDbSavedByObjectVersion
1070
     0
  0
ACAD_PROXY_OBJECT
  5
F425
102
{ACAD_REACTORS
330
EB21
102
}
330
EB21
100
AcDbZombieObject
 90
      499
 91
      511
 93
      484
310
42135BD9195B1A5B99D0A409038333333333333E33F0000000000000F901074090290700405010000000000201990108421405064090741402480A1B40
1001
ACAD
1000
AcDbSavedByObjectVersion
1070
     0
  0
ACAD_PROXY_OBJECT
  5
EB33
102
{ACAD_REACTORS
330
EB21
102
}
330
EB21
100
AcDbZombieObject
 90
      499
 91
      511
 93
      444
310
42D3DD995C9A185B99D3D999915409028333333333333E3BF0000000000000FB010790141107004050150941D405064090741402480A0350
1001
ACAD
1000
AcDbSavedByObjectVersion
1070
     0
  0
ACAD_PROXY_OBJECT
  5
EB2B
102
{ACAD_REACTORS
330
EB21
102
}
330
EB21
100
AcDbZombieObject
 90
      499
 91
      511
 93
      420
310
425499585B1A5CDD1A58D08409028333333333333E3BF0000000000000FB01079019070040501508421405064090741402480A1B40
1001
ACAD
1000
AcDbSavedByObjectVersion
1070
     0
  0
ACAD_PROXY_OBJECT
  5
F424
102
{ACAD_REACTORS
330
EB21
102
}
330
EB21
100
AcDbZombieObject
 90
      499
 91
      511
 93
      420
310
4194DA1859195911B40902404333333333333E33F0000000000000F9010740A41107004050150800405405064090840C02480A0B40
1001
ACAD
1000
AcDbSavedByObjectVersion
1070
     0
  0
ACAD_PROXY_OBJECT
  5
F423
102
{ACAD_REACTORS
330
EB21
102
}
330
EB21
100
AcDbZombieObject
 90
      499
 91
      511
 93
      516
310
4454DA18591959081DDA5D1A08195919D95CD1A40902404333333333333E33F0000000000000F901074090142907004050250800405405064090740C02480A0B40
1001
ACAD
1000
AcDbSavedByObjectVersion
1070
     0
  0
ACAD_PROXY_OBJECT
  5
F420
102
{ACAD_REACTORS
330
EB21
102
}
330
EB21
100
AcDbZombieObject
 90
      499
 91
      511
 93
      532
310
4394DA1859195CC81BD98811DC985E5174090240C333333333333E33F0000000000000F901079024090741D01000000000000111010841D405064090740C02480A0340
1001
ACAD
1000
AcDbSavedByObjectVersion
1070
     0
  0
ACAD_PROXY_OBJECT
  5
F421
102
{ACAD_REACTORS
330
EB21
102
}
330
EB21
100
AcDbZombieObject
 90
      499
 91
      511
 93
      476
310
41D4DAD95D18DA1E51840502408333333333333E33F0000000000000F901079024090741D01000000000000111010B41D405064090741802480A0340
1001
ACAD
1000
AcDbSavedByObjectVersion
1070
     0
  0
ACAD_PROXY_OBJECT
  5
EB2E
102
{ACAD_REACTORS
330
EB21
102
}
330
EB21
100
AcDbZombieObject
 90
      499
 91
      511
 93
      412
310
41D51A1A58DAD95B90D409028333333333333E3BF0000000000000FB010790141107004050150C41D405064090741402480A0350
1001
ACAD
1000
AcDbSavedByObjectVersion
1070
     0
  0
ACAD_PROXY_OBJECT
  5
F41E
102
{ACAD_REACTORS
330
EB21
102
}
330
EB21
100
AcDbZombieObject
 90
      499
 91
      511
 93
      420
310
4255DA5C99599C985B595059028333333333333E33F0000000000000F90107901411070040501600405405064090740C02480A0340
1001
ACAD
1000
AcDbSavedByObjectVersion
1070
     0
  0
ACAD_PROXY_OBJECT
  5
F422
102
{ACAD_REACTORS
330
EB21
102
}
330
EB21
100
AcDbZombieObject
 90
      499
 91
      511
 93
      404
310
41560B54985E51940902404000000000000E03F0000000000000F9010740501907004050150841D405064090740C02480A1B40
1001
ACAD
1000
AcDbSavedByObjectVersion
1070
     0
  0
XRECORD
  5
F58E
102
{ACAD_REACTORS
330
F58D
102
}
330
F58D
100
AcDbXrecord
340
D717
  0
XRECORD
  5
F58F
102
{ACAD_REACTORS
330
F58D
102
}
330
F58D
100
AcDbXrecord
340
D716
  0
DICTIONARYVAR
  5
F45D
102
{ACAD_REACTORS
330
37
102
}
330
37
100
DictionaryVariables
280
     0
  1
1:1
  0
DICTIONARYVAR
  5
EC20
102
{ACAD_REACTORS
330
37
102
}
330
37
100
DictionaryVariables
280
     0
  1
Standard
  0
DICTIONARYVAR
  5
D733
102
{ACAD_REACTORS
330
37
102
}
330
37
100
DictionaryVariables
280
     0
  1
Standard
  0
DICTIONARYVAR
  5
38
102
{ACAD_REACTORS
330
37
102
}
330
37
100
DictionaryVariables
280
     0
  1
-1
  0
DICTIONARYVAR
  5
D78B
102
{ACAD_REACTORS
330
37
102
}
330
37
100
DictionaryVariables
280
     0
  1
2
  0
DICTIONARYVAR
  5
F58C
102
{ACAD_REACTORS
330
37
102
}
330
37
100
DictionaryVariables
280
     0
  1
1
  0
DICTIONARYVAR
  5
EC22
102
{ACAD_REACTORS
330
37
102
}
330
37
100
DictionaryVariables
280
     0
  1
0
  0
DICTIONARYVAR
  5
F4AD
102
{ACAD_REACTORS
330
37
102
}
330
37
100
DictionaryVariables
280
     0
  1
0
  0
DICTIONARYVAR
  5
D78C
102
{ACAD_REACTORS
330
37
102
}
330
37
100
DictionaryVariables
280
     0
  1

  0
DICTIONARYVAR
  5
18FA
102
{ACAD_REACTORS
330
37
102
}
330
37
100
DictionaryVariables
280
     0
  1
96
  0
DICTIONARYVAR
  5
F41D
102
{ACAD_REACTORS
330
37
102
}
330
37
100
DictionaryVariables
280
     0
  1
2
  0
DICTIONARY
  5
F72B
330
EB11
100
AcDbDictionary
  3
ACAD_XREC_ROUNDTRIP
360
F72C
1001
ACAD
1000
TREAT_AS_HARD
1070
     1
  0
DICTIONARY
  5
F72D
330
EB09
100
AcDbDictionary
  3
ACAD_XREC_ROUNDTRIP
360
F72E
1001
ACAD
1000
TREAT_AS_HARD
1070
     1
  0
DICTIONARY
  5
F72F
330
EB19
100
AcDbDictionary
  3
ACAD_XREC_ROUNDTRIP
360
F730
1001
ACAD
1000
TREAT_AS_HARD
1070
     1
  0
XRECORD
  5
F72C
102
{ACAD_REACTORS
330
F72B
102
}
330
F72B
100
AcDbXrecord
102
MATERIAL
148
0.0
149
0.0
149
0.0
 93
        0
 94
      127
282
     0
 72
     0
 77
     0
171
     0
175
     0
179
     0
273
     0
  0
XRECORD
  5
F72E
102
{ACAD_REACTORS
330
F72D
102
}
330
F72D
100
AcDbXrecord
102
MATERIAL
148
0.0
149
0.0
149
0.0
 93
        0
 94
      127
282
     0
 72
     0
 77
     0
171
     0
175
     0
179
     0
273
     0
  0
XRECORD
  5
F730
102
{ACAD_REACTORS
330
F72F
102
}
330
F72F
100
AcDbXrecord
102
MATERIAL
148
0.0
149
0.0
149
0.0
 93
        0
 94
      127
282
     0
 72
     0
 77
     0
171
     0
175
     0
179
     0
273
     0
  0
ENDSEC
  0
EOF
