  0
SECTION
  2
HEADER
  9
$ACADVER
  1
AC1009
  9
$INSBASE
 10
0.0
 20
0.0
 30
0.0
  9
$EXTMIN
 10
15149.954892006661
 20
-1198.6602135554331
 30
0.0
  9
$EXTMAX
 10
15815.432376279879
 20
-728.58239594072745
 30
0.0
  9
$LIMMIN
 10
0.0
 20
0.0
  9
$LIMMAX
 10
420.0
 20
297.0
  9
$ORTHOMODE
 70
     0
  9
$REGENMODE
 70
     1
  9
$FILLMODE
 70
     1
  9
$QTEXTMODE
 70
     0
  9
$MIRRTEXT
 70
     0
  9
$DRAGMODE
 70
     2
  9
$LTSCALE
 40
0.5
  9
$OSMODE
 70
  2175
  9
$ATTMODE
 70
     1
  9
$TEXTSIZE
 40
4.0
  9
$TRACEWID
 40
1.0
  9
$TEXTSTYLE
  7
STANDARD
  9
$CLAYER
  8
1TEXT
  9
$CELTYPE
  6
BYLAYER
  9
$CECOLOR
 62
   256
  9
$DIMSCALE
 40
2.0
  9
$DIMASZ
 40
2.0
  9
$DIMEXO
 40
0.0
  9
$DIMDLI
 40
7.0
  9
$DIMRND
 40
0.0
  9
$DIMDLE
 40
0.0
  9
$DIMEXE
 40
1.0
  9
$DIMTP
 40
0.0
  9
$DIMTM
 40
0.0
  9
$DIMTXT
 40
3.5
  9
$DIMCEN
 40
0.0
  9
$DIMTSZ
 40
0.0
  9
$DIMTOL
 70
     0
  9
$DIMLIM
 70
     0
  9
$DIMTIH
 70
     0
  9
$DIMTOH
 70
     0
  9
$DIMSE1
 70
     0
  9
$DIMSE2
 70
     0
  9
$DIMTAD
 70
     1
  9
$DIMZIN
 70
     8
  9
$DIMBLK
  1

  9
$DIMASO
 70
     1
  9
$DIMSHO
 70
     1
  9
$DIMPOST
  1
 
  9
$DIMAPOST
  1

  9
$DIMALT
 70
     0
  9
$DIMALTD
 70
     2
  9
$DIMALTF
 40
25.399999999999999
  9
$DIMLFAC
 40
1.0
  9
$DIMTOFL
 70
     1
  9
$DIMTVP
 40
0.0
  9
$DIMTIX
 70
     0
  9
$DIMSOXD
 70
     0
  9
$DIMSAH
 70
     1
  9
$DIMBLK1
  1
OPEN30
  9
$DIMBLK2
  1
OPEN30
  9
$DIMSTYLE
  2
NEWX10
  9
$DIMCLRD
 70
   256
  9
$DIMCLRE
 70
   256
  9
$DIMCLRT
 70
   201
  9
$DIMTFAC
 40
0.7
  9
$DIMGAP
 40
0.7
  9
$LUNITS
 70
     2
  9
$LUPREC
 70
     4
  9
$SKETCHINC
 40
1.0
  9
$FILLETRAD
 40
0.0
  9
$AUNITS
 70
     0
  9
$AUPREC
 70
     2
  9
$MENU
  1
acad
  9
$ELEVATION
 40
0.0
  9
$PELEVATION
 40
0.0
  9
$THICKNESS
 40
0.0
  9
$LIMCHECK
 70
     0
  9
$BLIPMODE
 70
     0
  9
$CHAMFERA
 40
1.25
  9
$CHAMFERB
 40
1.25
  9
$SKPOLY
 70
     0
  9
$TDCREATE
 40
2451318.621352917
  9
$TDUPDATE
 40
2455797.359693646
  9
$TDINDWG
 40
1.9697190045999999
  9
$TDUSRTIMER
 40
1.9697190045999999
  9
$USRTIMER
 70
     1
  9
$ANGBASE
 50
0.0
  9
$ANGDIR
 70
     0
  9
$PDMODE
 70
     0
  9
$PDSIZE
 40
0.0
  9
$PLINEWID
 40
0.0
  9
$COORDS
 70
     2
  9
$SPLFRAME
 70
     0
  9
$SPLINETYPE
 70
     6
  9
$SPLINESEGS
 70
     8
  9
$ATTDIA
 70
     0
  9
$ATTREQ
 70
     1
  9
$HANDLING
 70
     1
  9
$HANDSEED
  5
1432D
  9
$SURFTAB1
 70
     6
  9
$SURFTAB2
 70
     6
  9
$SURFTYPE
 70
     6
  9
$SURFU
 70
     6
  9
$SURFV
 70
     6
  9
$UCSNAME
  2

  9
$UCSORG
 10
0.0
 20
0.0
 30
0.0
  9
$UCSXDIR
 10
1.0
 20
0.0
 30
0.0
  9
$UCSYDIR
 10
0.0
 20
1.0
 30
0.0
  9
$PUCSNAME
  2

  9
$PUCSORG
 10
0.0
 20
0.0
 30
0.0
  9
$PUCSXDIR
 10
1.0
 20
0.0
 30
0.0
  9
$PUCSYDIR
 10
0.0
 20
1.0
 30
0.0
  9
$USERI1
 70
     0
  9
$USERI2
 70
     0
  9
$USERI3
 70
     0
  9
$USERI4
 70
     0
  9
$USERI5
 70
     0
  9
$USERR1
 40
0.0
  9
$USERR2
 40
0.0
  9
$USERR3
 40
0.0
  9
$USERR4
 40
0.0
  9
$USERR5
 40
0.0
  9
$WORLDVIEW
 70
     1
  9
$SHADEDGE
 70
     3
  9
$SHADEDIF
 70
    70
  9
$TILEMODE
 70
     1
  9
$MAXACTVP
 70
    48
  9
$PLIMCHECK
 70
     0
  9
$PEXTMIN
 10
1.0000000000000000E+020
 20
1.0000000000000000E+020
 30
1.0000000000000000E+020
  9
$PEXTMAX
 10
-1.0000000000000000E+020
 20
-1.0000000000000000E+020
 30
-1.0000000000000000E+020
  9
$PLIMMIN
 10
0.0
 20
0.0
  9
$PLIMMAX
 10
420.0
 20
297.0
  9
$UNITMODE
 70
     0
  9
$VISRETAIN
 70
     1
  9
$PLINEGEN
 70
     0
  9
$PSLTSCALE
 70
     1
  0
ENDSEC
  0
SECTION
  2
TABLES
  0
TABLE
  2
VPORT
 70
     1
  0
VPORT
  2
*ACTIVE
 70
     0
 10
0.0
 20
0.0
 11
1.0
 21
1.0
 12
15482.887472359431
 22
-963.6396284069782
 13
0.0
 23
0.0
 14
10.0
 24
10.0
 15
10.0
 25
10.0
 16
0.0
 26
0.0
 36
1.0
 17
0.0
 27
0.0
 37
0.0
 40
499.06742322809231
 41
1.4123581336696089
 42
50.0
 43
0.0
 44
0.0
 50
0.0
 51
0.0
 71
     0
 72
   100
 73
     1
 74
     1
 75
     0
 76
     0
 77
     0
 78
     0
  0
ENDTAB
  0
TABLE
  2
LTYPE
 70
    16
  0
LTYPE
  2
CONTINUOUS
 70
     0
  3
Solid line
 72
    65
 73
     0
 40
0.0
  0
LTYPE
  2
XREF1|CENTER2
 70
    48
  3
Center (.5x) ___ _ ___ _ ___ _ ___ _ ___ _ ___
 72
    65
 73
     4
 40
28.574999999999999
 49
19.050000000000001
 49
-3.174999999999998
 49
3.174999999999998
 49
-3.174999999999998
  0
LTYPE
  2
A3WAKUDAKE|CENTER2
 70
    48
  3
Center (.5x) ___ _ ___ _ ___ _ ___ _ ___ _ ___
 72
    65
 73
     4
 40
28.574999999999999
 49
19.050000000000001
 49
-3.174999999999998
 49
3.174999999999998
 49
-3.174999999999998
  0
ENDTAB
  0
TABLE
  2
LAYER
 70
    62
  0
LAYER
  2
0
 70
     0
 62
     7
  6
CONTINUOUS
  0
LAYER
  2
1TEXT
 70
     0
 62
     7
  6
CONTINUOUS
  0
LAYER
  2
01
 70
     0
 62
     1
  6
CONTINUOUS
  0
LAYER
  2
A3WAKUDAKE|THICK
 70
    48
 62
     7
  6
CONTINUOUS
  0
LAYER
  2
A3WAKUDAKE|POINT
 70
    48
 62
     7
  6
CONTINUOUS
  0
LAYER
  2
A3WAKUDAKE|1CENTER
 70
    48
 62
     7
  6
A3WAKUDAKE|CENTER2
  0
LAYER
  2
A3WAKUDAKE|0-6
 70
    48
 62
     7
  6
CONTINUOUS
  0
LAYER
  2
XREF1|1CENTER
 70
    48
 62
     7
  6
XREF1|CENTER2
  0
LAYER
  2
A3WAKUDAKE|1DIM
 70
    48
 62
     7
  6
CONTINUOUS
  0
ENDTAB
  0
TABLE
  2
STYLE
 70
     7
  0
STYLE
  2
STANDARD
 70
     0
 40
0.0
 41
1.0
 50
0.0
 71
     0
 42
4.0
  3
romans.shx
  4
extfont.shx
  0
ENDTAB
  0
TABLE
  2
VIEW
 70
     1
  0
VIEW
  2
OLE1
 70
     0
 40
307.44384118935511
 10
197.83231463994591
 20
72.5339709327408
 41
490.95683166672183
 11
0.0
 21
0.0
 31
1.0
 12
0.0
 22
0.0
 32
0.0
 42
50.0
 43
0.0
 44
0.0
 50
0.0
 71
     0
  0
ENDTAB
  0
TABLE
  2
UCS
 70
     4
  0
UCS
  2
U
 70
     0
 10
0.0
 20
0.0
 30
0.0
 11
1.0
 21
0.0
 31
0.0
 12
0.0
 22
-0.0000000000000002
 32
1.0
  0
UCS
  2
L
 70
     0
 10
0.0
 20
0.0
 30
0.0
 11
0.0000000000000001
 21
-1.0
 31
-0.0000000000000002
 12
0.0
 22
-0.0000000000000002
 32
1.0
  0
UCS
  2
ISOME
 70
     0
 10
0.0
 20
0.0
 30
0.0
 11
0.7071450863198269
 21
-0.7070684729403534
 31
-0.0000383082461943
 12
0.4082704059428731
 22
0.4082704077401155
 32
0.8164744636514738
  0
UCS
  2
PERSPECTIVE
 70
     0
 10
0.0
 20
0.0
 30
0.0
 11
0.8191477691768966
 21
-0.5735823260466401
 31
-0.0004974931557765
 12
0.1584844715982971
 22
0.225502028986108
 32
0.9612655757829658
  0
ENDTAB
  0
TABLE
  2
APPID
 70
    15
  0
APPID
  2
ACAD
 70
     0
  0
APPID
  2
DRAWINGVARIABLESXDATA
 70
     0
  0
APPID
  2
CONTENTTABDATA
 70
     0
  0
APPID
  2
CONTENTCURRENTTAB
 70
     0
  0
APPID
  2
CONTENTBLOCKDESCRIPTION
 70
     0
  0
APPID
  2
CONTENTBLOCKICON
 70
     0
  0
APPID
  2
CONTENTLONGBLOCKNAME
 70
     0
  0
APPID
  2
GRPNAME
 70
     0
  0
APPID
  2
LAYTOOL
 70
     0
  0
APPID
  2
ITM1
 70
     0
  0
APPID
  2
ITM2
 70
     0
  0
APPID
  2
ITM3
 70
     0
  0
APPID
  2
ITM4
 70
     0
  0
APPID
  2
ACAD_PSEXT
 70
     0
  0
APPID
  2
ACAD_MLEADERVER
 70
     0
  0
ENDTAB
  0
TABLE
  2
DIMSTYLE
 70
     9
  0
DIMSTYLE
  2
NEWX10
 70
     0
  3
 
  4

  5

  6
OPEN30
  7
OPEN30
 40
1.0
 41
2.0
 42
0.0
 43
7.0
 44
1.0
 45
0.0
 46
0.0
 47
0.0
 48
0.0
140
3.5
141
0.0
142
0.0
143
25.399999999999999
144
1.0
145
0.0
146
0.7
147
0.7
 71
     0
 72
     0
 73
     0
 74
     0
 75
     0
 76
     0
 77
     1
 78
     8
170
     0
171
     2
172
     1
173
     1
174
     0
175
     0
176
   256
177
   256
178
   201
  0
ENDTAB
  0
ENDSEC
  0
SECTION
  2
BLOCKS
  0
BLOCK
  8
0
  2
$MODEL_SPACE
 70
     0
 10
0.0
 20
0.0
 30
0.0
  3
$MODEL_SPACE
  1

  0
ENDBLK
  5
1A
  8
0
  0
BLOCK
 67
     1
  8
0
  2
$PAPER_SPACE
 70
     0
 10
0.0
 20
0.0
 30
0.0
  3
$PAPER_SPACE
  1

  0
ENDBLK
  5
17
 67
     1
  8
0
  0
BLOCK
  8
0
  2
_OPEN30
 70
     0
 10
0.0
 20
0.0
 30
0.0
  3
_OPEN30
  1

  0
LINE
  5
44
  8
0
  6
BYBLOCK
 62
     0
 10
-1.0
 20
0.26794919
 30
0.0
 11
0.0
 21
0.0
 31
0.0
  0
LINE
  5
45
  8
0
  6
BYBLOCK
 62
     0
 10
0.0
 20
0.0
 30
0.0
 11
-1.0
 21
-0.26794919
 31
0.0
  0
LINE
  5
46
  8
0
  6
BYBLOCK
 62
     0
 10
0.0
 20
0.0
 30
0.0
 11
-1.0
 21
0.0
 31
0.0
  0
ENDBLK
  5
47
  8
0
  0
BLOCK
  8
0
  2
XREF1
 70
    36
 10
0.0
 20
0.0
 30
0.0
  3
XREF1
  1
D:\ACLT\FORMAT\KAWAJUN(9)図面用.dwg
  0
ENDBLK
  5
5D
  8
0
  0
BLOCK
  8
0
  2
A3WAKUDAKE
 70
    36
 10
0.0
 20
0.0
 30
0.0
  3
A3WAKUDAKE
  1
D:\ACLT\FORMAT\A3WAKUdake.dwg
  0
ENDBLK
  5
D88C
  8
0
  0
BLOCK
  8
0
  2
*U23
 70
     1
 10
0.0
 20
0.0
 30
0.0
  3
*U23
  1

  0
TEXT
  5
13CE1
  8
1TEXT
 62
   201
 10
15520.6823455539
 20
-1166.3835205495211
 30
0.0
 40
7.0
  1
φ60
  0
ENDBLK
  5
13CE3
  8
0
  0
BLOCK
  8
0
  2
*U24
 70
     1
 10
0.0
 20
0.0
 30
0.0
  3
*U24
  1

  0
TEXT
  5
13CE5
  8
1TEXT
 62
   201
 10
15520.6823455539
 20
-1153.260668432129
 30
0.0
 40
7.0
  1
φ25
  0
ENDBLK
  5
13CE7
  8
0
  0
BLOCK
  8
0
  2
*U25
 70
     1
 10
0.0
 20
0.0
 30
0.0
  3
*U25
  1

  0
TEXT
  5
13CE9
  8
1TEXT
 62
   201
 10
15461.249012220571
 20
-1136.7007889797801
 30
0.0
 40
7.0
  1
120
  0
ENDBLK
  5
13CEB
  8
0
  0
BLOCK
  8
0
  2
*U26
 70
     1
 10
0.0
 20
0.0
 30
0.0
  3
*U26
  1

  0
TEXT
  5
13CED
  8
1TEXT
 62
   201
 10
15590.5279118897
 20
-1107.636421696543
 30
0.0
 40
7.0
  1
封水深さ５０以上
 50
90.0
  0
ENDBLK
  5
13CEF
  8
0
  0
BLOCK
  8
0
  2
*U27
 70
     1
 10
0.0
 20
0.0
 30
0.0
  3
*U27
  1

  0
TEXT
  5
13CF1
  8
1TEXT
 62
   201
 10
15434.91567888723
 20
-1122.055856890689
 30
0.0
 40
7.0
  1
60
  0
ENDBLK
  5
13CF3
  8
0
  0
BLOCK
  8
0
  2
*U28
 70
     1
 10
0.0
 20
0.0
 30
0.0
  3
*U28
  1

  0
TEXT
  5
13CF8
  8
1TEXT
 62
   201
 10
15624.664596644459
 20
-922.90308836223835
 30
0.0
 40
7.0
  1
113
 50
90.0
  0
ENDBLK
  5
13CFA
  8
0
  0
BLOCK
  8
0
  2
*U29
 70
     1
 10
0.0
 20
0.0
 30
0.0
  3
*U29
  1

  0
TEXT
  5
13CFC
  8
1TEXT
 62
   201
 10
15624.664596644459
 20
-1050.403088363209
 30
0.0
 40
7.0
  1
700
 50
90.0
  0
ENDBLK
  5
13CFE
  8
0
  0
BLOCK
  8
0
  2
*U30
 70
     1
 10
0.0
 20
0.0
 30
0.0
  3
*U30
  1

  0
TEXT
  5
13D00
  8
1TEXT
 62
   201
 10
15608.642049268179
 20
-1020.819755029876
 30
0.0
 40
7.0
  1
80.5
 50
90.0
  0
ENDBLK
  5
13D02
  8
0
  0
BLOCK
  8
0
  2
*U31
 70
     1
 10
0.0
 20
0.0
 30
0.0
  3
*U31
  1

  0
TEXT
  5
13D04
  8
1TEXT
 62
   201
 10
35337.381907604977
 20
4642.7448601174547
 30
0.0
 40
7.0
  1
φ54
  0
ENDBLK
  5
13D06
  8
0
  0
BLOCK
  8
0
  2
*U32
 70
     1
 10
0.0
 20
0.0
 30
0.0
  3
*U32
  1

  0
TEXT
  5
13D08
  8
1TEXT
 62
   201
 10
15722.967076778001
 20
-733.88552154450008
 30
0.0
 40
7.0
  1
φ54
  0
ENDBLK
  5
13D0A
  8
0
  0
BLOCK
  8
0
  2
*U33
 70
     1
 10
0.0
 20
0.0
 30
0.0
  3
*U33
  1

  0
TEXT
  5
13D0C
  8
1TEXT
 62
   201
 10
15295.76463970628
 20
-993.90308836320924
 30
0.0
 40
7.0
  1
813
 50
90.0
  0
ENDBLK
  5
13D0E
  8
0
  0
BLOCK
  8
0
  2
*U34
 70
     1
 10
0.0
 20
0.0
 30
0.0
  3
*U34
  1

  0
TEXT
  5
13D10
  8
1TEXT
 62
   201
 10
15314.327680118469
 20
-968.15308836320924
 30
0.0
 40
7.0
  1
193.5
 50
90.0
  0
ENDBLK
  5
13D12
  8
0
  0
BLOCK
  8
0
  2
*U35
 70
     1
 10
0.0
 20
0.0
 30
0.0
  3
*U35
  1

  0
TEXT
  5
13D14
  8
1TEXT
 62
   201
 10
15400.51567888723
 20
-806.47608567008945
 30
0.0
 40
7.0
  1
φ54
  0
ENDBLK
  5
13D16
  8
0
  0
ENDSEC
  0
SECTION
  2
ENTITIES
  0
TEXT
  5
12F40
  8
01
 10
15477.287585083141
 20
-806.56756725309981
 30
0.0
 40
7.0
  1
排水口キャップ
  0
LINE
  5
12F7B
  8
01
 10
15422.3257690992
 20
-840.20436833185806
 30
0.0
 11
15472.020918416471
 21
-807.9675672530999
 31
0.0
  0
LINE
  5
12F7C
  8
01
 10
15472.020918416471
 20
-807.9675672530999
 30
0.0
 11
15534.120918416471
 21
-807.9675672530999
 31
0.0
  0
LINE
  5
131EF
  8
01
 10
15149.954892006661
 20
-758.54398472236005
 30
0.0
 11
15149.954892006661
 21
-800.54398472236005
 31
0.0
  0
LINE
  5
131F0
  8
01
 10
15202.454892006661
 20
-769.04398472236005
 30
0.0
 11
15202.454892006661
 21
-800.54398472236005
 31
0.0
  0
LINE
  5
131F1
  8
01
 10
15254.954892006661
 20
-758.54398472236005
 30
0.0
 11
15254.954892006661
 21
-800.54398472236005
 31
0.0
  0
TEXT
  5
131F2
  8
01
 10
15213.99495704217
 20
-788.11552019783392
 30
0.0
 40
6.0
  1
HL009
 72
     1
 11
15228.137814185029
 21
-788.11552019783392
 31
0.0
  0
TEXT
  5
131F3
  8
01
 10
15204.55489200665
 20
-777.29398472236005
 30
0.0
 40
6.0
  1
対応洗面ボール
 72
     1
 11
15228.55489200665
 21
-777.29398472236005
 31
0.0
  0
LINE
  5
131F4
  8
01
 10
15149.954892006661
 20
-779.54398472236005
 30
0.0
 11
15254.954892006661
 21
-779.54398472236005
 31
0.0
  0
LINE
  5
131F5
  8
01
 10
15149.954892006661
 20
-790.04398472236005
 30
0.0
 11
15254.954892006661
 21
-790.04398472236005
 31
0.0
  0
TEXT
  5
131F6
  8
01
 10
15155.769177720929
 20
-787.76082725233687
 30
0.0
 40
6.0
  1
HA008XC
 72
     1
 11
15176.05489200665
 21
-787.76082725233687
 31
0.0
  0
TEXT
  5
131F7
  8
01
 10
15162.654892006651
 20
-777.29398472236005
 30
0.0
 40
6.0
  1
対応蛇口
 72
     1
 11
15176.05489200665
 21
-777.29398472236005
 31
0.0
  0
LINE
  5
131F8
  8
01
 10
15149.954892006661
 20
-769.04398472236005
 30
0.0
 11
15254.954892006661
 21
-769.04398472236005
 31
0.0
  0
TEXT
  5
131F9
  8
01
 10
15155.769177720929
 20
-798.26082725233698
 30
0.0
 40
6.0
  1
HA009XC
 72
     1
 11
15176.05489200665
 21
-798.26082725233698
 31
0.0
  0
TEXT
  5
131FA
  8
01
 10
15213.85209989931
 20
-798.61552019783392
 30
0.0
 40
6.0
  1
HL010
 72
     1
 11
15228.137814185029
 21
-798.61552019783392
 31
0.0
  0
LINE
  5
131FB
  8
01
 10
15149.954892006661
 20
-800.54398472236005
 30
0.0
 11
15254.954892006661
 21
-800.54398472236005
 31
0.0
  0
LINE
  5
131FC
  8
01
 10
15149.954892006661
 20
-758.54398472236005
 30
0.0
 11
15254.954892006661
 21
-758.54398472236005
 31
0.0
  0
TEXT
  5
131FD
  8
01
 10
15168.56473314801
 20
-766.93495836328964
 30
0.0
 40
6.0
  1
HFE排水金具対応表
 72
     1
 11
15201.96473314801
 21
-766.93495836328964
 31
0.0
  0
TEXT
  5
131FF
  8
01
 10
15150.703818239161
 20
-755.70047808769721
 30
0.0
 40
6.0
  1
材質：真鍮（クロームメッキ）
 72
     1
 11
15198.50381823916
 21
-755.70047808769721
 31
0.0
  0
ARC
  5
135D5
  8
01
 10
15388.749012220571
 20
-860.90308836321174
 30
0.0
 40
2.0
 50
90.0
 51
180.0
  0
ARC
  5
135D6
  8
01
 10
15388.749012220571
 20
-862.90308836321174
 30
0.0
 40
2.0
 50
180.0
 51
270.0
  0
ARC
  5
135D9
  8
01
 10
15390.999012220571
 20
-861.90308836321174
 30
0.0
 40
1.0
 50
270.0
 51
90.0
  0
LINE
  5
135DB
  8
01
 10
15386.749012220571
 20
-860.90308836321174
 30
0.0
 11
15436.749012220571
 21
-860.90308836321174
 31
0.0
  0
LINE
  5
135DD
  8
01
 10
15386.749012220571
 20
-862.90308836321174
 30
0.0
 11
15436.749012220571
 21
-862.90308836321174
 31
0.0
  0
LINE
  5
135E4
  8
01
 10
15388.749012220571
 20
-864.90308836321185
 30
0.0
 11
15434.749012220571
 21
-864.90308836321185
 31
0.0
  0
LINE
  5
135E9
  8
01
 10
15385.749012220571
 20
-876.90308836321174
 30
0.0
 11
15396.249012220571
 21
-870.90308836321174
 31
0.0
  0
LINE
  5
135EA
  8
01
 10
15396.249012220571
 20
-870.90308836321174
 30
0.0
 11
15427.249012220571
 21
-870.90308836321174
 31
0.0
  0
LINE
  5
135EB
  8
01
 10
15385.749012220571
 20
-877.90308836321174
 30
0.0
 11
15437.749012220571
 21
-877.90308836321174
 31
0.0
  0
LINE
  5
135EC
  8
01
 10
15385.749012220571
 20
-876.90308836321174
 30
0.0
 11
15437.749012220571
 21
-876.90308836321174
 31
0.0
  0
LINE
  5
135ED
  8
01
 10
15385.749012220571
 20
-877.90308836321174
 30
0.0
 11
15385.749012220571
 21
-876.90308836321174
 31
0.0
  0
LINE
  5
135FB
  8
01
 10
15387.749012220571
 20
-878.40308836321185
 30
0.0
 11
15387.749012220571
 21
-877.90308836321174
 31
0.0
  0
LINE
  5
13601
  8
01
 10
15400.519012220569
 20
-880.40308836321174
 30
0.0
 11
15400.519012220569
 21
-885.24808836321176
 31
0.0
  0
LINE
  5
13602
  8
01
 10
15403.03101222057
 20
-880.40308836321174
 30
0.0
 11
15403.03101222057
 21
-885.24808836321176
 31
0.0
  0
ARC
  5
13603
  8
01
 10
15396.134012220569
 20
-877.49908836321174
 30
0.0
 40
8.9039999999999981
 50
270.0
 51
299.50400000001167
  0
LINE
  5
13604
  8
01
 10
15400.519012220569
 20
-885.24808836321176
 30
0.0
 11
15403.03101222057
 21
-885.24808836321176
 31
0.0
  0
ARC
  5
13605
  8
01
 10
15411.749012220571
 20
-852.91708836321175
 30
0.0
 40
33.485999999999997
 50
254.9100000000177
 51
270.0
  0
LINE
  5
13606
  8
01
 10
15411.749012220571
 20
-886.40308836321185
 30
0.0
 11
15393.749012220571
 21
-886.40308836321185
 31
0.0
  0
LINE
  5
13607
  8
01
 10
15434.749012220571
 20
-880.40308836321174
 30
0.0
 11
15388.749012220571
 21
-880.40308836321174
 31
0.0
  0
LINE
  5
13608
  8
01
 10
15435.749012220571
 20
-878.40308836321185
 30
0.0
 11
15387.749012220571
 21
-878.40308836321185
 31
0.0
  0
LINE
  5
13609
  8
01
 10
15393.749012220571
 20
-886.40308836321185
 30
0.0
 11
15391.749012220571
 21
-885.24808836321176
 31
0.0
  0
LINE
  5
1360A
  8
01
 10
15391.749012220571
 20
-885.24808836321176
 30
0.0
 11
15391.749012220571
 21
-881.40308836321174
 31
0.0
  0
ARC
  5
1360B
  8
01
 10
15390.749012220571
 20
-881.40308836321174
 30
0.0
 40
1.0
 50
0.0
 51
90.0
  0
LINE
  5
1360C
  8
01
 10
15387.749012220571
 20
-879.40308836321174
 30
0.0
 11
15387.749012220571
 21
-878.40308836321185
 31
0.0
  0
ARC
  5
1360D
  8
01
 10
15388.749012220571
 20
-879.40308836321174
 30
0.0
 40
1.0
 50
180.0
 51
270.0
  0
ARC
  5
13619
  8
01
 10
15481.874012220571
 20
-1010.203088363212
 30
0.0
 40
9.125
 50
318.88790956083199
 51
41.111999999993913
  0
LINE
  5
1361C
  8
01
 10
15454.749012220571
 20
-1016.203088363211
 30
0.0
 11
15488.749012220571
 21
-1016.203088363211
 31
0.0
  0
LINE
  5
1361F
  8
01
 10
15454.74900274981
 20
-1004.203088363212
 30
0.0
 11
15488.749012220571
 21
-1004.203088363212
 31
0.0
  0
ARC
  5
1362B
  8
01
 10
15401.624012220571
 20
-973.90308836321185
 30
0.0
 40
9.125
 50
138.888000000006
 51
221.11209043916801
  0
LINE
  5
1362E
  8
01
 10
15428.749012220571
 20
-979.90308836321162
 30
0.0
 11
15394.749012220571
 21
-979.90308836321162
 31
0.0
  0
LINE
  5
13631
  8
01
 10
15428.77511934502
 20
-967.90308836321174
 30
0.0
 11
15394.749012220571
 21
-967.90308836321174
 31
0.0
  0
ARC
  5
13637
  8
01
 10
15401.624012220571
 20
-896.10308836321167
 30
0.0
 40
9.125
 50
139.40900000003001
 51
221.11199999999391
  0
LINE
  5
1363D
  8
01
 10
15428.74782823882
 20
-890.10308836321167
 30
0.0
 11
15394.749012220571
 21
-890.10308836321167
 31
0.0
  0
LINE
  5
13640
  8
01
 10
15428.74902169133
 20
-902.10308836321178
 30
0.0
 11
15394.749012220571
 21
-902.10308836321178
 31
0.0
  0
LINE
  5
13653
  8
01
 10
15561.749012220571
 20
-1096.903088363212
 30
0.0
 11
15501.749012220571
 21
-1096.903088363212
 31
0.0
  0
LINE
  5
13654
  8
01
 10
15547.749012220571
 20
-1080.903088363212
 30
0.0
 11
15515.749012220571
 21
-1080.903088363212
 31
0.0
  0
LINE
  5
13655
  8
01
 10
15501.749012220571
 20
-1096.903088363212
 30
0.0
 11
15501.749012220571
 21
-1094.903088363212
 31
0.0
  0
ARC
  5
13656
  8
01
 10
15515.749012220571
 20
-1094.903088363212
 30
0.0
 40
14.0
 50
90.0
 51
180.0
  0
ARC
  5
13660
  8
01
 10
15547.749012220571
 20
-1094.903088363212
 30
0.0
 40
14.0
 50
0.0
 51
90.0
  0
LINE
  5
13661
  8
01
 10
15561.749012220571
 20
-1096.903088363212
 30
0.0
 11
15561.749012220571
 21
-1094.903088363212
 31
0.0
  0
LINE
  5
13668
  8
01
 10
15411.749012220571
 20
-837.19183554866061
 30
0.0
 11
15411.749012220571
 21
-1019.403088363212
 31
0.0
  0
LINE
  5
1366A
  8
01
 10
15384.749012220571
 20
-857.10308836321167
 30
0.0
 11
15438.749012220571
 21
-857.10308836321167
 31
0.0
  0
LINE
  5
1366B
  8
01
 10
15396.76501222057
 20
-890.10308836321167
 30
0.0
 11
15396.76501222057
 21
-886.40308836321185
 31
0.0
  0
LINE
  5
1366C
  8
01
 10
15395.749012220571
 20
-886.40308836321185
 30
0.0
 11
15395.749012220571
 21
-890.10308836321167
 31
0.0
  0
LINE
  5
1366D
  8
01
 10
15395.76875693408
 20
-871.17751995549008
 30
0.0
 11
15395.149012220571
 21
-870.10408836321164
 31
0.0
  0
LINE
  5
1366E
  8
01
 10
15395.424094357069
 20
-871.37446999949577
 30
0.0
 11
15394.048559727211
 21
-864.90308836321185
 31
0.0
  0
LINE
  5
1366F
  8
01
 10
15387.31941222057
 20
-858.90308836321174
 30
0.0
 11
15384.749012220571
 21
-857.10308836321167
 31
0.0
  0
LINE
  5
13670
  8
01
 10
15436.17861222057
 20
-858.90308836321174
 30
0.0
 11
15387.31941222057
 21
-858.90308836321174
 31
0.0
  0
LINE
  5
13671
  8
01
 10
15385.249012220571
 20
-855.90308836321162
 30
0.0
 11
15438.249012220571
 21
-855.90308836321162
 31
0.0
  0
LINE
  5
13672
  8
01
 10
15384.749012220571
 20
-856.40308836321174
 30
0.0
 11
15384.749012220571
 21
-857.10308836321167
 31
0.0
  0
ARC
  5
13673
  8
01
 10
15385.249012220571
 20
-856.40308836321174
 30
0.0
 40
0.5
 50
90.0
 51
180.0
  0
LINE
  5
13693
  8
01
 10
15395.749012220571
 20
-979.90308836321162
 30
0.0
 11
15395.749012220571
 21
-980.38708836321177
 31
0.0
  0
LINE
  5
13694
  8
01
 10
15396.76501222057
 20
-979.90308836321162
 30
0.0
 11
15396.76501222057
 21
-981.40308836321174
 31
0.0
  0
LINE
  5
13696
  8
01
 10
15426.73301222056
 20
-981.40308836321174
 30
0.0
 11
15396.76501222057
 21
-981.40308836321174
 31
0.0
  0
LINE
  5
13697
  8
01
 10
15396.76501222057
 20
-981.40308836321174
 30
0.0
 11
15395.749012220571
 21
-980.38708836321177
 31
0.0
  0
LINE
  5
13698
  8
01
 10
15395.749012220571
 20
-980.38708836321177
 30
0.0
 11
15427.749012220571
 21
-980.38708836321177
 31
0.0
  0
ARC
  5
1369B
  8
01
 10
15441.749012220571
 20
-1019.403088363212
 30
0.0
 40
30.0
 50
180.0
 51
0.0
  0
ARC
  5
1369C
  8
01
 10
15441.749012220571
 20
-1019.403088363212
 30
0.0
 40
42.5
 50
180.0
 51
0.0
  0
LINE
  5
136AD
  8
01
 10
15399.249012220571
 20
-902.10308836321178
 30
0.0
 11
15399.249012220571
 21
-967.90308836321174
 31
0.0
  0
LINE
  5
136AE
  8
01
 10
15531.749012220571
 20
-998.90308836321185
 30
0.0
 11
15531.749012220571
 21
-1115.071691072543
 31
0.0
  0
LINE
  5
136AF
  8
01
 10
15519.249012220571
 20
-1111.9030883632111
 30
0.0
 11
15519.249012220571
 21
-1096.903088363212
 31
0.0
  0
LINE
  5
136B0
  8
01
 10
15519.249012220571
 20
-1080.903088363212
 30
0.0
 11
15519.249012220571
 21
-1032.872360030216
 31
0.0
  0
LINE
  5
136B1
  8
01
 10
15519.249012220571
 20
-1027.73350691327
 30
0.0
 11
15519.249012220571
 21
-998.90308836321185
 31
0.0
  0
LINE
  5
136B2
  8
01
 10
15544.249012220571
 20
-998.90308836321185
 30
0.0
 11
15544.249012220571
 21
-1027.7335069132689
 31
0.0
  0
LINE
  5
136B4
  8
01
 10
15544.249012220571
 20
-1032.872360030216
 30
0.0
 11
15544.249012220571
 21
-1080.903088363212
 31
0.0
  0
LINE
  5
136B6
  8
01
 10
15544.249012220571
 20
-1111.9030883632111
 30
0.0
 11
15519.249012220571
 21
-1111.9030883632111
 31
0.0
  0
LINE
  5
136B7
  8
01
 10
15471.749012220571
 20
-998.90308836321185
 30
0.0
 11
15471.749012220571
 21
-1019.403088363212
 31
0.0
  0
ARC
  5
136B8
  8
01
 10
15501.749012220571
 20
-998.90308836321185
 30
0.0
 40
30.0
 50
0.0
 51
180.0
  0
ARC
  5
136B9
  8
01
 10
15501.749012220571
 20
-998.90308836321185
 30
0.0
 40
42.5
 50
0.0
 51
180.0
  0
ARC
  5
136BB
  8
01
 10
15501.749012220571
 20
-998.90308836321185
 30
0.0
 40
17.5
 50
0.0
 51
180.0
  0
LINE
  5
136BC
  8
01
 10
15484.249012220571
 20
-1004.203088363212
 30
0.0
 11
15484.249012220571
 21
-998.90308836321185
 31
0.0
  0
LINE
  5
136BD
  8
01
 10
15459.249012220571
 20
-1004.203088363212
 30
0.0
 11
15459.249012220571
 21
-998.90308836321185
 31
0.0
  0
LINE
  5
136F6
  8
01
 10
15398.099012220569
 20
-981.96433786281125
 30
0.0
 11
15398.099012220569
 21
-1013.488016562991
 31
0.0
  0
ARC
  5
136F7
  8
01
 10
15403.099012220569
 20
-1013.488016562991
 30
0.0
 40
5.0
 50
180.0
 51
207.74847870064869
  0
ARC
  5
136F8
  8
01
 10
15394.249012220571
 20
-1018.143926785493
 30
0.0
 40
5.0
 50
0.0
 51
27.74847870064756
  0
ARC
  5
136FC
  8
01
 10
15441.749012220571
 20
-1019.403088363212
 30
0.0
 40
17.5
 50
180.0
 51
0.0
  0
LINE
  5
13700
  8
01
 10
15399.249012220571
 20
-1018.143926785493
 30
0.0
 11
15399.249012220571
 21
-1019.403088363212
 31
0.0
  0
LINE
  5
13703
  8
01
 10
15484.249012220571
 20
-1019.154557291001
 30
0.0
 11
15484.249012220571
 21
-1019.403088363212
 31
0.0
  0
ARC
  5
13720
  8
01
 10
15482.399012220571
 20
-1015.964337862811
 30
0.0
 40
3.0
 50
320.35388885304542
 51
355.43537428032522
  0
ARC
  5
13721
  8
01
 10
15486.249012220571
 20
-1019.154557291001
 30
0.0
 40
2.0
 50
140.35388885304539
 51
180.0
  0
ARC
  5
13722
  8
01
 10
15401.099012220569
 20
-981.96433786281125
 30
0.0
 40
3.0
 50
169.21739015835129
 51
180.0
  0
LINE
  5
137D0
  8
01
 10
15544.249012220571
 20
-1096.903088363212
 30
0.0
 11
15544.249012220571
 21
-1111.9030883632111
 31
0.0
  0
ARC
  5
138C1
  8
01
 10
15434.749012220571
 20
-860.90308836321174
 30
0.0
 40
2.0
 50
0.000000000000007
 51
90.0
  0
ARC
  5
138C2
  8
01
 10
15434.749012220571
 20
-862.90308836321174
 30
0.0
 40
2.0
 50
270.0
 51
0.000000000000007
  0
ARC
  5
138C3
  8
01
 10
15432.499012220571
 20
-861.90308836321174
 30
0.0
 40
1.0
 50
90.0
 51
270.0
  0
LINE
  5
138C7
  8
01
 10
15437.749012220571
 20
-876.90308836321174
 30
0.0
 11
15427.249012220571
 21
-870.90308836321174
 31
0.0
  0
LINE
  5
138CB
  8
01
 10
15437.749012220571
 20
-877.90308836321174
 30
0.0
 11
15437.749012220571
 21
-876.90308836321174
 31
0.0
  0
LINE
  5
138CC
  8
01
 10
15435.749012220571
 20
-878.40308836321185
 30
0.0
 11
15435.749012220571
 21
-877.90308836321174
 31
0.0
  0
LINE
  5
138CD
  8
01
 10
15422.97901222057
 20
-880.40308836321174
 30
0.0
 11
15422.97901222057
 21
-885.24808836321176
 31
0.0
  0
LINE
  5
138CE
  8
01
 10
15420.46701222057
 20
-880.40308836321174
 30
0.0
 11
15420.46701222057
 21
-885.24808836321176
 31
0.0
  0
ARC
  5
138CF
  8
01
 10
15427.364012220571
 20
-877.49908836321174
 30
0.0
 40
8.9039999999999981
 50
240.49599999998841
 51
270.0
  0
LINE
  5
138D0
  8
01
 10
15422.97901222057
 20
-885.24808836321176
 30
0.0
 11
15420.46701222057
 21
-885.24808836321176
 31
0.0
  0
ARC
  5
138D1
  8
01
 10
15411.749012220571
 20
-852.91708836321175
 30
0.0
 40
33.485999999999997
 50
270.0
 51
285.0899999999823
  0
LINE
  5
138D5
  8
01
 10
15429.749012220571
 20
-886.40308836321185
 30
0.0
 11
15431.749012220571
 21
-885.24808836321176
 31
0.0
  0
LINE
  5
138D6
  8
01
 10
15431.749012220571
 20
-885.24808836321176
 30
0.0
 11
15431.749012220571
 21
-881.40308836321174
 31
0.0
  0
ARC
  5
138D7
  8
01
 10
15432.749012220571
 20
-881.40308836321174
 30
0.0
 40
1.0
 50
90.0
 51
180.0
  0
LINE
  5
138D8
  8
01
 10
15435.749012220571
 20
-879.40308836321174
 30
0.0
 11
15435.749012220571
 21
-878.40308836321185
 31
0.0
  0
ARC
  5
138D9
  8
01
 10
15434.749012220571
 20
-879.40308836321174
 30
0.0
 40
1.0
 50
270.0
 51
0.000000000000007
  0
ARC
  5
138DC
  8
01
 10
15421.874012220571
 20
-973.90308836321185
 30
0.0
 40
9.125
 50
318.88790956083199
 51
41.111999999993927
  0
ARC
  5
138E1
  8
01
 10
15421.874012220571
 20
-896.10308836321167
 30
0.0
 40
9.125
 50
318.88800000000612
 51
40.590999999970037
  0
LINE
  5
138E5
  8
01
 10
15426.73301222056
 20
-890.10308836321167
 30
0.0
 11
15426.73301222056
 21
-886.40308836321185
 31
0.0
  0
LINE
  5
138E6
  8
01
 10
15427.749012220571
 20
-886.40308836321185
 30
0.0
 11
15427.749012220571
 21
-890.10308836321167
 31
0.0
  0
LINE
  5
138E7
  8
01
 10
15427.729267507049
 20
-871.17751995549008
 30
0.0
 11
15428.349012220569
 21
-870.10408836321164
 31
0.0
  0
LINE
  5
138E8
  8
01
 10
15428.07393008406
 20
-871.37446999949577
 30
0.0
 11
15429.449464713931
 21
-864.90308836321185
 31
0.0
  0
LINE
  5
138E9
  8
01
 10
15436.17861222057
 20
-858.90308836321174
 30
0.0
 11
15438.749012220571
 21
-857.10308836321167
 31
0.0
  0
LINE
  5
138EC
  8
01
 10
15438.749012220571
 20
-856.40308836321174
 30
0.0
 11
15438.749012220571
 21
-857.10308836321167
 31
0.0
  0
ARC
  5
138ED
  8
01
 10
15438.249012220571
 20
-856.40308836321174
 30
0.0
 40
0.5
 50
0.000000000000007
 51
90.0
  0
LINE
  5
138EE
  8
01
 10
15427.749012220571
 20
-979.90308836321162
 30
0.0
 11
15427.749012220571
 21
-980.38708836321177
 31
0.0
  0
LINE
  5
138EF
  8
01
 10
15426.73301222056
 20
-979.90308836321162
 30
0.0
 11
15426.73301222056
 21
-981.40308836321174
 31
0.0
  0
LINE
  5
138F1
  8
01
 10
15426.73301222056
 20
-981.40308836321174
 30
0.0
 11
15427.749012220571
 21
-980.38708836321177
 31
0.0
  0
LINE
  5
138F3
  8
01
 10
15424.249012220571
 20
-902.10308836321178
 30
0.0
 11
15424.249012220571
 21
-967.90308836321174
 31
0.0
  0
LINE
  5
13901
  8
01
 10
15425.399012220571
 20
-981.96433786281125
 30
0.0
 11
15425.399012220571
 21
-1013.488016562991
 31
0.0
  0
ARC
  5
13902
  8
01
 10
15422.399012220571
 20
-981.96433786281125
 30
0.0
 40
3.0
 50
0.000000000000007
 51
10.782609841648689
  0
ARC
  5
13903
  8
01
 10
15420.399012220571
 20
-1013.488016562991
 30
0.0
 40
5.0
 50
332.25152129933929
 51
0.000000000000007
  0
ARC
  5
13904
  8
01
 10
15429.249012220571
 20
-1018.143926785493
 30
0.0
 40
5.0
 50
152.25152129935699
 51
180.0
  0
LINE
  5
13905
  8
01
 10
15424.249012220571
 20
-1018.143926785493
 30
0.0
 11
15424.249012220571
 21
-1019.403088363212
 31
0.0
  0
LINE
  5
13906
  8
01
 10
15398.31866176318
 20
-1014.953707357304
 30
0.0
 11
15425.17936267796
 21
-1014.953707357304
 31
0.0
  0
LINE
  5
13907
  8
01
 10
15399.249012220571
 20
-1018.143926785486
 30
0.0
 11
15424.249012220571
 21
-1018.143926785486
 31
0.0
  0
ARC
  5
1390A
  8
01
 10
15461.624012220571
 20
-1010.203088363212
 30
0.0
 40
9.125
 50
138.888000000006
 51
221.11209043916801
  0
LINE
  5
1390D
  8
01
 10
15459.249012220571
 20
-1019.154557291001
 30
0.0
 11
15459.249012220571
 21
-1019.403088363212
 31
0.0
  0
ARC
  5
1390E
  8
01
 10
15461.099012220569
 20
-1015.964337862811
 30
0.0
 40
3.0
 50
184.56462571967481
 51
219.64611114695461
  0
ARC
  5
1390F
  8
01
 10
15457.249012220571
 20
-1019.154557291001
 30
0.0
 40
2.0
 50
0.000000000000007
 51
39.646111146954581
  0
POLYLINE
  8
01
  5
13D17
  66
     1
 10
0.000000
 20
0.000000
 30
0.000000
  70
     8
  0
VERTEX
  8
01
  5
13D18
 10
15519.2
 20
-1027.73
 30
0.000000
  70
    32
  0
VERTEX
  8
01
  5
13D19
 10
15519.4
 20
-1027.68
 30
0.000000
  70
    32
  0
VERTEX
  8
01
  5
13D1A
 10
15519.5
 20
-1027.62
 30
0.000000
  70
    32
  0
VERTEX
  8
01
  5
13D1B
 10
15519.6
 20
-1027.57
 30
0.000000
  70
    32
  0
VERTEX
  8
01
  5
13D1C
 10
15519.8
 20
-1027.52
 30
0.000000
  70
    32
  0
VERTEX
  8
01
  5
13D1D
 10
15519.9
 20
-1027.46
 30
0.000000
  70
    32
  0
VERTEX
  8
01
  5
13D1E
 10
15520.0
 20
-1027.41
 30
0.000000
  70
    32
  0
VERTEX
  8
01
  5
13D1F
 10
15520.2
 20
-1027.35
 30
0.000000
  70
    32
  0
VERTEX
  8
01
  5
13D20
 10
15520.3
 20
-1027.30
 30
0.000000
  70
    32
  0
VERTEX
  8
01
  5
13D21
 10
15520.4
 20
-1027.25
 30
0.000000
  70
    32
  0
VERTEX
  8
01
  5
13D22
 10
15520.6
 20
-1027.19
 30
0.000000
  70
    32
  0
VERTEX
  8
01
  5
13D23
 10
15520.7
 20
-1027.14
 30
0.000000
  70
    32
  0
VERTEX
  8
01
  5
13D24
 10
15520.8
 20
-1027.09
 30
0.000000
  70
    32
  0
VERTEX
  8
01
  5
13D25
 10
15521.0
 20
-1027.04
 30
0.000000
  70
    32
  0
VERTEX
  8
01
  5
13D26
 10
15521.1
 20
-1026.99
 30
0.000000
  70
    32
  0
VERTEX
  8
01
  5
13D27
 10
15521.2
 20
-1026.94
 30
0.000000
  70
    32
  0
VERTEX
  8
01
  5
13D28
 10
15521.4
 20
-1026.89
 30
0.000000
  70
    32
  0
VERTEX
  8
01
  5
13D29
 10
15521.5
 20
-1026.84
 30
0.000000
  70
    32
  0
VERTEX
  8
01
  5
13D2A
 10
15521.6
 20
-1026.79
 30
0.000000
  70
    32
  0
VERTEX
  8
01
  5
13D2B
 10
15521.7
 20
-1026.75
 30
0.000000
  70
    32
  0
VERTEX
  8
01
  5
13D2C
 10
15521.9
 20
-1026.70
 30
0.000000
  70
    32
  0
VERTEX
  8
01
  5
13D2D
 10
15522.0
 20
-1026.65
 30
0.000000
  70
    32
  0
VERTEX
  8
01
  5
13D2E
 10
15522.1
 20
-1026.61
 30
0.000000
  70
    32
  0
VERTEX
  8
01
  5
13D2F
 10
15522.3
 20
-1026.57
 30
0.000000
  70
    32
  0
VERTEX
  8
01
  5
13D30
 10
15522.4
 20
-1026.52
 30
0.000000
  70
    32
  0
VERTEX
  8
01
  5
13D31
 10
15522.5
 20
-1026.48
 30
0.000000
  70
    32
  0
VERTEX
  8
01
  5
13D32
 10
15522.7
 20
-1026.44
 30
0.000000
  70
    32
  0
VERTEX
  8
01
  5
13D33
 10
15522.8
 20
-1026.40
 30
0.000000
  70
    32
  0
VERTEX
  8
01
  5
13D34
 10
15522.9
 20
-1026.36
 30
0.000000
  70
    32
  0
VERTEX
  8
01
  5
13D35
 10
15523.1
 20
-1026.33
 30
0.000000
  70
    32
  0
VERTEX
  8
01
  5
13D36
 10
15523.2
 20
-1026.29
 30
0.000000
  70
    32
  0
VERTEX
  8
01
  5
13D37
 10
15523.3
 20
-1026.26
 30
0.000000
  70
    32
  0
VERTEX
  8
01
  5
13D38
 10
15523.5
 20
-1026.22
 30
0.000000
  70
    32
  0
VERTEX
  8
01
  5
13D39
 10
15523.6
 20
-1026.19
 30
0.000000
  70
    32
  0
VERTEX
  8
01
  5
13D3A
 10
15523.7
 20
-1026.16
 30
0.000000
  70
    32
  0
VERTEX
  8
01
  5
13D3B
 10
15523.9
 20
-1026.13
 30
0.000000
  70
    32
  0
VERTEX
  8
01
  5
13D3C
 10
15524.0
 20
-1026.11
 30
0.000000
  70
    32
  0
VERTEX
  8
01
  5
13D3D
 10
15524.1
 20
-1026.08
 30
0.000000
  70
    32
  0
VERTEX
  8
01
  5
13D3E
 10
15524.2
 20
-1026.06
 30
0.000000
  70
    32
  0
VERTEX
  8
01
  5
13D3F
 10
15524.4
 20
-1026.03
 30
0.000000
  70
    32
  0
VERTEX
  8
01
  5
13D40
 10
15524.5
 20
-1026.01
 30
0.000000
  70
    32
  0
VERTEX
  8
01
  5
13D41
 10
15524.6
 20
-1026.00
 30
0.000000
  70
    32
  0
VERTEX
  8
01
  5
13D42
 10
15524.8
 20
-1025.98
 30
0.000000
  70
    32
  0
VERTEX
  8
01
  5
13D43
 10
15524.9
 20
-1025.96
 30
0.000000
  70
    32
  0
VERTEX
  8
01
  5
13D44
 10
15525.0
 20
-1025.95
 30
0.000000
  70
    32
  0
VERTEX
  8
01
  5
13D45
 10
15525.2
 20
-1025.94
 30
0.000000
  70
    32
  0
VERTEX
  8
01
  5
13D46
 10
15525.3
 20
-1025.93
 30
0.000000
  70
    32
  0
VERTEX
  8
01
  5
13D47
 10
15525.4
 20
-1025.92
 30
0.000000
  70
    32
  0
VERTEX
  8
01
  5
13D48
 10
15525.6
 20
-1025.92
 30
0.000000
  70
    32
  0
VERTEX
  8
01
  5
13D49
 10
15525.7
 20
-1025.91
 30
0.000000
  70
    32
  0
VERTEX
  8
01
  5
13D4A
 10
15525.8
 20
-1025.91
 30
0.000000
  70
    32
  0
VERTEX
  8
01
  5
13D4B
 10
15526.0
 20
-1025.91
 30
0.000000
  70
    32
  0
VERTEX
  8
01
  5
13D4C
 10
15526.1
 20
-1025.92
 30
0.000000
  70
    32
  0
VERTEX
  8
01
  5
13D4D
 10
15526.2
 20
-1025.92
 30
0.000000
  70
    32
  0
VERTEX
  8
01
  5
13D4E
 10
15526.4
 20
-1025.93
 30
0.000000
  70
    32
  0
VERTEX
  8
01
  5
13D4F
 10
15526.5
 20
-1025.94
 30
0.000000
  70
    32
  0
VERTEX
  8
01
  5
13D50
 10
15526.6
 20
-1025.95
 30
0.000000
  70
    32
  0
VERTEX
  8
01
  5
13D51
 10
15526.8
 20
-1025.96
 30
0.000000
  70
    32
  0
VERTEX
  8
01
  5
13D52
 10
15526.9
 20
-1025.98
 30
0.000000
  70
    32
  0
VERTEX
  8
01
  5
13D53
 10
15527.0
 20
-1026.00
 30
0.000000
  70
    32
  0
VERTEX
  8
01
  5
13D54
 10
15527.2
 20
-1026.02
 30
0.000000
  70
    32
  0
VERTEX
  8
01
  5
13D55
 10
15527.3
 20
-1026.04
 30
0.000000
  70
    32
  0
VERTEX
  8
01
  5
13D56
 10
15527.4
 20
-1026.06
 30
0.000000
  70
    32
  0
VERTEX
  8
01
  5
13D57
 10
15527.6
 20
-1026.09
 30
0.000000
  70
    32
  0
VERTEX
  8
01
  5
13D58
 10
15527.7
 20
-1026.12
 30
0.000000
  70
    32
  0
VERTEX
  8
01
  5
13D59
 10
15527.8
 20
-1026.14
 30
0.000000
  70
    32
  0
VERTEX
  8
01
  5
13D5A
 10
15528.0
 20
-1026.17
 30
0.000000
  70
    32
  0
VERTEX
  8
01
  5
13D5B
 10
15528.1
 20
-1026.21
 30
0.000000
  70
    32
  0
VERTEX
  8
01
  5
13D5C
 10
15528.2
 20
-1026.24
 30
0.000000
  70
    32
  0
VERTEX
  8
01
  5
13D5D
 10
15528.4
 20
-1026.27
 30
0.000000
  70
    32
  0
VERTEX
  8
01
  5
13D5E
 10
15528.5
 20
-1026.31
 30
0.000000
  70
    32
  0
VERTEX
  8
01
  5
13D5F
 10
15528.6
 20
-1026.35
 30
0.000000
  70
    32
  0
VERTEX
  8
01
  5
13D60
 10
15528.8
 20
-1026.39
 30
0.000000
  70
    32
  0
VERTEX
  8
01
  5
13D61
 10
15528.9
 20
-1026.43
 30
0.000000
  70
    32
  0
VERTEX
  8
01
  5
13D62
 10
15529.0
 20
-1026.47
 30
0.000000
  70
    32
  0
VERTEX
  8
01
  5
13D63
 10
15529.1
 20
-1026.51
 30
0.000000
  70
    32
  0
VERTEX
  8
01
  5
13D64
 10
15529.3
 20
-1026.55
 30
0.000000
  70
    32
  0
VERTEX
  8
01
  5
13D65
 10
15529.4
 20
-1026.60
 30
0.000000
  70
    32
  0
VERTEX
  8
01
  5
13D66
 10
15529.5
 20
-1026.64
 30
0.000000
  70
    32
  0
VERTEX
  8
01
  5
13D67
 10
15529.7
 20
-1026.69
 30
0.000000
  70
    32
  0
VERTEX
  8
01
  5
13D68
 10
15529.8
 20
-1026.74
 30
0.000000
  70
    32
  0
VERTEX
  8
01
  5
13D69
 10
15529.9
 20
-1026.79
 30
0.000000
  70
    32
  0
VERTEX
  8
01
  5
13D6A
 10
15530.1
 20
-1026.84
 30
0.000000
  70
    32
  0
VERTEX
  8
01
  5
13D6B
 10
15530.2
 20
-1026.89
 30
0.000000
  70
    32
  0
VERTEX
  8
01
  5
13D6C
 10
15530.3
 20
-1026.94
 30
0.000000
  70
    32
  0
VERTEX
  8
01
  5
13D6D
 10
15530.5
 20
-1026.99
 30
0.000000
  70
    32
  0
VERTEX
  8
01
  5
13D6E
 10
15530.6
 20
-1027.04
 30
0.000000
  70
    32
  0
VERTEX
  8
01
  5
13D6F
 10
15530.7
 20
-1027.09
 30
0.000000
  70
    32
  0
VERTEX
  8
01
  5
13D70
 10
15530.9
 20
-1027.15
 30
0.000000
  70
    32
  0
VERTEX
  8
01
  5
13D71
 10
15531.0
 20
-1027.20
 30
0.000000
  70
    32
  0
VERTEX
  8
01
  5
13D72
 10
15531.1
 20
-1027.26
 30
0.000000
  70
    32
  0
VERTEX
  8
01
  5
13D73
 10
15531.3
 20
-1027.31
 30
0.000000
  70
    32
  0
VERTEX
  8
01
  5
13D74
 10
15531.4
 20
-1027.37
 30
0.000000
  70
    32
  0
VERTEX
  8
01
  5
13D75
 10
15531.5
 20
-1027.42
 30
0.000000
  70
    32
  0
VERTEX
  8
01
  5
13D76
 10
15531.7
 20
-1027.48
 30
0.000000
  70
    32
  0
VERTEX
  8
01
  5
13D77
 10
15531.8
 20
-1027.53
 30
0.000000
  70
    32
  0
VERTEX
  8
01
  5
13D78
 10
15531.9
 20
-1027.59
 30
0.000000
  70
    32
  0
VERTEX
  8
01
  5
13D79
 10
15532.1
 20
-1027.65
 30
0.000000
  70
    32
  0
VERTEX
  8
01
  5
13D7A
 10
15532.2
 20
-1027.70
 30
0.000000
  70
    32
  0
VERTEX
  8
01
  5
13D7B
 10
15532.3
 20
-1027.76
 30
0.000000
  70
    32
  0
VERTEX
  8
01
  5
13D7C
 10
15532.5
 20
-1027.82
 30
0.000000
  70
    32
  0
VERTEX
  8
01
  5
13D7D
 10
15532.6
 20
-1027.87
 30
0.000000
  70
    32
  0
VERTEX
  8
01
  5
13D7E
 10
15532.7
 20
-1027.93
 30
0.000000
  70
    32
  0
VERTEX
  8
01
  5
13D7F
 10
15532.9
 20
-1027.98
 30
0.000000
  70
    32
  0
VERTEX
  8
01
  5
13D80
 10
15533.0
 20
-1028.04
 30
0.000000
  70
    32
  0
VERTEX
  8
01
  5
13D81
 10
15533.1
 20
-1028.10
 30
0.000000
  70
    32
  0
VERTEX
  8
01
  5
13D82
 10
15533.3
 20
-1028.15
 30
0.000000
  70
    32
  0
VERTEX
  8
01
  5
13D83
 10
15533.4
 20
-1028.21
 30
0.000000
  70
    32
  0
VERTEX
  8
01
  5
13D84
 10
15533.5
 20
-1028.26
 30
0.000000
  70
    32
  0
VERTEX
  8
01
  5
13D85
 10
15533.7
 20
-1028.32
 30
0.000000
  70
    32
  0
VERTEX
  8
01
  5
13D86
 10
15533.8
 20
-1028.37
 30
0.000000
  70
    32
  0
VERTEX
  8
01
  5
13D87
 10
15533.9
 20
-1028.42
 30
0.000000
  70
    32
  0
VERTEX
  8
01
  5
13D88
 10
15534.1
 20
-1028.48
 30
0.000000
  70
    32
  0
VERTEX
  8
01
  5
13D89
 10
15534.2
 20
-1028.53
 30
0.000000
  70
    32
  0
VERTEX
  8
01
  5
13D8A
 10
15534.3
 20
-1028.58
 30
0.000000
  70
    32
  0
VERTEX
  8
01
  5
13D8B
 10
15534.4
 20
-1028.63
 30
0.000000
  70
    32
  0
VERTEX
  8
01
  5
13D8C
 10
15534.6
 20
-1028.68
 30
0.000000
  70
    32
  0
VERTEX
  8
01
  5
13D8D
 10
15534.7
 20
-1028.73
 30
0.000000
  70
    32
  0
VERTEX
  8
01
  5
13D8E
 10
15534.8
 20
-1028.78
 30
0.000000
  70
    32
  0
VERTEX
  8
01
  5
13D8F
 10
15535.0
 20
-1028.82
 30
0.000000
  70
    32
  0
VERTEX
  8
01
  5
13D90
 10
15535.1
 20
-1028.87
 30
0.000000
  70
    32
  0
VERTEX
  8
01
  5
13D91
 10
15535.2
 20
-1028.92
 30
0.000000
  70
    32
  0
VERTEX
  8
01
  5
13D92
 10
15535.4
 20
-1028.96
 30
0.000000
  70
    32
  0
VERTEX
  8
01
  5
13D93
 10
15535.5
 20
-1029.00
 30
0.000000
  70
    32
  0
VERTEX
  8
01
  5
13D94
 10
15535.6
 20
-1029.04
 30
0.000000
  70
    32
  0
VERTEX
  8
01
  5
13D95
 10
15535.8
 20
-1029.09
 30
0.000000
  70
    32
  0
VERTEX
  8
01
  5
13D96
 10
15535.9
 20
-1029.13
 30
0.000000
  70
    32
  0
VERTEX
  8
01
  5
13D97
 10
15536.0
 20
-1029.16
 30
0.000000
  70
    32
  0
VERTEX
  8
01
  5
13D98
 10
15536.2
 20
-1029.20
 30
0.000000
  70
    32
  0
VERTEX
  8
01
  5
13D99
 10
15536.3
 20
-1029.24
 30
0.000000
  70
    32
  0
VERTEX
  8
01
  5
13D9A
 10
15536.4
 20
-1029.27
 30
0.000000
  70
    32
  0
VERTEX
  8
01
  5
13D9B
 10
15536.5
 20
-1029.30
 30
0.000000
  70
    32
  0
VERTEX
  8
01
  5
13D9C
 10
15536.7
 20
-1029.33
 30
0.000000
  70
    32
  0
VERTEX
  8
01
  5
13D9D
 10
15536.8
 20
-1029.36
 30
0.000000
  70
    32
  0
VERTEX
  8
01
  5
13D9E
 10
15536.9
 20
-1029.39
 30
0.000000
  70
    32
  0
VERTEX
  8
01
  5
13D9F
 10
15537.1
 20
-1029.42
 30
0.000000
  70
    32
  0
VERTEX
  8
01
  5
13DA0
 10
15537.2
 20
-1029.44
 30
0.000000
  70
    32
  0
VERTEX
  8
01
  5
13DA1
 10
15537.3
 20
-1029.46
 30
0.000000
  70
    32
  0
VERTEX
  8
01
  5
13DA2
 10
15537.5
 20
-1029.48
 30
0.000000
  70
    32
  0
VERTEX
  8
01
  5
13DA3
 10
15537.6
 20
-1029.50
 30
0.000000
  70
    32
  0
VERTEX
  8
01
  5
13DA4
 10
15537.7
 20
-1029.52
 30
0.000000
  70
    32
  0
VERTEX
  8
01
  5
13DA5
 10
15537.9
 20
-1029.54
 30
0.000000
  70
    32
  0
VERTEX
  8
01
  5
13DA6
 10
15538.0
 20
-1029.55
 30
0.000000
  70
    32
  0
VERTEX
  8
01
  5
13DA7
 10
15538.1
 20
-1029.56
 30
0.000000
  70
    32
  0
VERTEX
  8
01
  5
13DA8
 10
15538.2
 20
-1029.57
 30
0.000000
  70
    32
  0
VERTEX
  8
01
  5
13DA9
 10
15538.4
 20
-1029.58
 30
0.000000
  70
    32
  0
VERTEX
  8
01
  5
13DAA
 10
15538.5
 20
-1029.58
 30
0.000000
  70
    32
  0
VERTEX
  8
01
  5
13DAB
 10
15538.6
 20
-1029.58
 30
0.000000
  70
    32
  0
VERTEX
  8
01
  5
13DAC
 10
15538.8
 20
-1029.58
 30
0.000000
  70
    32
  0
VERTEX
  8
01
  5
13DAD
 10
15538.9
 20
-1029.58
 30
0.000000
  70
    32
  0
VERTEX
  8
01
  5
13DAE
 10
15539.0
 20
-1029.57
 30
0.000000
  70
    32
  0
VERTEX
  8
01
  5
13DAF
 10
15539.1
 20
-1029.57
 30
0.000000
  70
    32
  0
VERTEX
  8
01
  5
13DB0
 10
15539.3
 20
-1029.56
 30
0.000000
  70
    32
  0
VERTEX
  8
01
  5
13DB1
 10
15539.4
 20
-1029.55
 30
0.000000
  70
    32
  0
VERTEX
  8
01
  5
13DB2
 10
15539.5
 20
-1029.53
 30
0.000000
  70
    32
  0
VERTEX
  8
01
  5
13DB3
 10
15539.7
 20
-1029.51
 30
0.000000
  70
    32
  0
VERTEX
  8
01
  5
13DB4
 10
15539.8
 20
-1029.49
 30
0.000000
  70
    32
  0
VERTEX
  8
01
  5
13DB5
 10
15539.9
 20
-1029.47
 30
0.000000
  70
    32
  0
VERTEX
  8
01
  5
13DB6
 10
15540.0
 20
-1029.45
 30
0.000000
  70
    32
  0
VERTEX
  8
01
  5
13DB7
 10
15540.2
 20
-1029.42
 30
0.000000
  70
    32
  0
VERTEX
  8
01
  5
13DB8
 10
15540.3
 20
-1029.39
 30
0.000000
  70
    32
  0
VERTEX
  8
01
  5
13DB9
 10
15540.4
 20
-1029.36
 30
0.000000
  70
    32
  0
VERTEX
  8
01
  5
13DBA
 10
15540.6
 20
-1029.32
 30
0.000000
  70
    32
  0
VERTEX
  8
01
  5
13DBB
 10
15540.7
 20
-1029.29
 30
0.000000
  70
    32
  0
VERTEX
  8
01
  5
13DBC
 10
15540.8
 20
-1029.25
 30
0.000000
  70
    32
  0
VERTEX
  8
01
  5
13DBD
 10
15540.9
 20
-1029.21
 30
0.000000
  70
    32
  0
VERTEX
  8
01
  5
13DBE
 10
15541.1
 20
-1029.17
 30
0.000000
  70
    32
  0
VERTEX
  8
01
  5
13DBF
 10
15541.2
 20
-1029.13
 30
0.000000
  70
    32
  0
VERTEX
  8
01
  5
13DC0
 10
15541.3
 20
-1029.08
 30
0.000000
  70
    32
  0
VERTEX
  8
01
  5
13DC1
 10
15541.5
 20
-1029.03
 30
0.000000
  70
    32
  0
VERTEX
  8
01
  5
13DC2
 10
15541.6
 20
-1028.98
 30
0.000000
  70
    32
  0
VERTEX
  8
01
  5
13DC3
 10
15541.7
 20
-1028.93
 30
0.000000
  70
    32
  0
VERTEX
  8
01
  5
13DC4
 10
15541.8
 20
-1028.88
 30
0.000000
  70
    32
  0
VERTEX
  8
01
  5
13DC5
 10
15542.0
 20
-1028.83
 30
0.000000
  70
    32
  0
VERTEX
  8
01
  5
13DC6
 10
15542.1
 20
-1028.78
 30
0.000000
  70
    32
  0
VERTEX
  8
01
  5
13DC7
 10
15542.2
 20
-1028.72
 30
0.000000
  70
    32
  0
VERTEX
  8
01
  5
13DC8
 10
15542.3
 20
-1028.67
 30
0.000000
  70
    32
  0
VERTEX
  8
01
  5
13DC9
 10
15542.5
 20
-1028.61
 30
0.000000
  70
    32
  0
VERTEX
  8
01
  5
13DCA
 10
15542.6
 20
-1028.55
 30
0.000000
  70
    32
  0
VERTEX
  8
01
  5
13DCB
 10
15542.7
 20
-1028.49
 30
0.000000
  70
    32
  0
VERTEX
  8
01
  5
13DCC
 10
15542.9
 20
-1028.43
 30
0.000000
  70
    32
  0
VERTEX
  8
01
  5
13DCD
 10
15543.0
 20
-1028.37
 30
0.000000
  70
    32
  0
VERTEX
  8
01
  5
13DCE
 10
15543.1
 20
-1028.31
 30
0.000000
  70
    32
  0
VERTEX
  8
01
  5
13DCF
 10
15543.2
 20
-1028.25
 30
0.000000
  70
    32
  0
VERTEX
  8
01
  5
13DD0
 10
15543.4
 20
-1028.18
 30
0.000000
  70
    32
  0
VERTEX
  8
01
  5
13DD1
 10
15543.5
 20
-1028.12
 30
0.000000
  70
    32
  0
VERTEX
  8
01
  5
13DD2
 10
15543.6
 20
-1028.06
 30
0.000000
  70
    32
  0
VERTEX
  8
01
  5
13DD3
 10
15543.7
 20
-1027.99
 30
0.000000
  70
    32
  0
VERTEX
  8
01
  5
13DD4
 10
15543.9
 20
-1027.93
 30
0.000000
  70
    32
  0
VERTEX
  8
01
  5
13DD5
 10
15544.0
 20
-1027.86
 30
0.000000
  70
    32
  0
VERTEX
  8
01
  5
13DD6
 10
15544.1
 20
-1027.80
 30
0.000000
  70
    32
  0
VERTEX
  8
01
  5
13DD7
 10
15544.2
 20
-1027.73
 30
0.000000
  70
    32
  0
SEQEND
  8
01
  5
13DD8
  0
POLYLINE
  8
01
  5
13DD9
  66
     1
 10
0.000000
 20
0.000000
 30
0.000000
  70
     8
  0
VERTEX
  8
01
  5
13DDA
 10
15519.2
 20
-1032.87
 30
0.000000
  70
    32
  0
VERTEX
  8
01
  5
13DDB
 10
15519.4
 20
-1032.82
 30
0.000000
  70
    32
  0
VERTEX
  8
01
  5
13DDC
 10
15519.5
 20
-1032.76
 30
0.000000
  70
    32
  0
VERTEX
  8
01
  5
13DDD
 10
15519.6
 20
-1032.71
 30
0.000000
  70
    32
  0
VERTEX
  8
01
  5
13DDE
 10
15519.8
 20
-1032.65
 30
0.000000
  70
    32
  0
VERTEX
  8
01
  5
13DDF
 10
15519.9
 20
-1032.60
 30
0.000000
  70
    32
  0
VERTEX
  8
01
  5
13DE0
 10
15520.0
 20
-1032.55
 30
0.000000
  70
    32
  0
VERTEX
  8
01
  5
13DE1
 10
15520.2
 20
-1032.49
 30
0.000000
  70
    32
  0
VERTEX
  8
01
  5
13DE2
 10
15520.3
 20
-1032.44
 30
0.000000
  70
    32
  0
VERTEX
  8
01
  5
13DE3
 10
15520.4
 20
-1032.39
 30
0.000000
  70
    32
  0
VERTEX
  8
01
  5
13DE4
 10
15520.6
 20
-1032.33
 30
0.000000
  70
    32
  0
VERTEX
  8
01
  5
13DE5
 10
15520.7
 20
-1032.28
 30
0.000000
  70
    32
  0
VERTEX
  8
01
  5
13DE6
 10
15520.8
 20
-1032.23
 30
0.000000
  70
    32
  0
VERTEX
  8
01
  5
13DE7
 10
15521.0
 20
-1032.18
 30
0.000000
  70
    32
  0
VERTEX
  8
01
  5
13DE8
 10
15521.1
 20
-1032.13
 30
0.000000
  70
    32
  0
VERTEX
  8
01
  5
13DE9
 10
15521.2
 20
-1032.08
 30
0.000000
  70
    32
  0
VERTEX
  8
01
  5
13DEA
 10
15521.4
 20
-1032.03
 30
0.000000
  70
    32
  0
VERTEX
  8
01
  5
13DEB
 10
15521.5
 20
-1031.98
 30
0.000000
  70
    32
  0
VERTEX
  8
01
  5
13DEC
 10
15521.6
 20
-1031.93
 30
0.000000
  70
    32
  0
VERTEX
  8
01
  5
13DED
 10
15521.7
 20
-1031.88
 30
0.000000
  70
    32
  0
VERTEX
  8
01
  5
13DEE
 10
15521.9
 20
-1031.84
 30
0.000000
  70
    32
  0
VERTEX
  8
01
  5
13DEF
 10
15522.0
 20
-1031.79
 30
0.000000
  70
    32
  0
VERTEX
  8
01
  5
13DF0
 10
15522.1
 20
-1031.75
 30
0.000000
  70
    32
  0
VERTEX
  8
01
  5
13DF1
 10
15522.3
 20
-1031.70
 30
0.000000
  70
    32
  0
VERTEX
  8
01
  5
13DF2
 10
15522.4
 20
-1031.66
 30
0.000000
  70
    32
  0
VERTEX
  8
01
  5
13DF3
 10
15522.5
 20
-1031.62
 30
0.000000
  70
    32
  0
VERTEX
  8
01
  5
13DF4
 10
15522.7
 20
-1031.58
 30
0.000000
  70
    32
  0
VERTEX
  8
01
  5
13DF5
 10
15522.8
 20
-1031.54
 30
0.000000
  70
    32
  0
VERTEX
  8
01
  5
13DF6
 10
15522.9
 20
-1031.50
 30
0.000000
  70
    32
  0
VERTEX
  8
01
  5
13DF7
 10
15523.1
 20
-1031.47
 30
0.000000
  70
    32
  0
VERTEX
  8
01
  5
13DF8
 10
15523.2
 20
-1031.43
 30
0.000000
  70
    32
  0
VERTEX
  8
01
  5
13DF9
 10
15523.3
 20
-1031.40
 30
0.000000
  70
    32
  0
VERTEX
  8
01
  5
13DFA
 10
15523.5
 20
-1031.36
 30
0.000000
  70
    32
  0
VERTEX
  8
01
  5
13DFB
 10
15523.6
 20
-1031.33
 30
0.000000
  70
    32
  0
VERTEX
  8
01
  5
13DFC
 10
15523.7
 20
-1031.30
 30
0.000000
  70
    32
  0
VERTEX
  8
01
  5
13DFD
 10
15523.9
 20
-1031.27
 30
0.000000
  70
    32
  0
VERTEX
  8
01
  5
13DFE
 10
15524.0
 20
-1031.25
 30
0.000000
  70
    32
  0
VERTEX
  8
01
  5
13DFF
 10
15524.1
 20
-1031.22
 30
0.000000
  70
    32
  0
VERTEX
  8
01
  5
13E00
 10
15524.2
 20
-1031.20
 30
0.000000
  70
    32
  0
VERTEX
  8
01
  5
13E01
 10
15524.4
 20
-1031.17
 30
0.000000
  70
    32
  0
VERTEX
  8
01
  5
13E02
 10
15524.5
 20
-1031.15
 30
0.000000
  70
    32
  0
VERTEX
  8
01
  5
13E03
 10
15524.6
 20
-1031.13
 30
0.000000
  70
    32
  0
VERTEX
  8
01
  5
13E04
 10
15524.8
 20
-1031.12
 30
0.000000
  70
    32
  0
VERTEX
  8
01
  5
13E05
 10
15524.9
 20
-1031.10
 30
0.000000
  70
    32
  0
VERTEX
  8
01
  5
13E06
 10
15525.0
 20
-1031.09
 30
0.000000
  70
    32
  0
VERTEX
  8
01
  5
13E07
 10
15525.2
 20
-1031.08
 30
0.000000
  70
    32
  0
VERTEX
  8
01
  5
13E08
 10
15525.3
 20
-1031.07
 30
0.000000
  70
    32
  0
VERTEX
  8
01
  5
13E09
 10
15525.4
 20
-1031.06
 30
0.000000
  70
    32
  0
VERTEX
  8
01
  5
13E0A
 10
15525.6
 20
-1031.05
 30
0.000000
  70
    32
  0
VERTEX
  8
01
  5
13E0B
 10
15525.7
 20
-1031.05
 30
0.000000
  70
    32
  0
VERTEX
  8
01
  5
13E0C
 10
15525.8
 20
-1031.05
 30
0.000000
  70
    32
  0
VERTEX
  8
01
  5
13E0D
 10
15526.0
 20
-1031.05
 30
0.000000
  70
    32
  0
VERTEX
  8
01
  5
13E0E
 10
15526.1
 20
-1031.05
 30
0.000000
  70
    32
  0
VERTEX
  8
01
  5
13E0F
 10
15526.2
 20
-1031.06
 30
0.000000
  70
    32
  0
VERTEX
  8
01
  5
13E10
 10
15526.4
 20
-1031.07
 30
0.000000
  70
    32
  0
VERTEX
  8
01
  5
13E11
 10
15526.5
 20
-1031.08
 30
0.000000
  70
    32
  0
VERTEX
  8
01
  5
13E12
 10
15526.6
 20
-1031.09
 30
0.000000
  70
    32
  0
VERTEX
  8
01
  5
13E13
 10
15526.8
 20
-1031.10
 30
0.000000
  70
    32
  0
VERTEX
  8
01
  5
13E14
 10
15526.9
 20
-1031.12
 30
0.000000
  70
    32
  0
VERTEX
  8
01
  5
13E15
 10
15527.0
 20
-1031.14
 30
0.000000
  70
    32
  0
VERTEX
  8
01
  5
13E16
 10
15527.2
 20
-1031.16
 30
0.000000
  70
    32
  0
VERTEX
  8
01
  5
13E17
 10
15527.3
 20
-1031.18
 30
0.000000
  70
    32
  0
VERTEX
  8
01
  5
13E18
 10
15527.4
 20
-1031.20
 30
0.000000
  70
    32
  0
VERTEX
  8
01
  5
13E19
 10
15527.6
 20
-1031.23
 30
0.000000
  70
    32
  0
VERTEX
  8
01
  5
13E1A
 10
15527.7
 20
-1031.25
 30
0.000000
  70
    32
  0
VERTEX
  8
01
  5
13E1B
 10
15527.8
 20
-1031.28
 30
0.000000
  70
    32
  0
VERTEX
  8
01
  5
13E1C
 10
15528.0
 20
-1031.31
 30
0.000000
  70
    32
  0
VERTEX
  8
01
  5
13E1D
 10
15528.1
 20
-1031.34
 30
0.000000
  70
    32
  0
VERTEX
  8
01
  5
13E1E
 10
15528.2
 20
-1031.38
 30
0.000000
  70
    32
  0
VERTEX
  8
01
  5
13E1F
 10
15528.4
 20
-1031.41
 30
0.000000
  70
    32
  0
VERTEX
  8
01
  5
13E20
 10
15528.5
 20
-1031.45
 30
0.000000
  70
    32
  0
VERTEX
  8
01
  5
13E21
 10
15528.6
 20
-1031.49
 30
0.000000
  70
    32
  0
VERTEX
  8
01
  5
13E22
 10
15528.8
 20
-1031.52
 30
0.000000
  70
    32
  0
VERTEX
  8
01
  5
13E23
 10
15528.9
 20
-1031.56
 30
0.000000
  70
    32
  0
VERTEX
  8
01
  5
13E24
 10
15529.0
 20
-1031.61
 30
0.000000
  70
    32
  0
VERTEX
  8
01
  5
13E25
 10
15529.1
 20
-1031.65
 30
0.000000
  70
    32
  0
VERTEX
  8
01
  5
13E26
 10
15529.3
 20
-1031.69
 30
0.000000
  70
    32
  0
VERTEX
  8
01
  5
13E27
 10
15529.4
 20
-1031.74
 30
0.000000
  70
    32
  0
VERTEX
  8
01
  5
13E28
 10
15529.5
 20
-1031.78
 30
0.000000
  70
    32
  0
VERTEX
  8
01
  5
13E29
 10
15529.7
 20
-1031.83
 30
0.000000
  70
    32
  0
VERTEX
  8
01
  5
13E2A
 10
15529.8
 20
-1031.88
 30
0.000000
  70
    32
  0
VERTEX
  8
01
  5
13E2B
 10
15529.9
 20
-1031.93
 30
0.000000
  70
    32
  0
VERTEX
  8
01
  5
13E2C
 10
15530.1
 20
-1031.97
 30
0.000000
  70
    32
  0
VERTEX
  8
01
  5
13E2D
 10
15530.2
 20
-1032.02
 30
0.000000
  70
    32
  0
VERTEX
  8
01
  5
13E2E
 10
15530.3
 20
-1032.08
 30
0.000000
  70
    32
  0
VERTEX
  8
01
  5
13E2F
 10
15530.5
 20
-1032.13
 30
0.000000
  70
    32
  0
VERTEX
  8
01
  5
13E30
 10
15530.6
 20
-1032.18
 30
0.000000
  70
    32
  0
VERTEX
  8
01
  5
13E31
 10
15530.7
 20
-1032.23
 30
0.000000
  70
    32
  0
VERTEX
  8
01
  5
13E32
 10
15530.9
 20
-1032.29
 30
0.000000
  70
    32
  0
VERTEX
  8
01
  5
13E33
 10
15531.0
 20
-1032.34
 30
0.000000
  70
    32
  0
VERTEX
  8
01
  5
13E34
 10
15531.1
 20
-1032.39
 30
0.000000
  70
    32
  0
VERTEX
  8
01
  5
13E35
 10
15531.3
 20
-1032.45
 30
0.000000
  70
    32
  0
VERTEX
  8
01
  5
13E36
 10
15531.4
 20
-1032.50
 30
0.000000
  70
    32
  0
VERTEX
  8
01
  5
13E37
 10
15531.5
 20
-1032.56
 30
0.000000
  70
    32
  0
VERTEX
  8
01
  5
13E38
 10
15531.7
 20
-1032.62
 30
0.000000
  70
    32
  0
VERTEX
  8
01
  5
13E39
 10
15531.8
 20
-1032.67
 30
0.000000
  70
    32
  0
VERTEX
  8
01
  5
13E3A
 10
15531.9
 20
-1032.73
 30
0.000000
  70
    32
  0
VERTEX
  8
01
  5
13E3B
 10
15532.1
 20
-1032.78
 30
0.000000
  70
    32
  0
VERTEX
  8
01
  5
13E3C
 10
15532.2
 20
-1032.84
 30
0.000000
  70
    32
  0
VERTEX
  8
01
  5
13E3D
 10
15532.3
 20
-1032.90
 30
0.000000
  70
    32
  0
VERTEX
  8
01
  5
13E3E
 10
15532.5
 20
-1032.95
 30
0.000000
  70
    32
  0
VERTEX
  8
01
  5
13E3F
 10
15532.6
 20
-1033.01
 30
0.000000
  70
    32
  0
VERTEX
  8
01
  5
13E40
 10
15532.7
 20
-1033.07
 30
0.000000
  70
    32
  0
VERTEX
  8
01
  5
13E41
 10
15532.9
 20
-1033.12
 30
0.000000
  70
    32
  0
VERTEX
  8
01
  5
13E42
 10
15533.0
 20
-1033.18
 30
0.000000
  70
    32
  0
VERTEX
  8
01
  5
13E43
 10
15533.1
 20
-1033.24
 30
0.000000
  70
    32
  0
VERTEX
  8
01
  5
13E44
 10
15533.3
 20
-1033.29
 30
0.000000
  70
    32
  0
VERTEX
  8
01
  5
13E45
 10
15533.4
 20
-1033.35
 30
0.000000
  70
    32
  0
VERTEX
  8
01
  5
13E46
 10
15533.5
 20
-1033.40
 30
0.000000
  70
    32
  0
VERTEX
  8
01
  5
13E47
 10
15533.7
 20
-1033.45
 30
0.000000
  70
    32
  0
VERTEX
  8
01
  5
13E48
 10
15533.8
 20
-1033.51
 30
0.000000
  70
    32
  0
VERTEX
  8
01
  5
13E49
 10
15533.9
 20
-1033.56
 30
0.000000
  70
    32
  0
VERTEX
  8
01
  5
13E4A
 10
15534.1
 20
-1033.61
 30
0.000000
  70
    32
  0
VERTEX
  8
01
  5
13E4B
 10
15534.2
 20
-1033.67
 30
0.000000
  70
    32
  0
VERTEX
  8
01
  5
13E4C
 10
15534.3
 20
-1033.72
 30
0.000000
  70
    32
  0
VERTEX
  8
01
  5
13E4D
 10
15534.4
 20
-1033.77
 30
0.000000
  70
    32
  0
VERTEX
  8
01
  5
13E4E
 10
15534.6
 20
-1033.82
 30
0.000000
  70
    32
  0
VERTEX
  8
01
  5
13E4F
 10
15534.7
 20
-1033.87
 30
0.000000
  70
    32
  0
VERTEX
  8
01
  5
13E50
 10
15534.8
 20
-1033.92
 30
0.000000
  70
    32
  0
VERTEX
  8
01
  5
13E51
 10
15535.0
 20
-1033.96
 30
0.000000
  70
    32
  0
VERTEX
  8
01
  5
13E52
 10
15535.1
 20
-1034.01
 30
0.000000
  70
    32
  0
VERTEX
  8
01
  5
13E53
 10
15535.2
 20
-1034.05
 30
0.000000
  70
    32
  0
VERTEX
  8
01
  5
13E54
 10
15535.4
 20
-1034.10
 30
0.000000
  70
    32
  0
VERTEX
  8
01
  5
13E55
 10
15535.5
 20
-1034.14
 30
0.000000
  70
    32
  0
VERTEX
  8
01
  5
13E56
 10
15535.6
 20
-1034.18
 30
0.000000
  70
    32
  0
VERTEX
  8
01
  5
13E57
 10
15535.8
 20
-1034.22
 30
0.000000
  70
    32
  0
VERTEX
  8
01
  5
13E58
 10
15535.9
 20
-1034.26
 30
0.000000
  70
    32
  0
VERTEX
  8
01
  5
13E59
 10
15536.0
 20
-1034.30
 30
0.000000
  70
    32
  0
VERTEX
  8
01
  5
13E5A
 10
15536.2
 20
-1034.34
 30
0.000000
  70
    32
  0
VERTEX
  8
01
  5
13E5B
 10
15536.3
 20
-1034.37
 30
0.000000
  70
    32
  0
VERTEX
  8
01
  5
13E5C
 10
15536.4
 20
-1034.41
 30
0.000000
  70
    32
  0
VERTEX
  8
01
  5
13E5D
 10
15536.5
 20
-1034.44
 30
0.000000
  70
    32
  0
VERTEX
  8
01
  5
13E5E
 10
15536.7
 20
-1034.47
 30
0.000000
  70
    32
  0
VERTEX
  8
01
  5
13E5F
 10
15536.8
 20
-1034.50
 30
0.000000
  70
    32
  0
VERTEX
  8
01
  5
13E60
 10
15536.9
 20
-1034.53
 30
0.000000
  70
    32
  0
VERTEX
  8
01
  5
13E61
 10
15537.1
 20
-1034.56
 30
0.000000
  70
    32
  0
VERTEX
  8
01
  5
13E62
 10
15537.2
 20
-1034.58
 30
0.000000
  70
    32
  0
VERTEX
  8
01
  5
13E63
 10
15537.3
 20
-1034.60
 30
0.000000
  70
    32
  0
VERTEX
  8
01
  5
13E64
 10
15537.5
 20
-1034.62
 30
0.000000
  70
    32
  0
VERTEX
  8
01
  5
13E65
 10
15537.6
 20
-1034.64
 30
0.000000
  70
    32
  0
VERTEX
  8
01
  5
13E66
 10
15537.7
 20
-1034.66
 30
0.000000
  70
    32
  0
VERTEX
  8
01
  5
13E67
 10
15537.9
 20
-1034.67
 30
0.000000
  70
    32
  0
VERTEX
  8
01
  5
13E68
 10
15538.0
 20
-1034.69
 30
0.000000
  70
    32
  0
VERTEX
  8
01
  5
13E69
 10
15538.1
 20
-1034.70
 30
0.000000
  70
    32
  0
VERTEX
  8
01
  5
13E6A
 10
15538.2
 20
-1034.71
 30
0.000000
  70
    32
  0
VERTEX
  8
01
  5
13E6B
 10
15538.4
 20
-1034.71
 30
0.000000
  70
    32
  0
VERTEX
  8
01
  5
13E6C
 10
15538.5
 20
-1034.72
 30
0.000000
  70
    32
  0
VERTEX
  8
01
  5
13E6D
 10
15538.6
 20
-1034.72
 30
0.000000
  70
    32
  0
VERTEX
  8
01
  5
13E6E
 10
15538.8
 20
-1034.72
 30
0.000000
  70
    32
  0
VERTEX
  8
01
  5
13E6F
 10
15538.9
 20
-1034.72
 30
0.000000
  70
    32
  0
VERTEX
  8
01
  5
13E70
 10
15539.0
 20
-1034.71
 30
0.000000
  70
    32
  0
VERTEX
  8
01
  5
13E71
 10
15539.1
 20
-1034.71
 30
0.000000
  70
    32
  0
VERTEX
  8
01
  5
13E72
 10
15539.3
 20
-1034.70
 30
0.000000
  70
    32
  0
VERTEX
  8
01
  5
13E73
 10
15539.4
 20
-1034.68
 30
0.000000
  70
    32
  0
VERTEX
  8
01
  5
13E74
 10
15539.5
 20
-1034.67
 30
0.000000
  70
    32
  0
VERTEX
  8
01
  5
13E75
 10
15539.7
 20
-1034.65
 30
0.000000
  70
    32
  0
VERTEX
  8
01
  5
13E76
 10
15539.8
 20
-1034.63
 30
0.000000
  70
    32
  0
VERTEX
  8
01
  5
13E77
 10
15539.9
 20
-1034.61
 30
0.000000
  70
    32
  0
VERTEX
  8
01
  5
13E78
 10
15540.0
 20
-1034.58
 30
0.000000
  70
    32
  0
VERTEX
  8
01
  5
13E79
 10
15540.2
 20
-1034.56
 30
0.000000
  70
    32
  0
VERTEX
  8
01
  5
13E7A
 10
15540.3
 20
-1034.53
 30
0.000000
  70
    32
  0
VERTEX
  8
01
  5
13E7B
 10
15540.4
 20
-1034.50
 30
0.000000
  70
    32
  0
VERTEX
  8
01
  5
13E7C
 10
15540.6
 20
-1034.46
 30
0.000000
  70
    32
  0
VERTEX
  8
01
  5
13E7D
 10
15540.7
 20
-1034.43
 30
0.000000
  70
    32
  0
VERTEX
  8
01
  5
13E7E
 10
15540.8
 20
-1034.39
 30
0.000000
  70
    32
  0
VERTEX
  8
01
  5
13E7F
 10
15540.9
 20
-1034.35
 30
0.000000
  70
    32
  0
VERTEX
  8
01
  5
13E80
 10
15541.1
 20
-1034.31
 30
0.000000
  70
    32
  0
VERTEX
  8
01
  5
13E81
 10
15541.2
 20
-1034.26
 30
0.000000
  70
    32
  0
VERTEX
  8
01
  5
13E82
 10
15541.3
 20
-1034.22
 30
0.000000
  70
    32
  0
VERTEX
  8
01
  5
13E83
 10
15541.5
 20
-1034.17
 30
0.000000
  70
    32
  0
VERTEX
  8
01
  5
13E84
 10
15541.6
 20
-1034.12
 30
0.000000
  70
    32
  0
VERTEX
  8
01
  5
13E85
 10
15541.7
 20
-1034.07
 30
0.000000
  70
    32
  0
VERTEX
  8
01
  5
13E86
 10
15541.8
 20
-1034.02
 30
0.000000
  70
    32
  0
VERTEX
  8
01
  5
13E87
 10
15542.0
 20
-1033.97
 30
0.000000
  70
    32
  0
VERTEX
  8
01
  5
13E88
 10
15542.1
 20
-1033.92
 30
0.000000
  70
    32
  0
VERTEX
  8
01
  5
13E89
 10
15542.2
 20
-1033.86
 30
0.000000
  70
    32
  0
VERTEX
  8
01
  5
13E8A
 10
15542.3
 20
-1033.80
 30
0.000000
  70
    32
  0
VERTEX
  8
01
  5
13E8B
 10
15542.5
 20
-1033.75
 30
0.000000
  70
    32
  0
VERTEX
  8
01
  5
13E8C
 10
15542.6
 20
-1033.69
 30
0.000000
  70
    32
  0
VERTEX
  8
01
  5
13E8D
 10
15542.7
 20
-1033.63
 30
0.000000
  70
    32
  0
VERTEX
  8
01
  5
13E8E
 10
15542.9
 20
-1033.57
 30
0.000000
  70
    32
  0
VERTEX
  8
01
  5
13E8F
 10
15543.0
 20
-1033.51
 30
0.000000
  70
    32
  0
VERTEX
  8
01
  5
13E90
 10
15543.1
 20
-1033.45
 30
0.000000
  70
    32
  0
VERTEX
  8
01
  5
13E91
 10
15543.2
 20
-1033.38
 30
0.000000
  70
    32
  0
VERTEX
  8
01
  5
13E92
 10
15543.4
 20
-1033.32
 30
0.000000
  70
    32
  0
VERTEX
  8
01
  5
13E93
 10
15543.5
 20
-1033.26
 30
0.000000
  70
    32
  0
VERTEX
  8
01
  5
13E94
 10
15543.6
 20
-1033.19
 30
0.000000
  70
    32
  0
VERTEX
  8
01
  5
13E95
 10
15543.7
 20
-1033.13
 30
0.000000
  70
    32
  0
VERTEX
  8
01
  5
13E96
 10
15543.9
 20
-1033.07
 30
0.000000
  70
    32
  0
VERTEX
  8
01
  5
13E97
 10
15544.0
 20
-1033.00
 30
0.000000
  70
    32
  0
VERTEX
  8
01
  5
13E98
 10
15544.1
 20
-1032.94
 30
0.000000
  70
    32
  0
VERTEX
  8
01
  5
13E99
 10
15544.2
 20
-1032.87
 30
0.000000
  70
    32
  0
SEQEND
  8
01
  5
13E9A
  0
POLYLINE
  5
13917
  8
01
 10
15403.73601222057
 20
-896.10308836321167
 30
0.0
 66
     1
 70
     8
  0
VERTEX
  8
01
  5
13E9B
 10
15403.7
 20
-896.103
 30
0.000000
  70
    32
  0
VERTEX
  8
01
  5
13E9C
 10
15403.7
 20
-896.373
 30
0.000000
  70
    32
  0
VERTEX
  8
01
  5
13E9D
 10
15403.8
 20
-896.642
 30
0.000000
  70
    32
  0
VERTEX
  8
01
  5
13E9E
 10
15403.8
 20
-896.910
 30
0.000000
  70
    32
  0
VERTEX
  8
01
  5
13E9F
 10
15403.9
 20
-897.176
 30
0.000000
  70
    32
  0
VERTEX
  8
01
  5
13EA0
 10
15404.0
 20
-897.439
 30
0.000000
  70
    32
  0
VERTEX
  8
01
  5
13EA1
 10
15404.1
 20
-897.700
 30
0.000000
  70
    32
  0
VERTEX
  8
01
  5
13EA2
 10
15404.2
 20
-897.956
 30
0.000000
  70
    32
  0
VERTEX
  8
01
  5
13EA3
 10
15404.3
 20
-898.208
 30
0.000000
  70
    32
  0
VERTEX
  8
01
  5
13EA4
 10
15404.5
 20
-898.455
 30
0.000000
  70
    32
  0
VERTEX
  8
01
  5
13EA5
 10
15404.7
 20
-898.696
 30
0.000000
  70
    32
  0
VERTEX
  8
01
  5
13EA6
 10
15404.9
 20
-898.931
 30
0.000000
  70
    32
  0
VERTEX
  8
01
  5
13EA7
 10
15405.1
 20
-899.159
 30
0.000000
  70
    32
  0
VERTEX
  8
01
  5
13EA8
 10
15405.3
 20
-899.379
 30
0.000000
  70
    32
  0
VERTEX
  8
01
  5
13EA9
 10
15405.6
 20
-899.592
 30
0.000000
  70
    32
  0
VERTEX
  8
01
  5
13EAA
 10
15405.8
 20
-899.797
 30
0.000000
  70
    32
  0
VERTEX
  8
01
  5
13EAB
 10
15406.1
 20
-899.992
 30
0.000000
  70
    32
  0
VERTEX
  8
01
  5
13EAC
 10
15406.4
 20
-900.178
 30
0.000000
  70
    32
  0
VERTEX
  8
01
  5
13EAD
 10
15406.7
 20
-900.355
 30
0.000000
  70
    32
  0
VERTEX
  8
01
  5
13EAE
 10
15407.0
 20
-900.521
 30
0.000000
  70
    32
  0
VERTEX
  8
01
  5
13EAF
 10
15407.3
 20
-900.676
 30
0.000000
  70
    32
  0
VERTEX
  8
01
  5
13EB0
 10
15407.6
 20
-900.821
 30
0.000000
  70
    32
  0
VERTEX
  8
01
  5
13EB1
 10
15408.0
 20
-900.954
 30
0.000000
  70
    32
  0
VERTEX
  8
01
  5
13EB2
 10
15408.3
 20
-901.075
 30
0.000000
  70
    32
  0
VERTEX
  8
01
  5
13EB3
 10
15408.7
 20
-901.184
 30
0.000000
  70
    32
  0
VERTEX
  8
01
  5
13EB4
 10
15409.0
 20
-901.282
 30
0.000000
  70
    32
  0
VERTEX
  8
01
  5
13EB5
 10
15409.4
 20
-901.366
 30
0.000000
  70
    32
  0
VERTEX
  8
01
  5
13EB6
 10
15409.8
 20
-901.438
 30
0.000000
  70
    32
  0
VERTEX
  8
01
  5
13EB7
 10
15410.2
 20
-901.497
 30
0.000000
  70
    32
  0
VERTEX
  8
01
  5
13EB8
 10
15410.6
 20
-901.544
 30
0.000000
  70
    32
  0
VERTEX
  8
01
  5
13EB9
 10
15411.0
 20
-901.577
 30
0.000000
  70
    32
  0
VERTEX
  8
01
  5
13EBA
 10
15411.4
 20
-901.596
 30
0.000000
  70
    32
  0
VERTEX
  8
01
  5
13EBB
 10
15411.7
 20
-901.603
 30
0.000000
  70
    32
  0
VERTEX
  8
01
  5
13EBC
 10
15412.1
 20
-901.596
 30
0.000000
  70
    32
  0
VERTEX
  8
01
  5
13EBD
 10
15412.5
 20
-901.577
 30
0.000000
  70
    32
  0
VERTEX
  8
01
  5
13EBE
 10
15412.9
 20
-901.544
 30
0.000000
  70
    32
  0
VERTEX
  8
01
  5
13EBF
 10
15413.3
 20
-901.497
 30
0.000000
  70
    32
  0
VERTEX
  8
01
  5
13EC0
 10
15413.7
 20
-901.438
 30
0.000000
  70
    32
  0
VERTEX
  8
01
  5
13EC1
 10
15414.1
 20
-901.366
 30
0.000000
  70
    32
  0
VERTEX
  8
01
  5
13EC2
 10
15414.4
 20
-901.282
 30
0.000000
  70
    32
  0
VERTEX
  8
01
  5
13EC3
 10
15414.8
 20
-901.184
 30
0.000000
  70
    32
  0
VERTEX
  8
01
  5
13EC4
 10
15415.2
 20
-901.075
 30
0.000000
  70
    32
  0
VERTEX
  8
01
  5
13EC5
 10
15415.5
 20
-900.954
 30
0.000000
  70
    32
  0
VERTEX
  8
01
  5
13EC6
 10
15415.9
 20
-900.821
 30
0.000000
  70
    32
  0
VERTEX
  8
01
  5
13EC7
 10
15416.2
 20
-900.676
 30
0.000000
  70
    32
  0
VERTEX
  8
01
  5
13EC8
 10
15416.5
 20
-900.521
 30
0.000000
  70
    32
  0
VERTEX
  8
01
  5
13EC9
 10
15416.8
 20
-900.355
 30
0.000000
  70
    32
  0
VERTEX
  8
01
  5
13ECA
 10
15417.1
 20
-900.178
 30
0.000000
  70
    32
  0
VERTEX
  8
01
  5
13ECB
 10
15417.4
 20
-899.992
 30
0.000000
  70
    32
  0
VERTEX
  8
01
  5
13ECC
 10
15417.7
 20
-899.797
 30
0.000000
  70
    32
  0
VERTEX
  8
01
  5
13ECD
 10
15417.9
 20
-899.592
 30
0.000000
  70
    32
  0
VERTEX
  8
01
  5
13ECE
 10
15418.2
 20
-899.379
 30
0.000000
  70
    32
  0
VERTEX
  8
01
  5
13ECF
 10
15418.4
 20
-899.159
 30
0.000000
  70
    32
  0
VERTEX
  8
01
  5
13ED0
 10
15418.6
 20
-898.931
 30
0.000000
  70
    32
  0
VERTEX
  8
01
  5
13ED1
 10
15418.8
 20
-898.696
 30
0.000000
  70
    32
  0
VERTEX
  8
01
  5
13ED2
 10
15419.0
 20
-898.455
 30
0.000000
  70
    32
  0
VERTEX
  8
01
  5
13ED3
 10
15419.2
 20
-898.208
 30
0.000000
  70
    32
  0
VERTEX
  8
01
  5
13ED4
 10
15419.3
 20
-897.956
 30
0.000000
  70
    32
  0
VERTEX
  8
01
  5
13ED5
 10
15419.4
 20
-897.700
 30
0.000000
  70
    32
  0
VERTEX
  8
01
  5
13ED6
 10
15419.5
 20
-897.439
 30
0.000000
  70
    32
  0
VERTEX
  8
01
  5
13ED7
 10
15419.6
 20
-897.176
 30
0.000000
  70
    32
  0
VERTEX
  8
01
  5
13ED8
 10
15419.7
 20
-896.910
 30
0.000000
  70
    32
  0
VERTEX
  8
01
  5
13ED9
 10
15419.7
 20
-896.642
 30
0.000000
  70
    32
  0
VERTEX
  8
01
  5
13EDA
 10
15419.8
 20
-896.373
 30
0.000000
  70
    32
  0
VERTEX
  8
01
  5
13EDB
 10
15419.8
 20
-896.103
 30
0.000000
  70
    32
  0
VERTEX
  8
01
  5
13EDC
 10
15419.8
 20
-895.833
 30
0.000000
  70
    32
  0
VERTEX
  8
01
  5
13EDD
 10
15419.7
 20
-895.564
 30
0.000000
  70
    32
  0
VERTEX
  8
01
  5
13EDE
 10
15419.7
 20
-895.296
 30
0.000000
  70
    32
  0
VERTEX
  8
01
  5
13EDF
 10
15419.6
 20
-895.030
 30
0.000000
  70
    32
  0
VERTEX
  8
01
  5
13EE0
 10
15419.5
 20
-894.767
 30
0.000000
  70
    32
  0
VERTEX
  8
01
  5
13EE1
 10
15419.4
 20
-894.507
 30
0.000000
  70
    32
  0
VERTEX
  8
01
  5
13EE2
 10
15419.3
 20
-894.250
 30
0.000000
  70
    32
  0
VERTEX
  8
01
  5
13EE3
 10
15419.2
 20
-893.998
 30
0.000000
  70
    32
  0
VERTEX
  8
01
  5
13EE4
 10
15419.0
 20
-893.752
 30
0.000000
  70
    32
  0
VERTEX
  8
01
  5
13EE5
 10
15418.8
 20
-893.510
 30
0.000000
  70
    32
  0
VERTEX
  8
01
  5
13EE6
 10
15418.6
 20
-893.276
 30
0.000000
  70
    32
  0
VERTEX
  8
01
  5
13EE7
 10
15418.4
 20
-893.047
 30
0.000000
  70
    32
  0
VERTEX
  8
01
  5
13EE8
 10
15418.2
 20
-892.827
 30
0.000000
  70
    32
  0
VERTEX
  8
01
  5
13EE9
 10
15417.9
 20
-892.614
 30
0.000000
  70
    32
  0
VERTEX
  8
01
  5
13EEA
 10
15417.7
 20
-892.410
 30
0.000000
  70
    32
  0
VERTEX
  8
01
  5
13EEB
 10
15417.4
 20
-892.214
 30
0.000000
  70
    32
  0
VERTEX
  8
01
  5
13EEC
 10
15417.1
 20
-892.028
 30
0.000000
  70
    32
  0
VERTEX
  8
01
  5
13EED
 10
15416.8
 20
-891.852
 30
0.000000
  70
    32
  0
VERTEX
  8
01
  5
13EEE
 10
15416.5
 20
-891.685
 30
0.000000
  70
    32
  0
VERTEX
  8
01
  5
13EEF
 10
15416.2
 20
-891.530
 30
0.000000
  70
    32
  0
VERTEX
  8
01
  5
13EF0
 10
15415.9
 20
-891.386
 30
0.000000
  70
    32
  0
VERTEX
  8
01
  5
13EF1
 10
15415.5
 20
-891.253
 30
0.000000
  70
    32
  0
VERTEX
  8
01
  5
13EF2
 10
15415.2
 20
-891.131
 30
0.000000
  70
    32
  0
VERTEX
  8
01
  5
13EF3
 10
15414.8
 20
-891.022
 30
0.000000
  70
    32
  0
VERTEX
  8
01
  5
13EF4
 10
15414.4
 20
-890.925
 30
0.000000
  70
    32
  0
VERTEX
  8
01
  5
13EF5
 10
15414.1
 20
-890.840
 30
0.000000
  70
    32
  0
VERTEX
  8
01
  5
13EF6
 10
15413.7
 20
-890.768
 30
0.000000
  70
    32
  0
VERTEX
  8
01
  5
13EF7
 10
15413.3
 20
-890.709
 30
0.000000
  70
    32
  0
VERTEX
  8
01
  5
13EF8
 10
15412.9
 20
-890.663
 30
0.000000
  70
    32
  0
VERTEX
  8
01
  5
13EF9
 10
15412.5
 20
-890.630
 30
0.000000
  70
    32
  0
VERTEX
  8
01
  5
13EFA
 10
15412.1
 20
-890.610
 30
0.000000
  70
    32
  0
VERTEX
  8
01
  5
13EFB
 10
15411.7
 20
-890.603
 30
0.000000
  70
    32
  0
VERTEX
  8
01
  5
13EFC
 10
15411.4
 20
-890.610
 30
0.000000
  70
    32
  0
VERTEX
  8
01
  5
13EFD
 10
15411.0
 20
-890.630
 30
0.000000
  70
    32
  0
VERTEX
  8
01
  5
13EFE
 10
15410.6
 20
-890.663
 30
0.000000
  70
    32
  0
VERTEX
  8
01
  5
13EFF
 10
15410.2
 20
-890.709
 30
0.000000
  70
    32
  0
VERTEX
  8
01
  5
13F00
 10
15409.8
 20
-890.768
 30
0.000000
  70
    32
  0
VERTEX
  8
01
  5
13F01
 10
15409.4
 20
-890.840
 30
0.000000
  70
    32
  0
VERTEX
  8
01
  5
13F02
 10
15409.0
 20
-890.925
 30
0.000000
  70
    32
  0
VERTEX
  8
01
  5
13F03
 10
15408.7
 20
-891.022
 30
0.000000
  70
    32
  0
VERTEX
  8
01
  5
13F04
 10
15408.3
 20
-891.131
 30
0.000000
  70
    32
  0
VERTEX
  8
01
  5
13F05
 10
15408.0
 20
-891.253
 30
0.000000
  70
    32
  0
VERTEX
  8
01
  5
13F06
 10
15407.6
 20
-891.386
 30
0.000000
  70
    32
  0
VERTEX
  8
01
  5
13F07
 10
15407.3
 20
-891.530
 30
0.000000
  70
    32
  0
VERTEX
  8
01
  5
13F08
 10
15407.0
 20
-891.685
 30
0.000000
  70
    32
  0
VERTEX
  8
01
  5
13F09
 10
15406.7
 20
-891.852
 30
0.000000
  70
    32
  0
VERTEX
  8
01
  5
13F0A
 10
15406.4
 20
-892.028
 30
0.000000
  70
    32
  0
VERTEX
  8
01
  5
13F0B
 10
15406.1
 20
-892.214
 30
0.000000
  70
    32
  0
VERTEX
  8
01
  5
13F0C
 10
15405.8
 20
-892.410
 30
0.000000
  70
    32
  0
VERTEX
  8
01
  5
13F0D
 10
15405.6
 20
-892.614
 30
0.000000
  70
    32
  0
VERTEX
  8
01
  5
13F0E
 10
15405.3
 20
-892.827
 30
0.000000
  70
    32
  0
VERTEX
  8
01
  5
13F0F
 10
15405.1
 20
-893.047
 30
0.000000
  70
    32
  0
VERTEX
  8
01
  5
13F10
 10
15404.9
 20
-893.276
 30
0.000000
  70
    32
  0
VERTEX
  8
01
  5
13F11
 10
15404.7
 20
-893.510
 30
0.000000
  70
    32
  0
VERTEX
  8
01
  5
13F12
 10
15404.5
 20
-893.752
 30
0.000000
  70
    32
  0
VERTEX
  8
01
  5
13F13
 10
15404.3
 20
-893.998
 30
0.000000
  70
    32
  0
VERTEX
  8
01
  5
13F14
 10
15404.2
 20
-894.250
 30
0.000000
  70
    32
  0
VERTEX
  8
01
  5
13F15
 10
15404.1
 20
-894.507
 30
0.000000
  70
    32
  0
VERTEX
  8
01
  5
13F16
 10
15404.0
 20
-894.767
 30
0.000000
  70
    32
  0
VERTEX
  8
01
  5
13F17
 10
15403.9
 20
-895.030
 30
0.000000
  70
    32
  0
VERTEX
  8
01
  5
13F18
 10
15403.8
 20
-895.296
 30
0.000000
  70
    32
  0
VERTEX
  8
01
  5
13F19
 10
15403.8
 20
-895.564
 30
0.000000
  70
    32
  0
VERTEX
  8
01
  5
13F1A
 10
15403.7
 20
-895.833
 30
0.000000
  70
    32
  0
VERTEX
  8
01
  5
13F1B
 10
15403.7
 20
-896.103
 30
0.000000
  70
    32
  0
SEQEND
  8
01
  5
13F1C
  0
POLYLINE
  5
13918
  8
01
 10
15426.91201222057
 20
-890.60308836321167
 30
0.0
 66
     1
 70
     8
  0
VERTEX
  8
01
  5
13F1D
 10
15426.9
 20
-890.603
 30
0.000000
  70
    32
  0
VERTEX
  8
01
  5
13F1E
 10
15426.7
 20
-890.610
 30
0.000000
  70
    32
  0
VERTEX
  8
01
  5
13F1F
 10
15426.5
 20
-890.630
 30
0.000000
  70
    32
  0
VERTEX
  8
01
  5
13F20
 10
15426.3
 20
-890.663
 30
0.000000
  70
    32
  0
VERTEX
  8
01
  5
13F21
 10
15426.1
 20
-890.709
 30
0.000000
  70
    32
  0
VERTEX
  8
01
  5
13F22
 10
15425.9
 20
-890.768
 30
0.000000
  70
    32
  0
VERTEX
  8
01
  5
13F23
 10
15425.8
 20
-890.840
 30
0.000000
  70
    32
  0
VERTEX
  8
01
  5
13F24
 10
15425.6
 20
-890.925
 30
0.000000
  70
    32
  0
VERTEX
  8
01
  5
13F25
 10
15425.4
 20
-891.022
 30
0.000000
  70
    32
  0
VERTEX
  8
01
  5
13F26
 10
15425.2
 20
-891.131
 30
0.000000
  70
    32
  0
VERTEX
  8
01
  5
13F27
 10
15425.0
 20
-891.253
 30
0.000000
  70
    32
  0
VERTEX
  8
01
  5
13F28
 10
15424.9
 20
-891.386
 30
0.000000
  70
    32
  0
VERTEX
  8
01
  5
13F29
 10
15424.7
 20
-891.530
 30
0.000000
  70
    32
  0
VERTEX
  8
01
  5
13F2A
 10
15424.6
 20
-891.685
 30
0.000000
  70
    32
  0
VERTEX
  8
01
  5
13F2B
 10
15424.4
 20
-891.852
 30
0.000000
  70
    32
  0
VERTEX
  8
01
  5
13F2C
 10
15424.3
 20
-892.028
 30
0.000000
  70
    32
  0
VERTEX
  8
01
  5
13F2D
 10
15424.1
 20
-892.214
 30
0.000000
  70
    32
  0
VERTEX
  8
01
  5
13F2E
 10
15424.0
 20
-892.410
 30
0.000000
  70
    32
  0
VERTEX
  8
01
  5
13F2F
 10
15423.8
 20
-892.614
 30
0.000000
  70
    32
  0
VERTEX
  8
01
  5
13F30
 10
15423.7
 20
-892.827
 30
0.000000
  70
    32
  0
VERTEX
  8
01
  5
13F31
 10
15423.6
 20
-893.047
 30
0.000000
  70
    32
  0
VERTEX
  8
01
  5
13F32
 10
15423.5
 20
-893.276
 30
0.000000
  70
    32
  0
VERTEX
  8
01
  5
13F33
 10
15423.4
 20
-893.510
 30
0.000000
  70
    32
  0
VERTEX
  8
01
  5
13F34
 10
15423.3
 20
-893.752
 30
0.000000
  70
    32
  0
VERTEX
  8
01
  5
13F35
 10
15423.3
 20
-893.998
 30
0.000000
  70
    32
  0
VERTEX
  8
01
  5
13F36
 10
15423.2
 20
-894.250
 30
0.000000
  70
    32
  0
VERTEX
  8
01
  5
13F37
 10
15423.1
 20
-894.507
 30
0.000000
  70
    32
  0
VERTEX
  8
01
  5
13F38
 10
15423.1
 20
-894.767
 30
0.000000
  70
    32
  0
VERTEX
  8
01
  5
13F39
 10
15423.0
 20
-895.030
 30
0.000000
  70
    32
  0
VERTEX
  8
01
  5
13F3A
 10
15423.0
 20
-895.296
 30
0.000000
  70
    32
  0
VERTEX
  8
01
  5
13F3B
 10
15423.0
 20
-895.564
 30
0.000000
  70
    32
  0
VERTEX
  8
01
  5
13F3C
 10
15423.0
 20
-895.833
 30
0.000000
  70
    32
  0
VERTEX
  8
01
  5
13F3D
 10
15422.9
 20
-896.103
 30
0.000000
  70
    32
  0
VERTEX
  8
01
  5
13F3E
 10
15423.0
 20
-896.373
 30
0.000000
  70
    32
  0
VERTEX
  8
01
  5
13F3F
 10
15423.0
 20
-896.642
 30
0.000000
  70
    32
  0
VERTEX
  8
01
  5
13F40
 10
15423.0
 20
-896.910
 30
0.000000
  70
    32
  0
VERTEX
  8
01
  5
13F41
 10
15423.0
 20
-897.176
 30
0.000000
  70
    32
  0
VERTEX
  8
01
  5
13F42
 10
15423.1
 20
-897.439
 30
0.000000
  70
    32
  0
VERTEX
  8
01
  5
13F43
 10
15423.1
 20
-897.700
 30
0.000000
  70
    32
  0
VERTEX
  8
01
  5
13F44
 10
15423.2
 20
-897.956
 30
0.000000
  70
    32
  0
VERTEX
  8
01
  5
13F45
 10
15423.3
 20
-898.208
 30
0.000000
  70
    32
  0
VERTEX
  8
01
  5
13F46
 10
15423.3
 20
-898.455
 30
0.000000
  70
    32
  0
VERTEX
  8
01
  5
13F47
 10
15423.4
 20
-898.696
 30
0.000000
  70
    32
  0
VERTEX
  8
01
  5
13F48
 10
15423.5
 20
-898.931
 30
0.000000
  70
    32
  0
VERTEX
  8
01
  5
13F49
 10
15423.6
 20
-899.159
 30
0.000000
  70
    32
  0
VERTEX
  8
01
  5
13F4A
 10
15423.7
 20
-899.379
 30
0.000000
  70
    32
  0
VERTEX
  8
01
  5
13F4B
 10
15423.8
 20
-899.592
 30
0.000000
  70
    32
  0
VERTEX
  8
01
  5
13F4C
 10
15424.0
 20
-899.797
 30
0.000000
  70
    32
  0
VERTEX
  8
01
  5
13F4D
 10
15424.1
 20
-899.992
 30
0.000000
  70
    32
  0
VERTEX
  8
01
  5
13F4E
 10
15424.3
 20
-900.178
 30
0.000000
  70
    32
  0
VERTEX
  8
01
  5
13F4F
 10
15424.4
 20
-900.355
 30
0.000000
  70
    32
  0
VERTEX
  8
01
  5
13F50
 10
15424.6
 20
-900.521
 30
0.000000
  70
    32
  0
VERTEX
  8
01
  5
13F51
 10
15424.7
 20
-900.676
 30
0.000000
  70
    32
  0
VERTEX
  8
01
  5
13F52
 10
15424.9
 20
-900.821
 30
0.000000
  70
    32
  0
VERTEX
  8
01
  5
13F53
 10
15425.0
 20
-900.954
 30
0.000000
  70
    32
  0
VERTEX
  8
01
  5
13F54
 10
15425.2
 20
-901.075
 30
0.000000
  70
    32
  0
VERTEX
  8
01
  5
13F55
 10
15425.4
 20
-901.184
 30
0.000000
  70
    32
  0
VERTEX
  8
01
  5
13F56
 10
15425.6
 20
-901.282
 30
0.000000
  70
    32
  0
VERTEX
  8
01
  5
13F57
 10
15425.8
 20
-901.366
 30
0.000000
  70
    32
  0
VERTEX
  8
01
  5
13F58
 10
15425.9
 20
-901.438
 30
0.000000
  70
    32
  0
VERTEX
  8
01
  5
13F59
 10
15426.1
 20
-901.497
 30
0.000000
  70
    32
  0
VERTEX
  8
01
  5
13F5A
 10
15426.3
 20
-901.544
 30
0.000000
  70
    32
  0
VERTEX
  8
01
  5
13F5B
 10
15426.5
 20
-901.577
 30
0.000000
  70
    32
  0
VERTEX
  8
01
  5
13F5C
 10
15426.7
 20
-901.596
 30
0.000000
  70
    32
  0
VERTEX
  8
01
  5
13F5D
 10
15426.9
 20
-901.603
 30
0.000000
  70
    32
  0
VERTEX
  8
01
  5
13F5E
 10
15427.1
 20
-901.596
 30
0.000000
  70
    32
  0
VERTEX
  8
01
  5
13F5F
 10
15427.3
 20
-901.577
 30
0.000000
  70
    32
  0
VERTEX
  8
01
  5
13F60
 10
15427.5
 20
-901.544
 30
0.000000
  70
    32
  0
VERTEX
  8
01
  5
13F61
 10
15427.7
 20
-901.497
 30
0.000000
  70
    32
  0
VERTEX
  8
01
  5
13F62
 10
15427.9
 20
-901.438
 30
0.000000
  70
    32
  0
VERTEX
  8
01
  5
13F63
 10
15428.1
 20
-901.366
 30
0.000000
  70
    32
  0
VERTEX
  8
01
  5
13F64
 10
15428.2
 20
-901.282
 30
0.000000
  70
    32
  0
VERTEX
  8
01
  5
13F65
 10
15428.4
 20
-901.184
 30
0.000000
  70
    32
  0
VERTEX
  8
01
  5
13F66
 10
15428.6
 20
-901.075
 30
0.000000
  70
    32
  0
VERTEX
  8
01
  5
13F67
 10
15428.8
 20
-900.954
 30
0.000000
  70
    32
  0
VERTEX
  8
01
  5
13F68
 10
15428.9
 20
-900.821
 30
0.000000
  70
    32
  0
VERTEX
  8
01
  5
13F69
 10
15429.1
 20
-900.676
 30
0.000000
  70
    32
  0
VERTEX
  8
01
  5
13F6A
 10
15429.3
 20
-900.521
 30
0.000000
  70
    32
  0
VERTEX
  8
01
  5
13F6B
 10
15429.4
 20
-900.355
 30
0.000000
  70
    32
  0
VERTEX
  8
01
  5
13F6C
 10
15429.6
 20
-900.178
 30
0.000000
  70
    32
  0
VERTEX
  8
01
  5
13F6D
 10
15429.7
 20
-899.992
 30
0.000000
  70
    32
  0
VERTEX
  8
01
  5
13F6E
 10
15429.8
 20
-899.797
 30
0.000000
  70
    32
  0
VERTEX
  8
01
  5
13F6F
 10
15430.0
 20
-899.592
 30
0.000000
  70
    32
  0
VERTEX
  8
01
  5
13F70
 10
15430.1
 20
-899.379
 30
0.000000
  70
    32
  0
VERTEX
  8
01
  5
13F71
 10
15430.2
 20
-899.159
 30
0.000000
  70
    32
  0
VERTEX
  8
01
  5
13F72
 10
15430.3
 20
-898.931
 30
0.000000
  70
    32
  0
VERTEX
  8
01
  5
13F73
 10
15430.4
 20
-898.696
 30
0.000000
  70
    32
  0
VERTEX
  8
01
  5
13F74
 10
15430.5
 20
-898.455
 30
0.000000
  70
    32
  0
VERTEX
  8
01
  5
13F75
 10
15430.6
 20
-898.208
 30
0.000000
  70
    32
  0
VERTEX
  8
01
  5
13F76
 10
15430.6
 20
-897.956
 30
0.000000
  70
    32
  0
VERTEX
  8
01
  5
13F77
 10
15430.7
 20
-897.700
 30
0.000000
  70
    32
  0
VERTEX
  8
01
  5
13F78
 10
15430.8
 20
-897.439
 30
0.000000
  70
    32
  0
VERTEX
  8
01
  5
13F79
 10
15430.8
 20
-897.176
 30
0.000000
  70
    32
  0
VERTEX
  8
01
  5
13F7A
 10
15430.8
 20
-896.910
 30
0.000000
  70
    32
  0
VERTEX
  8
01
  5
13F7B
 10
15430.9
 20
-896.642
 30
0.000000
  70
    32
  0
VERTEX
  8
01
  5
13F7C
 10
15430.9
 20
-896.373
 30
0.000000
  70
    32
  0
VERTEX
  8
01
  5
13F7D
 10
15430.9
 20
-896.103
 30
0.000000
  70
    32
  0
VERTEX
  8
01
  5
13F7E
 10
15430.9
 20
-895.833
 30
0.000000
  70
    32
  0
VERTEX
  8
01
  5
13F7F
 10
15430.9
 20
-895.564
 30
0.000000
  70
    32
  0
VERTEX
  8
01
  5
13F80
 10
15430.8
 20
-895.296
 30
0.000000
  70
    32
  0
VERTEX
  8
01
  5
13F81
 10
15430.8
 20
-895.030
 30
0.000000
  70
    32
  0
VERTEX
  8
01
  5
13F82
 10
15430.8
 20
-894.767
 30
0.000000
  70
    32
  0
VERTEX
  8
01
  5
13F83
 10
15430.7
 20
-894.507
 30
0.000000
  70
    32
  0
VERTEX
  8
01
  5
13F84
 10
15430.6
 20
-894.250
 30
0.000000
  70
    32
  0
VERTEX
  8
01
  5
13F85
 10
15430.6
 20
-893.998
 30
0.000000
  70
    32
  0
VERTEX
  8
01
  5
13F86
 10
15430.5
 20
-893.752
 30
0.000000
  70
    32
  0
VERTEX
  8
01
  5
13F87
 10
15430.4
 20
-893.510
 30
0.000000
  70
    32
  0
VERTEX
  8
01
  5
13F88
 10
15430.3
 20
-893.276
 30
0.000000
  70
    32
  0
VERTEX
  8
01
  5
13F89
 10
15430.2
 20
-893.047
 30
0.000000
  70
    32
  0
VERTEX
  8
01
  5
13F8A
 10
15430.1
 20
-892.827
 30
0.000000
  70
    32
  0
VERTEX
  8
01
  5
13F8B
 10
15430.0
 20
-892.614
 30
0.000000
  70
    32
  0
VERTEX
  8
01
  5
13F8C
 10
15429.8
 20
-892.410
 30
0.000000
  70
    32
  0
VERTEX
  8
01
  5
13F8D
 10
15429.7
 20
-892.214
 30
0.000000
  70
    32
  0
VERTEX
  8
01
  5
13F8E
 10
15429.6
 20
-892.028
 30
0.000000
  70
    32
  0
VERTEX
  8
01
  5
13F8F
 10
15429.4
 20
-891.852
 30
0.000000
  70
    32
  0
VERTEX
  8
01
  5
13F90
 10
15429.3
 20
-891.685
 30
0.000000
  70
    32
  0
VERTEX
  8
01
  5
13F91
 10
15429.1
 20
-891.530
 30
0.000000
  70
    32
  0
VERTEX
  8
01
  5
13F92
 10
15428.9
 20
-891.386
 30
0.000000
  70
    32
  0
VERTEX
  8
01
  5
13F93
 10
15428.8
 20
-891.253
 30
0.000000
  70
    32
  0
VERTEX
  8
01
  5
13F94
 10
15428.6
 20
-891.131
 30
0.000000
  70
    32
  0
VERTEX
  8
01
  5
13F95
 10
15428.4
 20
-891.022
 30
0.000000
  70
    32
  0
VERTEX
  8
01
  5
13F96
 10
15428.2
 20
-890.925
 30
0.000000
  70
    32
  0
VERTEX
  8
01
  5
13F97
 10
15428.1
 20
-890.840
 30
0.000000
  70
    32
  0
VERTEX
  8
01
  5
13F98
 10
15427.9
 20
-890.768
 30
0.000000
  70
    32
  0
VERTEX
  8
01
  5
13F99
 10
15427.7
 20
-890.709
 30
0.000000
  70
    32
  0
VERTEX
  8
01
  5
13F9A
 10
15427.5
 20
-890.663
 30
0.000000
  70
    32
  0
VERTEX
  8
01
  5
13F9B
 10
15427.3
 20
-890.630
 30
0.000000
  70
    32
  0
VERTEX
  8
01
  5
13F9C
 10
15427.1
 20
-890.610
 30
0.000000
  70
    32
  0
VERTEX
  8
01
  5
13F9D
 10
15426.9
 20
-890.603
 30
0.000000
  70
    32
  0
SEQEND
  8
01
  5
13F9E
  0
POLYLINE
  5
13919
  8
01
 10
15396.58601222057
 20
-890.60308836321167
 30
0.0
 66
     1
 70
     8
  0
VERTEX
  8
01
  5
13F9F
 10
15396.6
 20
-890.603
 30
0.000000
  70
    32
  0
VERTEX
  8
01
  5
13FA0
 10
15396.8
 20
-890.610
 30
0.000000
  70
    32
  0
VERTEX
  8
01
  5
13FA1
 10
15397.0
 20
-890.630
 30
0.000000
  70
    32
  0
VERTEX
  8
01
  5
13FA2
 10
15397.2
 20
-890.663
 30
0.000000
  70
    32
  0
VERTEX
  8
01
  5
13FA3
 10
15397.4
 20
-890.709
 30
0.000000
  70
    32
  0
VERTEX
  8
01
  5
13FA4
 10
15397.5
 20
-890.768
 30
0.000000
  70
    32
  0
VERTEX
  8
01
  5
13FA5
 10
15397.7
 20
-890.840
 30
0.000000
  70
    32
  0
VERTEX
  8
01
  5
13FA6
 10
15397.9
 20
-890.925
 30
0.000000
  70
    32
  0
VERTEX
  8
01
  5
13FA7
 10
15398.1
 20
-891.022
 30
0.000000
  70
    32
  0
VERTEX
  8
01
  5
13FA8
 10
15398.3
 20
-891.131
 30
0.000000
  70
    32
  0
VERTEX
  8
01
  5
13FA9
 10
15398.5
 20
-891.253
 30
0.000000
  70
    32
  0
VERTEX
  8
01
  5
13FAA
 10
15398.6
 20
-891.386
 30
0.000000
  70
    32
  0
VERTEX
  8
01
  5
13FAB
 10
15398.8
 20
-891.530
 30
0.000000
  70
    32
  0
VERTEX
  8
01
  5
13FAC
 10
15398.9
 20
-891.685
 30
0.000000
  70
    32
  0
VERTEX
  8
01
  5
13FAD
 10
15399.1
 20
-891.852
 30
0.000000
  70
    32
  0
VERTEX
  8
01
  5
13FAE
 10
15399.2
 20
-892.028
 30
0.000000
  70
    32
  0
VERTEX
  8
01
  5
13FAF
 10
15399.4
 20
-892.214
 30
0.000000
  70
    32
  0
VERTEX
  8
01
  5
13FB0
 10
15399.5
 20
-892.410
 30
0.000000
  70
    32
  0
VERTEX
  8
01
  5
13FB1
 10
15399.6
 20
-892.614
 30
0.000000
  70
    32
  0
VERTEX
  8
01
  5
13FB2
 10
15399.8
 20
-892.827
 30
0.000000
  70
    32
  0
VERTEX
  8
01
  5
13FB3
 10
15399.9
 20
-893.047
 30
0.000000
  70
    32
  0
VERTEX
  8
01
  5
13FB4
 10
15400.0
 20
-893.276
 30
0.000000
  70
    32
  0
VERTEX
  8
01
  5
13FB5
 10
15400.1
 20
-893.510
 30
0.000000
  70
    32
  0
VERTEX
  8
01
  5
13FB6
 10
15400.2
 20
-893.752
 30
0.000000
  70
    32
  0
VERTEX
  8
01
  5
13FB7
 10
15400.2
 20
-893.998
 30
0.000000
  70
    32
  0
VERTEX
  8
01
  5
13FB8
 10
15400.3
 20
-894.250
 30
0.000000
  70
    32
  0
VERTEX
  8
01
  5
13FB9
 10
15400.4
 20
-894.507
 30
0.000000
  70
    32
  0
VERTEX
  8
01
  5
13FBA
 10
15400.4
 20
-894.767
 30
0.000000
  70
    32
  0
VERTEX
  8
01
  5
13FBB
 10
15400.5
 20
-895.030
 30
0.000000
  70
    32
  0
VERTEX
  8
01
  5
13FBC
 10
15400.5
 20
-895.296
 30
0.000000
  70
    32
  0
VERTEX
  8
01
  5
13FBD
 10
15400.5
 20
-895.564
 30
0.000000
  70
    32
  0
VERTEX
  8
01
  5
13FBE
 10
15400.5
 20
-895.833
 30
0.000000
  70
    32
  0
VERTEX
  8
01
  5
13FBF
 10
15400.5
 20
-896.103
 30
0.000000
  70
    32
  0
VERTEX
  8
01
  5
13FC0
 10
15400.5
 20
-896.373
 30
0.000000
  70
    32
  0
VERTEX
  8
01
  5
13FC1
 10
15400.5
 20
-896.642
 30
0.000000
  70
    32
  0
VERTEX
  8
01
  5
13FC2
 10
15400.5
 20
-896.910
 30
0.000000
  70
    32
  0
VERTEX
  8
01
  5
13FC3
 10
15400.5
 20
-897.176
 30
0.000000
  70
    32
  0
VERTEX
  8
01
  5
13FC4
 10
15400.4
 20
-897.439
 30
0.000000
  70
    32
  0
VERTEX
  8
01
  5
13FC5
 10
15400.4
 20
-897.700
 30
0.000000
  70
    32
  0
VERTEX
  8
01
  5
13FC6
 10
15400.3
 20
-897.956
 30
0.000000
  70
    32
  0
VERTEX
  8
01
  5
13FC7
 10
15400.2
 20
-898.208
 30
0.000000
  70
    32
  0
VERTEX
  8
01
  5
13FC8
 10
15400.2
 20
-898.455
 30
0.000000
  70
    32
  0
VERTEX
  8
01
  5
13FC9
 10
15400.1
 20
-898.696
 30
0.000000
  70
    32
  0
VERTEX
  8
01
  5
13FCA
 10
15400.0
 20
-898.931
 30
0.000000
  70
    32
  0
VERTEX
  8
01
  5
13FCB
 10
15399.9
 20
-899.159
 30
0.000000
  70
    32
  0
VERTEX
  8
01
  5
13FCC
 10
15399.8
 20
-899.379
 30
0.000000
  70
    32
  0
VERTEX
  8
01
  5
13FCD
 10
15399.6
 20
-899.592
 30
0.000000
  70
    32
  0
VERTEX
  8
01
  5
13FCE
 10
15399.5
 20
-899.797
 30
0.000000
  70
    32
  0
VERTEX
  8
01
  5
13FCF
 10
15399.4
 20
-899.992
 30
0.000000
  70
    32
  0
VERTEX
  8
01
  5
13FD0
 10
15399.2
 20
-900.178
 30
0.000000
  70
    32
  0
VERTEX
  8
01
  5
13FD1
 10
15399.1
 20
-900.355
 30
0.000000
  70
    32
  0
VERTEX
  8
01
  5
13FD2
 10
15398.9
 20
-900.521
 30
0.000000
  70
    32
  0
VERTEX
  8
01
  5
13FD3
 10
15398.8
 20
-900.676
 30
0.000000
  70
    32
  0
VERTEX
  8
01
  5
13FD4
 10
15398.6
 20
-900.821
 30
0.000000
  70
    32
  0
VERTEX
  8
01
  5
13FD5
 10
15398.5
 20
-900.954
 30
0.000000
  70
    32
  0
VERTEX
  8
01
  5
13FD6
 10
15398.3
 20
-901.075
 30
0.000000
  70
    32
  0
VERTEX
  8
01
  5
13FD7
 10
15398.1
 20
-901.184
 30
0.000000
  70
    32
  0
VERTEX
  8
01
  5
13FD8
 10
15397.9
 20
-901.282
 30
0.000000
  70
    32
  0
VERTEX
  8
01
  5
13FD9
 10
15397.7
 20
-901.366
 30
0.000000
  70
    32
  0
VERTEX
  8
01
  5
13FDA
 10
15397.5
 20
-901.438
 30
0.000000
  70
    32
  0
VERTEX
  8
01
  5
13FDB
 10
15397.4
 20
-901.497
 30
0.000000
  70
    32
  0
VERTEX
  8
01
  5
13FDC
 10
15397.2
 20
-901.544
 30
0.000000
  70
    32
  0
VERTEX
  8
01
  5
13FDD
 10
15397.0
 20
-901.577
 30
0.000000
  70
    32
  0
VERTEX
  8
01
  5
13FDE
 10
15396.8
 20
-901.596
 30
0.000000
  70
    32
  0
VERTEX
  8
01
  5
13FDF
 10
15396.6
 20
-901.603
 30
0.000000
  70
    32
  0
VERTEX
  8
01
  5
13FE0
 10
15396.4
 20
-901.596
 30
0.000000
  70
    32
  0
VERTEX
  8
01
  5
13FE1
 10
15396.2
 20
-901.577
 30
0.000000
  70
    32
  0
VERTEX
  8
01
  5
13FE2
 10
15396.0
 20
-901.544
 30
0.000000
  70
    32
  0
VERTEX
  8
01
  5
13FE3
 10
15395.8
 20
-901.497
 30
0.000000
  70
    32
  0
VERTEX
  8
01
  5
13FE4
 10
15395.6
 20
-901.438
 30
0.000000
  70
    32
  0
VERTEX
  8
01
  5
13FE5
 10
15395.4
 20
-901.366
 30
0.000000
  70
    32
  0
VERTEX
  8
01
  5
13FE6
 10
15395.3
 20
-901.282
 30
0.000000
  70
    32
  0
VERTEX
  8
01
  5
13FE7
 10
15395.1
 20
-901.184
 30
0.000000
  70
    32
  0
VERTEX
  8
01
  5
13FE8
 10
15394.9
 20
-901.075
 30
0.000000
  70
    32
  0
VERTEX
  8
01
  5
13FE9
 10
15394.7
 20
-900.954
 30
0.000000
  70
    32
  0
VERTEX
  8
01
  5
13FEA
 10
15394.5
 20
-900.821
 30
0.000000
  70
    32
  0
VERTEX
  8
01
  5
13FEB
 10
15394.4
 20
-900.676
 30
0.000000
  70
    32
  0
VERTEX
  8
01
  5
13FEC
 10
15394.2
 20
-900.521
 30
0.000000
  70
    32
  0
VERTEX
  8
01
  5
13FED
 10
15394.1
 20
-900.355
 30
0.000000
  70
    32
  0
VERTEX
  8
01
  5
13FEE
 10
15393.9
 20
-900.178
 30
0.000000
  70
    32
  0
VERTEX
  8
01
  5
13FEF
 10
15393.8
 20
-899.992
 30
0.000000
  70
    32
  0
VERTEX
  8
01
  5
13FF0
 10
15393.6
 20
-899.797
 30
0.000000
  70
    32
  0
VERTEX
  8
01
  5
13FF1
 10
15393.5
 20
-899.592
 30
0.000000
  70
    32
  0
VERTEX
  8
01
  5
13FF2
 10
15393.4
 20
-899.379
 30
0.000000
  70
    32
  0
VERTEX
  8
01
  5
13FF3
 10
15393.3
 20
-899.159
 30
0.000000
  70
    32
  0
VERTEX
  8
01
  5
13FF4
 10
15393.2
 20
-898.931
 30
0.000000
  70
    32
  0
VERTEX
  8
01
  5
13FF5
 10
15393.1
 20
-898.696
 30
0.000000
  70
    32
  0
VERTEX
  8
01
  5
13FF6
 10
15393.0
 20
-898.455
 30
0.000000
  70
    32
  0
VERTEX
  8
01
  5
13FF7
 10
15392.9
 20
-898.208
 30
0.000000
  70
    32
  0
VERTEX
  8
01
  5
13FF8
 10
15392.9
 20
-897.956
 30
0.000000
  70
    32
  0
VERTEX
  8
01
  5
13FF9
 10
15392.8
 20
-897.700
 30
0.000000
  70
    32
  0
VERTEX
  8
01
  5
13FFA
 10
15392.7
 20
-897.439
 30
0.000000
  70
    32
  0
VERTEX
  8
01
  5
13FFB
 10
15392.7
 20
-897.176
 30
0.000000
  70
    32
  0
VERTEX
  8
01
  5
13FFC
 10
15392.7
 20
-896.910
 30
0.000000
  70
    32
  0
VERTEX
  8
01
  5
13FFD
 10
15392.6
 20
-896.642
 30
0.000000
  70
    32
  0
VERTEX
  8
01
  5
13FFE
 10
15392.6
 20
-896.373
 30
0.000000
  70
    32
  0
VERTEX
  8
01
  5
13FFF
 10
15392.6
 20
-896.103
 30
0.000000
  70
    32
  0
VERTEX
  8
01
  5
14000
 10
15392.6
 20
-895.833
 30
0.000000
  70
    32
  0
VERTEX
  8
01
  5
14001
 10
15392.6
 20
-895.564
 30
0.000000
  70
    32
  0
VERTEX
  8
01
  5
14002
 10
15392.7
 20
-895.296
 30
0.000000
  70
    32
  0
VERTEX
  8
01
  5
14003
 10
15392.7
 20
-895.030
 30
0.000000
  70
    32
  0
VERTEX
  8
01
  5
14004
 10
15392.7
 20
-894.767
 30
0.000000
  70
    32
  0
VERTEX
  8
01
  5
14005
 10
15392.8
 20
-894.507
 30
0.000000
  70
    32
  0
VERTEX
  8
01
  5
14006
 10
15392.9
 20
-894.250
 30
0.000000
  70
    32
  0
VERTEX
  8
01
  5
14007
 10
15392.9
 20
-893.998
 30
0.000000
  70
    32
  0
VERTEX
  8
01
  5
14008
 10
15393.0
 20
-893.752
 30
0.000000
  70
    32
  0
VERTEX
  8
01
  5
14009
 10
15393.1
 20
-893.510
 30
0.000000
  70
    32
  0
VERTEX
  8
01
  5
1400A
 10
15393.2
 20
-893.276
 30
0.000000
  70
    32
  0
VERTEX
  8
01
  5
1400B
 10
15393.3
 20
-893.047
 30
0.000000
  70
    32
  0
VERTEX
  8
01
  5
1400C
 10
15393.4
 20
-892.827
 30
0.000000
  70
    32
  0
VERTEX
  8
01
  5
1400D
 10
15393.5
 20
-892.614
 30
0.000000
  70
    32
  0
VERTEX
  8
01
  5
1400E
 10
15393.6
 20
-892.410
 30
0.000000
  70
    32
  0
VERTEX
  8
01
  5
1400F
 10
15393.8
 20
-892.214
 30
0.000000
  70
    32
  0
VERTEX
  8
01
  5
14010
 10
15393.9
 20
-892.028
 30
0.000000
  70
    32
  0
VERTEX
  8
01
  5
14011
 10
15394.1
 20
-891.852
 30
0.000000
  70
    32
  0
VERTEX
  8
01
  5
14012
 10
15394.2
 20
-891.685
 30
0.000000
  70
    32
  0
VERTEX
  8
01
  5
14013
 10
15394.4
 20
-891.530
 30
0.000000
  70
    32
  0
VERTEX
  8
01
  5
14014
 10
15394.5
 20
-891.386
 30
0.000000
  70
    32
  0
VERTEX
  8
01
  5
14015
 10
15394.7
 20
-891.253
 30
0.000000
  70
    32
  0
VERTEX
  8
01
  5
14016
 10
15394.9
 20
-891.131
 30
0.000000
  70
    32
  0
VERTEX
  8
01
  5
14017
 10
15395.1
 20
-891.022
 30
0.000000
  70
    32
  0
VERTEX
  8
01
  5
14018
 10
15395.3
 20
-890.925
 30
0.000000
  70
    32
  0
VERTEX
  8
01
  5
14019
 10
15395.4
 20
-890.840
 30
0.000000
  70
    32
  0
VERTEX
  8
01
  5
1401A
 10
15395.6
 20
-890.768
 30
0.000000
  70
    32
  0
VERTEX
  8
01
  5
1401B
 10
15395.8
 20
-890.709
 30
0.000000
  70
    32
  0
VERTEX
  8
01
  5
1401C
 10
15396.0
 20
-890.663
 30
0.000000
  70
    32
  0
VERTEX
  8
01
  5
1401D
 10
15396.2
 20
-890.630
 30
0.000000
  70
    32
  0
VERTEX
  8
01
  5
1401E
 10
15396.4
 20
-890.610
 30
0.000000
  70
    32
  0
VERTEX
  8
01
  5
1401F
 10
15396.6
 20
-890.603
 30
0.000000
  70
    32
  0
SEQEND
  8
01
  5
14020
  0
POLYLINE
  5
1391A
  8
01
 10
15403.73601222057
 20
-973.90308836321185
 30
0.0
 66
     1
 70
     8
  0
VERTEX
  8
01
  5
14021
 10
15403.7
 20
-973.903
 30
0.000000
  70
    32
  0
VERTEX
  8
01
  5
14022
 10
15403.7
 20
-974.173
 30
0.000000
  70
    32
  0
VERTEX
  8
01
  5
14023
 10
15403.8
 20
-974.442
 30
0.000000
  70
    32
  0
VERTEX
  8
01
  5
14024
 10
15403.8
 20
-974.710
 30
0.000000
  70
    32
  0
VERTEX
  8
01
  5
14025
 10
15403.9
 20
-974.976
 30
0.000000
  70
    32
  0
VERTEX
  8
01
  5
14026
 10
15404.0
 20
-975.239
 30
0.000000
  70
    32
  0
VERTEX
  8
01
  5
14027
 10
15404.1
 20
-975.500
 30
0.000000
  70
    32
  0
VERTEX
  8
01
  5
14028
 10
15404.2
 20
-975.756
 30
0.000000
  70
    32
  0
VERTEX
  8
01
  5
14029
 10
15404.3
 20
-976.008
 30
0.000000
  70
    32
  0
VERTEX
  8
01
  5
1402A
 10
15404.5
 20
-976.255
 30
0.000000
  70
    32
  0
VERTEX
  8
01
  5
1402B
 10
15404.7
 20
-976.496
 30
0.000000
  70
    32
  0
VERTEX
  8
01
  5
1402C
 10
15404.9
 20
-976.731
 30
0.000000
  70
    32
  0
VERTEX
  8
01
  5
1402D
 10
15405.1
 20
-976.959
 30
0.000000
  70
    32
  0
VERTEX
  8
01
  5
1402E
 10
15405.3
 20
-977.179
 30
0.000000
  70
    32
  0
VERTEX
  8
01
  5
1402F
 10
15405.6
 20
-977.392
 30
0.000000
  70
    32
  0
VERTEX
  8
01
  5
14030
 10
15405.8
 20
-977.597
 30
0.000000
  70
    32
  0
VERTEX
  8
01
  5
14031
 10
15406.1
 20
-977.792
 30
0.000000
  70
    32
  0
VERTEX
  8
01
  5
14032
 10
15406.4
 20
-977.978
 30
0.000000
  70
    32
  0
VERTEX
  8
01
  5
14033
 10
15406.7
 20
-978.155
 30
0.000000
  70
    32
  0
VERTEX
  8
01
  5
14034
 10
15407.0
 20
-978.321
 30
0.000000
  70
    32
  0
VERTEX
  8
01
  5
14035
 10
15407.3
 20
-978.476
 30
0.000000
  70
    32
  0
VERTEX
  8
01
  5
14036
 10
15407.6
 20
-978.621
 30
0.000000
  70
    32
  0
VERTEX
  8
01
  5
14037
 10
15408.0
 20
-978.754
 30
0.000000
  70
    32
  0
VERTEX
  8
01
  5
14038
 10
15408.3
 20
-978.875
 30
0.000000
  70
    32
  0
VERTEX
  8
01
  5
14039
 10
15408.7
 20
-978.984
 30
0.000000
  70
    32
  0
VERTEX
  8
01
  5
1403A
 10
15409.0
 20
-979.082
 30
0.000000
  70
    32
  0
VERTEX
  8
01
  5
1403B
 10
15409.4
 20
-979.166
 30
0.000000
  70
    32
  0
VERTEX
  8
01
  5
1403C
 10
15409.8
 20
-979.238
 30
0.000000
  70
    32
  0
VERTEX
  8
01
  5
1403D
 10
15410.2
 20
-979.297
 30
0.000000
  70
    32
  0
VERTEX
  8
01
  5
1403E
 10
15410.6
 20
-979.344
 30
0.000000
  70
    32
  0
VERTEX
  8
01
  5
1403F
 10
15411.0
 20
-979.377
 30
0.000000
  70
    32
  0
VERTEX
  8
01
  5
14040
 10
15411.4
 20
-979.396
 30
0.000000
  70
    32
  0
VERTEX
  8
01
  5
14041
 10
15411.7
 20
-979.403
 30
0.000000
  70
    32
  0
VERTEX
  8
01
  5
14042
 10
15412.1
 20
-979.396
 30
0.000000
  70
    32
  0
VERTEX
  8
01
  5
14043
 10
15412.5
 20
-979.377
 30
0.000000
  70
    32
  0
VERTEX
  8
01
  5
14044
 10
15412.9
 20
-979.344
 30
0.000000
  70
    32
  0
VERTEX
  8
01
  5
14045
 10
15413.3
 20
-979.297
 30
0.000000
  70
    32
  0
VERTEX
  8
01
  5
14046
 10
15413.7
 20
-979.238
 30
0.000000
  70
    32
  0
VERTEX
  8
01
  5
14047
 10
15414.1
 20
-979.166
 30
0.000000
  70
    32
  0
VERTEX
  8
01
  5
14048
 10
15414.4
 20
-979.082
 30
0.000000
  70
    32
  0
VERTEX
  8
01
  5
14049
 10
15414.8
 20
-978.984
 30
0.000000
  70
    32
  0
VERTEX
  8
01
  5
1404A
 10
15415.2
 20
-978.875
 30
0.000000
  70
    32
  0
VERTEX
  8
01
  5
1404B
 10
15415.5
 20
-978.754
 30
0.000000
  70
    32
  0
VERTEX
  8
01
  5
1404C
 10
15415.9
 20
-978.621
 30
0.000000
  70
    32
  0
VERTEX
  8
01
  5
1404D
 10
15416.2
 20
-978.476
 30
0.000000
  70
    32
  0
VERTEX
  8
01
  5
1404E
 10
15416.5
 20
-978.321
 30
0.000000
  70
    32
  0
VERTEX
  8
01
  5
1404F
 10
15416.8
 20
-978.155
 30
0.000000
  70
    32
  0
VERTEX
  8
01
  5
14050
 10
15417.1
 20
-977.978
 30
0.000000
  70
    32
  0
VERTEX
  8
01
  5
14051
 10
15417.4
 20
-977.792
 30
0.000000
  70
    32
  0
VERTEX
  8
01
  5
14052
 10
15417.7
 20
-977.597
 30
0.000000
  70
    32
  0
VERTEX
  8
01
  5
14053
 10
15417.9
 20
-977.392
 30
0.000000
  70
    32
  0
VERTEX
  8
01
  5
14054
 10
15418.2
 20
-977.179
 30
0.000000
  70
    32
  0
VERTEX
  8
01
  5
14055
 10
15418.4
 20
-976.959
 30
0.000000
  70
    32
  0
VERTEX
  8
01
  5
14056
 10
15418.6
 20
-976.731
 30
0.000000
  70
    32
  0
VERTEX
  8
01
  5
14057
 10
15418.8
 20
-976.496
 30
0.000000
  70
    32
  0
VERTEX
  8
01
  5
14058
 10
15419.0
 20
-976.255
 30
0.000000
  70
    32
  0
VERTEX
  8
01
  5
14059
 10
15419.2
 20
-976.008
 30
0.000000
  70
    32
  0
VERTEX
  8
01
  5
1405A
 10
15419.3
 20
-975.756
 30
0.000000
  70
    32
  0
VERTEX
  8
01
  5
1405B
 10
15419.4
 20
-975.500
 30
0.000000
  70
    32
  0
VERTEX
  8
01
  5
1405C
 10
15419.5
 20
-975.239
 30
0.000000
  70
    32
  0
VERTEX
  8
01
  5
1405D
 10
15419.6
 20
-974.976
 30
0.000000
  70
    32
  0
VERTEX
  8
01
  5
1405E
 10
15419.7
 20
-974.710
 30
0.000000
  70
    32
  0
VERTEX
  8
01
  5
1405F
 10
15419.7
 20
-974.442
 30
0.000000
  70
    32
  0
VERTEX
  8
01
  5
14060
 10
15419.8
 20
-974.173
 30
0.000000
  70
    32
  0
VERTEX
  8
01
  5
14061
 10
15419.8
 20
-973.903
 30
0.000000
  70
    32
  0
VERTEX
  8
01
  5
14062
 10
15419.8
 20
-973.633
 30
0.000000
  70
    32
  0
VERTEX
  8
01
  5
14063
 10
15419.7
 20
-973.364
 30
0.000000
  70
    32
  0
VERTEX
  8
01
  5
14064
 10
15419.7
 20
-973.096
 30
0.000000
  70
    32
  0
VERTEX
  8
01
  5
14065
 10
15419.6
 20
-972.830
 30
0.000000
  70
    32
  0
VERTEX
  8
01
  5
14066
 10
15419.5
 20
-972.567
 30
0.000000
  70
    32
  0
VERTEX
  8
01
  5
14067
 10
15419.4
 20
-972.307
 30
0.000000
  70
    32
  0
VERTEX
  8
01
  5
14068
 10
15419.3
 20
-972.050
 30
0.000000
  70
    32
  0
VERTEX
  8
01
  5
14069
 10
15419.2
 20
-971.798
 30
0.000000
  70
    32
  0
VERTEX
  8
01
  5
1406A
 10
15419.0
 20
-971.552
 30
0.000000
  70
    32
  0
VERTEX
  8
01
  5
1406B
 10
15418.8
 20
-971.310
 30
0.000000
  70
    32
  0
VERTEX
  8
01
  5
1406C
 10
15418.6
 20
-971.076
 30
0.000000
  70
    32
  0
VERTEX
  8
01
  5
1406D
 10
15418.4
 20
-970.847
 30
0.000000
  70
    32
  0
VERTEX
  8
01
  5
1406E
 10
15418.2
 20
-970.627
 30
0.000000
  70
    32
  0
VERTEX
  8
01
  5
1406F
 10
15417.9
 20
-970.414
 30
0.000000
  70
    32
  0
VERTEX
  8
01
  5
14070
 10
15417.7
 20
-970.210
 30
0.000000
  70
    32
  0
VERTEX
  8
01
  5
14071
 10
15417.4
 20
-970.014
 30
0.000000
  70
    32
  0
VERTEX
  8
01
  5
14072
 10
15417.1
 20
-969.828
 30
0.000000
  70
    32
  0
VERTEX
  8
01
  5
14073
 10
15416.8
 20
-969.652
 30
0.000000
  70
    32
  0
VERTEX
  8
01
  5
14074
 10
15416.5
 20
-969.485
 30
0.000000
  70
    32
  0
VERTEX
  8
01
  5
14075
 10
15416.2
 20
-969.330
 30
0.000000
  70
    32
  0
VERTEX
  8
01
  5
14076
 10
15415.9
 20
-969.186
 30
0.000000
  70
    32
  0
VERTEX
  8
01
  5
14077
 10
15415.5
 20
-969.053
 30
0.000000
  70
    32
  0
VERTEX
  8
01
  5
14078
 10
15415.2
 20
-968.931
 30
0.000000
  70
    32
  0
VERTEX
  8
01
  5
14079
 10
15414.8
 20
-968.822
 30
0.000000
  70
    32
  0
VERTEX
  8
01
  5
1407A
 10
15414.4
 20
-968.725
 30
0.000000
  70
    32
  0
VERTEX
  8
01
  5
1407B
 10
15414.1
 20
-968.640
 30
0.000000
  70
    32
  0
VERTEX
  8
01
  5
1407C
 10
15413.7
 20
-968.568
 30
0.000000
  70
    32
  0
VERTEX
  8
01
  5
1407D
 10
15413.3
 20
-968.509
 30
0.000000
  70
    32
  0
VERTEX
  8
01
  5
1407E
 10
15412.9
 20
-968.463
 30
0.000000
  70
    32
  0
VERTEX
  8
01
  5
1407F
 10
15412.5
 20
-968.430
 30
0.000000
  70
    32
  0
VERTEX
  8
01
  5
14080
 10
15412.1
 20
-968.410
 30
0.000000
  70
    32
  0
VERTEX
  8
01
  5
14081
 10
15411.7
 20
-968.403
 30
0.000000
  70
    32
  0
VERTEX
  8
01
  5
14082
 10
15411.4
 20
-968.410
 30
0.000000
  70
    32
  0
VERTEX
  8
01
  5
14083
 10
15411.0
 20
-968.430
 30
0.000000
  70
    32
  0
VERTEX
  8
01
  5
14084
 10
15410.6
 20
-968.463
 30
0.000000
  70
    32
  0
VERTEX
  8
01
  5
14085
 10
15410.2
 20
-968.509
 30
0.000000
  70
    32
  0
VERTEX
  8
01
  5
14086
 10
15409.8
 20
-968.568
 30
0.000000
  70
    32
  0
VERTEX
  8
01
  5
14087
 10
15409.4
 20
-968.640
 30
0.000000
  70
    32
  0
VERTEX
  8
01
  5
14088
 10
15409.0
 20
-968.725
 30
0.000000
  70
    32
  0
VERTEX
  8
01
  5
14089
 10
15408.7
 20
-968.822
 30
0.000000
  70
    32
  0
VERTEX
  8
01
  5
1408A
 10
15408.3
 20
-968.931
 30
0.000000
  70
    32
  0
VERTEX
  8
01
  5
1408B
 10
15408.0
 20
-969.053
 30
0.000000
  70
    32
  0
VERTEX
  8
01
  5
1408C
 10
15407.6
 20
-969.186
 30
0.000000
  70
    32
  0
VERTEX
  8
01
  5
1408D
 10
15407.3
 20
-969.330
 30
0.000000
  70
    32
  0
VERTEX
  8
01
  5
1408E
 10
15407.0
 20
-969.485
 30
0.000000
  70
    32
  0
VERTEX
  8
01
  5
1408F
 10
15406.7
 20
-969.652
 30
0.000000
  70
    32
  0
VERTEX
  8
01
  5
14090
 10
15406.4
 20
-969.828
 30
0.000000
  70
    32
  0
VERTEX
  8
01
  5
14091
 10
15406.1
 20
-970.014
 30
0.000000
  70
    32
  0
VERTEX
  8
01
  5
14092
 10
15405.8
 20
-970.210
 30
0.000000
  70
    32
  0
VERTEX
  8
01
  5
14093
 10
15405.6
 20
-970.414
 30
0.000000
  70
    32
  0
VERTEX
  8
01
  5
14094
 10
15405.3
 20
-970.627
 30
0.000000
  70
    32
  0
VERTEX
  8
01
  5
14095
 10
15405.1
 20
-970.847
 30
0.000000
  70
    32
  0
VERTEX
  8
01
  5
14096
 10
15404.9
 20
-971.076
 30
0.000000
  70
    32
  0
VERTEX
  8
01
  5
14097
 10
15404.7
 20
-971.310
 30
0.000000
  70
    32
  0
VERTEX
  8
01
  5
14098
 10
15404.5
 20
-971.552
 30
0.000000
  70
    32
  0
VERTEX
  8
01
  5
14099
 10
15404.3
 20
-971.798
 30
0.000000
  70
    32
  0
VERTEX
  8
01
  5
1409A
 10
15404.2
 20
-972.050
 30
0.000000
  70
    32
  0
VERTEX
  8
01
  5
1409B
 10
15404.1
 20
-972.307
 30
0.000000
  70
    32
  0
VERTEX
  8
01
  5
1409C
 10
15404.0
 20
-972.567
 30
0.000000
  70
    32
  0
VERTEX
  8
01
  5
1409D
 10
15403.9
 20
-972.830
 30
0.000000
  70
    32
  0
VERTEX
  8
01
  5
1409E
 10
15403.8
 20
-973.096
 30
0.000000
  70
    32
  0
VERTEX
  8
01
  5
1409F
 10
15403.8
 20
-973.364
 30
0.000000
  70
    32
  0
VERTEX
  8
01
  5
140A0
 10
15403.7
 20
-973.633
 30
0.000000
  70
    32
  0
VERTEX
  8
01
  5
140A1
 10
15403.7
 20
-973.903
 30
0.000000
  70
    32
  0
SEQEND
  8
01
  5
140A2
  0
POLYLINE
  5
1391B
  8
01
 10
15426.91201222057
 20
-968.40308836321185
 30
0.0
 66
     1
 70
     8
  0
VERTEX
  8
01
  5
140A3
 10
15426.9
 20
-968.403
 30
0.000000
  70
    32
  0
VERTEX
  8
01
  5
140A4
 10
15426.7
 20
-968.410
 30
0.000000
  70
    32
  0
VERTEX
  8
01
  5
140A5
 10
15426.5
 20
-968.430
 30
0.000000
  70
    32
  0
VERTEX
  8
01
  5
140A6
 10
15426.3
 20
-968.463
 30
0.000000
  70
    32
  0
VERTEX
  8
01
  5
140A7
 10
15426.1
 20
-968.509
 30
0.000000
  70
    32
  0
VERTEX
  8
01
  5
140A8
 10
15425.9
 20
-968.568
 30
0.000000
  70
    32
  0
VERTEX
  8
01
  5
140A9
 10
15425.8
 20
-968.640
 30
0.000000
  70
    32
  0
VERTEX
  8
01
  5
140AA
 10
15425.6
 20
-968.725
 30
0.000000
  70
    32
  0
VERTEX
  8
01
  5
140AB
 10
15425.4
 20
-968.822
 30
0.000000
  70
    32
  0
VERTEX
  8
01
  5
140AC
 10
15425.2
 20
-968.931
 30
0.000000
  70
    32
  0
VERTEX
  8
01
  5
140AD
 10
15425.0
 20
-969.053
 30
0.000000
  70
    32
  0
VERTEX
  8
01
  5
140AE
 10
15424.9
 20
-969.186
 30
0.000000
  70
    32
  0
VERTEX
  8
01
  5
140AF
 10
15424.7
 20
-969.330
 30
0.000000
  70
    32
  0
VERTEX
  8
01
  5
140B0
 10
15424.6
 20
-969.485
 30
0.000000
  70
    32
  0
VERTEX
  8
01
  5
140B1
 10
15424.4
 20
-969.652
 30
0.000000
  70
    32
  0
VERTEX
  8
01
  5
140B2
 10
15424.3
 20
-969.828
 30
0.000000
  70
    32
  0
VERTEX
  8
01
  5
140B3
 10
15424.1
 20
-970.014
 30
0.000000
  70
    32
  0
VERTEX
  8
01
  5
140B4
 10
15424.0
 20
-970.210
 30
0.000000
  70
    32
  0
VERTEX
  8
01
  5
140B5
 10
15423.8
 20
-970.414
 30
0.000000
  70
    32
  0
VERTEX
  8
01
  5
140B6
 10
15423.7
 20
-970.627
 30
0.000000
  70
    32
  0
VERTEX
  8
01
  5
140B7
 10
15423.6
 20
-970.847
 30
0.000000
  70
    32
  0
VERTEX
  8
01
  5
140B8
 10
15423.5
 20
-971.076
 30
0.000000
  70
    32
  0
VERTEX
  8
01
  5
140B9
 10
15423.4
 20
-971.310
 30
0.000000
  70
    32
  0
VERTEX
  8
01
  5
140BA
 10
15423.3
 20
-971.552
 30
0.000000
  70
    32
  0
VERTEX
  8
01
  5
140BB
 10
15423.3
 20
-971.798
 30
0.000000
  70
    32
  0
VERTEX
  8
01
  5
140BC
 10
15423.2
 20
-972.050
 30
0.000000
  70
    32
  0
VERTEX
  8
01
  5
140BD
 10
15423.1
 20
-972.307
 30
0.000000
  70
    32
  0
VERTEX
  8
01
  5
140BE
 10
15423.1
 20
-972.567
 30
0.000000
  70
    32
  0
VERTEX
  8
01
  5
140BF
 10
15423.0
 20
-972.830
 30
0.000000
  70
    32
  0
VERTEX
  8
01
  5
140C0
 10
15423.0
 20
-973.096
 30
0.000000
  70
    32
  0
VERTEX
  8
01
  5
140C1
 10
15423.0
 20
-973.364
 30
0.000000
  70
    32
  0
VERTEX
  8
01
  5
140C2
 10
15423.0
 20
-973.633
 30
0.000000
  70
    32
  0
VERTEX
  8
01
  5
140C3
 10
15422.9
 20
-973.903
 30
0.000000
  70
    32
  0
VERTEX
  8
01
  5
140C4
 10
15423.0
 20
-974.173
 30
0.000000
  70
    32
  0
VERTEX
  8
01
  5
140C5
 10
15423.0
 20
-974.442
 30
0.000000
  70
    32
  0
VERTEX
  8
01
  5
140C6
 10
15423.0
 20
-974.710
 30
0.000000
  70
    32
  0
VERTEX
  8
01
  5
140C7
 10
15423.0
 20
-974.976
 30
0.000000
  70
    32
  0
VERTEX
  8
01
  5
140C8
 10
15423.1
 20
-975.239
 30
0.000000
  70
    32
  0
VERTEX
  8
01
  5
140C9
 10
15423.1
 20
-975.500
 30
0.000000
  70
    32
  0
VERTEX
  8
01
  5
140CA
 10
15423.2
 20
-975.756
 30
0.000000
  70
    32
  0
VERTEX
  8
01
  5
140CB
 10
15423.3
 20
-976.008
 30
0.000000
  70
    32
  0
VERTEX
  8
01
  5
140CC
 10
15423.3
 20
-976.255
 30
0.000000
  70
    32
  0
VERTEX
  8
01
  5
140CD
 10
15423.4
 20
-976.496
 30
0.000000
  70
    32
  0
VERTEX
  8
01
  5
140CE
 10
15423.5
 20
-976.731
 30
0.000000
  70
    32
  0
VERTEX
  8
01
  5
140CF
 10
15423.6
 20
-976.959
 30
0.000000
  70
    32
  0
VERTEX
  8
01
  5
140D0
 10
15423.7
 20
-977.179
 30
0.000000
  70
    32
  0
VERTEX
  8
01
  5
140D1
 10
15423.8
 20
-977.392
 30
0.000000
  70
    32
  0
VERTEX
  8
01
  5
140D2
 10
15424.0
 20
-977.597
 30
0.000000
  70
    32
  0
VERTEX
  8
01
  5
140D3
 10
15424.1
 20
-977.792
 30
0.000000
  70
    32
  0
VERTEX
  8
01
  5
140D4
 10
15424.3
 20
-977.978
 30
0.000000
  70
    32
  0
VERTEX
  8
01
  5
140D5
 10
15424.4
 20
-978.155
 30
0.000000
  70
    32
  0
VERTEX
  8
01
  5
140D6
 10
15424.6
 20
-978.321
 30
0.000000
  70
    32
  0
VERTEX
  8
01
  5
140D7
 10
15424.7
 20
-978.476
 30
0.000000
  70
    32
  0
VERTEX
  8
01
  5
140D8
 10
15424.9
 20
-978.621
 30
0.000000
  70
    32
  0
VERTEX
  8
01
  5
140D9
 10
15425.0
 20
-978.754
 30
0.000000
  70
    32
  0
VERTEX
  8
01
  5
140DA
 10
15425.2
 20
-978.875
 30
0.000000
  70
    32
  0
VERTEX
  8
01
  5
140DB
 10
15425.4
 20
-978.984
 30
0.000000
  70
    32
  0
VERTEX
  8
01
  5
140DC
 10
15425.6
 20
-979.082
 30
0.000000
  70
    32
  0
VERTEX
  8
01
  5
140DD
 10
15425.8
 20
-979.166
 30
0.000000
  70
    32
  0
VERTEX
  8
01
  5
140DE
 10
15425.9
 20
-979.238
 30
0.000000
  70
    32
  0
VERTEX
  8
01
  5
140DF
 10
15426.1
 20
-979.297
 30
0.000000
  70
    32
  0
VERTEX
  8
01
  5
140E0
 10
15426.3
 20
-979.344
 30
0.000000
  70
    32
  0
VERTEX
  8
01
  5
140E1
 10
15426.5
 20
-979.377
 30
0.000000
  70
    32
  0
VERTEX
  8
01
  5
140E2
 10
15426.7
 20
-979.396
 30
0.000000
  70
    32
  0
VERTEX
  8
01
  5
140E3
 10
15426.9
 20
-979.403
 30
0.000000
  70
    32
  0
VERTEX
  8
01
  5
140E4
 10
15427.1
 20
-979.396
 30
0.000000
  70
    32
  0
VERTEX
  8
01
  5
140E5
 10
15427.3
 20
-979.377
 30
0.000000
  70
    32
  0
VERTEX
  8
01
  5
140E6
 10
15427.5
 20
-979.344
 30
0.000000
  70
    32
  0
VERTEX
  8
01
  5
140E7
 10
15427.7
 20
-979.297
 30
0.000000
  70
    32
  0
VERTEX
  8
01
  5
140E8
 10
15427.9
 20
-979.238
 30
0.000000
  70
    32
  0
VERTEX
  8
01
  5
140E9
 10
15428.1
 20
-979.166
 30
0.000000
  70
    32
  0
VERTEX
  8
01
  5
140EA
 10
15428.2
 20
-979.082
 30
0.000000
  70
    32
  0
VERTEX
  8
01
  5
140EB
 10
15428.4
 20
-978.984
 30
0.000000
  70
    32
  0
VERTEX
  8
01
  5
140EC
 10
15428.6
 20
-978.875
 30
0.000000
  70
    32
  0
VERTEX
  8
01
  5
140ED
 10
15428.8
 20
-978.754
 30
0.000000
  70
    32
  0
VERTEX
  8
01
  5
140EE
 10
15428.9
 20
-978.621
 30
0.000000
  70
    32
  0
VERTEX
  8
01
  5
140EF
 10
15429.1
 20
-978.476
 30
0.000000
  70
    32
  0
VERTEX
  8
01
  5
140F0
 10
15429.3
 20
-978.321
 30
0.000000
  70
    32
  0
VERTEX
  8
01
  5
140F1
 10
15429.4
 20
-978.155
 30
0.000000
  70
    32
  0
VERTEX
  8
01
  5
140F2
 10
15429.6
 20
-977.978
 30
0.000000
  70
    32
  0
VERTEX
  8
01
  5
140F3
 10
15429.7
 20
-977.792
 30
0.000000
  70
    32
  0
VERTEX
  8
01
  5
140F4
 10
15429.8
 20
-977.597
 30
0.000000
  70
    32
  0
VERTEX
  8
01
  5
140F5
 10
15430.0
 20
-977.392
 30
0.000000
  70
    32
  0
VERTEX
  8
01
  5
140F6
 10
15430.1
 20
-977.179
 30
0.000000
  70
    32
  0
VERTEX
  8
01
  5
140F7
 10
15430.2
 20
-976.959
 30
0.000000
  70
    32
  0
VERTEX
  8
01
  5
140F8
 10
15430.3
 20
-976.731
 30
0.000000
  70
    32
  0
VERTEX
  8
01
  5
140F9
 10
15430.4
 20
-976.496
 30
0.000000
  70
    32
  0
VERTEX
  8
01
  5
140FA
 10
15430.5
 20
-976.255
 30
0.000000
  70
    32
  0
VERTEX
  8
01
  5
140FB
 10
15430.6
 20
-976.008
 30
0.000000
  70
    32
  0
VERTEX
  8
01
  5
140FC
 10
15430.6
 20
-975.756
 30
0.000000
  70
    32
  0
VERTEX
  8
01
  5
140FD
 10
15430.7
 20
-975.500
 30
0.000000
  70
    32
  0
VERTEX
  8
01
  5
140FE
 10
15430.8
 20
-975.239
 30
0.000000
  70
    32
  0
VERTEX
  8
01
  5
140FF
 10
15430.8
 20
-974.976
 30
0.000000
  70
    32
  0
VERTEX
  8
01
  5
14100
 10
15430.8
 20
-974.710
 30
0.000000
  70
    32
  0
VERTEX
  8
01
  5
14101
 10
15430.9
 20
-974.442
 30
0.000000
  70
    32
  0
VERTEX
  8
01
  5
14102
 10
15430.9
 20
-974.173
 30
0.000000
  70
    32
  0
VERTEX
  8
01
  5
14103
 10
15430.9
 20
-973.903
 30
0.000000
  70
    32
  0
VERTEX
  8
01
  5
14104
 10
15430.9
 20
-973.633
 30
0.000000
  70
    32
  0
VERTEX
  8
01
  5
14105
 10
15430.9
 20
-973.364
 30
0.000000
  70
    32
  0
VERTEX
  8
01
  5
14106
 10
15430.8
 20
-973.096
 30
0.000000
  70
    32
  0
VERTEX
  8
01
  5
14107
 10
15430.8
 20
-972.830
 30
0.000000
  70
    32
  0
VERTEX
  8
01
  5
14108
 10
15430.8
 20
-972.567
 30
0.000000
  70
    32
  0
VERTEX
  8
01
  5
14109
 10
15430.7
 20
-972.307
 30
0.000000
  70
    32
  0
VERTEX
  8
01
  5
1410A
 10
15430.6
 20
-972.050
 30
0.000000
  70
    32
  0
VERTEX
  8
01
  5
1410B
 10
15430.6
 20
-971.798
 30
0.000000
  70
    32
  0
VERTEX
  8
01
  5
1410C
 10
15430.5
 20
-971.552
 30
0.000000
  70
    32
  0
VERTEX
  8
01
  5
1410D
 10
15430.4
 20
-971.310
 30
0.000000
  70
    32
  0
VERTEX
  8
01
  5
1410E
 10
15430.3
 20
-971.076
 30
0.000000
  70
    32
  0
VERTEX
  8
01
  5
1410F
 10
15430.2
 20
-970.847
 30
0.000000
  70
    32
  0
VERTEX
  8
01
  5
14110
 10
15430.1
 20
-970.627
 30
0.000000
  70
    32
  0
VERTEX
  8
01
  5
14111
 10
15430.0
 20
-970.414
 30
0.000000
  70
    32
  0
VERTEX
  8
01
  5
14112
 10
15429.8
 20
-970.210
 30
0.000000
  70
    32
  0
VERTEX
  8
01
  5
14113
 10
15429.7
 20
-970.014
 30
0.000000
  70
    32
  0
VERTEX
  8
01
  5
14114
 10
15429.6
 20
-969.828
 30
0.000000
  70
    32
  0
VERTEX
  8
01
  5
14115
 10
15429.4
 20
-969.652
 30
0.000000
  70
    32
  0
VERTEX
  8
01
  5
14116
 10
15429.3
 20
-969.485
 30
0.000000
  70
    32
  0
VERTEX
  8
01
  5
14117
 10
15429.1
 20
-969.330
 30
0.000000
  70
    32
  0
VERTEX
  8
01
  5
14118
 10
15428.9
 20
-969.186
 30
0.000000
  70
    32
  0
VERTEX
  8
01
  5
14119
 10
15428.8
 20
-969.053
 30
0.000000
  70
    32
  0
VERTEX
  8
01
  5
1411A
 10
15428.6
 20
-968.931
 30
0.000000
  70
    32
  0
VERTEX
  8
01
  5
1411B
 10
15428.4
 20
-968.822
 30
0.000000
  70
    32
  0
VERTEX
  8
01
  5
1411C
 10
15428.2
 20
-968.725
 30
0.000000
  70
    32
  0
VERTEX
  8
01
  5
1411D
 10
15428.1
 20
-968.640
 30
0.000000
  70
    32
  0
VERTEX
  8
01
  5
1411E
 10
15427.9
 20
-968.568
 30
0.000000
  70
    32
  0
VERTEX
  8
01
  5
1411F
 10
15427.7
 20
-968.509
 30
0.000000
  70
    32
  0
VERTEX
  8
01
  5
14120
 10
15427.5
 20
-968.463
 30
0.000000
  70
    32
  0
VERTEX
  8
01
  5
14121
 10
15427.3
 20
-968.430
 30
0.000000
  70
    32
  0
VERTEX
  8
01
  5
14122
 10
15427.1
 20
-968.410
 30
0.000000
  70
    32
  0
VERTEX
  8
01
  5
14123
 10
15426.9
 20
-968.403
 30
0.000000
  70
    32
  0
SEQEND
  8
01
  5
14124
  0
POLYLINE
  5
1391C
  8
01
 10
15396.58601222057
 20
-968.40308836321185
 30
0.0
 66
     1
 70
     8
  0
VERTEX
  8
01
  5
14125
 10
15396.6
 20
-968.403
 30
0.000000
  70
    32
  0
VERTEX
  8
01
  5
14126
 10
15396.8
 20
-968.410
 30
0.000000
  70
    32
  0
VERTEX
  8
01
  5
14127
 10
15397.0
 20
-968.430
 30
0.000000
  70
    32
  0
VERTEX
  8
01
  5
14128
 10
15397.2
 20
-968.463
 30
0.000000
  70
    32
  0
VERTEX
  8
01
  5
14129
 10
15397.4
 20
-968.509
 30
0.000000
  70
    32
  0
VERTEX
  8
01
  5
1412A
 10
15397.5
 20
-968.568
 30
0.000000
  70
    32
  0
VERTEX
  8
01
  5
1412B
 10
15397.7
 20
-968.640
 30
0.000000
  70
    32
  0
VERTEX
  8
01
  5
1412C
 10
15397.9
 20
-968.725
 30
0.000000
  70
    32
  0
VERTEX
  8
01
  5
1412D
 10
15398.1
 20
-968.822
 30
0.000000
  70
    32
  0
VERTEX
  8
01
  5
1412E
 10
15398.3
 20
-968.931
 30
0.000000
  70
    32
  0
VERTEX
  8
01
  5
1412F
 10
15398.5
 20
-969.053
 30
0.000000
  70
    32
  0
VERTEX
  8
01
  5
14130
 10
15398.6
 20
-969.186
 30
0.000000
  70
    32
  0
VERTEX
  8
01
  5
14131
 10
15398.8
 20
-969.330
 30
0.000000
  70
    32
  0
VERTEX
  8
01
  5
14132
 10
15398.9
 20
-969.485
 30
0.000000
  70
    32
  0
VERTEX
  8
01
  5
14133
 10
15399.1
 20
-969.652
 30
0.000000
  70
    32
  0
VERTEX
  8
01
  5
14134
 10
15399.2
 20
-969.828
 30
0.000000
  70
    32
  0
VERTEX
  8
01
  5
14135
 10
15399.4
 20
-970.014
 30
0.000000
  70
    32
  0
VERTEX
  8
01
  5
14136
 10
15399.5
 20
-970.210
 30
0.000000
  70
    32
  0
VERTEX
  8
01
  5
14137
 10
15399.6
 20
-970.414
 30
0.000000
  70
    32
  0
VERTEX
  8
01
  5
14138
 10
15399.8
 20
-970.627
 30
0.000000
  70
    32
  0
VERTEX
  8
01
  5
14139
 10
15399.9
 20
-970.847
 30
0.000000
  70
    32
  0
VERTEX
  8
01
  5
1413A
 10
15400.0
 20
-971.076
 30
0.000000
  70
    32
  0
VERTEX
  8
01
  5
1413B
 10
15400.1
 20
-971.310
 30
0.000000
  70
    32
  0
VERTEX
  8
01
  5
1413C
 10
15400.2
 20
-971.552
 30
0.000000
  70
    32
  0
VERTEX
  8
01
  5
1413D
 10
15400.2
 20
-971.798
 30
0.000000
  70
    32
  0
VERTEX
  8
01
  5
1413E
 10
15400.3
 20
-972.050
 30
0.000000
  70
    32
  0
VERTEX
  8
01
  5
1413F
 10
15400.4
 20
-972.307
 30
0.000000
  70
    32
  0
VERTEX
  8
01
  5
14140
 10
15400.4
 20
-972.567
 30
0.000000
  70
    32
  0
VERTEX
  8
01
  5
14141
 10
15400.5
 20
-972.830
 30
0.000000
  70
    32
  0
VERTEX
  8
01
  5
14142
 10
15400.5
 20
-973.096
 30
0.000000
  70
    32
  0
VERTEX
  8
01
  5
14143
 10
15400.5
 20
-973.364
 30
0.000000
  70
    32
  0
VERTEX
  8
01
  5
14144
 10
15400.5
 20
-973.633
 30
0.000000
  70
    32
  0
VERTEX
  8
01
  5
14145
 10
15400.5
 20
-973.903
 30
0.000000
  70
    32
  0
VERTEX
  8
01
  5
14146
 10
15400.5
 20
-974.173
 30
0.000000
  70
    32
  0
VERTEX
  8
01
  5
14147
 10
15400.5
 20
-974.442
 30
0.000000
  70
    32
  0
VERTEX
  8
01
  5
14148
 10
15400.5
 20
-974.710
 30
0.000000
  70
    32
  0
VERTEX
  8
01
  5
14149
 10
15400.5
 20
-974.976
 30
0.000000
  70
    32
  0
VERTEX
  8
01
  5
1414A
 10
15400.4
 20
-975.239
 30
0.000000
  70
    32
  0
VERTEX
  8
01
  5
1414B
 10
15400.4
 20
-975.500
 30
0.000000
  70
    32
  0
VERTEX
  8
01
  5
1414C
 10
15400.3
 20
-975.756
 30
0.000000
  70
    32
  0
VERTEX
  8
01
  5
1414D
 10
15400.2
 20
-976.008
 30
0.000000
  70
    32
  0
VERTEX
  8
01
  5
1414E
 10
15400.2
 20
-976.255
 30
0.000000
  70
    32
  0
VERTEX
  8
01
  5
1414F
 10
15400.1
 20
-976.496
 30
0.000000
  70
    32
  0
VERTEX
  8
01
  5
14150
 10
15400.0
 20
-976.731
 30
0.000000
  70
    32
  0
VERTEX
  8
01
  5
14151
 10
15399.9
 20
-976.959
 30
0.000000
  70
    32
  0
VERTEX
  8
01
  5
14152
 10
15399.8
 20
-977.179
 30
0.000000
  70
    32
  0
VERTEX
  8
01
  5
14153
 10
15399.6
 20
-977.392
 30
0.000000
  70
    32
  0
VERTEX
  8
01
  5
14154
 10
15399.5
 20
-977.597
 30
0.000000
  70
    32
  0
VERTEX
  8
01
  5
14155
 10
15399.4
 20
-977.792
 30
0.000000
  70
    32
  0
VERTEX
  8
01
  5
14156
 10
15399.2
 20
-977.978
 30
0.000000
  70
    32
  0
VERTEX
  8
01
  5
14157
 10
15399.1
 20
-978.155
 30
0.000000
  70
    32
  0
VERTEX
  8
01
  5
14158
 10
15398.9
 20
-978.321
 30
0.000000
  70
    32
  0
VERTEX
  8
01
  5
14159
 10
15398.8
 20
-978.476
 30
0.000000
  70
    32
  0
VERTEX
  8
01
  5
1415A
 10
15398.6
 20
-978.621
 30
0.000000
  70
    32
  0
VERTEX
  8
01
  5
1415B
 10
15398.5
 20
-978.754
 30
0.000000
  70
    32
  0
VERTEX
  8
01
  5
1415C
 10
15398.3
 20
-978.875
 30
0.000000
  70
    32
  0
VERTEX
  8
01
  5
1415D
 10
15398.1
 20
-978.984
 30
0.000000
  70
    32
  0
VERTEX
  8
01
  5
1415E
 10
15397.9
 20
-979.082
 30
0.000000
  70
    32
  0
VERTEX
  8
01
  5
1415F
 10
15397.7
 20
-979.166
 30
0.000000
  70
    32
  0
VERTEX
  8
01
  5
14160
 10
15397.5
 20
-979.238
 30
0.000000
  70
    32
  0
VERTEX
  8
01
  5
14161
 10
15397.4
 20
-979.297
 30
0.000000
  70
    32
  0
VERTEX
  8
01
  5
14162
 10
15397.2
 20
-979.344
 30
0.000000
  70
    32
  0
VERTEX
  8
01
  5
14163
 10
15397.0
 20
-979.377
 30
0.000000
  70
    32
  0
VERTEX
  8
01
  5
14164
 10
15396.8
 20
-979.396
 30
0.000000
  70
    32
  0
VERTEX
  8
01
  5
14165
 10
15396.6
 20
-979.403
 30
0.000000
  70
    32
  0
VERTEX
  8
01
  5
14166
 10
15396.4
 20
-979.396
 30
0.000000
  70
    32
  0
VERTEX
  8
01
  5
14167
 10
15396.2
 20
-979.377
 30
0.000000
  70
    32
  0
VERTEX
  8
01
  5
14168
 10
15396.0
 20
-979.344
 30
0.000000
  70
    32
  0
VERTEX
  8
01
  5
14169
 10
15395.8
 20
-979.297
 30
0.000000
  70
    32
  0
VERTEX
  8
01
  5
1416A
 10
15395.6
 20
-979.238
 30
0.000000
  70
    32
  0
VERTEX
  8
01
  5
1416B
 10
15395.4
 20
-979.166
 30
0.000000
  70
    32
  0
VERTEX
  8
01
  5
1416C
 10
15395.3
 20
-979.082
 30
0.000000
  70
    32
  0
VERTEX
  8
01
  5
1416D
 10
15395.1
 20
-978.984
 30
0.000000
  70
    32
  0
VERTEX
  8
01
  5
1416E
 10
15394.9
 20
-978.875
 30
0.000000
  70
    32
  0
VERTEX
  8
01
  5
1416F
 10
15394.7
 20
-978.754
 30
0.000000
  70
    32
  0
VERTEX
  8
01
  5
14170
 10
15394.5
 20
-978.621
 30
0.000000
  70
    32
  0
VERTEX
  8
01
  5
14171
 10
15394.4
 20
-978.476
 30
0.000000
  70
    32
  0
VERTEX
  8
01
  5
14172
 10
15394.2
 20
-978.321
 30
0.000000
  70
    32
  0
VERTEX
  8
01
  5
14173
 10
15394.1
 20
-978.155
 30
0.000000
  70
    32
  0
VERTEX
  8
01
  5
14174
 10
15393.9
 20
-977.978
 30
0.000000
  70
    32
  0
VERTEX
  8
01
  5
14175
 10
15393.8
 20
-977.792
 30
0.000000
  70
    32
  0
VERTEX
  8
01
  5
14176
 10
15393.6
 20
-977.597
 30
0.000000
  70
    32
  0
VERTEX
  8
01
  5
14177
 10
15393.5
 20
-977.392
 30
0.000000
  70
    32
  0
VERTEX
  8
01
  5
14178
 10
15393.4
 20
-977.179
 30
0.000000
  70
    32
  0
VERTEX
  8
01
  5
14179
 10
15393.3
 20
-976.959
 30
0.000000
  70
    32
  0
VERTEX
  8
01
  5
1417A
 10
15393.2
 20
-976.731
 30
0.000000
  70
    32
  0
VERTEX
  8
01
  5
1417B
 10
15393.1
 20
-976.496
 30
0.000000
  70
    32
  0
VERTEX
  8
01
  5
1417C
 10
15393.0
 20
-976.255
 30
0.000000
  70
    32
  0
VERTEX
  8
01
  5
1417D
 10
15392.9
 20
-976.008
 30
0.000000
  70
    32
  0
VERTEX
  8
01
  5
1417E
 10
15392.9
 20
-975.756
 30
0.000000
  70
    32
  0
VERTEX
  8
01
  5
1417F
 10
15392.8
 20
-975.500
 30
0.000000
  70
    32
  0
VERTEX
  8
01
  5
14180
 10
15392.7
 20
-975.239
 30
0.000000
  70
    32
  0
VERTEX
  8
01
  5
14181
 10
15392.7
 20
-974.976
 30
0.000000
  70
    32
  0
VERTEX
  8
01
  5
14182
 10
15392.7
 20
-974.710
 30
0.000000
  70
    32
  0
VERTEX
  8
01
  5
14183
 10
15392.6
 20
-974.442
 30
0.000000
  70
    32
  0
VERTEX
  8
01
  5
14184
 10
15392.6
 20
-974.173
 30
0.000000
  70
    32
  0
VERTEX
  8
01
  5
14185
 10
15392.6
 20
-973.903
 30
0.000000
  70
    32
  0
VERTEX
  8
01
  5
14186
 10
15392.6
 20
-973.633
 30
0.000000
  70
    32
  0
VERTEX
  8
01
  5
14187
 10
15392.6
 20
-973.364
 30
0.000000
  70
    32
  0
VERTEX
  8
01
  5
14188
 10
15392.7
 20
-973.096
 30
0.000000
  70
    32
  0
VERTEX
  8
01
  5
14189
 10
15392.7
 20
-972.830
 30
0.000000
  70
    32
  0
VERTEX
  8
01
  5
1418A
 10
15392.7
 20
-972.567
 30
0.000000
  70
    32
  0
VERTEX
  8
01
  5
1418B
 10
15392.8
 20
-972.307
 30
0.000000
  70
    32
  0
VERTEX
  8
01
  5
1418C
 10
15392.9
 20
-972.050
 30
0.000000
  70
    32
  0
VERTEX
  8
01
  5
1418D
 10
15392.9
 20
-971.798
 30
0.000000
  70
    32
  0
VERTEX
  8
01
  5
1418E
 10
15393.0
 20
-971.552
 30
0.000000
  70
    32
  0
VERTEX
  8
01
  5
1418F
 10
15393.1
 20
-971.310
 30
0.000000
  70
    32
  0
VERTEX
  8
01
  5
14190
 10
15393.2
 20
-971.076
 30
0.000000
  70
    32
  0
VERTEX
  8
01
  5
14191
 10
15393.3
 20
-970.847
 30
0.000000
  70
    32
  0
VERTEX
  8
01
  5
14192
 10
15393.4
 20
-970.627
 30
0.000000
  70
    32
  0
VERTEX
  8
01
  5
14193
 10
15393.5
 20
-970.414
 30
0.000000
  70
    32
  0
VERTEX
  8
01
  5
14194
 10
15393.6
 20
-970.210
 30
0.000000
  70
    32
  0
VERTEX
  8
01
  5
14195
 10
15393.8
 20
-970.014
 30
0.000000
  70
    32
  0
VERTEX
  8
01
  5
14196
 10
15393.9
 20
-969.828
 30
0.000000
  70
    32
  0
VERTEX
  8
01
  5
14197
 10
15394.1
 20
-969.652
 30
0.000000
  70
    32
  0
VERTEX
  8
01
  5
14198
 10
15394.2
 20
-969.485
 30
0.000000
  70
    32
  0
VERTEX
  8
01
  5
14199
 10
15394.4
 20
-969.330
 30
0.000000
  70
    32
  0
VERTEX
  8
01
  5
1419A
 10
15394.5
 20
-969.186
 30
0.000000
  70
    32
  0
VERTEX
  8
01
  5
1419B
 10
15394.7
 20
-969.053
 30
0.000000
  70
    32
  0
VERTEX
  8
01
  5
1419C
 10
15394.9
 20
-968.931
 30
0.000000
  70
    32
  0
VERTEX
  8
01
  5
1419D
 10
15395.1
 20
-968.822
 30
0.000000
  70
    32
  0
VERTEX
  8
01
  5
1419E
 10
15395.3
 20
-968.725
 30
0.000000
  70
    32
  0
VERTEX
  8
01
  5
1419F
 10
15395.4
 20
-968.640
 30
0.000000
  70
    32
  0
VERTEX
  8
01
  5
141A0
 10
15395.6
 20
-968.568
 30
0.000000
  70
    32
  0
VERTEX
  8
01
  5
141A1
 10
15395.8
 20
-968.509
 30
0.000000
  70
    32
  0
VERTEX
  8
01
  5
141A2
 10
15396.0
 20
-968.463
 30
0.000000
  70
    32
  0
VERTEX
  8
01
  5
141A3
 10
15396.2
 20
-968.430
 30
0.000000
  70
    32
  0
VERTEX
  8
01
  5
141A4
 10
15396.4
 20
-968.410
 30
0.000000
  70
    32
  0
VERTEX
  8
01
  5
141A5
 10
15396.6
 20
-968.403
 30
0.000000
  70
    32
  0
SEQEND
  8
01
  5
141A6
  0
POLYLINE
  5
1391D
  8
01
 10
15463.73601222057
 20
-1010.203088363212
 30
0.0
 66
     1
 70
     8
  0
VERTEX
  8
01
  5
141A7
 10
15463.7
 20
-1010.20
 30
0.000000
  70
    32
  0
VERTEX
  8
01
  5
141A8
 10
15463.7
 20
-1010.47
 30
0.000000
  70
    32
  0
VERTEX
  8
01
  5
141A9
 10
15463.8
 20
-1010.74
 30
0.000000
  70
    32
  0
VERTEX
  8
01
  5
141AA
 10
15463.8
 20
-1011.01
 30
0.000000
  70
    32
  0
VERTEX
  8
01
  5
141AB
 10
15463.9
 20
-1011.28
 30
0.000000
  70
    32
  0
VERTEX
  8
01
  5
141AC
 10
15464.0
 20
-1011.54
 30
0.000000
  70
    32
  0
VERTEX
  8
01
  5
141AD
 10
15464.1
 20
-1011.80
 30
0.000000
  70
    32
  0
VERTEX
  8
01
  5
141AE
 10
15464.2
 20
-1012.06
 30
0.000000
  70
    32
  0
VERTEX
  8
01
  5
141AF
 10
15464.3
 20
-1012.31
 30
0.000000
  70
    32
  0
VERTEX
  8
01
  5
141B0
 10
15464.5
 20
-1012.55
 30
0.000000
  70
    32
  0
VERTEX
  8
01
  5
141B1
 10
15464.7
 20
-1012.80
 30
0.000000
  70
    32
  0
VERTEX
  8
01
  5
141B2
 10
15464.9
 20
-1013.03
 30
0.000000
  70
    32
  0
VERTEX
  8
01
  5
141B3
 10
15465.1
 20
-1013.26
 30
0.000000
  70
    32
  0
VERTEX
  8
01
  5
141B4
 10
15465.3
 20
-1013.48
 30
0.000000
  70
    32
  0
VERTEX
  8
01
  5
141B5
 10
15465.6
 20
-1013.69
 30
0.000000
  70
    32
  0
VERTEX
  8
01
  5
141B6
 10
15465.8
 20
-1013.90
 30
0.000000
  70
    32
  0
VERTEX
  8
01
  5
141B7
 10
15466.1
 20
-1014.09
 30
0.000000
  70
    32
  0
VERTEX
  8
01
  5
141B8
 10
15466.4
 20
-1014.28
 30
0.000000
  70
    32
  0
VERTEX
  8
01
  5
141B9
 10
15466.7
 20
-1014.45
 30
0.000000
  70
    32
  0
VERTEX
  8
01
  5
141BA
 10
15467.0
 20
-1014.62
 30
0.000000
  70
    32
  0
VERTEX
  8
01
  5
141BB
 10
15467.3
 20
-1014.78
 30
0.000000
  70
    32
  0
VERTEX
  8
01
  5
141BC
 10
15467.6
 20
-1014.92
 30
0.000000
  70
    32
  0
VERTEX
  8
01
  5
141BD
 10
15468.0
 20
-1015.05
 30
0.000000
  70
    32
  0
VERTEX
  8
01
  5
141BE
 10
15468.3
 20
-1015.18
 30
0.000000
  70
    32
  0
VERTEX
  8
01
  5
141BF
 10
15468.7
 20
-1015.28
 30
0.000000
  70
    32
  0
VERTEX
  8
01
  5
141C0
 10
15469.0
 20
-1015.38
 30
0.000000
  70
    32
  0
VERTEX
  8
01
  5
141C1
 10
15469.4
 20
-1015.47
 30
0.000000
  70
    32
  0
VERTEX
  8
01
  5
141C2
 10
15469.8
 20
-1015.54
 30
0.000000
  70
    32
  0
VERTEX
  8
01
  5
141C3
 10
15470.2
 20
-1015.60
 30
0.000000
  70
    32
  0
VERTEX
  8
01
  5
141C4
 10
15470.6
 20
-1015.64
 30
0.000000
  70
    32
  0
VERTEX
  8
01
  5
141C5
 10
15471.0
 20
-1015.68
 30
0.000000
  70
    32
  0
VERTEX
  8
01
  5
141C6
 10
15471.4
 20
-1015.70
 30
0.000000
  70
    32
  0
VERTEX
  8
01
  5
141C7
 10
15471.7
 20
-1015.70
 30
0.000000
  70
    32
  0
VERTEX
  8
01
  5
141C8
 10
15472.1
 20
-1015.70
 30
0.000000
  70
    32
  0
VERTEX
  8
01
  5
141C9
 10
15472.5
 20
-1015.68
 30
0.000000
  70
    32
  0
VERTEX
  8
01
  5
141CA
 10
15472.9
 20
-1015.64
 30
0.000000
  70
    32
  0
VERTEX
  8
01
  5
141CB
 10
15473.3
 20
-1015.60
 30
0.000000
  70
    32
  0
VERTEX
  8
01
  5
141CC
 10
15473.7
 20
-1015.54
 30
0.000000
  70
    32
  0
VERTEX
  8
01
  5
141CD
 10
15474.1
 20
-1015.47
 30
0.000000
  70
    32
  0
VERTEX
  8
01
  5
141CE
 10
15474.4
 20
-1015.38
 30
0.000000
  70
    32
  0
VERTEX
  8
01
  5
141CF
 10
15474.8
 20
-1015.28
 30
0.000000
  70
    32
  0
VERTEX
  8
01
  5
141D0
 10
15475.2
 20
-1015.18
 30
0.000000
  70
    32
  0
VERTEX
  8
01
  5
141D1
 10
15475.5
 20
-1015.05
 30
0.000000
  70
    32
  0
VERTEX
  8
01
  5
141D2
 10
15475.9
 20
-1014.92
 30
0.000000
  70
    32
  0
VERTEX
  8
01
  5
141D3
 10
15476.2
 20
-1014.78
 30
0.000000
  70
    32
  0
VERTEX
  8
01
  5
141D4
 10
15476.5
 20
-1014.62
 30
0.000000
  70
    32
  0
VERTEX
  8
01
  5
141D5
 10
15476.8
 20
-1014.45
 30
0.000000
  70
    32
  0
VERTEX
  8
01
  5
141D6
 10
15477.1
 20
-1014.28
 30
0.000000
  70
    32
  0
VERTEX
  8
01
  5
141D7
 10
15477.4
 20
-1014.09
 30
0.000000
  70
    32
  0
VERTEX
  8
01
  5
141D8
 10
15477.7
 20
-1013.90
 30
0.000000
  70
    32
  0
VERTEX
  8
01
  5
141D9
 10
15477.9
 20
-1013.69
 30
0.000000
  70
    32
  0
VERTEX
  8
01
  5
141DA
 10
15478.2
 20
-1013.48
 30
0.000000
  70
    32
  0
VERTEX
  8
01
  5
141DB
 10
15478.4
 20
-1013.26
 30
0.000000
  70
    32
  0
VERTEX
  8
01
  5
141DC
 10
15478.6
 20
-1013.03
 30
0.000000
  70
    32
  0
VERTEX
  8
01
  5
141DD
 10
15478.8
 20
-1012.80
 30
0.000000
  70
    32
  0
VERTEX
  8
01
  5
141DE
 10
15479.0
 20
-1012.55
 30
0.000000
  70
    32
  0
VERTEX
  8
01
  5
141DF
 10
15479.2
 20
-1012.31
 30
0.000000
  70
    32
  0
VERTEX
  8
01
  5
141E0
 10
15479.3
 20
-1012.06
 30
0.000000
  70
    32
  0
VERTEX
  8
01
  5
141E1
 10
15479.4
 20
-1011.80
 30
0.000000
  70
    32
  0
VERTEX
  8
01
  5
141E2
 10
15479.5
 20
-1011.54
 30
0.000000
  70
    32
  0
VERTEX
  8
01
  5
141E3
 10
15479.6
 20
-1011.28
 30
0.000000
  70
    32
  0
VERTEX
  8
01
  5
141E4
 10
15479.7
 20
-1011.01
 30
0.000000
  70
    32
  0
VERTEX
  8
01
  5
141E5
 10
15479.7
 20
-1010.74
 30
0.000000
  70
    32
  0
VERTEX
  8
01
  5
141E6
 10
15479.8
 20
-1010.47
 30
0.000000
  70
    32
  0
VERTEX
  8
01
  5
141E7
 10
15479.8
 20
-1010.20
 30
0.000000
  70
    32
  0
VERTEX
  8
01
  5
141E8
 10
15479.8
 20
-1009.93
 30
0.000000
  70
    32
  0
VERTEX
  8
01
  5
141E9
 10
15479.7
 20
-1009.66
 30
0.000000
  70
    32
  0
VERTEX
  8
01
  5
141EA
 10
15479.7
 20
-1009.40
 30
0.000000
  70
    32
  0
VERTEX
  8
01
  5
141EB
 10
15479.6
 20
-1009.13
 30
0.000000
  70
    32
  0
VERTEX
  8
01
  5
141EC
 10
15479.5
 20
-1008.87
 30
0.000000
  70
    32
  0
VERTEX
  8
01
  5
141ED
 10
15479.4
 20
-1008.61
 30
0.000000
  70
    32
  0
VERTEX
  8
01
  5
141EE
 10
15479.3
 20
-1008.35
 30
0.000000
  70
    32
  0
VERTEX
  8
01
  5
141EF
 10
15479.2
 20
-1008.10
 30
0.000000
  70
    32
  0
VERTEX
  8
01
  5
141F0
 10
15479.0
 20
-1007.85
 30
0.000000
  70
    32
  0
VERTEX
  8
01
  5
141F1
 10
15478.8
 20
-1007.61
 30
0.000000
  70
    32
  0
VERTEX
  8
01
  5
141F2
 10
15478.6
 20
-1007.38
 30
0.000000
  70
    32
  0
VERTEX
  8
01
  5
141F3
 10
15478.4
 20
-1007.15
 30
0.000000
  70
    32
  0
VERTEX
  8
01
  5
141F4
 10
15478.2
 20
-1006.93
 30
0.000000
  70
    32
  0
VERTEX
  8
01
  5
141F5
 10
15477.9
 20
-1006.71
 30
0.000000
  70
    32
  0
VERTEX
  8
01
  5
141F6
 10
15477.7
 20
-1006.51
 30
0.000000
  70
    32
  0
VERTEX
  8
01
  5
141F7
 10
15477.4
 20
-1006.31
 30
0.000000
  70
    32
  0
VERTEX
  8
01
  5
141F8
 10
15477.1
 20
-1006.13
 30
0.000000
  70
    32
  0
VERTEX
  8
01
  5
141F9
 10
15476.8
 20
-1005.95
 30
0.000000
  70
    32
  0
VERTEX
  8
01
  5
141FA
 10
15476.5
 20
-1005.79
 30
0.000000
  70
    32
  0
VERTEX
  8
01
  5
141FB
 10
15476.2
 20
-1005.63
 30
0.000000
  70
    32
  0
VERTEX
  8
01
  5
141FC
 10
15475.9
 20
-1005.49
 30
0.000000
  70
    32
  0
VERTEX
  8
01
  5
141FD
 10
15475.5
 20
-1005.35
 30
0.000000
  70
    32
  0
VERTEX
  8
01
  5
141FE
 10
15475.2
 20
-1005.23
 30
0.000000
  70
    32
  0
VERTEX
  8
01
  5
141FF
 10
15474.8
 20
-1005.12
 30
0.000000
  70
    32
  0
VERTEX
  8
01
  5
14200
 10
15474.4
 20
-1005.02
 30
0.000000
  70
    32
  0
VERTEX
  8
01
  5
14201
 10
15474.1
 20
-1004.94
 30
0.000000
  70
    32
  0
VERTEX
  8
01
  5
14202
 10
15473.7
 20
-1004.87
 30
0.000000
  70
    32
  0
VERTEX
  8
01
  5
14203
 10
15473.3
 20
-1004.81
 30
0.000000
  70
    32
  0
VERTEX
  8
01
  5
14204
 10
15472.9
 20
-1004.76
 30
0.000000
  70
    32
  0
VERTEX
  8
01
  5
14205
 10
15472.5
 20
-1004.73
 30
0.000000
  70
    32
  0
VERTEX
  8
01
  5
14206
 10
15472.1
 20
-1004.71
 30
0.000000
  70
    32
  0
VERTEX
  8
01
  5
14207
 10
15471.7
 20
-1004.70
 30
0.000000
  70
    32
  0
VERTEX
  8
01
  5
14208
 10
15471.4
 20
-1004.71
 30
0.000000
  70
    32
  0
VERTEX
  8
01
  5
14209
 10
15471.0
 20
-1004.73
 30
0.000000
  70
    32
  0
VERTEX
  8
01
  5
1420A
 10
15470.6
 20
-1004.76
 30
0.000000
  70
    32
  0
VERTEX
  8
01
  5
1420B
 10
15470.2
 20
-1004.81
 30
0.000000
  70
    32
  0
VERTEX
  8
01
  5
1420C
 10
15469.8
 20
-1004.87
 30
0.000000
  70
    32
  0
VERTEX
  8
01
  5
1420D
 10
15469.4
 20
-1004.94
 30
0.000000
  70
    32
  0
VERTEX
  8
01
  5
1420E
 10
15469.0
 20
-1005.02
 30
0.000000
  70
    32
  0
VERTEX
  8
01
  5
1420F
 10
15468.7
 20
-1005.12
 30
0.000000
  70
    32
  0
VERTEX
  8
01
  5
14210
 10
15468.3
 20
-1005.23
 30
0.000000
  70
    32
  0
VERTEX
  8
01
  5
14211
 10
15468.0
 20
-1005.35
 30
0.000000
  70
    32
  0
VERTEX
  8
01
  5
14212
 10
15467.6
 20
-1005.49
 30
0.000000
  70
    32
  0
VERTEX
  8
01
  5
14213
 10
15467.3
 20
-1005.63
 30
0.000000
  70
    32
  0
VERTEX
  8
01
  5
14214
 10
15467.0
 20
-1005.79
 30
0.000000
  70
    32
  0
VERTEX
  8
01
  5
14215
 10
15466.7
 20
-1005.95
 30
0.000000
  70
    32
  0
VERTEX
  8
01
  5
14216
 10
15466.4
 20
-1006.13
 30
0.000000
  70
    32
  0
VERTEX
  8
01
  5
14217
 10
15466.1
 20
-1006.31
 30
0.000000
  70
    32
  0
VERTEX
  8
01
  5
14218
 10
15465.8
 20
-1006.51
 30
0.000000
  70
    32
  0
VERTEX
  8
01
  5
14219
 10
15465.6
 20
-1006.71
 30
0.000000
  70
    32
  0
VERTEX
  8
01
  5
1421A
 10
15465.3
 20
-1006.93
 30
0.000000
  70
    32
  0
VERTEX
  8
01
  5
1421B
 10
15465.1
 20
-1007.15
 30
0.000000
  70
    32
  0
VERTEX
  8
01
  5
1421C
 10
15464.9
 20
-1007.38
 30
0.000000
  70
    32
  0
VERTEX
  8
01
  5
1421D
 10
15464.7
 20
-1007.61
 30
0.000000
  70
    32
  0
VERTEX
  8
01
  5
1421E
 10
15464.5
 20
-1007.85
 30
0.000000
  70
    32
  0
VERTEX
  8
01
  5
1421F
 10
15464.3
 20
-1008.10
 30
0.000000
  70
    32
  0
VERTEX
  8
01
  5
14220
 10
15464.2
 20
-1008.35
 30
0.000000
  70
    32
  0
VERTEX
  8
01
  5
14221
 10
15464.1
 20
-1008.61
 30
0.000000
  70
    32
  0
VERTEX
  8
01
  5
14222
 10
15464.0
 20
-1008.87
 30
0.000000
  70
    32
  0
VERTEX
  8
01
  5
14223
 10
15463.9
 20
-1009.13
 30
0.000000
  70
    32
  0
VERTEX
  8
01
  5
14224
 10
15463.8
 20
-1009.40
 30
0.000000
  70
    32
  0
VERTEX
  8
01
  5
14225
 10
15463.8
 20
-1009.66
 30
0.000000
  70
    32
  0
VERTEX
  8
01
  5
14226
 10
15463.7
 20
-1009.93
 30
0.000000
  70
    32
  0
VERTEX
  8
01
  5
14227
 10
15463.7
 20
-1010.20
 30
0.000000
  70
    32
  0
SEQEND
  8
01
  5
14228
  0
POLYLINE
  5
1391E
  8
01
 10
15486.91201222057
 20
-1004.703088363212
 30
0.0
 66
     1
 70
     8
  0
VERTEX
  8
01
  5
14229
 10
15486.9
 20
-1004.70
 30
0.000000
  70
    32
  0
VERTEX
  8
01
  5
1422A
 10
15486.7
 20
-1004.71
 30
0.000000
  70
    32
  0
VERTEX
  8
01
  5
1422B
 10
15486.5
 20
-1004.73
 30
0.000000
  70
    32
  0
VERTEX
  8
01
  5
1422C
 10
15486.3
 20
-1004.76
 30
0.000000
  70
    32
  0
VERTEX
  8
01
  5
1422D
 10
15486.1
 20
-1004.81
 30
0.000000
  70
    32
  0
VERTEX
  8
01
  5
1422E
 10
15485.9
 20
-1004.87
 30
0.000000
  70
    32
  0
VERTEX
  8
01
  5
1422F
 10
15485.8
 20
-1004.94
 30
0.000000
  70
    32
  0
VERTEX
  8
01
  5
14230
 10
15485.6
 20
-1005.02
 30
0.000000
  70
    32
  0
VERTEX
  8
01
  5
14231
 10
15485.4
 20
-1005.12
 30
0.000000
  70
    32
  0
VERTEX
  8
01
  5
14232
 10
15485.2
 20
-1005.23
 30
0.000000
  70
    32
  0
VERTEX
  8
01
  5
14233
 10
15485.0
 20
-1005.35
 30
0.000000
  70
    32
  0
VERTEX
  8
01
  5
14234
 10
15484.9
 20
-1005.49
 30
0.000000
  70
    32
  0
VERTEX
  8
01
  5
14235
 10
15484.7
 20
-1005.63
 30
0.000000
  70
    32
  0
VERTEX
  8
01
  5
14236
 10
15484.6
 20
-1005.79
 30
0.000000
  70
    32
  0
VERTEX
  8
01
  5
14237
 10
15484.4
 20
-1005.95
 30
0.000000
  70
    32
  0
VERTEX
  8
01
  5
14238
 10
15484.3
 20
-1006.13
 30
0.000000
  70
    32
  0
VERTEX
  8
01
  5
14239
 10
15484.1
 20
-1006.31
 30
0.000000
  70
    32
  0
VERTEX
  8
01
  5
1423A
 10
15484.0
 20
-1006.51
 30
0.000000
  70
    32
  0
VERTEX
  8
01
  5
1423B
 10
15483.8
 20
-1006.71
 30
0.000000
  70
    32
  0
VERTEX
  8
01
  5
1423C
 10
15483.7
 20
-1006.93
 30
0.000000
  70
    32
  0
VERTEX
  8
01
  5
1423D
 10
15483.6
 20
-1007.15
 30
0.000000
  70
    32
  0
VERTEX
  8
01
  5
1423E
 10
15483.5
 20
-1007.38
 30
0.000000
  70
    32
  0
VERTEX
  8
01
  5
1423F
 10
15483.4
 20
-1007.61
 30
0.000000
  70
    32
  0
VERTEX
  8
01
  5
14240
 10
15483.3
 20
-1007.85
 30
0.000000
  70
    32
  0
VERTEX
  8
01
  5
14241
 10
15483.3
 20
-1008.10
 30
0.000000
  70
    32
  0
VERTEX
  8
01
  5
14242
 10
15483.2
 20
-1008.35
 30
0.000000
  70
    32
  0
VERTEX
  8
01
  5
14243
 10
15483.1
 20
-1008.61
 30
0.000000
  70
    32
  0
VERTEX
  8
01
  5
14244
 10
15483.1
 20
-1008.87
 30
0.000000
  70
    32
  0
VERTEX
  8
01
  5
14245
 10
15483.0
 20
-1009.13
 30
0.000000
  70
    32
  0
VERTEX
  8
01
  5
14246
 10
15483.0
 20
-1009.40
 30
0.000000
  70
    32
  0
VERTEX
  8
01
  5
14247
 10
15483.0
 20
-1009.66
 30
0.000000
  70
    32
  0
VERTEX
  8
01
  5
14248
 10
15483.0
 20
-1009.93
 30
0.000000
  70
    32
  0
VERTEX
  8
01
  5
14249
 10
15482.9
 20
-1010.20
 30
0.000000
  70
    32
  0
VERTEX
  8
01
  5
1424A
 10
15483.0
 20
-1010.47
 30
0.000000
  70
    32
  0
VERTEX
  8
01
  5
1424B
 10
15483.0
 20
-1010.74
 30
0.000000
  70
    32
  0
VERTEX
  8
01
  5
1424C
 10
15483.0
 20
-1011.01
 30
0.000000
  70
    32
  0
VERTEX
  8
01
  5
1424D
 10
15483.0
 20
-1011.28
 30
0.000000
  70
    32
  0
VERTEX
  8
01
  5
1424E
 10
15483.1
 20
-1011.54
 30
0.000000
  70
    32
  0
VERTEX
  8
01
  5
1424F
 10
15483.1
 20
-1011.80
 30
0.000000
  70
    32
  0
VERTEX
  8
01
  5
14250
 10
15483.2
 20
-1012.06
 30
0.000000
  70
    32
  0
VERTEX
  8
01
  5
14251
 10
15483.3
 20
-1012.31
 30
0.000000
  70
    32
  0
VERTEX
  8
01
  5
14252
 10
15483.3
 20
-1012.55
 30
0.000000
  70
    32
  0
VERTEX
  8
01
  5
14253
 10
15483.4
 20
-1012.80
 30
0.000000
  70
    32
  0
VERTEX
  8
01
  5
14254
 10
15483.5
 20
-1013.03
 30
0.000000
  70
    32
  0
VERTEX
  8
01
  5
14255
 10
15483.6
 20
-1013.26
 30
0.000000
  70
    32
  0
VERTEX
  8
01
  5
14256
 10
15483.7
 20
-1013.48
 30
0.000000
  70
    32
  0
VERTEX
  8
01
  5
14257
 10
15483.8
 20
-1013.69
 30
0.000000
  70
    32
  0
VERTEX
  8
01
  5
14258
 10
15484.0
 20
-1013.90
 30
0.000000
  70
    32
  0
VERTEX
  8
01
  5
14259
 10
15484.1
 20
-1014.09
 30
0.000000
  70
    32
  0
VERTEX
  8
01
  5
1425A
 10
15484.3
 20
-1014.28
 30
0.000000
  70
    32
  0
VERTEX
  8
01
  5
1425B
 10
15484.4
 20
-1014.45
 30
0.000000
  70
    32
  0
VERTEX
  8
01
  5
1425C
 10
15484.6
 20
-1014.62
 30
0.000000
  70
    32
  0
VERTEX
  8
01
  5
1425D
 10
15484.7
 20
-1014.78
 30
0.000000
  70
    32
  0
VERTEX
  8
01
  5
1425E
 10
15484.9
 20
-1014.92
 30
0.000000
  70
    32
  0
VERTEX
  8
01
  5
1425F
 10
15485.0
 20
-1015.05
 30
0.000000
  70
    32
  0
VERTEX
  8
01
  5
14260
 10
15485.2
 20
-1015.18
 30
0.000000
  70
    32
  0
VERTEX
  8
01
  5
14261
 10
15485.4
 20
-1015.28
 30
0.000000
  70
    32
  0
VERTEX
  8
01
  5
14262
 10
15485.6
 20
-1015.38
 30
0.000000
  70
    32
  0
VERTEX
  8
01
  5
14263
 10
15485.8
 20
-1015.47
 30
0.000000
  70
    32
  0
VERTEX
  8
01
  5
14264
 10
15485.9
 20
-1015.54
 30
0.000000
  70
    32
  0
VERTEX
  8
01
  5
14265
 10
15486.1
 20
-1015.60
 30
0.000000
  70
    32
  0
VERTEX
  8
01
  5
14266
 10
15486.3
 20
-1015.64
 30
0.000000
  70
    32
  0
VERTEX
  8
01
  5
14267
 10
15486.5
 20
-1015.68
 30
0.000000
  70
    32
  0
VERTEX
  8
01
  5
14268
 10
15486.7
 20
-1015.70
 30
0.000000
  70
    32
  0
VERTEX
  8
01
  5
14269
 10
15486.9
 20
-1015.70
 30
0.000000
  70
    32
  0
VERTEX
  8
01
  5
1426A
 10
15487.1
 20
-1015.70
 30
0.000000
  70
    32
  0
VERTEX
  8
01
  5
1426B
 10
15487.3
 20
-1015.68
 30
0.000000
  70
    32
  0
VERTEX
  8
01
  5
1426C
 10
15487.5
 20
-1015.64
 30
0.000000
  70
    32
  0
VERTEX
  8
01
  5
1426D
 10
15487.7
 20
-1015.60
 30
0.000000
  70
    32
  0
VERTEX
  8
01
  5
1426E
 10
15487.9
 20
-1015.54
 30
0.000000
  70
    32
  0
VERTEX
  8
01
  5
1426F
 10
15488.1
 20
-1015.47
 30
0.000000
  70
    32
  0
VERTEX
  8
01
  5
14270
 10
15488.2
 20
-1015.38
 30
0.000000
  70
    32
  0
VERTEX
  8
01
  5
14271
 10
15488.4
 20
-1015.28
 30
0.000000
  70
    32
  0
VERTEX
  8
01
  5
14272
 10
15488.6
 20
-1015.18
 30
0.000000
  70
    32
  0
VERTEX
  8
01
  5
14273
 10
15488.8
 20
-1015.05
 30
0.000000
  70
    32
  0
VERTEX
  8
01
  5
14274
 10
15488.9
 20
-1014.92
 30
0.000000
  70
    32
  0
VERTEX
  8
01
  5
14275
 10
15489.1
 20
-1014.78
 30
0.000000
  70
    32
  0
VERTEX
  8
01
  5
14276
 10
15489.3
 20
-1014.62
 30
0.000000
  70
    32
  0
VERTEX
  8
01
  5
14277
 10
15489.4
 20
-1014.45
 30
0.000000
  70
    32
  0
VERTEX
  8
01
  5
14278
 10
15489.6
 20
-1014.28
 30
0.000000
  70
    32
  0
VERTEX
  8
01
  5
14279
 10
15489.7
 20
-1014.09
 30
0.000000
  70
    32
  0
VERTEX
  8
01
  5
1427A
 10
15489.8
 20
-1013.90
 30
0.000000
  70
    32
  0
VERTEX
  8
01
  5
1427B
 10
15490.0
 20
-1013.69
 30
0.000000
  70
    32
  0
VERTEX
  8
01
  5
1427C
 10
15490.1
 20
-1013.48
 30
0.000000
  70
    32
  0
VERTEX
  8
01
  5
1427D
 10
15490.2
 20
-1013.26
 30
0.000000
  70
    32
  0
VERTEX
  8
01
  5
1427E
 10
15490.3
 20
-1013.03
 30
0.000000
  70
    32
  0
VERTEX
  8
01
  5
1427F
 10
15490.4
 20
-1012.80
 30
0.000000
  70
    32
  0
VERTEX
  8
01
  5
14280
 10
15490.5
 20
-1012.55
 30
0.000000
  70
    32
  0
VERTEX
  8
01
  5
14281
 10
15490.6
 20
-1012.31
 30
0.000000
  70
    32
  0
VERTEX
  8
01
  5
14282
 10
15490.6
 20
-1012.06
 30
0.000000
  70
    32
  0
VERTEX
  8
01
  5
14283
 10
15490.7
 20
-1011.80
 30
0.000000
  70
    32
  0
VERTEX
  8
01
  5
14284
 10
15490.8
 20
-1011.54
 30
0.000000
  70
    32
  0
VERTEX
  8
01
  5
14285
 10
15490.8
 20
-1011.28
 30
0.000000
  70
    32
  0
VERTEX
  8
01
  5
14286
 10
15490.8
 20
-1011.01
 30
0.000000
  70
    32
  0
VERTEX
  8
01
  5
14287
 10
15490.9
 20
-1010.74
 30
0.000000
  70
    32
  0
VERTEX
  8
01
  5
14288
 10
15490.9
 20
-1010.47
 30
0.000000
  70
    32
  0
VERTEX
  8
01
  5
14289
 10
15490.9
 20
-1010.20
 30
0.000000
  70
    32
  0
VERTEX
  8
01
  5
1428A
 10
15490.9
 20
-1009.93
 30
0.000000
  70
    32
  0
VERTEX
  8
01
  5
1428B
 10
15490.9
 20
-1009.66
 30
0.000000
  70
    32
  0
VERTEX
  8
01
  5
1428C
 10
15490.8
 20
-1009.40
 30
0.000000
  70
    32
  0
VERTEX
  8
01
  5
1428D
 10
15490.8
 20
-1009.13
 30
0.000000
  70
    32
  0
VERTEX
  8
01
  5
1428E
 10
15490.8
 20
-1008.87
 30
0.000000
  70
    32
  0
VERTEX
  8
01
  5
1428F
 10
15490.7
 20
-1008.61
 30
0.000000
  70
    32
  0
VERTEX
  8
01
  5
14290
 10
15490.6
 20
-1008.35
 30
0.000000
  70
    32
  0
VERTEX
  8
01
  5
14291
 10
15490.6
 20
-1008.10
 30
0.000000
  70
    32
  0
VERTEX
  8
01
  5
14292
 10
15490.5
 20
-1007.85
 30
0.000000
  70
    32
  0
VERTEX
  8
01
  5
14293
 10
15490.4
 20
-1007.61
 30
0.000000
  70
    32
  0
VERTEX
  8
01
  5
14294
 10
15490.3
 20
-1007.38
 30
0.000000
  70
    32
  0
VERTEX
  8
01
  5
14295
 10
15490.2
 20
-1007.15
 30
0.000000
  70
    32
  0
VERTEX
  8
01
  5
14296
 10
15490.1
 20
-1006.93
 30
0.000000
  70
    32
  0
VERTEX
  8
01
  5
14297
 10
15490.0
 20
-1006.71
 30
0.000000
  70
    32
  0
VERTEX
  8
01
  5
14298
 10
15489.8
 20
-1006.51
 30
0.000000
  70
    32
  0
VERTEX
  8
01
  5
14299
 10
15489.7
 20
-1006.31
 30
0.000000
  70
    32
  0
VERTEX
  8
01
  5
1429A
 10
15489.6
 20
-1006.13
 30
0.000000
  70
    32
  0
VERTEX
  8
01
  5
1429B
 10
15489.4
 20
-1005.95
 30
0.000000
  70
    32
  0
VERTEX
  8
01
  5
1429C
 10
15489.3
 20
-1005.79
 30
0.000000
  70
    32
  0
VERTEX
  8
01
  5
1429D
 10
15489.1
 20
-1005.63
 30
0.000000
  70
    32
  0
VERTEX
  8
01
  5
1429E
 10
15488.9
 20
-1005.49
 30
0.000000
  70
    32
  0
VERTEX
  8
01
  5
1429F
 10
15488.8
 20
-1005.35
 30
0.000000
  70
    32
  0
VERTEX
  8
01
  5
142A0
 10
15488.6
 20
-1005.23
 30
0.000000
  70
    32
  0
VERTEX
  8
01
  5
142A1
 10
15488.4
 20
-1005.12
 30
0.000000
  70
    32
  0
VERTEX
  8
01
  5
142A2
 10
15488.2
 20
-1005.02
 30
0.000000
  70
    32
  0
VERTEX
  8
01
  5
142A3
 10
15488.1
 20
-1004.94
 30
0.000000
  70
    32
  0
VERTEX
  8
01
  5
142A4
 10
15487.9
 20
-1004.87
 30
0.000000
  70
    32
  0
VERTEX
  8
01
  5
142A5
 10
15487.7
 20
-1004.81
 30
0.000000
  70
    32
  0
VERTEX
  8
01
  5
142A6
 10
15487.5
 20
-1004.76
 30
0.000000
  70
    32
  0
VERTEX
  8
01
  5
142A7
 10
15487.3
 20
-1004.73
 30
0.000000
  70
    32
  0
VERTEX
  8
01
  5
142A8
 10
15487.1
 20
-1004.71
 30
0.000000
  70
    32
  0
VERTEX
  8
01
  5
142A9
 10
15486.9
 20
-1004.70
 30
0.000000
  70
    32
  0
SEQEND
  8
01
  5
142AA
  0
POLYLINE
  5
1391F
  8
01
 10
15456.58601222057
 20
-1004.703088363212
 30
0.0
 66
     1
 70
     8
  0
VERTEX
  8
01
  5
142AB
 10
15456.6
 20
-1004.70
 30
0.000000
  70
    32
  0
VERTEX
  8
01
  5
142AC
 10
15456.8
 20
-1004.71
 30
0.000000
  70
    32
  0
VERTEX
  8
01
  5
142AD
 10
15457.0
 20
-1004.73
 30
0.000000
  70
    32
  0
VERTEX
  8
01
  5
142AE
 10
15457.2
 20
-1004.76
 30
0.000000
  70
    32
  0
VERTEX
  8
01
  5
142AF
 10
15457.4
 20
-1004.81
 30
0.000000
  70
    32
  0
VERTEX
  8
01
  5
142B0
 10
15457.5
 20
-1004.87
 30
0.000000
  70
    32
  0
VERTEX
  8
01
  5
142B1
 10
15457.7
 20
-1004.94
 30
0.000000
  70
    32
  0
VERTEX
  8
01
  5
142B2
 10
15457.9
 20
-1005.02
 30
0.000000
  70
    32
  0
VERTEX
  8
01
  5
142B3
 10
15458.1
 20
-1005.12
 30
0.000000
  70
    32
  0
VERTEX
  8
01
  5
142B4
 10
15458.3
 20
-1005.23
 30
0.000000
  70
    32
  0
VERTEX
  8
01
  5
142B5
 10
15458.5
 20
-1005.35
 30
0.000000
  70
    32
  0
VERTEX
  8
01
  5
142B6
 10
15458.6
 20
-1005.49
 30
0.000000
  70
    32
  0
VERTEX
  8
01
  5
142B7
 10
15458.8
 20
-1005.63
 30
0.000000
  70
    32
  0
VERTEX
  8
01
  5
142B8
 10
15458.9
 20
-1005.79
 30
0.000000
  70
    32
  0
VERTEX
  8
01
  5
142B9
 10
15459.1
 20
-1005.95
 30
0.000000
  70
    32
  0
VERTEX
  8
01
  5
142BA
 10
15459.2
 20
-1006.13
 30
0.000000
  70
    32
  0
VERTEX
  8
01
  5
142BB
 10
15459.4
 20
-1006.31
 30
0.000000
  70
    32
  0
VERTEX
  8
01
  5
142BC
 10
15459.5
 20
-1006.51
 30
0.000000
  70
    32
  0
VERTEX
  8
01
  5
142BD
 10
15459.6
 20
-1006.71
 30
0.000000
  70
    32
  0
VERTEX
  8
01
  5
142BE
 10
15459.8
 20
-1006.93
 30
0.000000
  70
    32
  0
VERTEX
  8
01
  5
142BF
 10
15459.9
 20
-1007.15
 30
0.000000
  70
    32
  0
VERTEX
  8
01
  5
142C0
 10
15460.0
 20
-1007.38
 30
0.000000
  70
    32
  0
VERTEX
  8
01
  5
142C1
 10
15460.1
 20
-1007.61
 30
0.000000
  70
    32
  0
VERTEX
  8
01
  5
142C2
 10
15460.2
 20
-1007.85
 30
0.000000
  70
    32
  0
VERTEX
  8
01
  5
142C3
 10
15460.2
 20
-1008.10
 30
0.000000
  70
    32
  0
VERTEX
  8
01
  5
142C4
 10
15460.3
 20
-1008.35
 30
0.000000
  70
    32
  0
VERTEX
  8
01
  5
142C5
 10
15460.4
 20
-1008.61
 30
0.000000
  70
    32
  0
VERTEX
  8
01
  5
142C6
 10
15460.4
 20
-1008.87
 30
0.000000
  70
    32
  0
VERTEX
  8
01
  5
142C7
 10
15460.5
 20
-1009.13
 30
0.000000
  70
    32
  0
VERTEX
  8
01
  5
142C8
 10
15460.5
 20
-1009.40
 30
0.000000
  70
    32
  0
VERTEX
  8
01
  5
142C9
 10
15460.5
 20
-1009.66
 30
0.000000
  70
    32
  0
VERTEX
  8
01
  5
142CA
 10
15460.5
 20
-1009.93
 30
0.000000
  70
    32
  0
VERTEX
  8
01
  5
142CB
 10
15460.5
 20
-1010.20
 30
0.000000
  70
    32
  0
VERTEX
  8
01
  5
142CC
 10
15460.5
 20
-1010.47
 30
0.000000
  70
    32
  0
VERTEX
  8
01
  5
142CD
 10
15460.5
 20
-1010.74
 30
0.000000
  70
    32
  0
VERTEX
  8
01
  5
142CE
 10
15460.5
 20
-1011.01
 30
0.000000
  70
    32
  0
VERTEX
  8
01
  5
142CF
 10
15460.5
 20
-1011.28
 30
0.000000
  70
    32
  0
VERTEX
  8
01
  5
142D0
 10
15460.4
 20
-1011.54
 30
0.000000
  70
    32
  0
VERTEX
  8
01
  5
142D1
 10
15460.4
 20
-1011.80
 30
0.000000
  70
    32
  0
VERTEX
  8
01
  5
142D2
 10
15460.3
 20
-1012.06
 30
0.000000
  70
    32
  0
VERTEX
  8
01
  5
142D3
 10
15460.2
 20
-1012.31
 30
0.000000
  70
    32
  0
VERTEX
  8
01
  5
142D4
 10
15460.2
 20
-1012.55
 30
0.000000
  70
    32
  0
VERTEX
  8
01
  5
142D5
 10
15460.1
 20
-1012.80
 30
0.000000
  70
    32
  0
VERTEX
  8
01
  5
142D6
 10
15460.0
 20
-1013.03
 30
0.000000
  70
    32
  0
VERTEX
  8
01
  5
142D7
 10
15459.9
 20
-1013.26
 30
0.000000
  70
    32
  0
VERTEX
  8
01
  5
142D8
 10
15459.8
 20
-1013.48
 30
0.000000
  70
    32
  0
VERTEX
  8
01
  5
142D9
 10
15459.6
 20
-1013.69
 30
0.000000
  70
    32
  0
VERTEX
  8
01
  5
142DA
 10
15459.5
 20
-1013.90
 30
0.000000
  70
    32
  0
VERTEX
  8
01
  5
142DB
 10
15459.4
 20
-1014.09
 30
0.000000
  70
    32
  0
VERTEX
  8
01
  5
142DC
 10
15459.2
 20
-1014.28
 30
0.000000
  70
    32
  0
VERTEX
  8
01
  5
142DD
 10
15459.1
 20
-1014.45
 30
0.000000
  70
    32
  0
VERTEX
  8
01
  5
142DE
 10
15458.9
 20
-1014.62
 30
0.000000
  70
    32
  0
VERTEX
  8
01
  5
142DF
 10
15458.8
 20
-1014.78
 30
0.000000
  70
    32
  0
VERTEX
  8
01
  5
142E0
 10
15458.6
 20
-1014.92
 30
0.000000
  70
    32
  0
VERTEX
  8
01
  5
142E1
 10
15458.5
 20
-1015.05
 30
0.000000
  70
    32
  0
VERTEX
  8
01
  5
142E2
 10
15458.3
 20
-1015.18
 30
0.000000
  70
    32
  0
VERTEX
  8
01
  5
142E3
 10
15458.1
 20
-1015.28
 30
0.000000
  70
    32
  0
VERTEX
  8
01
  5
142E4
 10
15457.9
 20
-1015.38
 30
0.000000
  70
    32
  0
VERTEX
  8
01
  5
142E5
 10
15457.7
 20
-1015.47
 30
0.000000
  70
    32
  0
VERTEX
  8
01
  5
142E6
 10
15457.5
 20
-1015.54
 30
0.000000
  70
    32
  0
VERTEX
  8
01
  5
142E7
 10
15457.4
 20
-1015.60
 30
0.000000
  70
    32
  0
VERTEX
  8
01
  5
142E8
 10
15457.2
 20
-1015.64
 30
0.000000
  70
    32
  0
VERTEX
  8
01
  5
142E9
 10
15457.0
 20
-1015.68
 30
0.000000
  70
    32
  0
VERTEX
  8
01
  5
142EA
 10
15456.8
 20
-1015.70
 30
0.000000
  70
    32
  0
VERTEX
  8
01
  5
142EB
 10
15456.6
 20
-1015.70
 30
0.000000
  70
    32
  0
VERTEX
  8
01
  5
142EC
 10
15456.4
 20
-1015.70
 30
0.000000
  70
    32
  0
VERTEX
  8
01
  5
142ED
 10
15456.2
 20
-1015.68
 30
0.000000
  70
    32
  0
VERTEX
  8
01
  5
142EE
 10
15456.0
 20
-1015.64
 30
0.000000
  70
    32
  0
VERTEX
  8
01
  5
142EF
 10
15455.8
 20
-1015.60
 30
0.000000
  70
    32
  0
VERTEX
  8
01
  5
142F0
 10
15455.6
 20
-1015.54
 30
0.000000
  70
    32
  0
VERTEX
  8
01
  5
142F1
 10
15455.4
 20
-1015.47
 30
0.000000
  70
    32
  0
VERTEX
  8
01
  5
142F2
 10
15455.3
 20
-1015.38
 30
0.000000
  70
    32
  0
VERTEX
  8
01
  5
142F3
 10
15455.1
 20
-1015.28
 30
0.000000
  70
    32
  0
VERTEX
  8
01
  5
142F4
 10
15454.9
 20
-1015.18
 30
0.000000
  70
    32
  0
VERTEX
  8
01
  5
142F5
 10
15454.7
 20
-1015.05
 30
0.000000
  70
    32
  0
VERTEX
  8
01
  5
142F6
 10
15454.5
 20
-1014.92
 30
0.000000
  70
    32
  0
VERTEX
  8
01
  5
142F7
 10
15454.4
 20
-1014.78
 30
0.000000
  70
    32
  0
VERTEX
  8
01
  5
142F8
 10
15454.2
 20
-1014.62
 30
0.000000
  70
    32
  0
VERTEX
  8
01
  5
142F9
 10
15454.1
 20
-1014.45
 30
0.000000
  70
    32
  0
VERTEX
  8
01
  5
142FA
 10
15453.9
 20
-1014.28
 30
0.000000
  70
    32
  0
VERTEX
  8
01
  5
142FB
 10
15453.8
 20
-1014.09
 30
0.000000
  70
    32
  0
VERTEX
  8
01
  5
142FC
 10
15453.6
 20
-1013.90
 30
0.000000
  70
    32
  0
VERTEX
  8
01
  5
142FD
 10
15453.5
 20
-1013.69
 30
0.000000
  70
    32
  0
VERTEX
  8
01
  5
142FE
 10
15453.4
 20
-1013.48
 30
0.000000
  70
    32
  0
VERTEX
  8
01
  5
142FF
 10
15453.3
 20
-1013.26
 30
0.000000
  70
    32
  0
VERTEX
  8
01
  5
14300
 10
15453.2
 20
-1013.03
 30
0.000000
  70
    32
  0
VERTEX
  8
01
  5
14301
 10
15453.1
 20
-1012.80
 30
0.000000
  70
    32
  0
VERTEX
  8
01
  5
14302
 10
15453.0
 20
-1012.55
 30
0.000000
  70
    32
  0
VERTEX
  8
01
  5
14303
 10
15452.9
 20
-1012.31
 30
0.000000
  70
    32
  0
VERTEX
  8
01
  5
14304
 10
15452.9
 20
-1012.06
 30
0.000000
  70
    32
  0
VERTEX
  8
01
  5
14305
 10
15452.8
 20
-1011.80
 30
0.000000
  70
    32
  0
VERTEX
  8
01
  5
14306
 10
15452.7
 20
-1011.54
 30
0.000000
  70
    32
  0
VERTEX
  8
01
  5
14307
 10
15452.7
 20
-1011.28
 30
0.000000
  70
    32
  0
VERTEX
  8
01
  5
14308
 10
15452.7
 20
-1011.01
 30
0.000000
  70
    32
  0
VERTEX
  8
01
  5
14309
 10
15452.6
 20
-1010.74
 30
0.000000
  70
    32
  0
VERTEX
  8
01
  5
1430A
 10
15452.6
 20
-1010.47
 30
0.000000
  70
    32
  0
VERTEX
  8
01
  5
1430B
 10
15452.6
 20
-1010.20
 30
0.000000
  70
    32
  0
VERTEX
  8
01
  5
1430C
 10
15452.6
 20
-1009.93
 30
0.000000
  70
    32
  0
VERTEX
  8
01
  5
1430D
 10
15452.6
 20
-1009.66
 30
0.000000
  70
    32
  0
VERTEX
  8
01
  5
1430E
 10
15452.7
 20
-1009.40
 30
0.000000
  70
    32
  0
VERTEX
  8
01
  5
1430F
 10
15452.7
 20
-1009.13
 30
0.000000
  70
    32
  0
VERTEX
  8
01
  5
14310
 10
15452.7
 20
-1008.87
 30
0.000000
  70
    32
  0
VERTEX
  8
01
  5
14311
 10
15452.8
 20
-1008.61
 30
0.000000
  70
    32
  0
VERTEX
  8
01
  5
14312
 10
15452.9
 20
-1008.35
 30
0.000000
  70
    32
  0
VERTEX
  8
01
  5
14313
 10
15452.9
 20
-1008.10
 30
0.000000
  70
    32
  0
VERTEX
  8
01
  5
14314
 10
15453.0
 20
-1007.85
 30
0.000000
  70
    32
  0
VERTEX
  8
01
  5
14315
 10
15453.1
 20
-1007.61
 30
0.000000
  70
    32
  0
VERTEX
  8
01
  5
14316
 10
15453.2
 20
-1007.38
 30
0.000000
  70
    32
  0
VERTEX
  8
01
  5
14317
 10
15453.3
 20
-1007.15
 30
0.000000
  70
    32
  0
VERTEX
  8
01
  5
14318
 10
15453.4
 20
-1006.93
 30
0.000000
  70
    32
  0
VERTEX
  8
01
  5
14319
 10
15453.5
 20
-1006.71
 30
0.000000
  70
    32
  0
VERTEX
  8
01
  5
1431A
 10
15453.6
 20
-1006.51
 30
0.000000
  70
    32
  0
VERTEX
  8
01
  5
1431B
 10
15453.8
 20
-1006.31
 30
0.000000
  70
    32
  0
VERTEX
  8
01
  5
1431C
 10
15453.9
 20
-1006.13
 30
0.000000
  70
    32
  0
VERTEX
  8
01
  5
1431D
 10
15454.1
 20
-1005.95
 30
0.000000
  70
    32
  0
VERTEX
  8
01
  5
1431E
 10
15454.2
 20
-1005.79
 30
0.000000
  70
    32
  0
VERTEX
  8
01
  5
1431F
 10
15454.4
 20
-1005.63
 30
0.000000
  70
    32
  0
VERTEX
  8
01
  5
14320
 10
15454.5
 20
-1005.49
 30
0.000000
  70
    32
  0
VERTEX
  8
01
  5
14321
 10
15454.7
 20
-1005.35
 30
0.000000
  70
    32
  0
VERTEX
  8
01
  5
14322
 10
15454.9
 20
-1005.23
 30
0.000000
  70
    32
  0
VERTEX
  8
01
  5
14323
 10
15455.1
 20
-1005.12
 30
0.000000
  70
    32
  0
VERTEX
  8
01
  5
14324
 10
15455.3
 20
-1005.02
 30
0.000000
  70
    32
  0
VERTEX
  8
01
  5
14325
 10
15455.4
 20
-1004.94
 30
0.000000
  70
    32
  0
VERTEX
  8
01
  5
14326
 10
15455.6
 20
-1004.87
 30
0.000000
  70
    32
  0
VERTEX
  8
01
  5
14327
 10
15455.8
 20
-1004.81
 30
0.000000
  70
    32
  0
VERTEX
  8
01
  5
14328
 10
15456.0
 20
-1004.76
 30
0.000000
  70
    32
  0
VERTEX
  8
01
  5
14329
 10
15456.2
 20
-1004.73
 30
0.000000
  70
    32
  0
VERTEX
  8
01
  5
1432A
 10
15456.4
 20
-1004.71
 30
0.000000
  70
    32
  0
VERTEX
  8
01
  5
1432B
 10
15456.6
 20
-1004.70
 30
0.000000
  70
    32
  0
SEQEND
  8
01
  5
1432C
  0
LINE
  5
13B07
  8
01
 10
15394.249012220571
 20
-844.40308836321265
 30
0.0
 11
15394.249012220571
 21
-855.90308836321162
 31
0.0
  0
LINE
  5
13B08
  8
01
 10
15385.249012220571
 20
-844.40308836321265
 30
0.0
 11
15438.249012220571
 21
-844.40308836321253
 31
0.0
  0
ARC
  5
13B09
  8
01
 10
15385.249012220571
 20
-843.90308836321265
 30
0.0
 40
0.5
 50
180.0
 51
270.0
  0
LINE
  5
13B0A
  8
01
 10
15384.749012220571
 20
-842.79688418433796
 30
0.0
 11
15384.749012220571
 21
-843.90308836321265
 31
0.0
  0
ARC
  5
13B0B
  8
01
 10
15411.749012220571
 20
-938.70308836321192
 30
0.0
 40
100.0
 50
74.553904827791001
 51
105.4460951722089
  0
ARC
  5
13B0C
  8
01
 10
15385.249012220571
 20
-842.79688418433796
 30
0.0
 40
0.5
 50
105.4460951722089
 51
180.0
  0
LINE
  5
13B0D
  8
01
 10
15400.647210564979
 20
-855.90308836321162
 30
0.0
 11
15400.647210564979
 21
-844.40308836321265
 31
0.0
  0
LINE
  5
13B0E
  8
01
 10
15394.508072571
 20
-855.90308836321162
 30
0.0
 11
15394.508072571
 21
-844.40308836321265
 31
0.0
  0
LINE
  5
13B0F
  8
01
 10
15384.92384970455
 20
-842.41705614669581
 30
0.0
 11
15438.574174736579
 21
-842.41705614669581
 31
0.0
  0
LINE
  5
13B25
  8
01
 10
15429.249012220571
 20
-844.40308836321265
 30
0.0
 11
15429.24901222056
 21
-855.90308836321162
 31
0.0
  0
ARC
  5
13B26
  8
01
 10
15438.249012220571
 20
-843.90308836321265
 30
0.0
 40
0.5
 50
270.0
 51
0.0
  0
LINE
  5
13B27
  8
01
 10
15438.749012220571
 20
-842.79688418433796
 30
0.0
 11
15438.749012220571
 21
-843.90308836321265
 31
0.0
  0
ARC
  5
13B28
  8
01
 10
15438.249012220571
 20
-842.79688418433796
 30
0.0
 40
0.5
 50
0.0
 51
74.553904827791115
  0
LINE
  5
13B29
  8
01
 10
15422.85081387615
 20
-855.90308836321162
 30
0.0
 11
15422.85081387615
 21
-844.40308836321265
 31
0.0
  0
LINE
  5
13B2A
  8
01
 10
15428.98995187013
 20
-855.90308836321162
 30
0.0
 11
15428.98995187013
 21
-844.40308836321265
 31
0.0
  0
LINE
  5
13C37
  8
01
 10
15441.749012220571
 20
-1049.4030883632111
 30
0.0
 11
15612.042049268181
 21
-1049.4030883632111
 31
0.0
  0
LINE
  5
13C38
  8
01
 10
15501.749012220571
 20
-968.90308836321174
 30
0.0
 11
15612.042049268181
 21
-968.90308836321174
 31
0.0
  0
LINE
  5
13C39
  8
01
 10
15610.042049268181
 20
-1045.403088363212
 30
0.0
 11
15610.042049268181
 21
-972.90308836321185
 31
0.0
  0
LINE
  5
13C3D
  8
01
 10
15411.749012220571
 20
-1014.953707357304
 30
0.0
 11
15411.749012220571
 21
-1125.4558568906889
 31
0.0
  0
LINE
  5
13C3E
  8
01
 10
15471.749012220571
 20
-1019.403088363212
 30
0.0
 11
15471.749012220571
 21
-1125.4558568906889
 31
0.0
  0
LINE
  5
13C3F
  8
01
 10
15415.749012220571
 20
-1123.4558568906889
 30
0.0
 11
15467.749012220571
 21
-1123.4558568906889
 31
0.0
  0
LINE
  5
13C43
  8
01
 10
15385.249012220571
 20
-855.90308836321162
 30
0.0
 11
15313.727680118471
 21
-855.90308836321162
 31
0.0
  0
LINE
  5
13C44
  8
01
 10
15441.749012220571
 20
-1049.4030883632111
 30
0.0
 11
15313.727680118471
 21
-1049.4030883632111
 31
0.0
  0
LINE
  5
13C45
  8
01
 10
15315.727680118471
 20
-859.90308836321174
 30
0.0
 11
15315.727680118471
 21
-1045.403088363212
 31
0.0
  0
LINE
  5
13C49
  8
01
 10
15385.249012220571
 20
-855.90308836321162
 30
0.0
 11
15295.16463970628
 21
-855.90308836321162
 31
0.0
  0
LINE
  5
13C4A
  8
01
 10
15519.249012220571
 20
-1111.9030883632111
 30
0.0
 11
15295.16463970628
 21
-1111.9030883632111
 31
0.0
  0
LINE
  5
13C4B
  8
01
 10
15297.16463970627
 20
-859.90308836321174
 30
0.0
 11
15297.16463970627
 21
-1107.903088363212
 31
0.0
  0
TEXT
  5
13C4F
  8
01
 10
15331.84826923881
 20
-875.4007325908359
 30
0.0
 40
7.0
  1
W32-16
  0
LINE
  5
13C52
  8
01
 10
15384.749012220571
 20
-856.40308836321174
 30
0.0
 11
15384.749012220571
 21
-805.87608567008942
 31
0.0
  0
LINE
  5
13C53
  8
01
 10
15438.749012220571
 20
-856.40308836321174
 30
0.0
 11
15438.749012220571
 21
-805.87608567008942
 31
0.0
  0
LINE
  5
13C54
  8
01
 10
15388.749012220571
 20
-807.87608567008942
 30
0.0
 11
15434.749012220571
 21
-807.87608567008942
 31
0.0
  0
LINE
  5
13C58
  8
01
 10
15501.749012220571
 20
-968.90308836321174
 30
0.0
 11
15628.064596644461
 21
-968.90308836321185
 31
0.0
  0
LINE
  5
13C59
  8
01
 10
15544.249012220571
 20
-1111.9030883632111
 30
0.0
 11
15628.064596644461
 21
-1111.9030883632111
 31
0.0
  0
LINE
  5
13C5A
  8
01
 10
15626.064596644461
 20
-972.90308836321185
 30
0.0
 11
15626.064596644461
 21
-1107.903088363212
 31
0.0
  0
LINE
  5
13C5E
  8
01
 10
15438.249056283519
 20
-855.90308836127019
 30
0.0
 11
15628.064596644461
 21
-855.90308836127019
 31
0.0
  0
LINE
  5
13C5F
  8
01
 10
15501.749012220571
 20
-968.90308836321174
 30
0.0
 11
15628.064596644461
 21
-968.90308836321185
 31
0.0
  0
LINE
  5
13C60
  8
01
 10
15626.064596644461
 20
-859.90308836127031
 30
0.0
 11
15626.064596644461
 21
-964.90308836321185
 31
0.0
  0
LINE
  5
13C64
  8
01
 10
15441.749012220571
 20
-1036.9030883632111
 30
0.0
 11
15593.927911889699
 21
-1036.9030883632111
 31
0.0
  0
LINE
  5
13C65
  8
01
 10
15501.749012220571
 20
-981.40308836321174
 30
0.0
 11
15593.927911889699
 21
-981.40308836321174
 31
0.0
  0
LINE
  5
13C66
  8
01
 10
15591.927911889699
 20
-985.40308836321185
 30
0.0
 11
15591.927911889699
 21
-1032.9030883632111
 31
0.0
  0
LINE
  5
13C67
  8
01
 10
15591.927911889699
 20
-1036.9030883632111
 30
0.0
 11
15591.927911889699
 21
-1109.0364216965449
 31
0.0
  0
LINE
  5
13C6B
  8
01
 10
15411.749012220571
 20
-1019.403088363212
 30
0.0
 11
15411.749012220571
 21
-1140.10078897978
 31
0.0
  0
LINE
  5
13C6C
  8
01
 10
15531.749012220571
 20
-1115.071691072543
 30
0.0
 11
15531.749012220571
 21
-1140.10078897978
 31
0.0
  0
LINE
  5
13C6D
  8
01
 10
15415.749012220571
 20
-1138.10078897978
 30
0.0
 11
15527.749012220571
 21
-1138.10078897978
 31
0.0
  0
LINE
  5
13C71
  8
01
 10
15519.249012220571
 20
-1111.9030883632111
 30
0.0
 11
15519.249012220571
 21
-1156.6606684321289
 31
0.0
  0
LINE
  5
13C72
  8
01
 10
15544.249012220571
 20
-1111.9030883632111
 30
0.0
 11
15544.249012220571
 21
-1156.6606684321289
 31
0.0
  0
LINE
  5
13C73
  8
01
 10
15523.249012220571
 20
-1154.6606684321289
 30
0.0
 11
15540.249012220571
 21
-1154.6606684321289
 31
0.0
  0
LINE
  5
13C77
  8
01
 10
15501.749012220571
 20
-1096.903088363212
 30
0.0
 11
15501.749012220571
 21
-1169.783520549521
 31
0.0
  0
LINE
  5
13C78
  8
01
 10
15561.749012220571
 20
-1096.903088363212
 30
0.0
 11
15561.749012220571
 21
-1169.783520549521
 31
0.0
  0
LINE
  5
13C79
  8
01
 10
15505.749012220571
 20
-1167.783520549521
 30
0.0
 11
15557.749012220571
 21
-1167.783520549521
 31
0.0
  0
TEXT
  5
13C7D
  8
01
 10
15744.57523342274
 20
-1198.6602135554319
 30
0.0
 40
16.0
  1
S=1:2
  0
TEXT
  5
13C7E
  8
01
 10
15149.833775621821
 20
-744.58239594072745
 30
0.0
 40
16.0
  1
HFE
  0
TEXT
  5
13C7F
  8
01
 10
15520.6823455539
 20
-1166.3835205495211
 30
0.0
 40
7.0
  1
φ60
  0
LINE
  5
13C80
  8
01
  6
BYBLOCK
 10
15557.749012220571
 20
-1166.7117237895211
 30
0.0
 11
15561.749012220571
 21
-1167.783520549521
 31
0.0
  0
LINE
  5
13C81
  8
01
  6
BYBLOCK
 10
15561.749012220571
 20
-1167.783520549521
 30
0.0
 11
15557.749012220571
 21
-1168.8553173095211
 31
0.0
  0
LINE
  5
13C82
  8
01
  6
BYBLOCK
 10
15561.749012220571
 20
-1167.783520549521
 30
0.0
 11
15557.749012220571
 21
-1167.783520549521
 31
0.0
  0
LINE
  5
13C83
  8
01
  6
BYBLOCK
 10
15505.749012220571
 20
-1168.8553173095211
 30
0.0
 11
15501.749012220571
 21
-1167.783520549521
 31
0.0
  0
LINE
  5
13C84
  8
01
  6
BYBLOCK
 10
15501.749012220571
 20
-1167.783520549521
 30
0.0
 11
15505.749012220571
 21
-1166.7117237895211
 31
0.0
  0
LINE
  5
13C85
  8
01
  6
BYBLOCK
 10
15501.749012220571
 20
-1167.783520549521
 30
0.0
 11
15505.749012220571
 21
-1167.783520549521
 31
0.0
  0
TEXT
  5
13C86
  8
01
 10
15520.6823455539
 20
-1153.260668432129
 30
0.0
 40
7.0
  1
φ25
  0
LINE
  5
13C87
  8
01
  6
BYBLOCK
 10
15540.249012220571
 20
-1153.588871672129
 30
0.0
 11
15544.249012220571
 21
-1154.6606684321289
 31
0.0
  0
LINE
  5
13C88
  8
01
  6
BYBLOCK
 10
15544.249012220571
 20
-1154.6606684321289
 30
0.0
 11
15540.249012220571
 21
-1155.732465192129
 31
0.0
  0
LINE
  5
13C89
  8
01
  6
BYBLOCK
 10
15544.249012220571
 20
-1154.6606684321289
 30
0.0
 11
15540.249012220571
 21
-1154.6606684321289
 31
0.0
  0
LINE
  5
13C8A
  8
01
  6
BYBLOCK
 10
15523.249012220571
 20
-1155.732465192129
 30
0.0
 11
15519.249012220571
 21
-1154.6606684321289
 31
0.0
  0
LINE
  5
13C8B
  8
01
  6
BYBLOCK
 10
15519.249012220571
 20
-1154.6606684321289
 30
0.0
 11
15523.249012220571
 21
-1153.588871672129
 31
0.0
  0
LINE
  5
13C8C
  8
01
  6
BYBLOCK
 10
15519.249012220571
 20
-1154.6606684321289
 30
0.0
 11
15523.249012220571
 21
-1154.6606684321289
 31
0.0
  0
TEXT
  5
13C8D
  8
01
 10
15461.249012220571
 20
-1136.7007889797801
 30
0.0
 40
7.0
  1
120
  0
LINE
  5
13C8E
  8
01
  6
BYBLOCK
 10
15527.749012220571
 20
-1137.0289922197801
 30
0.0
 11
15531.749012220571
 21
-1138.10078897978
 31
0.0
  0
LINE
  5
13C8F
  8
01
  6
BYBLOCK
 10
15531.749012220571
 20
-1138.10078897978
 30
0.0
 11
15527.749012220571
 21
-1139.1725857397801
 31
0.0
  0
LINE
  5
13C90
  8
01
  6
BYBLOCK
 10
15531.749012220571
 20
-1138.10078897978
 30
0.0
 11
15527.749012220571
 21
-1138.10078897978
 31
0.0
  0
LINE
  5
13C91
  8
01
  6
BYBLOCK
 10
15415.749012220571
 20
-1139.1725857397801
 30
0.0
 11
15411.749012220571
 21
-1138.10078897978
 31
0.0
  0
LINE
  5
13C92
  8
01
  6
BYBLOCK
 10
15411.749012220571
 20
-1138.10078897978
 30
0.0
 11
15415.749012220571
 21
-1137.0289922197801
 31
0.0
  0
LINE
  5
13C93
  8
01
  6
BYBLOCK
 10
15411.749012220571
 20
-1138.10078897978
 30
0.0
 11
15415.749012220571
 21
-1138.10078897978
 31
0.0
  0
TEXT
  5
13C94
  8
01
 10
15590.5279118897
 20
-1107.636421696543
 30
0.0
 40
7.0
  1
封水深さ５０以上
 50
90.0
  0
LINE
  5
13C95
  8
01
  6
BYBLOCK
 10
15592.999708649701
 20
-1032.9030883632111
 30
0.0
 11
15591.927911889699
 21
-1036.9030883632111
 31
0.0
  0
LINE
  5
13C96
  8
01
  6
BYBLOCK
 10
15591.927911889699
 20
-1036.9030883632111
 30
0.0
 11
15590.8561151297
 21
-1032.9030883632111
 31
0.0
  0
LINE
  5
13C97
  8
01
  6
BYBLOCK
 10
15591.927911889699
 20
-1036.9030883632111
 30
0.0
 11
15591.927911889699
 21
-1032.9030883632111
 31
0.0
  0
LINE
  5
13C98
  8
01
  6
BYBLOCK
 10
15590.8561151297
 20
-985.40308836321185
 30
0.0
 11
15591.927911889699
 21
-981.40308836321174
 31
0.0
  0
LINE
  5
13C99
  8
01
  6
BYBLOCK
 10
15591.927911889699
 20
-981.40308836321174
 30
0.0
 11
15592.999708649701
 21
-985.40308836321185
 31
0.0
  0
LINE
  5
13C9A
  8
01
  6
BYBLOCK
 10
15591.927911889699
 20
-981.40308836321174
 30
0.0
 11
15591.927911889699
 21
-985.40308836321185
 31
0.0
  0
TEXT
  5
13C9B
  8
01
 10
15624.664596644459
 20
-922.90308836223835
 30
0.0
 40
7.0
  1
113
 50
90.0
  0
LINE
  5
13C9C
  8
01
  6
BYBLOCK
 10
15627.13639340446
 20
-964.90308836321185
 30
0.0
 11
15626.064596644461
 21
-968.90308836321185
 31
0.0
  0
LINE
  5
13C9D
  8
01
  6
BYBLOCK
 10
15626.064596644461
 20
-968.90308836321185
 30
0.0
 11
15624.99279988446
 21
-964.90308836321185
 31
0.0
  0
LINE
  5
13C9E
  8
01
  6
BYBLOCK
 10
15626.064596644461
 20
-968.90308836321185
 30
0.0
 11
15626.064596644461
 21
-964.90308836321185
 31
0.0
  0
LINE
  5
13C9F
  8
01
  6
BYBLOCK
 10
15624.99279988446
 20
-859.90308836127031
 30
0.0
 11
15626.064596644461
 21
-855.90308836127019
 31
0.0
  0
LINE
  5
13CA0
  8
01
  6
BYBLOCK
 10
15626.064596644461
 20
-855.90308836127019
 30
0.0
 11
15627.13639340446
 21
-859.90308836127031
 31
0.0
  0
LINE
  5
13CA1
  8
01
  6
BYBLOCK
 10
15626.064596644461
 20
-855.90308836127019
 30
0.0
 11
15626.064596644461
 21
-859.90308836127031
 31
0.0
  0
TEXT
  5
13CA2
  8
01
 10
15624.664596644459
 20
-1050.403088363209
 30
0.0
 40
7.0
  1
700
 50
90.0
  0
LINE
  5
13CA3
  8
01
  6
BYBLOCK
 10
15627.13639340446
 20
-1107.903088363212
 30
0.0
 11
15626.064596644461
 21
-1111.9030883632111
 31
0.0
  0
LINE
  5
13CA4
  8
01
  6
BYBLOCK
 10
15626.064596644461
 20
-1111.9030883632111
 30
0.0
 11
15624.99279988446
 21
-1107.903088363212
 31
0.0
  0
LINE
  5
13CA5
  8
01
  6
BYBLOCK
 10
15626.064596644461
 20
-1111.9030883632111
 30
0.0
 11
15626.064596644461
 21
-1107.903088363212
 31
0.0
  0
LINE
  5
13CA6
  8
01
  6
BYBLOCK
 10
15624.99279988446
 20
-972.90308836321185
 30
0.0
 11
15626.064596644461
 21
-968.90308836321185
 31
0.0
  0
LINE
  5
13CA7
  8
01
  6
BYBLOCK
 10
15626.064596644461
 20
-968.90308836321185
 30
0.0
 11
15627.13639340446
 21
-972.90308836321185
 31
0.0
  0
LINE
  5
13CA8
  8
01
  6
BYBLOCK
 10
15626.064596644461
 20
-968.90308836321185
 30
0.0
 11
15626.064596644461
 21
-972.90308836321185
 31
0.0
  0
TEXT
  5
13CA9
  8
01
 10
15400.51567888723
 20
-806.47608567008945
 30
0.0
 40
7.0
  1
φ54
  0
LINE
  5
13CAA
  8
01
  6
BYBLOCK
 10
15434.749012220571
 20
-806.80428891008944
 30
0.0
 11
15438.749012220571
 21
-807.87608567008942
 31
0.0
  0
LINE
  5
13CAB
  8
01
  6
BYBLOCK
 10
15438.749012220571
 20
-807.87608567008942
 30
0.0
 11
15434.749012220571
 21
-808.94788243008929
 31
0.0
  0
LINE
  5
13CAC
  8
01
  6
BYBLOCK
 10
15438.749012220571
 20
-807.87608567008942
 30
0.0
 11
15434.749012220571
 21
-807.87608567008942
 31
0.0
  0
LINE
  5
13CAD
  8
01
  6
BYBLOCK
 10
15388.749012220571
 20
-808.94788243008929
 30
0.0
 11
15384.749012220571
 21
-807.87608567008942
 31
0.0
  0
LINE
  5
13CAE
  8
01
  6
BYBLOCK
 10
15384.749012220571
 20
-807.87608567008942
 30
0.0
 11
15388.749012220571
 21
-806.80428891008944
 31
0.0
  0
LINE
  5
13CAF
  8
01
  6
BYBLOCK
 10
15384.749012220571
 20
-807.87608567008942
 30
0.0
 11
15388.749012220571
 21
-807.87608567008942
 31
0.0
  0
LINE
  5
13CB0
  8
01
 10
15393.07543924809
 20
-886.4521624169073
 30
0.0
 11
15379.581602572151
 21
-876.80073259083599
 31
0.0
1001
ACAD
1000
DSTYLE
1002
{
1070
    40
1040
2.0
1002
}
  0
LINE
  5
13CB1
  8
01
 10
15379.581602572151
 20
-876.80073259083599
 30
0.0
 11
15332.514935905479
 21
-876.80073259083599
 31
0.0
1001
ACAD
1000
DSTYLE
1002
{
1070
    40
1040
2.0
1002
}
  0
LINE
  5
13CB2
  8
01
  6
BYBLOCK
 10
15393.69896338879
 20
-885.58040216275799
 30
0.0
 11
15396.32889283811
 21
-888.77918621084848
 31
0.0
  0
LINE
  5
13CB3
  8
01
  6
BYBLOCK
 10
15396.32889283811
 20
-888.77918621084848
 30
0.0
 11
15392.451915107389
 21
-887.32392267105638
 31
0.0
  0
LINE
  5
13CB4
  8
01
  6
BYBLOCK
 10
15396.32889283811
 20
-888.77918621084848
 30
0.0
 11
15393.07543924809
 21
-886.4521624169073
 31
0.0
  0
TEXT
  5
13CB5
  8
01
 10
15295.76463970628
 20
-993.90308836320924
 30
0.0
 40
7.0
  1
813
 50
90.0
  0
LINE
  5
13CB6
  8
01
  6
BYBLOCK
 10
15298.23643646627
 20
-1107.903088363212
 30
0.0
 11
15297.16463970627
 21
-1111.9030883632111
 31
0.0
  0
LINE
  5
13CB7
  8
01
  6
BYBLOCK
 10
15297.16463970627
 20
-1111.9030883632111
 30
0.0
 11
15296.09284294628
 21
-1107.903088363212
 31
0.0
  0
LINE
  5
13CB8
  8
01
  6
BYBLOCK
 10
15297.16463970627
 20
-1111.9030883632111
 30
0.0
 11
15297.16463970627
 21
-1107.903088363212
 31
0.0
  0
LINE
  5
13CB9
  8
01
  6
BYBLOCK
 10
15296.09284294628
 20
-859.90308836321174
 30
0.0
 11
15297.16463970627
 21
-855.90308836321162
 31
0.0
  0
LINE
  5
13CBA
  8
01
  6
BYBLOCK
 10
15297.16463970627
 20
-855.90308836321162
 30
0.0
 11
15298.23643646627
 21
-859.90308836321174
 31
0.0
  0
LINE
  5
13CBB
  8
01
  6
BYBLOCK
 10
15297.16463970627
 20
-855.90308836321162
 30
0.0
 11
15297.16463970627
 21
-859.90308836321174
 31
0.0
  0
TEXT
  5
13CBC
  8
01
 10
15314.327680118469
 20
-968.15308836320924
 30
0.0
 40
7.0
  1
193.5
 50
90.0
  0
LINE
  5
13CBD
  8
01
  6
BYBLOCK
 10
15316.79947687847
 20
-1045.403088363212
 30
0.0
 11
15315.727680118471
 21
-1049.4030883632111
 31
0.0
  0
LINE
  5
13CBE
  8
01
  6
BYBLOCK
 10
15315.727680118471
 20
-1049.4030883632111
 30
0.0
 11
15314.65588335847
 21
-1045.403088363212
 31
0.0
  0
LINE
  5
13CBF
  8
01
  6
BYBLOCK
 10
15315.727680118471
 20
-1049.4030883632111
 30
0.0
 11
15315.727680118471
 21
-1045.403088363212
 31
0.0
  0
LINE
  5
13CC0
  8
01
  6
BYBLOCK
 10
15314.65588335847
 20
-859.90308836321174
 30
0.0
 11
15315.727680118471
 21
-855.90308836321162
 31
0.0
  0
LINE
  5
13CC1
  8
01
  6
BYBLOCK
 10
15315.727680118471
 20
-855.90308836321162
 30
0.0
 11
15316.79947687847
 21
-859.90308836321174
 31
0.0
  0
LINE
  5
13CC2
  8
01
  6
BYBLOCK
 10
15315.727680118471
 20
-855.90308836321162
 30
0.0
 11
15315.727680118471
 21
-859.90308836321174
 31
0.0
  0
TEXT
  5
13CC3
  8
01
 10
15434.91567888723
 20
-1122.055856890689
 30
0.0
 40
7.0
  1
60
  0
LINE
  5
13CC4
  8
01
  6
BYBLOCK
 10
15467.749012220571
 20
-1122.384060130689
 30
0.0
 11
15471.749012220571
 21
-1123.4558568906889
 31
0.0
  0
LINE
  5
13CC5
  8
01
  6
BYBLOCK
 10
15471.749012220571
 20
-1123.4558568906889
 30
0.0
 11
15467.749012220571
 21
-1124.527653650689
 31
0.0
  0
LINE
  5
13CC6
  8
01
  6
BYBLOCK
 10
15471.749012220571
 20
-1123.4558568906889
 30
0.0
 11
15467.749012220571
 21
-1123.4558568906889
 31
0.0
  0
LINE
  5
13CC7
  8
01
  6
BYBLOCK
 10
15415.749012220571
 20
-1124.527653650689
 30
0.0
 11
15411.749012220571
 21
-1123.4558568906889
 31
0.0
  0
LINE
  5
13CC8
  8
01
  6
BYBLOCK
 10
15411.749012220571
 20
-1123.4558568906889
 30
0.0
 11
15415.749012220571
 21
-1122.384060130689
 31
0.0
  0
LINE
  5
13CC9
  8
01
  6
BYBLOCK
 10
15411.749012220571
 20
-1123.4558568906889
 30
0.0
 11
15415.749012220571
 21
-1123.4558568906889
 31
0.0
  0
TEXT
  5
13CCA
  8
01
 10
15608.642049268179
 20
-1020.819755029876
 30
0.0
 40
7.0
  1
80.5
 50
90.0
  0
LINE
  5
13CCB
  8
01
  6
BYBLOCK
 10
15608.970252508179
 20
-972.90308836321185
 30
0.0
 11
15610.042049268181
 21
-968.90308836321174
 31
0.0
  0
LINE
  5
13CCC
  8
01
  6
BYBLOCK
 10
15610.042049268181
 20
-968.90308836321174
 30
0.0
 11
15611.11384602818
 21
-972.90308836321185
 31
0.0
  0
LINE
  5
13CCD
  8
01
  6
BYBLOCK
 10
15610.042049268181
 20
-968.90308836321174
 30
0.0
 11
15610.042049268181
 21
-972.90308836321185
 31
0.0
  0
LINE
  5
13CCE
  8
01
  6
BYBLOCK
 10
15611.11384602818
 20
-1045.403088363212
 30
0.0
 11
15610.042049268181
 21
-1049.4030883632111
 31
0.0
  0
LINE
  5
13CCF
  8
01
  6
BYBLOCK
 10
15610.042049268181
 20
-1049.4030883632111
 30
0.0
 11
15608.970252508179
 21
-1045.403088363212
 31
0.0
  0
LINE
  5
13CD0
  8
01
  6
BYBLOCK
 10
15610.042049268181
 20
-1049.4030883632111
 30
0.0
 11
15610.042049268181
 21
-1045.403088363212
 31
0.0
  0
VIEWPORT
  5
57
 67
     1
  8
0
 10
-12.73053481970658
 20
10.08534024934681
 30
0.0
 40
405.28174060821431
 41
286.95394669849458
 68
     1
 69
     1
1001
ACAD
1000
MVIEW
1002
{
1070
    16
1010
0.0
1020
0.0
1030
0.0
1010
0.0
1020
0.0
1030
1.0
1040
0.0
1040
286.95394669849458
1040
-12.73053481970658
1040
10.08534024934681
1040
50.0
1040
0.0
1040
0.0
1070
     0
1070
   100
1070
     1
1070
     1
1070
     0
1070
     0
1070
     0
1070
     0
1040
0.0
1040
0.0
1040
0.0
1040
10.0
1040
10.0
1040
10.0
1040
10.0
1070
     0
1002
{
1002
}
1002
}
  0
ENDSEC
  0
EOF
