  0
SECTION
  2
HEADER
  9
$ACADVER
  1
AC1009
  9
$INSBASE
 10
0.0
 20
0.0
 30
0.0
  9
$EXTMIN
 10
15273.97287620637
 20
-1189.067264938936
 30
0.0
  9
$EXTMAX
 10
15774.21135818983
 20
-750.84592105858121
 30
0.0
  9
$LIMMIN
 10
0.0
 20
0.0
  9
$LIMMAX
 10
420.0
 20
297.0
  9
$ORTHOMODE
 70
     0
  9
$REGENMODE
 70
     1
  9
$FILLMODE
 70
     1
  9
$QTEXTMODE
 70
     0
  9
$MIRRTEXT
 70
     0
  9
$DRAGMODE
 70
     2
  9
$LTSCALE
 40
0.5
  9
$OSMODE
 70
  2175
  9
$ATTMODE
 70
     1
  9
$TEXTSIZE
 40
4.0
  9
$TRACEWID
 40
1.0
  9
$TEXTSTYLE
  7
STANDARD
  9
$CLAYER
  8
1TEXT
  9
$CELTYPE
  6
BYLAYER
  9
$CECOLOR
 62
   256
  9
$DIMSCALE
 40
1.0
  9
$DIMASZ
 40
2.0
  9
$DIMEXO
 40
0.0
  9
$DIMDLI
 40
7.0
  9
$DIMRND
 40
0.0
  9
$DIMDLE
 40
0.0
  9
$DIMEXE
 40
1.0
  9
$DIMTP
 40
0.0
  9
$DIMTM
 40
0.0
  9
$DIMTXT
 40
3.5
  9
$DIMCEN
 40
0.0
  9
$DIMTSZ
 40
0.0
  9
$DIMTOL
 70
     0
  9
$DIMLIM
 70
     0
  9
$DIMTIH
 70
     0
  9
$DIMTOH
 70
     0
  9
$DIMSE1
 70
     0
  9
$DIMSE2
 70
     0
  9
$DIMTAD
 70
     1
  9
$DIMZIN
 70
     8
  9
$DIMBLK
  1

  9
$DIMASO
 70
     1
  9
$DIMSHO
 70
     1
  9
$DIMPOST
  1
 
  9
$DIMAPOST
  1

  9
$DIMALT
 70
     0
  9
$DIMALTD
 70
     2
  9
$DIMALTF
 40
25.399999999999999
  9
$DIMLFAC
 40
1.0
  9
$DIMTOFL
 70
     1
  9
$DIMTVP
 40
0.0
  9
$DIMTIX
 70
     0
  9
$DIMSOXD
 70
     0
  9
$DIMSAH
 70
     1
  9
$DIMBLK1
  1
OPEN30
  9
$DIMBLK2
  1
OPEN30
  9
$DIMSTYLE
  2
NEWX10
  9
$DIMCLRD
 70
   256
  9
$DIMCLRE
 70
   256
  9
$DIMCLRT
 70
   201
  9
$DIMTFAC
 40
0.7
  9
$DIMGAP
 40
0.7
  9
$LUNITS
 70
     2
  9
$LUPREC
 70
     4
  9
$SKETCHINC
 40
1.0
  9
$FILLETRAD
 40
0.0
  9
$AUNITS
 70
     0
  9
$AUPREC
 70
     2
  9
$MENU
  1
acad
  9
$ELEVATION
 40
0.0
  9
$PELEVATION
 40
0.0
  9
$THICKNESS
 40
0.0
  9
$LIMCHECK
 70
     0
  9
$BLIPMODE
 70
     0
  9
$CHAMFERA
 40
1.25
  9
$CHAMFERB
 40
1.25
  9
$SKPOLY
 70
     0
  9
$TDCREATE
 40
2451318.621352917
  9
$TDUPDATE
 40
2455797.3593798722
  9
$TDINDWG
 40
1.7065484259000001
  9
$TDUSRTIMER
 40
1.7065484259000001
  9
$USRTIMER
 70
     1
  9
$ANGBASE
 50
0.0
  9
$ANGDIR
 70
     0
  9
$PDMODE
 70
     0
  9
$PDSIZE
 40
0.0
  9
$PLINEWID
 40
0.0
  9
$COORDS
 70
     2
  9
$SPLFRAME
 70
     0
  9
$SPLINETYPE
 70
     6
  9
$SPLINESEGS
 70
     8
  9
$ATTDIA
 70
     0
  9
$ATTREQ
 70
     1
  9
$HANDLING
 70
     1
  9
$HANDSEED
  5
14E32
  9
$SURFTAB1
 70
     6
  9
$SURFTAB2
 70
     6
  9
$SURFTYPE
 70
     6
  9
$SURFU
 70
     6
  9
$SURFV
 70
     6
  9
$UCSNAME
  2

  9
$UCSORG
 10
0.0
 20
0.0
 30
0.0
  9
$UCSXDIR
 10
1.0
 20
0.0
 30
0.0
  9
$UCSYDIR
 10
0.0
 20
1.0
 30
0.0
  9
$PUCSNAME
  2

  9
$PUCSORG
 10
0.0
 20
0.0
 30
0.0
  9
$PUCSXDIR
 10
1.0
 20
0.0
 30
0.0
  9
$PUCSYDIR
 10
0.0
 20
1.0
 30
0.0
  9
$USERI1
 70
     0
  9
$USERI2
 70
     0
  9
$USERI3
 70
     0
  9
$USERI4
 70
     0
  9
$USERI5
 70
     0
  9
$USERR1
 40
0.0
  9
$USERR2
 40
0.0
  9
$USERR3
 40
0.0
  9
$USERR4
 40
0.0
  9
$USERR5
 40
0.0
  9
$WORLDVIEW
 70
     1
  9
$SHADEDGE
 70
     3
  9
$SHADEDIF
 70
    70
  9
$TILEMODE
 70
     1
  9
$MAXACTVP
 70
    48
  9
$PLIMCHECK
 70
     0
  9
$PEXTMIN
 10
1.0000000000000000E+020
 20
1.0000000000000000E+020
 30
1.0000000000000000E+020
  9
$PEXTMAX
 10
-1.0000000000000000E+020
 20
-1.0000000000000000E+020
 30
-1.0000000000000000E+020
  9
$PLIMMIN
 10
0.0
 20
0.0
  9
$PLIMMAX
 10
420.0
 20
297.0
  9
$UNITMODE
 70
     0
  9
$VISRETAIN
 70
     1
  9
$PLINEGEN
 70
     0
  9
$PSLTSCALE
 70
     1
  0
ENDSEC
  0
SECTION
  2
TABLES
  0
TABLE
  2
VPORT
 70
     1
  0
VPORT
  2
*ACTIVE
 70
     0
 10
0.0
 20
0.0
 11
1.0
 21
1.0
 12
15523.76787783382
 22
-969.95306559981123
 13
0.0
 23
0.0
 14
10.0
 24
10.0
 15
10.0
 25
10.0
 16
0.0
 26
0.0
 36
1.0
 17
0.0
 27
0.0
 37
0.0
 40
464.87508323587991
 41
1.4123581336696089
 42
50.0
 43
0.0
 44
0.0
 50
0.0
 51
0.0
 71
     0
 72
   100
 73
     1
 74
     1
 75
     0
 76
     0
 77
     0
 78
     0
  0
ENDTAB
  0
TABLE
  2
LTYPE
 70
    16
  0
LTYPE
  2
CONTINUOUS
 70
     0
  3
Solid line
 72
    65
 73
     0
 40
0.0
  0
LTYPE
  2
XREF1|CENTER2
 70
    48
  3
Center (.5x) ___ _ ___ _ ___ _ ___ _ ___ _ ___
 72
    65
 73
     4
 40
28.574999999999999
 49
19.050000000000001
 49
-3.174999999999998
 49
3.174999999999998
 49
-3.174999999999998
  0
LTYPE
  2
A3WAKUDAKE|CENTER2
 70
    48
  3
Center (.5x) ___ _ ___ _ ___ _ ___ _ ___ _ ___
 72
    65
 73
     4
 40
28.574999999999999
 49
19.050000000000001
 49
-3.174999999999998
 49
3.174999999999998
 49
-3.174999999999998
  0
ENDTAB
  0
TABLE
  2
LAYER
 70
    61
  0
LAYER
  2
0
 70
     0
 62
     7
  6
CONTINUOUS
  0
LAYER
  2
1TEXT
 70
     0
 62
     7
  6
CONTINUOUS
  0
LAYER
  2
01
 70
     0
 62
     1
  6
CONTINUOUS
  0
LAYER
  2
A3WAKUDAKE|THICK
 70
    48
 62
     7
  6
CONTINUOUS
  0
LAYER
  2
A3WAKUDAKE|POINT
 70
    48
 62
     7
  6
CONTINUOUS
  0
LAYER
  2
A3WAKUDAKE|1CENTER
 70
    48
 62
     7
  6
A3WAKUDAKE|CENTER2
  0
LAYER
  2
A3WAKUDAKE|0-6
 70
    48
 62
     7
  6
CONTINUOUS
  0
LAYER
  2
XREF1|1CENTER
 70
    48
 62
     7
  6
XREF1|CENTER2
  0
LAYER
  2
A3WAKUDAKE|1DIM
 70
    48
 62
     7
  6
CONTINUOUS
  0
ENDTAB
  0
TABLE
  2
STYLE
 70
     7
  0
STYLE
  2
STANDARD
 70
     0
 40
0.0
 41
1.0
 50
0.0
 71
     0
 42
4.0
  3
romans.shx
  4
extfont.shx
  0
ENDTAB
  0
TABLE
  2
VIEW
 70
     2
  0
VIEW
  2
OLE1
 70
     0
 40
307.44384118935511
 10
197.83231463994591
 20
72.5339709327408
 41
490.95683166672183
 11
0.0
 21
0.0
 31
1.0
 12
0.0
 22
0.0
 32
0.0
 42
50.0
 43
0.0
 44
0.0
 50
0.0
 71
     0
  0
VIEW
  2
OLE2
 70
     0
 40
599.48249986998019
 10
15823.35306628826
 20
-1020.951833558325
 41
925.07744252173495
 11
0.0
 21
0.0
 31
1.0
 12
0.0
 22
0.0
 32
0.0
 42
50.0
 43
0.0
 44
0.0
 50
0.0
 71
     0
  0
ENDTAB
  0
TABLE
  2
UCS
 70
     4
  0
UCS
  2
U
 70
     0
 10
0.0
 20
0.0
 30
0.0
 11
1.0
 21
0.0
 31
0.0
 12
0.0
 22
-0.0000000000000002
 32
1.0
  0
UCS
  2
L
 70
     0
 10
0.0
 20
0.0
 30
0.0
 11
0.0000000000000001
 21
-1.0
 31
-0.0000000000000002
 12
0.0
 22
-0.0000000000000002
 32
1.0
  0
UCS
  2
ISOME
 70
     0
 10
0.0
 20
0.0
 30
0.0
 11
0.7071450863198269
 21
-0.7070684729403534
 31
-0.0000383082461943
 12
0.4082704059428731
 22
0.4082704077401155
 32
0.8164744636514738
  0
UCS
  2
PERSPECTIVE
 70
     0
 10
0.0
 20
0.0
 30
0.0
 11
0.8191477691768966
 21
-0.5735823260466401
 31
-0.0004974931557765
 12
0.1584844715982971
 22
0.225502028986108
 32
0.9612655757829658
  0
ENDTAB
  0
TABLE
  2
APPID
 70
    15
  0
APPID
  2
ACAD
 70
     0
  0
APPID
  2
DRAWINGVARIABLESXDATA
 70
     0
  0
APPID
  2
CONTENTTABDATA
 70
     0
  0
APPID
  2
CONTENTCURRENTTAB
 70
     0
  0
APPID
  2
CONTENTBLOCKDESCRIPTION
 70
     0
  0
APPID
  2
CONTENTBLOCKICON
 70
     0
  0
APPID
  2
CONTENTLONGBLOCKNAME
 70
     0
  0
APPID
  2
GRPNAME
 70
     0
  0
APPID
  2
LAYTOOL
 70
     0
  0
APPID
  2
ITM1
 70
     0
  0
APPID
  2
ITM2
 70
     0
  0
APPID
  2
ITM3
 70
     0
  0
APPID
  2
ITM4
 70
     0
  0
APPID
  2
ACAD_PSEXT
 70
     0
  0
APPID
  2
ACAD_MLEADERVER
 70
     0
  0
ENDTAB
  0
TABLE
  2
DIMSTYLE
 70
     9
  0
DIMSTYLE
  2
NEWX10
 70
     0
  3
 
  4

  5

  6
OPEN30
  7
OPEN30
 40
1.0
 41
2.0
 42
0.0
 43
7.0
 44
1.0
 45
0.0
 46
0.0
 47
0.0
 48
0.0
140
3.5
141
0.0
142
0.0
143
25.399999999999999
144
1.0
145
0.0
146
0.7
147
0.7
 71
     0
 72
     0
 73
     0
 74
     0
 75
     0
 76
     0
 77
     1
 78
     8
170
     0
171
     2
172
     1
173
     1
174
     0
175
     0
176
   256
177
   256
178
   201
  0
ENDTAB
  0
ENDSEC
  0
SECTION
  2
BLOCKS
  0
BLOCK
  8
0
  2
$MODEL_SPACE
 70
     0
 10
0.0
 20
0.0
 30
0.0
  3
$MODEL_SPACE
  1

  0
ENDBLK
  5
1A
  8
0
  0
BLOCK
 67
     1
  8
0
  2
$PAPER_SPACE
 70
     0
 10
0.0
 20
0.0
 30
0.0
  3
$PAPER_SPACE
  1

  0
ENDBLK
  5
17
 67
     1
  8
0
  0
BLOCK
  8
0
  2
_OPEN30
 70
     0
 10
0.0
 20
0.0
 30
0.0
  3
_OPEN30
  1

  0
LINE
  5
44
  8
0
  6
BYBLOCK
 62
     0
 10
-1.0
 20
0.26794919
 30
0.0
 11
0.0
 21
0.0
 31
0.0
  0
LINE
  5
45
  8
0
  6
BYBLOCK
 62
     0
 10
0.0
 20
0.0
 30
0.0
 11
-1.0
 21
-0.26794919
 31
0.0
  0
LINE
  5
46
  8
0
  6
BYBLOCK
 62
     0
 10
0.0
 20
0.0
 30
0.0
 11
-1.0
 21
0.0
 31
0.0
  0
ENDBLK
  5
47
  8
0
  0
BLOCK
  8
0
  2
XREF1
 70
    36
 10
0.0
 20
0.0
 30
0.0
  3
XREF1
  1
D:\ACLT\FORMAT\KAWAJUN(9)図面用.dwg
  0
ENDBLK
  5
5D
  8
0
  0
BLOCK
  8
0
  2
A3WAKUDAKE
 70
    36
 10
0.0
 20
0.0
 30
0.0
  3
A3WAKUDAKE
  1
D:\ACLT\FORMAT\A3WAKUdake.dwg
  0
ENDBLK
  5
D88C
  8
0
  0
BLOCK
  8
0
  2
*U19
 70
     1
 10
0.0
 20
0.0
 30
0.0
  3
*U19
  1

  0
TEXT
  5
14C01
  8
1TEXT
 62
   201
 10
15770.81135818984
 20
-1006.45758082994
 30
0.0
 40
7.0
  1
φ60
 50
90.0
  0
ENDBLK
  5
14C03
  8
0
  0
BLOCK
  8
0
  2
*U20
 70
     1
 10
0.0
 20
0.0
 30
0.0
  3
*U20
  1

  0
TEXT
  5
14C05
  8
1TEXT
 62
   201
 10
15754.652715056631
 20
-1006.457563975688
 30
0.0
 40
7.0
  1
φ25
 50
90.0
  0
ENDBLK
  5
14C07
  8
0
  0
BLOCK
  8
0
  2
*U21
 70
     1
 10
0.0
 20
0.0
 30
0.0
  3
*U21
  1

  0
TEXT
  5
14C09
  8
1TEXT
 62
   201
 10
15576.35180475523
 20
-825.98175083181343
 30
0.0
 40
7.0
  1
φ54
  0
ENDBLK
  5
14C0B
  8
0
  0
BLOCK
  8
0
  2
*U22
 70
     1
 10
0.0
 20
0.0
 30
0.0
  3
*U22
  1

  0
TEXT
  5
14C10
  8
1TEXT
 62
   201
 10
15738.02096263678
 20
-950.04089730902183
 30
0.0
 40
7.0
  1
112
 50
90.0
  0
ENDBLK
  5
14C12
  8
0
  0
BLOCK
  8
0
  2
*U23
 70
     1
 10
0.0
 20
0.0
 30
0.0
  3
*U23
  1

  0
TEXT
  5
14C14
  8
1TEXT
 62
   201
 10
15661.385137995339
 20
-1165.0842991246509
 30
0.0
 40
7.0
  1
100
  0
ENDBLK
  5
14C16
  8
0
  0
BLOCK
  8
0
  2
*U24
 70
     1
 10
0.0
 20
0.0
 30
0.0
  3
*U24
  1

  0
TEXT
  5
14C18
  8
1TEXT
 62
   201
 10
15538.27077568055
 20
-1165.0842991246509
 30
0.0
 40
7.0
  1
φ42
  0
ENDBLK
  5
14C1A
  8
0
  0
BLOCK
  8
0
  2
*U25
 70
     1
 10
0.0
 20
0.0
 30
0.0
  3
*U25
  1

  0
TEXT
  5
14C1C
  8
1TEXT
 62
   201
 10
15644.068471421901
 20
-1185.6672649389359
 30
0.0
 40
7.0
  1
134
  0
ENDBLK
  5
14C1E
  8
0
  0
BLOCK
  8
0
  2
*U26
 70
     1
 10
0.0
 20
0.0
 30
0.0
  3
*U26
  1

  0
TEXT
  5
14C20
  8
1TEXT
 62
   201
 10
15505.149429921839
 20
-1015.316319662624
 30
0.0
 40
7.0
  1
247
 50
90.0
  0
ENDBLK
  5
14C22
  8
0
  0
BLOCK
  8
0
  2
*U27
 70
     1
 10
0.0
 20
0.0
 30
0.0
  3
*U27
  1

  0
TEXT
  5
14C27
  8
1TEXT
 62
   201
 10
15683.852781450039
 20
-1138.1575639756879
 30
0.0
 40
7.0
  1
封水深さ70以上
 50
90.0
  0
ENDBLK
  5
14C29
  8
0
  0
ENDSEC
  0
SECTION
  2
ENTITIES
  0
LINE
  5
12BC6
  8
01
 10
15721.88513808857
 20
-1007.890897309024
 30
0.0
 11
15708.10994208856
 21
-1007.890897309024
 31
0.0
  0
LINE
  5
12BC7
  8
01
 10
15721.88513808857
 20
-982.89089730902435
 30
0.0
 11
15708.109913998171
 21
-982.89089730902435
 31
0.0
  0
LINE
  5
12BCA
  8
01
 10
15725.933959923281
 20
-995.39089730902435
 30
0.0
 11
15580.89025285016
 21
-995.39089730902435
 31
0.0
  0
LINE
  5
12BCE
  8
01
 10
15600.085138088571
 20
-929.79089730902456
 30
0.0
 11
15600.085138088571
 21
-960.37978630902444
 31
0.0
  0
LINE
  5
12BD1
  8
01
 10
15608.585138088571
 20
-1129.4908973090239
 30
0.0
 11
15608.585138088571
 21
-1015.390897309024
 31
0.0
  0
LINE
  5
12BD2
  8
01
 10
15566.585138088571
 20
-1129.4908973090239
 30
0.0
 11
15566.585138088571
 21
-974.29089730902422
 31
0.0
  0
LINE
  5
12BD3
  8
01
 10
15587.585138088571
 20
-1151.7188142365769
 30
0.0
 11
15587.585138088571
 21
-863.54465878595681
 31
0.0
  0
LINE
  5
12BE4
  8
01
 10
15587.585138088571
 20
-973.39089730902435
 30
0.0
 11
15607.085138088571
 21
-973.39089730902435
 31
0.0
  0
LINE
  5
12BEE
  8
01
 10
15587.585138088571
 20
-973.39089730902435
 30
0.0
 11
15567.48513808857
 21
-973.39089730902435
 31
0.0
  0
ARC
  5
12BEF
  8
01
 10
15567.48513808857
 20
-974.29089730902422
 30
0.0
 40
0.9
 50
90.0
 51
180.0
  0
LINE
  5
12BF0
  8
01
 10
15572.685138088569
 20
-972.37978630902433
 30
0.0
 11
15572.685138088569
 21
-973.39089730902435
 31
0.0
  0
LINE
  5
12C18
  8
01
 10
15613.585138088571
 20
-1010.290897309024
 30
0.0
 11
15611.585138088571
 21
-1010.290897309024
 31
0.0
  0
LINE
  5
12C37
  8
01
 10
15613.585138088571
 20
-980.49089730902415
 30
0.0
 11
15611.585138088571
 21
-980.49089730902415
 31
0.0
  0
LINE
  5
12C3A
  8
01
 10
15608.585138088571
 20
-975.39089730902435
 30
0.0
 11
15608.585138088571
 21
-974.29089730902422
 31
0.0
  0
ARC
  5
12C3D
  8
01
 10
15607.68513808856
 20
-974.29089730902422
 30
0.0
 40
0.9
 50
0.0
 51
90.0
  0
LINE
  5
12C52
  8
01
 10
15607.68513808856
 20
-973.39089730902435
 30
0.0
 11
15607.085138088571
 21
-973.39089730902435
 31
0.0
  0
LINE
  5
12C7D
  8
01
 10
15708.109942088569
 20
-965.89089730902435
 30
0.0
 11
15708.109942088569
 21
-1025.390897309024
 31
0.0
  0
LINE
  5
12C97
  8
01
 10
15721.88513808857
 20
-1007.190897309024
 30
0.0
 11
15721.88513808857
 21
-983.5908973090244
 31
0.0
  0
LINE
  5
12C9C
  8
01
 10
15721.88513808857
 20
-1007.190897309024
 30
0.0
 11
15721.88513808857
 21
-1007.890897309024
 31
0.0
  0
LINE
  5
12C9D
  8
01
 10
15721.88513808857
 20
-983.5908973090244
 30
0.0
 11
15721.88513808857
 21
-982.89089730902435
 31
0.0
  0
LINE
  5
12CA7
  8
01
 10
15606.935138088569
 20
-1130.390897309024
 30
0.0
 11
15587.585138088571
 21
-1130.390897309024
 31
0.0
  0
LINE
  5
12CA9
  8
01
 10
15587.585138088571
 20
-1130.390897309024
 30
0.0
 11
15567.48513808857
 21
-1130.390897309024
 31
0.0
  0
ARC
  5
12CAB
  8
01
 10
15567.48513808857
 20
-1129.4908973090239
 30
0.0
 40
0.9
 50
180.0
 51
270.0
  0
ARC
  5
12CB1
  8
01
 10
15607.68513808856
 20
-1129.4908973090239
 30
0.0
 40
0.9
 50
270.0
 51
0.0
  0
LINE
  5
12CB3
  8
01
 10
15607.68513808856
 20
-1130.390897309024
 30
0.0
 11
15606.935138088569
 21
-1130.390897309024
 31
0.0
  0
ARC
  5
131E7
  8
01
 10
15564.585138088571
 20
-888.69089730902442
 30
0.0
 40
2.0
 50
90.0
 51
180.0
  0
ARC
  5
131E8
  8
01
 10
15564.585138088571
 20
-890.69089730902442
 30
0.0
 40
2.0
 50
180.0
 51
270.0
  0
ARC
  5
131E9
  8
01
 10
15566.835138088571
 20
-889.69089730902442
 30
0.0
 40
1.0
 50
270.0
 51
90.0
  0
LINE
  5
131EA
  8
01
 10
15562.585138088571
 20
-888.69089730902442
 30
0.0
 11
15587.585138088571
 21
-888.69089730902442
 31
0.0
  0
LINE
  5
131EB
  8
01
 10
15562.585138088571
 20
-890.69089730902442
 30
0.0
 11
15587.585138088571
 21
-890.69089730902442
 31
0.0
  0
LINE
  5
131EC
  8
01
 10
15564.585138088571
 20
-892.69089730902442
 30
0.0
 11
15587.585138088571
 21
-892.69089730902442
 31
0.0
  0
LINE
  5
131ED
  8
01
 10
15561.585138088571
 20
-904.69089730902442
 30
0.0
 11
15572.085138088571
 21
-898.69089730902442
 31
0.0
  0
LINE
  5
131EE
  8
01
 10
15572.085138088571
 20
-898.69089730902442
 30
0.0
 11
15587.585138088571
 21
-898.69089730902442
 31
0.0
  0
LINE
  5
131EF
  8
01
 10
15561.585138088571
 20
-905.69089730902442
 30
0.0
 11
15587.585138088571
 21
-905.69089730902442
 31
0.0
  0
LINE
  5
131F0
  8
01
 10
15561.585138088571
 20
-904.69089730902442
 30
0.0
 11
15587.585138088571
 21
-904.69089730902442
 31
0.0
  0
LINE
  5
131F1
  8
01
 10
15561.585138088571
 20
-905.69089730902442
 30
0.0
 11
15561.585138088571
 21
-904.69089730902442
 31
0.0
  0
LINE
  5
131F2
  8
01
 10
15563.585138088571
 20
-906.19089730902431
 30
0.0
 11
15563.585138088571
 21
-905.69089730902442
 31
0.0
  0
LINE
  5
131F3
  8
01
 10
15576.355138088569
 20
-908.19089730902454
 30
0.0
 11
15576.355138088569
 21
-913.03589730902445
 31
0.0
  0
LINE
  5
131F4
  8
01
 10
15578.86713808857
 20
-908.19089730902454
 30
0.0
 11
15578.86713808857
 21
-913.03589730902445
 31
0.0
  0
ARC
  5
131F5
  8
01
 10
15571.970138088571
 20
-905.28689730902443
 30
0.0
 40
8.9039999999999981
 50
270.0
 51
299.50400000001167
  0
LINE
  5
131F6
  8
01
 10
15576.355138088569
 20
-913.03589730902445
 30
0.0
 11
15578.86713808857
 21
-913.03589730902445
 31
0.0
  0
ARC
  5
131F7
  8
01
 10
15587.585138088571
 20
-880.70489730902443
 30
0.0
 40
33.485999999999997
 50
254.91000000002111
 51
270.0
  0
LINE
  5
131F8
  8
01
 10
15587.585138088571
 20
-914.19089730902431
 30
0.0
 11
15569.585138088571
 21
-914.19089730902431
 31
0.0
  0
LINE
  5
131F9
  8
01
 10
15587.585138088571
 20
-908.19089730902454
 30
0.0
 11
15564.585138088571
 21
-908.19089730902454
 31
0.0
  0
LINE
  5
131FA
  8
01
 10
15587.585138088571
 20
-906.19089730902431
 30
0.0
 11
15563.585138088571
 21
-906.19089730902431
 31
0.0
  0
LINE
  5
131FB
  8
01
 10
15569.585138088571
 20
-914.19089730902431
 30
0.0
 11
15567.585138088571
 21
-913.03589730902445
 31
0.0
  0
LINE
  5
131FC
  8
01
 10
15567.585138088571
 20
-913.03589730902445
 30
0.0
 11
15567.585138088571
 21
-909.19089730902442
 31
0.0
  0
ARC
  5
131FD
  8
01
 10
15566.585138088571
 20
-909.19089730902442
 30
0.0
 40
1.0
 50
0.0
 51
90.0
  0
LINE
  5
131FE
  8
01
 10
15563.585138088571
 20
-907.19089730902431
 30
0.0
 11
15563.585138088571
 21
-906.19089730902431
 31
0.0
  0
ARC
  5
131FF
  8
01
 10
15564.585138088571
 20
-907.19089730902431
 30
0.0
 40
1.0
 50
180.0
 51
270.0
  0
LINE
  5
132C7
  8
01
 10
15587.585138088571
 20
-918.29089730902444
 30
0.0
 11
15587.034138088569
 21
-918.30389730902436
 31
0.0
  0
LINE
  5
132C8
  8
01
 10
15587.034138088569
 20
-918.30389730902436
 30
0.0
 11
15586.481138088569
 21
-918.34289730902435
 31
0.0
  0
LINE
  5
132C9
  8
01
 10
15586.481138088569
 20
-918.34289730902435
 30
0.0
 11
15585.92113808857
 21
-918.41089730902445
 31
0.0
  0
LINE
  5
132CA
  8
01
 10
15585.92113808857
 20
-918.41089730902445
 30
0.0
 11
15585.35213808857
 21
-918.50889730902429
 31
0.0
  0
LINE
  5
132CB
  8
01
 10
15585.35213808857
 20
-918.50889730902429
 30
0.0
 11
15584.77113808857
 21
-918.64089730902435
 31
0.0
  0
LINE
  5
132CC
  8
01
 10
15584.77113808857
 20
-918.64089730902435
 30
0.0
 11
15584.17913808857
 21
-918.8118973090244
 31
0.0
  0
LINE
  5
132CD
  8
01
 10
15584.17913808857
 20
-918.8118973090244
 30
0.0
 11
15583.57413808857
 21
-919.02789730902441
 31
0.0
  0
LINE
  5
132CE
  8
01
 10
15583.57413808857
 20
-919.02789730902441
 30
0.0
 11
15582.95913808857
 21
-919.29789730902439
 31
0.0
  0
LINE
  5
132CF
  8
01
 10
15582.95913808857
 20
-919.29789730902439
 30
0.0
 11
15582.34113808857
 21
-919.62989730902427
 31
0.0
  0
LINE
  5
132D0
  8
01
 10
15582.34113808857
 20
-919.62989730902427
 30
0.0
 11
15581.731138088569
 21
-920.03189730902443
 31
0.0
  0
LINE
  5
132D1
  8
01
 10
15581.731138088569
 20
-920.03189730902443
 30
0.0
 11
15581.14513808857
 21
-920.51289730902454
 31
0.0
  0
LINE
  5
132D2
  8
01
 10
15581.14513808857
 20
-920.51289730902454
 30
0.0
 11
15580.60813808857
 21
-921.07889730902434
 31
0.0
  0
LINE
  5
132D3
  8
01
 10
15580.60813808857
 20
-921.07889730902434
 30
0.0
 11
15580.151138088569
 21
-921.72689730902425
 31
0.0
  0
LINE
  5
132D4
  8
01
 10
15580.151138088569
 20
-921.72689730902425
 30
0.0
 11
15579.80713808857
 21
-922.44989730902455
 31
0.0
  0
LINE
  5
132D5
  8
01
 10
15579.80713808857
 20
-922.44989730902455
 30
0.0
 11
15579.60813808857
 21
-923.22489730902453
 31
0.0
  0
LINE
  5
132D6
  8
01
 10
15579.60813808857
 20
-923.22489730902453
 30
0.0
 11
15579.56513808857
 21
-923.79089730902433
 31
0.0
  0
LINE
  5
132D7
  8
01
 10
15579.56513808857
 20
-923.79089730902433
 30
0.0
 11
15579.57213808857
 21
-924.02489730902437
 31
0.0
  0
LINE
  5
132D8
  8
01
 10
15579.57213808857
 20
-924.02489730902437
 30
0.0
 11
15579.70513808857
 21
-924.81489730902445
 31
0.0
  0
LINE
  5
132D9
  8
01
 10
15579.70513808857
 20
-924.81489730902445
 30
0.0
 11
15579.99213808857
 21
-925.5618973090244
 31
0.0
  0
LINE
  5
132DA
  8
01
 10
15579.99213808857
 20
-925.5618973090244
 30
0.0
 11
15580.406138088571
 21
-926.24289730902444
 31
0.0
  0
LINE
  5
132DB
  8
01
 10
15580.406138088571
 20
-926.24289730902444
 30
0.0
 11
15580.91413808857
 21
-926.84389730902444
 31
0.0
  0
LINE
  5
132DC
  8
01
 10
15580.91413808857
 20
-926.84389730902444
 30
0.0
 11
15581.48313808857
 21
-927.3598973090244
 31
0.0
  0
LINE
  5
132DD
  8
01
 10
15581.48313808857
 20
-927.3598973090244
 30
0.0
 11
15582.085138088571
 21
-927.79389730902426
 31
0.0
  0
LINE
  5
132DE
  8
01
 10
15582.085138088571
 20
-927.79389730902426
 30
0.0
 11
15582.702138088571
 21
-928.15389730902439
 31
0.0
  0
LINE
  5
132DF
  8
01
 10
15582.702138088571
 20
-928.15389730902439
 30
0.0
 11
15583.319138088569
 21
-928.44789730902426
 31
0.0
  0
LINE
  5
132E0
  8
01
 10
15583.319138088569
 20
-928.44789730902426
 30
0.0
 11
15583.92813808857
 21
-928.68589730902454
 31
0.0
  0
LINE
  5
132E1
  8
01
 10
15583.92813808857
 20
-928.68589730902454
 30
0.0
 11
15584.526138088569
 21
-928.87489730902439
 31
0.0
  0
LINE
  5
132E2
  8
01
 10
15584.526138088569
 20
-928.87489730902439
 30
0.0
 11
15585.112138088571
 21
-929.0228973090243
 31
0.0
  0
LINE
  5
132E3
  8
01
 10
15585.112138088571
 20
-929.0228973090243
 30
0.0
 11
15585.685138088569
 21
-929.13389730902441
 31
0.0
  0
LINE
  5
132E4
  8
01
 10
15585.685138088569
 20
-929.13389730902441
 30
0.0
 11
15586.249138088569
 21
-929.21389730902445
 31
0.0
  0
LINE
  5
132E5
  8
01
 10
15586.249138088569
 20
-929.21389730902445
 30
0.0
 11
15586.80513808857
 21
-929.26489730902438
 31
0.0
  0
LINE
  5
132E6
  8
01
 10
15586.80513808857
 20
-929.26489730902438
 30
0.0
 11
15587.356138088569
 21
-929.28889730902438
 31
0.0
  0
LINE
  5
132E7
  8
01
 10
15587.356138088569
 20
-929.28889730902438
 30
0.0
 11
15587.59313808857
 21
-929.29089730902444
 31
0.0
  0
LINE
  5
132E8
  8
01
 10
15572.42213808857
 20
-929.29089730902444
 30
0.0
 11
15572.96813808857
 21
-929.23889730902431
 31
0.0
  0
LINE
  5
132E9
  8
01
 10
15572.96813808857
 20
-929.23889730902431
 30
0.0
 11
15573.49513808857
 21
-929.0858973090244
 31
0.0
  0
LINE
  5
132EA
  8
01
 10
15573.49513808857
 20
-929.0858973090244
 30
0.0
 11
15573.98513808857
 21
-928.8448973090243
 31
0.0
  0
LINE
  5
132EB
  8
01
 10
15573.98513808857
 20
-928.8448973090243
 30
0.0
 11
15574.427138088569
 21
-928.53489730902447
 31
0.0
  0
LINE
  5
132EC
  8
01
 10
15574.427138088569
 20
-928.53489730902447
 30
0.0
 11
15574.81613808857
 21
-928.17489730902446
 31
0.0
  0
LINE
  5
132ED
  8
01
 10
15574.81613808857
 20
-928.17489730902446
 30
0.0
 11
15575.151138088569
 21
-927.78089730902445
 31
0.0
  0
LINE
  5
132EE
  8
01
 10
15575.151138088569
 20
-927.78089730902445
 30
0.0
 11
15575.434138088571
 21
-927.36789730902456
 31
0.0
  0
LINE
  5
132EF
  8
01
 10
15575.434138088571
 20
-927.36789730902456
 30
0.0
 11
15575.67013808857
 21
-926.94589730902453
 31
0.0
  0
LINE
  5
132F0
  8
01
 10
15575.67013808857
 20
-926.94589730902453
 30
0.0
 11
15575.863138088571
 21
-926.52189730902433
 31
0.0
  0
LINE
  5
132F1
  8
01
 10
15575.863138088571
 20
-926.52189730902433
 30
0.0
 11
15576.02013808857
 21
-926.10189730902425
 31
0.0
  0
LINE
  5
132F2
  8
01
 10
15576.02013808857
 20
-926.10189730902425
 30
0.0
 11
15576.14413808857
 21
-925.68589730902443
 31
0.0
  0
LINE
  5
132F3
  8
01
 10
15576.14413808857
 20
-925.68589730902443
 30
0.0
 11
15576.240138088569
 21
-925.27489730902425
 31
0.0
  0
LINE
  5
132F4
  8
01
 10
15576.240138088569
 20
-925.27489730902425
 30
0.0
 11
15576.310138088569
 21
-924.8698973090244
 31
0.0
  0
LINE
  5
132F5
  8
01
 10
15576.310138088569
 20
-924.8698973090244
 30
0.0
 11
15576.35713808857
 21
-924.46989730902442
 31
0.0
  0
LINE
  5
132F6
  8
01
 10
15576.35713808857
 20
-924.46989730902442
 30
0.0
 11
15576.382138088569
 21
-924.07189730902439
 31
0.0
  0
LINE
  5
132F7
  8
01
 10
15576.382138088569
 20
-924.07189730902439
 30
0.0
 11
15576.38613808857
 21
-923.67489730902446
 31
0.0
  0
LINE
  5
132F8
  8
01
 10
15576.38613808857
 20
-923.67489730902446
 30
0.0
 11
15576.37013808857
 21
-923.27789730902441
 31
0.0
  0
LINE
  5
132F9
  8
01
 10
15576.37013808857
 20
-923.27789730902441
 30
0.0
 11
15576.33213808857
 21
-922.87889730902441
 31
0.0
  0
LINE
  5
132FA
  8
01
 10
15576.33213808857
 20
-922.87889730902441
 30
0.0
 11
15576.272138088571
 21
-922.47589730902439
 31
0.0
  0
LINE
  5
132FB
  8
01
 10
15576.272138088571
 20
-922.47589730902439
 30
0.0
 11
15576.18713808857
 21
-922.06789730902437
 31
0.0
  0
LINE
  5
132FC
  8
01
 10
15576.18713808857
 20
-922.06789730902437
 30
0.0
 11
15576.07513808857
 21
-921.65389730902439
 31
0.0
  0
LINE
  5
132FD
  8
01
 10
15576.07513808857
 20
-921.65389730902439
 30
0.0
 11
15575.933138088571
 21
-921.23489730902429
 31
0.0
  0
LINE
  5
132FE
  8
01
 10
15575.933138088571
 20
-921.23489730902429
 30
0.0
 11
15575.755138088571
 21
-920.81189730902429
 31
0.0
  0
LINE
  5
132FF
  8
01
 10
15575.755138088571
 20
-920.81189730902429
 30
0.0
 11
15575.53813808857
 21
-920.3888973090244
 31
0.0
  0
LINE
  5
13300
  8
01
 10
15575.53813808857
 20
-920.3888973090244
 30
0.0
 11
15575.275138088569
 21
-919.97089730902439
 31
0.0
  0
LINE
  5
13301
  8
01
 10
15575.275138088569
 20
-919.97089730902439
 30
0.0
 11
15574.962138088569
 21
-919.56789730902426
 31
0.0
  0
LINE
  5
13302
  8
01
 10
15574.962138088569
 20
-919.56789730902426
 30
0.0
 11
15574.596138088569
 21
-919.19089730902442
 31
0.0
  0
LINE
  5
13303
  8
01
 10
15574.596138088569
 20
-919.19089730902442
 30
0.0
 11
15574.175138088571
 21
-918.85789730902445
 31
0.0
  0
LINE
  5
13304
  8
01
 10
15574.175138088571
 20
-918.85789730902445
 30
0.0
 11
15573.704138088569
 21
-918.58689730902438
 31
0.0
  0
LINE
  5
13305
  8
01
 10
15573.704138088569
 20
-918.58689730902438
 30
0.0
 11
15573.19113808857
 21
-918.39489730902426
 31
0.0
  0
LINE
  5
13306
  8
01
 10
15573.19113808857
 20
-918.39489730902426
 30
0.0
 11
15572.650138088569
 21
-918.29989730902435
 31
0.0
  0
LINE
  5
13307
  8
01
 10
15572.650138088569
 20
-918.29989730902435
 30
0.0
 11
15572.42213808857
 21
-918.29089730902444
 31
0.0
  0
LINE
  5
13308
  8
01
 10
15572.42213808857
 20
-918.29089730902444
 30
0.0
 11
15572.10113808857
 21
-918.30889730902436
 31
0.0
  0
LINE
  5
13309
  8
01
 10
15572.10113808857
 20
-918.30889730902436
 30
0.0
 11
15571.56413808857
 21
-918.42089730902444
 31
0.0
  0
LINE
  5
1330A
  8
01
 10
15571.56413808857
 20
-918.42089730902444
 30
0.0
 11
15571.05713808857
 21
-918.62689730902434
 31
0.0
  0
LINE
  5
1330B
  8
01
 10
15571.05713808857
 20
-918.62689730902434
 30
0.0
 11
15570.59313808857
 21
-918.90989730902436
 31
0.0
  0
LINE
  5
1330C
  8
01
 10
15570.59313808857
 20
-918.90989730902436
 30
0.0
 11
15570.18213808857
 21
-919.25189730902434
 31
0.0
  0
LINE
  5
1330D
  8
01
 10
15570.18213808857
 20
-919.25189730902434
 30
0.0
 11
15569.82513808857
 21
-919.63389730902429
 31
0.0
  0
LINE
  5
1330E
  8
01
 10
15569.82513808857
 20
-919.63389730902429
 30
0.0
 11
15569.52113808857
 21
-920.04089730902444
 31
0.0
  0
LINE
  5
1330F
  8
01
 10
15569.52113808857
 20
-920.04089730902444
 30
0.0
 11
15569.266138088569
 21
-920.45989730902431
 31
0.0
  0
LINE
  5
13310
  8
01
 10
15569.266138088569
 20
-920.45989730902431
 30
0.0
 11
15569.05513808857
 21
-920.88389730902441
 31
0.0
  0
LINE
  5
13311
  8
01
 10
15569.05513808857
 20
-920.88389730902441
 30
0.0
 11
15568.88413808857
 21
-921.30589730902454
 31
0.0
  0
LINE
  5
13312
  8
01
 10
15568.88413808857
 20
-921.30589730902454
 30
0.0
 11
15568.747138088571
 21
-921.72389730902444
 31
0.0
  0
LINE
  5
13313
  8
01
 10
15568.747138088571
 20
-921.72389730902444
 30
0.0
 11
15568.640138088571
 21
-922.13689730902445
 31
0.0
  0
LINE
  5
13314
  8
01
 10
15568.640138088571
 20
-922.13689730902445
 30
0.0
 11
15568.559138088571
 21
-922.54389730902426
 31
0.0
  0
LINE
  5
13315
  8
01
 10
15568.559138088571
 20
-922.54389730902426
 30
0.0
 11
15568.50313808857
 21
-922.94589730902442
 31
0.0
  0
LINE
  5
13316
  8
01
 10
15568.50313808857
 20
-922.94589730902442
 30
0.0
 11
15568.469138088571
 21
-923.34489730902442
 31
0.0
  0
LINE
  5
13317
  8
01
 10
15568.469138088571
 20
-923.34489730902442
 30
0.0
 11
15568.45613808857
 21
-923.74189730902435
 31
0.0
  0
LINE
  5
13318
  8
01
 10
15568.45613808857
 20
-923.74189730902435
 30
0.0
 11
15568.46413808857
 21
-924.13889730902429
 31
0.0
  0
LINE
  5
13319
  8
01
 10
15568.46413808857
 20
-924.13889730902429
 30
0.0
 11
15568.49313808857
 21
-924.53689730902431
 31
0.0
  0
LINE
  5
1331A
  8
01
 10
15568.49313808857
 20
-924.53689730902431
 30
0.0
 11
15568.543138088569
 21
-924.93789730902427
 31
0.0
  0
LINE
  5
1331B
  8
01
 10
15568.543138088569
 20
-924.93789730902427
 30
0.0
 11
15568.61713808857
 21
-925.34389730902433
 31
0.0
  0
LINE
  5
1331C
  8
01
 10
15568.61713808857
 20
-925.34389730902433
 30
0.0
 11
15568.71813808857
 21
-925.75489730902439
 31
0.0
  0
LINE
  5
1331D
  8
01
 10
15568.71813808857
 20
-925.75489730902439
 30
0.0
 11
15568.847138088569
 21
-926.17189730902442
 31
0.0
  0
LINE
  5
1331E
  8
01
 10
15568.847138088569
 20
-926.17189730902442
 30
0.0
 11
15569.00913808857
 21
-926.59289730902447
 31
0.0
  0
LINE
  5
1331F
  8
01
 10
15569.00913808857
 20
-926.59289730902447
 30
0.0
 11
15569.210138088571
 21
-927.01689730902444
 31
0.0
  0
LINE
  5
13320
  8
01
 10
15569.210138088571
 20
-927.01689730902444
 30
0.0
 11
15569.453138088569
 21
-927.43789730902427
 31
0.0
  0
LINE
  5
13321
  8
01
 10
15569.453138088569
 20
-927.43789730902427
 30
0.0
 11
15569.74513808857
 21
-927.84889730902444
 31
0.0
  0
LINE
  5
13322
  8
01
 10
15569.74513808857
 20
-927.84889730902444
 30
0.0
 11
15570.088138088569
 21
-928.23789730902445
 31
0.0
  0
LINE
  5
13323
  8
01
 10
15570.088138088569
 20
-928.23789730902445
 30
0.0
 11
15570.48613808857
 21
-928.59189730902426
 31
0.0
  0
LINE
  5
13324
  8
01
 10
15570.48613808857
 20
-928.59189730902426
 30
0.0
 11
15570.93713808857
 21
-928.89089730902435
 31
0.0
  0
LINE
  5
13325
  8
01
 10
15570.93713808857
 20
-928.89089730902435
 30
0.0
 11
15571.435138088569
 21
-929.11789730902456
 31
0.0
  0
LINE
  5
13326
  8
01
 10
15571.435138088569
 20
-929.11789730902456
 30
0.0
 11
15571.96613808857
 21
-929.25489730902439
 31
0.0
  0
LINE
  5
13327
  8
01
 10
15571.96613808857
 20
-929.25489730902439
 30
0.0
 11
15572.42213808857
 21
-929.29089730902444
 31
0.0
  0
ARC
  5
13328
  8
01
 10
15577.460138088571
 20
-923.79089730902433
 30
0.0
 40
9.125
 50
139.40900000005959
 51
221.11199999998411
  0
LINE
  5
13329
  8
01
 10
15587.585138088571
 20
-917.79089730902444
 30
0.0
 11
15570.585138088571
 21
-917.79089730902444
 31
0.0
  0
LINE
  5
1332A
  8
01
 10
15587.585138088571
 20
-929.79089730902444
 30
0.0
 11
15570.585138088571
 21
-929.79089730902444
 31
0.0
  0
LINE
  5
1332D
  8
01
 10
15600.28513808857
 20
-928.09374507021766
 30
0.0
 11
15600.28513808857
 21
-928.0908973090244
 31
0.0
  0
LINE
  5
1336C
  8
01
 10
15560.585138088571
 20
-884.89089730902435
 30
0.0
 11
15587.585138088571
 21
-884.89089730902435
 31
0.0
  0
LINE
  5
1336D
  8
01
 10
15572.60113808857
 20
-917.79089730902444
 30
0.0
 11
15572.60113808857
 21
-914.19089730902431
 31
0.0
  0
LINE
  5
1336E
  8
01
 10
15571.585138088571
 20
-914.19089730902431
 30
0.0
 11
15571.585138088571
 21
-917.79089730902444
 31
0.0
  0
LINE
  5
1336F
  8
01
 10
15571.604882802079
 20
-898.96532890130288
 30
0.0
 11
15570.98513808857
 21
-897.89189730902444
 31
0.0
  0
LINE
  5
13370
  8
01
 10
15571.260220225069
 20
-899.16227894530846
 30
0.0
 11
15569.884685595211
 21
-892.69089730902442
 31
0.0
  0
LINE
  5
13371
  8
01
 10
15563.155538088569
 20
-886.69089730902454
 30
0.0
 11
15560.585138088571
 21
-884.89089730902435
 31
0.0
  0
LINE
  5
13372
  8
01
 10
15587.585138088571
 20
-886.69089730902454
 30
0.0
 11
15563.155538088569
 21
-886.69089730902454
 31
0.0
  0
LINE
  5
13373
  8
01
 10
15561.085138088571
 20
-883.69089730902442
 30
0.0
 11
15614.085138088571
 21
-883.69089730902442
 31
0.0
  0
LINE
  5
13374
  8
01
 10
15560.585138088571
 20
-884.19089730902442
 30
0.0
 11
15560.585138088571
 21
-884.89089730902435
 31
0.0
  0
ARC
  5
13375
  8
01
 10
15561.085138088571
 20
-884.19089730902442
 30
0.0
 40
0.5
 50
90.0
 51
180.0
  0
ARC
  5
13376
  8
01
 10
15610.585138088571
 20
-888.69089730902442
 30
0.0
 40
2.0
 50
0.0
 51
90.0
  0
ARC
  5
13377
  8
01
 10
15610.585138088571
 20
-890.69089730902442
 30
0.0
 40
2.0
 50
270.0
 51
0.0
  0
ARC
  5
13378
  8
01
 10
15608.335138088571
 20
-889.69089730902442
 30
0.0
 40
1.0
 50
90.0
 51
270.0
  0
LINE
  5
13379
  8
01
 10
15612.585138088571
 20
-888.69089730902442
 30
0.0
 11
15587.585138088571
 21
-888.69089730902442
 31
0.0
  0
LINE
  5
1337A
  8
01
 10
15612.585138088571
 20
-890.69089730902442
 30
0.0
 11
15587.585138088571
 21
-890.69089730902442
 31
0.0
  0
LINE
  5
1337B
  8
01
 10
15610.585138088571
 20
-892.69089730902442
 30
0.0
 11
15587.585138088571
 21
-892.69089730902442
 31
0.0
  0
LINE
  5
1337C
  8
01
 10
15613.585138088571
 20
-904.69089730902442
 30
0.0
 11
15603.085138088571
 21
-898.69089730902442
 31
0.0
  0
LINE
  5
1337D
  8
01
 10
15603.085138088571
 20
-898.69089730902442
 30
0.0
 11
15587.585138088571
 21
-898.69089730902442
 31
0.0
  0
LINE
  5
1337E
  8
01
 10
15613.585138088571
 20
-905.69089730902442
 30
0.0
 11
15587.585138088571
 21
-905.69089730902442
 31
0.0
  0
LINE
  5
1337F
  8
01
 10
15613.585138088571
 20
-904.69089730902442
 30
0.0
 11
15587.585138088571
 21
-904.69089730902442
 31
0.0
  0
LINE
  5
13380
  8
01
 10
15613.585138088571
 20
-905.69089730902442
 30
0.0
 11
15613.585138088571
 21
-904.69089730902442
 31
0.0
  0
LINE
  5
13381
  8
01
 10
15611.585138088571
 20
-906.19089730902431
 30
0.0
 11
15611.585138088571
 21
-905.69089730902442
 31
0.0
  0
LINE
  5
13382
  8
01
 10
15598.81513808857
 20
-908.19089730902454
 30
0.0
 11
15598.81513808857
 21
-913.03589730902445
 31
0.0
  0
LINE
  5
13383
  8
01
 10
15596.30313808856
 20
-908.19089730902454
 30
0.0
 11
15596.30313808856
 21
-913.03589730902445
 31
0.0
  0
ARC
  5
13384
  8
01
 10
15603.20013808857
 20
-905.28689730902443
 30
0.0
 40
8.9039999999999981
 50
240.49599999998841
 51
270.0
  0
LINE
  5
13385
  8
01
 10
15598.81513808857
 20
-913.03589730902445
 30
0.0
 11
15596.30313808856
 21
-913.03589730902445
 31
0.0
  0
ARC
  5
13386
  8
01
 10
15587.585138088571
 20
-880.70489730902443
 30
0.0
 40
33.485999999999997
 50
270.0
 51
285.08999999997877
  0
LINE
  5
13387
  8
01
 10
15587.585138088571
 20
-914.19089730902431
 30
0.0
 11
15605.585138088571
 21
-914.19089730902431
 31
0.0
  0
LINE
  5
13388
  8
01
 10
15587.585138088571
 20
-908.19089730902454
 30
0.0
 11
15610.585138088571
 21
-908.19089730902454
 31
0.0
  0
LINE
  5
13389
  8
01
 10
15587.585138088571
 20
-906.19089730902431
 30
0.0
 11
15611.585138088571
 21
-906.19089730902431
 31
0.0
  0
LINE
  5
1338A
  8
01
 10
15605.585138088571
 20
-914.19089730902431
 30
0.0
 11
15607.585138088571
 21
-913.03589730902445
 31
0.0
  0
LINE
  5
1338B
  8
01
 10
15607.585138088571
 20
-913.03589730902445
 30
0.0
 11
15607.585138088571
 21
-909.19089730902442
 31
0.0
  0
ARC
  5
1338C
  8
01
 10
15608.585138088571
 20
-909.19089730902442
 30
0.0
 40
1.0
 50
90.0
 51
180.0
  0
LINE
  5
1338D
  8
01
 10
15611.585138088571
 20
-907.19089730902431
 30
0.0
 11
15611.585138088571
 21
-906.19089730902431
 31
0.0
  0
ARC
  5
1338E
  8
01
 10
15610.585138088571
 20
-907.19089730902431
 30
0.0
 40
1.0
 50
270.0
 51
0.0
  0
LINE
  5
1338F
  8
01
 10
15588.68913808857
 20
-918.34289730902435
 30
0.0
 11
15589.249138088569
 21
-918.41089730902445
 31
0.0
  0
LINE
  5
13390
  8
01
 10
15589.249138088569
 20
-918.41089730902445
 30
0.0
 11
15589.818138088571
 21
-918.50889730902429
 31
0.0
  0
LINE
  5
13391
  8
01
 10
15589.818138088571
 20
-918.50889730902429
 30
0.0
 11
15590.399138088571
 21
-918.64089730902435
 31
0.0
  0
LINE
  5
13392
  8
01
 10
15590.399138088571
 20
-918.64089730902435
 30
0.0
 11
15590.99113808857
 21
-918.8118973090244
 31
0.0
  0
LINE
  5
13393
  8
01
 10
15590.99113808857
 20
-918.8118973090244
 30
0.0
 11
15591.596138088569
 21
-919.02789730902441
 31
0.0
  0
LINE
  5
13394
  8
01
 10
15591.596138088569
 20
-919.02789730902441
 30
0.0
 11
15592.211138088571
 21
-919.29789730902439
 31
0.0
  0
LINE
  5
13395
  8
01
 10
15592.211138088571
 20
-919.29789730902439
 30
0.0
 11
15592.829138088569
 21
-919.62989730902427
 31
0.0
  0
LINE
  5
13396
  8
01
 10
15592.829138088569
 20
-919.62989730902427
 30
0.0
 11
15593.43913808857
 21
-920.03189730902443
 31
0.0
  0
LINE
  5
13397
  8
01
 10
15593.43913808857
 20
-920.03189730902443
 30
0.0
 11
15594.025138088569
 21
-920.51289730902454
 31
0.0
  0
LINE
  5
13398
  8
01
 10
15594.025138088569
 20
-920.51289730902454
 30
0.0
 11
15594.56213808857
 21
-921.07889730902434
 31
0.0
  0
LINE
  5
13399
  8
01
 10
15594.56213808857
 20
-921.07889730902434
 30
0.0
 11
15595.01913808857
 21
-921.72689730902425
 31
0.0
  0
LINE
  5
1339A
  8
01
 10
15595.01913808857
 20
-921.72689730902425
 30
0.0
 11
15595.363138088571
 21
-922.44989730902455
 31
0.0
  0
LINE
  5
1339B
  8
01
 10
15595.363138088571
 20
-922.44989730902455
 30
0.0
 11
15595.56213808857
 21
-923.22489730902453
 31
0.0
  0
LINE
  5
1339C
  8
01
 10
15595.56213808857
 20
-923.22489730902453
 30
0.0
 11
15595.605138088569
 21
-923.79089730902433
 31
0.0
  0
LINE
  5
1339D
  8
01
 10
15595.605138088569
 20
-923.79089730902433
 30
0.0
 11
15595.59813808857
 21
-924.02489730902437
 31
0.0
  0
LINE
  5
1339E
  8
01
 10
15595.59813808857
 20
-924.02489730902437
 30
0.0
 11
15595.46513808857
 21
-924.81489730902445
 31
0.0
  0
LINE
  5
1339F
  8
01
 10
15595.46513808857
 20
-924.81489730902445
 30
0.0
 11
15595.17813808857
 21
-925.5618973090244
 31
0.0
  0
LINE
  5
133A0
  8
01
 10
15595.17813808857
 20
-925.5618973090244
 30
0.0
 11
15594.764138088571
 21
-926.24289730902444
 31
0.0
  0
LINE
  5
133A1
  8
01
 10
15594.764138088571
 20
-926.24289730902444
 30
0.0
 11
15594.256138088571
 21
-926.84389730902444
 31
0.0
  0
LINE
  5
133A2
  8
01
 10
15594.256138088571
 20
-926.84389730902444
 30
0.0
 11
15593.68713808857
 21
-927.3598973090244
 31
0.0
  0
LINE
  5
133A3
  8
01
 10
15593.68713808857
 20
-927.3598973090244
 30
0.0
 11
15593.085138088571
 21
-927.79389730902426
 31
0.0
  0
LINE
  5
133A4
  8
01
 10
15593.085138088571
 20
-927.79389730902426
 30
0.0
 11
15592.46813808857
 21
-928.15389730902439
 31
0.0
  0
LINE
  5
133A5
  8
01
 10
15592.46813808857
 20
-928.15389730902439
 30
0.0
 11
15591.85113808857
 21
-928.44789730902426
 31
0.0
  0
LINE
  5
133A6
  8
01
 10
15591.85113808857
 20
-928.44789730902426
 30
0.0
 11
15591.24213808857
 21
-928.68589730902454
 31
0.0
  0
LINE
  5
133A7
  8
01
 10
15591.24213808857
 20
-928.68589730902454
 30
0.0
 11
15590.64413808857
 21
-928.87489730902439
 31
0.0
  0
LINE
  5
133A8
  8
01
 10
15590.64413808857
 20
-928.87489730902439
 30
0.0
 11
15590.058138088571
 21
-929.0228973090243
 31
0.0
  0
LINE
  5
133A9
  8
01
 10
15590.058138088571
 20
-929.0228973090243
 30
0.0
 11
15589.48513808857
 21
-929.13389730902441
 31
0.0
  0
LINE
  5
133AA
  8
01
 10
15589.48513808857
 20
-929.13389730902441
 30
0.0
 11
15588.92113808857
 21
-929.21389730902445
 31
0.0
  0
LINE
  5
133AB
  8
01
 10
15602.748138088569
 20
-929.29089730902444
 30
0.0
 11
15602.202138088571
 21
-929.23889730902431
 31
0.0
  0
LINE
  5
133AC
  8
01
 10
15602.202138088571
 20
-929.23889730902431
 30
0.0
 11
15601.675138088571
 21
-929.0858973090244
 31
0.0
  0
LINE
  5
133AD
  8
01
 10
15601.675138088571
 20
-929.0858973090244
 30
0.0
 11
15601.185138088569
 21
-928.8448973090243
 31
0.0
  0
LINE
  5
133AE
  8
01
 10
15601.185138088569
 20
-928.8448973090243
 30
0.0
 11
15600.74313808857
 21
-928.53489730902447
 31
0.0
  0
LINE
  5
133AF
  8
01
 10
15600.74313808857
 20
-928.53489730902447
 30
0.0
 11
15600.354138088571
 21
-928.17489730902446
 31
0.0
  0
LINE
  5
133B0
  8
01
 10
15600.354138088571
 20
-928.17489730902446
 30
0.0
 11
15600.019138088561
 21
-927.78089730902445
 31
0.0
  0
LINE
  5
133B1
  8
01
 10
15600.019138088561
 20
-927.78089730902445
 30
0.0
 11
15599.73613808857
 21
-927.36789730902456
 31
0.0
  0
LINE
  5
133B2
  8
01
 10
15599.73613808857
 20
-927.36789730902456
 30
0.0
 11
15599.50013808857
 21
-926.94589730902453
 31
0.0
  0
LINE
  5
133B3
  8
01
 10
15599.50013808857
 20
-926.94589730902453
 30
0.0
 11
15599.30713808857
 21
-926.52189730902433
 31
0.0
  0
LINE
  5
133B4
  8
01
 10
15599.30713808857
 20
-926.52189730902433
 30
0.0
 11
15599.150138088569
 21
-926.10189730902425
 31
0.0
  0
LINE
  5
133B5
  8
01
 10
15599.150138088569
 20
-926.10189730902425
 30
0.0
 11
15599.026138088569
 21
-925.68589730902443
 31
0.0
  0
LINE
  5
133B6
  8
01
 10
15599.026138088569
 20
-925.68589730902443
 30
0.0
 11
15598.93013808857
 21
-925.27489730902425
 31
0.0
  0
LINE
  5
133B7
  8
01
 10
15598.93013808857
 20
-925.27489730902425
 30
0.0
 11
15598.86013808857
 21
-924.8698973090244
 31
0.0
  0
LINE
  5
133B8
  8
01
 10
15598.86013808857
 20
-924.8698973090244
 30
0.0
 11
15598.81313808857
 21
-924.46989730902442
 31
0.0
  0
LINE
  5
133B9
  8
01
 10
15598.81313808857
 20
-924.46989730902442
 30
0.0
 11
15598.78813808857
 21
-924.07189730902439
 31
0.0
  0
LINE
  5
133BA
  8
01
 10
15598.78813808857
 20
-924.07189730902439
 30
0.0
 11
15598.784138088569
 21
-923.67489730902446
 31
0.0
  0
LINE
  5
133BB
  8
01
 10
15598.784138088569
 20
-923.67489730902446
 30
0.0
 11
15598.800138088571
 21
-923.27789730902441
 31
0.0
  0
LINE
  5
133BC
  8
01
 10
15598.800138088571
 20
-923.27789730902441
 30
0.0
 11
15598.838138088569
 21
-922.87889730902441
 31
0.0
  0
LINE
  5
133BD
  8
01
 10
15598.838138088569
 20
-922.87889730902441
 30
0.0
 11
15598.898138088571
 21
-922.47589730902439
 31
0.0
  0
LINE
  5
133BE
  8
01
 10
15598.898138088571
 20
-922.47589730902439
 30
0.0
 11
15598.98313808857
 21
-922.06789730902437
 31
0.0
  0
LINE
  5
133BF
  8
01
 10
15598.98313808857
 20
-922.06789730902437
 30
0.0
 11
15599.095138088571
 21
-921.65389730902439
 31
0.0
  0
LINE
  5
133C0
  8
01
 10
15599.095138088571
 20
-921.65389730902439
 30
0.0
 11
15599.237138088571
 21
-921.23489730902429
 31
0.0
  0
LINE
  5
133C1
  8
01
 10
15599.237138088571
 20
-921.23489730902429
 30
0.0
 11
15599.415138088571
 21
-920.81189730902429
 31
0.0
  0
LINE
  5
133C2
  8
01
 10
15599.415138088571
 20
-920.81189730902429
 30
0.0
 11
15599.632138088569
 21
-920.3888973090244
 31
0.0
  0
LINE
  5
133C3
  8
01
 10
15599.632138088569
 20
-920.3888973090244
 30
0.0
 11
15599.89513808857
 21
-919.97089730902439
 31
0.0
  0
LINE
  5
133C4
  8
01
 10
15599.89513808857
 20
-919.97089730902439
 30
0.0
 11
15600.20813808857
 21
-919.56789730902426
 31
0.0
  0
LINE
  5
133C5
  8
01
 10
15600.20813808857
 20
-919.56789730902426
 30
0.0
 11
15600.57413808857
 21
-919.19089730902442
 31
0.0
  0
LINE
  5
133C6
  8
01
 10
15600.57413808857
 20
-919.19089730902442
 30
0.0
 11
15600.99513808857
 21
-918.85789730902445
 31
0.0
  0
LINE
  5
133C7
  8
01
 10
15600.99513808857
 20
-918.85789730902445
 30
0.0
 11
15601.46613808857
 21
-918.58689730902438
 31
0.0
  0
LINE
  5
133C8
  8
01
 10
15601.46613808857
 20
-918.58689730902438
 30
0.0
 11
15601.979138088571
 21
-918.39489730902426
 31
0.0
  0
LINE
  5
133C9
  8
01
 10
15601.979138088571
 20
-918.39489730902426
 30
0.0
 11
15602.52013808857
 21
-918.29989730902435
 31
0.0
  0
LINE
  5
133CA
  8
01
 10
15602.52013808857
 20
-918.29989730902435
 30
0.0
 11
15602.748138088569
 21
-918.29089730902444
 31
0.0
  0
LINE
  5
133CB
  8
01
 10
15602.748138088569
 20
-918.29089730902444
 30
0.0
 11
15603.069138088569
 21
-918.30889730902436
 31
0.0
  0
LINE
  5
133CC
  8
01
 10
15603.069138088569
 20
-918.30889730902436
 30
0.0
 11
15603.606138088569
 21
-918.42089730902444
 31
0.0
  0
LINE
  5
133CD
  8
01
 10
15603.606138088569
 20
-918.42089730902444
 30
0.0
 11
15604.113138088571
 21
-918.62689730902434
 31
0.0
  0
LINE
  5
133CE
  8
01
 10
15604.113138088571
 20
-918.62689730902434
 30
0.0
 11
15604.577138088571
 21
-918.90989730902436
 31
0.0
  0
LINE
  5
133CF
  8
01
 10
15604.577138088571
 20
-918.90989730902436
 30
0.0
 11
15604.988138088571
 21
-919.25189730902434
 31
0.0
  0
LINE
  5
133D0
  8
01
 10
15604.988138088571
 20
-919.25189730902434
 30
0.0
 11
15605.345138088571
 21
-919.63389730902429
 31
0.0
  0
LINE
  5
133D1
  8
01
 10
15605.345138088571
 20
-919.63389730902429
 30
0.0
 11
15605.649138088571
 21
-920.04089730902444
 31
0.0
  0
LINE
  5
133D2
  8
01
 10
15605.649138088571
 20
-920.04089730902444
 30
0.0
 11
15605.90413808857
 21
-920.45989730902431
 31
0.0
  0
LINE
  5
133D3
  8
01
 10
15605.90413808857
 20
-920.45989730902431
 30
0.0
 11
15606.115138088569
 21
-920.88389730902441
 31
0.0
  0
LINE
  5
133D4
  8
01
 10
15606.115138088569
 20
-920.88389730902441
 30
0.0
 11
15606.286138088561
 21
-921.30589730902454
 31
0.0
  0
LINE
  5
133D5
  8
01
 10
15606.286138088561
 20
-921.30589730902454
 30
0.0
 11
15606.42313808857
 21
-921.72389730902444
 31
0.0
  0
LINE
  5
133D6
  8
01
 10
15606.42313808857
 20
-921.72389730902444
 30
0.0
 11
15606.53013808857
 21
-922.13689730902445
 31
0.0
  0
LINE
  5
133D7
  8
01
 10
15606.53013808857
 20
-922.13689730902445
 30
0.0
 11
15606.61113808857
 21
-922.54389730902426
 31
0.0
  0
LINE
  5
133D8
  8
01
 10
15606.61113808857
 20
-922.54389730902426
 30
0.0
 11
15606.667138088569
 21
-922.94589730902442
 31
0.0
  0
LINE
  5
133D9
  8
01
 10
15606.667138088569
 20
-922.94589730902442
 30
0.0
 11
15606.701138088571
 21
-923.34489730902442
 31
0.0
  0
LINE
  5
133DA
  8
01
 10
15606.701138088571
 20
-923.34489730902442
 30
0.0
 11
15606.71413808857
 21
-923.74189730902435
 31
0.0
  0
LINE
  5
133DB
  8
01
 10
15606.71413808857
 20
-923.74189730902435
 30
0.0
 11
15606.70613808857
 21
-924.13889730902429
 31
0.0
  0
LINE
  5
133DC
  8
01
 10
15606.70613808857
 20
-924.13889730902429
 30
0.0
 11
15606.677138088569
 21
-924.53689730902431
 31
0.0
  0
LINE
  5
133DD
  8
01
 10
15606.677138088569
 20
-924.53689730902431
 30
0.0
 11
15606.62713808857
 21
-924.93789730902427
 31
0.0
  0
LINE
  5
133DE
  8
01
 10
15606.62713808857
 20
-924.93789730902427
 30
0.0
 11
15606.55313808857
 21
-925.34389730902433
 31
0.0
  0
LINE
  5
133DF
  8
01
 10
15606.55313808857
 20
-925.34389730902433
 30
0.0
 11
15606.452138088571
 21
-925.75489730902439
 31
0.0
  0
LINE
  5
133E0
  8
01
 10
15606.452138088571
 20
-925.75489730902439
 30
0.0
 11
15606.32313808857
 21
-926.17189730902442
 31
0.0
  0
LINE
  5
133E1
  8
01
 10
15606.32313808857
 20
-926.17189730902442
 30
0.0
 11
15606.16113808857
 21
-926.59289730902447
 31
0.0
  0
LINE
  5
133E2
  8
01
 10
15606.16113808857
 20
-926.59289730902447
 30
0.0
 11
15605.960138088571
 21
-927.01689730902444
 31
0.0
  0
LINE
  5
133E3
  8
01
 10
15605.960138088571
 20
-927.01689730902444
 30
0.0
 11
15605.71713808857
 21
-927.43789730902427
 31
0.0
  0
LINE
  5
133E4
  8
01
 10
15605.71713808857
 20
-927.43789730902427
 30
0.0
 11
15605.425138088571
 21
-927.84889730902444
 31
0.0
  0
LINE
  5
133E5
  8
01
 10
15605.425138088571
 20
-927.84889730902444
 30
0.0
 11
15605.08213808857
 21
-928.23789730902445
 31
0.0
  0
LINE
  5
133E6
  8
01
 10
15605.08213808857
 20
-928.23789730902445
 30
0.0
 11
15604.684138088571
 21
-928.59189730902426
 31
0.0
  0
LINE
  5
133E7
  8
01
 10
15604.684138088571
 20
-928.59189730902426
 30
0.0
 11
15604.23313808857
 21
-928.89089730902435
 31
0.0
  0
LINE
  5
133E8
  8
01
 10
15604.23313808857
 20
-928.89089730902435
 30
0.0
 11
15603.73513808857
 21
-929.11789730902456
 31
0.0
  0
LINE
  5
133E9
  8
01
 10
15603.73513808857
 20
-929.11789730902456
 30
0.0
 11
15603.204138088569
 21
-929.25489730902439
 31
0.0
  0
LINE
  5
133EA
  8
01
 10
15603.204138088569
 20
-929.25489730902439
 30
0.0
 11
15602.748138088569
 21
-929.29089730902444
 31
0.0
  0
ARC
  5
133EB
  8
01
 10
15597.710138088571
 20
-923.79089730902433
 30
0.0
 40
9.125
 50
318.88800000001589
 51
40.590999999940337
  0
LINE
  5
133EC
  8
01
 10
15587.585138088571
 20
-917.79089730902444
 30
0.0
 11
15604.585138088571
 21
-917.79089730902444
 31
0.0
  0
LINE
  5
133ED
  8
01
 10
15587.585138088571
 20
-929.79089730902444
 30
0.0
 11
15604.585138088571
 21
-929.79089730902444
 31
0.0
  0
LINE
  5
133F7
  8
01
 10
15614.585138088571
 20
-884.89089730902435
 30
0.0
 11
15587.585138088571
 21
-884.89089730902435
 31
0.0
  0
LINE
  5
133F8
  8
01
 10
15602.569138088569
 20
-917.79089730902444
 30
0.0
 11
15602.569138088569
 21
-914.19089730902431
 31
0.0
  0
LINE
  5
133F9
  8
01
 10
15603.585138088571
 20
-914.19089730902431
 30
0.0
 11
15603.585138088571
 21
-917.79089730902444
 31
0.0
  0
LINE
  5
133FA
  8
01
 10
15603.565393375049
 20
-898.96532890130288
 30
0.0
 11
15604.185138088569
 21
-897.89189730902444
 31
0.0
  0
LINE
  5
133FB
  8
01
 10
15603.910055952059
 20
-899.16227894530846
 30
0.0
 11
15605.285590581931
 21
-892.69089730902442
 31
0.0
  0
LINE
  5
133FC
  8
01
 10
15612.01473808857
 20
-886.69089730902454
 30
0.0
 11
15614.585138088571
 21
-884.89089730902435
 31
0.0
  0
LINE
  5
133FD
  8
01
 10
15587.585138088571
 20
-886.69089730902454
 30
0.0
 11
15612.01473808857
 21
-886.69089730902454
 31
0.0
  0
LINE
  5
133FF
  8
01
 10
15614.585138088571
 20
-884.19089730902442
 30
0.0
 11
15614.585138088571
 21
-884.89089730902435
 31
0.0
  0
ARC
  5
13400
  8
01
 10
15614.085138088571
 20
-884.19089730902442
 30
0.0
 40
0.5
 50
0.0
 51
90.0
  0
LINE
  5
136A9
  8
01
 10
15575.08513808856
 20
-929.79089730902456
 30
0.0
 11
15575.08513808856
 21
-960.37978630902444
 31
0.0
  0
LINE
  5
137C8
  8
01
 10
15587.585138088571
 20
-971.87978630902444
 30
0.0
 11
15588.13613808857
 21
-971.86678630902441
 31
0.0
  0
LINE
  5
137C9
  8
01
 10
15588.13613808857
 20
-971.86678630902441
 30
0.0
 11
15588.68913808857
 21
-971.82778630902453
 31
0.0
  0
LINE
  5
137CA
  8
01
 10
15588.68913808857
 20
-971.82778630902453
 30
0.0
 11
15589.249138088569
 21
-971.75978630902443
 31
0.0
  0
LINE
  5
137CB
  8
01
 10
15589.249138088569
 20
-971.75978630902443
 30
0.0
 11
15589.818138088571
 21
-971.66178630902436
 31
0.0
  0
LINE
  5
137CC
  8
01
 10
15589.818138088571
 20
-971.66178630902436
 30
0.0
 11
15590.399138088571
 21
-971.52978630902419
 31
0.0
  0
LINE
  5
137CD
  8
01
 10
15590.399138088571
 20
-971.52978630902419
 30
0.0
 11
15590.99113808857
 21
-971.35878630902448
 31
0.0
  0
LINE
  5
137CE
  8
01
 10
15590.99113808857
 20
-971.35878630902448
 30
0.0
 11
15591.596138088569
 21
-971.14278630902459
 31
0.0
  0
LINE
  5
137CF
  8
01
 10
15591.596138088569
 20
-971.14278630902459
 30
0.0
 11
15592.211138088571
 21
-970.8727863090246
 31
0.0
  0
LINE
  5
137D0
  8
01
 10
15592.211138088571
 20
-970.8727863090246
 30
0.0
 11
15592.829138088569
 21
-970.5407863090245
 31
0.0
  0
LINE
  5
137D1
  8
01
 10
15592.829138088569
 20
-970.5407863090245
 30
0.0
 11
15593.43913808857
 21
-970.13878630902445
 31
0.0
  0
LINE
  5
137D2
  8
01
 10
15593.43913808857
 20
-970.13878630902445
 30
0.0
 11
15594.025138088569
 21
-969.65778630902435
 31
0.0
  0
LINE
  5
137D3
  8
01
 10
15594.025138088569
 20
-969.65778630902435
 30
0.0
 11
15594.56213808857
 21
-969.09178630902454
 31
0.0
  0
LINE
  5
137D4
  8
01
 10
15594.56213808857
 20
-969.09178630902454
 30
0.0
 11
15595.01913808857
 21
-968.44378630902452
 31
0.0
  0
LINE
  5
137D5
  8
01
 10
15595.01913808857
 20
-968.44378630902452
 30
0.0
 11
15595.363138088571
 21
-967.72178630902431
 31
0.0
  0
LINE
  5
137D6
  8
01
 10
15595.363138088571
 20
-967.72178630902431
 30
0.0
 11
15595.56213808857
 21
-966.94578630902436
 31
0.0
  0
LINE
  5
137D7
  8
01
 10
15595.56213808857
 20
-966.94578630902436
 30
0.0
 11
15595.605138088569
 21
-966.37978630902455
 31
0.0
  0
LINE
  5
137D8
  8
01
 10
15595.605138088569
 20
-966.37978630902455
 30
0.0
 11
15595.59813808857
 21
-966.14578630902429
 31
0.0
  0
LINE
  5
137D9
  8
01
 10
15595.59813808857
 20
-966.14578630902429
 30
0.0
 11
15595.46513808857
 21
-965.35578630902432
 31
0.0
  0
LINE
  5
137DA
  8
01
 10
15595.46513808857
 20
-965.35578630902432
 30
0.0
 11
15595.17813808857
 21
-964.60878630902437
 31
0.0
  0
LINE
  5
137DB
  8
01
 10
15595.17813808857
 20
-964.60878630902437
 30
0.0
 11
15594.764138088571
 21
-963.92778630902444
 31
0.0
  0
LINE
  5
137DC
  8
01
 10
15594.764138088571
 20
-963.92778630902444
 30
0.0
 11
15594.256138088571
 21
-963.32678630902421
 31
0.0
  0
LINE
  5
137DD
  8
01
 10
15594.256138088571
 20
-963.32678630902421
 30
0.0
 11
15593.68713808857
 21
-962.81078630902437
 31
0.0
  0
LINE
  5
137DE
  8
01
 10
15593.68713808857
 20
-962.81078630902437
 30
0.0
 11
15593.085138088571
 21
-962.37678630902451
 31
0.0
  0
LINE
  5
137DF
  8
01
 10
15593.085138088571
 20
-962.37678630902451
 30
0.0
 11
15592.46813808857
 21
-962.01678630902427
 31
0.0
  0
LINE
  5
137E0
  8
01
 10
15592.46813808857
 20
-962.01678630902427
 30
0.0
 11
15591.85113808857
 21
-961.72278630902463
 31
0.0
  0
LINE
  5
137E1
  8
01
 10
15591.85113808857
 20
-961.72278630902463
 30
0.0
 11
15591.24213808857
 21
-961.48478630902446
 31
0.0
  0
LINE
  5
137E2
  8
01
 10
15591.24213808857
 20
-961.48478630902446
 30
0.0
 11
15590.64413808857
 21
-961.29578630902438
 31
0.0
  0
LINE
  5
137E3
  8
01
 10
15590.64413808857
 20
-961.29578630902438
 30
0.0
 11
15590.058138088571
 21
-961.14778630902447
 31
0.0
  0
LINE
  5
137E4
  8
01
 10
15590.058138088571
 20
-961.14778630902447
 30
0.0
 11
15589.48513808857
 21
-961.03678630902436
 31
0.0
  0
LINE
  5
137E5
  8
01
 10
15589.48513808857
 20
-961.03678630902436
 30
0.0
 11
15588.92113808857
 21
-960.95678630902444
 31
0.0
  0
LINE
  5
137E6
  8
01
 10
15588.92113808857
 20
-960.95678630902444
 30
0.0
 11
15588.365138088569
 21
-960.90578630902439
 31
0.0
  0
LINE
  5
137E7
  8
01
 10
15588.365138088569
 20
-960.90578630902439
 30
0.0
 11
15587.81413808857
 21
-960.88178630902462
 31
0.0
  0
LINE
  5
137E8
  8
01
 10
15587.81413808857
 20
-960.88178630902462
 30
0.0
 11
15587.577138088571
 21
-960.87978630902433
 31
0.0
  0
LINE
  5
137E9
  8
01
 10
15602.748138088569
 20
-960.87978630902433
 30
0.0
 11
15602.202138088571
 21
-960.93278630902455
 31
0.0
  0
LINE
  5
137EA
  8
01
 10
15602.202138088571
 20
-960.93278630902455
 30
0.0
 11
15601.675138088571
 21
-961.08478630902459
 31
0.0
  0
LINE
  5
137EB
  8
01
 10
15601.675138088571
 20
-961.08478630902459
 30
0.0
 11
15601.185138088569
 21
-961.32578630902447
 31
0.0
  0
LINE
  5
137EC
  8
01
 10
15601.185138088569
 20
-961.32578630902447
 30
0.0
 11
15600.74313808857
 21
-961.63578630902452
 31
0.0
  0
LINE
  5
137ED
  8
01
 10
15600.74313808857
 20
-961.63578630902452
 30
0.0
 11
15600.354138088571
 21
-961.99578630902442
 31
0.0
  0
LINE
  5
137EE
  8
01
 10
15600.354138088571
 20
-961.99578630902442
 30
0.0
 11
15600.019138088561
 21
-962.38978630902443
 31
0.0
  0
LINE
  5
137EF
  8
01
 10
15600.019138088561
 20
-962.38978630902443
 30
0.0
 11
15599.73613808857
 21
-962.80278630902444
 31
0.0
  0
LINE
  5
137F0
  8
01
 10
15599.73613808857
 20
-962.80278630902444
 30
0.0
 11
15599.50013808857
 21
-963.22478630902435
 31
0.0
  0
LINE
  5
137F1
  8
01
 10
15599.50013808857
 20
-963.22478630902435
 30
0.0
 11
15599.30713808857
 21
-963.64878630902444
 31
0.0
  0
LINE
  5
137F2
  8
01
 10
15599.30713808857
 20
-963.64878630902444
 30
0.0
 11
15599.150138088569
 21
-964.06878630902463
 31
0.0
  0
LINE
  5
137F3
  8
01
 10
15599.150138088569
 20
-964.06878630902463
 30
0.0
 11
15599.026138088569
 21
-964.48478630902434
 31
0.0
  0
LINE
  5
137F4
  8
01
 10
15599.026138088569
 20
-964.48478630902434
 30
0.0
 11
15598.93013808857
 21
-964.89578630902429
 31
0.0
  0
LINE
  5
137F5
  8
01
 10
15598.93013808857
 20
-964.89578630902429
 30
0.0
 11
15598.86013808857
 21
-965.30078630902449
 31
0.0
  0
LINE
  5
137F6
  8
01
 10
15598.86013808857
 20
-965.30078630902449
 30
0.0
 11
15598.81313808857
 21
-965.70078630902458
 31
0.0
  0
LINE
  5
137F7
  8
01
 10
15598.81313808857
 20
-965.70078630902458
 30
0.0
 11
15598.78813808857
 21
-966.09878630902449
 31
0.0
  0
LINE
  5
137F8
  8
01
 10
15598.78813808857
 20
-966.09878630902449
 30
0.0
 11
15598.784138088569
 21
-966.49578630902431
 31
0.0
  0
LINE
  5
137F9
  8
01
 10
15598.784138088569
 20
-966.49578630902431
 30
0.0
 11
15598.800138088571
 21
-966.89278630902459
 31
0.0
  0
LINE
  5
137FA
  8
01
 10
15598.800138088571
 20
-966.89278630902459
 30
0.0
 11
15598.838138088569
 21
-967.29178630902436
 31
0.0
  0
LINE
  5
137FB
  8
01
 10
15598.838138088569
 20
-967.29178630902436
 30
0.0
 11
15598.898138088571
 21
-967.69478630902438
 31
0.0
  0
LINE
  5
137FC
  8
01
 10
15598.898138088571
 20
-967.69478630902438
 30
0.0
 11
15598.98313808857
 21
-968.1027863090244
 31
0.0
  0
LINE
  5
137FD
  8
01
 10
15598.98313808857
 20
-968.1027863090244
 30
0.0
 11
15599.095138088571
 21
-968.51678630902438
 31
0.0
  0
LINE
  5
137FE
  8
01
 10
15599.095138088571
 20
-968.51678630902438
 30
0.0
 11
15599.237138088571
 21
-968.93578630902448
 31
0.0
  0
LINE
  5
137FF
  8
01
 10
15599.237138088571
 20
-968.93578630902448
 30
0.0
 11
15599.415138088571
 21
-969.35878630902448
 31
0.0
  0
LINE
  5
13800
  8
01
 10
15599.415138088571
 20
-969.35878630902448
 30
0.0
 11
15599.632138088569
 21
-969.78178630902448
 31
0.0
  0
LINE
  5
13801
  8
01
 10
15599.632138088569
 20
-969.78178630902448
 30
0.0
 11
15599.89513808857
 21
-970.19978630902426
 31
0.0
  0
LINE
  5
13802
  8
01
 10
15599.89513808857
 20
-970.19978630902426
 30
0.0
 11
15600.20813808857
 21
-970.60278630902428
 31
0.0
  0
LINE
  5
13803
  8
01
 10
15600.20813808857
 20
-970.60278630902428
 30
0.0
 11
15600.57413808857
 21
-970.97978630902458
 31
0.0
  0
LINE
  5
13804
  8
01
 10
15600.57413808857
 20
-970.97978630902458
 30
0.0
 11
15600.99513808857
 21
-971.31278630902443
 31
0.0
  0
LINE
  5
13805
  8
01
 10
15600.99513808857
 20
-971.31278630902443
 30
0.0
 11
15601.46613808857
 21
-971.58378630902428
 31
0.0
  0
LINE
  5
13806
  8
01
 10
15601.46613808857
 20
-971.58378630902428
 30
0.0
 11
15601.979138088571
 21
-971.77578630902428
 31
0.0
  0
LINE
  5
13807
  8
01
 10
15601.979138088571
 20
-971.77578630902428
 30
0.0
 11
15602.52013808857
 21
-971.87078630902442
 31
0.0
  0
LINE
  5
13808
  8
01
 10
15602.52013808857
 20
-971.87078630902442
 30
0.0
 11
15602.748138088569
 21
-971.87978630902444
 31
0.0
  0
LINE
  5
13809
  8
01
 10
15602.748138088569
 20
-971.87978630902444
 30
0.0
 11
15603.069138088569
 21
-971.86178630902464
 31
0.0
  0
LINE
  5
1380A
  8
01
 10
15603.069138088569
 20
-971.86178630902464
 30
0.0
 11
15603.606138088569
 21
-971.74978630902456
 31
0.0
  0
LINE
  5
1380B
  8
01
 10
15603.606138088569
 20
-971.74978630902456
 30
0.0
 11
15604.113138088571
 21
-971.54378630902443
 31
0.0
  0
LINE
  5
1380C
  8
01
 10
15604.113138088571
 20
-971.54378630902443
 30
0.0
 11
15604.577138088571
 21
-971.26078630902441
 31
0.0
  0
LINE
  5
1380D
  8
01
 10
15604.577138088571
 20
-971.26078630902441
 30
0.0
 11
15604.988138088571
 21
-970.91878630902443
 31
0.0
  0
LINE
  5
1380E
  8
01
 10
15604.988138088571
 20
-970.91878630902443
 30
0.0
 11
15605.345138088571
 21
-970.53678630902425
 31
0.0
  0
LINE
  5
1380F
  8
01
 10
15605.345138088571
 20
-970.53678630902425
 30
0.0
 11
15605.649138088571
 21
-970.12978630902444
 31
0.0
  0
LINE
  5
13810
  8
01
 10
15605.649138088571
 20
-970.12978630902444
 30
0.0
 11
15605.90413808857
 21
-969.71078630902434
 31
0.0
  0
LINE
  5
13811
  8
01
 10
15605.90413808857
 20
-969.71078630902434
 30
0.0
 11
15606.115138088569
 21
-969.28678630902436
 31
0.0
  0
LINE
  5
13812
  8
01
 10
15606.115138088569
 20
-969.28678630902436
 30
0.0
 11
15606.286138088561
 21
-968.86478630902445
 31
0.0
  0
LINE
  5
13813
  8
01
 10
15606.286138088561
 20
-968.86478630902445
 30
0.0
 11
15606.42313808857
 21
-968.44678630902445
 31
0.0
  0
LINE
  5
13814
  8
01
 10
15606.42313808857
 20
-968.44678630902445
 30
0.0
 11
15606.53013808857
 21
-968.03378630902444
 31
0.0
  0
LINE
  5
13815
  8
01
 10
15606.53013808857
 20
-968.03378630902444
 30
0.0
 11
15606.61113808857
 21
-967.62678630902451
 31
0.0
  0
LINE
  5
13816
  8
01
 10
15606.61113808857
 20
-967.62678630902451
 30
0.0
 11
15606.667138088569
 21
-967.22478630902447
 31
0.0
  0
LINE
  5
13817
  8
01
 10
15606.667138088569
 20
-967.22478630902447
 30
0.0
 11
15606.701138088571
 21
-966.82578630902447
 31
0.0
  0
LINE
  5
13818
  8
01
 10
15606.701138088571
 20
-966.82578630902447
 30
0.0
 11
15606.71413808857
 21
-966.42878630902442
 31
0.0
  0
LINE
  5
13819
  8
01
 10
15606.71413808857
 20
-966.42878630902442
 30
0.0
 11
15606.70613808857
 21
-966.03178630902448
 31
0.0
  0
LINE
  5
1381A
  8
01
 10
15606.70613808857
 20
-966.03178630902448
 30
0.0
 11
15606.677138088569
 21
-965.63378630902446
 31
0.0
  0
LINE
  5
1381B
  8
01
 10
15606.677138088569
 20
-965.63378630902446
 30
0.0
 11
15606.62713808857
 21
-965.23278630902462
 31
0.0
  0
LINE
  5
1381C
  8
01
 10
15606.62713808857
 20
-965.23278630902462
 30
0.0
 11
15606.55313808857
 21
-964.82678630902433
 31
0.0
  0
LINE
  5
1381D
  8
01
 10
15606.55313808857
 20
-964.82678630902433
 30
0.0
 11
15606.452138088571
 21
-964.41578630902438
 31
0.0
  0
LINE
  5
1381E
  8
01
 10
15606.452138088571
 20
-964.41578630902438
 30
0.0
 11
15606.32313808857
 21
-963.99878630902435
 31
0.0
  0
LINE
  5
1381F
  8
01
 10
15606.32313808857
 20
-963.99878630902435
 30
0.0
 11
15606.16113808857
 21
-963.57778630902453
 31
0.0
  0
LINE
  5
13820
  8
01
 10
15606.16113808857
 20
-963.57778630902453
 30
0.0
 11
15605.960138088571
 21
-963.15378630902455
 31
0.0
  0
LINE
  5
13821
  8
01
 10
15605.960138088571
 20
-963.15378630902455
 30
0.0
 11
15605.71713808857
 21
-962.7327863090245
 31
0.0
  0
LINE
  5
13822
  8
01
 10
15605.71713808857
 20
-962.7327863090245
 30
0.0
 11
15605.425138088571
 21
-962.32178630902445
 31
0.0
  0
LINE
  5
13823
  8
01
 10
15605.425138088571
 20
-962.32178630902445
 30
0.0
 11
15605.08213808857
 21
-961.93278630902455
 31
0.0
  0
LINE
  5
13824
  8
01
 10
15605.08213808857
 20
-961.93278630902455
 30
0.0
 11
15604.684138088571
 21
-961.57878630902428
 31
0.0
  0
LINE
  5
13825
  8
01
 10
15604.684138088571
 20
-961.57878630902428
 30
0.0
 11
15604.23313808857
 21
-961.2797863090243
 31
0.0
  0
LINE
  5
13826
  8
01
 10
15604.23313808857
 20
-961.2797863090243
 30
0.0
 11
15603.73513808857
 21
-961.05278630902433
 31
0.0
  0
LINE
  5
13827
  8
01
 10
15603.73513808857
 20
-961.05278630902433
 30
0.0
 11
15603.204138088569
 21
-960.91578630902438
 31
0.0
  0
LINE
  5
13828
  8
01
 10
15603.204138088569
 20
-960.91578630902438
 30
0.0
 11
15602.748138088569
 21
-960.87978630902433
 31
0.0
  0
ARC
  5
13829
  8
01
 10
15597.710138088571
 20
-966.37978630902455
 30
0.0
 40
9.125
 50
319.40900000006951
 51
41.111999999984107
  0
LINE
  5
1382A
  8
01
 10
15587.585138088571
 20
-972.37978630902433
 30
0.0
 11
15604.585138088571
 21
-972.37978630902433
 31
0.0
  0
LINE
  5
1382B
  8
01
 10
15587.585138088571
 20
-960.37978630902444
 30
0.0
 11
15604.585138088571
 21
-960.37978630902444
 31
0.0
  0
LINE
  5
1382E
  8
01
 10
15587.585138088571
 20
-957.97978630902446
 30
0.0
 11
15587.585138088571
 21
-976.47978630902458
 31
0.0
  0
LINE
  5
1383B
  8
01
 10
15572.42213808857
 20
-960.87978630902433
 30
0.0
 11
15572.96813808857
 21
-960.93278630902455
 31
0.0
  0
LINE
  5
1383C
  8
01
 10
15572.96813808857
 20
-960.93278630902455
 30
0.0
 11
15573.49513808857
 21
-961.08478630902459
 31
0.0
  0
LINE
  5
1383D
  8
01
 10
15573.49513808857
 20
-961.08478630902459
 30
0.0
 11
15573.98513808857
 21
-961.32578630902447
 31
0.0
  0
LINE
  5
1383E
  8
01
 10
15573.98513808857
 20
-961.32578630902447
 30
0.0
 11
15574.427138088569
 21
-961.63578630902452
 31
0.0
  0
LINE
  5
1383F
  8
01
 10
15574.427138088569
 20
-961.63578630902452
 30
0.0
 11
15574.81613808857
 21
-961.99578630902442
 31
0.0
  0
LINE
  5
13840
  8
01
 10
15574.81613808857
 20
-961.99578630902442
 30
0.0
 11
15575.151138088569
 21
-962.38978630902443
 31
0.0
  0
LINE
  5
13841
  8
01
 10
15575.151138088569
 20
-962.38978630902443
 30
0.0
 11
15575.434138088571
 21
-962.80278630902444
 31
0.0
  0
LINE
  5
13842
  8
01
 10
15575.434138088571
 20
-962.80278630902444
 30
0.0
 11
15575.67013808857
 21
-963.22478630902435
 31
0.0
  0
LINE
  5
13843
  8
01
 10
15575.67013808857
 20
-963.22478630902435
 30
0.0
 11
15575.863138088571
 21
-963.64878630902444
 31
0.0
  0
LINE
  5
13844
  8
01
 10
15575.863138088571
 20
-963.64878630902444
 30
0.0
 11
15576.02013808857
 21
-964.06878630902463
 31
0.0
  0
LINE
  5
13845
  8
01
 10
15576.02013808857
 20
-964.06878630902463
 30
0.0
 11
15576.14413808857
 21
-964.48478630902434
 31
0.0
  0
LINE
  5
13846
  8
01
 10
15576.14413808857
 20
-964.48478630902434
 30
0.0
 11
15576.240138088569
 21
-964.89578630902429
 31
0.0
  0
LINE
  5
13847
  8
01
 10
15576.240138088569
 20
-964.89578630902429
 30
0.0
 11
15576.310138088569
 21
-965.30078630902449
 31
0.0
  0
LINE
  5
13848
  8
01
 10
15576.310138088569
 20
-965.30078630902449
 30
0.0
 11
15576.35713808857
 21
-965.70078630902458
 31
0.0
  0
LINE
  5
13849
  8
01
 10
15576.35713808857
 20
-965.70078630902458
 30
0.0
 11
15576.382138088569
 21
-966.09878630902449
 31
0.0
  0
LINE
  5
1384A
  8
01
 10
15576.382138088569
 20
-966.09878630902449
 30
0.0
 11
15576.38613808857
 21
-966.49578630902431
 31
0.0
  0
LINE
  5
1384B
  8
01
 10
15576.38613808857
 20
-966.49578630902431
 30
0.0
 11
15576.37013808857
 21
-966.89278630902459
 31
0.0
  0
LINE
  5
1384C
  8
01
 10
15576.37013808857
 20
-966.89278630902459
 30
0.0
 11
15576.33213808857
 21
-967.29178630902436
 31
0.0
  0
LINE
  5
1384D
  8
01
 10
15576.33213808857
 20
-967.29178630902436
 30
0.0
 11
15576.272138088571
 21
-967.69478630902438
 31
0.0
  0
LINE
  5
1384E
  8
01
 10
15576.272138088571
 20
-967.69478630902438
 30
0.0
 11
15576.18713808857
 21
-968.1027863090244
 31
0.0
  0
LINE
  5
1384F
  8
01
 10
15576.18713808857
 20
-968.1027863090244
 30
0.0
 11
15576.07513808857
 21
-968.51678630902438
 31
0.0
  0
LINE
  5
13850
  8
01
 10
15576.07513808857
 20
-968.51678630902438
 30
0.0
 11
15575.933138088571
 21
-968.93578630902448
 31
0.0
  0
LINE
  5
13851
  8
01
 10
15575.933138088571
 20
-968.93578630902448
 30
0.0
 11
15575.755138088571
 21
-969.35878630902448
 31
0.0
  0
LINE
  5
13852
  8
01
 10
15575.755138088571
 20
-969.35878630902448
 30
0.0
 11
15575.53813808857
 21
-969.78178630902448
 31
0.0
  0
LINE
  5
13853
  8
01
 10
15575.53813808857
 20
-969.78178630902448
 30
0.0
 11
15575.275138088569
 21
-970.19978630902426
 31
0.0
  0
LINE
  5
13854
  8
01
 10
15575.275138088569
 20
-970.19978630902426
 30
0.0
 11
15574.962138088569
 21
-970.60278630902428
 31
0.0
  0
LINE
  5
13855
  8
01
 10
15574.962138088569
 20
-970.60278630902428
 30
0.0
 11
15574.596138088569
 21
-970.97978630902458
 31
0.0
  0
LINE
  5
13856
  8
01
 10
15574.596138088569
 20
-970.97978630902458
 30
0.0
 11
15574.175138088571
 21
-971.31278630902443
 31
0.0
  0
LINE
  5
13857
  8
01
 10
15574.175138088571
 20
-971.31278630902443
 30
0.0
 11
15573.704138088569
 21
-971.58378630902428
 31
0.0
  0
LINE
  5
13858
  8
01
 10
15573.704138088569
 20
-971.58378630902428
 30
0.0
 11
15573.19113808857
 21
-971.77578630902428
 31
0.0
  0
LINE
  5
13859
  8
01
 10
15573.19113808857
 20
-971.77578630902428
 30
0.0
 11
15572.650138088569
 21
-971.87078630902442
 31
0.0
  0
LINE
  5
1385A
  8
01
 10
15572.650138088569
 20
-971.87078630902442
 30
0.0
 11
15572.42213808857
 21
-971.87978630902444
 31
0.0
  0
LINE
  5
1385B
  8
01
 10
15572.42213808857
 20
-971.87978630902444
 30
0.0
 11
15572.10113808857
 21
-971.86178630902464
 31
0.0
  0
LINE
  5
1385C
  8
01
 10
15572.10113808857
 20
-971.86178630902464
 30
0.0
 11
15571.56413808857
 21
-971.74978630902456
 31
0.0
  0
LINE
  5
1385D
  8
01
 10
15571.56413808857
 20
-971.74978630902456
 30
0.0
 11
15571.05713808857
 21
-971.54378630902443
 31
0.0
  0
LINE
  5
1385E
  8
01
 10
15571.05713808857
 20
-971.54378630902443
 30
0.0
 11
15570.59313808857
 21
-971.26078630902441
 31
0.0
  0
LINE
  5
1385F
  8
01
 10
15570.59313808857
 20
-971.26078630902441
 30
0.0
 11
15570.18213808857
 21
-970.91878630902443
 31
0.0
  0
LINE
  5
13860
  8
01
 10
15570.18213808857
 20
-970.91878630902443
 30
0.0
 11
15569.82513808857
 21
-970.53678630902425
 31
0.0
  0
LINE
  5
13861
  8
01
 10
15569.82513808857
 20
-970.53678630902425
 30
0.0
 11
15569.52113808857
 21
-970.12978630902444
 31
0.0
  0
LINE
  5
13862
  8
01
 10
15569.52113808857
 20
-970.12978630902444
 30
0.0
 11
15569.266138088569
 21
-969.71078630902434
 31
0.0
  0
LINE
  5
13863
  8
01
 10
15569.266138088569
 20
-969.71078630902434
 30
0.0
 11
15569.05513808857
 21
-969.28678630902436
 31
0.0
  0
LINE
  5
13864
  8
01
 10
15569.05513808857
 20
-969.28678630902436
 30
0.0
 11
15568.88413808857
 21
-968.86478630902445
 31
0.0
  0
LINE
  5
13865
  8
01
 10
15568.88413808857
 20
-968.86478630902445
 30
0.0
 11
15568.747138088571
 21
-968.44678630902445
 31
0.0
  0
LINE
  5
13866
  8
01
 10
15568.747138088571
 20
-968.44678630902445
 30
0.0
 11
15568.640138088571
 21
-968.03378630902444
 31
0.0
  0
LINE
  5
13867
  8
01
 10
15568.640138088571
 20
-968.03378630902444
 30
0.0
 11
15568.559138088571
 21
-967.62678630902451
 31
0.0
  0
LINE
  5
13868
  8
01
 10
15568.559138088571
 20
-967.62678630902451
 30
0.0
 11
15568.50313808857
 21
-967.22478630902447
 31
0.0
  0
LINE
  5
13869
  8
01
 10
15568.50313808857
 20
-967.22478630902447
 30
0.0
 11
15568.469138088571
 21
-966.82578630902447
 31
0.0
  0
LINE
  5
1386A
  8
01
 10
15568.469138088571
 20
-966.82578630902447
 30
0.0
 11
15568.45613808857
 21
-966.42878630902442
 31
0.0
  0
LINE
  5
1386B
  8
01
 10
15568.45613808857
 20
-966.42878630902442
 30
0.0
 11
15568.46413808857
 21
-966.03178630902448
 31
0.0
  0
LINE
  5
1386C
  8
01
 10
15568.46413808857
 20
-966.03178630902448
 30
0.0
 11
15568.49313808857
 21
-965.63378630902446
 31
0.0
  0
LINE
  5
1386D
  8
01
 10
15568.49313808857
 20
-965.63378630902446
 30
0.0
 11
15568.543138088569
 21
-965.23278630902462
 31
0.0
  0
LINE
  5
1386E
  8
01
 10
15568.543138088569
 20
-965.23278630902462
 30
0.0
 11
15568.61713808857
 21
-964.82678630902433
 31
0.0
  0
LINE
  5
1386F
  8
01
 10
15568.61713808857
 20
-964.82678630902433
 30
0.0
 11
15568.71813808857
 21
-964.41578630902438
 31
0.0
  0
LINE
  5
13870
  8
01
 10
15568.71813808857
 20
-964.41578630902438
 30
0.0
 11
15568.847138088569
 21
-963.99878630902435
 31
0.0
  0
LINE
  5
13871
  8
01
 10
15568.847138088569
 20
-963.99878630902435
 30
0.0
 11
15569.00913808857
 21
-963.57778630902453
 31
0.0
  0
LINE
  5
13872
  8
01
 10
15569.00913808857
 20
-963.57778630902453
 30
0.0
 11
15569.210138088571
 21
-963.15378630902455
 31
0.0
  0
LINE
  5
13873
  8
01
 10
15569.210138088571
 20
-963.15378630902455
 30
0.0
 11
15569.453138088569
 21
-962.7327863090245
 31
0.0
  0
LINE
  5
13874
  8
01
 10
15569.453138088569
 20
-962.7327863090245
 30
0.0
 11
15569.74513808857
 21
-962.32178630902445
 31
0.0
  0
LINE
  5
13875
  8
01
 10
15569.74513808857
 20
-962.32178630902445
 30
0.0
 11
15570.088138088569
 21
-961.93278630902455
 31
0.0
  0
LINE
  5
13876
  8
01
 10
15570.088138088569
 20
-961.93278630902455
 30
0.0
 11
15570.48613808857
 21
-961.57878630902428
 31
0.0
  0
LINE
  5
13877
  8
01
 10
15570.48613808857
 20
-961.57878630902428
 30
0.0
 11
15570.93713808857
 21
-961.2797863090243
 31
0.0
  0
LINE
  5
13878
  8
01
 10
15570.93713808857
 20
-961.2797863090243
 30
0.0
 11
15571.435138088569
 21
-961.05278630902433
 31
0.0
  0
LINE
  5
13879
  8
01
 10
15571.435138088569
 20
-961.05278630902433
 30
0.0
 11
15571.96613808857
 21
-960.91578630902438
 31
0.0
  0
LINE
  5
1387A
  8
01
 10
15571.96613808857
 20
-960.91578630902438
 30
0.0
 11
15572.42213808857
 21
-960.87978630902433
 31
0.0
  0
ARC
  5
1387B
  8
01
 10
15577.460138088571
 20
-966.37978630902455
 30
0.0
 40
9.125
 50
138.88800000001589
 51
220.59099999993049
  0
LINE
  5
1387C
  8
01
 10
15587.585138088571
 20
-972.37978630902433
 30
0.0
 11
15570.585138088571
 21
-972.37978630902433
 31
0.0
  0
LINE
  5
1387D
  8
01
 10
15587.585138088571
 20
-960.37978630902444
 30
0.0
 11
15570.585138088571
 21
-960.37978630902444
 31
0.0
  0
LINE
  5
13883
  8
01
 10
15587.585138088571
 20
-971.87978630902444
 30
0.0
 11
15587.034138088569
 21
-971.86678630902441
 31
0.0
  0
LINE
  5
13884
  8
01
 10
15587.034138088569
 20
-971.86678630902441
 30
0.0
 11
15586.481138088569
 21
-971.82778630902453
 31
0.0
  0
LINE
  5
13885
  8
01
 10
15586.481138088569
 20
-971.82778630902453
 30
0.0
 11
15585.92113808857
 21
-971.75978630902443
 31
0.0
  0
LINE
  5
13886
  8
01
 10
15585.92113808857
 20
-971.75978630902443
 30
0.0
 11
15585.35213808857
 21
-971.66178630902436
 31
0.0
  0
LINE
  5
13887
  8
01
 10
15585.35213808857
 20
-971.66178630902436
 30
0.0
 11
15584.77113808857
 21
-971.52978630902419
 31
0.0
  0
LINE
  5
13888
  8
01
 10
15584.77113808857
 20
-971.52978630902419
 30
0.0
 11
15584.17913808857
 21
-971.35878630902448
 31
0.0
  0
LINE
  5
13889
  8
01
 10
15584.17913808857
 20
-971.35878630902448
 30
0.0
 11
15583.57413808857
 21
-971.14278630902459
 31
0.0
  0
LINE
  5
1388A
  8
01
 10
15583.57413808857
 20
-971.14278630902459
 30
0.0
 11
15582.95913808857
 21
-970.8727863090246
 31
0.0
  0
LINE
  5
1388B
  8
01
 10
15582.95913808857
 20
-970.8727863090246
 30
0.0
 11
15582.34113808857
 21
-970.5407863090245
 31
0.0
  0
LINE
  5
1388C
  8
01
 10
15582.34113808857
 20
-970.5407863090245
 30
0.0
 11
15581.731138088569
 21
-970.13878630902445
 31
0.0
  0
LINE
  5
1388D
  8
01
 10
15581.731138088569
 20
-970.13878630902445
 30
0.0
 11
15581.14513808857
 21
-969.65778630902435
 31
0.0
  0
LINE
  5
1388E
  8
01
 10
15581.14513808857
 20
-969.65778630902435
 30
0.0
 11
15580.60813808857
 21
-969.09178630902454
 31
0.0
  0
LINE
  5
1388F
  8
01
 10
15580.60813808857
 20
-969.09178630902454
 30
0.0
 11
15580.151138088569
 21
-968.44378630902452
 31
0.0
  0
LINE
  5
13890
  8
01
 10
15580.151138088569
 20
-968.44378630902452
 30
0.0
 11
15579.80713808857
 21
-967.72178630902431
 31
0.0
  0
LINE
  5
13891
  8
01
 10
15579.80713808857
 20
-967.72178630902431
 30
0.0
 11
15579.60813808857
 21
-966.94578630902436
 31
0.0
  0
LINE
  5
13892
  8
01
 10
15579.60813808857
 20
-966.94578630902436
 30
0.0
 11
15579.56513808857
 21
-966.37978630902455
 31
0.0
  0
LINE
  5
13893
  8
01
 10
15579.56513808857
 20
-966.37978630902455
 30
0.0
 11
15579.57213808857
 21
-966.14578630902429
 31
0.0
  0
LINE
  5
13894
  8
01
 10
15579.57213808857
 20
-966.14578630902429
 30
0.0
 11
15579.70513808857
 21
-965.35578630902432
 31
0.0
  0
LINE
  5
13895
  8
01
 10
15579.70513808857
 20
-965.35578630902432
 30
0.0
 11
15579.99213808857
 21
-964.60878630902437
 31
0.0
  0
LINE
  5
13896
  8
01
 10
15579.99213808857
 20
-964.60878630902437
 30
0.0
 11
15580.406138088571
 21
-963.92778630902444
 31
0.0
  0
LINE
  5
13897
  8
01
 10
15580.406138088571
 20
-963.92778630902444
 30
0.0
 11
15580.91413808857
 21
-963.32678630902421
 31
0.0
  0
LINE
  5
13898
  8
01
 10
15580.91413808857
 20
-963.32678630902421
 30
0.0
 11
15581.48313808857
 21
-962.81078630902437
 31
0.0
  0
LINE
  5
13899
  8
01
 10
15581.48313808857
 20
-962.81078630902437
 30
0.0
 11
15582.085138088571
 21
-962.37678630902451
 31
0.0
  0
LINE
  5
1389A
  8
01
 10
15582.085138088571
 20
-962.37678630902451
 30
0.0
 11
15582.702138088571
 21
-962.01678630902427
 31
0.0
  0
LINE
  5
1389B
  8
01
 10
15582.702138088571
 20
-962.01678630902427
 30
0.0
 11
15583.319138088569
 21
-961.72278630902463
 31
0.0
  0
LINE
  5
1389C
  8
01
 10
15583.319138088569
 20
-961.72278630902463
 30
0.0
 11
15583.92813808857
 21
-961.48478630902446
 31
0.0
  0
LINE
  5
1389D
  8
01
 10
15583.92813808857
 20
-961.48478630902446
 30
0.0
 11
15584.526138088569
 21
-961.29578630902438
 31
0.0
  0
LINE
  5
1389E
  8
01
 10
15584.526138088569
 20
-961.29578630902438
 30
0.0
 11
15585.112138088571
 21
-961.14778630902447
 31
0.0
  0
LINE
  5
1389F
  8
01
 10
15585.112138088571
 20
-961.14778630902447
 30
0.0
 11
15585.685138088569
 21
-961.03678630902436
 31
0.0
  0
LINE
  5
138A0
  8
01
 10
15585.685138088569
 20
-961.03678630902436
 30
0.0
 11
15586.249138088569
 21
-960.95678630902444
 31
0.0
  0
LINE
  5
138A1
  8
01
 10
15586.249138088569
 20
-960.95678630902444
 30
0.0
 11
15586.80513808857
 21
-960.90578630902439
 31
0.0
  0
LINE
  5
138A2
  8
01
 10
15586.80513808857
 20
-960.90578630902439
 30
0.0
 11
15587.356138088569
 21
-960.88178630902462
 31
0.0
  0
LINE
  5
138A3
  8
01
 10
15587.356138088569
 20
-960.88178630902462
 30
0.0
 11
15587.59313808857
 21
-960.87978630902433
 31
0.0
  0
LINE
  5
138BE
  8
01
 10
15602.485138088579
 20
-972.37978630902433
 30
0.0
 11
15602.485138088579
 21
-973.39089730902435
 31
0.0
  0
LINE
  5
139A7
  8
01
 10
15692.109942088569
 20
-995.39089730902435
 30
0.0
 11
15692.109942088569
 21
-1011.390897309024
 31
0.0
  0
LINE
  5
139A8
  8
01
 10
15708.109942088569
 20
-1025.390897309024
 30
0.0
 11
15706.109942088569
 21
-1025.390897309024
 31
0.0
  0
ARC
  5
139A9
  8
01
 10
15706.109942088569
 20
-1011.390897309025
 30
0.0
 40
14.0
 50
180.0
 51
270.0
  0
LINE
  5
139AA
  8
01
 10
15708.1099420886
 20
-995.39093101745175
 30
0.0
 11
15708.109874671751
 21
-965.39093101752826
 31
0.0
  0
LINE
  5
139AB
  8
01
 10
15692.10994208864
 20
-995.39096697310799
 30
0.0
 11
15692.10990613299
 21
-979.39096697314801
 31
0.0
  0
LINE
  5
139AC
  8
01
 10
15708.109874671751
 20
-965.39093101752826
 30
0.0
 11
15706.109874671751
 21
-965.3909355119855
 31
0.0
  0
ARC
  5
139AD
  8
01
 10
15706.10990613295
 20
-979.39093551195015
 30
0.0
 40
14.0
 50
90.000128756715625
 51
180.00012875671561
  0
LINE
  5
139CD
  8
01
 10
15692.109942088569
 20
-1007.890897309024
 30
0.0
 11
15624.58513790211
 21
-1007.890897309024
 31
0.0
  0
LINE
  5
139CE
  8
01
 10
15692.109913998131
 20
-982.89089730902435
 30
0.0
 11
15624.58513790211
 21
-982.89089730902435
 31
0.0
  0
LINE
  5
13B01
  8
01
 10
15273.97287620637
 20
-780.80750984021381
 30
0.0
 11
15273.97287620637
 21
-822.80750984021381
 31
0.0
  0
LINE
  5
13B02
  8
01
 10
15326.47287620637
 20
-791.30750984021381
 30
0.0
 11
15326.47287620637
 21
-822.80750984021381
 31
0.0
  0
LINE
  5
13B03
  8
01
 10
15378.97287620637
 20
-780.80750984021381
 30
0.0
 11
15378.97287620637
 21
-822.80750984021381
 31
0.0
  0
TEXT
  5
13B04
  8
01
 10
15338.012941241879
 20
-810.37904531568768
 30
0.0
 40
6.0
  1
HL009
 72
     1
 11
15352.15579838474
 21
-810.37904531568768
 31
0.0
  0
TEXT
  5
13B05
  8
01
 10
15328.572876206361
 20
-799.55750984021381
 30
0.0
 40
6.0
  1
対応洗面ボール
 72
     1
 11
15352.572876206361
 21
-799.55750984021381
 31
0.0
  0
LINE
  5
13B06
  8
01
 10
15273.97287620637
 20
-801.8075098402137
 30
0.0
 11
15378.97287620637
 21
-801.8075098402137
 31
0.0
  0
LINE
  5
13B07
  8
01
 10
15273.97287620637
 20
-812.30750984021381
 30
0.0
 11
15378.97287620637
 21
-812.30750984021381
 31
0.0
  0
TEXT
  5
13B08
  8
01
 10
15279.787161920651
 20
-810.02435237019074
 30
0.0
 40
6.0
  1
HA008XC
 72
     1
 11
15300.072876206361
 21
-810.02435237019074
 31
0.0
  0
TEXT
  5
13B09
  8
01
 10
15286.672876206359
 20
-799.55750984021381
 30
0.0
 40
6.0
  1
対応蛇口
 72
     1
 11
15300.072876206361
 21
-799.55750984021381
 31
0.0
  0
LINE
  5
13B0A
  8
01
 10
15273.97287620637
 20
-791.30750984021381
 30
0.0
 11
15378.97287620637
 21
-791.30750984021381
 31
0.0
  0
TEXT
  5
13B0B
  8
01
 10
15279.787161920651
 20
-820.52435237019074
 30
0.0
 40
6.0
  1
HA009XC
 72
     1
 11
15300.072876206361
 21
-820.52435237019074
 31
0.0
  0
TEXT
  5
13B0C
  8
01
 10
15337.87008409903
 20
-820.87904531568756
 30
0.0
 40
6.0
  1
HL010
 72
     1
 11
15352.15579838474
 21
-820.87904531568756
 31
0.0
  0
LINE
  5
13B0D
  8
01
 10
15273.97287620637
 20
-822.80750984021381
 30
0.0
 11
15378.97287620637
 21
-822.80750984021381
 31
0.0
  0
LINE
  5
13B0E
  8
01
 10
15273.97287620637
 20
-780.80750984021381
 30
0.0
 11
15378.97287620637
 21
-780.80750984021381
 31
0.0
  0
TEXT
  5
13B0F
  8
01
 10
15292.297003062
 20
-789.1984834811434
 30
0.0
 40
6.0
  1
HFG排水金具対応表
 72
     1
 11
15325.982717347721
 21
-789.1984834811434
 31
0.0
  0
TEXT
  5
13B11
  8
01
 10
15274.721802438869
 20
-777.96400320555085
 30
0.0
 40
6.0
  1
材質：真鍮（クロームメッキ）
 72
     1
 11
15322.521802438871
 21
-777.96400320555085
 31
0.0
  0
ARC
  5
146F6
  8
01
 10
15619.085138088571
 20
-1007.293674309024
 30
0.0
 40
7.8472220000000004
 50
225.50195299993331
 51
314.49804700006672
  0
LINE
  5
146F7
  8
01
 10
15611.585138088571
 20
-1015.390897309024
 30
0.0
 11
15608.585138088571
 21
-1015.390897309024
 31
0.0
  0
LINE
  5
146F8
  8
01
 10
15611.585138088571
 20
-975.39089730902435
 30
0.0
 11
15608.585138088571
 21
-975.39089730902435
 31
0.0
  0
LINE
  5
146F9
  8
01
 10
15611.585138088571
 20
-1015.390897309024
 30
0.0
 11
15611.585138088571
 21
-975.39089730902435
 31
0.0
  0
LINE
  5
146FA
  8
01
 10
15613.585138088571
 20
-977.89089839835344
 30
0.0
 11
15613.585138088571
 21
-1012.890896402917
 31
0.0
  0
ARC
  5
146FF
  8
01
 10
15619.085138088571
 20
-983.488120309024
 30
0.0
 40
7.8472220000000004
 50
45.501952999933287
 51
134.49804700006669
  0
LINE
  5
14700
  8
01
 10
15624.58513790211
 20
-977.89089821513096
 30
0.0
 11
15624.58513790211
 21
-1012.890896402917
 31
0.0
  0
POLYLINE
  5
14702
  8
01
 10
15619.085138088571
 20
-987.37089730902392
 30
0.0
 66
     1
 70
     8
  0
VERTEX
  8
01
  5
14C2A
 10
15619.1
 20
-987.371
 30
0.000000
  70
    32
  0
VERTEX
  8
01
  5
14C2B
 10
15618.8
 20
-987.381
 30
0.000000
  70
    32
  0
VERTEX
  8
01
  5
14C2C
 10
15618.6
 20
-987.410
 30
0.000000
  70
    32
  0
VERTEX
  8
01
  5
14C2D
 10
15618.4
 20
-987.458
 30
0.000000
  70
    32
  0
VERTEX
  8
01
  5
14C2E
 10
15618.1
 20
-987.525
 30
0.000000
  70
    32
  0
VERTEX
  8
01
  5
14C2F
 10
15617.9
 20
-987.611
 30
0.000000
  70
    32
  0
VERTEX
  8
01
  5
14C30
 10
15617.6
 20
-987.716
 30
0.000000
  70
    32
  0
VERTEX
  8
01
  5
14C31
 10
15617.4
 20
-987.840
 30
0.000000
  70
    32
  0
VERTEX
  8
01
  5
14C32
 10
15617.2
 20
-987.981
 30
0.000000
  70
    32
  0
VERTEX
  8
01
  5
14C33
 10
15617.0
 20
-988.141
 30
0.000000
  70
    32
  0
VERTEX
  8
01
  5
14C34
 10
15616.8
 20
-988.318
 30
0.000000
  70
    32
  0
VERTEX
  8
01
  5
14C35
 10
15616.5
 20
-988.512
 30
0.000000
  70
    32
  0
VERTEX
  8
01
  5
14C36
 10
15616.3
 20
-988.723
 30
0.000000
  70
    32
  0
VERTEX
  8
01
  5
14C37
 10
15616.1
 20
-988.949
 30
0.000000
  70
    32
  0
VERTEX
  8
01
  5
14C38
 10
15615.9
 20
-989.191
 30
0.000000
  70
    32
  0
VERTEX
  8
01
  5
14C39
 10
15615.8
 20
-989.448
 30
0.000000
  70
    32
  0
VERTEX
  8
01
  5
14C3A
 10
15615.6
 20
-989.720
 30
0.000000
  70
    32
  0
VERTEX
  8
01
  5
14C3B
 10
15615.4
 20
-990.005
 30
0.000000
  70
    32
  0
VERTEX
  8
01
  5
14C3C
 10
15615.3
 20
-990.303
 30
0.000000
  70
    32
  0
VERTEX
  8
01
  5
14C3D
 10
15615.1
 20
-990.613
 30
0.000000
  70
    32
  0
VERTEX
  8
01
  5
14C3E
 10
15615.0
 20
-990.935
 30
0.000000
  70
    32
  0
VERTEX
  8
01
  5
14C3F
 10
15614.8
 20
-991.268
 30
0.000000
  70
    32
  0
VERTEX
  8
01
  5
14C40
 10
15614.7
 20
-991.610
 30
0.000000
  70
    32
  0
VERTEX
  8
01
  5
14C41
 10
15614.6
 20
-991.962
 30
0.000000
  70
    32
  0
VERTEX
  8
01
  5
14C42
 10
15614.5
 20
-992.322
 30
0.000000
  70
    32
  0
VERTEX
  8
01
  5
14C43
 10
15614.4
 20
-992.689
 30
0.000000
  70
    32
  0
VERTEX
  8
01
  5
14C44
 10
15614.4
 20
-993.063
 30
0.000000
  70
    32
  0
VERTEX
  8
01
  5
14C45
 10
15614.3
 20
-993.442
 30
0.000000
  70
    32
  0
VERTEX
  8
01
  5
14C46
 10
15614.2
 20
-993.826
 30
0.000000
  70
    32
  0
VERTEX
  8
01
  5
14C47
 10
15614.2
 20
-994.214
 30
0.000000
  70
    32
  0
VERTEX
  8
01
  5
14C48
 10
15614.2
 20
-994.605
 30
0.000000
  70
    32
  0
VERTEX
  8
01
  5
14C49
 10
15614.1
 20
-994.997
 30
0.000000
  70
    32
  0
VERTEX
  8
01
  5
14C4A
 10
15614.1
 20
-995.391
 30
0.000000
  70
    32
  0
VERTEX
  8
01
  5
14C4B
 10
15614.1
 20
-995.784
 30
0.000000
  70
    32
  0
VERTEX
  8
01
  5
14C4C
 10
15614.2
 20
-996.177
 30
0.000000
  70
    32
  0
VERTEX
  8
01
  5
14C4D
 10
15614.2
 20
-996.568
 30
0.000000
  70
    32
  0
VERTEX
  8
01
  5
14C4E
 10
15614.2
 20
-996.956
 30
0.000000
  70
    32
  0
VERTEX
  8
01
  5
14C4F
 10
15614.3
 20
-997.340
 30
0.000000
  70
    32
  0
VERTEX
  8
01
  5
14C50
 10
15614.4
 20
-997.719
 30
0.000000
  70
    32
  0
VERTEX
  8
01
  5
14C51
 10
15614.4
 20
-998.093
 30
0.000000
  70
    32
  0
VERTEX
  8
01
  5
14C52
 10
15614.5
 20
-998.460
 30
0.000000
  70
    32
  0
VERTEX
  8
01
  5
14C53
 10
15614.6
 20
-998.820
 30
0.000000
  70
    32
  0
VERTEX
  8
01
  5
14C54
 10
15614.7
 20
-999.171
 30
0.000000
  70
    32
  0
VERTEX
  8
01
  5
14C55
 10
15614.8
 20
-999.514
 30
0.000000
  70
    32
  0
VERTEX
  8
01
  5
14C56
 10
15615.0
 20
-999.847
 30
0.000000
  70
    32
  0
VERTEX
  8
01
  5
14C57
 10
15615.1
 20
-1000.17
 30
0.000000
  70
    32
  0
VERTEX
  8
01
  5
14C58
 10
15615.3
 20
-1000.48
 30
0.000000
  70
    32
  0
VERTEX
  8
01
  5
14C59
 10
15615.4
 20
-1000.78
 30
0.000000
  70
    32
  0
VERTEX
  8
01
  5
14C5A
 10
15615.6
 20
-1001.06
 30
0.000000
  70
    32
  0
VERTEX
  8
01
  5
14C5B
 10
15615.8
 20
-1001.33
 30
0.000000
  70
    32
  0
VERTEX
  8
01
  5
14C5C
 10
15615.9
 20
-1001.59
 30
0.000000
  70
    32
  0
VERTEX
  8
01
  5
14C5D
 10
15616.1
 20
-1001.83
 30
0.000000
  70
    32
  0
VERTEX
  8
01
  5
14C5E
 10
15616.3
 20
-1002.06
 30
0.000000
  70
    32
  0
VERTEX
  8
01
  5
14C5F
 10
15616.5
 20
-1002.27
 30
0.000000
  70
    32
  0
VERTEX
  8
01
  5
14C60
 10
15616.8
 20
-1002.46
 30
0.000000
  70
    32
  0
VERTEX
  8
01
  5
14C61
 10
15617.0
 20
-1002.64
 30
0.000000
  70
    32
  0
VERTEX
  8
01
  5
14C62
 10
15617.2
 20
-1002.80
 30
0.000000
  70
    32
  0
VERTEX
  8
01
  5
14C63
 10
15617.4
 20
-1002.94
 30
0.000000
  70
    32
  0
VERTEX
  8
01
  5
14C64
 10
15617.6
 20
-1003.07
 30
0.000000
  70
    32
  0
VERTEX
  8
01
  5
14C65
 10
15617.9
 20
-1003.17
 30
0.000000
  70
    32
  0
VERTEX
  8
01
  5
14C66
 10
15618.1
 20
-1003.26
 30
0.000000
  70
    32
  0
VERTEX
  8
01
  5
14C67
 10
15618.4
 20
-1003.32
 30
0.000000
  70
    32
  0
VERTEX
  8
01
  5
14C68
 10
15618.6
 20
-1003.37
 30
0.000000
  70
    32
  0
VERTEX
  8
01
  5
14C69
 10
15618.8
 20
-1003.40
 30
0.000000
  70
    32
  0
VERTEX
  8
01
  5
14C6A
 10
15619.1
 20
-1003.41
 30
0.000000
  70
    32
  0
VERTEX
  8
01
  5
14C6B
 10
15619.3
 20
-1003.40
 30
0.000000
  70
    32
  0
VERTEX
  8
01
  5
14C6C
 10
15619.6
 20
-1003.37
 30
0.000000
  70
    32
  0
VERTEX
  8
01
  5
14C6D
 10
15619.8
 20
-1003.32
 30
0.000000
  70
    32
  0
VERTEX
  8
01
  5
14C6E
 10
15620.1
 20
-1003.26
 30
0.000000
  70
    32
  0
VERTEX
  8
01
  5
14C6F
 10
15620.3
 20
-1003.17
 30
0.000000
  70
    32
  0
VERTEX
  8
01
  5
14C70
 10
15620.5
 20
-1003.07
 30
0.000000
  70
    32
  0
VERTEX
  8
01
  5
14C71
 10
15620.8
 20
-1002.94
 30
0.000000
  70
    32
  0
VERTEX
  8
01
  5
14C72
 10
15621.0
 20
-1002.80
 30
0.000000
  70
    32
  0
VERTEX
  8
01
  5
14C73
 10
15621.2
 20
-1002.64
 30
0.000000
  70
    32
  0
VERTEX
  8
01
  5
14C74
 10
15621.4
 20
-1002.46
 30
0.000000
  70
    32
  0
VERTEX
  8
01
  5
14C75
 10
15621.6
 20
-1002.27
 30
0.000000
  70
    32
  0
VERTEX
  8
01
  5
14C76
 10
15621.8
 20
-1002.06
 30
0.000000
  70
    32
  0
VERTEX
  8
01
  5
14C77
 10
15622.0
 20
-1001.83
 30
0.000000
  70
    32
  0
VERTEX
  8
01
  5
14C78
 10
15622.2
 20
-1001.59
 30
0.000000
  70
    32
  0
VERTEX
  8
01
  5
14C79
 10
15622.4
 20
-1001.33
 30
0.000000
  70
    32
  0
VERTEX
  8
01
  5
14C7A
 10
15622.6
 20
-1001.06
 30
0.000000
  70
    32
  0
VERTEX
  8
01
  5
14C7B
 10
15622.8
 20
-1000.78
 30
0.000000
  70
    32
  0
VERTEX
  8
01
  5
14C7C
 10
15622.9
 20
-1000.48
 30
0.000000
  70
    32
  0
VERTEX
  8
01
  5
14C7D
 10
15623.1
 20
-1000.17
 30
0.000000
  70
    32
  0
VERTEX
  8
01
  5
14C7E
 10
15623.2
 20
-999.847
 30
0.000000
  70
    32
  0
VERTEX
  8
01
  5
14C7F
 10
15623.3
 20
-999.514
 30
0.000000
  70
    32
  0
VERTEX
  8
01
  5
14C80
 10
15623.4
 20
-999.171
 30
0.000000
  70
    32
  0
VERTEX
  8
01
  5
14C81
 10
15623.6
 20
-998.820
 30
0.000000
  70
    32
  0
VERTEX
  8
01
  5
14C82
 10
15623.7
 20
-998.460
 30
0.000000
  70
    32
  0
VERTEX
  8
01
  5
14C83
 10
15623.7
 20
-998.093
 30
0.000000
  70
    32
  0
VERTEX
  8
01
  5
14C84
 10
15623.8
 20
-997.719
 30
0.000000
  70
    32
  0
VERTEX
  8
01
  5
14C85
 10
15623.9
 20
-997.340
 30
0.000000
  70
    32
  0
VERTEX
  8
01
  5
14C86
 10
15623.9
 20
-996.956
 30
0.000000
  70
    32
  0
VERTEX
  8
01
  5
14C87
 10
15624.0
 20
-996.568
 30
0.000000
  70
    32
  0
VERTEX
  8
01
  5
14C88
 10
15624.0
 20
-996.177
 30
0.000000
  70
    32
  0
VERTEX
  8
01
  5
14C89
 10
15624.0
 20
-995.784
 30
0.000000
  70
    32
  0
VERTEX
  8
01
  5
14C8A
 10
15624.0
 20
-995.391
 30
0.000000
  70
    32
  0
VERTEX
  8
01
  5
14C8B
 10
15624.0
 20
-994.997
 30
0.000000
  70
    32
  0
VERTEX
  8
01
  5
14C8C
 10
15624.0
 20
-994.605
 30
0.000000
  70
    32
  0
VERTEX
  8
01
  5
14C8D
 10
15624.0
 20
-994.214
 30
0.000000
  70
    32
  0
VERTEX
  8
01
  5
14C8E
 10
15623.9
 20
-993.826
 30
0.000000
  70
    32
  0
VERTEX
  8
01
  5
14C8F
 10
15623.9
 20
-993.442
 30
0.000000
  70
    32
  0
VERTEX
  8
01
  5
14C90
 10
15623.8
 20
-993.063
 30
0.000000
  70
    32
  0
VERTEX
  8
01
  5
14C91
 10
15623.7
 20
-992.689
 30
0.000000
  70
    32
  0
VERTEX
  8
01
  5
14C92
 10
15623.7
 20
-992.322
 30
0.000000
  70
    32
  0
VERTEX
  8
01
  5
14C93
 10
15623.6
 20
-991.962
 30
0.000000
  70
    32
  0
VERTEX
  8
01
  5
14C94
 10
15623.4
 20
-991.610
 30
0.000000
  70
    32
  0
VERTEX
  8
01
  5
14C95
 10
15623.3
 20
-991.268
 30
0.000000
  70
    32
  0
VERTEX
  8
01
  5
14C96
 10
15623.2
 20
-990.935
 30
0.000000
  70
    32
  0
VERTEX
  8
01
  5
14C97
 10
15623.1
 20
-990.613
 30
0.000000
  70
    32
  0
VERTEX
  8
01
  5
14C98
 10
15622.9
 20
-990.303
 30
0.000000
  70
    32
  0
VERTEX
  8
01
  5
14C99
 10
15622.8
 20
-990.005
 30
0.000000
  70
    32
  0
VERTEX
  8
01
  5
14C9A
 10
15622.6
 20
-989.720
 30
0.000000
  70
    32
  0
VERTEX
  8
01
  5
14C9B
 10
15622.4
 20
-989.448
 30
0.000000
  70
    32
  0
VERTEX
  8
01
  5
14C9C
 10
15622.2
 20
-989.191
 30
0.000000
  70
    32
  0
VERTEX
  8
01
  5
14C9D
 10
15622.0
 20
-988.949
 30
0.000000
  70
    32
  0
VERTEX
  8
01
  5
14C9E
 10
15621.8
 20
-988.723
 30
0.000000
  70
    32
  0
VERTEX
  8
01
  5
14C9F
 10
15621.6
 20
-988.512
 30
0.000000
  70
    32
  0
VERTEX
  8
01
  5
14CA0
 10
15621.4
 20
-988.318
 30
0.000000
  70
    32
  0
VERTEX
  8
01
  5
14CA1
 10
15621.2
 20
-988.141
 30
0.000000
  70
    32
  0
VERTEX
  8
01
  5
14CA2
 10
15621.0
 20
-987.981
 30
0.000000
  70
    32
  0
VERTEX
  8
01
  5
14CA3
 10
15620.8
 20
-987.840
 30
0.000000
  70
    32
  0
VERTEX
  8
01
  5
14CA4
 10
15620.5
 20
-987.716
 30
0.000000
  70
    32
  0
VERTEX
  8
01
  5
14CA5
 10
15620.3
 20
-987.611
 30
0.000000
  70
    32
  0
VERTEX
  8
01
  5
14CA6
 10
15620.1
 20
-987.525
 30
0.000000
  70
    32
  0
VERTEX
  8
01
  5
14CA7
 10
15619.8
 20
-987.458
 30
0.000000
  70
    32
  0
VERTEX
  8
01
  5
14CA8
 10
15619.6
 20
-987.410
 30
0.000000
  70
    32
  0
VERTEX
  8
01
  5
14CA9
 10
15619.3
 20
-987.381
 30
0.000000
  70
    32
  0
VERTEX
  8
01
  5
14CAA
 10
15619.1
 20
-987.371
 30
0.000000
  70
    32
  0
SEQEND
  8
01
  5
14CAB
  0
POLYLINE
  5
14706
  8
01
 10
15614.13813808857
 20
-979.91439780902397
 30
0.0
 66
     1
 70
     8
  0
VERTEX
  8
01
  5
14CAC
 10
15614.1
 20
-979.914
 30
0.000000
  70
    32
  0
VERTEX
  8
01
  5
14CAD
 10
15614.1
 20
-980.124
 30
0.000000
  70
    32
  0
VERTEX
  8
01
  5
14CAE
 10
15614.2
 20
-980.333
 30
0.000000
  70
    32
  0
VERTEX
  8
01
  5
14CAF
 10
15614.2
 20
-980.541
 30
0.000000
  70
    32
  0
VERTEX
  8
01
  5
14CB0
 10
15614.2
 20
-980.748
 30
0.000000
  70
    32
  0
VERTEX
  8
01
  5
14CB1
 10
15614.3
 20
-980.953
 30
0.000000
  70
    32
  0
VERTEX
  8
01
  5
14CB2
 10
15614.4
 20
-981.155
 30
0.000000
  70
    32
  0
VERTEX
  8
01
  5
14CB3
 10
15614.4
 20
-981.354
 30
0.000000
  70
    32
  0
VERTEX
  8
01
  5
14CB4
 10
15614.5
 20
-981.550
 30
0.000000
  70
    32
  0
VERTEX
  8
01
  5
14CB5
 10
15614.6
 20
-981.742
 30
0.000000
  70
    32
  0
VERTEX
  8
01
  5
14CB6
 10
15614.7
 20
-981.929
 30
0.000000
  70
    32
  0
VERTEX
  8
01
  5
14CB7
 10
15614.8
 20
-982.111
 30
0.000000
  70
    32
  0
VERTEX
  8
01
  5
14CB8
 10
15615.0
 20
-982.289
 30
0.000000
  70
    32
  0
VERTEX
  8
01
  5
14CB9
 10
15615.1
 20
-982.460
 30
0.000000
  70
    32
  0
VERTEX
  8
01
  5
14CBA
 10
15615.3
 20
-982.625
 30
0.000000
  70
    32
  0
VERTEX
  8
01
  5
14CBB
 10
15615.4
 20
-982.784
 30
0.000000
  70
    32
  0
VERTEX
  8
01
  5
14CBC
 10
15615.6
 20
-982.936
 30
0.000000
  70
    32
  0
VERTEX
  8
01
  5
14CBD
 10
15615.8
 20
-983.081
 30
0.000000
  70
    32
  0
VERTEX
  8
01
  5
14CBE
 10
15615.9
 20
-983.218
 30
0.000000
  70
    32
  0
VERTEX
  8
01
  5
14CBF
 10
15616.1
 20
-983.347
 30
0.000000
  70
    32
  0
VERTEX
  8
01
  5
14CC0
 10
15616.3
 20
-983.468
 30
0.000000
  70
    32
  0
VERTEX
  8
01
  5
14CC1
 10
15616.5
 20
-983.580
 30
0.000000
  70
    32
  0
VERTEX
  8
01
  5
14CC2
 10
15616.8
 20
-983.683
 30
0.000000
  70
    32
  0
VERTEX
  8
01
  5
14CC3
 10
15617.0
 20
-983.778
 30
0.000000
  70
    32
  0
VERTEX
  8
01
  5
14CC4
 10
15617.2
 20
-983.863
 30
0.000000
  70
    32
  0
VERTEX
  8
01
  5
14CC5
 10
15617.4
 20
-983.938
 30
0.000000
  70
    32
  0
VERTEX
  8
01
  5
14CC6
 10
15617.6
 20
-984.004
 30
0.000000
  70
    32
  0
VERTEX
  8
01
  5
14CC7
 10
15617.9
 20
-984.060
 30
0.000000
  70
    32
  0
VERTEX
  8
01
  5
14CC8
 10
15618.1
 20
-984.106
 30
0.000000
  70
    32
  0
VERTEX
  8
01
  5
14CC9
 10
15618.4
 20
-984.142
 30
0.000000
  70
    32
  0
VERTEX
  8
01
  5
14CCA
 10
15618.6
 20
-984.167
 30
0.000000
  70
    32
  0
VERTEX
  8
01
  5
14CCB
 10
15618.8
 20
-984.183
 30
0.000000
  70
    32
  0
VERTEX
  8
01
  5
14CCC
 10
15619.1
 20
-984.188
 30
0.000000
  70
    32
  0
VERTEX
  8
01
  5
14CCD
 10
15619.3
 20
-984.183
 30
0.000000
  70
    32
  0
VERTEX
  8
01
  5
14CCE
 10
15619.6
 20
-984.167
 30
0.000000
  70
    32
  0
VERTEX
  8
01
  5
14CCF
 10
15619.8
 20
-984.142
 30
0.000000
  70
    32
  0
VERTEX
  8
01
  5
14CD0
 10
15620.1
 20
-984.106
 30
0.000000
  70
    32
  0
VERTEX
  8
01
  5
14CD1
 10
15620.3
 20
-984.060
 30
0.000000
  70
    32
  0
VERTEX
  8
01
  5
14CD2
 10
15620.5
 20
-984.004
 30
0.000000
  70
    32
  0
VERTEX
  8
01
  5
14CD3
 10
15620.8
 20
-983.938
 30
0.000000
  70
    32
  0
VERTEX
  8
01
  5
14CD4
 10
15621.0
 20
-983.863
 30
0.000000
  70
    32
  0
VERTEX
  8
01
  5
14CD5
 10
15621.2
 20
-983.778
 30
0.000000
  70
    32
  0
VERTEX
  8
01
  5
14CD6
 10
15621.4
 20
-983.683
 30
0.000000
  70
    32
  0
VERTEX
  8
01
  5
14CD7
 10
15621.6
 20
-983.580
 30
0.000000
  70
    32
  0
VERTEX
  8
01
  5
14CD8
 10
15621.8
 20
-983.468
 30
0.000000
  70
    32
  0
VERTEX
  8
01
  5
14CD9
 10
15622.0
 20
-983.347
 30
0.000000
  70
    32
  0
VERTEX
  8
01
  5
14CDA
 10
15622.2
 20
-983.218
 30
0.000000
  70
    32
  0
VERTEX
  8
01
  5
14CDB
 10
15622.4
 20
-983.081
 30
0.000000
  70
    32
  0
VERTEX
  8
01
  5
14CDC
 10
15622.6
 20
-982.936
 30
0.000000
  70
    32
  0
VERTEX
  8
01
  5
14CDD
 10
15622.8
 20
-982.784
 30
0.000000
  70
    32
  0
VERTEX
  8
01
  5
14CDE
 10
15622.9
 20
-982.625
 30
0.000000
  70
    32
  0
VERTEX
  8
01
  5
14CDF
 10
15623.1
 20
-982.460
 30
0.000000
  70
    32
  0
VERTEX
  8
01
  5
14CE0
 10
15623.2
 20
-982.289
 30
0.000000
  70
    32
  0
VERTEX
  8
01
  5
14CE1
 10
15623.3
 20
-982.111
 30
0.000000
  70
    32
  0
VERTEX
  8
01
  5
14CE2
 10
15623.4
 20
-981.929
 30
0.000000
  70
    32
  0
VERTEX
  8
01
  5
14CE3
 10
15623.6
 20
-981.742
 30
0.000000
  70
    32
  0
VERTEX
  8
01
  5
14CE4
 10
15623.7
 20
-981.550
 30
0.000000
  70
    32
  0
VERTEX
  8
01
  5
14CE5
 10
15623.7
 20
-981.354
 30
0.000000
  70
    32
  0
VERTEX
  8
01
  5
14CE6
 10
15623.8
 20
-981.155
 30
0.000000
  70
    32
  0
VERTEX
  8
01
  5
14CE7
 10
15623.9
 20
-980.953
 30
0.000000
  70
    32
  0
VERTEX
  8
01
  5
14CE8
 10
15623.9
 20
-980.748
 30
0.000000
  70
    32
  0
VERTEX
  8
01
  5
14CE9
 10
15624.0
 20
-980.541
 30
0.000000
  70
    32
  0
VERTEX
  8
01
  5
14CEA
 10
15624.0
 20
-980.333
 30
0.000000
  70
    32
  0
VERTEX
  8
01
  5
14CEB
 10
15624.0
 20
-980.124
 30
0.000000
  70
    32
  0
VERTEX
  8
01
  5
14CEC
 10
15624.0
 20
-979.914
 30
0.000000
  70
    32
  0
VERTEX
  8
01
  5
14CED
 10
15624.0
 20
-979.705
 30
0.000000
  70
    32
  0
VERTEX
  8
01
  5
14CEE
 10
15624.0
 20
-979.496
 30
0.000000
  70
    32
  0
VERTEX
  8
01
  5
14CEF
 10
15624.0
 20
-979.287
 30
0.000000
  70
    32
  0
VERTEX
  8
01
  5
14CF0
 10
15623.9
 20
-979.081
 30
0.000000
  70
    32
  0
VERTEX
  8
01
  5
14CF1
 10
15623.9
 20
-978.876
 30
0.000000
  70
    32
  0
VERTEX
  8
01
  5
14CF2
 10
15623.8
 20
-978.674
 30
0.000000
  70
    32
  0
VERTEX
  8
01
  5
14CF3
 10
15623.7
 20
-978.475
 30
0.000000
  70
    32
  0
VERTEX
  8
01
  5
14CF4
 10
15623.7
 20
-978.279
 30
0.000000
  70
    32
  0
VERTEX
  8
01
  5
14CF5
 10
15623.6
 20
-978.087
 30
0.000000
  70
    32
  0
VERTEX
  8
01
  5
14CF6
 10
15623.4
 20
-977.900
 30
0.000000
  70
    32
  0
VERTEX
  8
01
  5
14CF7
 10
15623.3
 20
-977.717
 30
0.000000
  70
    32
  0
VERTEX
  8
01
  5
14CF8
 10
15623.2
 20
-977.540
 30
0.000000
  70
    32
  0
VERTEX
  8
01
  5
14CF9
 10
15623.1
 20
-977.369
 30
0.000000
  70
    32
  0
VERTEX
  8
01
  5
14CFA
 10
15622.9
 20
-977.203
 30
0.000000
  70
    32
  0
VERTEX
  8
01
  5
14CFB
 10
15622.8
 20
-977.044
 30
0.000000
  70
    32
  0
VERTEX
  8
01
  5
14CFC
 10
15622.6
 20
-976.893
 30
0.000000
  70
    32
  0
VERTEX
  8
01
  5
14CFD
 10
15622.4
 20
-976.748
 30
0.000000
  70
    32
  0
VERTEX
  8
01
  5
14CFE
 10
15622.2
 20
-976.611
 30
0.000000
  70
    32
  0
VERTEX
  8
01
  5
14CFF
 10
15622.0
 20
-976.482
 30
0.000000
  70
    32
  0
VERTEX
  8
01
  5
14D00
 10
15621.8
 20
-976.361
 30
0.000000
  70
    32
  0
VERTEX
  8
01
  5
14D01
 10
15621.6
 20
-976.249
 30
0.000000
  70
    32
  0
VERTEX
  8
01
  5
14D02
 10
15621.4
 20
-976.146
 30
0.000000
  70
    32
  0
VERTEX
  8
01
  5
14D03
 10
15621.2
 20
-976.051
 30
0.000000
  70
    32
  0
VERTEX
  8
01
  5
14D04
 10
15621.0
 20
-975.966
 30
0.000000
  70
    32
  0
VERTEX
  8
01
  5
14D05
 10
15620.8
 20
-975.891
 30
0.000000
  70
    32
  0
VERTEX
  8
01
  5
14D06
 10
15620.5
 20
-975.825
 30
0.000000
  70
    32
  0
VERTEX
  8
01
  5
14D07
 10
15620.3
 20
-975.769
 30
0.000000
  70
    32
  0
VERTEX
  8
01
  5
14D08
 10
15620.1
 20
-975.723
 30
0.000000
  70
    32
  0
VERTEX
  8
01
  5
14D09
 10
15619.8
 20
-975.687
 30
0.000000
  70
    32
  0
VERTEX
  8
01
  5
14D0A
 10
15619.6
 20
-975.661
 30
0.000000
  70
    32
  0
VERTEX
  8
01
  5
14D0B
 10
15619.3
 20
-975.646
 30
0.000000
  70
    32
  0
VERTEX
  8
01
  5
14D0C
 10
15619.1
 20
-975.641
 30
0.000000
  70
    32
  0
VERTEX
  8
01
  5
14D0D
 10
15618.8
 20
-975.646
 30
0.000000
  70
    32
  0
VERTEX
  8
01
  5
14D0E
 10
15618.6
 20
-975.661
 30
0.000000
  70
    32
  0
VERTEX
  8
01
  5
14D0F
 10
15618.4
 20
-975.687
 30
0.000000
  70
    32
  0
VERTEX
  8
01
  5
14D10
 10
15618.1
 20
-975.723
 30
0.000000
  70
    32
  0
VERTEX
  8
01
  5
14D11
 10
15617.9
 20
-975.769
 30
0.000000
  70
    32
  0
VERTEX
  8
01
  5
14D12
 10
15617.6
 20
-975.825
 30
0.000000
  70
    32
  0
VERTEX
  8
01
  5
14D13
 10
15617.4
 20
-975.891
 30
0.000000
  70
    32
  0
VERTEX
  8
01
  5
14D14
 10
15617.2
 20
-975.966
 30
0.000000
  70
    32
  0
VERTEX
  8
01
  5
14D15
 10
15617.0
 20
-976.051
 30
0.000000
  70
    32
  0
VERTEX
  8
01
  5
14D16
 10
15616.8
 20
-976.146
 30
0.000000
  70
    32
  0
VERTEX
  8
01
  5
14D17
 10
15616.5
 20
-976.249
 30
0.000000
  70
    32
  0
VERTEX
  8
01
  5
14D18
 10
15616.3
 20
-976.361
 30
0.000000
  70
    32
  0
VERTEX
  8
01
  5
14D19
 10
15616.1
 20
-976.482
 30
0.000000
  70
    32
  0
VERTEX
  8
01
  5
14D1A
 10
15615.9
 20
-976.611
 30
0.000000
  70
    32
  0
VERTEX
  8
01
  5
14D1B
 10
15615.8
 20
-976.748
 30
0.000000
  70
    32
  0
VERTEX
  8
01
  5
14D1C
 10
15615.6
 20
-976.893
 30
0.000000
  70
    32
  0
VERTEX
  8
01
  5
14D1D
 10
15615.4
 20
-977.044
 30
0.000000
  70
    32
  0
VERTEX
  8
01
  5
14D1E
 10
15615.3
 20
-977.203
 30
0.000000
  70
    32
  0
VERTEX
  8
01
  5
14D1F
 10
15615.1
 20
-977.369
 30
0.000000
  70
    32
  0
VERTEX
  8
01
  5
14D20
 10
15615.0
 20
-977.540
 30
0.000000
  70
    32
  0
VERTEX
  8
01
  5
14D21
 10
15614.8
 20
-977.717
 30
0.000000
  70
    32
  0
VERTEX
  8
01
  5
14D22
 10
15614.7
 20
-977.900
 30
0.000000
  70
    32
  0
VERTEX
  8
01
  5
14D23
 10
15614.6
 20
-978.087
 30
0.000000
  70
    32
  0
VERTEX
  8
01
  5
14D24
 10
15614.5
 20
-978.279
 30
0.000000
  70
    32
  0
VERTEX
  8
01
  5
14D25
 10
15614.4
 20
-978.475
 30
0.000000
  70
    32
  0
VERTEX
  8
01
  5
14D26
 10
15614.4
 20
-978.674
 30
0.000000
  70
    32
  0
VERTEX
  8
01
  5
14D27
 10
15614.3
 20
-978.876
 30
0.000000
  70
    32
  0
VERTEX
  8
01
  5
14D28
 10
15614.2
 20
-979.081
 30
0.000000
  70
    32
  0
VERTEX
  8
01
  5
14D29
 10
15614.2
 20
-979.287
 30
0.000000
  70
    32
  0
VERTEX
  8
01
  5
14D2A
 10
15614.2
 20
-979.496
 30
0.000000
  70
    32
  0
VERTEX
  8
01
  5
14D2B
 10
15614.1
 20
-979.705
 30
0.000000
  70
    32
  0
VERTEX
  8
01
  5
14D2C
 10
15614.1
 20
-979.914
 30
0.000000
  70
    32
  0
SEQEND
  8
01
  5
14D2D
  0
POLYLINE
  5
14707
  8
01
 10
15614.13813808857
 20
-1010.8673968090239
 30
0.0
 66
     1
 70
     8
  0
VERTEX
  8
01
  5
14D2E
 10
15614.1
 20
-1010.87
 30
0.000000
  70
    32
  0
VERTEX
  8
01
  5
14D2F
 10
15614.1
 20
-1010.66
 30
0.000000
  70
    32
  0
VERTEX
  8
01
  5
14D30
 10
15614.2
 20
-1010.45
 30
0.000000
  70
    32
  0
VERTEX
  8
01
  5
14D31
 10
15614.2
 20
-1010.24
 30
0.000000
  70
    32
  0
VERTEX
  8
01
  5
14D32
 10
15614.2
 20
-1010.03
 30
0.000000
  70
    32
  0
VERTEX
  8
01
  5
14D33
 10
15614.3
 20
-1009.83
 30
0.000000
  70
    32
  0
VERTEX
  8
01
  5
14D34
 10
15614.4
 20
-1009.63
 30
0.000000
  70
    32
  0
VERTEX
  8
01
  5
14D35
 10
15614.4
 20
-1009.43
 30
0.000000
  70
    32
  0
VERTEX
  8
01
  5
14D36
 10
15614.5
 20
-1009.23
 30
0.000000
  70
    32
  0
VERTEX
  8
01
  5
14D37
 10
15614.6
 20
-1009.04
 30
0.000000
  70
    32
  0
VERTEX
  8
01
  5
14D38
 10
15614.7
 20
-1008.85
 30
0.000000
  70
    32
  0
VERTEX
  8
01
  5
14D39
 10
15614.8
 20
-1008.67
 30
0.000000
  70
    32
  0
VERTEX
  8
01
  5
14D3A
 10
15615.0
 20
-1008.49
 30
0.000000
  70
    32
  0
VERTEX
  8
01
  5
14D3B
 10
15615.1
 20
-1008.32
 30
0.000000
  70
    32
  0
VERTEX
  8
01
  5
14D3C
 10
15615.3
 20
-1008.16
 30
0.000000
  70
    32
  0
VERTEX
  8
01
  5
14D3D
 10
15615.4
 20
-1008.00
 30
0.000000
  70
    32
  0
VERTEX
  8
01
  5
14D3E
 10
15615.6
 20
-1007.85
 30
0.000000
  70
    32
  0
VERTEX
  8
01
  5
14D3F
 10
15615.8
 20
-1007.70
 30
0.000000
  70
    32
  0
VERTEX
  8
01
  5
14D40
 10
15615.9
 20
-1007.56
 30
0.000000
  70
    32
  0
VERTEX
  8
01
  5
14D41
 10
15616.1
 20
-1007.43
 30
0.000000
  70
    32
  0
VERTEX
  8
01
  5
14D42
 10
15616.3
 20
-1007.31
 30
0.000000
  70
    32
  0
VERTEX
  8
01
  5
14D43
 10
15616.5
 20
-1007.20
 30
0.000000
  70
    32
  0
VERTEX
  8
01
  5
14D44
 10
15616.8
 20
-1007.10
 30
0.000000
  70
    32
  0
VERTEX
  8
01
  5
14D45
 10
15617.0
 20
-1007.00
 30
0.000000
  70
    32
  0
VERTEX
  8
01
  5
14D46
 10
15617.2
 20
-1006.92
 30
0.000000
  70
    32
  0
VERTEX
  8
01
  5
14D47
 10
15617.4
 20
-1006.84
 30
0.000000
  70
    32
  0
VERTEX
  8
01
  5
14D48
 10
15617.6
 20
-1006.78
 30
0.000000
  70
    32
  0
VERTEX
  8
01
  5
14D49
 10
15617.9
 20
-1006.72
 30
0.000000
  70
    32
  0
VERTEX
  8
01
  5
14D4A
 10
15618.1
 20
-1006.68
 30
0.000000
  70
    32
  0
VERTEX
  8
01
  5
14D4B
 10
15618.4
 20
-1006.64
 30
0.000000
  70
    32
  0
VERTEX
  8
01
  5
14D4C
 10
15618.6
 20
-1006.61
 30
0.000000
  70
    32
  0
VERTEX
  8
01
  5
14D4D
 10
15618.8
 20
-1006.60
 30
0.000000
  70
    32
  0
VERTEX
  8
01
  5
14D4E
 10
15619.1
 20
-1006.59
 30
0.000000
  70
    32
  0
VERTEX
  8
01
  5
14D4F
 10
15619.3
 20
-1006.60
 30
0.000000
  70
    32
  0
VERTEX
  8
01
  5
14D50
 10
15619.6
 20
-1006.61
 30
0.000000
  70
    32
  0
VERTEX
  8
01
  5
14D51
 10
15619.8
 20
-1006.64
 30
0.000000
  70
    32
  0
VERTEX
  8
01
  5
14D52
 10
15620.1
 20
-1006.68
 30
0.000000
  70
    32
  0
VERTEX
  8
01
  5
14D53
 10
15620.3
 20
-1006.72
 30
0.000000
  70
    32
  0
VERTEX
  8
01
  5
14D54
 10
15620.5
 20
-1006.78
 30
0.000000
  70
    32
  0
VERTEX
  8
01
  5
14D55
 10
15620.8
 20
-1006.84
 30
0.000000
  70
    32
  0
VERTEX
  8
01
  5
14D56
 10
15621.0
 20
-1006.92
 30
0.000000
  70
    32
  0
VERTEX
  8
01
  5
14D57
 10
15621.2
 20
-1007.00
 30
0.000000
  70
    32
  0
VERTEX
  8
01
  5
14D58
 10
15621.4
 20
-1007.10
 30
0.000000
  70
    32
  0
VERTEX
  8
01
  5
14D59
 10
15621.6
 20
-1007.20
 30
0.000000
  70
    32
  0
VERTEX
  8
01
  5
14D5A
 10
15621.8
 20
-1007.31
 30
0.000000
  70
    32
  0
VERTEX
  8
01
  5
14D5B
 10
15622.0
 20
-1007.43
 30
0.000000
  70
    32
  0
VERTEX
  8
01
  5
14D5C
 10
15622.2
 20
-1007.56
 30
0.000000
  70
    32
  0
VERTEX
  8
01
  5
14D5D
 10
15622.4
 20
-1007.70
 30
0.000000
  70
    32
  0
VERTEX
  8
01
  5
14D5E
 10
15622.6
 20
-1007.85
 30
0.000000
  70
    32
  0
VERTEX
  8
01
  5
14D5F
 10
15622.8
 20
-1008.00
 30
0.000000
  70
    32
  0
VERTEX
  8
01
  5
14D60
 10
15622.9
 20
-1008.16
 30
0.000000
  70
    32
  0
VERTEX
  8
01
  5
14D61
 10
15623.1
 20
-1008.32
 30
0.000000
  70
    32
  0
VERTEX
  8
01
  5
14D62
 10
15623.2
 20
-1008.49
 30
0.000000
  70
    32
  0
VERTEX
  8
01
  5
14D63
 10
15623.3
 20
-1008.67
 30
0.000000
  70
    32
  0
VERTEX
  8
01
  5
14D64
 10
15623.4
 20
-1008.85
 30
0.000000
  70
    32
  0
VERTEX
  8
01
  5
14D65
 10
15623.6
 20
-1009.04
 30
0.000000
  70
    32
  0
VERTEX
  8
01
  5
14D66
 10
15623.7
 20
-1009.23
 30
0.000000
  70
    32
  0
VERTEX
  8
01
  5
14D67
 10
15623.7
 20
-1009.43
 30
0.000000
  70
    32
  0
VERTEX
  8
01
  5
14D68
 10
15623.8
 20
-1009.63
 30
0.000000
  70
    32
  0
VERTEX
  8
01
  5
14D69
 10
15623.9
 20
-1009.83
 30
0.000000
  70
    32
  0
VERTEX
  8
01
  5
14D6A
 10
15623.9
 20
-1010.03
 30
0.000000
  70
    32
  0
VERTEX
  8
01
  5
14D6B
 10
15624.0
 20
-1010.24
 30
0.000000
  70
    32
  0
VERTEX
  8
01
  5
14D6C
 10
15624.0
 20
-1010.45
 30
0.000000
  70
    32
  0
VERTEX
  8
01
  5
14D6D
 10
15624.0
 20
-1010.66
 30
0.000000
  70
    32
  0
VERTEX
  8
01
  5
14D6E
 10
15624.0
 20
-1010.87
 30
0.000000
  70
    32
  0
VERTEX
  8
01
  5
14D6F
 10
15624.0
 20
-1011.08
 30
0.000000
  70
    32
  0
VERTEX
  8
01
  5
14D70
 10
15624.0
 20
-1011.29
 30
0.000000
  70
    32
  0
VERTEX
  8
01
  5
14D71
 10
15624.0
 20
-1011.49
 30
0.000000
  70
    32
  0
VERTEX
  8
01
  5
14D72
 10
15623.9
 20
-1011.70
 30
0.000000
  70
    32
  0
VERTEX
  8
01
  5
14D73
 10
15623.9
 20
-1011.91
 30
0.000000
  70
    32
  0
VERTEX
  8
01
  5
14D74
 10
15623.8
 20
-1012.11
 30
0.000000
  70
    32
  0
VERTEX
  8
01
  5
14D75
 10
15623.7
 20
-1012.31
 30
0.000000
  70
    32
  0
VERTEX
  8
01
  5
14D76
 10
15623.7
 20
-1012.50
 30
0.000000
  70
    32
  0
VERTEX
  8
01
  5
14D77
 10
15623.6
 20
-1012.69
 30
0.000000
  70
    32
  0
VERTEX
  8
01
  5
14D78
 10
15623.4
 20
-1012.88
 30
0.000000
  70
    32
  0
VERTEX
  8
01
  5
14D79
 10
15623.3
 20
-1013.06
 30
0.000000
  70
    32
  0
VERTEX
  8
01
  5
14D7A
 10
15623.2
 20
-1013.24
 30
0.000000
  70
    32
  0
VERTEX
  8
01
  5
14D7B
 10
15623.1
 20
-1013.41
 30
0.000000
  70
    32
  0
VERTEX
  8
01
  5
14D7C
 10
15622.9
 20
-1013.58
 30
0.000000
  70
    32
  0
VERTEX
  8
01
  5
14D7D
 10
15622.8
 20
-1013.74
 30
0.000000
  70
    32
  0
VERTEX
  8
01
  5
14D7E
 10
15622.6
 20
-1013.89
 30
0.000000
  70
    32
  0
VERTEX
  8
01
  5
14D7F
 10
15622.4
 20
-1014.03
 30
0.000000
  70
    32
  0
VERTEX
  8
01
  5
14D80
 10
15622.2
 20
-1014.17
 30
0.000000
  70
    32
  0
VERTEX
  8
01
  5
14D81
 10
15622.0
 20
-1014.30
 30
0.000000
  70
    32
  0
VERTEX
  8
01
  5
14D82
 10
15621.8
 20
-1014.42
 30
0.000000
  70
    32
  0
VERTEX
  8
01
  5
14D83
 10
15621.6
 20
-1014.53
 30
0.000000
  70
    32
  0
VERTEX
  8
01
  5
14D84
 10
15621.4
 20
-1014.64
 30
0.000000
  70
    32
  0
VERTEX
  8
01
  5
14D85
 10
15621.2
 20
-1014.73
 30
0.000000
  70
    32
  0
VERTEX
  8
01
  5
14D86
 10
15621.0
 20
-1014.82
 30
0.000000
  70
    32
  0
VERTEX
  8
01
  5
14D87
 10
15620.8
 20
-1014.89
 30
0.000000
  70
    32
  0
VERTEX
  8
01
  5
14D88
 10
15620.5
 20
-1014.96
 30
0.000000
  70
    32
  0
VERTEX
  8
01
  5
14D89
 10
15620.3
 20
-1015.01
 30
0.000000
  70
    32
  0
VERTEX
  8
01
  5
14D8A
 10
15620.1
 20
-1015.06
 30
0.000000
  70
    32
  0
VERTEX
  8
01
  5
14D8B
 10
15619.8
 20
-1015.09
 30
0.000000
  70
    32
  0
VERTEX
  8
01
  5
14D8C
 10
15619.6
 20
-1015.12
 30
0.000000
  70
    32
  0
VERTEX
  8
01
  5
14D8D
 10
15619.3
 20
-1015.14
 30
0.000000
  70
    32
  0
VERTEX
  8
01
  5
14D8E
 10
15619.1
 20
-1015.14
 30
0.000000
  70
    32
  0
VERTEX
  8
01
  5
14D8F
 10
15618.8
 20
-1015.14
 30
0.000000
  70
    32
  0
VERTEX
  8
01
  5
14D90
 10
15618.6
 20
-1015.12
 30
0.000000
  70
    32
  0
VERTEX
  8
01
  5
14D91
 10
15618.4
 20
-1015.09
 30
0.000000
  70
    32
  0
VERTEX
  8
01
  5
14D92
 10
15618.1
 20
-1015.06
 30
0.000000
  70
    32
  0
VERTEX
  8
01
  5
14D93
 10
15617.9
 20
-1015.01
 30
0.000000
  70
    32
  0
VERTEX
  8
01
  5
14D94
 10
15617.6
 20
-1014.96
 30
0.000000
  70
    32
  0
VERTEX
  8
01
  5
14D95
 10
15617.4
 20
-1014.89
 30
0.000000
  70
    32
  0
VERTEX
  8
01
  5
14D96
 10
15617.2
 20
-1014.82
 30
0.000000
  70
    32
  0
VERTEX
  8
01
  5
14D97
 10
15617.0
 20
-1014.73
 30
0.000000
  70
    32
  0
VERTEX
  8
01
  5
14D98
 10
15616.8
 20
-1014.64
 30
0.000000
  70
    32
  0
VERTEX
  8
01
  5
14D99
 10
15616.5
 20
-1014.53
 30
0.000000
  70
    32
  0
VERTEX
  8
01
  5
14D9A
 10
15616.3
 20
-1014.42
 30
0.000000
  70
    32
  0
VERTEX
  8
01
  5
14D9B
 10
15616.1
 20
-1014.30
 30
0.000000
  70
    32
  0
VERTEX
  8
01
  5
14D9C
 10
15615.9
 20
-1014.17
 30
0.000000
  70
    32
  0
VERTEX
  8
01
  5
14D9D
 10
15615.8
 20
-1014.03
 30
0.000000
  70
    32
  0
VERTEX
  8
01
  5
14D9E
 10
15615.6
 20
-1013.89
 30
0.000000
  70
    32
  0
VERTEX
  8
01
  5
14D9F
 10
15615.4
 20
-1013.74
 30
0.000000
  70
    32
  0
VERTEX
  8
01
  5
14DA0
 10
15615.3
 20
-1013.58
 30
0.000000
  70
    32
  0
VERTEX
  8
01
  5
14DA1
 10
15615.1
 20
-1013.41
 30
0.000000
  70
    32
  0
VERTEX
  8
01
  5
14DA2
 10
15615.0
 20
-1013.24
 30
0.000000
  70
    32
  0
VERTEX
  8
01
  5
14DA3
 10
15614.8
 20
-1013.06
 30
0.000000
  70
    32
  0
VERTEX
  8
01
  5
14DA4
 10
15614.7
 20
-1012.88
 30
0.000000
  70
    32
  0
VERTEX
  8
01
  5
14DA5
 10
15614.6
 20
-1012.69
 30
0.000000
  70
    32
  0
VERTEX
  8
01
  5
14DA6
 10
15614.5
 20
-1012.50
 30
0.000000
  70
    32
  0
VERTEX
  8
01
  5
14DA7
 10
15614.4
 20
-1012.31
 30
0.000000
  70
    32
  0
VERTEX
  8
01
  5
14DA8
 10
15614.4
 20
-1012.11
 30
0.000000
  70
    32
  0
VERTEX
  8
01
  5
14DA9
 10
15614.3
 20
-1011.91
 30
0.000000
  70
    32
  0
VERTEX
  8
01
  5
14DAA
 10
15614.2
 20
-1011.70
 30
0.000000
  70
    32
  0
VERTEX
  8
01
  5
14DAB
 10
15614.2
 20
-1011.49
 30
0.000000
  70
    32
  0
VERTEX
  8
01
  5
14DAC
 10
15614.2
 20
-1011.29
 30
0.000000
  70
    32
  0
VERTEX
  8
01
  5
14DAD
 10
15614.1
 20
-1011.08
 30
0.000000
  70
    32
  0
VERTEX
  8
01
  5
14DAE
 10
15614.1
 20
-1010.87
 30
0.000000
  70
    32
  0
SEQEND
  8
01
  5
14DAF
  0
POLYLINE
  5
1470E
  8
01
 10
15608.585138088572
 20
-975.39089730902435
 30
0.0
 66
     1
 70
     8
  0
VERTEX
  8
01
  5
14DB0
 10
15608.6
 20
-975.391
 30
0.000000
  70
    32
  0
VERTEX
  8
01
  5
14DB1
 10
15608.2
 20
-975.397
 30
0.000000
  70
    32
  0
VERTEX
  8
01
  5
14DB2
 10
15607.9
 20
-975.415
 30
0.000000
  70
    32
  0
VERTEX
  8
01
  5
14DB3
 10
15607.5
 20
-975.445
 30
0.000000
  70
    32
  0
VERTEX
  8
01
  5
14DB4
 10
15607.2
 20
-975.487
 30
0.000000
  70
    32
  0
VERTEX
  8
01
  5
14DB5
 10
15606.8
 20
-975.541
 30
0.000000
  70
    32
  0
VERTEX
  8
01
  5
14DB6
 10
15606.4
 20
-975.607
 30
0.000000
  70
    32
  0
VERTEX
  8
01
  5
14DB7
 10
15606.1
 20
-975.685
 30
0.000000
  70
    32
  0
VERTEX
  8
01
  5
14DB8
 10
15605.7
 20
-975.775
 30
0.000000
  70
    32
  0
VERTEX
  8
01
  5
14DB9
 10
15605.4
 20
-975.877
 30
0.000000
  70
    32
  0
VERTEX
  8
01
  5
14DBA
 10
15605.0
 20
-975.990
 30
0.000000
  70
    32
  0
VERTEX
  8
01
  5
14DBB
 10
15604.7
 20
-976.115
 30
0.000000
  70
    32
  0
VERTEX
  8
01
  5
14DBC
 10
15604.3
 20
-976.252
 30
0.000000
  70
    32
  0
VERTEX
  8
01
  5
14DBD
 10
15604.0
 20
-976.400
 30
0.000000
  70
    32
  0
VERTEX
  8
01
  5
14DBE
 10
15603.7
 20
-976.560
 30
0.000000
  70
    32
  0
VERTEX
  8
01
  5
14DBF
 10
15603.3
 20
-976.731
 30
0.000000
  70
    32
  0
VERTEX
  8
01
  5
14DC0
 10
15603.0
 20
-976.913
 30
0.000000
  70
    32
  0
VERTEX
  8
01
  5
14DC1
 10
15602.7
 20
-977.107
 30
0.000000
  70
    32
  0
VERTEX
  8
01
  5
14DC2
 10
15602.3
 20
-977.311
 30
0.000000
  70
    32
  0
VERTEX
  8
01
  5
14DC3
 10
15602.0
 20
-977.526
 30
0.000000
  70
    32
  0
VERTEX
  8
01
  5
14DC4
 10
15601.7
 20
-977.752
 30
0.000000
  70
    32
  0
VERTEX
  8
01
  5
14DC5
 10
15601.4
 20
-977.989
 30
0.000000
  70
    32
  0
VERTEX
  8
01
  5
14DC6
 10
15601.1
 20
-978.236
 30
0.000000
  70
    32
  0
VERTEX
  8
01
  5
14DC7
 10
15600.8
 20
-978.494
 30
0.000000
  70
    32
  0
VERTEX
  8
01
  5
14DC8
 10
15600.5
 20
-978.762
 30
0.000000
  70
    32
  0
VERTEX
  8
01
  5
14DC9
 10
15600.2
 20
-979.039
 30
0.000000
  70
    32
  0
VERTEX
  8
01
  5
14DCA
 10
15599.9
 20
-979.327
 30
0.000000
  70
    32
  0
VERTEX
  8
01
  5
14DCB
 10
15599.6
 20
-979.624
 30
0.000000
  70
    32
  0
VERTEX
  8
01
  5
14DCC
 10
15599.3
 20
-979.931
 30
0.000000
  70
    32
  0
VERTEX
  8
01
  5
14DCD
 10
15599.1
 20
-980.247
 30
0.000000
  70
    32
  0
VERTEX
  8
01
  5
14DCE
 10
15598.8
 20
-980.572
 30
0.000000
  70
    32
  0
VERTEX
  8
01
  5
14DCF
 10
15598.5
 20
-980.906
 30
0.000000
  70
    32
  0
VERTEX
  8
01
  5
14DD0
 10
15598.3
 20
-981.249
 30
0.000000
  70
    32
  0
VERTEX
  8
01
  5
14DD1
 10
15598.0
 20
-981.600
 30
0.000000
  70
    32
  0
VERTEX
  8
01
  5
14DD2
 10
15597.8
 20
-981.960
 30
0.000000
  70
    32
  0
VERTEX
  8
01
  5
14DD3
 10
15597.5
 20
-982.327
 30
0.000000
  70
    32
  0
VERTEX
  8
01
  5
14DD4
 10
15597.3
 20
-982.703
 30
0.000000
  70
    32
  0
VERTEX
  8
01
  5
14DD5
 10
15597.1
 20
-983.086
 30
0.000000
  70
    32
  0
VERTEX
  8
01
  5
14DD6
 10
15596.9
 20
-983.477
 30
0.000000
  70
    32
  0
VERTEX
  8
01
  5
14DD7
 10
15596.7
 20
-983.875
 30
0.000000
  70
    32
  0
VERTEX
  8
01
  5
14DD8
 10
15596.4
 20
-984.279
 30
0.000000
  70
    32
  0
VERTEX
  8
01
  5
14DD9
 10
15596.3
 20
-984.691
 30
0.000000
  70
    32
  0
VERTEX
  8
01
  5
14DDA
 10
15596.1
 20
-985.109
 30
0.000000
  70
    32
  0
VERTEX
  8
01
  5
14DDB
 10
15595.9
 20
-985.533
 30
0.000000
  70
    32
  0
VERTEX
  8
01
  5
14DDC
 10
15595.7
 20
-985.963
 30
0.000000
  70
    32
  0
VERTEX
  8
01
  5
14DDD
 10
15595.5
 20
-986.399
 30
0.000000
  70
    32
  0
VERTEX
  8
01
  5
14DDE
 10
15595.4
 20
-986.840
 30
0.000000
  70
    32
  0
VERTEX
  8
01
  5
14DDF
 10
15595.2
 20
-987.286
 30
0.000000
  70
    32
  0
VERTEX
  8
01
  5
14DE0
 10
15595.1
 20
-987.737
 30
0.000000
  70
    32
  0
VERTEX
  8
01
  5
14DE1
 10
15595.0
 20
-988.193
 30
0.000000
  70
    32
  0
VERTEX
  8
01
  5
14DE2
 10
15594.8
 20
-988.653
 30
0.000000
  70
    32
  0
VERTEX
  8
01
  5
14DE3
 10
15594.7
 20
-989.117
 30
0.000000
  70
    32
  0
VERTEX
  8
01
  5
14DE4
 10
15594.6
 20
-989.585
 30
0.000000
  70
    32
  0
VERTEX
  8
01
  5
14DE5
 10
15594.5
 20
-990.057
 30
0.000000
  70
    32
  0
VERTEX
  8
01
  5
14DE6
 10
15594.4
 20
-990.531
 30
0.000000
  70
    32
  0
VERTEX
  8
01
  5
14DE7
 10
15594.3
 20
-991.009
 30
0.000000
  70
    32
  0
VERTEX
  8
01
  5
14DE8
 10
15594.3
 20
-991.489
 30
0.000000
  70
    32
  0
VERTEX
  8
01
  5
14DE9
 10
15594.2
 20
-991.972
 30
0.000000
  70
    32
  0
VERTEX
  8
01
  5
14DEA
 10
15594.1
 20
-992.456
 30
0.000000
  70
    32
  0
VERTEX
  8
01
  5
14DEB
 10
15594.1
 20
-992.943
 30
0.000000
  70
    32
  0
VERTEX
  8
01
  5
14DEC
 10
15594.1
 20
-993.431
 30
0.000000
  70
    32
  0
VERTEX
  8
01
  5
14DED
 10
15594.0
 20
-993.920
 30
0.000000
  70
    32
  0
VERTEX
  8
01
  5
14DEE
 10
15594.0
 20
-994.410
 30
0.000000
  70
    32
  0
VERTEX
  8
01
  5
14DEF
 10
15594.0
 20
-994.900
 30
0.000000
  70
    32
  0
VERTEX
  8
01
  5
14DF0
 10
15594.0
 20
-995.391
 30
0.000000
  70
    32
  0
VERTEX
  8
01
  5
14DF1
 10
15594.0
 20
-995.882
 30
0.000000
  70
    32
  0
VERTEX
  8
01
  5
14DF2
 10
15594.0
 20
-996.372
 30
0.000000
  70
    32
  0
VERTEX
  8
01
  5
14DF3
 10
15594.0
 20
-996.862
 30
0.000000
  70
    32
  0
VERTEX
  8
01
  5
14DF4
 10
15594.1
 20
-997.351
 30
0.000000
  70
    32
  0
VERTEX
  8
01
  5
14DF5
 10
15594.1
 20
-997.839
 30
0.000000
  70
    32
  0
VERTEX
  8
01
  5
14DF6
 10
15594.1
 20
-998.326
 30
0.000000
  70
    32
  0
VERTEX
  8
01
  5
14DF7
 10
15594.2
 20
-998.810
 30
0.000000
  70
    32
  0
VERTEX
  8
01
  5
14DF8
 10
15594.3
 20
-999.293
 30
0.000000
  70
    32
  0
VERTEX
  8
01
  5
14DF9
 10
15594.3
 20
-999.773
 30
0.000000
  70
    32
  0
VERTEX
  8
01
  5
14DFA
 10
15594.4
 20
-1000.25
 30
0.000000
  70
    32
  0
VERTEX
  8
01
  5
14DFB
 10
15594.5
 20
-1000.73
 30
0.000000
  70
    32
  0
VERTEX
  8
01
  5
14DFC
 10
15594.6
 20
-1001.20
 30
0.000000
  70
    32
  0
VERTEX
  8
01
  5
14DFD
 10
15594.7
 20
-1001.66
 30
0.000000
  70
    32
  0
VERTEX
  8
01
  5
14DFE
 10
15594.8
 20
-1002.13
 30
0.000000
  70
    32
  0
VERTEX
  8
01
  5
14DFF
 10
15595.0
 20
-1002.59
 30
0.000000
  70
    32
  0
VERTEX
  8
01
  5
14E00
 10
15595.1
 20
-1003.04
 30
0.000000
  70
    32
  0
VERTEX
  8
01
  5
14E01
 10
15595.2
 20
-1003.50
 30
0.000000
  70
    32
  0
VERTEX
  8
01
  5
14E02
 10
15595.4
 20
-1003.94
 30
0.000000
  70
    32
  0
VERTEX
  8
01
  5
14E03
 10
15595.5
 20
-1004.38
 30
0.000000
  70
    32
  0
VERTEX
  8
01
  5
14E04
 10
15595.7
 20
-1004.82
 30
0.000000
  70
    32
  0
VERTEX
  8
01
  5
14E05
 10
15595.9
 20
-1005.25
 30
0.000000
  70
    32
  0
VERTEX
  8
01
  5
14E06
 10
15596.1
 20
-1005.67
 30
0.000000
  70
    32
  0
VERTEX
  8
01
  5
14E07
 10
15596.3
 20
-1006.09
 30
0.000000
  70
    32
  0
VERTEX
  8
01
  5
14E08
 10
15596.4
 20
-1006.50
 30
0.000000
  70
    32
  0
VERTEX
  8
01
  5
14E09
 10
15596.7
 20
-1006.91
 30
0.000000
  70
    32
  0
VERTEX
  8
01
  5
14E0A
 10
15596.9
 20
-1007.30
 30
0.000000
  70
    32
  0
VERTEX
  8
01
  5
14E0B
 10
15597.1
 20
-1007.70
 30
0.000000
  70
    32
  0
VERTEX
  8
01
  5
14E0C
 10
15597.3
 20
-1008.08
 30
0.000000
  70
    32
  0
VERTEX
  8
01
  5
14E0D
 10
15597.5
 20
-1008.45
 30
0.000000
  70
    32
  0
VERTEX
  8
01
  5
14E0E
 10
15597.8
 20
-1008.82
 30
0.000000
  70
    32
  0
VERTEX
  8
01
  5
14E0F
 10
15598.0
 20
-1009.18
 30
0.000000
  70
    32
  0
VERTEX
  8
01
  5
14E10
 10
15598.3
 20
-1009.53
 30
0.000000
  70
    32
  0
VERTEX
  8
01
  5
14E11
 10
15598.5
 20
-1009.88
 30
0.000000
  70
    32
  0
VERTEX
  8
01
  5
14E12
 10
15598.8
 20
-1010.21
 30
0.000000
  70
    32
  0
VERTEX
  8
01
  5
14E13
 10
15599.1
 20
-1010.54
 30
0.000000
  70
    32
  0
VERTEX
  8
01
  5
14E14
 10
15599.3
 20
-1010.85
 30
0.000000
  70
    32
  0
VERTEX
  8
01
  5
14E15
 10
15599.6
 20
-1011.16
 30
0.000000
  70
    32
  0
VERTEX
  8
01
  5
14E16
 10
15599.9
 20
-1011.46
 30
0.000000
  70
    32
  0
VERTEX
  8
01
  5
14E17
 10
15600.2
 20
-1011.74
 30
0.000000
  70
    32
  0
VERTEX
  8
01
  5
14E18
 10
15600.5
 20
-1012.02
 30
0.000000
  70
    32
  0
VERTEX
  8
01
  5
14E19
 10
15600.8
 20
-1012.29
 30
0.000000
  70
    32
  0
VERTEX
  8
01
  5
14E1A
 10
15601.1
 20
-1012.55
 30
0.000000
  70
    32
  0
VERTEX
  8
01
  5
14E1B
 10
15601.4
 20
-1012.79
 30
0.000000
  70
    32
  0
VERTEX
  8
01
  5
14E1C
 10
15601.7
 20
-1013.03
 30
0.000000
  70
    32
  0
VERTEX
  8
01
  5
14E1D
 10
15602.0
 20
-1013.26
 30
0.000000
  70
    32
  0
VERTEX
  8
01
  5
14E1E
 10
15602.3
 20
-1013.47
 30
0.000000
  70
    32
  0
VERTEX
  8
01
  5
14E1F
 10
15602.7
 20
-1013.68
 30
0.000000
  70
    32
  0
VERTEX
  8
01
  5
14E20
 10
15603.0
 20
-1013.87
 30
0.000000
  70
    32
  0
VERTEX
  8
01
  5
14E21
 10
15603.3
 20
-1014.05
 30
0.000000
  70
    32
  0
VERTEX
  8
01
  5
14E22
 10
15603.7
 20
-1014.22
 30
0.000000
  70
    32
  0
VERTEX
  8
01
  5
14E23
 10
15604.0
 20
-1014.38
 30
0.000000
  70
    32
  0
VERTEX
  8
01
  5
14E24
 10
15604.3
 20
-1014.53
 30
0.000000
  70
    32
  0
VERTEX
  8
01
  5
14E25
 10
15604.7
 20
-1014.67
 30
0.000000
  70
    32
  0
VERTEX
  8
01
  5
14E26
 10
15605.0
 20
-1014.79
 30
0.000000
  70
    32
  0
VERTEX
  8
01
  5
14E27
 10
15605.4
 20
-1014.90
 30
0.000000
  70
    32
  0
VERTEX
  8
01
  5
14E28
 10
15605.7
 20
-1015.01
 30
0.000000
  70
    32
  0
VERTEX
  8
01
  5
14E29
 10
15606.1
 20
-1015.10
 30
0.000000
  70
    32
  0
VERTEX
  8
01
  5
14E2A
 10
15606.4
 20
-1015.17
 30
0.000000
  70
    32
  0
VERTEX
  8
01
  5
14E2B
 10
15606.8
 20
-1015.24
 30
0.000000
  70
    32
  0
VERTEX
  8
01
  5
14E2C
 10
15607.2
 20
-1015.29
 30
0.000000
  70
    32
  0
VERTEX
  8
01
  5
14E2D
 10
15607.5
 20
-1015.34
 30
0.000000
  70
    32
  0
VERTEX
  8
01
  5
14E2E
 10
15607.9
 20
-1015.37
 30
0.000000
  70
    32
  0
VERTEX
  8
01
  5
14E2F
 10
15608.2
 20
-1015.38
 30
0.000000
  70
    32
  0
VERTEX
  8
01
  5
14E30
 10
15608.6
 20
-1015.39
 30
0.000000
  70
    32
  0
SEQEND
  8
01
  5
14E31
  0
LINE
  5
14711
  8
01
 10
15621.885137902111
 20
-980.64089730902424
 30
0.0
 11
15621.885137902111
 21
-1010.140897309024
 31
0.0
  0
LINE
  5
14712
  8
01
 10
15622.58513790211
 20
-1010.140897309024
 30
0.0
 11
15621.885137902111
 21
-1010.140897309024
 31
0.0
  0
LINE
  5
14714
  8
01
 10
15622.58513790211
 20
-980.64089730902435
 30
0.0
 11
15621.885137902111
 21
-980.64089730902424
 31
0.0
  0
LINE
  5
14715
  8
01
 10
15622.58513790211
 20
-1010.140897309024
 30
0.0
 11
15622.58513790211
 21
-1007.890897309024
 31
0.0
  0
LINE
  5
14716
  8
01
 10
15624.58513790211
 20
-982.89089730902435
 30
0.0
 11
15622.58513790211
 21
-982.89089730902435
 31
0.0
  0
LINE
  5
14717
  8
01
 10
15622.58513790211
 20
-982.93453925277197
 30
0.0
 11
15622.58513790211
 21
-980.64089730902435
 31
0.0
  0
LINE
  5
14718
  8
01
 10
15624.58513790211
 20
-1007.890897309024
 30
0.0
 11
15622.58513790211
 21
-1007.890897309024
 31
0.0
  0
LINE
  5
14A7B
  8
01
 10
15570.085138088571
 20
-872.19089730902522
 30
0.0
 11
15570.085138088571
 21
-883.69089730902442
 31
0.0
  0
LINE
  5
14A7C
  8
01
 10
15561.085138088571
 20
-872.19089730902522
 30
0.0
 11
15614.085138088571
 21
-872.19089730902522
 31
0.0
  0
ARC
  5
14A7D
  8
01
 10
15561.085138088571
 20
-871.69089730902533
 30
0.0
 40
0.5
 50
180.0
 51
270.0
  0
LINE
  5
14A7E
  8
01
 10
15560.585138088571
 20
-870.58469313015075
 30
0.0
 11
15560.585138088571
 21
-871.69089730902533
 31
0.0
  0
ARC
  5
14A7F
  8
01
 10
15587.585138088571
 20
-966.49089730902472
 30
0.0
 40
100.0
 50
74.553904827791115
 51
105.4460951722089
  0
ARC
  5
14A80
  8
01
 10
15561.085138088571
 20
-870.58469313015075
 30
0.0
 40
0.5
 50
105.4460951722089
 51
180.0
  0
LINE
  5
14A81
  8
01
 10
15576.483336432981
 20
-883.69089730902442
 30
0.0
 11
15576.483336432981
 21
-872.19089730902522
 31
0.0
  0
LINE
  5
14A82
  8
01
 10
15570.344198438999
 20
-883.69089730902442
 30
0.0
 11
15570.344198438999
 21
-872.19089730902522
 31
0.0
  0
LINE
  5
14A83
  8
01
 10
15560.759975572561
 20
-870.2048650925085
 30
0.0
 11
15614.410300604581
 21
-870.2048650925085
 31
0.0
  0
LINE
  5
14A84
  8
01
 10
15605.085138088571
 20
-872.19089730902522
 30
0.0
 11
15605.085138088571
 21
-883.69089730902442
 31
0.0
  0
ARC
  5
14A85
  8
01
 10
15614.085138088571
 20
-871.69089730902533
 30
0.0
 40
0.5
 50
270.0
 51
0.0
  0
LINE
  5
14A86
  8
01
 10
15614.585138088571
 20
-870.58469313015075
 30
0.0
 11
15614.585138088571
 21
-871.69089730902533
 31
0.0
  0
ARC
  5
14A87
  8
01
 10
15614.085138088571
 20
-870.58469313015075
 30
0.0
 40
0.5
 50
0.0
 51
74.553904827791115
  0
LINE
  5
14A88
  8
01
 10
15598.68693974415
 20
-883.69089730902442
 30
0.0
 11
15598.68693974415
 21
-872.19089730902522
 31
0.0
  0
LINE
  5
14A89
  8
01
 10
15604.826077738129
 20
-883.69089730902442
 30
0.0
 11
15604.826077738129
 21
-872.19089730902522
 31
0.0
  0
LINE
  5
14B75
  8
01
 10
15587.585138088571
 20
-1070.890897309024
 30
0.0
 11
15687.252781450041
 21
-1070.890897309024
 31
0.0
  0
LINE
  5
14B76
  8
01
 10
15685.252781450041
 20
-999.39089730902435
 30
0.0
 11
15685.252781450041
 21
-1066.890897309024
 31
0.0
  0
LINE
  5
14B77
  8
01
 10
15685.252781450041
 20
-1070.890897309024
 30
0.0
 11
15685.252781450041
 21
-1139.557563975691
 31
0.0
  0
LINE
  5
14B7B
  8
01
 10
15621.885137902111
 20
-1010.140897309024
 30
0.0
 11
15621.885137902111
 21
-1168.484299124651
 31
0.0
  0
LINE
  5
14B7C
  8
01
 10
15721.88513808857
 20
-1007.890897309024
 30
0.0
 11
15721.88513808857
 21
-1168.484299124651
 31
0.0
  0
LINE
  5
14B7D
  8
01
 10
15625.885137902111
 20
-1166.484299124651
 30
0.0
 11
15717.88513808857
 21
-1166.484299124651
 31
0.0
  0
TEXT
  5
14B81
  8
01
 10
15273.089855059619
 20
-766.84592105858121
 30
0.0
 40
16.0
  1
HFG
  0
LINE
  5
14B82
  8
01
 10
15587.585138088571
 20
-1151.7188142365769
 30
0.0
 11
15587.585138088571
 21
-1189.067264938936
 31
0.0
  0
LINE
  5
14B83
  8
01
 10
15721.88513808857
 20
-1007.890897309024
 30
0.0
 11
15721.88513808857
 21
-1189.067264938936
 31
0.0
  0
LINE
  5
14B84
  8
01
 10
15591.585138088571
 20
-1187.067264938936
 30
0.0
 11
15717.88513808857
 21
-1187.067264938936
 31
0.0
  0
LINE
  5
14B88
  8
01
 10
15708.109874671751
 20
-965.39093101752826
 30
0.0
 11
15774.21135818983
 21
-965.39093101752826
 31
0.0
  0
LINE
  5
14B89
  8
01
 10
15708.109942088569
 20
-1025.390897309024
 30
0.0
 11
15774.21135818983
 21
-1025.390897309024
 31
0.0
  0
LINE
  5
14B8A
  8
01
 10
15772.211358189839
 20
-969.39093101752815
 30
0.0
 11
15772.211358189839
 21
-1021.390897309024
 31
0.0
  0
LINE
  5
14B8E
  8
01
 10
15725.933959923281
 20
-995.39089730902435
 30
0.0
 11
15741.420962636779
 21
-995.39089730902435
 31
0.0
  0
LINE
  5
14B8F
  8
01
 10
15587.585138088571
 20
-883.69089730902442
 30
0.0
 11
15741.420962636779
 21
-883.69089730902454
 31
0.0
  0
LINE
  5
14B90
  8
01
 10
15739.420962636779
 20
-991.39089730902435
 30
0.0
 11
15739.420962636779
 21
-887.69089730902454
 31
0.0
  0
LINE
  5
14B94
  8
01
 10
15566.585138088571
 20
-1129.4908973090239
 30
0.0
 11
15566.585138088571
 21
-1168.484299124651
 31
0.0
  0
LINE
  5
14B95
  8
01
 10
15608.585138088571
 20
-1129.4908973090239
 30
0.0
 11
15608.585138088571
 21
-1168.484299124651
 31
0.0
  0
LINE
  5
14B96
  8
01
 10
15604.585138088571
 20
-1166.484299124651
 30
0.0
 11
15570.585138088571
 21
-1166.484299124651
 31
0.0
  0
LINE
  5
14B97
  8
01
 10
15566.585138088571
 20
-1166.484299124651
 30
0.0
 11
15538.27077568055
 21
-1166.484299124651
 31
0.0
  0
LINE
  5
14B9B
  8
01
 10
15561.085138088571
 20
-883.69089730902442
 30
0.0
 11
15504.549429921841
 21
-883.69089730902442
 31
0.0
  0
LINE
  5
14B9C
  8
01
 10
15567.48513808857
 20
-1130.390897309024
 30
0.0
 11
15504.549429921841
 21
-1130.390897309024
 31
0.0
  0
LINE
  5
14B9D
  8
01
 10
15506.549429921841
 20
-887.69089730902454
 30
0.0
 11
15506.549429921841
 21
-1126.390897309024
 31
0.0
  0
LINE
  5
14BA1
  8
01
 10
15560.585138088571
 20
-884.89089730902435
 30
0.0
 11
15560.585138088571
 21
-825.38175083181329
 31
0.0
  0
LINE
  5
14BA2
  8
01
 10
15614.585138088571
 20
-884.89089730902435
 30
0.0
 11
15614.585138088571
 21
-825.38175083181329
 31
0.0
  0
LINE
  5
14BA3
  8
01
 10
15564.585138088571
 20
-827.38175083181329
 30
0.0
 11
15610.585138088571
 21
-827.38175083181329
 31
0.0
  0
TEXT
  5
14BA7
  8
01
 10
15650.47184880444
 20
-836.19264761484612
 30
0.0
 40
7.0
  1
排水口キャップ
  0
LINE
  5
14BAA
  8
01
 10
15721.88513808857
 20
-982.89089730902435
 30
0.0
 11
15758.05271505663
 21
-982.89089730902435
 31
0.0
  0
LINE
  5
14BAB
  8
01
 10
15721.88513808857
 20
-1007.890897309024
 30
0.0
 11
15758.05271505663
 21
-1007.890897309024
 31
0.0
  0
LINE
  5
14BAC
  8
01
 10
15756.05271505663
 20
-986.89089730902435
 30
0.0
 11
15756.05271505663
 21
-1003.890897309024
 31
0.0
  0
TEXT
  5
14BB0
  8
01
 10
15754.652715056631
 20
-1006.457563975688
 30
0.0
 40
7.0
  1
φ25
 50
90.0
  0
LINE
  5
14BB1
  8
01
  6
BYBLOCK
 10
15757.12451181663
 20
-1003.890897309024
 30
0.0
 11
15756.05271505663
 21
-1007.890897309024
 31
0.0
  0
LINE
  5
14BB2
  8
01
  6
BYBLOCK
 10
15756.05271505663
 20
-1007.890897309024
 30
0.0
 11
15754.980918296629
 21
-1003.890897309024
 31
0.0
  0
LINE
  5
14BB3
  8
01
  6
BYBLOCK
 10
15756.05271505663
 20
-1007.890897309024
 30
0.0
 11
15756.05271505663
 21
-1003.890897309024
 31
0.0
  0
LINE
  5
14BB4
  8
01
  6
BYBLOCK
 10
15754.980918296629
 20
-986.89089730902435
 30
0.0
 11
15756.05271505663
 21
-982.89089730902435
 31
0.0
  0
LINE
  5
14BB5
  8
01
  6
BYBLOCK
 10
15756.05271505663
 20
-982.89089730902435
 30
0.0
 11
15757.12451181663
 21
-986.89089730902435
 31
0.0
  0
LINE
  5
14BB6
  8
01
  6
BYBLOCK
 10
15756.05271505663
 20
-982.89089730902435
 30
0.0
 11
15756.05271505663
 21
-986.89089730902435
 31
0.0
  0
LINE
  5
14BB7
  8
01
 10
15599.33824437275
 20
-867.60122140024896
 30
0.0
 11
15645.20518213777
 21
-837.59264761484599
 31
0.0
1001
ACAD
1000
DSTYLE
1002
{
1070
    40
1040
2.0
1002
}
  0
LINE
  5
14BB8
  8
01
 10
15645.20518213777
 20
-837.59264761484599
 30
0.0
 11
15707.30518213777
 21
-837.59264761484599
 31
0.0
1001
ACAD
1000
DSTYLE
1002
{
1070
    40
1040
2.0
1002
}
  0
LINE
  5
14BB9
  8
01
  6
BYBLOCK
 10
15599.92503995325
 20
-868.49811562001639
 30
0.0
 11
15595.9909895452
 21
-869.79117234020225
 31
0.0
  0
LINE
  5
14BBA
  8
01
  6
BYBLOCK
 10
15595.9909895452
 20
-869.79117234020225
 30
0.0
 11
15598.751448792251
 21
-866.70432718048176
 31
0.0
  0
LINE
  5
14BBB
  8
01
  6
BYBLOCK
 10
15595.9909895452
 20
-869.79117234020225
 30
0.0
 11
15599.33824437275
 21
-867.60122140024896
 31
0.0
  0
TEXT
  5
14BBC
  8
01
 10
15576.35180475523
 20
-825.98175083181343
 30
0.0
 40
7.0
  1
φ54
  0
LINE
  5
14BBD
  8
01
  6
BYBLOCK
 10
15610.585138088571
 20
-826.30995407181331
 30
0.0
 11
15614.585138088571
 21
-827.38175083181329
 31
0.0
  0
LINE
  5
14BBE
  8
01
  6
BYBLOCK
 10
15614.585138088571
 20
-827.38175083181329
 30
0.0
 11
15610.585138088571
 21
-828.45354759181328
 31
0.0
  0
LINE
  5
14BBF
  8
01
  6
BYBLOCK
 10
15614.585138088571
 20
-827.38175083181329
 30
0.0
 11
15610.585138088571
 21
-827.38175083181329
 31
0.0
  0
LINE
  5
14BC0
  8
01
  6
BYBLOCK
 10
15564.585138088571
 20
-828.45354759181328
 30
0.0
 11
15560.585138088571
 21
-827.38175083181329
 31
0.0
  0
LINE
  5
14BC1
  8
01
  6
BYBLOCK
 10
15560.585138088571
 20
-827.38175083181329
 30
0.0
 11
15564.585138088571
 21
-826.30995407181331
 31
0.0
  0
LINE
  5
14BC2
  8
01
  6
BYBLOCK
 10
15560.585138088571
 20
-827.38175083181329
 30
0.0
 11
15564.585138088571
 21
-827.38175083181329
 31
0.0
  0
TEXT
  5
14BC3
  8
01
 10
15505.149429921839
 20
-1015.316319662624
 30
0.0
 40
7.0
  1
247
 50
90.0
  0
LINE
  5
14BC4
  8
01
  6
BYBLOCK
 10
15507.62122668184
 20
-1126.390897309024
 30
0.0
 11
15506.549429921841
 21
-1130.390897309024
 31
0.0
  0
LINE
  5
14BC5
  8
01
  6
BYBLOCK
 10
15506.549429921841
 20
-1130.390897309024
 30
0.0
 11
15505.47763316184
 21
-1126.390897309024
 31
0.0
  0
LINE
  5
14BC6
  8
01
  6
BYBLOCK
 10
15506.549429921841
 20
-1130.390897309024
 30
0.0
 11
15506.549429921841
 21
-1126.390897309024
 31
0.0
  0
LINE
  5
14BC7
  8
01
  6
BYBLOCK
 10
15505.47763316184
 20
-887.69089730902454
 30
0.0
 11
15506.549429921841
 21
-883.69089730902442
 31
0.0
  0
LINE
  5
14BC8
  8
01
  6
BYBLOCK
 10
15506.549429921841
 20
-883.69089730902442
 30
0.0
 11
15507.62122668184
 21
-887.69089730902454
 31
0.0
  0
LINE
  5
14BC9
  8
01
  6
BYBLOCK
 10
15506.549429921841
 20
-883.69089730902442
 30
0.0
 11
15506.549429921841
 21
-887.69089730902454
 31
0.0
  0
TEXT
  5
14BCA
  8
01
 10
15538.27077568055
 20
-1165.0842991246509
 30
0.0
 40
7.0
  1
φ42
  0
LINE
  5
14BCB
  8
01
  6
BYBLOCK
 10
15570.585138088571
 20
-1167.5560958846511
 30
0.0
 11
15566.585138088571
 21
-1166.484299124651
 31
0.0
  0
LINE
  5
14BCC
  8
01
  6
BYBLOCK
 10
15566.585138088571
 20
-1166.484299124651
 30
0.0
 11
15570.585138088571
 21
-1165.4125023646509
 31
0.0
  0
LINE
  5
14BCD
  8
01
  6
BYBLOCK
 10
15566.585138088571
 20
-1166.484299124651
 30
0.0
 11
15570.585138088571
 21
-1166.484299124651
 31
0.0
  0
LINE
  5
14BCE
  8
01
  6
BYBLOCK
 10
15604.585138088571
 20
-1165.4125023646509
 30
0.0
 11
15608.585138088571
 21
-1166.484299124651
 31
0.0
  0
LINE
  5
14BCF
  8
01
  6
BYBLOCK
 10
15608.585138088571
 20
-1166.484299124651
 30
0.0
 11
15604.585138088571
 21
-1167.5560958846511
 31
0.0
  0
LINE
  5
14BD0
  8
01
  6
BYBLOCK
 10
15608.585138088571
 20
-1166.484299124651
 30
0.0
 11
15604.585138088571
 21
-1166.484299124651
 31
0.0
  0
TEXT
  5
14BD1
  8
01
 10
15738.02096263678
 20
-950.04089730902183
 30
0.0
 40
7.0
  1
112
 50
90.0
  0
LINE
  5
14BD2
  8
01
  6
BYBLOCK
 10
15738.34916587678
 20
-887.69089730902454
 30
0.0
 11
15739.420962636779
 21
-883.69089730902454
 31
0.0
  0
LINE
  5
14BD3
  8
01
  6
BYBLOCK
 10
15739.420962636779
 20
-883.69089730902454
 30
0.0
 11
15740.49275939677
 21
-887.69089730902454
 31
0.0
  0
LINE
  5
14BD4
  8
01
  6
BYBLOCK
 10
15739.420962636779
 20
-883.69089730902454
 30
0.0
 11
15739.420962636779
 21
-887.69089730902454
 31
0.0
  0
LINE
  5
14BD5
  8
01
  6
BYBLOCK
 10
15740.49275939677
 20
-991.39089730902435
 30
0.0
 11
15739.420962636779
 21
-995.39089730902435
 31
0.0
  0
LINE
  5
14BD6
  8
01
  6
BYBLOCK
 10
15739.420962636779
 20
-995.39089730902435
 30
0.0
 11
15738.34916587678
 21
-991.39089730902435
 31
0.0
  0
LINE
  5
14BD7
  8
01
  6
BYBLOCK
 10
15739.420962636779
 20
-995.39089730902435
 30
0.0
 11
15739.420962636779
 21
-991.39089730902435
 31
0.0
  0
TEXT
  5
14BD8
  8
01
 10
15770.81135818984
 20
-1006.45758082994
 30
0.0
 40
7.0
  1
φ60
 50
90.0
  0
LINE
  5
14BD9
  8
01
  6
BYBLOCK
 10
15773.28315494983
 20
-1021.390897309024
 30
0.0
 11
15772.211358189839
 21
-1025.390897309024
 31
0.0
  0
LINE
  5
14BDA
  8
01
  6
BYBLOCK
 10
15772.211358189839
 20
-1025.390897309024
 30
0.0
 11
15771.13956142984
 21
-1021.390897309024
 31
0.0
  0
LINE
  5
14BDB
  8
01
  6
BYBLOCK
 10
15772.211358189839
 20
-1025.390897309024
 30
0.0
 11
15772.211358189839
 21
-1021.390897309024
 31
0.0
  0
LINE
  5
14BDC
  8
01
  6
BYBLOCK
 10
15771.13956142984
 20
-969.39093101752815
 30
0.0
 11
15772.211358189839
 21
-965.39093101752826
 31
0.0
  0
LINE
  5
14BDD
  8
01
  6
BYBLOCK
 10
15772.211358189839
 20
-965.39093101752826
 30
0.0
 11
15773.28315494983
 21
-969.39093101752815
 31
0.0
  0
LINE
  5
14BDE
  8
01
  6
BYBLOCK
 10
15772.211358189839
 20
-965.39093101752826
 30
0.0
 11
15772.211358189839
 21
-969.39093101752815
 31
0.0
  0
TEXT
  5
14BDF
  8
01
 10
15644.068471421901
 20
-1185.6672649389359
 30
0.0
 40
7.0
  1
134
  0
LINE
  5
14BE0
  8
01
  6
BYBLOCK
 10
15717.88513808857
 20
-1185.9954681789361
 30
0.0
 11
15721.88513808857
 21
-1187.067264938936
 31
0.0
  0
LINE
  5
14BE1
  8
01
  6
BYBLOCK
 10
15721.88513808857
 20
-1187.067264938936
 30
0.0
 11
15717.88513808857
 21
-1188.1390616989361
 31
0.0
  0
LINE
  5
14BE2
  8
01
  6
BYBLOCK
 10
15721.88513808857
 20
-1187.067264938936
 30
0.0
 11
15717.88513808857
 21
-1187.067264938936
 31
0.0
  0
LINE
  5
14BE3
  8
01
  6
BYBLOCK
 10
15591.585138088571
 20
-1188.1390616989361
 30
0.0
 11
15587.585138088571
 21
-1187.067264938936
 31
0.0
  0
LINE
  5
14BE4
  8
01
  6
BYBLOCK
 10
15587.585138088571
 20
-1187.067264938936
 30
0.0
 11
15591.585138088571
 21
-1185.9954681789361
 31
0.0
  0
LINE
  5
14BE5
  8
01
  6
BYBLOCK
 10
15587.585138088571
 20
-1187.067264938936
 30
0.0
 11
15591.585138088571
 21
-1187.067264938936
 31
0.0
  0
TEXT
  5
14BE6
  8
01
 10
15661.385137995339
 20
-1165.0842991246509
 30
0.0
 40
7.0
  1
100
  0
LINE
  5
14BE7
  8
01
  6
BYBLOCK
 10
15717.88513808857
 20
-1165.4125023646509
 30
0.0
 11
15721.88513808857
 21
-1166.484299124651
 31
0.0
  0
LINE
  5
14BE8
  8
01
  6
BYBLOCK
 10
15721.88513808857
 20
-1166.484299124651
 30
0.0
 11
15717.88513808857
 21
-1167.5560958846511
 31
0.0
  0
LINE
  5
14BE9
  8
01
  6
BYBLOCK
 10
15721.88513808857
 20
-1166.484299124651
 30
0.0
 11
15717.88513808857
 21
-1166.484299124651
 31
0.0
  0
LINE
  5
14BEA
  8
01
  6
BYBLOCK
 10
15625.885137902111
 20
-1167.5560958846511
 30
0.0
 11
15621.885137902111
 21
-1166.484299124651
 31
0.0
  0
LINE
  5
14BEB
  8
01
  6
BYBLOCK
 10
15621.885137902111
 20
-1166.484299124651
 30
0.0
 11
15625.885137902111
 21
-1165.4125023646509
 31
0.0
  0
LINE
  5
14BEC
  8
01
  6
BYBLOCK
 10
15621.885137902111
 20
-1166.484299124651
 30
0.0
 11
15625.885137902111
 21
-1166.484299124651
 31
0.0
  0
TEXT
  5
14BED
  8
01
 10
15683.852781450039
 20
-1138.1575639756879
 30
0.0
 40
7.0
  1
封水深さ70以上
 50
90.0
  0
LINE
  5
14BEE
  8
01
  6
BYBLOCK
 10
15686.32457821004
 20
-1066.890897309024
 30
0.0
 11
15685.252781450041
 21
-1070.890897309024
 31
0.0
  0
LINE
  5
14BEF
  8
01
  6
BYBLOCK
 10
15685.252781450041
 20
-1070.890897309024
 30
0.0
 11
15684.18098469004
 21
-1066.890897309024
 31
0.0
  0
LINE
  5
14BF0
  8
01
  6
BYBLOCK
 10
15685.252781450041
 20
-1070.890897309024
 30
0.0
 11
15685.252781450041
 21
-1066.890897309024
 31
0.0
  0
LINE
  5
14BF1
  8
01
  6
BYBLOCK
 10
15684.18098469004
 20
-999.39089730902435
 30
0.0
 11
15685.252781450041
 21
-995.39089730902435
 31
0.0
  0
LINE
  5
14BF2
  8
01
  6
BYBLOCK
 10
15685.252781450041
 20
-995.39089730902435
 30
0.0
 11
15686.32457821004
 21
-999.39089730902435
 31
0.0
  0
LINE
  5
14BF3
  8
01
  6
BYBLOCK
 10
15685.252781450041
 20
-995.39089730902435
 30
0.0
 11
15685.252781450041
 21
-999.39089730902435
 31
0.0
  0
VIEWPORT
  5
57
 67
     1
  8
0
 10
-12.71820606546887
 20
10.09248672500371
 30
0.0
 40
405.30338832619208
 41
286.96927405595568
 68
     1
 69
     1
1001
ACAD
1000
MVIEW
1002
{
1070
    16
1010
0.0
1020
0.0
1030
0.0
1010
0.0
1020
0.0
1030
1.0
1040
0.0
1040
286.96927405595568
1040
-12.71820606546887
1040
10.09248672500371
1040
50.0
1040
0.0
1040
0.0
1070
     0
1070
   100
1070
     1
1070
     1
1070
     0
1070
     0
1070
     0
1070
     0
1040
0.0
1040
0.0
1040
0.0
1040
10.0
1040
10.0
1040
10.0
1040
10.0
1070
     0
1002
{
1002
}
1002
}
  0
ENDSEC
  0
EOF
