  0
SECTION
  2
HEADER
  9
$ACADVER
  1
AC1012
  9
$DWGCODEPAGE
  3
ansi_932
  9
$INSBASE
 10
0.0
 20
0.0
 30
0.0
  9
$EXTMIN
 10
1057.063790158688
 20
-225.4773343483009
 30
0.0
  9
$EXTMAX
 10
2824.56207512869
 20
922.6301807878197
 30
0.000000000000006
  9
$LIMMIN
 10
0.0
 20
0.0
  9
$LIMMAX
 10
420.0
 20
297.0
  9
$ORTHOMODE
 70
     0
  9
$REGENMODE
 70
     1
  9
$FILLMODE
 70
     1
  9
$QTEXTMODE
 70
     0
  9
$MIRRTEXT
 70
     0
  9
$DRAGMODE
 70
     2
  9
$LTSCALE
 40
0.5
  9
$OSMODE
 70
 14463
  9
$ATTMODE
 70
     1
  9
$TEXTSIZE
 40
4.0
  9
$TRACEWID
 40
1.0
  9
$TEXTSTYLE
  7
STANDARD
  9
$CLAYER
  8
1TEXT
  9
$CELTYPE
  6
BYLAYER
  9
$CECOLOR
 62
   256
  9
$CELTSCALE
 40
1.0
  9
$DELOBJ
 70
     1
  9
$DISPSILH
 70
     0
  9
$DIMSCALE
 40
1.0
  9
$DIMASZ
 40
2.0
  9
$DIMEXO
 40
0.0
  9
$DIMDLI
 40
7.0
  9
$DIMRND
 40
0.0
  9
$DIMDLE
 40
0.0
  9
$DIMEXE
 40
1.0
  9
$DIMTP
 40
0.0
  9
$DIMTM
 40
0.0
  9
$DIMTXT
 40
3.5
  9
$DIMCEN
 40
0.0
  9
$DIMTSZ
 40
0.0
  9
$DIMTOL
 70
     0
  9
$DIMLIM
 70
     0
  9
$DIMTIH
 70
     0
  9
$DIMTOH
 70
     0
  9
$DIMSE1
 70
     0
  9
$DIMSE2
 70
     0
  9
$DIMTAD
 70
     1
  9
$DIMZIN
 70
     8
  9
$DIMBLK
  1

  9
$DIMASO
 70
     1
  9
$DIMSHO
 70
     1
  9
$DIMPOST
  1
 
  9
$DIMAPOST
  1

  9
$DIMALT
 70
     0
  9
$DIMALTD
 70
     2
  9
$DIMALTF
 40
25.4
  9
$DIMLFAC
 40
1.0
  9
$DIMTOFL
 70
     1
  9
$DIMTVP
 40
0.0
  9
$DIMTIX
 70
     0
  9
$DIMSOXD
 70
     0
  9
$DIMSAH
 70
     1
  9
$DIMBLK1
  1
OPEN30
  9
$DIMBLK2
  1
OPEN30
  9
$DIMSTYLE
  2
NEWX10
  9
$DIMCLRD
 70
   256
  9
$DIMCLRE
 70
   256
  9
$DIMCLRT
 70
   201
  9
$DIMTFAC
 40
0.7
  9
$DIMGAP
 40
0.7
  9
$DIMJUST
 70
     0
  9
$DIMSD1
 70
     0
  9
$DIMSD2
 70
     0
  9
$DIMTOLJ
 70
     1
  9
$DIMTZIN
 70
     8
  9
$DIMALTZ
 70
     0
  9
$DIMALTTZ
 70
     0
  9
$DIMFIT
 70
     3
  9
$DIMUPT
 70
     0
  9
$DIMUNIT
 70
     2
  9
$DIMDEC
 70
     2
  9
$DIMTDEC
 70
     4
  9
$DIMALTU
 70
     2
  9
$DIMALTTD
 70
     2
  9
$DIMTXSTY
  7
STANDARD
  9
$DIMAUNIT
 70
     0
  9
$LUNITS
 70
     2
  9
$LUPREC
 70
     4
  9
$SKETCHINC
 40
1.0
  9
$FILLETRAD
 40
0.0
  9
$AUNITS
 70
     0
  9
$AUPREC
 70
     2
  9
$MENU
  1
acad
  9
$ELEVATION
 40
0.0
  9
$PELEVATION
 40
0.0
  9
$THICKNESS
 40
0.0
  9
$LIMCHECK
 70
     0
  9
$CHAMFERA
 40
10.0
  9
$CHAMFERB
 40
10.0
  9
$CHAMFERC
 40
20.0
  9
$CHAMFERD
 40
0.0
  9
$SKPOLY
 70
     0
  9
$TDCREATE
 40
2451318.621352917
  9
$TDUPDATE
 40
2459345.376715417
  9
$TDINDWG
 40
0.7139366088
  9
$TDUSRTIMER
 40
0.7139366088
  9
$USRTIMER
 70
     1
  9
$ANGBASE
 50
0.0
  9
$ANGDIR
 70
     0
  9
$PDMODE
 70
     0
  9
$PDSIZE
 40
0.0
  9
$PLINEWID
 40
0.0
  9
$COORDS
 70
     2
  9
$SPLFRAME
 70
     0
  9
$SPLINETYPE
 70
     6
  9
$SPLINESEGS
 70
     8
  9
$ATTDIA
 70
     0
  9
$ATTREQ
 70
     1
  9
$HANDLING
 70
     1
  9
$HANDSEED
  5
64CA
  9
$SURFTAB1
 70
     6
  9
$SURFTAB2
 70
     6
  9
$SURFTYPE
 70
     6
  9
$SURFU
 70
     6
  9
$SURFV
 70
     6
  9
$UCSNAME
  2

  9
$UCSORG
 10
0.0
 20
0.0
 30
0.0
  9
$UCSXDIR
 10
1.0
 20
0.0
 30
0.0
  9
$UCSYDIR
 10
0.0
 20
1.0
 30
0.0
  9
$PUCSNAME
  2

  9
$PUCSORG
 10
0.0
 20
0.0
 30
0.0
  9
$PUCSXDIR
 10
1.0
 20
0.0
 30
0.0
  9
$PUCSYDIR
 10
0.0
 20
1.0
 30
0.0
  9
$USERI1
 70
     0
  9
$USERI2
 70
     0
  9
$USERI3
 70
     0
  9
$USERI4
 70
     0
  9
$USERI5
 70
     0
  9
$USERR1
 40
0.0
  9
$USERR2
 40
0.0
  9
$USERR3
 40
0.0
  9
$USERR4
 40
0.0
  9
$USERR5
 40
0.0
  9
$WORLDVIEW
 70
     1
  9
$SHADEDGE
 70
     3
  9
$SHADEDIF
 70
    70
  9
$TILEMODE
 70
     1
  9
$MAXACTVP
 70
    48
  9
$PINSBASE
 10
0.0
 20
0.0
 30
0.0
  9
$PLIMCHECK
 70
     0
  9
$PEXTMIN
 10
1.000000000000000E+20
 20
1.000000000000000E+20
 30
1.000000000000000E+20
  9
$PEXTMAX
 10
-1.000000000000000E+20
 20
-1.000000000000000E+20
 30
-1.000000000000000E+20
  9
$PLIMMIN
 10
0.0
 20
0.0
  9
$PLIMMAX
 10
420.0
 20
297.0
  9
$UNITMODE
 70
     0
  9
$VISRETAIN
 70
     1
  9
$PLINEGEN
 70
     0
  9
$PSLTSCALE
 70
     1
  9
$TREEDEPTH
 70
  3020
  9
$PICKSTYLE
 70
     1
  9
$CMLSTYLE
  2
STANDARD
  9
$CMLJUST
 70
     0
  9
$CMLSCALE
 40
20.0
  9
$SAVEIMAGES
 70
     1
  0
ENDSEC
  0
SECTION
  2
CLASSES
  0
CLASS
  1
DICTIONARYVAR
  2
AcDbDictionaryVar
  3
ObjectDBX Classes
 90
        0
280
     0
281
     0
  0
CLASS
  1
IDBUFFER
  2
AcDbIdBuffer
  3
ObjectDBX Classes
 90
    32768
280
     0
281
     0
  0
CLASS
  1
LWPOLYLINE
  2
AcDbPolyline
  3
ObjectDBX Classes
 90
    32768
280
     0
281
     1
  0
CLASS
  1
HATCH
  2
AcDbHatch
  3
ObjectDBX Classes
 90
    32768
280
     0
281
     1
  0
CLASS
  1
ACDBDICTIONARYWDFLT
  2
AcDbDictionaryWithDefault
  3
ObjectDBX Classes
 90
    32768
280
     0
281
     0
  0
CLASS
  1
ACDBPLACEHOLDER
  2
AcDbPlaceHolder
  3
ObjectDBX Classes
 90
        0
280
     0
281
     0
  0
CLASS
  1
LAYOUT
  2
AcDbLayout
  3
ObjectDBX Classes
 90
        0
280
     0
281
     0
  0
CLASS
  1
TABLESTYLE
  2
AcDbTableStyle
  3
ObjectDBX Classes
 90
     4095
280
     0
281
     0
  0
CLASS
  1
SORTENTSTABLE
  2
AcDbSortentsTable
  3
ObjectDBX Classes
 90
    32768
280
     0
281
     0
  0
CLASS
  1
MATERIAL
  2
AcDbMaterial
  3
ObjectDBX Classes
 90
     1153
280
     0
281
     0
  0
CLASS
  1
VISUALSTYLE
  2
AcDbVisualStyle
  3
ObjectDBX Classes
 90
     4095
280
     0
281
     0
  0
CLASS
  1
SCALE
  2
AcDbScale
  3
ObjectDBX Classes
 90
     1153
280
     0
281
     0
  0
CLASS
  1
MLEADERSTYLE
  2
AcDbMLeaderStyle
  3
ACDB_MLEADERSTYLE_CLASS
 90
     4095
280
     0
281
     0
  0
CLASS
  1
CELLSTYLEMAP
  2
AcDbCellStyleMap
  3
ObjectDBX Classes
 90
     1152
280
     0
281
     0
  0
CLASS
  1
AEC_REFEDIT_STATUS_TRACKER
  2
AecDbRefEditStatusTracker
  3
AecArchBase60|Product Desc: Autodesk Architectural Desktop 2007 |Company: Autodesk,Inc. |WEB Address: www.autodesk.com
 90
      129
280
     1
281
     0
  0
CLASS
  1
NPOCOLLECTION
  2
AcDbImpNonPersistentObjectsCollection
  3
ObjectDBX Classes
 90
     1153
280
     1
281
     0
  0
CLASS
  1
SUN
  2
AcDbSun
  3
SCENEOE
 90
     1153
280
     0
281
     0
  0
CLASS
  1
XRECORD
  2
AcDbXrecord
  3
ObjectDBX Classes
 90
    32768
280
     0
281
     0
  0
ENDSEC
  0
SECTION
  2
TABLES
  0
TABLE
  2
VPORT
  5
8
330
0
100
AcDbSymbolTable
 70
     1
  0
VPORT
  5
4A64
330
8
100
AcDbSymbolTableRecord
100
AcDbViewportTableRecord
  2
*ACTIVE
 70
     0
 10
0.0
 20
0.0
 11
1.0
 21
1.0
 12
1940.812932643689
 22
348.5764232197594
 13
0.0
 23
0.0
 14
10.0
 24
10.0
 15
10.0
 25
10.0
 16
0.0
 26
0.0
 36
1.0
 17
0.0
 27
0.0
 37
0.0
 40
1232.704910988256
 41
1.858156028368795
 42
50.0
 43
0.0
 44
0.0
 50
0.0
 51
0.0
 71
    16
 72
   100
 73
     1
 74
     1
 75
     0
 76
     0
 77
     0
 78
     0
  0
ENDTAB
  0
TABLE
  2
LTYPE
  5
5
330
0
100
AcDbSymbolTable
 70
     4
  0
LTYPE
  5
12
330
5
100
AcDbSymbolTableRecord
100
AcDbLinetypeTableRecord
  2
BYBLOCK
 70
     0
  3

 72
    65
 73
     0
 40
0.0
  0
LTYPE
  5
13
330
5
100
AcDbSymbolTableRecord
100
AcDbLinetypeTableRecord
  2
BYLAYER
 70
     0
  3

 72
    65
 73
     0
 40
0.0
  0
LTYPE
  5
14
330
5
100
AcDbSymbolTableRecord
100
AcDbLinetypeTableRecord
  2
CONTINUOUS
 70
     0
  3
Solid line
 72
    65
 73
     0
 40
0.0
  0
LTYPE
  5
26
330
5
100
AcDbSymbolTableRecord
100
AcDbLinetypeTableRecord
  2
CENTER2
 70
     0
  3
Center (.5x) ___ _ ___ _ ___ _ ___ _ ___ _ ___
 72
    65
 73
     4
 40
28.575
 49
19.05
 74
     0
 49
-3.175
 74
     0
 49
3.175
 74
     0
 49
-3.175
 74
     0
  0
LTYPE
  5
FF
330
5
100
AcDbSymbolTableRecord
100
AcDbLinetypeTableRecord
  2
HIDDEN
 70
     0
  3
Hidden __ __ __ __ __ __ __ __ __ __ __ __ __ _
 72
    65
 73
     2
 40
9.524999999999999
 49
6.35
 74
     0
 49
-3.175
 74
     0
  0
LTYPE
  5
100
330
5
100
AcDbSymbolTableRecord
100
AcDbLinetypeTableRecord
  2
PHANTOM2
 70
     0
  3
Phantom (0.5x) ___ _ _ ___ _ _ ___ _ _ ___ _ _
 72
    65
 73
     6
 40
31.75
 49
15.875
 74
     0
 49
-3.175
 74
     0
 49
3.175
 74
     0
 49
-3.175
 74
     0
 49
3.175
 74
     0
 49
-3.175
 74
     0
  0
ENDTAB
  0
TABLE
  2
LAYER
  5
2
102
{ACAD_XDICTIONARY
360
370F
102
}
330
0
100
AcDbSymbolTable
 70
     8
  0
LAYER
  5
E
102
{ACAD_XDICTIONARY
360
4AFF
102
}
330
2
100
AcDbSymbolTableRecord
100
AcDbLayerTableRecord
  2
0
 70
     0
 62
     7
  6
CONTINUOUS
  0
LAYER
  5
29
102
{ACAD_XDICTIONARY
360
4B01
102
}
330
2
100
AcDbSymbolTableRecord
100
AcDbLayerTableRecord
  2
1CENTER
 70
     0
 62
     7
  6
CENTER2
  0
LAYER
  5
31
102
{ACAD_XDICTIONARY
360
4B03
102
}
330
2
100
AcDbSymbolTableRecord
100
AcDbLayerTableRecord
  2
1TEXT
 70
     0
 62
     7
  6
CONTINUOUS
  0
LAYER
  5
101
102
{ACAD_XDICTIONARY
360
4B0D
102
}
330
2
100
AcDbSymbolTableRecord
100
AcDbLayerTableRecord
  2
1DIM
 70
     0
 62
     7
  6
CONTINUOUS
  0
LAYER
  5
102
102
{ACAD_XDICTIONARY
360
4B0F
102
}
330
2
100
AcDbSymbolTableRecord
100
AcDbLayerTableRecord
  2
1HIDDEN
 70
     0
 62
     7
  6
HIDDEN
  0
LAYER
  5
103
102
{ACAD_XDICTIONARY
360
4B11
102
}
330
2
100
AcDbSymbolTableRecord
100
AcDbLayerTableRecord
  2
1PHANTOM
 70
     0
 62
     7
  6
PHANTOM2
  0
LAYER
  5
159
102
{ACAD_XDICTIONARY
360
4B19
102
}
330
2
100
AcDbSymbolTableRecord
100
AcDbLayerTableRecord
  2
1HATCH
 70
     0
 62
     7
  6
CONTINUOUS
  0
LAYER
  5
15C
102
{ACAD_XDICTIONARY
360
4B1F
102
}
330
2
100
AcDbSymbolTableRecord
100
AcDbLayerTableRecord
  2
01
 70
     0
 62
     1
  6
CONTINUOUS
  0
ENDTAB
  0
TABLE
  2
STYLE
  5
3
330
0
100
AcDbSymbolTable
 70
     1
  0
STYLE
  5
F
330
3
100
AcDbSymbolTableRecord
100
AcDbTextStyleTableRecord
  2
STANDARD
 70
     0
 40
0.0
 41
1.0
 50
0.0
 71
     0
 42
4.0
  3
txt.shx
  4
extfont.shx
  0
ENDTAB
  0
TABLE
  2
VIEW
  5
6
330
0
100
AcDbSymbolTable
 70
     0
  0
ENDTAB
  0
TABLE
  2
UCS
  5
7
330
0
100
AcDbSymbolTable
 70
     5
  0
UCS
  5
5DD6
330
7
100
AcDbSymbolTableRecord
100
AcDbUCSTableRecord
  2
U
 70
     0
 10
0.0
 20
0.0
 30
0.0
 11
1.0
 21
0.0
 31
0.0
 12
0.0
 22
2.220446049250313E-16
 32
1.0
 79
     0
146
0.0
  0
UCS
  5
5DD7
330
7
100
AcDbSymbolTableRecord
100
AcDbUCSTableRecord
  2
L
 70
     0
 10
0.0
 20
0.0
 30
0.0
 11
-2.220446049250313E-16
 21
-1.0
 31
2.220446049250313E-16
 12
0.0
 22
2.220446049250313E-16
 32
1.0
 79
     0
146
0.0
  0
UCS
  5
5DD8
330
7
100
AcDbSymbolTableRecord
100
AcDbUCSTableRecord
  2
R
 70
     0
 10
0.0
 20
0.0
 30
0.0
 11
3.445052403072690E-16
 21
1.0
 31
-2.220446049250313E-16
 12
0.0
 22
2.220446049250313E-16
 32
1.0
 79
     0
146
0.0
  0
UCS
  5
5DD9
330
7
100
AcDbSymbolTableRecord
100
AcDbUCSTableRecord
  2
ISOME
 70
     0
 10
0.0
 20
0.0
 30
0.0
 11
0.7071450863198264
 21
-0.7070684729403536
 31
-3.830824619477369E-5
 12
0.4082704059428736
 22
0.408270407740115
 32
0.8164744636514737
 79
     0
146
0.0
  0
UCS
  5
5DDA
330
7
100
AcDbSymbolTableRecord
100
AcDbUCSTableRecord
  2
PERSPECTIVE
 70
     0
 10
0.0
 20
0.0
 30
0.0
 11
0.8191477691768962
 21
-0.5735823260466402
 31
-0.0004974931557765183
 12
0.1584844715982971
 22
0.225502028986108
 32
0.961265575782966
 79
     0
146
0.0
  0
ENDTAB
  0
TABLE
  2
APPID
  5
9
330
0
100
AcDbSymbolTable
 70
    14
  0
APPID
  5
10
330
9
100
AcDbSymbolTableRecord
100
AcDbRegAppTableRecord
  2
ACAD
 70
     0
  0
APPID
  5
21
330
9
100
AcDbSymbolTableRecord
100
AcDbRegAppTableRecord
  2
DRAWINGVARIABLESXDATA
 70
     0
  0
APPID
  5
64
330
9
100
AcDbSymbolTableRecord
100
AcDbRegAppTableRecord
  2
CONTENTTABDATA
 70
     0
  0
APPID
  5
65
330
9
100
AcDbSymbolTableRecord
100
AcDbRegAppTableRecord
  2
CONTENTCURRENTTAB
 70
     0
  0
APPID
  5
66
330
9
100
AcDbSymbolTableRecord
100
AcDbRegAppTableRecord
  2
CONTENTBLOCKDESCRIPTION
 70
     0
  0
APPID
  5
67
330
9
100
AcDbSymbolTableRecord
100
AcDbRegAppTableRecord
  2
CONTENTBLOCKICON
 70
     0
  0
APPID
  5
68
330
9
100
AcDbSymbolTableRecord
100
AcDbRegAppTableRecord
  2
CONTENTLONGBLOCKNAME
 70
     0
  0
APPID
  5
370E
330
9
100
AcDbSymbolTableRecord
100
AcDbRegAppTableRecord
  2
ACAD_PSEXT
 70
     0
  0
APPID
  5
4AF4
330
9
100
AcDbSymbolTableRecord
100
AcDbRegAppTableRecord
  2
ACAD_EXEMPT_FROM_CAD_STAND
 70
     0
  0
APPID
  5
4B91
330
9
100
AcDbSymbolTableRecord
100
AcDbRegAppTableRecord
  2
ACAD_MLEADERVER
 70
     0
  0
APPID
  5
4F5A
330
9
100
AcDbSymbolTableRecord
100
AcDbRegAppTableRecord
  2
ACAD_DSTYLE_DIMRADIAL_EXTE
 70
     0
  0
APPID
  5
5404
330
9
100
AcDbSymbolTableRecord
100
AcDbRegAppTableRecord
  2
ACADANNOTATIVE
 70
     0
  0
APPID
  5
5405
330
9
100
AcDbSymbolTableRecord
100
AcDbRegAppTableRecord
  2
ACDBBLOCKREPETAG
 70
     0
  0
APPID
  5
5B6E
330
9
100
AcDbSymbolTableRecord
100
AcDbRegAppTableRecord
  2
ACAD_OBJECT_CHANGE_GUID
 70
     0
  0
ENDTAB
  0
TABLE
  2
DIMSTYLE
  5
A
330
0
100
AcDbSymbolTable
 70
     1
  0
DIMSTYLE
105
48
102
{ACAD_REACTORS
102
}
330
A
100
AcDbSymbolTableRecord
100
AcDbDimStyleTableRecord
  2
NEWX10
 70
     0
  3
 
  4

  5

  6
OPEN30
  7
OPEN30
 40
1.0
 41
2.0
 42
0.0
 43
7.0
 44
1.0
 45
0.0
 46
0.0
 47
0.0
 48
0.0
140
3.5
141
0.0
142
0.0
143
25.4
144
1.0
145
0.0
146
0.7
147
0.7
 71
     0
 72
     0
 73
     0
 74
     0
 75
     0
 76
     0
 77
     1
 78
     8
170
     0
171
     2
172
     1
173
     1
174
     0
175
     0
176
   256
177
   256
178
   201
179
     1
270
     2
271
     2
272
     4
273
     2
274
     2
340
F
275
     0
280
     0
281
     0
282
     0
283
     1
284
     8
285
     0
286
     0
287
     3
288
     0
  0
ENDTAB
  0
TABLE
  2
BLOCK_RECORD
  5
1
330
0
100
AcDbSymbolTable
 70
     9
  0
BLOCK_RECORD
  5
18
102
{ACAD_XDICTIONARY
360
3833
102
}
330
1
100
AcDbSymbolTableRecord
100
AcDbBlockTableRecord
  2
*MODEL_SPACE
  0
BLOCK_RECORD
  5
15
102
{ACAD_XDICTIONARY
360
3AE3
102
}
330
1
100
AcDbSymbolTableRecord
100
AcDbBlockTableRecord
  2
*PAPER_SPACE
  0
BLOCK_RECORD
  5
42
330
1
100
AcDbSymbolTableRecord
100
AcDbBlockTableRecord
  2
_OPEN30
  0
BLOCK_RECORD
  5
3F3D
330
1
100
AcDbSymbolTableRecord
100
AcDbBlockTableRecord
  2
_DOTSMALL
  0
BLOCK_RECORD
  5
5454
330
1
100
AcDbSymbolTableRecord
100
AcDbBlockTableRecord
  2
A3WAKUKAWAJUN2017_HYOUDAI_
  0
BLOCK_RECORD
  5
6329
330
1
100
AcDbSymbolTableRecord
100
AcDbBlockTableRecord
  2
*X55
  0
BLOCK_RECORD
  5
6377
330
1
100
AcDbSymbolTableRecord
100
AcDbBlockTableRecord
  2
*X56
  0
BLOCK_RECORD
  5
63C9
330
1
100
AcDbSymbolTableRecord
100
AcDbBlockTableRecord
  2
*X57
  0
BLOCK_RECORD
  5
641A
330
1
100
AcDbSymbolTableRecord
100
AcDbBlockTableRecord
  2
*X58
  0
BLOCK_RECORD
  5
6457
330
1
100
AcDbSymbolTableRecord
100
AcDbBlockTableRecord
  2
*X59
  0
BLOCK_RECORD
  5
6497
330
1
100
AcDbSymbolTableRecord
100
AcDbBlockTableRecord
  2
*X60
  0
ENDTAB
  0
ENDSEC
  0
SECTION
  2
BLOCKS
  0
BLOCK
  5
19
330
18
100
AcDbEntity
  8
0
100
AcDbBlockBegin
  2
*MODEL_SPACE
 70
     0
 10
0.0
 20
0.0
 30
0.0
  3
*MODEL_SPACE
  1

  0
ENDBLK
  5
1A
330
18
100
AcDbEntity
  8
0
100
AcDbBlockEnd
  0
BLOCK
  5
16
330
15
100
AcDbEntity
 67
     1
  8
0
100
AcDbBlockBegin
  2
*PAPER_SPACE
 70
     0
 10
0.0
 20
0.0
 30
0.0
  3
*PAPER_SPACE
  1

  0
ENDBLK
  5
17
330
15
100
AcDbEntity
 67
     1
  8
0
100
AcDbBlockEnd
  0
BLOCK
  5
43
330
42
100
AcDbEntity
  8
0
100
AcDbBlockBegin
  2
_OPEN30
 70
     0
 10
0.0
 20
0.0
 30
0.0
  3
_OPEN30
  1

  0
LINE
  5
44
330
42
100
AcDbEntity
  8
0
  6
BYBLOCK
 62
     0
100
AcDbLine
 10
-1.0
 20
0.26794919
 30
0.0
 11
0.0
 21
0.0
 31
0.0
  0
LINE
  5
45
330
42
100
AcDbEntity
  8
0
  6
BYBLOCK
 62
     0
100
AcDbLine
 10
0.0
 20
0.0
 30
0.0
 11
-1.0
 21
-0.26794919
 31
0.0
  0
LINE
  5
46
330
42
100
AcDbEntity
  8
0
  6
BYBLOCK
 62
     0
100
AcDbLine
 10
0.0
 20
0.0
 30
0.0
 11
-1.0
 21
0.0
 31
0.0
  0
ENDBLK
  5
47
330
42
100
AcDbEntity
  8
0
100
AcDbBlockEnd
  0
BLOCK
  5
3F3F
330
3F3D
100
AcDbEntity
  8
0
100
AcDbBlockBegin
  2
_DOTSMALL
 70
     0
 10
0.0
 20
0.0
 30
0.0
  3
_DOTSMALL
  1

  0
POLYLINE
  5
3F3E
330
3F3D
100
AcDbEntity
  8
0
  6
BYBLOCK
 62
     0
100
AcDb2dPolyline
 66
     1
 10
0.0
 20
0.0
 30
0.0
 70
     1
 40
0.5
 41
0.5
  0
VERTEX
  5
6327
330
3F3E
100
AcDbEntity
  8
0
  6
BYBLOCK
 62
     0
100
AcDbVertex
100
AcDb2dVertex
 10
-0.0625
 20
0.0
 30
0.0
 42
1.0
  0
VERTEX
  5
6328
330
3F3E
100
AcDbEntity
  8
0
  6
BYBLOCK
 62
     0
100
AcDbVertex
100
AcDb2dVertex
 10
0.0625
 20
0.0
 30
0.0
 42
1.0
  0
SEQEND
  5
64C9
330
3F3E
100
AcDbEntity
  8
0
  6
BYBLOCK
 62
     0
  0
ENDBLK
  5
3F40
330
3F3D
100
AcDbEntity
  8
0
100
AcDbBlockEnd
  0
BLOCK
  5
5B53
330
5454
100
AcDbEntity
  8
0
100
AcDbBlockBegin
  2
A3WAKUKAWAJUN2017_HYOUDAI_
 70
     0
 10
0.0
 20
0.0
 30
0.0
  3
A3WAKUKAWAJUN2017_HYOUDAI_
  1

  0
LINE
  5
5456
330
5454
100
AcDbEntity
  8
0
100
AcDbLine
 10
13.26299999998673
 20
-0.0001000000000317
 30
0.0
 11
9.236999999990758
 21
8.999899999990987
 31
0.0
1001
ACAD
1000
ASC_BOUNDS
1002
{
1070
    19
1005
5497
1002
}
  0
LINE
  5
5457
330
5454
100
AcDbEntity
  8
0
100
AcDbLine
 10
5.657999999994331
 20
0.9999999999989768
 30
0.0
 11
9.236999999990758
 21
8.999999999991019
 31
0.0
1001
ACAD
1000
ASC_BOUNDS
1002
{
1070
    19
1005
5497
1002
}
  0
LINE
  5
5458
330
5454
100
AcDbEntity
  8
0
100
AcDbLine
 10
18.59199999998134
 20
-0.2368999999997641
 30
0.0
 11
16.46099999998353
 21
5.432899999994561
 31
0.0
1001
ACAD
1000
ASC_BOUNDS
1002
{
1070
    19
1005
5498
1002
}
  0
LINE
  5
5459
330
5454
100
AcDbEntity
  8
0
100
AcDbLine
 10
18.59199999998134
 20
-0.2368999999997641
 30
0.0
 11
22.38199999997767
 21
8.763099999991255
 31
0.0
1001
ACAD
1000
ASC_BOUNDS
1002
{
1070
    19
1005
5498
1002
}
  0
LINE
  5
545A
330
5454
100
AcDbEntity
  8
0
100
AcDbLine
 10
14.32899999998563
 20
-0.2368999999997641
 30
0.0
 11
16.46099999998353
 21
5.432899999994561
 31
0.0
1001
ACAD
1000
ASC_BOUNDS
1002
{
1070
    19
1005
5498
1002
}
  0
LINE
  5
545B
330
5454
100
AcDbEntity
  8
0
100
AcDbLine
 10
14.32899999998563
 20
-0.2368999999997641
 30
0.0
 11
10.53899999998941
 21
8.763099999991255
 31
0.0
1001
ACAD
1000
ASC_BOUNDS
1002
{
1070
    19
1005
5498
1002
}
  0
LINE
  5
545C
330
5454
100
AcDbEntity
  8
0
100
AcDbLine
 10
19.53899999998043
 20
-0.0001000000000317
 30
0.0
 11
23.56599999997638
 21
8.999899999990987
 31
0.0
1001
ACAD
1000
ASC_BOUNDS
1002
{
1070
    19
1005
5499
1002
}
  0
LINE
  5
545D
330
5454
100
AcDbEntity
  8
0
100
AcDbLine
 10
26.97358892824991
 20
1.383099999991202
 30
0.0
 11
23.56599999997638
 21
8.999899999990987
 31
0.0
1001
ACAD
1000
ASC_BOUNDS
1002
{
1070
    19
1005
5499
1002
}
  0
LINE
  5
545E
330
5454
100
AcDbEntity
  8
0
100
AcDbLine
 10
5.657999999994331
 20
0.9999999999989768
 30
0.0
 11
3.181999999996833
 21
4.668599999995308
 31
0.0
1001
ACAD
1000
ASC_BOUNDS
1002
{
1070
    19
1005
5497
1002
}
  0
LINE
  5
545F
330
5454
100
AcDbEntity
  8
0
100
AcDbLine
 10
4.617999999995391
 20
-0.0001000000000317
 30
0.0
 11
1.420999999998571
 21
4.736799999995242
 31
0.0
1001
ACAD
1000
ASC_BOUNDS
1002
{
1070
    19
1005
5497
1002
}
  0
LINE
  5
5460
330
5454
100
AcDbEntity
  8
0
100
AcDbLine
 10
1.420999999998571
 20
8.763099999991255
 30
0.0
 11
1.420999999998571
 21
0.0
 31
0.0
1001
ACAD
1000
ASC_BOUNDS
1002
{
1070
    19
1005
549C
1002
}
  0
LINE
  5
5461
330
5454
100
AcDbEntity
  8
0
100
AcDbLine
 10
0.0
 20
8.763099999991255
 30
0.0
 11
0.0
 21
0.0
 31
0.0
1001
ACAD
1000
ASC_BOUNDS
1002
{
1070
    19
1005
549C
1002
}
  0
LINE
  5
5462
330
5454
100
AcDbEntity
  8
0
100
AcDbLine
 10
6.766999999993232
 20
-0.0001000000000317
 30
0.0
 11
7.826999999992154
 21
2.368399999997621
 31
0.0
1001
ACAD
1000
ASC_BOUNDS
1002
{
1070
    19
1005
5497
1002
}
  0
LINE
  5
5463
330
5454
100
AcDbEntity
  8
0
100
AcDbLine
 10
0.0
 20
0.0
 30
0.0
 11
1.420999999998571
 21
0.0
 31
0.0
1001
ACAD
1000
ASC_BOUNDS
1002
{
1070
    19
1005
549C
1002
}
  0
LINE
  5
5464
330
5454
100
AcDbEntity
  8
0
100
AcDbLine
 10
4.617999999995391
 20
0.0
 30
0.0
 11
6.766999999993232
 21
0.0
 31
0.0
1001
ACAD
1000
ASC_BOUNDS
1002
{
1070
    19
1005
5497
1002
}
  0
LINE
  5
5465
330
5454
100
AcDbEntity
  8
0
100
AcDbLine
 10
11.70599999998831
 20
-0.0001000000000317
 30
0.0
 11
10.64699999998936
 21
2.368399999997621
 31
0.0
1001
ACAD
1000
ASC_BOUNDS
1002
{
1070
    19
1005
5497
1002
}
  0
LINE
  5
5466
330
5454
100
AcDbEntity
  8
0
100
AcDbLine
 10
7.826999999992154
 20
2.368399999997621
 30
0.0
 11
10.64699999998936
 21
2.368399999997621
 31
0.0
1001
ACAD
1000
ASC_BOUNDS
1002
{
1070
    19
1005
5497
1002
}
  0
LINE
  5
5467
330
5454
100
AcDbEntity
  8
0
100
AcDbLine
 10
11.70599999998831
 20
0.0
 30
0.0
 11
13.26299999998673
 21
0.0
 31
0.0
1001
ACAD
1000
ASC_BOUNDS
1002
{
1070
    19
1005
5497
1002
}
  0
LINE
  5
5468
330
5454
100
AcDbEntity
  8
0
100
AcDbLine
 10
22.15599999997789
 20
2.368399999997621
 30
0.0
 11
24.97599999997499
 21
2.368399999997621
 31
0.0
1001
ACAD
1000
ASC_BOUNDS
1002
{
1070
    19
1005
5499
1002
}
  0
LINE
  5
5469
330
5454
100
AcDbEntity
  8
0
100
AcDbLine
 10
19.53899999998043
 20
0.0
 30
0.0
 11
21.09599999997886
 21
0.0
 31
0.0
1001
ACAD
1000
ASC_BOUNDS
1002
{
1070
    19
1005
5499
1002
}
  0
LINE
  5
546A
330
5454
100
AcDbEntity
  8
0
100
AcDbLine
 10
21.09599999997886
 20
-0.0001000000000317
 30
0.0
 11
22.15599999997789
 21
2.368399999997621
 31
0.0
1001
ACAD
1000
ASC_BOUNDS
1002
{
1070
    19
1005
5499
1002
}
  0
LINE
  5
546B
330
5454
100
AcDbEntity
  8
0
100
AcDbLine
 10
26.02015566812236
 20
0.0330999999912365
 30
0.0
 11
24.97599999997499
 21
2.368399999997621
 31
0.0
1001
ACAD
1000
ASC_BOUNDS
1002
{
1070
    19
1005
5499
1002
}
  0
LINE
  5
546C
330
5454
100
AcDbEntity
  8
0
100
AcDbLine
 10
14.32399999998563
 20
3.315799999996671
 30
0.0
 11
16.46099999998353
 21
8.999899999990987
 31
0.0
1001
ACAD
1000
ASC_BOUNDS
1002
{
1070
    19
1005
5498
1002
}
  0
LINE
  5
546D
330
5454
100
AcDbEntity
  8
0
100
AcDbLine
 10
6.432999999993513
 20
8.763099999991255
 30
0.0
 11
3.181999999996833
 21
4.668599999995308
 31
0.0
1001
ACAD
1000
ASC_BOUNDS
1002
{
1070
    19
1005
5497
1002
}
  0
LINE
  5
546E
330
5454
100
AcDbEntity
  8
0
100
AcDbLine
 10
4.617999999995391
 20
8.763099999991255
 30
0.0
 11
1.420999999998571
 21
4.736799999995242
 31
0.0
1001
ACAD
1000
ASC_BOUNDS
1002
{
1070
    19
1005
5497
1002
}
  0
LINE
  5
546F
330
5454
100
AcDbEntity
  8
0
100
AcDbLine
 10
0.0
 20
8.763099999991255
 30
0.0
 11
1.420999999998571
 21
8.763099999991255
 31
0.0
1001
ACAD
1000
ASC_BOUNDS
1002
{
1070
    19
1005
549C
1002
}
  0
LINE
  5
5470
330
5454
100
AcDbEntity
  8
0
100
AcDbLine
 10
4.617999999995391
 20
8.763099999991255
 30
0.0
 11
6.432999999993513
 21
8.763099999991255
 31
0.0
1001
ACAD
1000
ASC_BOUNDS
1002
{
1070
    19
1005
5497
1002
}
  0
LINE
  5
5471
330
5454
100
AcDbEntity
  8
0
100
AcDbLine
 10
14.32399999998563
 20
3.315799999996671
 30
0.0
 11
12.02999999998792
 21
8.763099999991255
 31
0.0
1001
ACAD
1000
ASC_BOUNDS
1002
{
1070
    19
1005
5498
1002
}
  0
LINE
  5
5472
330
5454
100
AcDbEntity
  8
0
100
AcDbLine
 10
10.06399999998996
 20
3.670999999996297
 30
0.0
 11
9.236999999990758
 21
5.5200999999945
 31
0.0
1001
ACAD
1000
ASC_BOUNDS
1002
{
1070
    19
1005
5497
1002
}
  0
LINE
  5
5473
330
5454
100
AcDbEntity
  8
0
100
AcDbLine
 10
8.409999999991555
 20
3.670999999996297
 30
0.0
 11
9.236999999990758
 21
5.5200999999945
 31
0.0
1001
ACAD
1000
ASC_BOUNDS
1002
{
1070
    19
1005
5497
1002
}
  0
LINE
  5
5474
330
5454
100
AcDbEntity
  8
0
100
AcDbLine
 10
8.409999999991555
 20
3.670999999996297
 30
0.0
 11
10.06399999998996
 21
3.670999999996297
 31
0.0
1001
ACAD
1000
ASC_BOUNDS
1002
{
1070
    19
1005
5497
1002
}
  0
LINE
  5
5475
330
5454
100
AcDbEntity
  8
0
100
AcDbLine
 10
10.53899999998941
 20
8.763099999991255
 30
0.0
 11
12.02999999998792
 21
8.763099999991255
 31
0.0
1001
ACAD
1000
ASC_BOUNDS
1002
{
1070
    19
1005
5498
1002
}
  0
LINE
  5
5476
330
5454
100
AcDbEntity
  8
0
100
AcDbLine
 10
22.7389999999773
 20
3.670999999996297
 30
0.0
 11
23.56599999997638
 21
5.5200999999945
 31
0.0
1001
ACAD
1000
ASC_BOUNDS
1002
{
1070
    19
1005
5499
1002
}
  0
LINE
  5
5477
330
5454
100
AcDbEntity
  8
0
100
AcDbLine
 10
22.7389999999773
 20
3.670999999996297
 30
0.0
 11
24.39299999997559
 21
3.670999999996297
 31
0.0
1001
ACAD
1000
ASC_BOUNDS
1002
{
1070
    19
1005
5499
1002
}
  0
LINE
  5
5478
330
5454
100
AcDbEntity
  8
0
100
AcDbLine
 10
18.59799999998143
 20
3.315799999996671
 30
0.0
 11
20.89099999997916
 21
8.763099999991255
 31
0.0
1001
ACAD
1000
ASC_BOUNDS
1002
{
1070
    19
1005
5498
1002
}
  0
LINE
  5
5479
330
5454
100
AcDbEntity
  8
0
100
AcDbLine
 10
18.59799999998143
 20
3.315799999996671
 30
0.0
 11
16.46099999998353
 21
8.999899999990987
 31
0.0
1001
ACAD
1000
ASC_BOUNDS
1002
{
1070
    19
1005
5498
1002
}
  0
LINE
  5
547A
330
5454
100
AcDbEntity
  8
0
100
AcDbLine
 10
20.89099999997916
 20
8.763099999991255
 30
0.0
 11
22.38199999997767
 21
8.763099999991255
 31
0.0
1001
ACAD
1000
ASC_BOUNDS
1002
{
1070
    19
1005
5498
1002
}
  0
LINE
  5
547B
330
5454
100
AcDbEntity
  8
0
100
AcDbLine
 10
24.39299999997559
 20
3.670999999996297
 30
0.0
 11
23.56599999997638
 21
5.5200999999945
 31
0.0
1001
ACAD
1000
ASC_BOUNDS
1002
{
1070
    19
1005
5499
1002
}
  0
LINE
  5
547C
330
5454
100
AcDbEntity
  8
0
100
AcDbLine
 10
44.99999999995498
 20
-0.2368999999997641
 30
0.0
 11
40.02599999995994
 21
5.341799999994635
 31
0.0
1001
ACAD
1000
ASC_BOUNDS
1002
{
1070
    19
1005
549B
1002
}
  0
LINE
  5
547D
330
5454
100
AcDbEntity
  8
0
100
AcDbLine
 10
40.02599999995994
 20
5.341799999994635
 30
0.0
 11
40.02599999995994
 21
0.0
 31
0.0
1001
ACAD
1000
ASC_BOUNDS
1002
{
1070
    19
1005
549B
1002
}
  0
LINE
  5
547E
330
5454
100
AcDbEntity
  8
0
100
AcDbLine
 10
38.60499999996136
 20
8.999999999991019
 30
0.0
 11
38.60499999996136
 21
0.0
 31
0.0
1001
ACAD
1000
ASC_BOUNDS
1002
{
1070
    19
1005
549B
1002
}
  0
LINE
  5
547F
330
5454
100
AcDbEntity
  8
0
100
AcDbLine
 10
44.99999999995498
 20
8.763099999991255
 30
0.0
 11
44.99999999995498
 21
-0.2368999999997641
 31
0.0
1001
ACAD
1000
ASC_BOUNDS
1002
{
1070
    19
1005
549B
1002
}
  0
LINE
  5
5480
330
5454
100
AcDbEntity
  8
0
100
AcDbLine
 10
38.60499999996136
 20
0.0
 30
0.0
 11
40.02599999995994
 21
0.0
 31
0.0
1001
ACAD
1000
ASC_BOUNDS
1002
{
1070
    19
1005
549B
1002
}
  0
LINE
  5
5481
330
5454
100
AcDbEntity
  8
0
100
AcDbLine
 10
43.57899999995641
 20
3.421199999996588
 30
0.0
 11
38.60499999996136
 21
8.999899999990987
 31
0.0
1001
ACAD
1000
ASC_BOUNDS
1002
{
1070
    19
1005
549B
1002
}
  0
LINE
  5
5482
330
5454
100
AcDbEntity
  8
0
100
AcDbLine
 10
43.57899999995641
 20
8.763099999991255
 30
0.0
 11
43.57899999995641
 21
3.421199999996588
 31
0.0
1001
ACAD
1000
ASC_BOUNDS
1002
{
1070
    19
1005
549B
1002
}
  0
LINE
  5
5483
330
5454
100
AcDbEntity
  8
0
100
AcDbLine
 10
43.57899999995641
 20
8.763099999991255
 30
0.0
 11
44.99999999995498
 21
8.763099999991255
 31
0.0
1001
ACAD
1000
ASC_BOUNDS
1002
{
1070
    19
1005
549B
1002
}
  0
LINE
  5
5484
330
5454
100
AcDbEntity
  8
0
100
AcDbLine
 10
37.67199999996831
 20
8.763099999991255
 30
0.0
 11
36.23199999996837
 21
8.763099999991255
 31
0.0
  0
LINE
  5
5485
330
5454
100
AcDbEntity
  8
0
100
AcDbLine
 10
31.64199999996833
 20
8.763099999991255
 30
0.0
 11
31.64199999996833
 21
2.481619422925121
 31
0.0
  0
LINE
  5
5486
330
5454
100
AcDbEntity
  8
0
100
AcDbLine
 10
37.67199999996831
 20
8.763099999991255
 30
0.0
 11
37.67199999996831
 21
2.481619422925121
 31
0.0
  0
LINE
  5
5487
330
5454
100
AcDbEntity
  8
0
100
AcDbLine
 10
36.23199999996837
 20
8.763099999991255
 30
0.0
 11
36.23199999996837
 21
2.481619422925064
 31
0.0
  0
LINE
  5
5488
330
5454
100
AcDbEntity
  8
0
100
AcDbLine
 10
33.08199999996839
 20
8.763099999991255
 30
0.0
 11
33.08199999996839
 21
2.481619422925121
 31
0.0
  0
ARC
  5
5489
330
5454
100
AcDbEntity
  8
0
100
AcDbCircle
 10
34.65699999996832
 20
3.183099999991214
 30
0.0
 40
3.420000000000007
100
AcDbArc
 50
240.0000000000255
 51
299.9999999999766
  0
ARC
  5
548A
330
5454
100
AcDbEntity
  8
0
100
AcDbCircle
 10
34.65699999996832
 20
3.183099999991214
 30
0.0
 40
1.97999999999999
100
AcDbArc
 50
240.000000000026
 51
299.9999999999703
  0
LINE
  5
548B
330
5454
100
AcDbEntity
  8
0
100
AcDbLine
 10
33.08199999996828
 20
8.763099999991255
 30
0.0
 11
31.64199999996833
 21
8.763099999991255
 31
0.0
  0
ARC
  5
548C
330
5454
100
AcDbEntity
  8
0
100
AcDbCircle
 10
35.06199999996829
 20
2.481619422925064
 30
0.0
 40
1.17
100
AcDbArc
 50
299.9999999999699
 51
0.0
  0
ARC
  5
548D
330
5454
100
AcDbEntity
  8
0
100
AcDbCircle
 10
34.25199999996835
 20
2.481619422925121
 30
0.0
 40
1.17
100
AcDbArc
 50
180.0
 51
240.0000000000238
  0
ARC
  5
548E
330
5454
100
AcDbEntity
  8
0
100
AcDbCircle
 10
35.06199999996841
 20
2.481619422925121
 30
0.0
 40
2.61
100
AcDbArc
 50
299.9999999999756
 51
0.0
  0
ARC
  5
548F
330
5454
100
AcDbEntity
  8
0
100
AcDbCircle
 10
34.25199999996835
 20
2.481619422925121
 30
0.0
 40
2.61
100
AcDbArc
 50
180.0
 51
240.0000000000244
  0
LINE
  5
5490
330
5454
100
AcDbEntity
  8
0
100
AcDbLine
 10
29.30199999996933
 20
8.763099999991255
 30
0.0
 11
30.74199999996927
 21
8.763099999991255
 31
0.0
1001
ACAD
1000
ASC_BOUNDS
1002
{
1070
    19
1005
5499
1002
}
  0
LINE
  5
5491
330
5454
100
AcDbEntity
  8
0
100
AcDbLine
 10
30.74199999996927
 20
8.763099999991255
 30
0.0
 11
30.74199999996927
 21
2.373099999991211
 31
0.0
1001
ACAD
1000
ASC_BOUNDS
1002
{
1070
    19
1005
5499
1002
}
  0
LINE
  5
5492
330
5454
100
AcDbEntity
  8
0
100
AcDbLine
 10
26.02015566812236
 20
0.0330999999912365
 30
0.0
 11
28.40199999996923
 21
0.0330999999912365
 31
0.0
1001
ACAD
1000
ASC_BOUNDS
1002
{
1070
    19
1005
5499
1002
}
  0
LINE
  5
5493
330
5454
100
AcDbEntity
  8
0
100
AcDbLine
 10
29.30199999996933
 20
8.763099999991255
 30
0.0
 11
29.30199999996933
 21
2.283099999991236
 31
0.0
1001
ACAD
1000
ASC_BOUNDS
1002
{
1070
    19
1005
5499
1002
}
  0
LINE
  5
5494
330
5454
100
AcDbEntity
  8
0
100
AcDbLine
 10
26.97358892824991
 20
1.383099999991202
 30
0.0
 11
28.40199999996923
 21
1.383099999991202
 31
0.0
1001
ACAD
1000
ASC_BOUNDS
1002
{
1070
    19
1005
5499
1002
}
  0
ARC
  5
5495
330
5454
100
AcDbEntity
  8
0
100
AcDbCircle
 10
28.40199999996923
 20
2.283099999991236
 30
0.0
 40
0.9
100
AcDbArc
 50
270.0
 51
0.0
1001
ACAD
1000
ASC_BOUNDS
1002
{
1070
    19
1005
5499
1002
}
  0
ARC
  5
5496
330
5454
100
AcDbEntity
  8
0
100
AcDbCircle
 10
28.40199999996923
 20
2.373099999991211
 30
0.0
 40
2.34
100
AcDbArc
 50
270.0
 51
0.0
1001
ACAD
1000
ASC_BOUNDS
1002
{
1070
    19
1005
5499
1002
}
  0
INSERT
  5
5497
330
5454
100
AcDbEntity
  8
0
100
AcDbBlockReference
  2
*X55
 10
0.0
 20
0.0
 30
0.0
1001
ACAD
1000
HATCH
1002
{
1070
    19
1000
ANSI37
1040
0.15
1040
0.0
1000
ASC_BOUNDS
1070
     2
1070
     2
1070
    12
1005
5456
1005
5457
1005
545E
1005
546D
1005
5470
1005
546E
1005
545F
1005
5464
1005
5462
1005
5466
1005
5465
1005
5467
1070
     2
1070
     3
1005
5472
1005
5474
1005
5473
1000
ASC_SEEDPOINT
1011
3.614004224891801
1021
2.996669441146025
1031
0.0
1000
R14_HATCH_DATA
1000
5497
1011
1.0
1021
0.0
1031
0.0
1011
0.0
1021
1.0
1031
0.0
1011
0.0
1021
0.0
1031
1.0
1040
0.0
1010
0.0
1020
0.0
1030
1.0
1000
ANSI37
1070
     0
1070
     1
1071
        2
1071
        7
1070
     0
1070
     1
1071
       17
1040
13.26299999998673
1040
-0.0001000000000317
1040
9.236999999990758
1040
8.999899999990987
1040
9.236999999990758
1040
8.999999999991019
1040
5.657999999994331
1040
0.9999999999989768
1040
3.181999999996833
1040
4.668599999995308
1040
6.432999999993513
1040
8.763099999991255
1040
4.617999999995391
1040
8.763099999991255
1040
1.420999999998571
1040
4.736799999995242
1040
4.617999999995391
1040
-0.0001000000000317
1040
4.617999999995391
1040
0.0
1040
6.766999999993232
1040
0.0
1040
6.766999999993232
1040
-0.0001000000000317
1040
7.826999999992154
1040
2.368399999997621
1040
10.64699999998936
1040
2.368399999997621
1040
11.70599999998831
1040
-0.0001000000000317
1040
11.70599999998831
1040
0.0
1040
13.26299999998673
1040
0.0
1071
       12
1005
5456
1005
5457
1005
545E
1005
546D
1005
5470
1005
546E
1005
545F
1005
5464
1005
5462
1005
5466
1005
5465
1005
5467
1071
       22
1070
     0
1070
     1
1071
        3
1040
9.236999999990758
1040
5.5200999999945
1040
10.06399999998996
1040
3.670999999996297
1040
8.409999999991555
1040
3.670999999996297
1071
        3
1005
5472
1005
5474
1005
5473
1070
     0
1070
     1
1040
0.0
1040
0.15
1070
     0
1070
     2
1040
0.7853981633974483
1040
49.29960901727088
1040
-10.17736998311392
1040
-0.3367596045400932
1040
0.3367596045400932
1070
     0
1040
2.356194490192345
1040
49.29960901727088
1040
-10.17736998311392
1040
-0.3367596045400932
1040
-0.3367596045400932
1070
     0
1040
0.0110235143455945
1071
        2
1040
3.614004224891801
1040
2.996669441146025
1040
0.0
1040
3.614004224891801
1040
2.996669441146025
1040
0.0
1002
}
  0
INSERT
  5
5498
330
5454
100
AcDbEntity
  8
0
100
AcDbBlockReference
  2
*X56
 10
0.0
 20
0.0
 30
0.0
1001
ACAD
1000
HATCH
1002
{
1070
    19
1000
ANSI37
1040
0.15
1040
0.0
1000
ASC_BOUNDS
1070
     1
1070
     2
1070
    10
1005
5458
1005
5459
1005
547A
1005
5478
1005
5479
1005
546C
1005
5471
1005
5475
1005
545B
1005
545A
1000
ASC_SEEDPOINT
1011
14.73245321214324
1021
2.798246178283421
1031
0.0
1000
R14_HATCH_DATA
1000
5498
1011
1.0
1021
0.0
1031
0.0
1011
0.0
1021
1.0
1031
0.0
1011
0.0
1021
0.0
1031
1.0
1040
0.0
1010
0.0
1020
0.0
1030
1.0
1000
ANSI37
1070
     0
1070
     1
1071
        1
1071
        7
1070
     0
1070
     1
1071
       10
1040
16.46099999998353
1040
5.432899999994561
1040
18.59199999998134
1040
-0.2368999999997641
1040
22.38199999997767
1040
8.763099999991255
1040
20.89099999997916
1040
8.763099999991255
1040
18.59799999998143
1040
3.315799999996671
1040
16.46099999998353
1040
8.999899999990987
1040
14.32399999998563
1040
3.315799999996671
1040
12.02999999998792
1040
8.763099999991255
1040
10.53899999998941
1040
8.763099999991255
1040
14.32899999998563
1040
-0.2368999999997641
1071
       10
1005
5458
1005
5459
1005
547A
1005
5478
1005
5479
1005
546C
1005
5471
1005
5475
1005
545B
1005
545A
1070
     0
1070
     1
1040
0.0
1040
0.15
1070
     0
1070
     2
1040
0.7853981633974483
1040
49.29960901727088
1040
-10.17736998311392
1040
-0.3367596045400932
1040
0.3367596045400932
1070
     0
1040
2.356194490192345
1040
49.29960901727088
1040
-10.17736998311392
1040
-0.3367596045400932
1040
-0.3367596045400932
1070
     0
1040
0.0110235143455945
1071
        1
1040
14.73245321214324
1040
2.798246178283421
1040
0.0
1002
}
  0
INSERT
  5
5499
330
5454
100
AcDbEntity
  8
0
100
AcDbBlockReference
  2
*X57
 10
0.0
 20
0.0
 30
0.0
1001
ACAD
1000
HATCH
1002
{
1070
    19
1000
ANSI37
1040
0.15
1040
0.0
1000
ASC_BOUNDS
1070
     2
1070
     2
1070
    13
1005
545C
1005
5469
1005
546A
1005
5468
1005
546B
1005
5492
1005
5496
1005
5491
1005
5490
1005
5493
1005
5495
1005
5494
1005
545D
1070
     2
1070
     3
1005
5476
1005
547B
1005
5477
1000
ASC_SEEDPOINT
1011
21.97929957367762
1021
3.294304244259308
1031
0.0
1000
R14_HATCH_DATA
1000
5499
1011
1.0
1021
0.0
1031
0.0
1011
0.0
1021
1.0
1031
0.0
1011
0.0
1021
0.0
1031
1.0
1040
0.0
1010
0.0
1020
0.0
1030
1.0
1000
ANSI37
1070
     0
1070
     1
1071
        2
1071
        7
1070
     1
1070
     1
1071
       15
1040
23.56599999997638
1040
8.999899999990987
1040
0.0
1040
19.53899999998043
1040
-0.0001000000000317
1040
0.0
1040
19.53899999998043
1040
0.0
1040
0.0
1040
21.09599999997886
1040
0.0
1040
0.0
1040
21.09599999997886
1040
-0.0001000000000317
1040
0.0
1040
22.15599999997789
1040
2.368399999997621
1040
0.0
1040
24.97599999997499
1040
2.368399999997621
1040
0.0
1040
26.02015566812236
1040
0.0330999999912365
1040
0.0
1040
28.40199999996923
1040
0.0330999999912365
1040
0.414213562373095
1040
30.74199999996923
1040
2.373099999991211
1040
0.0
1040
30.74199999996927
1040
8.763099999991255
1040
0.0
1040
29.30199999996933
1040
8.763099999991255
1040
0.0
1040
29.30199999996933
1040
2.283099999991236
1040
-0.414213562373095
1040
28.40199999996923
1040
1.383099999991237
1040
0.0
1040
26.97358892824991
1040
1.383099999991202
1040
0.0
1071
       13
1005
545C
1005
5469
1005
546A
1005
5468
1005
546B
1005
5492
1005
5496
1005
5491
1005
5490
1005
5493
1005
5495
1005
5494
1005
545D
1071
       22
1070
     0
1070
     1
1071
        3
1040
22.7389999999773
1040
3.670999999996297
1040
23.56599999997638
1040
5.5200999999945
1040
24.39299999997559
1040
3.670999999996297
1071
        3
1005
5476
1005
547B
1005
5477
1070
     0
1070
     1
1040
0.0
1040
0.15
1070
     0
1070
     2
1040
0.7853981633974483
1040
49.29960901727088
1040
-10.17736998311392
1040
-0.3367596045400932
1040
0.3367596045400932
1070
     0
1040
2.356194490192345
1040
49.29960901727088
1040
-10.17736998311392
1040
-0.3367596045400932
1040
-0.3367596045400932
1070
     0
1040
0.0110235143455945
1071
        2
1040
21.97929957367762
1040
3.294304244259308
1040
0.0
1040
21.97929957367762
1040
3.294304244259308
1040
0.0
1002
}
  0
INSERT
  5
549A
330
5454
100
AcDbEntity
  8
0
100
AcDbBlockReference
  2
*X58
 10
0.0
 20
0.0
 30
0.0
1001
ACAD
1000
HATCH
1002
{
1070
    19
1000
ANSI37
1040
0.15
1040
0.0
1000
R14_HATCH_DATA
1000
549A
1011
1.0
1021
0.0
1031
0.0
1011
0.0
1021
1.0
1031
0.0
1011
0.0
1021
0.0
1031
1.0
1040
0.0
1010
0.0
1020
0.0
1030
1.0
1000
ANSI37
1070
     0
1070
     1
1071
        1
1071
        7
1070
     1
1070
     1
1071
       12
1040
31.64199999996833
1040
2.481619422925121
1040
0.2679491924310942
1040
32.94699999997067
1040
0.2212931190493919
1040
0.2679491924301353
1040
36.36699999995983
1040
0.2212931190459813
1040
0.2679491924321411
1040
37.67199999996831
1040
2.481619422928361
1040
0.0
1040
37.67199999996831
1040
8.763099999991255
1040
0.0
1040
36.23199999996837
1040
8.763099999991255
1040
0.0
1040
36.23199999996837
1040
2.481619422925064
1040
-0.2679491924310291
1040
35.64699999996708
1040
1.468369700498386
1040
-0.267949192430519
1040
33.66699999997093
1040
1.468369700497703
1040
-0.267949192431809
1040
33.08199999996839
1040
2.481619422926997
1040
0.0
1040
33.08199999996839
1040
8.763099999991255
1040
0.0
1040
31.64199999996833
1040
8.763099999991255
1040
0.0
1071
        0
1070
     0
1070
     1
1040
0.0
1040
0.15
1070
     0
1070
     2
1040
0.7853981633974483
1040
49.29960901727088
1040
-10.17736998311392
1040
-0.3367596045400932
1040
0.3367596045400932
1070
     0
1040
2.356194490192345
1040
49.29960901727088
1040
-10.17736998311392
1040
-0.3367596045400932
1040
-0.3367596045400932
1070
     0
1040
0.0110235143455945
1071
        1
1040
32.30357378967278
1040
3.988785755459219
1040
0.0
1002
}
  0
INSERT
  5
549B
330
5454
100
AcDbEntity
  8
0
100
AcDbBlockReference
  2
*X59
 10
0.0
 20
0.0
 30
0.0
1001
ACAD
1000
HATCH
1002
{
1070
    19
1000
ANSI37
1040
0.15
1040
0.0
1000
ASC_BOUNDS
1070
     1
1070
     2
1070
     8
1005
547C
1005
547F
1005
5483
1005
5482
1005
5481
1005
547E
1005
5480
1005
547D
1000
ASC_SEEDPOINT
1011
39.74896370716704
1021
4.484843821435049
1031
0.0
1000
R14_HATCH_DATA
1000
549B
1011
1.0
1021
0.0
1031
0.0
1011
0.0
1021
1.0
1031
0.0
1011
0.0
1021
0.0
1031
1.0
1040
0.0
1010
0.0
1020
0.0
1030
1.0
1000
ANSI37
1070
     0
1070
     1
1071
        1
1071
        7
1070
     0
1070
     1
1071
        9
1040
40.02599999995994
1040
5.341799999994635
1040
44.99999999995498
1040
-0.2368999999997641
1040
44.99999999995498
1040
8.763099999991255
1040
43.57899999995641
1040
8.763099999991255
1040
43.57899999995641
1040
3.421199999996588
1040
38.60499999996136
1040
8.999899999990987
1040
38.60499999996136
1040
8.999999999991019
1040
38.60499999996136
1040
0.0
1040
40.02599999995994
1040
0.0
1071
        8
1005
547C
1005
547F
1005
5483
1005
5482
1005
5481
1005
547E
1005
5480
1005
547D
1070
     0
1070
     1
1040
0.0
1040
0.15
1070
     0
1070
     2
1040
0.7853981633974483
1040
49.29960901727088
1040
-10.17736998311392
1040
-0.3367596045400932
1040
0.3367596045400932
1070
     0
1040
2.356194490192345
1040
49.29960901727088
1040
-10.17736998311392
1040
-0.3367596045400932
1040
-0.3367596045400932
1070
     0
1040
0.0110235143455945
1071
        1
1040
39.74896370716704
1040
4.484843821435049
1040
0.0
1002
}
  0
INSERT
  5
549C
330
5454
100
AcDbEntity
  8
0
100
AcDbBlockReference
  2
*X60
 10
0.0
 20
0.0
 30
0.0
1001
ACAD
1000
HATCH
1002
{
1070
    19
1000
ANSI37
1040
0.15
1040
0.0
1000
ASC_BOUNDS
1070
     1
1070
     2
1070
     4
1005
5460
1005
546F
1005
5461
1005
5463
1000
ASC_SEEDPOINT
1011
1.079051535452663
1021
4.148538732891836
1031
0.0
1000
R14_HATCH_DATA
1000
549C
1011
1.0
1021
0.0
1031
0.0
1011
0.0
1021
1.0
1031
0.0
1011
0.0
1021
0.0
1031
1.0
1040
0.0
1010
0.0
1020
0.0
1030
1.0
1000
ANSI37
1070
     0
1070
     1
1071
        1
1071
        7
1070
     0
1070
     1
1071
        4
1040
1.420999999998571
1040
0.0
1040
1.420999999998571
1040
8.763099999991255
1040
0.0
1040
8.763099999991255
1040
0.0
1040
0.0
1071
        4
1005
5460
1005
546F
1005
5461
1005
5463
1070
     0
1070
     1
1040
0.0
1040
0.15
1070
     0
1070
     2
1040
0.7853981633974483
1040
49.29960901727088
1040
-10.17736998311392
1040
-0.3367596045400932
1040
0.3367596045400932
1070
     0
1040
2.356194490192345
1040
49.29960901727088
1040
-10.17736998311392
1040
-0.3367596045400932
1040
-0.3367596045400932
1070
     0
1040
0.0053004257112761
1071
        1
1040
1.079051535452663
1040
4.148538732891836
1040
0.0
1002
}
  0
ENDBLK
  5
5B54
330
5454
100
AcDbEntity
  8
0
100
AcDbBlockEnd
  0
BLOCK
  5
64B7
330
6329
100
AcDbEntity
  8
0
100
AcDbBlockBegin
  2
*X55
 70
     1
 10
0.0
 20
0.0
 30
0.0
  3
*X55
  1

  0
LINE
  5
632A
330
6329
100
AcDbEntity
  8
0
  6
CONTINUOUS
100
AcDbLine
 10
3.418023043697893
 20
7.251849696850613
 30
0.0
 11
4.929273346838536
 21
8.763099999991255
 31
0.0
  0
LINE
  5
632B
330
6329
100
AcDbEntity
  8
0
  6
CONTINUOUS
100
AcDbLine
 10
1.483656411257782
 20
4.643963855330318
 30
0.0
 11
5.60279255591872
 21
8.763099999991255
 31
0.0
  0
LINE
  5
632C
330
6329
100
AcDbEntity
  8
0
  6
CONTINUOUS
100
AcDbLine
 10
1.755053947328235
 20
4.241842182320584
 30
0.0
 11
6.276311764998907
 21
8.763099999991255
 31
0.0
  0
LINE
  5
632D
330
6329
100
AcDbEntity
  8
0
  6
CONTINUOUS
100
AcDbLine
 10
2.026451483398688
 20
3.839720509310849
 30
0.0
 11
4.441040904851878
 21
6.254309930764039
 31
0.0
  0
LINE
  5
632E
330
6329
100
AcDbEntity
  8
0
  6
CONTINUOUS
100
AcDbLine
 10
2.297849019469139
 20
3.437598836301114
 30
0.0
 11
3.321765168359338
 21
4.461514985191313
 31
0.0
  0
LINE
  5
632F
330
6329
100
AcDbEntity
  8
0
  6
CONTINUOUS
100
AcDbLine
 10
2.569246555539591
 20
3.03547716329138
 30
0.0
 11
3.593163397972743
 21
4.059394005724531
 31
0.0
  0
LINE
  5
6330
330
6329
100
AcDbEntity
  8
0
  6
CONTINUOUS
100
AcDbLine
 10
2.840644091610043
 20
2.633355490281646
 30
0.0
 11
3.864561627586149
 21
3.657273026257751
 31
0.0
  0
LINE
  5
6331
330
6329
100
AcDbEntity
  8
0
  6
CONTINUOUS
100
AcDbLine
 10
3.112041627680496
 20
2.231233817271911
 30
0.0
 11
4.135959857199554
 21
3.25515204679097
 31
0.0
  0
LINE
  5
6332
330
6329
100
AcDbEntity
  8
0
  6
CONTINUOUS
100
AcDbLine
 10
3.383439163750948
 20
1.829112144262177
 30
0.0
 11
4.40735808681296
 21
2.853031067324189
 31
0.0
  0
LINE
  5
6333
330
6329
100
AcDbEntity
  8
0
  6
CONTINUOUS
100
AcDbLine
 10
3.654836699821399
 20
1.426990471252442
 30
0.0
 11
4.678756316426365
 21
2.450910087857407
 31
0.0
  0
LINE
  5
6334
330
6329
100
AcDbEntity
  8
0
  6
CONTINUOUS
100
AcDbLine
 10
3.926234235891853
 20
1.024868798242709
 30
0.0
 11
4.95015454603977
 21
2.048789108390626
 31
0.0
  0
LINE
  5
6335
330
6329
100
AcDbEntity
  8
0
  6
CONTINUOUS
100
AcDbLine
 10
4.197631771962304
 20
0.6227471252329737
 30
0.0
 11
5.221552775653176
 21
1.646668128923846
 31
0.0
  0
LINE
  5
6336
330
6329
100
AcDbEntity
  8
0
  6
CONTINUOUS
100
AcDbLine
 10
8.715877546767851
 20
7.835069736359266
 30
0.0
 11
9.435953450375058
 21
8.555145639966472
 31
0.0
  0
LINE
  5
6337
330
6329
100
AcDbEntity
  8
0
  6
CONTINUOUS
100
AcDbLine
 10
8.170620868422267
 20
6.616293848933497
 30
0.0
 11
9.644120833743461
 21
8.08979381425469
 31
0.0
  0
LINE
  5
6338
330
6329
100
AcDbEntity
  8
0
  6
CONTINUOUS
100
AcDbLine
 10
7.625364190076684
 20
5.397517961507727
 30
0.0
 11
9.852288217111864
 21
7.624441988542907
 31
0.0
  0
LINE
  5
6339
330
6329
100
AcDbEntity
  8
0
  6
CONTINUOUS
100
AcDbLine
 10
7.080107511731101
 20
4.178742074081957
 30
0.0
 11
10.06045560048027
 21
7.159090162831124
 31
0.0
  0
LINE
  5
633A
330
6329
100
AcDbEntity
  8
0
  6
CONTINUOUS
100
AcDbLine
 10
6.534850833385518
 20
2.959966186656187
 30
0.0
 11
10.26862298384867
 21
6.693738337119342
 31
0.0
  0
LINE
  5
633B
330
6329
100
AcDbEntity
  8
0
  6
CONTINUOUS
100
AcDbLine
 10
4.469029308032756
 20
0.2206254522232385
 30
0.0
 11
5.492951005266582
 21
1.244547149457064
 31
0.0
  0
LINE
  5
633C
330
6329
100
AcDbEntity
  8
0
  6
CONTINUOUS
100
AcDbLine
 10
5.989594155039935
 20
1.741190299230417
 30
0.0
 11
8.806950407233131
 21
4.558546551423613
 31
0.0
  0
LINE
  5
633D
330
6329
100
AcDbEntity
  8
0
  6
CONTINUOUS
100
AcDbLine
 10
9.401251593263643
 20
5.152847737454126
 30
0.0
 11
10.47679036721708
 21
6.228386511407559
 31
0.0
  0
LINE
  5
633E
330
6329
100
AcDbEntity
  8
0
  6
CONTINUOUS
100
AcDbLine
 10
4.921837203428691
 20
-0.0000858614610131
 30
0.0
 11
8.592923064886001
 21
3.670999999996297
 31
0.0
  0
LINE
  5
633F
330
6329
100
AcDbEntity
  8
0
  6
CONTINUOUS
100
AcDbLine
 10
9.609390446785305
 20
4.6874673818956
 30
0.0
 11
10.68495775058548
 21
5.763034685695775
 31
0.0
  0
LINE
  5
6340
330
6329
100
AcDbEntity
  8
0
  6
CONTINUOUS
100
AcDbLine
 10
5.595387755019432
 20
-0.0000545189504582
 30
0.0
 11
7.716137258923768
 21
2.120694984953879
 31
0.0
  0
LINE
  5
6341
330
6329
100
AcDbEntity
  8
0
  6
CONTINUOUS
100
AcDbLine
 10
6.268938306610172
 20
-0.000023176439905
 30
0.0
 11
7.170485805526503
 21
0.9015243224764267
 31
0.0
  0
LINE
  5
6342
330
6329
100
AcDbEntity
  8
0
  6
CONTINUOUS
100
AcDbLine
 10
7.963842273967511
 20
2.368399999997621
 30
0.0
 11
9.266442273966188
 21
3.670999999996297
 31
0.0
  0
LINE
  5
6343
330
6329
100
AcDbEntity
  8
0
  6
CONTINUOUS
100
AcDbLine
 10
8.637361483047696
 20
2.368399999997621
 30
0.0
 11
9.939961483046375
 21
3.670999999996297
 31
0.0
  0
LINE
  5
6344
330
6329
100
AcDbEntity
  8
0
  6
CONTINUOUS
100
AcDbLine
 10
9.817529300306965
 20
4.222087026337075
 30
0.0
 11
10.89312513395388
 21
5.297682859983993
 31
0.0
  0
LINE
  5
6345
330
6329
100
AcDbEntity
  8
0
  6
CONTINUOUS
100
AcDbLine
 10
10.02566815382863
 20
3.756706670778549
 30
0.0
 11
11.10129251732229
 21
4.832331034272211
 31
0.0
  0
LINE
  5
6346
330
6329
100
AcDbEntity
  8
0
  6
CONTINUOUS
100
AcDbLine
 10
9.310880692127883
 20
2.368399999997621
 30
0.0
 11
11.30945990069069
 21
4.366979208560428
 31
0.0
  0
LINE
  5
6347
330
6329
100
AcDbEntity
  8
0
  6
CONTINUOUS
100
AcDbLine
 10
9.98439990120807
 20
2.36839999999762
 30
0.0
 11
11.5176272840591
 21
3.901627382848645
 31
0.0
  0
LINE
  5
6348
330
6329
100
AcDbEntity
  8
0
  6
CONTINUOUS
100
AcDbLine
 10
10.65037369446246
 20
2.36085458417182
 30
0.0
 11
11.7257946674275
 21
3.436275557136862
 31
0.0
  0
LINE
  5
6349
330
6329
100
AcDbEntity
  8
0
  6
CONTINUOUS
100
AcDbLine
 10
10.85847197087848
 20
1.895433651507656
 30
0.0
 11
11.9339620507959
 21
2.97092373142508
 31
0.0
  0
LINE
  5
634A
330
6329
100
AcDbEntity
  8
0
  6
CONTINUOUS
100
AcDbLine
 10
11.0665702472945
 20
1.430012718843491
 30
0.0
 11
12.14212943416431
 21
2.505571905713296
 31
0.0
  0
LINE
  5
634B
330
6329
100
AcDbEntity
  8
0
  6
CONTINUOUS
100
AcDbLine
 10
11.27466852371052
 20
0.9645917861793256
 30
0.0
 11
12.35029681753271
 21
2.040220080001513
 31
0.0
  0
LINE
  5
634C
330
6329
100
AcDbEntity
  8
0
  6
CONTINUOUS
100
AcDbLine
 10
11.48276680012654
 20
0.4991708535151611
 30
0.0
 11
12.55846420090111
 21
1.57486825428973
 31
0.0
  0
LINE
  5
634D
330
6329
100
AcDbEntity
  8
0
  6
CONTINUOUS
100
AcDbLine
 10
11.69086507654257
 20
0.0337499208509957
 30
0.0
 11
12.76663158426952
 21
1.109516428577947
 31
0.0
  0
LINE
  5
634E
330
6329
100
AcDbEntity
  8
0
  6
CONTINUOUS
100
AcDbLine
 10
12.33057447873954
 20
-0.0000598860322123
 30
0.0
 11
12.97479896763792
 21
0.6441646028661663
 31
0.0
  0
LINE
  5
634F
330
6329
100
AcDbEntity
  8
0
  6
CONTINUOUS
100
AcDbLine
 10
13.00413694809395
 20
-0.0000166257579952
 30
0.0
 11
13.18296635100632
 21
0.1788127771543824
 31
0.0
  0
LINE
  5
6350
330
6329
100
AcDbEntity
  8
0
  6
CONTINUOUS
100
AcDbLine
 10
4.772852165289667
 20
-0.000092794222212
 30
0.0
 11
4.296495091028902
 21
0.4762642800385528
 31
0.0
  0
LINE
  5
6351
330
6329
100
AcDbEntity
  8
0
  6
CONTINUOUS
100
AcDbLine
 10
5.446340034776103
 20
-0.0000614546284616
 30
0.0
 11
2.898195908335625
 21
2.548082671812017
 31
0.0
  0
LINE
  5
6352
330
6329
100
AcDbEntity
  8
0
  6
CONTINUOUS
100
AcDbLine
 10
6.119827904262539
 20
-0.0000301150347113
 30
0.0
 11
1.499896725642348
 21
4.61990106358548
 31
0.0
  0
LINE
  5
6353
330
6329
100
AcDbEntity
  8
0
  6
CONTINUOUS
100
AcDbLine
 10
6.775136745476159
 20
0.0181802528318542
 30
0.0
 11
5.699826040202669
 21
1.093490958105344
 31
0.0
  0
LINE
  5
6354
330
6329
100
AcDbEntity
  8
0
  6
CONTINUOUS
100
AcDbLine
 10
6.983376846288489
 20
0.4834593610997118
 30
0.0
 11
5.908008617934405
 21
1.558827589453796
 31
0.0
  0
LINE
  5
6355
330
6329
100
AcDbEntity
  8
0
  6
CONTINUOUS
100
AcDbLine
 10
5.377063484962296
 20
1.416253513345719
 30
0.0
 11
1.702276957014131
 21
5.091040041293883
 31
0.0
  0
LINE
  5
6356
330
6329
100
AcDbEntity
  8
0
  6
CONTINUOUS
100
AcDbLine
 10
3.978745891735324
 20
3.488090315652877
 30
0.0
 11
2.000373521109399
 21
5.466462686278803
 31
0.0
  0
LINE
  5
6357
330
6329
100
AcDbEntity
  8
0
  6
CONTINUOUS
100
AcDbLine
 10
7.191616947100819
 20
0.948738469367568
 30
0.0
 11
6.11619119566614
 21
2.024164220802247
 31
0.0
  0
LINE
  5
6358
330
6329
100
AcDbEntity
  8
0
  6
CONTINUOUS
100
AcDbLine
 10
7.399857047913149
 20
1.414017577635424
 30
0.0
 11
6.324373773397875
 21
2.489500852150698
 31
0.0
  0
LINE
  5
6359
330
6329
100
AcDbEntity
  8
0
  6
CONTINUOUS
100
AcDbLine
 10
7.608097148725479
 20
1.879296685903281
 30
0.0
 11
6.53255635112961
 21
2.95483748349915
 31
0.0
  0
LINE
  5
635A
330
6329
100
AcDbEntity
  8
0
  6
CONTINUOUS
100
AcDbLine
 10
7.816337249537808
 20
2.344575794171138
 30
0.0
 11
6.740738928861345
 21
3.420174114847601
 31
0.0
  0
LINE
  5
635B
330
6329
100
AcDbEntity
  8
0
  6
CONTINUOUS
100
AcDbLine
 10
3.310241080789734
 20
4.830114335678653
 30
0.0
 11
2.298470085204666
 21
5.84188533126372
 31
0.0
  0
LINE
  5
635C
330
6329
100
AcDbEntity
  8
0
  6
CONTINUOUS
100
AcDbLine
 10
3.60832983563551
 20
5.205544789913063
 30
0.0
 11
2.596566649299935
 21
6.217307976248638
 31
0.0
  0
LINE
  5
635D
330
6329
100
AcDbEntity
  8
0
  6
CONTINUOUS
100
AcDbLine
 10
3.906418590481286
 20
5.580975244147473
 30
0.0
 11
2.894663213395203
 21
6.592730621233557
 31
0.0
  0
LINE
  5
635E
330
6329
100
AcDbEntity
  8
0
  6
CONTINUOUS
100
AcDbLine
 10
4.204507345327062
 20
5.956405698381884
 30
0.0
 11
3.192759777490472
 21
6.968153266218474
 31
0.0
  0
LINE
  5
635F
330
6329
100
AcDbEntity
  8
0
  6
CONTINUOUS
100
AcDbLine
 10
8.466032252791512
 20
2.368399999997621
 30
0.0
 11
6.948921506593081
 21
3.885510746196053
 31
0.0
  0
LINE
  5
6360
330
6329
100
AcDbEntity
  8
0
  6
CONTINUOUS
100
AcDbLine
 10
9.139551461871699
 20
2.36839999999762
 30
0.0
 11
7.157104084324816
 21
4.350847377544504
 31
0.0
  0
LINE
  5
6361
330
6329
100
AcDbEntity
  8
0
  6
CONTINUOUS
100
AcDbLine
 10
4.502596100172839
 20
6.331836152616295
 30
0.0
 11
3.49085634158574
 21
7.343575911203393
 31
0.0
  0
LINE
  5
6362
330
6329
100
AcDbEntity
  8
0
  6
CONTINUOUS
100
AcDbLine
 10
4.800684855018615
 20
6.707266606850705
 30
0.0
 11
3.788952905681008
 21
7.718998556188312
 31
0.0
  0
LINE
  5
6363
330
6329
100
AcDbEntity
  8
0
  6
CONTINUOUS
100
AcDbLine
 10
12.18154012887317
 20
-0.0000694579236642
 30
0.0
 11
11.32140332908496
 21
0.8600673418645499
 31
0.0
  0
LINE
  5
6364
330
6329
100
AcDbEntity
  8
0
  6
CONTINUOUS
100
AcDbLine
 10
12.85501608323566
 20
-0.0000262032059659
 30
0.0
 11
10.77672456435345
 21
2.078265315676246
 31
0.0
  0
LINE
  5
6365
330
6329
100
AcDbEntity
  8
0
  6
CONTINUOUS
100
AcDbLine
 10
9.813070670951886
 20
2.36839999999762
 30
0.0
 11
8.51047067095321
 21
3.670999999996297
 31
0.0
  0
LINE
  5
6366
330
6329
100
AcDbEntity
  8
0
  6
CONTINUOUS
100
AcDbLine
 10
10.48658988003207
 20
2.36839999999762
 30
0.0
 11
9.183989880033396
 21
3.670999999996297
 31
0.0
  0
LINE
  5
6367
330
6329
100
AcDbEntity
  8
0
  6
CONTINUOUS
100
AcDbLine
 10
8.441048632286794
 20
3.740422038662712
 30
0.0
 11
7.365286662056551
 21
4.816184008892956
 31
0.0
  0
LINE
  5
6368
330
6329
100
AcDbEntity
  8
0
  6
CONTINUOUS
100
AcDbLine
 10
8.649187485808454
 20
4.205802394221237
 30
0.0
 11
7.573469239788285
 21
5.281520640241407
 31
0.0
  0
LINE
  5
6369
330
6329
100
AcDbEntity
  8
0
  6
CONTINUOUS
100
AcDbLine
 10
5.098773609864391
 20
7.082697061085115
 30
0.0
 11
4.087049469776277
 21
8.09442120117323
 31
0.0
  0
LINE
  5
636A
330
6329
100
AcDbEntity
  8
0
  6
CONTINUOUS
100
AcDbLine
 10
5.396862364710167
 20
7.458127515319526
 30
0.0
 11
4.385146033871544
 21
8.469843846158149
 31
0.0
  0
LINE
  5
636B
330
6329
100
AcDbEntity
  8
0
  6
CONTINUOUS
100
AcDbLine
 10
13.04801363231285
 20
0.4804954567970334
 30
0.0
 11
9.85750908911358
 21
3.670999999996297
 31
0.0
  0
LINE
  5
636C
330
6329
100
AcDbEntity
  8
0
  6
CONTINUOUS
100
AcDbLine
 10
8.857326339330116
 20
4.671182749779763
 30
0.0
 11
7.781651817520021
 21
5.746857271589858
 31
0.0
  0
LINE
  5
636D
330
6329
100
AcDbEntity
  8
0
  6
CONTINUOUS
100
AcDbLine
 10
5.694951119555943
 20
7.833557969553937
 30
0.0
 11
4.765409089118624
 21
8.763099999991255
 31
0.0
  0
LINE
  5
636E
330
6329
100
AcDbEntity
  8
0
  6
CONTINUOUS
100
AcDbLine
 10
12.50286117236978
 20
1.699167125820288
 30
0.0
 11
9.68611877250287
 21
4.515909525687196
 31
0.0
  0
LINE
  5
636F
330
6329
100
AcDbEntity
  8
0
  6
CONTINUOUS
100
AcDbLine
 10
9.065465192851777
 20
5.136563105338288
 30
0.0
 11
7.989834395251757
 21
6.21219390293831
 31
0.0
  0
LINE
  5
6370
330
6329
100
AcDbEntity
  8
0
  6
CONTINUOUS
100
AcDbLine
 10
5.993039874401719
 20
8.208988423788346
 30
0.0
 11
5.43892829819881
 21
8.763099999991255
 31
0.0
  0
LINE
  5
6371
330
6329
100
AcDbEntity
  8
0
  6
CONTINUOUS
100
AcDbLine
 10
11.95770871242671
 20
2.917838794843543
 30
0.0
 11
8.19801697298349
 21
6.677530534286761
 31
0.0
  0
LINE
  5
6372
330
6329
100
AcDbEntity
  8
0
  6
CONTINUOUS
100
AcDbLine
 10
6.291128629247495
 20
8.584418878022756
 30
0.0
 11
6.112447507278997
 21
8.763099999991255
 31
0.0
  0
LINE
  5
6373
330
6329
100
AcDbEntity
  8
0
  6
CONTINUOUS
100
AcDbLine
 10
11.41255625248364
 20
4.136510463866797
 30
0.0
 11
8.406199550715227
 21
7.142867165635211
 31
0.0
  0
LINE
  5
6374
330
6329
100
AcDbEntity
  8
0
  6
CONTINUOUS
100
AcDbLine
 10
10.86740379254057
 20
5.355182132890051
 30
0.0
 11
8.614382128446962
 21
7.608203796983664
 31
0.0
  0
LINE
  5
6375
330
6329
100
AcDbEntity
  8
0
  6
CONTINUOUS
100
AcDbLine
 10
10.3222513325975
 20
6.573853801913305
 30
0.0
 11
8.822564706178696
 21
8.073540428332114
 31
0.0
  0
LINE
  5
6376
330
6329
100
AcDbEntity
  8
0
  6
CONTINUOUS
100
AcDbLine
 10
9.777098872654436
 20
7.792525470936562
 30
0.0
 11
9.030747283910433
 21
8.538877059680566
 31
0.0
  0
ENDBLK
  5
64B8
330
6329
100
AcDbEntity
  8
0
100
AcDbBlockEnd
  0
BLOCK
  5
64B9
330
6377
100
AcDbEntity
  8
0
100
AcDbBlockBegin
  2
*X56
 70
     1
 10
0.0
 20
0.0
 30
0.0
  3
*X56
  1

  0
LINE
  5
6378
330
6377
100
AcDbEntity
  8
0
  6
CONTINUOUS
100
AcDbLine
 10
10.67292308101235
 20
8.445076852443387
 30
0.0
 11
10.99094622856022
 21
8.763099999991255
 31
0.0
  0
LINE
  5
6379
330
6377
100
AcDbEntity
  8
0
  6
CONTINUOUS
100
AcDbLine
 10
10.87250383178748
 20
7.971138394138331
 30
0.0
 11
11.6644654376404
 21
8.763099999991255
 31
0.0
  0
LINE
  5
637A
330
6377
100
AcDbEntity
  8
0
  6
CONTINUOUS
100
AcDbLine
 10
11.07208458256261
 20
7.497199935833273
 30
0.0
 11
12.12126590876355
 21
8.546381262034211
 31
0.0
  0
LINE
  5
637B
330
6377
100
AcDbEntity
  8
0
  6
CONTINUOUS
100
AcDbLine
 10
11.27166533333774
 20
7.023261477528216
 30
0.0
 11
12.32085164573666
 21
8.072447789927136
 31
0.0
  0
LINE
  5
637C
330
6377
100
AcDbEntity
  8
0
  6
CONTINUOUS
100
AcDbLine
 10
11.47124608411287
 20
6.549323019223158
 30
0.0
 11
12.52043738270977
 21
7.59851431782006
 31
0.0
  0
LINE
  5
637D
330
6377
100
AcDbEntity
  8
0
  6
CONTINUOUS
100
AcDbLine
 10
11.670826834888
 20
6.075384560918101
 30
0.0
 11
12.72002311968288
 21
7.124580845712984
 31
0.0
  0
LINE
  5
637E
330
6377
100
AcDbEntity
  8
0
  6
CONTINUOUS
100
AcDbLine
 10
11.87040758566313
 20
5.601446102613043
 30
0.0
 11
12.91960885665599
 21
6.650647373605907
 31
0.0
  0
LINE
  5
637F
330
6377
100
AcDbEntity
  8
0
  6
CONTINUOUS
100
AcDbLine
 10
12.06998833643825
 20
5.127507644307986
 30
0.0
 11
13.1191945936291
 21
6.176713901498832
 31
0.0
  0
LINE
  5
6380
330
6377
100
AcDbEntity
  8
0
  6
CONTINUOUS
100
AcDbLine
 10
12.26956908721338
 20
4.65356918600293
 30
0.0
 11
13.31878033060221
 21
5.702780429391757
 31
0.0
  0
LINE
  5
6381
330
6377
100
AcDbEntity
  8
0
  6
CONTINUOUS
100
AcDbLine
 10
12.46914983798851
 20
4.179630727697873
 30
0.0
 11
13.51836606757532
 21
5.228846957284683
 31
0.0
  0
LINE
  5
6382
330
6377
100
AcDbEntity
  8
0
  6
CONTINUOUS
100
AcDbLine
 10
12.66873058876364
 20
3.705692269392816
 30
0.0
 11
13.71795180454843
 21
4.754913485177607
 31
0.0
  0
LINE
  5
6383
330
6377
100
AcDbEntity
  8
0
  6
CONTINUOUS
100
AcDbLine
 10
12.86831133953877
 20
3.231753811087759
 30
0.0
 11
13.91753754152154
 21
4.280980013070531
 31
0.0
  0
LINE
  5
6384
330
6377
100
AcDbEntity
  8
0
  6
CONTINUOUS
100
AcDbLine
 10
13.0678920903139
 20
2.757815352782702
 30
0.0
 11
14.11712327849465
 21
3.807046540963456
 31
0.0
  0
LINE
  5
6385
330
6377
100
AcDbEntity
  8
0
  6
CONTINUOUS
100
AcDbLine
 10
13.26747284108903
 20
2.283876894477644
 30
0.0
 11
14.31670901546777
 21
3.333113068856379
 31
0.0
  0
LINE
  5
6386
330
6377
100
AcDbEntity
  8
0
  6
CONTINUOUS
100
AcDbLine
 10
16.36767838827179
 20
8.751678487061342
 30
0.0
 11
16.50332410898388
 21
8.887324207773432
 31
0.0
  0
LINE
  5
6387
330
6377
100
AcDbEntity
  8
0
  6
CONTINUOUS
100
AcDbLine
 10
15.96190732182191
 20
7.67238821153127
 30
0.0
 11
16.68735328004734
 21
8.397834169756699
 31
0.0
  0
LINE
  5
6388
330
6377
100
AcDbEntity
  8
0
  6
CONTINUOUS
100
AcDbLine
 10
15.55613625537202
 20
6.593097936001196
 30
0.0
 11
16.87138245111079
 21
7.908344131739965
 31
0.0
  0
LINE
  5
6389
330
6377
100
AcDbEntity
  8
0
  6
CONTINUOUS
100
AcDbLine
 10
15.15036518892213
 20
5.513807660471122
 30
0.0
 11
17.05541162217424
 21
7.418854093723231
 31
0.0
  0
LINE
  5
638A
330
6377
100
AcDbEntity
  8
0
  6
CONTINUOUS
100
AcDbLine
 10
14.74459412247225
 20
4.434517384941048
 30
0.0
 11
17.2394407932377
 21
6.929364055706499
 31
0.0
  0
LINE
  5
638B
330
6377
100
AcDbEntity
  8
0
  6
CONTINUOUS
100
AcDbLine
 10
14.33882305602236
 20
3.355227109410975
 30
0.0
 11
17.42346996430115
 21
6.439874017689766
 31
0.0
  0
LINE
  5
638C
330
6377
100
AcDbEntity
  8
0
  6
CONTINUOUS
100
AcDbLine
 10
13.46705359186416
 20
1.809938436172586
 30
0.0
 11
16.0819338255367
 21
4.424818669845129
 31
0.0
  0
LINE
  5
638D
330
6377
100
AcDbEntity
  8
0
  6
CONTINUOUS
100
AcDbLine
 10
16.63283254238972
 20
4.975717386698149
 30
0.0
 11
17.60749913536461
 21
5.950383979673033
 31
0.0
  0
LINE
  5
638E
330
6377
100
AcDbEntity
  8
0
  6
CONTINUOUS
100
AcDbLine
 10
13.66663434263929
 20
1.335999977867529
 30
0.0
 11
15.67604797733754
 21
3.345413612565779
 31
0.0
  0
LINE
  5
638F
330
6377
100
AcDbEntity
  8
0
  6
CONTINUOUS
100
AcDbLine
 10
13.86621509341442
 20
0.8620615195624723
 30
0.0
 11
15.27016212913838
 21
2.26600855528643
 31
0.0
  0
LINE
  5
6390
330
6377
100
AcDbEntity
  8
0
  6
CONTINUOUS
100
AcDbLine
 10
16.81682257348267
 20
4.486188208710908
 30
0.0
 11
17.79152830642806
 21
5.460893941656299
 31
0.0
  0
LINE
  5
6391
330
6377
100
AcDbEntity
  8
0
  6
CONTINUOUS
100
AcDbLine
 10
17.00081260457561
 20
3.996659030723667
 30
0.0
 11
17.97555747749151
 21
4.971403903639565
 31
0.0
  0
LINE
  5
6392
330
6377
100
AcDbEntity
  8
0
  6
CONTINUOUS
100
AcDbLine
 10
20.74362343514722
 20
8.412989070375462
 30
0.0
 11
21.09373436476302
 21
8.763099999991256
 31
0.0
  0
LINE
  5
6393
330
6377
100
AcDbEntity
  8
0
  6
CONTINUOUS
100
AcDbLine
 10
20.25401257174777
 20
7.249858997895826
 30
0.0
 11
21.7672535738432
 21
8.763099999991255
 31
0.0
  0
LINE
  5
6394
330
6377
100
AcDbEntity
  8
0
  6
CONTINUOUS
100
AcDbLine
 10
14.06579584418955
 20
0.3881230612574149
 30
0.0
 11
14.86427628093921
 21
1.186603498007082
 31
0.0
  0
LINE
  5
6395
330
6377
100
AcDbEntity
  8
0
  6
CONTINUOUS
100
AcDbLine
 10
14.26537659496467
 20
-0.0858153970476412
 30
0.0
 11
14.45839043274005
 21
0.1071984407277329
 31
0.0
  0
LINE
  5
6396
330
6377
100
AcDbEntity
  8
0
  6
CONTINUOUS
100
AcDbLine
 10
17.18480263566856
 20
3.507129852736426
 30
0.0
 11
18.15958664855496
 21
4.481913865622833
 31
0.0
  0
LINE
  5
6397
330
6377
100
AcDbEntity
  8
0
  6
CONTINUOUS
100
AcDbLine
 10
17.3687926667615
 20
3.017600674749186
 30
0.0
 11
18.34361581961842
 21
3.9924238276061
 31
0.0
  0
LINE
  5
6398
330
6377
100
AcDbEntity
  8
0
  6
CONTINUOUS
100
AcDbLine
 10
19.76440170834832
 20
6.086728925416191
 30
0.0
 11
22.33924590259489
 21
8.661573119662755
 31
0.0
  0
LINE
  5
6399
330
6377
100
AcDbEntity
  8
0
  6
CONTINUOUS
100
AcDbLine
 10
19.27479084494887
 20
4.923598852936555
 30
0.0
 11
21.84929622842713
 21
7.498104236414807
 31
0.0
  0
LINE
  5
639A
330
6377
100
AcDbEntity
  8
0
  6
CONTINUOUS
100
AcDbLine
 10
17.55278269785445
 20
2.528071496761945
 30
0.0
 11
18.52764499068187
 21
3.502933789589366
 31
0.0
  0
LINE
  5
639B
330
6377
100
AcDbEntity
  8
0
  6
CONTINUOUS
100
AcDbLine
 10
18.78517998154942
 20
3.760468780456919
 30
0.0
 11
21.35934655425936
 21
6.33463535316686
 31
0.0
  0
LINE
  5
639C
330
6377
100
AcDbEntity
  8
0
  6
CONTINUOUS
100
AcDbLine
 10
17.73677272894739
 20
2.038542318774704
 30
0.0
 11
20.8693968800916
 21
5.171166469918914
 31
0.0
  0
LINE
  5
639D
330
6377
100
AcDbEntity
  8
0
  6
CONTINUOUS
100
AcDbLine
 10
17.92076276004034
 20
1.549013140787464
 30
0.0
 11
20.37944720592384
 21
4.007697586670968
 31
0.0
  0
LINE
  5
639E
330
6377
100
AcDbEntity
  8
0
  6
CONTINUOUS
100
AcDbLine
 10
18.10475279113329
 20
1.059483962800223
 30
0.0
 11
19.88949753175608
 21
2.84422870342302
 31
0.0
  0
LINE
  5
639F
330
6377
100
AcDbEntity
  8
0
  6
CONTINUOUS
100
AcDbLine
 10
18.28874282222623
 20
0.5699547848129822
 30
0.0
 11
19.39954785758832
 21
1.680759820175074
 31
0.0
  0
LINE
  5
63A0
330
6377
100
AcDbEntity
  8
0
  6
CONTINUOUS
100
AcDbLine
 10
18.47273285331918
 20
0.0804256068257416
 30
0.0
 11
18.90959818342056
 21
0.517290936927127
 31
0.0
  0
LINE
  5
63A1
330
6377
100
AcDbEntity
  8
0
  6
CONTINUOUS
100
AcDbLine
 10
14.3590401358224
 20
-0.1570118376323384
 30
0.0
 11
14.24903296539946
 21
-0.0470046672093929
 31
0.0
  0
LINE
  5
63A2
330
6377
100
AcDbEntity
  8
0
  6
CONTINUOUS
100
AcDbLine
 10
14.54309291258661
 20
0.332454594683643
 30
0.0
 11
13.75908329123172
 21
1.116464216038529
 31
0.0
  0
LINE
  5
63A3
330
6377
100
AcDbEntity
  8
0
  6
CONTINUOUS
100
AcDbLine
 10
14.72714568935081
 20
0.8219210269996244
 30
0.0
 11
13.26913361706399
 21
2.27993309928645
 31
0.0
  0
LINE
  5
63A4
330
6377
100
AcDbEntity
  8
0
  6
CONTINUOUS
100
AcDbLine
 10
14.91119846611502
 20
1.311387459315606
 30
0.0
 11
12.77918394289625
 21
3.443401982534371
 31
0.0
  0
LINE
  5
63A5
330
6377
100
AcDbEntity
  8
0
  6
CONTINUOUS
100
AcDbLine
 10
15.09525124287922
 20
1.800853891631587
 30
0.0
 11
12.28923426872852
 21
4.606870865782293
 31
0.0
  0
LINE
  5
63A6
330
6377
100
AcDbEntity
  8
0
  6
CONTINUOUS
100
AcDbLine
 10
15.27930401964343
 20
2.290320323947569
 30
0.0
 11
11.79928459456078
 21
5.770339749030213
 31
0.0
  0
LINE
  5
63A7
330
6377
100
AcDbEntity
  8
0
  6
CONTINUOUS
100
AcDbLine
 10
15.46335679640763
 20
2.77978675626355
 30
0.0
 11
14.48885470994921
 21
3.754288842721972
 31
0.0
  0
LINE
  5
63A8
330
6377
100
AcDbEntity
  8
0
  6
CONTINUOUS
100
AcDbLine
 10
13.88507249233704
 20
4.358071060334137
 30
0.0
 11
11.30933492039305
 21
6.933808632278135
 31
0.0
  0
LINE
  5
63A9
330
6377
100
AcDbEntity
  8
0
  6
CONTINUOUS
100
AcDbLine
 10
18.75840522805855
 20
0.1582575336928151
 30
0.0
 11
18.25383727664818
 21
0.6628254851031863
 31
0.0
  0
LINE
  5
63AA
330
6377
100
AcDbEntity
  8
0
  6
CONTINUOUS
100
AcDbLine
 10
15.64740957317184
 20
3.269253188579531
 30
0.0
 11
14.67288388101266
 21
4.243778880738705
 31
0.0
  0
LINE
  5
63AB
330
6377
100
AcDbEntity
  8
0
  6
CONTINUOUS
100
AcDbLine
 10
13.39509276772158
 20
5.521569994029786
 30
0.0
 11
10.81938524622531
 21
8.097277515526056
 31
0.0
  0
LINE
  5
63AC
330
6377
100
AcDbEntity
  8
0
  6
CONTINUOUS
100
AcDbLine
 10
18.95798597883369
 20
0.6321959919978686
 30
0.0
 11
17.84825644852853
 21
1.741925522303024
 31
0.0
  0
LINE
  5
63AD
330
6377
100
AcDbEntity
  8
0
  6
CONTINUOUS
100
AcDbLine
 10
19.15756672960882
 20
1.106134450302922
 30
0.0
 11
17.44267562040888
 21
2.821025559502861
 31
0.0
  0
LINE
  5
63AE
330
6377
100
AcDbEntity
  8
0
  6
CONTINUOUS
100
AcDbLine
 10
15.83146234993604
 20
3.758719620895513
 30
0.0
 11
14.85691305207612
 21
4.733268918755439
 31
0.0
  0
LINE
  5
63AF
330
6377
100
AcDbEntity
  8
0
  6
CONTINUOUS
100
AcDbLine
 10
16.01551512670025
 20
4.248186053211494
 30
0.0
 11
15.04094222313957
 21
5.222758956772172
 31
0.0
  0
LINE
  5
63B0
330
6377
100
AcDbEntity
  8
0
  6
CONTINUOUS
100
AcDbLine
 10
12.90511304310612
 20
6.685068927725435
 30
0.0
 11
10.8270819708403
 21
8.763099999991255
 31
0.0
  0
LINE
  5
63B1
330
6377
100
AcDbEntity
  8
0
  6
CONTINUOUS
100
AcDbLine
 10
12.41513331849066
 20
7.848567861421083
 30
0.0
 11
11.50060117992049
 21
8.763099999991255
 31
0.0
  0
LINE
  5
63B2
330
6377
100
AcDbEntity
  8
0
  6
CONTINUOUS
100
AcDbLine
 10
19.35714748038395
 20
1.580072908607975
 30
0.0
 11
17.03709479228923
 21
3.900125596702697
 31
0.0
  0
LINE
  5
63B3
330
6377
100
AcDbEntity
  8
0
  6
CONTINUOUS
100
AcDbLine
 10
19.55672823115909
 20
2.054011366913028
 30
0.0
 11
16.63151396416958
 21
4.979225633902534
 31
0.0
  0
LINE
  5
63B4
330
6377
100
AcDbEntity
  8
0
  6
CONTINUOUS
100
AcDbLine
 10
16.19956790346445
 20
4.737652485527476
 30
0.0
 11
15.22497139420302
 21
5.712248994788904
 31
0.0
  0
LINE
  5
63B5
330
6377
100
AcDbEntity
  8
0
  6
CONTINUOUS
100
AcDbLine
 10
16.38362068022866
 20
5.227118917843457
 30
0.0
 11
15.40900056526648
 21
6.201739032805637
 31
0.0
  0
LINE
  5
63B6
330
6377
100
AcDbEntity
  8
0
  6
CONTINUOUS
100
AcDbLine
 10
19.75630898193422
 20
2.527949825218081
 30
0.0
 11
18.70774536448286
 21
3.576513442669441
 31
0.0
  0
LINE
  5
63B7
330
6377
100
AcDbEntity
  8
0
  6
CONTINUOUS
100
AcDbLine
 10
19.95588973270936
 20
3.001888283523134
 30
0.0
 11
18.90726987211446
 21
4.050508144118028
 31
0.0
  0
LINE
  5
63B8
330
6377
100
AcDbEntity
  8
0
  6
CONTINUOUS
100
AcDbLine
 10
20.15547048348449
 20
3.475826741828186
 30
0.0
 11
19.10679437974606
 21
4.524502845566614
 31
0.0
  0
LINE
  5
63B9
330
6377
100
AcDbEntity
  8
0
  6
CONTINUOUS
100
AcDbLine
 10
20.35505123425962
 20
3.94976520013324
 30
0.0
 11
19.30631888737766
 21
4.998497547015201
 31
0.0
  0
LINE
  5
63BA
330
6377
100
AcDbEntity
  8
0
  6
CONTINUOUS
100
AcDbLine
 10
20.55463198503475
 20
4.423703658438292
 30
0.0
 11
19.50584339500926
 21
5.472492248463787
 31
0.0
  0
LINE
  5
63BB
330
6377
100
AcDbEntity
  8
0
  6
CONTINUOUS
100
AcDbLine
 10
18.37481191085755
 20
3.909446896294752
 30
0.0
 11
15.59302973632993
 21
6.691229070822371
 31
0.0
  0
LINE
  5
63BC
330
6377
100
AcDbEntity
  8
0
  6
CONTINUOUS
100
AcDbLine
 10
17.96904084440766
 20
4.988737171824825
 30
0.0
 11
15.77705890739338
 21
7.180719108839104
 31
0.0
  0
LINE
  5
63BD
330
6377
100
AcDbEntity
  8
0
  6
CONTINUOUS
100
AcDbLine
 10
17.56326977795777
 20
6.068027447354899
 30
0.0
 11
15.96108807845684
 21
7.670209146855838
 31
0.0
  0
LINE
  5
63BE
330
6377
100
AcDbEntity
  8
0
  6
CONTINUOUS
100
AcDbLine
 10
17.15749871150789
 20
7.147317722884972
 30
0.0
 11
16.14511724952029
 21
8.15969918487257
 31
0.0
  0
LINE
  5
63BF
330
6377
100
AcDbEntity
  8
0
  6
CONTINUOUS
100
AcDbLine
 10
16.751727645058
 20
8.226607998415046
 30
0.0
 11
16.32914642058374
 21
8.649189222889303
 31
0.0
  0
LINE
  5
63C0
330
6377
100
AcDbEntity
  8
0
  6
CONTINUOUS
100
AcDbLine
 10
20.75421273580989
 20
4.897642116743345
 30
0.0
 11
19.70536790264086
 21
5.946486949912374
 31
0.0
  0
LINE
  5
63C1
330
6377
100
AcDbEntity
  8
0
  6
CONTINUOUS
100
AcDbLine
 10
20.95379348658502
 20
5.371580575048398
 30
0.0
 11
19.90489241027246
 21
6.42048165136096
 31
0.0
  0
LINE
  5
63C2
330
6377
100
AcDbEntity
  8
0
  6
CONTINUOUS
100
AcDbLine
 10
21.15337423736015
 20
5.845519033353452
 30
0.0
 11
20.10441691790406
 21
6.894476352809547
 31
0.0
  0
LINE
  5
63C3
330
6377
100
AcDbEntity
  8
0
  6
CONTINUOUS
100
AcDbLine
 10
21.35295498813529
 20
6.319457491658505
 30
0.0
 11
20.30394142553566
 21
7.368471054258134
 31
0.0
  0
LINE
  5
63C4
330
6377
100
AcDbEntity
  8
0
  6
CONTINUOUS
100
AcDbLine
 10
21.55253573891042
 20
6.793395949963558
 30
0.0
 11
20.50346593316726
 21
7.842465755706721
 31
0.0
  0
LINE
  5
63C5
330
6377
100
AcDbEntity
  8
0
  6
CONTINUOUS
100
AcDbLine
 10
21.75211648968556
 20
7.267334408268612
 30
0.0
 11
20.70299044079886
 21
8.316460457155308
 31
0.0
  0
LINE
  5
63C6
330
6377
100
AcDbEntity
  8
0
  6
CONTINUOUS
100
AcDbLine
 10
21.95169724046069
 20
7.741272866573663
 30
0.0
 11
20.9298701070431
 21
8.763099999991256
 31
0.0
  0
LINE
  5
63C7
330
6377
100
AcDbEntity
  8
0
  6
CONTINUOUS
100
AcDbLine
 10
22.15127799123582
 20
8.215211324878716
 30
0.0
 11
21.60338931612328
 21
8.763099999991256
 31
0.0
  0
LINE
  5
63C8
330
6377
100
AcDbEntity
  8
0
  6
CONTINUOUS
100
AcDbLine
 10
22.35085874201096
 20
8.689149783183769
 30
0.0
 11
22.27690852520347
 21
8.763099999991255
 31
0.0
  0
ENDBLK
  5
64BA
330
6377
100
AcDbEntity
  8
0
100
AcDbBlockEnd
  0
BLOCK
  5
64BB
330
63C9
100
AcDbEntity
  8
0
100
AcDbBlockBegin
  2
*X57
 70
     1
 10
0.0
 20
0.0
 30
0.0
  3
*X57
  1

  0
LINE
  5
63CA
330
63C9
100
AcDbEntity
  8
0
  6
CONTINUOUS
100
AcDbLine
 10
23.19462913593892
 20
8.169917934846424
 30
0.0
 11
23.70775465517246
 21
8.683043454079957
 31
0.0
  0
LINE
  5
63CB
330
63C9
100
AcDbEntity
  8
0
  6
CONTINUOUS
100
AcDbLine
 10
22.64923161835078
 20
6.951001208178088
 30
0.0
 11
23.9159364069932
 21
8.217705996820516
 31
0.0
  0
LINE
  5
63CC
330
63C9
100
AcDbEntity
  8
0
  6
CONTINUOUS
100
AcDbLine
 10
22.10383410076263
 20
5.732084481509751
 30
0.0
 11
24.12411815881395
 21
7.752368539561078
 31
0.0
  0
LINE
  5
63CD
330
63C9
100
AcDbEntity
  8
0
  6
CONTINUOUS
100
AcDbLine
 10
21.55843658317447
 20
4.513167754841414
 30
0.0
 11
24.3322999106347
 21
7.287031082301639
 31
0.0
  0
LINE
  5
63CE
330
63C9
100
AcDbEntity
  8
0
  6
CONTINUOUS
100
AcDbLine
 10
21.01303906558632
 20
3.294251028173077
 30
0.0
 11
24.54048166245544
 21
6.821693625042199
 31
0.0
  0
LINE
  5
63CF
330
63C9
100
AcDbEntity
  8
0
  6
CONTINUOUS
100
AcDbLine
 10
20.46764154799817
 20
2.075334301504738
 30
0.0
 11
23.28571549467848
 21
4.89340824818505
 31
0.0
  0
LINE
  5
63D0
330
63C9
100
AcDbEntity
  8
0
  6
CONTINUOUS
100
AcDbLine
 10
19.92224403041002
 20
0.8564175748364002
 30
0.0
 11
22.74075865492779
 21
3.674932199354171
 31
0.0
  0
LINE
  5
63D1
330
63C9
100
AcDbEntity
  8
0
  6
CONTINUOUS
100
AcDbLine
 10
23.67305085490148
 20
5.280743608408048
 30
0.0
 11
24.74866341427619
 21
6.356356167782759
 31
0.0
  0
LINE
  5
63D2
330
63C9
100
AcDbEntity
  8
0
  6
CONTINUOUS
100
AcDbLine
 10
23.88118970842314
 20
4.815363252849522
 30
0.0
 11
24.95684516609694
 21
5.89101871052332
 31
0.0
  0
LINE
  5
63D3
330
63C9
100
AcDbEntity
  8
0
  6
CONTINUOUS
100
AcDbLine
 10
19.73925852647308
 20
-0.0000871381807288
 30
0.0
 11
23.4103456646501
 21
3.670999999996297
 31
0.0
  0
LINE
  5
63D4
330
63C9
100
AcDbEntity
  8
0
  6
CONTINUOUS
100
AcDbLine
 10
24.0893285619448
 20
4.349982897290997
 30
0.0
 11
25.16502691791769
 21
5.42568125326388
 31
0.0
  0
LINE
  5
63D5
330
63C9
100
AcDbEntity
  8
0
  6
CONTINUOUS
100
AcDbLine
 10
20.41282099582748
 20
-0.0000438779065108
 30
0.0
 11
21.64944178675636
 21
1.236576913022366
 31
0.0
  0
LINE
  5
63D6
330
63C9
100
AcDbEntity
  8
0
  6
CONTINUOUS
100
AcDbLine
 10
22.78126487373161
 20
2.36839999999762
 30
0.0
 11
24.08386487373029
 21
3.670999999996297
 31
0.0
  0
LINE
  5
63D7
330
63C9
100
AcDbEntity
  8
0
  6
CONTINUOUS
100
AcDbLine
 10
24.29746741546646
 20
3.884602541732471
 30
0.0
 11
25.37320866973843
 21
4.960343796004441
 31
0.0
  0
LINE
  5
63D8
330
63C9
100
AcDbEntity
  8
0
  6
CONTINUOUS
100
AcDbLine
 10
21.08638346518189
 20
-0.0000006176322938
 30
0.0
 11
21.10379033335899
 21
0.0174062505448083
 31
0.0
  0
LINE
  5
63D9
330
63C9
100
AcDbEntity
  8
0
  6
CONTINUOUS
100
AcDbLine
 10
23.4547840828118
 20
2.36839999999762
 30
0.0
 11
25.58139042155918
 21
4.495006338745002
 31
0.0
  0
LINE
  5
63DA
330
63C9
100
AcDbEntity
  8
0
  6
CONTINUOUS
100
AcDbLine
 10
29.30199999996933
 20
8.215615917155148
 30
0.0
 11
29.84948408280543
 21
8.763099999991255
 31
0.0
  0
LINE
  5
63DB
330
63C9
100
AcDbEntity
  8
0
  6
CONTINUOUS
100
AcDbLine
 10
24.12830329189199
 20
2.36839999999762
 30
0.0
 11
25.78957217337993
 21
4.029668881485562
 31
0.0
  0
LINE
  5
63DC
330
63C9
100
AcDbEntity
  8
0
  6
CONTINUOUS
100
AcDbLine
 10
29.30199999996933
 20
7.54209670807496
 30
0.0
 11
30.52300329188562
 21
8.763099999991255
 31
0.0
  0
LINE
  5
63DD
330
63C9
100
AcDbEntity
  8
0
  6
CONTINUOUS
100
AcDbLine
 10
24.80182250097217
 20
2.36839999999762
 30
0.0
 11
25.99775392520067
 21
3.564331424226122
 31
0.0
  0
LINE
  5
63DE
330
63C9
100
AcDbEntity
  8
0
  6
CONTINUOUS
100
AcDbLine
 10
29.30199999996933
 20
6.868577498994774
 30
0.0
 11
30.74199999996926
 21
8.308577498994712
 31
0.0
  0
LINE
  5
63DF
330
63C9
100
AcDbEntity
  8
0
  6
CONTINUOUS
100
AcDbLine
 10
25.13028238392013
 20
2.023340673865392
 30
0.0
 11
26.20593567702142
 21
3.098993966966683
 31
0.0
  0
LINE
  5
63E0
330
63C9
100
AcDbEntity
  8
0
  6
CONTINUOUS
100
AcDbLine
 10
25.33838066033617
 20
1.557919741201244
 30
0.0
 11
26.41411742884217
 21
2.633656509707244
 31
0.0
  0
LINE
  5
63E1
330
63C9
100
AcDbEntity
  8
0
  6
CONTINUOUS
100
AcDbLine
 10
25.54647893675221
 20
1.092498808537098
 30
0.0
 11
26.62229918066291
 21
2.168319052447804
 31
0.0
  0
LINE
  5
63E2
330
63C9
100
AcDbEntity
  8
0
  6
CONTINUOUS
100
AcDbLine
 10
25.75457721316825
 20
0.62707787587295
 30
0.0
 11
26.83048093248366
 21
1.702981595188365
 31
0.0
  0
LINE
  5
63E3
330
63C9
100
AcDbEntity
  8
0
  6
CONTINUOUS
100
AcDbLine
 10
29.30199999996933
 20
6.195058289914587
 30
0.0
 11
30.74199999996926
 21
7.635058289914522
 31
0.0
  0
LINE
  5
63E4
330
63C9
100
AcDbEntity
  8
0
  6
CONTINUOUS
100
AcDbLine
 10
29.30199999996933
 20
5.521539080834401
 30
0.0
 11
30.74199999996926
 21
6.961539080834331
 31
0.0
  0
LINE
  5
63E5
330
63C9
100
AcDbEntity
  8
0
  6
CONTINUOUS
100
AcDbLine
 10
29.30199999996933
 20
4.848019871754214
 30
0.0
 11
30.74199999996925
 21
6.288019871754143
 31
0.0
  0
LINE
  5
63E6
330
63C9
100
AcDbEntity
  8
0
  6
CONTINUOUS
100
AcDbLine
 10
29.30199999996933
 20
4.174500662674028
 30
0.0
 11
30.74199999996925
 21
5.614500662673953
 31
0.0
  0
LINE
  5
63E7
330
63C9
100
AcDbEntity
  8
0
  6
CONTINUOUS
100
AcDbLine
 10
25.96267548958429
 20
0.1616569432088024
 30
0.0
 11
27.18411854636669
 21
1.383099999991207
 31
0.0
  0
LINE
  5
63E8
330
63C9
100
AcDbEntity
  8
0
  6
CONTINUOUS
100
AcDbLine
 10
29.30199999996933
 20
3.500981453593841
 30
0.0
 11
30.74199999996925
 21
4.940981453593762
 31
0.0
  0
LINE
  5
63E9
330
63C9
100
AcDbEntity
  8
0
  6
CONTINUOUS
100
AcDbLine
 10
26.50763775544691
 20
0.0330999999912356
 30
0.0
 11
27.85763775544689
 21
1.383099999991223
 31
0.0
  0
LINE
  5
63EA
330
63C9
100
AcDbEntity
  8
0
  6
CONTINUOUS
100
AcDbLine
 10
29.30199999996933
 20
2.827462244513656
 30
0.0
 11
30.74199999996925
 21
4.267462244513574
 31
0.0
  0
LINE
  5
63EB
330
63C9
100
AcDbEntity
  8
0
  6
CONTINUOUS
100
AcDbLine
 10
27.18115696452709
 20
0.0330999999912356
 30
0.0
 11
28.6224847300034
 21
1.474427765467545
 31
0.0
  0
LINE
  5
63EC
330
63C9
100
AcDbEntity
  8
0
  6
CONTINUOUS
100
AcDbLine
 10
29.21067223449293
 20
2.062615269957069
 30
0.0
 11
30.74199999996924
 21
3.593943035433383
 31
0.0
  0
LINE
  5
63ED
330
63C9
100
AcDbEntity
  8
0
  6
CONTINUOUS
100
AcDbLine
 10
27.85467617360728
 20
0.0330999999912356
 30
0.0
 11
30.74199999996924
 21
2.920423826353195
 31
0.0
  0
LINE
  5
63EE
330
63C9
100
AcDbEntity
  8
0
  6
CONTINUOUS
100
AcDbLine
 10
28.57438609860264
 20
0.0792907159064073
 30
0.0
 11
30.69580928405405
 21
2.200713901357819
 31
0.0
  0
LINE
  5
63EF
330
63C9
100
AcDbEntity
  8
0
  6
CONTINUOUS
100
AcDbLine
 10
29.49443044814297
 20
0.3258158563665496
 30
0.0
 11
30.44928414359389
 21
1.280669551817477
 31
0.0
  0
LINE
  5
63F0
330
63C9
100
AcDbEntity
  8
0
  6
CONTINUOUS
100
AcDbLine
 10
19.59027867740337
 20
-0.0000967065718083
 30
0.0
 11
19.55485265190471
 21
0.035329318926844
 31
0.0
  0
LINE
  5
63F1
330
63C9
100
AcDbEntity
  8
0
  6
CONTINUOUS
100
AcDbLine
 10
20.26375463176586
 20
-0.0000534518541091
 30
0.0
 11
19.76305575737534
 21
0.5006454225364014
 31
0.0
  0
LINE
  5
63F2
330
63C9
100
AcDbEntity
  8
0
  6
CONTINUOUS
100
AcDbLine
 10
20.93723058612834
 20
-0.0000101971364099
 30
0.0
 11
19.97125886284597
 21
0.965961526145958
 31
0.0
  0
LINE
  5
63F3
330
63C9
100
AcDbEntity
  8
0
  6
CONTINUOUS
100
AcDbLine
 10
21.25514828313686
 20
0.355591314935257
 30
0.0
 11
20.1794619683166
 21
1.431277629755512
 31
0.0
  0
LINE
  5
63F4
330
63C9
100
AcDbEntity
  8
0
  6
CONTINUOUS
100
AcDbLine
 10
21.46338838394921
 20
0.8208704232030986
 30
0.0
 11
20.38766507378723
 21
1.896593733365069
 31
0.0
  0
LINE
  5
63F5
330
63C9
100
AcDbEntity
  8
0
  6
CONTINUOUS
100
AcDbLine
 10
21.67162848476155
 20
1.28614953147094
 30
0.0
 11
20.59586817925786
 21
2.361909836974626
 31
0.0
  0
LINE
  5
63F6
330
63C9
100
AcDbEntity
  8
0
  6
CONTINUOUS
100
AcDbLine
 10
21.8798685855739
 20
1.751428639738782
 30
0.0
 11
20.80407128472849
 21
2.827225940584183
 31
0.0
  0
LINE
  5
63F7
330
63C9
100
AcDbEntity
  8
0
  6
CONTINUOUS
100
AcDbLine
 10
22.08810868638624
 20
2.216707748006623
 30
0.0
 11
21.01227439019912
 21
3.292542044193739
 31
0.0
  0
LINE
  5
63F8
330
63C9
100
AcDbEntity
  8
0
  6
CONTINUOUS
100
AcDbLine
 10
22.60993564347543
 20
2.36839999999762
 30
0.0
 11
21.22047749566975
 21
3.757858147803296
 31
0.0
  0
LINE
  5
63F9
330
63C9
100
AcDbEntity
  8
0
  6
CONTINUOUS
100
AcDbLine
 10
23.28345485255561
 20
2.36839999999762
 30
0.0
 11
21.42868060114038
 21
4.223174251412853
 31
0.0
  0
LINE
  5
63FA
330
63C9
100
AcDbEntity
  8
0
  6
CONTINUOUS
100
AcDbLine
 10
26.29227406164219
 20
0.0330999999912356
 30
0.0
 11
25.80009199592872
 21
0.5252820657046957
 31
0.0
  0
LINE
  5
63FB
330
63C9
100
AcDbEntity
  8
0
  6
CONTINUOUS
100
AcDbLine
 10
23.9569740616358
 20
2.36839999999762
 30
0.0
 11
21.63688370661101
 21
4.688490355022409
 31
0.0
  0
LINE
  5
63FC
330
63C9
100
AcDbEntity
  8
0
  6
CONTINUOUS
100
AcDbLine
 10
26.96579327072237
 20
0.0330999999912356
 30
0.0
 11
25.2554132311971
 21
1.743480039516508
 31
0.0
  0
LINE
  5
63FD
330
63C9
100
AcDbEntity
  8
0
  6
CONTINUOUS
100
AcDbLine
 10
24.63049327071599
 20
2.36839999999762
 30
0.0
 11
23.32789327071731
 21
3.670999999996297
 31
0.0
  0
LINE
  5
63FE
330
63C9
100
AcDbEntity
  8
0
  6
CONTINUOUS
100
AcDbLine
 10
22.92098674744635
 20
4.077906523267254
 30
0.0
 11
21.84508681208164
 21
5.153806458631966
 31
0.0
  0
LINE
  5
63FF
330
63C9
100
AcDbEntity
  8
0
  6
CONTINUOUS
100
AcDbLine
 10
27.63931247980256
 20
0.0330999999912356
 30
0.0
 11
24.0014124797975
 21
3.670999999996297
 31
0.0
  0
LINE
  5
6400
330
63C9
100
AcDbEntity
  8
0
  6
CONTINUOUS
100
AcDbLine
 10
23.129125600968
 20
4.5432868788258
 30
0.0
 11
22.05328991755227
 21
5.619122562241522
 31
0.0
  0
LINE
  5
6401
330
63C9
100
AcDbEntity
  8
0
  6
CONTINUOUS
100
AcDbLine
 10
28.31283168888275
 20
0.0330999999912356
 30
0.0
 11
24.16488385994816
 21
4.181047828925828
 31
0.0
  0
LINE
  5
6402
330
63C9
100
AcDbEntity
  8
0
  6
CONTINUOUS
100
AcDbLine
 10
23.33726445448964
 20
5.008667234384345
 30
0.0
 11
22.2614930230229
 21
6.084438665851079
 31
0.0
  0
LINE
  5
6403
330
63C9
100
AcDbEntity
  8
0
  6
CONTINUOUS
100
AcDbLine
 10
28.86286302309502
 20
0.1565878748591523
 30
0.0
 11
27.63635089796295
 21
1.383099999991217
 31
0.0
  0
LINE
  5
6404
330
63C9
100
AcDbEntity
  8
0
  6
CONTINUOUS
100
AcDbLine
 10
26.43704649509776
 20
2.582404402856405
 30
0.0
 11
23.61992702019732
 21
5.399523877756844
 31
0.0
  0
LINE
  5
6405
330
63C9
100
AcDbEntity
  8
0
  6
CONTINUOUS
100
AcDbLine
 10
23.54540330801128
 20
5.47404758994289
 30
0.0
 11
22.46969612849353
 21
6.549754769460635
 31
0.0
  0
LINE
  5
6406
330
63C9
100
AcDbEntity
  8
0
  6
CONTINUOUS
100
AcDbLine
 10
29.39405087596853
 20
0.2989192310658284
 30
0.0
 11
28.30987010704312
 21
1.383099999991234
 31
0.0
  0
LINE
  5
6407
330
63C9
100
AcDbEntity
  8
0
  6
CONTINUOUS
100
AcDbLine
 10
25.89179548232307
 20
3.801174624711282
 30
0.0
 11
22.67789923396416
 21
7.015070873070191
 31
0.0
  0
LINE
  5
6408
330
63C9
100
AcDbEntity
  8
0
  6
CONTINUOUS
100
AcDbLine
 10
29.79594438047407
 20
0.570544935640473
 30
0.0
 11
28.81310432793121
 21
1.553384988183336
 31
0.0
  0
LINE
  5
6409
330
63C9
100
AcDbEntity
  8
0
  6
CONTINUOUS
100
AcDbLine
 10
25.34654446954838
 20
5.01994484656616
 30
0.0
 11
22.88610233943479
 21
7.480386976679748
 31
0.0
  0
LINE
  5
640A
330
63C9
100
AcDbEntity
  8
0
  6
CONTINUOUS
100
AcDbLine
 10
30.13270398501416
 20
0.9073045401805646
 30
0.0
 11
29.14234640337737
 21
1.897662121817355
 31
0.0
  0
LINE
  5
640B
330
63C9
100
AcDbEntity
  8
0
  6
CONTINUOUS
100
AcDbLine
 10
24.80129345677369
 20
6.238715068421037
 30
0.0
 11
23.09430544490542
 21
7.945703080289305
 31
0.0
  0
LINE
  5
640C
330
63C9
100
AcDbEntity
  8
0
  6
CONTINUOUS
100
AcDbLine
 10
30.44581292956759
 20
1.26771480470732
 30
0.0
 11
29.30199999996933
 21
2.411527734305588
 31
0.0
  0
LINE
  5
640D
330
63C9
100
AcDbEntity
  8
0
  6
CONTINUOUS
100
AcDbLine
 10
30.58814428577427
 20
1.798902657580827
 30
0.0
 11
29.30199999996933
 21
3.085046943385775
 31
0.0
  0
LINE
  5
640E
330
63C9
100
AcDbEntity
  8
0
  6
CONTINUOUS
100
AcDbLine
 10
24.256042443999
 20
7.457485290275915
 30
0.0
 11
23.30250855037605
 21
8.411019183898862
 31
0.0
  0
LINE
  5
640F
330
63C9
100
AcDbEntity
  8
0
  6
CONTINUOUS
100
AcDbLine
 10
23.71079143122431
 20
8.676255512130794
 30
0.0
 11
23.51071165584668
 21
8.876335287508418
 31
0.0
  0
LINE
  5
6410
330
63C9
100
AcDbEntity
  8
0
  6
CONTINUOUS
100
AcDbLine
 10
30.73047564198095
 20
2.330090510454333
 30
0.0
 11
29.30199999996933
 21
3.758566152465961
 31
0.0
  0
LINE
  5
6411
330
63C9
100
AcDbEntity
  8
0
  6
CONTINUOUS
100
AcDbLine
 10
30.74199999996924
 20
2.992085361546236
 30
0.0
 11
29.30199999996933
 21
4.432085361546148
 31
0.0
  0
LINE
  5
6412
330
63C9
100
AcDbEntity
  8
0
  6
CONTINUOUS
100
AcDbLine
 10
30.74199999996924
 20
3.665604570626419
 30
0.0
 11
29.30199999996933
 21
5.105604570626333
 31
0.0
  0
LINE
  5
6413
330
63C9
100
AcDbEntity
  8
0
  6
CONTINUOUS
100
AcDbLine
 10
30.74199999996925
 20
4.339123779706602
 30
0.0
 11
29.30199999996933
 21
5.77912377970652
 31
0.0
  0
LINE
  5
6414
330
63C9
100
AcDbEntity
  8
0
  6
CONTINUOUS
100
AcDbLine
 10
30.74199999996925
 20
5.012642988786785
 30
0.0
 11
29.30199999996933
 21
6.452642988786707
 31
0.0
  0
LINE
  5
6415
330
63C9
100
AcDbEntity
  8
0
  6
CONTINUOUS
100
AcDbLine
 10
30.74199999996925
 20
5.68616219786697
 30
0.0
 11
29.30199999996933
 21
7.126162197866894
 31
0.0
  0
LINE
  5
6416
330
63C9
100
AcDbEntity
  8
0
  6
CONTINUOUS
100
AcDbLine
 10
30.74199999996925
 20
6.359681406947153
 30
0.0
 11
29.30199999996933
 21
7.799681406947081
 31
0.0
  0
LINE
  5
6417
330
63C9
100
AcDbEntity
  8
0
  6
CONTINUOUS
100
AcDbLine
 10
30.74199999996926
 20
7.033200616027337
 30
0.0
 11
29.30199999996933
 21
8.473200616027269
 31
0.0
  0
LINE
  5
6418
330
63C9
100
AcDbEntity
  8
0
  6
CONTINUOUS
100
AcDbLine
 10
30.74199999996926
 20
7.706719825107518
 30
0.0
 11
29.68561982508552
 21
8.763099999991255
 31
0.0
  0
LINE
  5
6419
330
63C9
100
AcDbEntity
  8
0
  6
CONTINUOUS
100
AcDbLine
 10
30.74199999996926
 20
8.380239034187703
 30
0.0
 11
30.35913903416571
 21
8.763099999991255
 31
0.0
  0
ENDBLK
  5
64BC
330
63C9
100
AcDbEntity
  8
0
100
AcDbBlockEnd
  0
BLOCK
  5
64BD
330
641A
100
AcDbEntity
  8
0
100
AcDbBlockBegin
  2
*X58
 70
     1
 10
0.0
 20
0.0
 30
0.0
  3
*X58
  1

  0
LINE
  5
641B
330
641A
100
AcDbEntity
  8
0
  6
CONTINUOUS
100
AcDbLine
 10
31.64199999996833
 20
8.5350582899136
 30
0.0
 11
31.87004171004599
 21
8.763099999991255
 31
0.0
  0
LINE
  5
641C
330
641A
100
AcDbEntity
  8
0
  6
CONTINUOUS
100
AcDbLine
 10
31.64199999996833
 20
7.861539080833413
 30
0.0
 11
32.54356091912618
 21
8.763099999991255
 31
0.0
  0
LINE
  5
641D
330
641A
100
AcDbEntity
  8
0
  6
CONTINUOUS
100
AcDbLine
 10
31.64199999996833
 20
7.188019871753227
 30
0.0
 11
33.08199999996839
 21
8.628019871753281
 31
0.0
  0
LINE
  5
641E
330
641A
100
AcDbEntity
  8
0
  6
CONTINUOUS
100
AcDbLine
 10
31.64199999996833
 20
6.514500662673041
 30
0.0
 11
33.08199999996839
 21
7.954500662673095
 31
0.0
  0
LINE
  5
641F
330
641A
100
AcDbEntity
  8
0
  6
CONTINUOUS
100
AcDbLine
 10
31.64199999996833
 20
5.840981453592855
 30
0.0
 11
33.08199999996839
 21
7.28098145359291
 31
0.0
  0
LINE
  5
6420
330
641A
100
AcDbEntity
  8
0
  6
CONTINUOUS
100
AcDbLine
 10
31.64199999996833
 20
5.167462244512668
 30
0.0
 11
33.08199999996839
 21
6.607462244512723
 31
0.0
  0
LINE
  5
6421
330
641A
100
AcDbEntity
  8
0
  6
CONTINUOUS
100
AcDbLine
 10
31.64199999996833
 20
4.493943035432482
 30
0.0
 11
33.08199999996839
 21
5.933943035432536
 31
0.0
  0
LINE
  5
6422
330
641A
100
AcDbEntity
  8
0
  6
CONTINUOUS
100
AcDbLine
 10
31.64199999996833
 20
3.820423826352294
 30
0.0
 11
33.08199999996839
 21
5.260423826352349
 31
0.0
  0
LINE
  5
6423
330
641A
100
AcDbEntity
  8
0
  6
CONTINUOUS
100
AcDbLine
 10
31.64199999996833
 20
3.146904617272108
 30
0.0
 11
33.08199999996839
 21
4.586904617272163
 31
0.0
  0
LINE
  5
6424
330
641A
100
AcDbEntity
  8
0
  6
CONTINUOUS
100
AcDbLine
 10
36.23199999996837
 20
8.410423826352327
 30
0.0
 11
36.58467617360729
 21
8.763099999991255
 31
0.0
  0
LINE
  5
6425
330
641A
100
AcDbEntity
  8
0
  6
CONTINUOUS
100
AcDbLine
 10
36.23199999996837
 20
7.73690461727214
 30
0.0
 11
37.25819538268748
 21
8.763099999991255
 31
0.0
  0
LINE
  5
6426
330
641A
100
AcDbEntity
  8
0
  6
CONTINUOUS
100
AcDbLine
 10
31.64323424774199
 20
2.474619655965573
 30
0.0
 11
33.08199999996839
 21
3.913385408191976
 31
0.0
  0
LINE
  5
6427
330
641A
100
AcDbEntity
  8
0
  6
CONTINUOUS
100
AcDbLine
 10
31.74419223861915
 20
1.902058437762552
 30
0.0
 11
33.08199999996839
 21
3.239866199111789
 31
0.0
  0
LINE
  5
6428
330
641A
100
AcDbEntity
  8
0
  6
CONTINUOUS
100
AcDbLine
 10
36.23199999996837
 20
7.063385408191953
 30
0.0
 11
37.67199999996831
 21
8.503385408191894
 31
0.0
  0
LINE
  5
6429
330
641A
100
AcDbEntity
  8
0
  6
CONTINUOUS
100
AcDbLine
 10
36.23199999996837
 20
6.389866199111767
 30
0.0
 11
37.67199999996831
 21
7.829866199111708
 31
0.0
  0
LINE
  5
642A
330
641A
100
AcDbEntity
  8
0
  6
CONTINUOUS
100
AcDbLine
 10
31.91111233414976
 20
1.39545932421297
 30
0.0
 11
33.08199999996839
 21
2.566346990031603
 31
0.0
  0
LINE
  5
642B
330
641A
100
AcDbEntity
  8
0
  6
CONTINUOUS
100
AcDbLine
 10
36.23199999996837
 20
5.71634699003158
 30
0.0
 11
37.67199999996831
 21
7.156346990031522
 31
0.0
  0
LINE
  5
642C
330
641A
100
AcDbEntity
  8
0
  6
CONTINUOUS
100
AcDbLine
 10
32.1576374746103
 20
0.9684652555933289
 30
0.0
 11
33.20642631446081
 21
2.017254095443838
 31
0.0
  0
LINE
  5
642D
330
641A
100
AcDbEntity
  8
0
  6
CONTINUOUS
100
AcDbLine
 10
36.23199999996837
 20
5.042827780951393
 30
0.0
 11
37.67199999996831
 21
6.482827780951334
 31
0.0
  0
LINE
  5
642E
330
641A
100
AcDbEntity
  8
0
  6
CONTINUOUS
100
AcDbLine
 10
32.47774023927325
 20
0.6150488111760914
 30
0.0
 11
33.49903056428258
 21
1.636339136185419
 31
0.0
  0
LINE
  5
642F
330
641A
100
AcDbEntity
  8
0
  6
CONTINUOUS
100
AcDbLine
 10
36.23199999996837
 20
4.369308571871207
 30
0.0
 11
37.67199999996831
 21
5.809308571871148
 31
0.0
  0
LINE
  5
6430
330
641A
100
AcDbEntity
  8
0
  6
CONTINUOUS
100
AcDbLine
 10
32.84396249154443
 20
0.3077518543670883
 30
0.0
 11
33.93324121824649
 21
1.397030581069146
 31
0.0
  0
LINE
  5
6431
330
641A
100
AcDbEntity
  8
0
  6
CONTINUOUS
100
AcDbLine
 10
36.23199999996837
 20
3.695789362791021
 30
0.0
 11
37.67199999996831
 21
5.135789362790963
 31
0.0
  0
LINE
  5
6432
330
641A
100
AcDbEntity
  8
0
  6
CONTINUOUS
100
AcDbLine
 10
33.30186329036846
 20
0.0921334441109263
 30
0.0
 11
34.46442907112041
 21
1.254699224862875
 31
0.0
  0
LINE
  5
6433
330
641A
100
AcDbEntity
  8
0
  6
CONTINUOUS
100
AcDbLine
 10
36.23199999996837
 20
3.022270153710834
 30
0.0
 11
37.67199999996831
 21
4.462270153710776
 31
0.0
  0
LINE
  5
6434
330
641A
100
AcDbEntity
  8
0
  6
CONTINUOUS
100
AcDbLine
 10
33.79565647746294
 20
-0.0875925778747773
 30
0.0
 11
35.24350171668284
 21
1.360252661345124
 31
0.0
  0
LINE
  5
6435
330
641A
100
AcDbEntity
  8
0
  6
CONTINUOUS
100
AcDbLine
 10
36.18336676155003
 20
2.300117706212308
 30
0.0
 11
37.67199999996831
 21
3.788750944630589
 31
0.0
  0
LINE
  5
6436
330
641A
100
AcDbEntity
  8
0
  6
CONTINUOUS
100
AcDbLine
 10
34.37182574910968
 20
-0.184942515308224
 30
0.0
 11
37.67199999996831
 21
3.115231735550402
 31
0.0
  0
LINE
  5
6437
330
641A
100
AcDbEntity
  8
0
  6
CONTINUOUS
100
AcDbLine
 10
35.0453449581892
 20
-0.1849425153088955
 30
0.0
 11
37.66345697088136
 21
2.433169497383271
 31
0.0
  0
LINE
  5
6438
330
641A
100
AcDbEntity
  8
0
  6
CONTINUOUS
100
AcDbLine
 10
35.98667157609191
 20
0.0828648935136398
 30
0.0
 11
37.51927401744566
 21
1.615467334867382
 31
0.0
  0
LINE
  5
6439
330
641A
100
AcDbEntity
  8
0
  6
CONTINUOUS
100
AcDbLine
 10
32.27747408544484
 20
0.7830920669904482
 30
0.0
 11
32.24716210471949
 21
0.8134040477157893
 31
0.0
  0
LINE
  5
643A
330
641A
100
AcDbEntity
  8
0
  6
CONTINUOUS
100
AcDbLine
 10
33.83656881101902
 20
-0.1024834495035494
 30
0.0
 11
31.72538911593758
 21
2.008696245577891
 31
0.0
  0
LINE
  5
643B
330
641A
100
AcDbEntity
  8
0
  6
CONTINUOUS
100
AcDbLine
 10
34.5925470859041
 20
-0.1849425153084434
 30
0.0
 11
31.64199999996833
 21
2.765604570627322
 31
0.0
  0
LINE
  5
643C
330
641A
100
AcDbEntity
  8
0
  6
CONTINUOUS
100
AcDbLine
 10
35.26201302775981
 20
-0.1808892480839752
 30
0.0
 11
31.64199999996833
 21
3.439123779707508
 31
0.0
  0
LINE
  5
643D
330
641A
100
AcDbEntity
  8
0
  6
CONTINUOUS
100
AcDbLine
 10
35.75580621485512
 20
-0.0011632260990879
 30
0.0
 11
34.51294304365551
 21
1.241699945100514
 31
0.0
  0
LINE
  5
643E
330
641A
100
AcDbEntity
  8
0
  6
CONTINUOUS
100
AcDbLine
 10
33.08199999996839
 20
2.672642988787641
 30
0.0
 11
31.64199999996833
 21
4.112642988787695
 31
0.0
  0
LINE
  5
643F
330
641A
100
AcDbEntity
  8
0
  6
CONTINUOUS
100
AcDbLine
 10
36.24959940195042
 20
0.1785627958857976
 30
0.0
 11
35.10501653033629
 21
1.323145667499924
 31
0.0
  0
LINE
  5
6440
330
641A
100
AcDbEntity
  8
0
  6
CONTINUOUS
100
AcDbLine
 10
33.08199999996839
 20
3.346162197867827
 30
0.0
 11
31.64199999996833
 21
4.786162197867881
 31
0.0
  0
LINE
  5
6441
330
641A
100
AcDbEntity
  8
0
  6
CONTINUOUS
100
AcDbLine
 10
36.64615197150552
 20
0.4555294354108876
 30
0.0
 11
35.6362043832099
 21
1.465477023706505
 31
0.0
  0
LINE
  5
6442
330
641A
100
AcDbEntity
  8
0
  6
CONTINUOUS
100
AcDbLine
 10
33.08199999996839
 20
4.019681406948013
 30
0.0
 11
31.64199999996833
 21
5.459681406948068
 31
0.0
  0
LINE
  5
6443
330
641A
100
AcDbEntity
  8
0
  6
CONTINUOUS
100
AcDbLine
 10
37.0123742237774
 20
0.7628263922191891
 30
0.0
 11
35.97691545773309
 21
1.798285158263504
 31
0.0
  0
LINE
  5
6444
330
641A
100
AcDbEntity
  8
0
  6
CONTINUOUS
100
AcDbLine
 10
33.08199999996839
 20
4.6932006160282
 30
0.0
 11
31.64199999996833
 21
6.133200616028255
 31
0.0
  0
LINE
  5
6445
330
641A
100
AcDbEntity
  8
0
  6
CONTINUOUS
100
AcDbLine
 10
37.27491524157143
 20
1.173804583505349
 30
0.0
 11
36.17602012811361
 21
2.272699696963169
 31
0.0
  0
LINE
  5
6446
330
641A
100
AcDbEntity
  8
0
  6
CONTINUOUS
100
AcDbLine
 10
33.08199999996839
 20
5.366719825108387
 30
0.0
 11
31.64199999996833
 21
6.806719825108441
 31
0.0
  0
LINE
  5
6447
330
641A
100
AcDbEntity
  8
0
  6
CONTINUOUS
100
AcDbLine
 10
37.51739996707661
 20
1.604839067080355
 30
0.0
 11
36.23199999996837
 21
2.890239034188595
 31
0.0
  0
LINE
  5
6448
330
641A
100
AcDbEntity
  8
0
  6
CONTINUOUS
100
AcDbLine
 10
37.6183579579535
 20
2.177400285283649
 30
0.0
 11
36.23199999996837
 21
3.563758243268782
 31
0.0
  0
LINE
  5
6449
330
641A
100
AcDbEntity
  8
0
  6
CONTINUOUS
100
AcDbLine
 10
33.08199999996839
 20
6.040239034188573
 30
0.0
 11
31.64199999996833
 21
7.480239034188628
 31
0.0
  0
LINE
  5
644A
330
641A
100
AcDbEntity
  8
0
  6
CONTINUOUS
100
AcDbLine
 10
33.08199999996839
 20
6.713758243268759
 30
0.0
 11
31.64199999996833
 21
8.153758243268815
 31
0.0
  0
LINE
  5
644B
330
641A
100
AcDbEntity
  8
0
  6
CONTINUOUS
100
AcDbLine
 10
37.67199999996831
 20
2.797277452349027
 30
0.0
 11
36.23199999996837
 21
4.237277452348969
 31
0.0
  0
LINE
  5
644C
330
641A
100
AcDbEntity
  8
0
  6
CONTINUOUS
100
AcDbLine
 10
37.67199999996831
 20
3.470796661429214
 30
0.0
 11
36.23199999996837
 21
4.910796661429155
 31
0.0
  0
LINE
  5
644D
330
641A
100
AcDbEntity
  8
0
  6
CONTINUOUS
100
AcDbLine
 10
37.67199999996831
 20
4.1443158705094
 30
0.0
 11
36.23199999996837
 21
5.584315870509341
 31
0.0
  0
LINE
  5
644E
330
641A
100
AcDbEntity
  8
0
  6
CONTINUOUS
100
AcDbLine
 10
33.08199999996839
 20
7.387277452348946
 30
0.0
 11
31.70617745232608
 21
8.763099999991255
 31
0.0
  0
LINE
  5
644F
330
641A
100
AcDbEntity
  8
0
  6
CONTINUOUS
100
AcDbLine
 10
33.08199999996839
 20
8.060796661429134
 30
0.0
 11
32.37969666140626
 21
8.763099999991255
 31
0.0
  0
LINE
  5
6450
330
641A
100
AcDbEntity
  8
0
  6
CONTINUOUS
100
AcDbLine
 10
33.08199999996839
 20
8.734315870509318
 30
0.0
 11
33.05321587048645
 21
8.763099999991255
 31
0.0
  0
LINE
  5
6451
330
641A
100
AcDbEntity
  8
0
  6
CONTINUOUS
100
AcDbLine
 10
37.67199999996831
 20
4.817835079589586
 30
0.0
 11
36.23199999996837
 21
6.257835079589528
 31
0.0
  0
LINE
  5
6452
330
641A
100
AcDbEntity
  8
0
  6
CONTINUOUS
100
AcDbLine
 10
37.67199999996831
 20
5.491354288669772
 30
0.0
 11
36.23199999996837
 21
6.931354288669715
 31
0.0
  0
LINE
  5
6453
330
641A
100
AcDbEntity
  8
0
  6
CONTINUOUS
100
AcDbLine
 10
37.67199999996831
 20
6.164873497749959
 30
0.0
 11
36.23199999996837
 21
7.6048734977499
 31
0.0
  0
LINE
  5
6454
330
641A
100
AcDbEntity
  8
0
  6
CONTINUOUS
100
AcDbLine
 10
37.67199999996831
 20
6.838392706830145
 30
0.0
 11
36.23199999996837
 21
8.278392706830086
 31
0.0
  0
LINE
  5
6455
330
641A
100
AcDbEntity
  8
0
  6
CONTINUOUS
100
AcDbLine
 10
37.67199999996831
 20
7.511911915910333
 30
0.0
 11
36.42081191588738
 21
8.763099999991255
 31
0.0
  0
LINE
  5
6456
330
641A
100
AcDbEntity
  8
0
  6
CONTINUOUS
100
AcDbLine
 10
37.67199999996831
 20
8.185431124990519
 30
0.0
 11
37.09433112496757
 21
8.763099999991255
 31
0.0
  0
ENDBLK
  5
64BE
330
641A
100
AcDbEntity
  8
0
100
AcDbBlockEnd
  0
BLOCK
  5
64BF
330
6457
100
AcDbEntity
  8
0
100
AcDbBlockBegin
  2
*X59
 70
     1
 10
0.0
 20
0.0
 30
0.0
  3
*X59
  1

  0
LINE
  5
6458
330
6457
100
AcDbEntity
  8
0
  6
CONTINUOUS
100
AcDbLine
 10
38.60499999996136
 20
8.762866199104765
 30
0.0
 11
38.71672554182345
 21
8.874591740966855
 31
0.0
  0
LINE
  5
6459
330
6457
100
AcDbEntity
  8
0
  6
CONTINUOUS
100
AcDbLine
 10
38.60499999996136
 20
8.089346990024577
 30
0.0
 11
39.03418785440363
 21
8.518534844466847
 31
0.0
  0
LINE
  5
645A
330
6457
100
AcDbEntity
  8
0
  6
CONTINUOUS
100
AcDbLine
 10
38.60499999996136
 20
7.41582778094439
 30
0.0
 11
39.35165016698382
 21
8.16247794796684
 31
0.0
  0
LINE
  5
645B
330
6457
100
AcDbEntity
  8
0
  6
CONTINUOUS
100
AcDbLine
 10
38.60499999996136
 20
6.742308571864204
 30
0.0
 11
39.66911247956399
 21
7.806421051466834
 31
0.0
  0
LINE
  5
645C
330
6457
100
AcDbEntity
  8
0
  6
CONTINUOUS
100
AcDbLine
 10
38.60499999996136
 20
6.068789362784018
 30
0.0
 11
39.98657479214418
 21
7.450364154966827
 31
0.0
  0
LINE
  5
645D
330
6457
100
AcDbEntity
  8
0
  6
CONTINUOUS
100
AcDbLine
 10
38.60499999996136
 20
5.395270153703832
 30
0.0
 11
40.30403710472435
 21
7.09430725846682
 31
0.0
  0
LINE
  5
645E
330
6457
100
AcDbEntity
  8
0
  6
CONTINUOUS
100
AcDbLine
 10
38.60499999996136
 20
4.721750944623645
 30
0.0
 11
40.62149941730453
 21
6.738250361966813
 31
0.0
  0
LINE
  5
645F
330
6457
100
AcDbEntity
  8
0
  6
CONTINUOUS
100
AcDbLine
 10
38.60499999996136
 20
4.048231735543458
 30
0.0
 11
40.93896172988471
 21
6.382193465466806
 31
0.0
  0
LINE
  5
6460
330
6457
100
AcDbEntity
  8
0
  6
CONTINUOUS
100
AcDbLine
 10
38.60499999996136
 20
3.374712526463272
 30
0.0
 11
40.02599999995994
 21
4.795712526461843
 31
0.0
  0
LINE
  5
6461
330
6457
100
AcDbEntity
  8
0
  6
CONTINUOUS
100
AcDbLine
 10
38.60499999996136
 20
2.701193317383085
 30
0.0
 11
40.02599999995994
 21
4.122193317381657
 31
0.0
  0
LINE
  5
6462
330
6457
100
AcDbEntity
  8
0
  6
CONTINUOUS
100
AcDbLine
 10
40.28339754687704
 20
5.053110073378947
 30
0.0
 11
41.25642404246489
 21
6.026136568966799
 31
0.0
  0
LINE
  5
6463
330
6457
100
AcDbEntity
  8
0
  6
CONTINUOUS
100
AcDbLine
 10
40.60085985945722
 20
4.697053176878939
 30
0.0
 11
41.57388635504507
 21
5.670079672466793
 31
0.0
  0
LINE
  5
6464
330
6457
100
AcDbEntity
  8
0
  6
CONTINUOUS
100
AcDbLine
 10
43.57899999995641
 20
8.348712526458318
 30
0.0
 11
43.99338747348935
 21
8.763099999991255
 31
0.0
  0
LINE
  5
6465
330
6457
100
AcDbEntity
  8
0
  6
CONTINUOUS
100
AcDbLine
 10
43.57899999995641
 20
7.675193317378131
 30
0.0
 11
44.66690668256953
 21
8.763099999991255
 31
0.0
  0
LINE
  5
6466
330
6457
100
AcDbEntity
  8
0
  6
CONTINUOUS
100
AcDbLine
 10
38.60499999996136
 20
2.027674108302898
 30
0.0
 11
40.02599999995994
 21
3.44867410830147
 31
0.0
  0
LINE
  5
6467
330
6457
100
AcDbEntity
  8
0
  6
CONTINUOUS
100
AcDbLine
 10
38.60499999996136
 20
1.354154899222712
 30
0.0
 11
40.02599999995994
 21
2.775154899221284
 31
0.0
  0
LINE
  5
6468
330
6457
100
AcDbEntity
  8
0
  6
CONTINUOUS
100
AcDbLine
 10
38.60499999996136
 20
0.6806356901425255
 30
0.0
 11
40.02599999995994
 21
2.101635690141098
 31
0.0
  0
LINE
  5
6469
330
6457
100
AcDbEntity
  8
0
  6
CONTINUOUS
100
AcDbLine
 10
38.60499999996136
 20
0.0071164810623383
 30
0.0
 11
40.02599999995994
 21
1.428116481060911
 31
0.0
  0
LINE
  5
646A
330
6457
100
AcDbEntity
  8
0
  6
CONTINUOUS
100
AcDbLine
 10
40.9183221720374
 20
4.340996280378933
 30
0.0
 11
41.89134866762525
 21
5.314022775966786
 31
0.0
  0
LINE
  5
646B
330
6457
100
AcDbEntity
  8
0
  6
CONTINUOUS
100
AcDbLine
 10
41.23578448461758
 20
3.984939383878926
 30
0.0
 11
42.20881098020543
 21
4.957965879466778
 31
0.0
  0
LINE
  5
646C
330
6457
100
AcDbEntity
  8
0
  6
CONTINUOUS
100
AcDbLine
 10
41.55324679719776
 20
3.628882487378919
 30
0.0
 11
42.52627329278561
 21
4.601908982966772
 31
0.0
  0
LINE
  5
646D
330
6457
100
AcDbEntity
  8
0
  6
CONTINUOUS
100
AcDbLine
 10
41.87070910977793
 20
3.272825590878912
 30
0.0
 11
42.84373560536579
 21
4.245852086466765
 31
0.0
  0
LINE
  5
646E
330
6457
100
AcDbEntity
  8
0
  6
CONTINUOUS
100
AcDbLine
 10
43.57899999995641
 20
7.001674108297943
 30
0.0
 11
44.99999999995498
 21
8.422674108296516
 31
0.0
  0
LINE
  5
646F
330
6457
100
AcDbEntity
  8
0
  6
CONTINUOUS
100
AcDbLine
 10
43.57899999995641
 20
6.328154899217758
 30
0.0
 11
44.99999999995498
 21
7.749154899216329
 31
0.0
  0
LINE
  5
6470
330
6457
100
AcDbEntity
  8
0
  6
CONTINUOUS
100
AcDbLine
 10
43.57899999995641
 20
5.654635690137571
 30
0.0
 11
44.99999999995498
 21
7.075635690136142
 31
0.0
  0
LINE
  5
6471
330
6457
100
AcDbEntity
  8
0
  6
CONTINUOUS
100
AcDbLine
 10
43.57899999995641
 20
4.981116481057384
 30
0.0
 11
44.99999999995498
 21
6.402116481055955
 31
0.0
  0
LINE
  5
6472
330
6457
100
AcDbEntity
  8
0
  6
CONTINUOUS
100
AcDbLine
 10
39.27140272797921
 20
-0.0000000000000009
 30
0.0
 11
40.02599999995994
 21
0.7545972719807246
 31
0.0
  0
LINE
  5
6473
330
6457
100
AcDbEntity
  8
0
  6
CONTINUOUS
100
AcDbLine
 10
39.9449219370594
 20
-0.0000000000000009
 30
0.0
 11
40.02599999995994
 21
0.0810780629005379
 31
0.0
  0
LINE
  5
6474
330
6457
100
AcDbEntity
  8
0
  6
CONTINUOUS
100
AcDbLine
 10
42.18817142235812
 20
2.916768694378905
 30
0.0
 11
43.16119791794597
 21
3.889795189966758
 31
0.0
  0
LINE
  5
6475
330
6457
100
AcDbEntity
  8
0
  6
CONTINUOUS
100
AcDbLine
 10
42.50563373493829
 20
2.560711797878898
 30
0.0
 11
43.47866023052615
 21
3.533738293466751
 31
0.0
  0
LINE
  5
6476
330
6457
100
AcDbEntity
  8
0
  6
CONTINUOUS
100
AcDbLine
 10
43.57899999995641
 20
4.307597271977198
 30
0.0
 11
44.99999999995498
 21
5.728597271975769
 31
0.0
  0
LINE
  5
6477
330
6457
100
AcDbEntity
  8
0
  6
CONTINUOUS
100
AcDbLine
 10
43.57899999995641
 20
3.634078062897011
 30
0.0
 11
44.99999999995498
 21
5.055078062895582
 31
0.0
  0
LINE
  5
6478
330
6457
100
AcDbEntity
  8
0
  6
CONTINUOUS
100
AcDbLine
 10
42.82309604751848
 20
2.204654901378891
 30
0.0
 11
44.99999999995498
 21
4.381558853815395
 31
0.0
  0
LINE
  5
6479
330
6457
100
AcDbEntity
  8
0
  6
CONTINUOUS
100
AcDbLine
 10
43.14055836009865
 20
1.848598004878885
 30
0.0
 11
44.99999999995498
 21
3.70803964473521
 31
0.0
  0
LINE
  5
647A
330
6457
100
AcDbEntity
  8
0
  6
CONTINUOUS
100
AcDbLine
 10
43.45802067267883
 20
1.492541108378878
 30
0.0
 11
44.99999999995498
 21
3.034520435655023
 31
0.0
  0
LINE
  5
647B
330
6457
100
AcDbEntity
  8
0
  6
CONTINUOUS
100
AcDbLine
 10
43.77548298525902
 20
1.136484211878871
 30
0.0
 11
44.99999999995498
 21
2.361001226574837
 31
0.0
  0
LINE
  5
647C
330
6457
100
AcDbEntity
  8
0
  6
CONTINUOUS
100
AcDbLine
 10
44.09294529783919
 20
0.7804273153788639
 30
0.0
 11
44.99999999995498
 21
1.687482017494649
 31
0.0
  0
LINE
  5
647D
330
6457
100
AcDbEntity
  8
0
  6
CONTINUOUS
100
AcDbLine
 10
44.41040761041938
 20
0.4243704188788566
 30
0.0
 11
44.99999999995498
 21
1.013962808414463
 31
0.0
  0
LINE
  5
647E
330
6457
100
AcDbEntity
  8
0
  6
CONTINUOUS
100
AcDbLine
 10
44.72786992299955
 20
0.0683135223788494
 30
0.0
 11
44.99999999995498
 21
0.340443599334276
 31
0.0
  0
LINE
  5
647F
330
6457
100
AcDbEntity
  8
0
  6
CONTINUOUS
100
AcDbLine
 10
39.12223903415696
 20
-0.0000000000000009
 30
0.0
 11
38.60499999996136
 21
0.5172390341955961
 31
0.0
  0
LINE
  5
6480
330
6457
100
AcDbEntity
  8
0
  6
CONTINUOUS
100
AcDbLine
 10
39.79575824323715
 20
-0.0000000000000009
 30
0.0
 11
38.60499999996136
 21
1.190758243275783
 31
0.0
  0
LINE
  5
6481
330
6457
100
AcDbEntity
  8
0
  6
CONTINUOUS
100
AcDbLine
 10
40.02599999995994
 20
0.443277452357397
 30
0.0
 11
38.60499999996136
 21
1.864277452355969
 31
0.0
  0
LINE
  5
6482
330
6457
100
AcDbEntity
  8
0
  6
CONTINUOUS
100
AcDbLine
 10
40.02599999995994
 20
1.116796661437583
 30
0.0
 11
38.60499999996136
 21
2.537796661436155
 31
0.0
  0
LINE
  5
6483
330
6457
100
AcDbEntity
  8
0
  6
CONTINUOUS
100
AcDbLine
 10
40.02599999995994
 20
1.79031587051777
 30
0.0
 11
38.60499999996136
 21
3.211315870516341
 31
0.0
  0
LINE
  5
6484
330
6457
100
AcDbEntity
  8
0
  6
CONTINUOUS
100
AcDbLine
 10
40.02599999995994
 20
2.463835079597956
 30
0.0
 11
38.60499999996136
 21
3.884835079596527
 31
0.0
  0
LINE
  5
6485
330
6457
100
AcDbEntity
  8
0
  6
CONTINUOUS
100
AcDbLine
 10
40.02599999995994
 20
3.137354288678143
 30
0.0
 11
38.60499999996136
 21
4.558354288676714
 31
0.0
  0
LINE
  5
6486
330
6457
100
AcDbEntity
  8
0
  6
CONTINUOUS
100
AcDbLine
 10
40.02599999995994
 20
3.810873497758329
 30
0.0
 11
38.60499999996136
 21
5.2318734977569
 31
0.0
  0
LINE
  5
6487
330
6457
100
AcDbEntity
  8
0
  6
CONTINUOUS
100
AcDbLine
 10
40.02599999995994
 20
4.484392706838515
 30
0.0
 11
38.60499999996136
 21
5.905392706837086
 31
0.0
  0
LINE
  5
6488
330
6457
100
AcDbEntity
  8
0
  6
CONTINUOUS
100
AcDbLine
 10
44.99999999995498
 20
0.183911915923658
 30
0.0
 11
41.53858364506288
 21
3.64532827081576
 31
0.0
  0
LINE
  5
6489
330
6457
100
AcDbEntity
  8
0
  6
CONTINUOUS
100
AcDbLine
 10
40.02599999995994
 20
5.157911915918703
 30
0.0
 11
38.60499999996136
 21
6.578911915917274
 31
0.0
  0
LINE
  5
648A
330
6457
100
AcDbEntity
  8
0
  6
CONTINUOUS
100
AcDbLine
 10
44.99999999995498
 20
0.8574311250038447
 30
0.0
 11
38.60499999996136
 21
7.25243112499746
 31
0.0
  0
LINE
  5
648B
330
6457
100
AcDbEntity
  8
0
  6
CONTINUOUS
100
AcDbLine
 10
44.99999999995498
 20
1.530950334084031
 30
0.0
 11
38.60499999996136
 21
7.925950334077647
 31
0.0
  0
LINE
  5
648C
330
6457
100
AcDbEntity
  8
0
  6
CONTINUOUS
100
AcDbLine
 10
44.99999999995498
 20
2.204469543164218
 30
0.0
 11
43.57899999995641
 21
3.625469543162789
 31
0.0
  0
LINE
  5
648D
330
6457
100
AcDbEntity
  8
0
  6
CONTINUOUS
100
AcDbLine
 10
41.89876730984767
 20
5.305702233271528
 30
0.0
 11
38.60499999996136
 21
8.599469543157834
 31
0.0
  0
LINE
  5
648E
330
6457
100
AcDbEntity
  8
0
  6
CONTINUOUS
100
AcDbLine
 10
44.99999999995498
 20
2.877988752244405
 30
0.0
 11
43.57899999995641
 21
4.298988752242975
 31
0.0
  0
LINE
  5
648F
330
6457
100
AcDbEntity
  8
0
  6
CONTINUOUS
100
AcDbLine
 10
44.99999999995498
 20
3.551507961324591
 30
0.0
 11
43.57899999995641
 21
4.972507961323163
 31
0.0
  0
LINE
  5
6490
330
6457
100
AcDbEntity
  8
0
  6
CONTINUOUS
100
AcDbLine
 10
44.99999999995498
 20
4.225027170404777
 30
0.0
 11
43.57899999995641
 21
5.646027170403348
 31
0.0
  0
LINE
  5
6491
330
6457
100
AcDbEntity
  8
0
  6
CONTINUOUS
100
AcDbLine
 10
44.99999999995498
 20
4.898546379484964
 30
0.0
 11
43.57899999995641
 21
6.319546379483535
 31
0.0
  0
LINE
  5
6492
330
6457
100
AcDbEntity
  8
0
  6
CONTINUOUS
100
AcDbLine
 10
44.99999999995498
 20
5.572065588565151
 30
0.0
 11
43.57899999995641
 21
6.993065588563722
 31
0.0
  0
LINE
  5
6493
330
6457
100
AcDbEntity
  8
0
  6
CONTINUOUS
100
AcDbLine
 10
44.99999999995498
 20
6.245584797645336
 30
0.0
 11
43.57899999995641
 21
7.666584797643908
 31
0.0
  0
LINE
  5
6494
330
6457
100
AcDbEntity
  8
0
  6
CONTINUOUS
100
AcDbLine
 10
44.99999999995498
 20
6.919104006725522
 30
0.0
 11
43.57899999995641
 21
8.340104006724093
 31
0.0
  0
LINE
  5
6495
330
6457
100
AcDbEntity
  8
0
  6
CONTINUOUS
100
AcDbLine
 10
44.99999999995498
 20
7.592623215805709
 30
0.0
 11
43.82952321576943
 21
8.763099999991255
 31
0.0
  0
LINE
  5
6496
330
6457
100
AcDbEntity
  8
0
  6
CONTINUOUS
100
AcDbLine
 10
44.99999999995498
 20
8.266142424885896
 30
0.0
 11
44.50304242484962
 21
8.763099999991255
 31
0.0
  0
ENDBLK
  5
64C0
330
6457
100
AcDbEntity
  8
0
100
AcDbBlockEnd
  0
BLOCK
  5
64C1
330
6497
100
AcDbEntity
  8
0
100
AcDbBlockBegin
  2
*X60
 70
     1
 10
0.0
 20
0.0
 30
0.0
  3
*X60
  1

  0
LINE
  5
6498
330
6497
100
AcDbEntity
  8
0
  6
CONTINUOUS
100
AcDbLine
 10
0.0
 20
8.548461116714023
 30
0.0
 11
0.2146388832772324
 21
8.763099999991255
 31
0.0
  0
LINE
  5
6499
330
6497
100
AcDbEntity
  8
0
  6
CONTINUOUS
100
AcDbLine
 10
-0.0000000000000002
 20
7.874941907633837
 30
0.0
 11
0.8881580923574184
 21
8.763099999991255
 31
0.0
  0
LINE
  5
649A
330
6497
100
AcDbEntity
  8
0
  6
CONTINUOUS
100
AcDbLine
 10
0.0
 20
7.20142269855365
 30
0.0
 11
1.420999999998572
 21
8.622422698552223
 31
0.0
  0
LINE
  5
649B
330
6497
100
AcDbEntity
  8
0
  6
CONTINUOUS
100
AcDbLine
 10
-0.0000000000000001
 20
6.527903489473465
 30
0.0
 11
1.420999999998571
 21
7.948903489472036
 31
0.0
  0
LINE
  5
649C
330
6497
100
AcDbEntity
  8
0
  6
CONTINUOUS
100
AcDbLine
 10
-0.0000000000000002
 20
5.854384280393278
 30
0.0
 11
1.420999999998571
 21
7.275384280391849
 31
0.0
  0
LINE
  5
649D
330
6497
100
AcDbEntity
  8
0
  6
CONTINUOUS
100
AcDbLine
 10
-0.0000000000000002
 20
5.180865071313091
 30
0.0
 11
1.420999999998571
 21
6.601865071311663
 31
0.0
  0
LINE
  5
649E
330
6497
100
AcDbEntity
  8
0
  6
CONTINUOUS
100
AcDbLine
 10
0.0
 20
4.507345862232905
 30
0.0
 11
1.420999999998571
 21
5.928345862231477
 31
0.0
  0
LINE
  5
649F
330
6497
100
AcDbEntity
  8
0
  6
CONTINUOUS
100
AcDbLine
 10
-0.0000000000000003
 20
3.833826653152718
 30
0.0
 11
1.420999999998571
 21
5.25482665315129
 31
0.0
  0
LINE
  5
64A0
330
6497
100
AcDbEntity
  8
0
  6
CONTINUOUS
100
AcDbLine
 10
-0.0000000000000002
 20
3.160307444072532
 30
0.0
 11
1.420999999998571
 21
4.581307444071103
 31
0.0
  0
LINE
  5
64A1
330
6497
100
AcDbEntity
  8
0
  6
CONTINUOUS
100
AcDbLine
 10
-0.0000000000000001
 20
2.486788234992345
 30
0.0
 11
1.420999999998571
 21
3.907788234990917
 31
0.0
  0
LINE
  5
64A2
330
6497
100
AcDbEntity
  8
0
  6
CONTINUOUS
100
AcDbLine
 10
-0.0000000000000006
 20
1.813269025912159
 30
0.0
 11
1.420999999998571
 21
3.234269025910731
 31
0.0
  0
LINE
  5
64A3
330
6497
100
AcDbEntity
  8
0
  6
CONTINUOUS
100
AcDbLine
 10
0.0
 20
1.139749816831973
 30
0.0
 11
1.420999999998571
 21
2.560749816830544
 31
0.0
  0
LINE
  5
64A4
330
6497
100
AcDbEntity
  8
0
  6
CONTINUOUS
100
AcDbLine
 10
0.0000000000000002
 20
0.466230607751787
 30
0.0
 11
1.420999999998571
 21
1.887230607750358
 31
0.0
  0
LINE
  5
64A5
330
6497
100
AcDbEntity
  8
0
  6
CONTINUOUS
100
AcDbLine
 10
0.2072886013284003
 20
-0.0000000000000009
 30
0.0
 11
1.420999999998571
 21
1.213711398670171
 31
0.0
  0
LINE
  5
64A6
330
6497
100
AcDbEntity
  8
0
  6
CONTINUOUS
100
AcDbLine
 10
0.8808078104085864
 20
-0.0000000000000009
 30
0.0
 11
1.420999999998571
 21
0.5401921895899839
 31
0.0
  0
LINE
  5
64A7
330
6497
100
AcDbEntity
  8
0
  6
CONTINUOUS
100
AcDbLine
 10
0.0581249075061505
 20
-0.0000000000000009
 30
0.0
 11
-0.0000000000000002
 21
0.0581249075061496
 31
0.0
  0
LINE
  5
64A8
330
6497
100
AcDbEntity
  8
0
  6
CONTINUOUS
100
AcDbLine
 10
0.7316441165863372
 20
-0.0000000000000009
 30
0.0
 11
-0.0000000000000002
 21
0.7316441165863363
 31
0.0
  0
LINE
  5
64A9
330
6497
100
AcDbEntity
  8
0
  6
CONTINUOUS
100
AcDbLine
 10
1.405163325666523
 20
-0.0000000000000009
 30
0.0
 11
-0.0000000000000002
 21
1.405163325666523
 31
0.0
  0
LINE
  5
64AA
330
6497
100
AcDbEntity
  8
0
  6
CONTINUOUS
100
AcDbLine
 10
1.420999999998572
 20
0.6576825347481381
 30
0.0
 11
-0.0000000000000001
 21
2.07868253474671
 31
0.0
  0
LINE
  5
64AB
330
6497
100
AcDbEntity
  8
0
  6
CONTINUOUS
100
AcDbLine
 10
1.420999999998571
 20
1.331201743828324
 30
0.0
 11
-0.0000000000000001
 21
2.752201743826896
 31
0.0
  0
LINE
  5
64AC
330
6497
100
AcDbEntity
  8
0
  6
CONTINUOUS
100
AcDbLine
 10
1.420999999998571
 20
2.004720952908511
 30
0.0
 11
-0.0000000000000002
 21
3.425720952907082
 31
0.0
  0
LINE
  5
64AD
330
6497
100
AcDbEntity
  8
0
  6
CONTINUOUS
100
AcDbLine
 10
1.420999999998571
 20
2.678240161988697
 30
0.0
 11
-0.0000000000000001
 21
4.099240161987269
 31
0.0
  0
LINE
  5
64AE
330
6497
100
AcDbEntity
  8
0
  6
CONTINUOUS
100
AcDbLine
 10
1.420999999998572
 20
3.351759371068884
 30
0.0
 11
0.0
 21
4.772759371067455
 31
0.0
  0
LINE
  5
64AF
330
6497
100
AcDbEntity
  8
0
  6
CONTINUOUS
100
AcDbLine
 10
1.420999999998571
 20
4.02527858014907
 30
0.0
 11
-0.0000000000000003
 21
5.446278580147642
 31
0.0
  0
LINE
  5
64B0
330
6497
100
AcDbEntity
  8
0
  6
CONTINUOUS
100
AcDbLine
 10
1.420999999998571
 20
4.698797789229257
 30
0.0
 11
0.0
 21
6.119797789227828
 31
0.0
  0
LINE
  5
64B1
330
6497
100
AcDbEntity
  8
0
  6
CONTINUOUS
100
AcDbLine
 10
1.420999999998571
 20
5.372316998309444
 30
0.0
 11
-0.0000000000000001
 21
6.793316998308015
 31
0.0
  0
LINE
  5
64B2
330
6497
100
AcDbEntity
  8
0
  6
CONTINUOUS
100
AcDbLine
 10
1.420999999998572
 20
6.045836207389629
 30
0.0
 11
-0.0000000000000004
 21
7.466836207388202
 31
0.0
  0
LINE
  5
64B3
330
6497
100
AcDbEntity
  8
0
  6
CONTINUOUS
100
AcDbLine
 10
1.420999999998571
 20
6.719355416469816
 30
0.0
 11
0.0
 21
8.140355416468388
 31
0.0
  0
LINE
  5
64B4
330
6497
100
AcDbEntity
  8
0
  6
CONTINUOUS
100
AcDbLine
 10
1.420999999998571
 20
7.392874625550003
 30
0.0
 11
0.0507746255573185
 21
8.763099999991255
 31
0.0
  0
LINE
  5
64B5
330
6497
100
AcDbEntity
  8
0
  6
CONTINUOUS
100
AcDbLine
 10
1.420999999998571
 20
8.06639383463019
 30
0.0
 11
0.7242938346375052
 21
8.763099999991255
 31
0.0
  0
LINE
  5
64B6
330
6497
100
AcDbEntity
  8
0
  6
CONTINUOUS
100
AcDbLine
 10
1.420999999998571
 20
8.739913043710375
 30
0.0
 11
1.397813043717691
 21
8.763099999991255
 31
0.0
  0
ENDBLK
  5
64C2
330
6497
100
AcDbEntity
  8
0
100
AcDbBlockEnd
  0
ENDSEC
  0
SECTION
  2
ENTITIES
  0
LINE
  5
3115
330
18
100
AcDbEntity
  8
01
100
AcDbLine
 10
1683.641450421745
 20
301.1495992484536
 30
0.0
 11
2011.641450421745
 21
301.1495992484541
 31
0.0
  0
LINE
  5
3116
330
18
100
AcDbEntity
  8
01
100
AcDbLine
 10
2011.641450421744
 20
101.1495992484541
 30
0.0
 11
1683.641450421745
 21
101.1495992484541
 31
0.0
  0
ARC
  5
3117
330
18
100
AcDbEntity
  8
01
100
AcDbCircle
 10
1683.641450421745
 20
105.1495992484541
 30
0.0
 40
4.0
100
AcDbArc
 50
180.0
 51
270.0
  0
ARC
  5
3118
330
18
100
AcDbEntity
  8
01
100
AcDbCircle
 10
1683.641450421745
 20
297.1495992484536
 30
0.0
 40
4.0
100
AcDbArc
 50
90.0
 51
180.0
  0
LINE
  5
3119
330
18
100
AcDbEntity
  8
1CENTER
100
AcDbLine
 10
1847.641450421745
 20
-117.9850645615302
 30
0.0
 11
1847.641450421745
 21
11.40916766935652
 31
0.0
  0
ARC
  5
311A
330
18
100
AcDbEntity
  8
01
100
AcDbCircle
 10
2011.641450421744
 20
105.1495992484541
 30
0.0
 40
4.0
100
AcDbArc
 50
270.0
 51
0.0
  0
ARC
  5
311B
330
18
100
AcDbEntity
  8
01
100
AcDbCircle
 10
2011.641450421745
 20
297.1495992484541
 30
0.0
 40
4.0
100
AcDbArc
 50
0.0
 51
90.0
  0
LINE
  5
311C
330
18
100
AcDbEntity
  8
01
100
AcDbLine
 10
2015.641450421744
 20
105.1495992484541
 30
0.0
 11
2015.641450421745
 21
297.1495992484541
 31
0.0
  0
LINE
  5
311D
330
18
100
AcDbEntity
  8
01
100
AcDbLine
 10
1679.641450421745
 20
0.016203031123041
 30
0.0
 11
1679.641450421745
 21
-106.9837969688756
 31
0.0
  0
LINE
  5
311E
330
18
100
AcDbEntity
  8
1CENTER
100
AcDbLine
 10
1847.641450421745
 20
95.63460357072
 30
0.0
 11
1847.641450421745
 21
312.671987583449
 31
0.0
  0
CIRCLE
  5
311F
330
18
100
AcDbEntity
  8
01
100
AcDbCircle
 10
1847.641450421745
 20
211.1495992484536
 30
0.0
 40
20.5
  0
ARC
  5
3123
330
18
100
AcDbEntity
  8
01
100
AcDbCircle
 10
1683.641450421745
 20
0.016203031123041
 30
0.0
 40
4.0
100
AcDbArc
 50
90.0
 51
180.0
  0
LINE
  5
3125
330
18
100
AcDbEntity
  8
01
100
AcDbLine
 10
1679.641450421745
 20
105.1495992484541
 30
0.0
 11
1679.641450421745
 21
297.1495992484536
 31
0.0
  0
LINE
  5
3126
330
18
100
AcDbEntity
  8
1CENTER
100
AcDbLine
 10
1815.641450421745
 20
211.1495992484536
 30
0.0
 11
1879.641450421744
 21
211.1495992484536
 31
0.0
  0
LINE
  5
312B
330
18
100
AcDbEntity
  8
01
100
AcDbLine
 10
1683.641450421745
 20
4.016203031124405
 30
0.0
 11
2011.641450421745
 21
4.016203031121677
 31
0.0
  0
LINE
  5
312C
330
18
100
AcDbEntity
  8
01
100
AcDbLine
 10
1683.641450421745
 20
-110.9837969688756
 30
0.0
 11
2011.641450421744
 21
-110.9837969688792
 31
0.0
  0
LINE
  5
312E
330
18
100
AcDbEntity
  8
01
100
AcDbLine
 10
2015.641450421744
 20
0.0162030311221315
 30
0.0
 11
2015.641450421744
 21
-106.9837969688792
 31
0.0
  0
ARC
  5
312F
330
18
100
AcDbEntity
  8
01
100
AcDbCircle
 10
2011.641450421745
 20
0.0162030311221315
 30
0.0
 40
4.0
100
AcDbArc
 50
0.0
 51
90.0
  0
ELLIPSE
  5
3132
330
18
100
AcDbEntity
  8
01
100
AcDbEllipse
 10
1847.641450421745
 20
201.1495992484536
 30
0.0
 11
145.0
 21
0.0
 31
0.0
210
0.0
220
0.0
230
1.0
 40
0.6137931034482759
 41
0.8834588030038547
 42
6.552607475941708
  0
ARC
  5
3136
330
18
100
AcDbEntity
  8
01
100
AcDbCircle
 10
1935.141688992571
 20
261.0105878106249
 30
0.0
 40
10.0
100
AcDbArc
 50
0.1966613415067706
 51
63.25901351993421
  0
ARC
  5
3137
330
18
100
AcDbEntity
  8
01
100
AcDbCircle
 10
1978.290946903684
 20
220.736356760476
 30
0.0
 40
10.0
100
AcDbArc
 50
24.22225281682006
 51
93.75094953330913
  0
ARC
  5
3167
330
18
100
AcDbEntity
  8
01
100
AcDbCircle
 10
1975.641450421745
 20
261.1495992484541
 30
0.0
 40
32.17458702966579
100
AcDbArc
 50
179.0645694353164
 51
274.5559460814409
  0
ARC
  5
3168
330
18
100
AcDbEntity
  8
1PHANTOM
100
AcDbCircle
 10
1933.472484074451
 20
261.8381254452154
 30
0.0
 40
10.0
100
AcDbArc
 50
359.0645694353164
 51
63.99702076474229
  0
ARC
  5
3169
330
18
100
AcDbEntity
  8
01
100
AcDbCircle
 10
1978.991482945211
 20
219.1082734699469
 30
0.0
 40
10.0
100
AcDbArc
 50
22.33121323494901
 51
94.55594608144081
  0
LINE
  5
316B
330
18
100
AcDbEntity
  8
01
100
AcDbLine
 10
1683.641450421745
 20
524.0885861592294
 30
0.0
 11
2011.641450421744
 21
524.0885861592258
 31
0.0
  0
LINE
  5
316C
330
18
100
AcDbEntity
  8
01
100
AcDbLine
 10
1683.641450421745
 20
639.0885861592299
 30
0.0
 11
2011.641450421745
 21
639.0885861592266
 31
0.0
  0
LINE
  5
3173
330
18
100
AcDbEntity
  8
01
100
AcDbLine
 10
1679.641450421745
 20
635.0885861592299
 30
0.0
 11
1679.641450421745
 21
528.0885861592271
 31
0.0
  0
ARC
  5
3174
330
18
100
AcDbEntity
  8
01
100
AcDbCircle
 10
1683.641450421745
 20
528.0885861592271
 30
0.0
 40
4.0
100
AcDbArc
 50
180.0
 51
270.0
  0
LINE
  5
3176
330
18
100
AcDbEntity
  8
1CENTER
100
AcDbLine
 10
1847.641450421745
 20
515.2866411752068
 30
0.0
 11
1847.641450421745
 21
648.2761015418804
 31
0.0
  0
LINE
  5
3177
330
18
100
AcDbEntity
  8
01
100
AcDbLine
 10
2015.641450421745
 20
635.0885861592266
 30
0.0
 11
2015.641450421744
 21
528.0885861592258
 31
0.0
  0
ARC
  5
3179
330
18
100
AcDbEntity
  8
01
100
AcDbCircle
 10
2011.641450421744
 20
528.0885861592258
 30
0.0
 40
4.0
100
AcDbArc
 50
270.0
 51
0.0
  0
CIRCLE
  5
3195
330
18
100
AcDbEntity
  8
01
100
AcDbCircle
 10
1847.641450421745
 20
211.1495992484536
 30
0.0
 40
26.5
  0
ARC
  5
319A
330
18
100
AcDbEntity
  8
01
100
AcDbCircle
 10
1975.641450421745
 20
261.1495992484532
 30
0.0
 40
30.49999999999953
100
AcDbArc
 50
180.1966613415068
 51
273.7509495333092
  0
ARC
  5
31A0
330
18
100
AcDbEntity
  8
01
100
AcDbCircle
 10
1971.641450421745
 20
257.1495992484532
 30
0.0
 40
27.0
100
AcDbArc
 50
281.353730808383
 51
169.5606724058486
  0
ARC
  5
31A1
330
18
100
AcDbEntity
  8
01
100
AcDbCircle
 10
1971.641450421745
 20
257.1495992484532
 30
0.0
 40
30.0
100
AcDbArc
 50
292.6251217709139
 51
161.1219847779294
  0
CIRCLE
  5
31A4
330
18
100
AcDbEntity
  8
01
100
AcDbCircle
 10
1975.641450421746
 20
261.1495992484536
 30
0.0
 40
13.0
  0
LINE
  5
3DDE
330
18
100
AcDbEntity
  8
1CENTER
100
AcDbLine
 10
1936.6415
 20
261.1495639987372
 30
0.0
 11
2014.6415
 21
261.1495639987372
 31
0.0
  0
LINE
  5
3DDF
330
18
100
AcDbEntity
  8
1CENTER
100
AcDbLine
 10
1975.6415
 20
222.1495639987372
 30
0.0
 11
1975.6415
 21
300.1495639987372
 31
0.0
  0
LINE
  5
3E2A
330
18
100
AcDbEntity
  8
1HIDDEN
100
AcDbLine
 10
1827.141450421744
 20
-110.9837969688776
 30
0.0
 11
1827.141450421744
 21
-102.9837969688776
 31
0.0
  0
ARC
  5
3E30
330
18
100
AcDbEntity
  8
1HIDDEN
100
AcDbCircle
 10
1817.641450421745
 20
-89.24115628176014
 30
0.0
 40
3.0
100
AcDbArc
 50
180.0
 51
224.9999999999904
  0
LINE
  5
3E32
330
18
100
AcDbEntity
  8
1HIDDEN
100
AcDbLine
 10
1814.641450421745
 20
-89.2411562817606
 30
0.0
 11
1814.641450421745
 21
-87.53228589732842
 31
0.0
  0
LINE
  5
3E33
330
18
100
AcDbEntity
  8
1HIDDEN
100
AcDbLine
 10
1815.520130078186
 20
-91.36247662531946
 30
0.0
 11
1827.141450421744
 21
-102.9837969688779
 31
0.0
  0
ARC
  5
3E38
330
18
100
AcDbEntity
  8
1HIDDEN
100
AcDbCircle
 10
1874.838664293698
 20
105.7419103756117
 30
0.0
 40
200.0
100
AcDbArc
 50
211.136562798047
 51
251.7593741651274
  0
ARC
  5
3E39
330
18
100
AcDbEntity
  8
1HIDDEN
100
AcDbCircle
 10
1811.141450421745
 20
-87.53228589732748
 30
0.0
 40
3.5
100
AcDbArc
 50
0.0
 51
71.7593741651302
  0
ARC
  5
3E3B
330
18
100
AcDbEntity
  8
1HIDDEN
100
AcDbCircle
 10
1700.655425967354
 20
0.5162030311223589
 30
0.0
 40
3.5
100
AcDbArc
 50
31.13656279804782
 51
90.0
  0
ARC
  5
3E3D
330
18
100
AcDbEntity
  8
1HIDDEN
100
AcDbCircle
 10
1820.444236549788
 20
105.7419103756113
 30
0.0
 40
200.0
100
AcDbArc
 50
288.2406258348701
 51
328.863437201953
  0
ARC
  5
3E3E
330
18
100
AcDbEntity
  8
1HIDDEN
100
AcDbCircle
 10
1994.627474876133
 20
0.51620303112486
 30
0.0
 40
3.5
100
AcDbArc
 50
90.0
 51
148.8634372019522
  0
ARC
  5
3E41
330
18
100
AcDbEntity
  8
1HIDDEN
100
AcDbCircle
 10
1884.141450421744
 20
-87.5322858973268
 30
0.0
 40
3.5
100
AcDbArc
 50
108.2406258348698
 51
180.0
  0
LINE
  5
3E42
330
18
100
AcDbEntity
  8
1HIDDEN
100
AcDbLine
 10
1880.641450421744
 20
-89.24115628176014
 30
0.0
 11
1880.641450421744
 21
-87.5322858973268
 31
0.0
  0
LINE
  5
3E43
330
18
100
AcDbEntity
  8
1HIDDEN
100
AcDbLine
 10
1868.141450421746
 20
-110.9837969688772
 30
0.0
 11
1868.141450421746
 21
-102.9837969688772
 31
0.0
  0
ARC
  5
3E46
330
18
100
AcDbEntity
  8
1HIDDEN
100
AcDbCircle
 10
1877.641450421744
 20
-89.24115628175969
 30
0.0
 40
3.0
100
AcDbArc
 50
315.0000000000096
 51
0.0
  0
LINE
  5
3E47
330
18
100
AcDbEntity
  8
1HIDDEN
100
AcDbLine
 10
1879.762770765304
 20
-91.362476625319
 30
0.0
 11
1868.141450421746
 21
-102.9837969688774
 31
0.0
  0
LINE
  5
412F
330
18
100
AcDbEntity
  8
1CENTER
100
AcDbLine
 10
1872.641450421745
 20
614.0885861592288
 30
0.0
 11
1822.641450421745
 21
614.0885861592293
 31
0.0
  0
LINE
  5
4130
330
18
100
AcDbEntity
  8
01
100
AcDbLine
 10
1938.641450421744
 20
639.0885861592286
 30
0.0
 11
1938.641450421745
 21
589.3785861592281
 31
0.0
  0
LINE
  5
4131
330
18
100
AcDbEntity
  8
1CENTER
100
AcDbLine
 10
1917.641450421744
 20
643.757409272757
 30
0.0
 11
1917.641450421745
 21
558.8677776580449
 31
0.0
  0
LINE
  5
4132
330
18
100
AcDbEntity
  8
01
100
AcDbLine
 10
1896.641450421744
 20
589.3785861592286
 30
0.0
 11
1896.641450421744
 21
639.0885861592291
 31
0.0
  0
LINE
  5
4133
330
18
100
AcDbEntity
  8
01
100
AcDbLine
 10
1899.641450421744
 20
639.0885861592291
 30
0.0
 11
1899.641450421744
 21
589.3785861592286
 31
0.0
  0
LINE
  5
4134
330
18
100
AcDbEntity
  8
01
100
AcDbLine
 10
1935.641450421744
 20
639.0885861592286
 30
0.0
 11
1935.641450421745
 21
589.3785861592281
 31
0.0
  0
LINE
  5
4135
330
18
100
AcDbEntity
  8
1HIDDEN
100
AcDbLine
 10
1935.641450421744
 20
589.3785861592286
 30
0.0
 11
1935.641450421744
 21
563.4485861592292
 31
0.0
  0
LINE
  5
4136
330
18
100
AcDbEntity
  8
1HIDDEN
100
AcDbLine
 10
1935.641450421744
 20
563.4485861592292
 30
0.0
 11
1899.641450421744
 21
563.4485861592287
 31
0.0
  0
LINE
  5
4137
330
18
100
AcDbEntity
  8
1HIDDEN
100
AcDbLine
 10
1899.641450421744
 20
563.4485861592287
 30
0.0
 11
1899.641450421744
 21
589.3785861592286
 31
0.0
  0
LINE
  5
4138
330
18
100
AcDbEntity
  8
01
100
AcDbLine
 10
1759.641450421746
 20
639.0885861592295
 30
0.0
 11
1759.641450421746
 21
589.378586159229
 31
0.0
  0
LINE
  5
4139
330
18
100
AcDbEntity
  8
01
100
AcDbLine
 10
1795.641450421746
 20
639.0885861592291
 30
0.0
 11
1795.641450421746
 21
589.378586159229
 31
0.0
  0
LINE
  5
413A
330
18
100
AcDbEntity
  8
01
100
AcDbLine
 10
1798.641450421746
 20
589.378586159229
 30
0.0
 11
1798.641450421746
 21
639.0885861592291
 31
0.0
  0
LINE
  5
413B
330
18
100
AcDbEntity
  8
01
100
AcDbLine
 10
1756.641450421746
 20
639.0885861592295
 30
0.0
 11
1756.641450421746
 21
589.378586159229
 31
0.0
  0
LINE
  5
413C
330
18
100
AcDbEntity
  8
01
100
AcDbLine
 10
1896.641450421745
 20
589.3785861592286
 30
0.0
 11
1938.641450421745
 21
589.3785861592286
 31
0.0
  0
LINE
  5
413D
330
18
100
AcDbEntity
  8
01
100
AcDbLine
 10
1798.641450421746
 20
589.378586159229
 30
0.0
 11
1756.641450421746
 21
589.378586159229
 31
0.0
  0
ARC
  5
4141
330
18
100
AcDbEntity
  8
01
100
AcDbCircle
 10
1829.641450421744
 20
614.0885861592293
 30
0.0
 40
4.999999999999773
100
AcDbArc
 50
90.0
 51
270.0
  0
ARC
  5
4142
330
18
100
AcDbEntity
  8
01
100
AcDbCircle
 10
1865.641450421744
 20
614.0885861592288
 30
0.0
 40
5.000000000000227
100
AcDbArc
 50
270.0
 51
90.0
  0
LINE
  5
4145
330
18
100
AcDbEntity
  8
01
100
AcDbLine
 10
1790.141450421745
 20
639.0885861592295
 30
0.0
 11
1765.141450421745
 21
639.0885861592295
 31
0.0
  0
LINE
  5
4146
330
18
100
AcDbEntity
  8
1HIDDEN
100
AcDbLine
 10
1788.141450421745
 20
565.5034781067526
 30
0.0
 11
1767.141450421745
 21
565.5034781067526
 31
0.0
  0
LINE
  5
4147
330
18
100
AcDbEntity
  8
1HIDDEN
100
AcDbLine
 10
1788.141450421745
 20
565.0885861592293
 30
0.0
 11
1767.141450421745
 21
565.0885861592293
 31
0.0
  0
LINE
  5
4148
330
18
100
AcDbEntity
  8
1HIDDEN
100
AcDbLine
 10
1790.141450421745
 20
567.0885861592293
 30
0.0
 11
1790.141450421745
 21
567.5034781067526
 31
0.0
  0
LINE
  5
4149
330
18
100
AcDbEntity
  8
01
100
AcDbLine
 10
1790.141450421745
 20
589.378586159229
 30
0.0
 11
1790.141450421745
 21
639.0885861592295
 31
0.0
  0
LINE
  5
414A
330
18
100
AcDbEntity
  8
1CENTER
100
AcDbLine
 10
1777.641450421745
 20
561.1559241102212
 30
0.0
 11
1777.641450421745
 21
641.6352441866628
 31
0.0
  0
LINE
  5
414B
330
18
100
AcDbEntity
  8
01
100
AcDbLine
 10
1765.141450421745
 20
567.0885861592293
 30
0.0
 11
1765.141450421745
 21
567.5034781067524
 31
0.0
  0
LINE
  5
414C
330
18
100
AcDbEntity
  8
01
100
AcDbLine
 10
1765.141450421745
 20
589.378586159229
 30
0.0
 11
1765.141450421745
 21
639.0885861592295
 31
0.0
  0
ARC
  5
414D
330
18
100
AcDbEntity
  8
1HIDDEN
100
AcDbCircle
 10
1788.141450421745
 20
567.5034781067526
 30
0.0
 40
2.0
100
AcDbArc
 50
270.0
 51
0.0
  0
ARC
  5
414E
330
18
100
AcDbEntity
  8
1HIDDEN
100
AcDbCircle
 10
1767.141450421745
 20
567.5034781067524
 30
0.0
 40
2.0
100
AcDbArc
 50
180.0
 51
270.0
  0
ARC
  5
414F
330
18
100
AcDbEntity
  8
1HIDDEN
100
AcDbCircle
 10
1788.141450421745
 20
567.0885861592293
 30
0.0
 40
2.0
100
AcDbArc
 50
270.0
 51
0.0
  0
ARC
  5
4150
330
18
100
AcDbEntity
  8
1HIDDEN
100
AcDbCircle
 10
1767.141450421745
 20
567.0885861592293
 30
0.0
 40
2.0
100
AcDbArc
 50
180.0
 51
270.0
  0
LINE
  5
4151
330
18
100
AcDbEntity
  8
1PHANTOM
100
AcDbLine
 10
1765.141450421745
 20
598.2070882659708
 30
0.0
 11
1790.141450421745
 21
598.2070882659708
 31
0.0
  0
LINE
  5
4152
330
18
100
AcDbEntity
  8
1PHANTOM
100
AcDbLine
 10
1765.141450421745
 20
595.3117865897153
 30
0.0
 11
1790.141450421745
 21
595.3117865897153
 31
0.0
  0
LINE
  5
4153
330
18
100
AcDbEntity
  8
1CENTER
100
AcDbLine
 10
1782.739978440343
 20
608.0885861592293
 30
0.0
 11
1772.837351845189
 21
608.0885861592293
 31
0.0
  0
LINE
  5
4154
330
18
100
AcDbEntity
  8
1CENTER
100
AcDbLine
 10
1783.44927831374
 20
629.0885861592293
 30
0.0
 11
1772.449926254214
 21
629.0885861592293
 31
0.0
  0
CIRCLE
  5
4155
330
18
100
AcDbEntity
  8
01
100
AcDbCircle
 10
1777.641450421745
 20
608.0885861592293
 30
0.0
 40
3.5
  0
CIRCLE
  5
4156
330
18
100
AcDbEntity
  8
01
100
AcDbCircle
 10
1777.641450421745
 20
629.0885861592293
 30
0.0
 40
3.5
  0
LINE
  5
4157
330
18
100
AcDbEntity
  8
1HIDDEN
100
AcDbLine
 10
1765.141450421745
 20
589.378586159229
 30
0.0
 11
1765.141450421745
 21
567.5034781067524
 31
0.0
  0
LINE
  5
4158
330
18
100
AcDbEntity
  8
1HIDDEN
100
AcDbLine
 10
1790.141450421745
 20
589.378586159229
 30
0.0
 11
1790.141450421745
 21
567.5034781067526
 31
0.0
  0
ARC
  5
4397
330
18
100
AcDbEntity
  8
01
100
AcDbCircle
 10
2011.641450421745
 20
635.0885861592266
 30
0.0
 40
4.0
100
AcDbArc
 50
359.9999999999998
 51
89.99999999999949
  0
ARC
  5
4398
330
18
100
AcDbEntity
  8
01
100
AcDbCircle
 10
1683.641450421745
 20
635.0885861592299
 30
0.0
 40
4.0
100
AcDbArc
 50
89.99999999999945
 51
180.0000000000004
  0
ARC
  5
4399
330
18
100
AcDbEntity
  8
01
100
AcDbCircle
 10
2011.641450421744
 20
-106.9837969688792
 30
0.0
 40
4.0
100
AcDbArc
 50
270.0
 51
0.0
  0
ARC
  5
439A
330
18
100
AcDbEntity
  8
01
100
AcDbCircle
 10
1683.641450421745
 20
-106.9837969688756
 30
0.0
 40
4.0
100
AcDbArc
 50
180.0
 51
270.0
  0
LINE
  5
4507
330
18
100
AcDbEntity
  8
1CENTER
100
AcDbLine
 10
1168.853472924831
 20
212.3308954755762
 30
0.0
 11
1151.989408355347
 21
212.3308954755762
 31
0.0
  0
LINE
  5
4508
330
18
100
AcDbEntity
  8
01
100
AcDbLine
 10
1173.329904992273
 20
224.330895475576
 30
0.0
 11
1148.329904992273
 21
224.330895475576
 31
0.0
  0
LINE
  5
4509
330
18
100
AcDbEntity
  8
1CENTER
100
AcDbLine
 10
1160.829904992273
 20
200.3826051224794
 30
0.0
 11
1160.829904992273
 21
258.7553784803445
 31
0.0
  0
LINE
  5
450A
330
18
100
AcDbEntity
  8
01
100
AcDbLine
 10
1173.329904992273
 20
254.3308954755762
 30
0.0
 11
1173.329904992273
 21
206.3308954755762
 31
0.0
  0
ARC
  5
450B
330
18
100
AcDbEntity
  8
01
100
AcDbCircle
 10
1171.329904992273
 20
206.3308954755762
 30
0.0
 40
2.0
100
AcDbArc
 50
270.0
 51
0.0
  0
LINE
  5
450C
330
18
100
AcDbEntity
  8
01
100
AcDbLine
 10
1148.329904992273
 20
206.3308954755762
 30
0.0
 11
1148.329904992273
 21
254.3308954755762
 31
0.0
  0
LINE
  5
450D
330
18
100
AcDbEntity
  8
1CENTER
100
AcDbLine
 10
1209.132716910264
 20
212.3308954755762
 30
0.0
 11
1219.132716910264
 21
212.3308954755762
 31
0.0
  0
LINE
  5
450E
330
18
100
AcDbEntity
  8
01
100
AcDbLine
 10
1212.478507433324
 20
204.3308954755762
 30
0.0
 11
1215.478507433323
 21
204.330895475576
 31
0.0
  0
LINE
  5
450F
330
18
100
AcDbEntity
  8
01
100
AcDbLine
 10
1215.478507433323
 20
204.330895475576
 30
0.0
 11
1215.478507433325
 21
225.3308954755762
 31
0.0
  0
ARC
  5
4510
330
18
100
AcDbEntity
  8
01
100
AcDbCircle
 10
1213.478507433325
 20
225.3308954755762
 30
0.0
 40
2.0
100
AcDbArc
 50
0.0
 51
90.0
  0
LINE
  5
4511
330
18
100
AcDbEntity
  8
01
100
AcDbLine
 10
1213.478507433325
 20
227.3308954755762
 30
0.0
 11
1201.478507433325
 21
227.330895475576
 31
0.0
  0
LINE
  5
4512
330
18
100
AcDbEntity
  8
01
100
AcDbLine
 10
1201.478507433325
 20
251.3308954755764
 30
0.0
 11
1213.978507433324
 21
251.330895475576
 31
0.0
  0
LINE
  5
4513
330
18
100
AcDbEntity
  8
01
100
AcDbLine
 10
1213.978507433324
 20
251.330895475576
 30
0.0
 11
1213.978507433324
 21
254.330895475576
 31
0.0
  0
LINE
  5
4514
330
18
100
AcDbEntity
  8
01
100
AcDbLine
 10
1213.978507433324
 20
254.330895475576
 30
0.0
 11
1200.478507433325
 21
254.330895475576
 31
0.0
  0
LINE
  5
4515
330
18
100
AcDbEntity
  8
01
100
AcDbLine
 10
1200.478507433325
 20
224.330895475576
 30
0.0
 11
1212.478507433324
 21
224.330895475576
 31
0.0
  0
ARC
  5
4516
330
18
100
AcDbEntity
  8
01
100
AcDbCircle
 10
1200.478507433325
 20
226.330895475576
 30
0.0
 40
2.0
100
AcDbArc
 50
180.0
 51
270.0
  0
LINE
  5
4517
330
18
100
AcDbEntity
  8
01
100
AcDbLine
 10
1212.478507433324
 20
224.330895475576
 30
0.0
 11
1212.478507433324
 21
204.3308954755762
 31
0.0
  0
LINE
  5
4518
330
18
100
AcDbEntity
  8
01
100
AcDbLine
 10
1148.329904992273
 20
254.3308954755762
 30
0.0
 11
1173.329904992273
 21
254.3308954755762
 31
0.0
  0
LINE
  5
4519
330
18
100
AcDbEntity
  8
01
100
AcDbLine
 10
1171.329904992273
 20
204.3308954755762
 30
0.0
 11
1150.329904992273
 21
204.3308954755762
 31
0.0
  0
ARC
  5
451A
330
18
100
AcDbEntity
  8
01
100
AcDbCircle
 10
1150.329904992273
 20
206.3308954755762
 30
0.0
 40
2.0
100
AcDbArc
 50
180.0
 51
270.0
  0
LINE
  5
451B
330
18
100
AcDbEntity
  8
1HIDDEN
100
AcDbLine
 10
1148.329904992273
 20
251.3308954755762
 30
0.0
 11
1173.329904992274
 21
251.3308954755762
 31
0.0
  0
LINE
  5
451C
330
18
100
AcDbEntity
  8
1HIDDEN
100
AcDbLine
 10
1173.329904992273
 20
227.3308954755762
 30
0.0
 11
1148.329904992273
 21
227.3308954755762
 31
0.0
  0
LINE
  5
451D
330
18
100
AcDbEntity
  8
01
100
AcDbLine
 10
1186.232100529258
 20
90.46015850163326
 30
0.0
 11
1156.363189442503
 21
90.46015850163326
 31
0.0
  0
LINE
  5
451E
330
18
100
AcDbEntity
  8
01
100
AcDbLine
 10
1153.113189442503
 20
93.71015850163326
 30
0.0
 11
1156.363189442503
 21
90.46015850163326
 31
0.0
  0
LINE
  5
451F
330
18
100
AcDbEntity
  8
01
100
AcDbLine
 10
1192.763189442503
 20
88.71015850163326
 30
0.0
 11
1186.232100529258
 21
90.46015850163326
 31
0.0
  0
LINE
  5
4520
330
18
100
AcDbEntity
  8
01
100
AcDbLine
 10
1153.113189442503
 20
93.71015850163326
 30
0.0
 11
1152.763189442503
 21
93.71015850163326
 31
0.0
  0
LINE
  5
4521
330
18
100
AcDbEntity
  8
01
100
AcDbLine
 10
1192.763189442503
 20
88.71015850163326
 30
0.0
 11
1186.232100529257
 21
86.96015850163326
 31
0.0
  0
LINE
  5
4522
330
18
100
AcDbEntity
  8
01
100
AcDbLine
 10
1152.763189442503
 20
83.71015850163326
 30
0.0
 11
1152.763189442503
 21
93.71015850163326
 31
0.0
  0
LINE
  5
4523
330
18
100
AcDbEntity
  8
01
100
AcDbLine
 10
1186.232100529257
 20
86.96015850163326
 30
0.0
 11
1156.363189442503
 21
86.96015850163326
 31
0.0
  0
LINE
  5
4524
330
18
100
AcDbEntity
  8
01
100
AcDbLine
 10
1153.113189442503
 20
83.71015850163326
 30
0.0
 11
1152.763189442503
 21
83.71015850163326
 31
0.0
  0
LINE
  5
4525
330
18
100
AcDbEntity
  8
01
100
AcDbLine
 10
1153.113189442503
 20
83.71015850163326
 30
0.0
 11
1156.363189442503
 21
86.96015850163326
 31
0.0
  0
LINE
  5
4526
330
18
100
AcDbEntity
  8
1CENTER
100
AcDbLine
 10
1194.617680174931
 20
88.71015850163326
 30
0.0
 11
1150.70578080528
 21
88.71015850163326
 31
0.0
  0
LINE
  5
4527
330
18
100
AcDbEntity
  8
01
100
AcDbLine
 10
1174.881055028549
 20
91.21015850163326
 30
0.0
 11
1174.731055028548
 21
90.46015850163326
 31
0.0
  0
LINE
  5
4528
330
18
100
AcDbEntity
  8
01
100
AcDbLine
 10
1176.031055028549
 20
86.96015850163326
 30
0.0
 11
1175.881055028549
 21
86.21015850163326
 31
0.0
  0
LINE
  5
4529
330
18
100
AcDbEntity
  8
01
100
AcDbLine
 10
1174.881055028549
 20
91.21015850163326
 30
0.0
 11
1175.881055028549
 21
86.21015850163326
 31
0.0
  0
LINE
  5
452A
330
18
100
AcDbEntity
  8
01
100
AcDbLine
 10
1166.031055028549
 20
86.96015850163326
 30
0.0
 11
1165.881055028549
 21
86.21015850163326
 31
0.0
  0
LINE
  5
452B
330
18
100
AcDbEntity
  8
01
100
AcDbLine
 10
1170.031055028549
 20
86.96015850163326
 30
0.0
 11
1169.881055028549
 21
86.21015850163326
 31
0.0
  0
LINE
  5
452C
330
18
100
AcDbEntity
  8
01
100
AcDbLine
 10
1172.031055028549
 20
86.96015850163326
 30
0.0
 11
1171.881055028549
 21
86.21015850163326
 31
0.0
  0
LINE
  5
452D
330
18
100
AcDbEntity
  8
01
100
AcDbLine
 10
1174.031055028549
 20
86.96015850163326
 30
0.0
 11
1173.881055028549
 21
86.21015850163326
 31
0.0
  0
LINE
  5
452E
330
18
100
AcDbEntity
  8
01
100
AcDbLine
 10
1168.031055028549
 20
86.96015850163326
 30
0.0
 11
1167.881055028549
 21
86.21015850163326
 31
0.0
  0
LINE
  5
452F
330
18
100
AcDbEntity
  8
01
100
AcDbLine
 10
1164.881055028549
 20
91.21015850163326
 30
0.0
 11
1165.881055028549
 21
86.21015850163326
 31
0.0
  0
LINE
  5
4530
330
18
100
AcDbEntity
  8
01
100
AcDbLine
 10
1166.881055028549
 20
91.21015850163326
 30
0.0
 11
1166.731055028548
 21
90.46015850163326
 31
0.0
  0
LINE
  5
4531
330
18
100
AcDbEntity
  8
01
100
AcDbLine
 10
1164.881055028549
 20
91.21015850163326
 30
0.0
 11
1164.731055028548
 21
90.46015850163326
 31
0.0
  0
LINE
  5
4532
330
18
100
AcDbEntity
  8
01
100
AcDbLine
 10
1170.881055028549
 20
91.21015850163326
 30
0.0
 11
1171.881055028549
 21
86.21015850163326
 31
0.0
  0
LINE
  5
4533
330
18
100
AcDbEntity
  8
01
100
AcDbLine
 10
1172.881055028549
 20
91.21015850163326
 30
0.0
 11
1173.881055028549
 21
86.21015850163326
 31
0.0
  0
LINE
  5
4534
330
18
100
AcDbEntity
  8
01
100
AcDbLine
 10
1172.881055028549
 20
91.21015850163326
 30
0.0
 11
1172.731055028548
 21
90.46015850163326
 31
0.0
  0
LINE
  5
4535
330
18
100
AcDbEntity
  8
01
100
AcDbLine
 10
1170.881055028549
 20
91.21015850163326
 30
0.0
 11
1170.731055028548
 21
90.46015850163326
 31
0.0
  0
LINE
  5
4536
330
18
100
AcDbEntity
  8
01
100
AcDbLine
 10
1168.881055028549
 20
91.21015850163326
 30
0.0
 11
1169.881055028549
 21
86.21015850163326
 31
0.0
  0
LINE
  5
4537
330
18
100
AcDbEntity
  8
01
100
AcDbLine
 10
1168.881055028549
 20
91.21015850163326
 30
0.0
 11
1168.731055028548
 21
90.46015850163326
 31
0.0
  0
LINE
  5
4538
330
18
100
AcDbEntity
  8
01
100
AcDbLine
 10
1166.881055028549
 20
91.21015850163326
 30
0.0
 11
1167.881055028549
 21
86.21015850163326
 31
0.0
  0
LINE
  5
4539
330
18
100
AcDbEntity
  8
01
100
AcDbLine
 10
1176.881055028549
 20
91.21015850163326
 30
0.0
 11
1176.731055028548
 21
90.46015850163326
 31
0.0
  0
LINE
  5
453A
330
18
100
AcDbEntity
  8
01
100
AcDbLine
 10
1178.881055028549
 20
91.21015850163326
 30
0.0
 11
1178.731055028548
 21
90.46015850163326
 31
0.0
  0
LINE
  5
453B
330
18
100
AcDbEntity
  8
01
100
AcDbLine
 10
1176.881055028549
 20
91.21015850163326
 30
0.0
 11
1177.881055028549
 21
86.21015850163326
 31
0.0
  0
LINE
  5
453C
330
18
100
AcDbEntity
  8
01
100
AcDbLine
 10
1180.881055028549
 20
91.21015850163326
 30
0.0
 11
1180.731055028548
 21
90.46015850163326
 31
0.0
  0
LINE
  5
453D
330
18
100
AcDbEntity
  8
01
100
AcDbLine
 10
1180.881055028549
 20
91.21015850163326
 30
0.0
 11
1181.881055028549
 21
86.21015850163326
 31
0.0
  0
LINE
  5
453E
330
18
100
AcDbEntity
  8
01
100
AcDbLine
 10
1178.881055028549
 20
91.21015850163326
 30
0.0
 11
1179.881055028549
 21
86.21015850163326
 31
0.0
  0
LINE
  5
453F
330
18
100
AcDbEntity
  8
01
100
AcDbLine
 10
1184.881055028549
 20
91.21015850163326
 30
0.0
 11
1185.881055028549
 21
86.21015850163326
 31
0.0
  0
LINE
  5
4540
330
18
100
AcDbEntity
  8
01
100
AcDbLine
 10
1182.881055028549
 20
91.21015850163326
 30
0.0
 11
1182.731055028548
 21
90.46015850163326
 31
0.0
  0
LINE
  5
4541
330
18
100
AcDbEntity
  8
01
100
AcDbLine
 10
1184.881055028549
 20
91.21015850163326
 30
0.0
 11
1184.731055028548
 21
90.46015850163326
 31
0.0
  0
LINE
  5
4542
330
18
100
AcDbEntity
  8
01
100
AcDbLine
 10
1182.881055028549
 20
91.21015850163326
 30
0.0
 11
1183.881055028549
 21
86.21015850163326
 31
0.0
  0
LINE
  5
4543
330
18
100
AcDbEntity
  8
01
100
AcDbLine
 10
1186.031055028549
 20
86.96015850163326
 30
0.0
 11
1185.881055028549
 21
86.21015850163326
 31
0.0
  0
LINE
  5
4544
330
18
100
AcDbEntity
  8
01
100
AcDbLine
 10
1184.031055028549
 20
86.96015850163326
 30
0.0
 11
1183.881055028549
 21
86.21015850163326
 31
0.0
  0
LINE
  5
4545
330
18
100
AcDbEntity
  8
01
100
AcDbLine
 10
1178.031055028549
 20
86.96015850163326
 30
0.0
 11
1177.881055028549
 21
86.21015850163326
 31
0.0
  0
LINE
  5
4546
330
18
100
AcDbEntity
  8
01
100
AcDbLine
 10
1182.031055028549
 20
86.96015850163326
 30
0.0
 11
1181.881055028549
 21
86.21015850163326
 31
0.0
  0
LINE
  5
4547
330
18
100
AcDbEntity
  8
01
100
AcDbLine
 10
1180.031055028549
 20
86.96015850163326
 30
0.0
 11
1179.881055028549
 21
86.21015850163326
 31
0.0
  0
LINE
  5
4548
330
18
100
AcDbEntity
  8
01
100
AcDbLine
 10
1186.917801640341
 20
91.02642544266905
 30
0.0
 11
1186.767801640342
 21
90.27642544266905
 31
0.0
  0
LINE
  5
4549
330
18
100
AcDbEntity
  8
01
100
AcDbLine
 10
1186.917801640341
 20
91.02642544266928
 30
0.0
 11
1187.797182536559
 21
86.62952096157846
 31
0.0
  0
LINE
  5
454A
330
18
100
AcDbEntity
  8
01
100
AcDbLine
 10
1189.845454451249
 20
87.888161388134
 30
0.0
 11
1189.695454451249
 21
87.138161388134
 31
0.0
  0
LINE
  5
454B
330
18
100
AcDbEntity
  8
01
100
AcDbLine
 10
1187.94718253656
 20
87.37952096157846
 30
0.0
 11
1187.797182536559
 21
86.62952096157846
 31
0.0
  0
LINE
  5
454C
330
18
100
AcDbEntity
  8
01
100
AcDbLine
 10
1191.743726365938
 20
88.39680181468952
 30
0.0
 11
1191.593726365937
 21
87.64680181468952
 31
0.0
  0
LINE
  5
454D
330
18
100
AcDbEntity
  8
01
100
AcDbLine
 10
1189.031050294393
 20
90.46018217240976
 30
0.0
 11
1188.881050294393
 21
89.71018217240976
 31
0.0
  0
LINE
  5
454E
330
18
100
AcDbEntity
  8
01
100
AcDbLine
 10
1191.144298948445
 20
89.89393890215047
 30
0.0
 11
1191.593726365937
 21
87.64680181468952
 31
0.0
  0
LINE
  5
454F
330
18
100
AcDbEntity
  8
01
100
AcDbLine
 10
1189.031050294393
 20
90.46018217240976
 30
0.0
 11
1189.695454451249
 21
87.138161388134
 31
0.0
  0
LINE
  5
4550
330
18
100
AcDbEntity
  8
01
100
AcDbLine
 10
1191.144298948445
 20
89.89393890215047
 30
0.0
 11
1190.994298948445
 21
89.14393890215047
 31
0.0
  0
LINE
  5
4551
330
18
100
AcDbEntity
  8
01
100
AcDbLine
 10
1156.881055028549
 20
91.21015850163326
 30
0.0
 11
1156.731055028548
 21
90.46015850163326
 31
0.0
  0
LINE
  5
4552
330
18
100
AcDbEntity
  8
01
100
AcDbLine
 10
1156.881055028549
 20
91.21015850163326
 30
0.0
 11
1157.881055028549
 21
86.21015850163326
 31
0.0
  0
LINE
  5
4553
330
18
100
AcDbEntity
  8
01
100
AcDbLine
 10
1158.031055028549
 20
86.96015850163326
 30
0.0
 11
1157.881055028549
 21
86.21015850163326
 31
0.0
  0
LINE
  5
4554
330
18
100
AcDbEntity
  8
01
100
AcDbLine
 10
1162.031055028549
 20
86.96015850163326
 30
0.0
 11
1161.881055028549
 21
86.21015850163326
 31
0.0
  0
LINE
  5
4555
330
18
100
AcDbEntity
  8
01
100
AcDbLine
 10
1164.031055028549
 20
86.96015850163326
 30
0.0
 11
1163.881055028549
 21
86.21015850163326
 31
0.0
  0
LINE
  5
4556
330
18
100
AcDbEntity
  8
01
100
AcDbLine
 10
1160.031055028549
 20
86.96015850163326
 30
0.0
 11
1159.881055028549
 21
86.21015850163326
 31
0.0
  0
LINE
  5
4557
330
18
100
AcDbEntity
  8
01
100
AcDbLine
 10
1160.881055028549
 20
91.21015850163326
 30
0.0
 11
1161.881055028549
 21
86.21015850163326
 31
0.0
  0
LINE
  5
4558
330
18
100
AcDbEntity
  8
01
100
AcDbLine
 10
1162.881055028549
 20
91.21015850163326
 30
0.0
 11
1163.881055028549
 21
86.21015850163326
 31
0.0
  0
LINE
  5
4559
330
18
100
AcDbEntity
  8
01
100
AcDbLine
 10
1162.881055028549
 20
91.21015850163326
 30
0.0
 11
1162.731055028548
 21
90.46015850163326
 31
0.0
  0
LINE
  5
455A
330
18
100
AcDbEntity
  8
01
100
AcDbLine
 10
1158.881055028549
 20
91.21015850163326
 30
0.0
 11
1159.881055028549
 21
86.21015850163326
 31
0.0
  0
LINE
  5
455B
330
18
100
AcDbEntity
  8
01
100
AcDbLine
 10
1160.881055028549
 20
91.21015850163326
 30
0.0
 11
1160.731055028548
 21
90.46015850163326
 31
0.0
  0
LINE
  5
455C
330
18
100
AcDbEntity
  8
01
100
AcDbLine
 10
1158.881055028549
 20
91.21015850163326
 30
0.0
 11
1158.731055028548
 21
90.46015850163326
 31
0.0
  0
LINE
  5
455D
330
18
100
AcDbEntity
  8
01
100
AcDbLine
 10
1153.113189442503
 20
83.71015850163326
 30
0.0
 11
1153.113189442503
 21
93.71015850163326
 31
0.0
  0
CIRCLE
  5
455E
330
18
100
AcDbEntity
  8
01
100
AcDbCircle
 10
1160.829904992274
 20
212.3308954755762
 30
0.0
 40
2.75
  0
LINE
  5
455F
330
18
100
AcDbEntity
  8
1HIDDEN
100
AcDbLine
 10
1212.478507433325
 20
207.0808954755762
 30
0.0
 11
1214.978507433325
 21
209.5808954755762
 31
0.0
  0
LINE
  5
4560
330
18
100
AcDbEntity
  8
1HIDDEN
100
AcDbLine
 10
1212.478507433325
 20
217.5808954755762
 30
0.0
 11
1214.978507433325
 21
215.0808954755762
 31
0.0
  0
LINE
  5
4561
330
18
100
AcDbEntity
  8
1HIDDEN
100
AcDbLine
 10
1214.978507433325
 20
215.0808954755762
 30
0.0
 11
1215.478507433325
 21
215.0808954755762
 31
0.0
  0
LINE
  5
4562
330
18
100
AcDbEntity
  8
1HIDDEN
100
AcDbLine
 10
1214.978507433325
 20
209.5808954755762
 30
0.0
 11
1215.478507433324
 21
209.5808954755762
 31
0.0
  0
CIRCLE
  5
4563
330
18
100
AcDbEntity
  8
1PHANTOM
100
AcDbCircle
 10
1160.829904992273
 20
212.3308954755762
 30
0.0
 40
5.25
  0
LINE
  5
4564
330
18
100
AcDbEntity
  8
01
100
AcDbLine
 10
1201.478507433325
 20
227.330895475576
 30
0.0
 11
1201.478507433325
 21
251.3308954755764
 31
0.0
  0
LINE
  5
4565
330
18
100
AcDbEntity
  8
01
100
AcDbLine
 10
1198.478507433325
 20
226.330895475576
 30
0.0
 11
1198.478507433325
 21
252.330895475576
 31
0.0
  0
ARC
  5
4566
330
18
100
AcDbEntity
  8
01
100
AcDbCircle
 10
1200.478507433325
 20
252.330895475576
 30
0.0
 40
2.0
100
AcDbArc
 50
90.0
 51
180.0
  0
LINE
  5
4567
330
18
100
AcDbEntity
  8
01
100
AcDbLine
 10
1156.042111067843
 20
155.5201464442575
 30
0.0
 11
1156.042111067843
 21
158.0201464442575
 31
0.0
  0
LINE
  5
4568
330
18
100
AcDbEntity
  8
01
100
AcDbLine
 10
1156.042111067843
 20
149.9201464442576
 30
0.0
 11
1156.042111067843
 21
146.0201464442575
 31
0.0
  0
LINE
  5
4569
330
18
100
AcDbEntity
  8
01
100
AcDbLine
 10
1156.042111067843
 20
146.0201464442575
 30
0.0
 11
1154.442111067842
 21
146.0201464442575
 31
0.0
  0
ARC
  5
456A
330
18
100
AcDbEntity
  8
01
100
AcDbCircle
 10
1154.442111067842
 20
149.0201464442575
 30
0.0
 40
3.0
100
AcDbArc
 50
180.0
 51
270.0
  0
LINE
  5
456B
330
18
100
AcDbEntity
  8
01
100
AcDbLine
 10
1151.442111067842
 20
155.0201464442575
 30
0.0
 11
1151.442111067842
 21
149.0201464442575
 31
0.0
  0
LINE
  5
456C
330
18
100
AcDbEntity
  8
01
100
AcDbLine
 10
1156.042111067843
 20
158.0201464442575
 30
0.0
 11
1156.042111067843
 21
154.1201464442579
 31
0.0
  0
ARC
  5
456D
330
18
100
AcDbEntity
  8
01
100
AcDbCircle
 10
1154.442111067842
 20
155.0201464442575
 30
0.0
 40
3.0
100
AcDbArc
 50
90.0
 51
180.0
  0
LINE
  5
456E
330
18
100
AcDbEntity
  8
01
100
AcDbLine
 10
1156.042111067843
 20
158.0201464442575
 30
0.0
 11
1154.442111067842
 21
158.0201464442575
 31
0.0
  0
LINE
  5
456F
330
18
100
AcDbEntity
  8
01
100
AcDbLine
 10
1177.383549771098
 20
155.0201464442575
 30
0.0
 11
1178.583549771099
 21
149.0201464442575
 31
0.0
  0
LINE
  5
4570
330
18
100
AcDbEntity
  8
1CENTER
100
AcDbLine
 10
1207.854878785324
 20
152.0201464442575
 30
0.0
 11
1152.736428532707
 21
152.0201464442575
 31
0.0
  0
LINE
  5
4571
330
18
100
AcDbEntity
  8
01
100
AcDbLine
 10
1198.204804371949
 20
154.1201464442579
 30
0.0
 11
1156.042111067843
 21
154.1201464442579
 31
0.0
  0
LINE
  5
4572
330
18
100
AcDbEntity
  8
01
100
AcDbLine
 10
1206.042111067843
 20
152.0201464442575
 30
0.0
 11
1198.204804371949
 21
154.1201464442579
 31
0.0
  0
LINE
  5
4573
330
18
100
AcDbEntity
  8
01
100
AcDbLine
 10
1206.042111067843
 20
152.0201464442575
 30
0.0
 11
1198.204804371949
 21
149.9201464442576
 31
0.0
  0
LINE
  5
4574
330
18
100
AcDbEntity
  8
01
100
AcDbLine
 10
1198.204804371949
 20
149.9201464442576
 30
0.0
 11
1156.042111067843
 21
149.9201464442572
 31
0.0
  0
LINE
  5
4575
330
18
100
AcDbEntity
  8
01
100
AcDbLine
 10
1199.02764570525
 20
154.7996667735006
 30
0.0
 11
1198.84764570525
 21
153.8996667735005
 31
0.0
  0
LINE
  5
4576
330
18
100
AcDbEntity
  8
01
100
AcDbLine
 10
1199.02764570525
 20
154.7996667735006
 30
0.0
 11
1200.082902780711
 21
149.5233813961918
 31
0.0
  0
LINE
  5
4577
330
18
100
AcDbEntity
  8
01
100
AcDbLine
 10
1204.099442474974
 20
153.4406829248783
 30
0.0
 11
1203.919442474974
 21
152.5406829248782
 31
0.0
  0
LINE
  5
4578
330
18
100
AcDbEntity
  8
01
100
AcDbLine
 10
1204.818755375964
 20
151.6441184199252
 30
0.0
 11
1204.638755375964
 21
150.7441184199251
 31
0.0
  0
LINE
  5
4579
330
18
100
AcDbEntity
  8
01
100
AcDbLine
 10
1204.099442474974
 20
153.4406829248783
 30
0.0
 11
1204.638755375964
 21
150.7441184199251
 31
0.0
  0
LINE
  5
457A
330
18
100
AcDbEntity
  8
01
100
AcDbLine
 10
1201.563544090112
 20
154.1201748491894
 30
0.0
 11
1201.383544090112
 21
153.2201748491893
 31
0.0
  0
LINE
  5
457B
330
18
100
AcDbEntity
  8
01
100
AcDbLine
 10
1202.540829078338
 20
151.0337499080583
 30
0.0
 11
1202.360829078339
 21
150.1337499080587
 31
0.0
  0
LINE
  5
457C
330
18
100
AcDbEntity
  8
01
100
AcDbLine
 10
1200.262902780712
 20
150.4233813961919
 30
0.0
 11
1200.082902780711
 21
149.5233813961918
 31
0.0
  0
LINE
  5
457D
330
18
100
AcDbEntity
  8
01
100
AcDbLine
 10
1201.563544090112
 20
154.1201748491894
 30
0.0
 11
1202.360829078339
 21
150.1337499080587
 31
0.0
  0
LINE
  5
457E
330
18
100
AcDbEntity
  8
01
100
AcDbLine
 10
1182.183549771098
 20
155.0201464442575
 30
0.0
 11
1182.003549771099
 21
154.1201464442579
 31
0.0
  0
LINE
  5
457F
330
18
100
AcDbEntity
  8
01
100
AcDbLine
 10
1179.783549771098
 20
155.0201464442575
 30
0.0
 11
1179.603549771098
 21
154.1201464442579
 31
0.0
  0
LINE
  5
4580
330
18
100
AcDbEntity
  8
01
100
AcDbLine
 10
1186.983549771098
 20
155.0201464442575
 30
0.0
 11
1186.803549771098
 21
154.1201464442579
 31
0.0
  0
LINE
  5
4581
330
18
100
AcDbEntity
  8
01
100
AcDbLine
 10
1184.583549771099
 20
155.0201464442575
 30
0.0
 11
1184.403549771098
 21
154.1201464442579
 31
0.0
  0
LINE
  5
4582
330
18
100
AcDbEntity
  8
01
100
AcDbLine
 10
1189.383549771098
 20
155.0201464442575
 30
0.0
 11
1189.203549771098
 21
154.1201464442579
 31
0.0
  0
LINE
  5
4583
330
18
100
AcDbEntity
  8
01
100
AcDbLine
 10
1191.783549771098
 20
155.0201464442575
 30
0.0
 11
1191.603549771098
 21
154.1201464442579
 31
0.0
  0
LINE
  5
4584
330
18
100
AcDbEntity
  8
01
100
AcDbLine
 10
1179.783549771098
 20
155.0201464442575
 30
0.0
 11
1180.983549771098
 21
149.0201464442575
 31
0.0
  0
LINE
  5
4585
330
18
100
AcDbEntity
  8
01
100
AcDbLine
 10
1182.183549771098
 20
155.0201464442575
 30
0.0
 11
1183.383549771098
 21
149.0201464442575
 31
0.0
  0
LINE
  5
4586
330
18
100
AcDbEntity
  8
01
100
AcDbLine
 10
1184.583549771099
 20
155.0201464442575
 30
0.0
 11
1185.783549771098
 21
149.0201464442575
 31
0.0
  0
LINE
  5
4587
330
18
100
AcDbEntity
  8
01
100
AcDbLine
 10
1186.983549771098
 20
155.0201464442575
 30
0.0
 11
1188.183549771098
 21
149.0201464442575
 31
0.0
  0
LINE
  5
4588
330
18
100
AcDbEntity
  8
01
100
AcDbLine
 10
1189.383549771098
 20
155.0201464442575
 30
0.0
 11
1190.583549771099
 21
149.0201464442575
 31
0.0
  0
LINE
  5
4589
330
18
100
AcDbEntity
  8
01
100
AcDbLine
 10
1196.583549771099
 20
155.0201464442575
 30
0.0
 11
1196.403549771098
 21
154.1201464442579
 31
0.0
  0
LINE
  5
458A
330
18
100
AcDbEntity
  8
01
100
AcDbLine
 10
1194.183549771098
 20
155.0201464442575
 30
0.0
 11
1194.003549771099
 21
154.1201464442579
 31
0.0
  0
LINE
  5
458B
330
18
100
AcDbEntity
  8
01
100
AcDbLine
 10
1194.183549771098
 20
155.0201464442575
 30
0.0
 11
1195.383549771098
 21
149.0201464442575
 31
0.0
  0
LINE
  5
458C
330
18
100
AcDbEntity
  8
01
100
AcDbLine
 10
1196.583549771099
 20
155.0201464442575
 30
0.0
 11
1197.783549771098
 21
149.0201464442575
 31
0.0
  0
LINE
  5
458D
330
18
100
AcDbEntity
  8
01
100
AcDbLine
 10
1191.783549771098
 20
155.0201464442575
 30
0.0
 11
1192.983549771098
 21
149.0201464442575
 31
0.0
  0
LINE
  5
458E
330
18
100
AcDbEntity
  8
01
100
AcDbLine
 10
1188.363549771097
 20
149.9201464442576
 30
0.0
 11
1188.183549771098
 21
149.0201464442575
 31
0.0
  0
LINE
  5
458F
330
18
100
AcDbEntity
  8
01
100
AcDbLine
 10
1195.563549771098
 20
149.9201464442576
 30
0.0
 11
1195.383549771098
 21
149.0201464442575
 31
0.0
  0
LINE
  5
4590
330
18
100
AcDbEntity
  8
01
100
AcDbLine
 10
1197.963549771098
 20
149.9201464442576
 30
0.0
 11
1197.783549771098
 21
149.0201464442575
 31
0.0
  0
LINE
  5
4591
330
18
100
AcDbEntity
  8
01
100
AcDbLine
 10
1190.763549771098
 20
149.9201464442576
 30
0.0
 11
1190.583549771099
 21
149.0201464442575
 31
0.0
  0
LINE
  5
4592
330
18
100
AcDbEntity
  8
01
100
AcDbLine
 10
1193.163549771099
 20
149.9201464442576
 30
0.0
 11
1192.983549771098
 21
149.0201464442575
 31
0.0
  0
LINE
  5
4593
330
18
100
AcDbEntity
  8
01
100
AcDbLine
 10
1183.563549771098
 20
149.9201464442576
 30
0.0
 11
1183.383549771098
 21
149.0201464442575
 31
0.0
  0
LINE
  5
4594
330
18
100
AcDbEntity
  8
01
100
AcDbLine
 10
1185.963549771098
 20
149.9201464442576
 30
0.0
 11
1185.783549771098
 21
149.0201464442575
 31
0.0
  0
LINE
  5
4595
330
18
100
AcDbEntity
  8
01
100
AcDbLine
 10
1181.163549771099
 20
149.9201464442576
 30
0.0
 11
1180.983549771098
 21
149.0201464442575
 31
0.0
  0
LINE
  5
4596
330
18
100
AcDbEntity
  8
01
100
AcDbLine
 10
1178.763549771098
 20
149.9201464442576
 30
0.0
 11
1178.583549771099
 21
149.0201464442575
 31
0.0
  0
LINE
  5
4597
330
18
100
AcDbEntity
  8
01
100
AcDbLine
 10
1158.183549771098
 20
155.0201464442575
 30
0.0
 11
1159.383549771098
 21
149.0201464442575
 31
0.0
  0
LINE
  5
4598
330
18
100
AcDbEntity
  8
01
100
AcDbLine
 10
1172.583549771099
 20
155.0201464442575
 30
0.0
 11
1172.403549771098
 21
154.1201464442579
 31
0.0
  0
LINE
  5
4599
330
18
100
AcDbEntity
  8
01
100
AcDbLine
 10
1174.983549771098
 20
155.0201464442575
 30
0.0
 11
1174.803549771098
 21
154.1201464442579
 31
0.0
  0
LINE
  5
459A
330
18
100
AcDbEntity
  8
01
100
AcDbLine
 10
1177.383549771098
 20
155.0201464442575
 30
0.0
 11
1177.203549771098
 21
154.1201464442579
 31
0.0
  0
LINE
  5
459B
330
18
100
AcDbEntity
  8
01
100
AcDbLine
 10
1170.183549771098
 20
155.0201464442575
 30
0.0
 11
1170.003549771099
 21
154.1201464442579
 31
0.0
  0
LINE
  5
459C
330
18
100
AcDbEntity
  8
01
100
AcDbLine
 10
1167.783549771098
 20
155.0201464442575
 30
0.0
 11
1167.603549771098
 21
154.1201464442579
 31
0.0
  0
LINE
  5
459D
330
18
100
AcDbEntity
  8
01
100
AcDbLine
 10
1162.983549771098
 20
155.0201464442575
 30
0.0
 11
1162.803549771098
 21
154.1201464442579
 31
0.0
  0
LINE
  5
459E
330
18
100
AcDbEntity
  8
01
100
AcDbLine
 10
1165.383549771098
 20
155.0201464442575
 30
0.0
 11
1165.203549771098
 21
154.1201464442579
 31
0.0
  0
LINE
  5
459F
330
18
100
AcDbEntity
  8
01
100
AcDbLine
 10
1160.583549771099
 20
155.0201464442575
 30
0.0
 11
1160.403549771098
 21
154.1201464442579
 31
0.0
  0
LINE
  5
45A0
330
18
100
AcDbEntity
  8
01
100
AcDbLine
 10
1172.583549771099
 20
155.0201464442575
 30
0.0
 11
1173.783549771098
 21
149.0201464442575
 31
0.0
  0
LINE
  5
45A1
330
18
100
AcDbEntity
  8
01
100
AcDbLine
 10
1174.983549771098
 20
155.0201464442575
 30
0.0
 11
1176.183549771098
 21
149.0201464442575
 31
0.0
  0
LINE
  5
45A2
330
18
100
AcDbEntity
  8
01
100
AcDbLine
 10
1170.183549771098
 20
155.0201464442575
 30
0.0
 11
1171.383549771098
 21
149.0201464442575
 31
0.0
  0
LINE
  5
45A3
330
18
100
AcDbEntity
  8
01
100
AcDbLine
 10
1167.783549771098
 20
155.0201464442575
 30
0.0
 11
1168.983549771098
 21
149.0201464442575
 31
0.0
  0
LINE
  5
45A4
330
18
100
AcDbEntity
  8
01
100
AcDbLine
 10
1165.383549771098
 20
155.0201464442575
 30
0.0
 11
1166.583549771099
 21
149.0201464442575
 31
0.0
  0
LINE
  5
45A5
330
18
100
AcDbEntity
  8
01
100
AcDbLine
 10
1162.983549771098
 20
155.0201464442575
 30
0.0
 11
1164.183549771098
 21
149.0201464442575
 31
0.0
  0
LINE
  5
45A6
330
18
100
AcDbEntity
  8
01
100
AcDbLine
 10
1160.583549771099
 20
155.0201464442575
 30
0.0
 11
1161.783549771098
 21
149.0201464442575
 31
0.0
  0
LINE
  5
45A7
330
18
100
AcDbEntity
  8
01
100
AcDbLine
 10
1173.963549771098
 20
149.9201464442576
 30
0.0
 11
1173.783549771098
 21
149.0201464442575
 31
0.0
  0
LINE
  5
45A8
330
18
100
AcDbEntity
  8
01
100
AcDbLine
 10
1176.363549771097
 20
149.9201464442576
 30
0.0
 11
1176.183549771098
 21
149.0201464442575
 31
0.0
  0
LINE
  5
45A9
330
18
100
AcDbEntity
  8
01
100
AcDbLine
 10
1171.563549771098
 20
149.9201464442576
 30
0.0
 11
1171.383549771098
 21
149.0201464442575
 31
0.0
  0
LINE
  5
45AA
330
18
100
AcDbEntity
  8
01
100
AcDbLine
 10
1169.163549771099
 20
149.9201464442576
 30
0.0
 11
1168.983549771098
 21
149.0201464442575
 31
0.0
  0
LINE
  5
45AB
330
18
100
AcDbEntity
  8
01
100
AcDbLine
 10
1166.763549771098
 20
149.9201464442576
 30
0.0
 11
1166.583549771099
 21
149.0201464442575
 31
0.0
  0
LINE
  5
45AC
330
18
100
AcDbEntity
  8
01
100
AcDbLine
 10
1164.363549771097
 20
149.9201464442576
 30
0.0
 11
1164.183549771098
 21
149.0201464442575
 31
0.0
  0
LINE
  5
45AD
330
18
100
AcDbEntity
  8
01
100
AcDbLine
 10
1161.963549771098
 20
149.9201464442576
 30
0.0
 11
1161.783549771098
 21
149.0201464442575
 31
0.0
  0
LINE
  5
45AE
330
18
100
AcDbEntity
  8
01
100
AcDbLine
 10
1159.563549771098
 20
149.9201464442576
 30
0.0
 11
1159.383549771098
 21
149.0201464442575
 31
0.0
  0
LINE
  5
45AF
330
18
100
AcDbEntity
  8
01
100
AcDbLine
 10
1158.183549771098
 20
155.0201464442575
 30
0.0
 11
1158.003549771099
 21
154.1201464442579
 31
0.0
  0
LINE
  5
45B0
330
18
100
AcDbEntity
  8
01
100
AcDbLine
 10
1156.042111067843
 20
153.7273399605333
 30
0.0
 11
1156.983549771098
 21
149.0201464442575
 31
0.0
  0
LINE
  5
45B1
330
18
100
AcDbEntity
  8
01
100
AcDbLine
 10
1157.163549771099
 20
149.9201464442576
 30
0.0
 11
1156.983549771098
 21
149.0201464442575
 31
0.0
  0
LINE
  5
45B2
330
18
100
AcDbEntity
  8
01
100
AcDbLine
 10
1156.042111067843
 20
149.9201464442576
 30
0.0
 11
1156.042111067843
 21
154.1201464442579
 31
0.0
  0
LINE
  5
45B3
330
18
100
AcDbEntity
  8
01
100
AcDbLine
 10
1156.042111067843
 20
149.9201464442576
 30
0.0
 11
1156.042111067843
 21
154.1201464442579
 31
0.0
  0
LINE
  5
45B4
330
18
100
AcDbEntity
  8
01
100
AcDbLine
 10
1207.428871177865
 20
297.6626382280069
 30
0.0
 11
1202.928871177865
 21
297.6626382280069
 31
0.0
  0
LINE
  5
45B5
330
18
100
AcDbEntity
  8
01
100
AcDbLine
 10
1207.428871177865
 20
332.6626382280069
 30
0.0
 11
1207.428871177865
 21
338.5441361212656
 31
0.0
  0
ARC
  5
45B6
330
18
100
AcDbEntity
  8
01
100
AcDbCircle
 10
1202.928871177865
 20
338.5441361212656
 30
0.0
 40
4.5
100
AcDbArc
 50
0.0
 51
69.44395478036985
  0
LINE
  5
45B7
330
18
100
AcDbEntity
  8
01
100
AcDbLine
 10
1207.428871177865
 20
300.7447244562059
 30
0.0
 11
1207.428871177865
 21
307.4947244562059
 31
0.0
  0
LINE
  5
45B8
330
18
100
AcDbEntity
  8
01
100
AcDbLine
 10
1207.428871177865
 20
297.6626382280069
 30
0.0
 11
1207.428871177865
 21
312.6626382280069
 31
0.0
  0
LINE
  5
45B9
330
18
100
AcDbEntity
  8
01
100
AcDbLine
 10
1207.428871177865
 20
333.9947244562059
 30
0.0
 11
1207.428871177865
 21
334.0020837690868
 31
0.0
  0
LINE
  5
45BA
330
18
100
AcDbEntity
  8
01
100
AcDbLine
 10
1207.428871177865
 20
312.6626382280069
 30
0.0
 11
1207.428871177865
 21
332.6626382280069
 31
0.0
  0
LINE
  5
45BB
330
18
100
AcDbEntity
  8
01
100
AcDbLine
 10
1202.928871177865
 20
297.6626382280069
 30
0.0
 11
1202.928871177865
 21
338.5441361212656
 31
0.0
  0
LINE
  5
45BC
330
18
100
AcDbEntity
  8
01
100
AcDbLine
 10
1202.928871177865
 20
338.1626382280069
 30
0.0
 11
1202.928871177865
 21
338.1626382280069
 31
0.0
  0
LINE
  5
45BD
330
18
100
AcDbEntity
  8
01
100
AcDbLine
 10
1207.428871177865
 20
338.1626382280069
 30
0.0
 11
1207.428871177865
 21
338.1626382280065
 31
0.0
  0
LINE
  5
45BE
330
18
100
AcDbEntity
  8
01
100
AcDbLine
 10
1196.928871177865
 20
371.6626382280069
 30
0.0
 11
1199.428871177865
 21
344.6626382280065
 31
0.0
  0
LINE
  5
45BF
330
18
100
AcDbEntity
  8
01
100
AcDbLine
 10
1192.448038144615
 20
371.2477462804841
 30
0.0
 11
1194.948038144615
 21
344.2477462804832
 31
0.0
  0
LINE
  5
45C0
330
18
100
AcDbEntity
  8
1CENTER
100
AcDbLine
 10
1200.871462540643
 20
328.6626382280069
 30
0.0
 11
1211.501640930382
 21
328.6626382280069
 31
0.0
  0
LINE
  5
45C1
330
18
100
AcDbEntity
  8
1CENTER
100
AcDbLine
 10
1200.871462540643
 20
307.6626382280069
 30
0.0
 11
1212.052010150549
 21
307.6626382280069
 31
0.0
  0
LINE
  5
45C2
330
18
100
AcDbEntity
  8
01
100
AcDbLine
 10
1199.428871177865
 20
344.6626382280065
 30
0.0
 11
1204.508926665013
 21
342.7576174203264
 31
0.0
  0
LINE
  5
45C3
330
18
100
AcDbEntity
  8
01
100
AcDbLine
 10
1197.848815690718
 20
340.4491569289462
 30
0.0
 11
1202.928871177865
 21
338.5441361212656
 31
0.0
  0
ARC
  5
45C4
330
18
100
AcDbEntity
  8
01
100
AcDbCircle
 10
1199.428871177865
 20
344.6626382280065
 30
0.0
 40
4.5
100
AcDbArc
 50
185.2900812053886
 51
249.4439547803699
  0
LINE
  5
45C5
330
18
100
AcDbEntity
  8
01
100
AcDbLine
 10
1196.928871177865
 20
371.6626382280069
 30
0.0
 11
1192.448038144615
 21
371.2477462804841
 31
0.0
  0
LINE
  5
45C6
330
18
100
AcDbEntity
  8
01
100
AcDbLine
 10
1148.122355978626
 20
297.6626382280069
 30
0.0
 11
1173.122355978626
 21
297.6626382280069
 31
0.0
  0
LINE
  5
45C7
330
18
100
AcDbEntity
  8
01
100
AcDbLine
 10
1150.122355978626
 20
371.2477462804841
 30
0.0
 11
1171.122355978626
 21
371.2477462804841
 31
0.0
  0
LINE
  5
45C8
330
18
100
AcDbEntity
  8
01
100
AcDbLine
 10
1150.122355978626
 20
371.6626382280069
 30
0.0
 11
1171.122355978626
 21
371.6626382280069
 31
0.0
  0
LINE
  5
45C9
330
18
100
AcDbEntity
  8
01
100
AcDbLine
 10
1148.122355978626
 20
369.6626382280069
 30
0.0
 11
1148.122355978626
 21
297.6626382280069
 31
0.0
  0
LINE
  5
45CA
330
18
100
AcDbEntity
  8
1CENTER
100
AcDbLine
 10
1160.622355978626
 20
375.5953002770152
 30
0.0
 11
1160.622355978626
 21
295.1159802005736
 31
0.0
  0
LINE
  5
45CB
330
18
100
AcDbEntity
  8
01
100
AcDbLine
 10
1173.122355978626
 20
369.6626382280069
 30
0.0
 11
1173.122355978626
 21
297.6626382280069
 31
0.0
  0
ARC
  5
45CC
330
18
100
AcDbEntity
  8
01
100
AcDbCircle
 10
1150.122355978626
 20
369.2477462804841
 30
0.0
 40
2.0
100
AcDbArc
 50
90.0
 51
180.0
  0
ARC
  5
45CD
330
18
100
AcDbEntity
  8
01
100
AcDbCircle
 10
1171.122355978626
 20
369.2477462804841
 30
0.0
 40
2.0
100
AcDbArc
 50
0.0
 51
90.0
  0
ARC
  5
45CE
330
18
100
AcDbEntity
  8
01
100
AcDbCircle
 10
1150.122355978626
 20
369.6626382280069
 30
0.0
 40
2.0
100
AcDbArc
 50
90.0
 51
180.0
  0
ARC
  5
45CF
330
18
100
AcDbEntity
  8
01
100
AcDbCircle
 10
1171.122355978626
 20
369.6626382280069
 30
0.0
 40
2.0
100
AcDbArc
 50
0.0
 51
90.0
  0
LINE
  5
45D0
330
18
100
AcDbEntity
  8
1PHANTOM
100
AcDbLine
 10
1173.122355978626
 20
338.5441361212656
 30
0.0
 11
1148.122355978626
 21
338.5441361212656
 31
0.0
  0
LINE
  5
45D1
330
18
100
AcDbEntity
  8
1PHANTOM
100
AcDbLine
 10
1173.122355978626
 20
341.4394377975209
 30
0.0
 11
1148.122355978626
 21
341.4394377975209
 31
0.0
  0
LINE
  5
45D2
330
18
100
AcDbEntity
  8
1CENTER
100
AcDbLine
 10
1155.523827960028
 20
328.6626382280069
 30
0.0
 11
1165.426454555182
 21
328.6626382280069
 31
0.0
  0
LINE
  5
45D3
330
18
100
AcDbEntity
  8
1CENTER
100
AcDbLine
 10
1154.814528086631
 20
307.6626382280069
 30
0.0
 11
1165.813880146158
 21
307.6626382280069
 31
0.0
  0
CIRCLE
  5
45D4
330
18
100
AcDbEntity
  8
01
100
AcDbCircle
 10
1160.622355978626
 20
328.6626382280069
 30
0.0
 40
3.5
  0
CIRCLE
  5
45D5
330
18
100
AcDbEntity
  8
01
100
AcDbCircle
 10
1160.622355978626
 20
307.6626382280069
 30
0.0
 40
3.5
  0
LINE
  5
45D6
330
18
100
AcDbEntity
  8
01
100
AcDbLine
 10
1219.123301510938
 20
158.0201464442575
 30
0.0
 11
1219.123301510938
 21
146.0201464442575
 31
0.0
  0
LINE
  5
45D7
330
18
100
AcDbEntity
  8
01
100
AcDbLine
 10
1220.323301510939
 20
158.0201464442575
 30
0.0
 11
1220.323301510939
 21
146.0201464442575
 31
0.0
  0
LINE
  5
45D8
330
18
100
AcDbEntity
  8
01
100
AcDbLine
 10
1220.323301510939
 20
158.0201464442575
 30
0.0
 11
1219.123301510938
 21
158.0201464442575
 31
0.0
  0
LINE
  5
45D9
330
18
100
AcDbEntity
  8
01
100
AcDbLine
 10
1219.123301510938
 20
146.0201464442575
 30
0.0
 11
1220.323301510939
 21
146.0201464442575
 31
0.0
  0
TEXT
  5
465A
330
18
100
AcDbEntity
  8
1TEXT
100
AcDbText
 10
1063.511952029531
 20
818.3387045945601
 30
0.0
 40
19.9998
  1
材質：陶器（ホワイト）
 72
     1
 11
1186.510722029531
 21
818.3387045945601
 31
0.0
100
AcDbText
  0
LINE
  5
473D
330
18
100
AcDbEntity
  8
01
100
AcDbLine
 10
2354.663323326638
 20
776.0246287667974
 30
0.0
 11
2682.663323326638
 21
776.0246287667978
 31
0.0
  0
LINE
  5
473E
330
18
100
AcDbEntity
  8
1PHANTOM
100
AcDbLine
 10
2682.663323326638
 20
576.0246287667978
 30
0.0
 11
2354.663323326638
 21
576.0246287667978
 31
0.0
  0
ARC
  5
473F
330
18
100
AcDbEntity
  8
1PHANTOM
100
AcDbCircle
 10
2354.663323326638
 20
580.0246287667978
 30
0.0
 40
4.0
100
AcDbArc
 50
180.0
 51
270.0
  0
ARC
  5
4740
330
18
100
AcDbEntity
  8
1PHANTOM
100
AcDbCircle
 10
2354.663323326638
 20
772.0246287667974
 30
0.0
 40
4.0
100
AcDbArc
 50
90.0
 51
180.0
  0
ARC
  5
4741
330
18
100
AcDbEntity
  8
1PHANTOM
100
AcDbCircle
 10
2682.663323326638
 20
580.0246287667978
 30
0.0
 40
4.0
100
AcDbArc
 50
270.0
 51
0.0
  0
ARC
  5
4742
330
18
100
AcDbEntity
  8
1PHANTOM
100
AcDbCircle
 10
2682.663323326638
 20
772.0246287667978
 30
0.0
 40
4.0
100
AcDbArc
 50
0.0
 51
90.0
  0
LINE
  5
4743
330
18
100
AcDbEntity
  8
1PHANTOM
100
AcDbLine
 10
2686.663323326638
 20
580.0246287667978
 30
0.0
 11
2686.663323326638
 21
772.0246287667978
 31
0.0
  0
LINE
  5
4745
330
18
100
AcDbEntity
  8
1PHANTOM
100
AcDbLine
 10
2350.663323326638
 20
580.0246287667978
 30
0.0
 11
2350.663323326638
 21
772.0246287667974
 31
0.0
  0
LINE
  5
474E
330
18
100
AcDbEntity
  8
01
100
AcDbLine
 10
2141.605042604343
 20
776.0246287667974
 30
0.0
 11
2824.56207512869
 21
776.0246287667974
 31
0.0
  0
LINE
  5
4750
330
18
100
AcDbEntity
  8
01
100
AcDbLine
 10
2141.605042604343
 20
526.0246287667974
 30
0.0
 11
2824.56207512869
 21
526.0246287667974
 31
0.0
  0
LINE
  5
4751
102
{ACAD_REACTORS
102
}
330
18
100
AcDbEntity
  8
1CENTER
100
AcDbLine
 10
2565.865192697485
 20
686.0246287667974
 30
0.0
 11
2469.879115236028
 21
686.0246287667974
 31
0.0
  0
LINE
  5
4754
102
{ACAD_REACTORS
102
}
330
18
100
AcDbEntity
  8
1CENTER
100
AcDbLine
 10
2518.663323326638
 20
776.0246287667976
 30
0.0
 11
2518.663323326638
 21
526.0246287667974
 31
0.0
  0
CIRCLE
  5
4757
102
{ACAD_REACTORS
102
}
330
18
100
AcDbEntity
  8
01
100
AcDbCircle
 10
2518.663323326638
 20
686.0246287667974
 30
0.0
 40
35.0
  0
CIRCLE
  5
4758
102
{ACAD_REACTORS
102
}
330
18
100
AcDbEntity
  8
01
100
AcDbCircle
 10
2646.663323326638
 20
736.0246287667974
 30
0.0
 40
22.5
  0
LINE
  5
475B
330
18
100
AcDbEntity
  8
01
100
AcDbLine
 10
2739.786637909483
 20
602.2968577358718
 30
0.0
 11
2739.786637909483
 21
571.7103240337676
 31
0.0
  0
LINE
  5
475C
330
18
100
AcDbEntity
  8
01
100
AcDbLine
 10
2727.771434337156
 20
602.2968577358718
 30
0.0
 11
2727.771434337156
 21
571.7103240337676
 31
0.0
  0
LINE
  5
475D
330
18
100
AcDbEntity
  8
01
100
AcDbLine
 10
2733.779038039256
 20
549.1818168045031
 30
0.0
 11
2746.785877707903
 21
571.7103264480877
 31
0.0
  0
LINE
  5
475E
330
18
100
AcDbEntity
  8
01
100
AcDbLine
 10
2746.785880122223
 20
571.7103240337676
 30
0.0
 11
2739.786637909483
 21
571.7103240337676
 31
0.0
  0
LINE
  5
475F
330
18
100
AcDbEntity
  8
01
100
AcDbLine
 10
2733.77903741613
 20
549.1818170459367
 30
0.0
 11
2720.7721950216
 21
571.7103283795416
 31
0.0
  0
LINE
  5
4760
330
18
100
AcDbEntity
  8
01
100
AcDbLine
 10
2727.771433371428
 20
571.7103240337676
 30
0.0
 11
2720.772198401648
 21
571.7103240337676
 31
0.0
  0
TEXT
  5
4761
330
18
100
AcDbEntity
  8
1TEXT
100
AcDbText
 10
2719.38214025248
 20
614.0575747680289
 30
0.0
 40
15.0
  1
手前
100
AcDbText
  0
LINE
  5
4762
330
18
100
AcDbEntity
  8
01
100
AcDbLine
 10
2739.786637909483
 20
602.2968577358718
 30
0.0
 11
2727.771434337156
 21
602.2968577358718
 31
0.0
  0
CIRCLE
  5
48DC
102
{ACAD_REACTORS
102
}
330
18
100
AcDbEntity
  8
1PHANTOM
100
AcDbCircle
 10
2518.663323326638
 20
686.0246287667972
 30
0.0
 40
20.5
  0
CIRCLE
  5
48DD
330
18
100
AcDbEntity
  8
1PHANTOM
100
AcDbCircle
 10
2646.663323326639
 20
736.0246287667972
 30
0.0
 40
13.0
  0
LINE
  5
48E8
330
18
100
AcDbEntity
  8
1CENTER
100
AcDbLine
 10
2617.413372567807
 20
736.0246179647975
 30
0.0
 11
2675.913372567807
 21
736.0246179647975
 31
0.0
  0
LINE
  5
48E9
330
18
100
AcDbEntity
  8
1CENTER
100
AcDbLine
 10
2646.663372567807
 20
706.7746179647975
 30
0.0
 11
2646.663372567807
 21
765.2746179647975
 31
0.0
  0
LINE
  5
48EA
330
18
100
AcDbEntity
  8
1CENTER
100
AcDbLine
 10
2629.763372567807
 20
736.0246179647975
 30
0.0
 11
2663.563372567807
 21
736.0246179647975
 31
0.0
  0
LINE
  5
4A2E
330
18
100
AcDbEntity
  8
1HATCH
100
AcDbLine
 10
1057.063790158688
 20
800.4947679928164
 30
0.0
 11
1057.063790158689
 21
555.4972179928164
 31
0.0
  0
LINE
  5
4A2F
330
18
100
AcDbEntity
  8
1HATCH
100
AcDbLine
 10
1232.062040158689
 20
765.4951179928166
 30
0.0
 11
1232.062040158689
 21
555.4972179928166
 31
0.0
  0
LINE
  5
4A30
330
18
100
AcDbEntity
  8
1HATCH
100
AcDbLine
 10
1407.060290158688
 20
765.4951179928166
 30
0.0
 11
1407.060290158688
 21
555.4972179928166
 31
0.0
  0
TEXT
  5
4A31
330
18
100
AcDbEntity
  8
1TEXT
100
AcDbText
 10
1274.338024655849
 20
701.9239687924191
 30
0.0
 40
19.9998
  1
HA008
 72
     1
 11
1317.670924655849
 21
701.9239687924191
 31
0.0
100
AcDbText
  0
TEXT
  5
4A32
330
18
100
AcDbEntity
  8
1TEXT
100
AcDbText
 10
1272.72830015866
 20
737.995392992816
 30
0.0
 40
19.9998
  1
対応水栓
 72
     1
 11
1319.06117015866
 21
737.995392992816
 31
0.0
100
AcDbText
  0
LINE
  5
4A33
330
18
100
AcDbEntity
  8
1HATCH
100
AcDbLine
 10
1057.063790158688
 20
730.4954679928169
 30
0.0
 11
1582.058540158686
 21
730.4954679928169
 31
0.0
  0
LINE
  5
4A34
330
18
100
AcDbEntity
  8
1HATCH
100
AcDbLine
 10
1057.063790158688
 20
695.4958179928162
 30
0.0
 11
1582.058540158686
 21
695.4958179928162
 31
0.0
  0
TEXT
  5
4A35
330
18
100
AcDbEntity
  8
1TEXT
100
AcDbText
 10
1117.396520158659
 20
703.106266787644
 30
0.0
 40
19.9998
  1
HFE
 72
     1
 11
1144.062920158659
 21
703.106266787644
 31
0.0
100
AcDbText
  0
TEXT
  5
4A36
330
18
100
AcDbEntity
  8
1TEXT
100
AcDbText
 10
1073.730290158659
 20
737.995392992816
 30
0.0
 40
19.9998
  1
対応排水金具
 72
     1
 11
1144.062920158659
 21
737.995392992816
 31
0.0
100
AcDbText
  0
LINE
  5
4A37
330
18
100
AcDbEntity
  8
1HATCH
100
AcDbLine
 10
1057.063790158688
 20
765.4951179928166
 30
0.0
 11
1582.058540158686
 21
765.4951179928166
 31
0.0
  0
TEXT
  5
4A38
330
18
100
AcDbEntity
  8
1TEXT
100
AcDbText
 10
1117.396520158659
 20
668.1066167876443
 30
0.0
 40
19.9998
  1
HFF
 72
     1
 11
1144.062920158659
 21
668.1066167876443
 31
0.0
100
AcDbText
  0
LINE
  5
4A39
330
18
100
AcDbEntity
  8
1HATCH
100
AcDbLine
 10
1057.063790158688
 20
660.4961679928165
 30
0.0
 11
1582.058540158686
 21
660.4961679928165
 31
0.0
  0
LINE
  5
4A3A
330
18
100
AcDbEntity
  8
1HATCH
100
AcDbLine
 10
1057.063790158688
 20
800.4947679928164
 30
0.0
 11
1582.058540158686
 21
800.4947679928164
 31
0.0
  0
TEXT
  5
4A3B
330
18
100
AcDbEntity
  8
1TEXT
100
AcDbText
 10
1199.030497180138
 20
772.5251355555056
 30
0.0
 40
19.9998
  1
HL009手洗器対応表
 72
     1
 11
1315.700626763471
 21
772.5251355555056
 31
0.0
100
AcDbText
  0
TEXT
  5
4A3E
330
18
100
AcDbEntity
  8
1TEXT
100
AcDbText
 10
1117.396520158659
 20
633.1069667876445
 30
0.0
 40
19.9998
  1
HFG
 72
     1
 11
1144.062920158659
 21
633.1069667876445
 31
0.0
100
AcDbText
  0
LINE
  5
4A3F
330
18
100
AcDbEntity
  8
1HATCH
100
AcDbLine
 10
1057.063790158688
 20
625.4965179928167
 30
0.0
 11
1582.058540158686
 21
625.4965179928167
 31
0.0
  0
LINE
  5
4A40
330
18
100
AcDbEntity
  8
1HATCH
100
AcDbLine
 10
1057.063790158688
 20
590.4968679928161
 30
0.0
 11
1582.058540158686
 21
590.4968679928159
 31
0.0
  0
LINE
  5
4A43
330
18
100
AcDbEntity
  8
1HATCH
100
AcDbLine
 10
1057.063790158688
 20
555.4972179928163
 30
0.0
 11
1582.058540158686
 21
555.4972179928166
 31
0.0
  0
TEXT
  5
4A46
330
18
100
AcDbEntity
  8
1TEXT
100
AcDbText
 10
1274.333395072515
 20
666.9243187924185
 30
0.0
 40
19.9998
  1
HA009
 72
     1
 11
1317.670924655849
 21
666.9243187924185
 31
0.0
100
AcDbText
  0
LINE
  5
4A47
330
18
100
AcDbEntity
  8
1HATCH
100
AcDbLine
 10
1582.058540158686
 20
800.4947679928164
 30
0.0
 11
1582.058540158687
 21
555.4972179928167
 31
0.0
  0
TEXT
  5
4A48
330
18
100
AcDbEntity
  8
1TEXT
100
AcDbText
 10
1461.002824655848
 20
701.9239687924194
 30
0.0
 40
19.9998
  1
HN01
 72
     1
 11
1492.669174655848
 21
701.9239687924194
 31
0.0
100
AcDbText
  0
TEXT
  5
4A49
330
18
100
AcDbEntity
  8
1TEXT
100
AcDbText
 10
1435.726670158659
 20
737.995392992816
 30
0.0
 40
19.9998
  1
対応止水栓
 72
     1
 11
1494.059420158659
 21
737.995392992816
 31
0.0
100
AcDbText
  0
TEXT
  5
4A4A
330
18
100
AcDbEntity
  8
1TEXT
100
AcDbText
 10
1457.669524655848
 20
666.9243187924187
 30
0.0
 40
19.9998
  1
HN02
 72
     1
 11
1492.669174655848
 21
666.9243187924187
 31
0.0
100
AcDbText
  0
TEXT
  5
4AEF
330
18
100
AcDbEntity
  8
1TEXT
100
AcDbText
 10
1276.004674655849
 20
631.9246687924187
 30
0.0
 40
19.9998
  1
HA015
 72
     1
 11
1317.670924655849
 21
631.9246687924187
 31
0.0
100
AcDbText
  0
TEXT
  5
4AF0
330
18
100
AcDbEntity
  8
1TEXT
100
AcDbText
 10
1276.004674655849
 20
596.925018792418
 30
0.0
 40
19.9998
  1
HA016
 72
     1
 11
1317.670924655849
 21
596.925018792418
 31
0.0
100
AcDbText
  0
TEXT
  5
4AF1
330
18
100
AcDbEntity
  8
1TEXT
100
AcDbText
 10
1276.004674655849
 20
561.9253687924185
 30
0.0
 40
19.9998
  1
HA017
 72
     1
 11
1317.670924655849
 21
561.9253687924185
 31
0.0
100
AcDbText
  0
TEXT
  5
4AF3
330
18
100
AcDbEntity
  8
1TEXT
100
AcDbText
 10
1457.669524655848
 20
631.924668792419
 30
0.0
 40
19.9998
  1
HN05
 72
     1
 11
1492.669174655848
 21
631.924668792419
 31
0.0
100
AcDbText
  0
LINE
  5
4CE3
330
18
100
AcDbEntity
  8
01
100
AcDbLine
 10
2331.199635700449
 20
-108.1270769076428
 30
0.0
 11
2824.56207512869
 21
-108.1270769076428
 31
0.0
  0
CIRCLE
  5
4D06
330
18
100
AcDbEntity
  8
01
100
AcDbCircle
 10
2458.663323326639
 20
243.8729230923572
 30
0.0
 40
12.5
  0
CIRCLE
  5
4D07
330
18
100
AcDbEntity
  8
01
100
AcDbCircle
 10
2518.663323326639
 20
246.8729230923572
 30
0.0
 40
12.5
  0
LINE
  5
4D08
330
18
100
AcDbEntity
  8
1CENTER
100
AcDbLine
 10
2442.413323326638
 20
243.8729230923545
 30
0.0
 11
2474.913323326638
 21
243.8729230923545
 31
0.0
  0
LINE
  5
4D09
330
18
100
AcDbEntity
  8
1CENTER
100
AcDbLine
 10
2458.663323326638
 20
227.6229230923545
 30
0.0
 11
2458.663323326638
 21
260.1229230923545
 31
0.0
  0
LINE
  5
4D0A
330
18
100
AcDbEntity
  8
1CENTER
100
AcDbLine
 10
2502.413323326638
 20
246.8729230923545
 30
0.0
 11
2534.913323326638
 21
246.8729230923545
 31
0.0
  0
LINE
  5
4D0B
330
18
100
AcDbEntity
  8
1CENTER
100
AcDbLine
 10
2518.663323326638
 20
230.6229230923545
 30
0.0
 11
2518.663323326638
 21
263.1229230923545
 31
0.0
  0
CIRCLE
  5
4D0C
330
18
100
AcDbEntity
  8
01
100
AcDbCircle
 10
2646.663372904892
 20
211.8729230923572
 30
0.000000000000006
 40
10.2
  0
LINE
  5
4D0D
330
18
100
AcDbEntity
  8
1CENTER
100
AcDbLine
 10
2633.403372904892
 20
211.8729230923545
 30
0.0
 11
2659.923372904893
 21
211.8729230923545
 31
0.0
  0
LINE
  5
4D0E
330
18
100
AcDbEntity
  8
1CENTER
100
AcDbLine
 10
2646.663372904893
 20
198.6129230923545
 30
0.0
 11
2646.663372904893
 21
225.1329230923545
 31
0.0
  0
CIRCLE
  5
4D14
330
18
100
AcDbEntity
  8
01
100
AcDbCircle
 10
2646.663372904892
 20
41.87292309235994
 30
0.000000000000006
 40
10.2
  0
LINE
  5
4D15
330
18
100
AcDbEntity
  8
1CENTER
100
AcDbLine
 10
2633.403372904892
 20
41.87292309235721
 30
0.0
 11
2659.923372904893
 21
41.87292309235721
 31
0.0
  0
LINE
  5
4D16
330
18
100
AcDbEntity
  8
1CENTER
100
AcDbLine
 10
2646.663372904893
 20
28.61292309235722
 30
0.0
 11
2646.663372904893
 21
55.1329230923572
 31
0.0
  0
LINE
  5
4DFC
330
18
100
AcDbEntity
  8
1CENTER
100
AcDbLine
 10
2518.663323326638
 20
334.8716554997044
 30
0.0
 11
2518.663323326638
 21
464.2658877305911
 31
0.0
  0
LINE
  5
4DFD
330
18
100
AcDbEntity
  8
01
100
AcDbLine
 10
2350.663323326638
 20
452.8729230923577
 30
0.0
 11
2350.663323326638
 21
345.872923092359
 31
0.0
  0
ARC
  5
4DFE
330
18
100
AcDbEntity
  8
01
100
AcDbCircle
 10
2354.663323326638
 20
345.872923092359
 30
0.0
 40
4.0
100
AcDbArc
 50
180.0
 51
270.0
  0
ARC
  5
4DFF
330
18
100
AcDbEntity
  8
01
100
AcDbCircle
 10
2354.663323326638
 20
452.8729230923577
 30
0.0
 40
4.0
100
AcDbArc
 50
90.0
 51
180.0
  0
LINE
  5
4E00
330
18
100
AcDbEntity
  8
01
100
AcDbLine
 10
2354.663323326638
 20
456.872923092359
 30
0.0
 11
2682.663323326638
 21
456.8729230923563
 31
0.0
  0
LINE
  5
4E01
330
18
100
AcDbEntity
  8
01
100
AcDbLine
 10
2354.663323326638
 20
341.872923092359
 30
0.0
 11
2682.663323326637
 21
341.8729230923554
 31
0.0
  0
ARC
  5
4E02
330
18
100
AcDbEntity
  8
01
100
AcDbCircle
 10
2682.663323326637
 20
345.8729230923554
 30
0.0
 40
4.0
100
AcDbArc
 50
270.0
 51
0.0
  0
LINE
  5
4E03
330
18
100
AcDbEntity
  8
01
100
AcDbLine
 10
2686.663323326638
 20
452.8729230923568
 30
0.0
 11
2686.663323326637
 21
345.8729230923554
 31
0.0
  0
ARC
  5
4E04
330
18
100
AcDbEntity
  8
01
100
AcDbCircle
 10
2682.663323326638
 20
452.8729230923568
 30
0.0
 40
4.0
100
AcDbArc
 50
0.0
 51
90.0
  0
LINE
  5
4E05
330
18
100
AcDbEntity
  8
1HIDDEN
100
AcDbLine
 10
2498.163323326637
 20
341.872923092357
 30
0.0
 11
2498.163323326637
 21
349.872923092357
 31
0.0
  0
ARC
  5
4E06
330
18
100
AcDbEntity
  8
1HIDDEN
100
AcDbCircle
 10
2488.663323326638
 20
363.6155637794745
 30
0.0
 40
3.0
100
AcDbArc
 50
180.0
 51
224.9999999999906
  0
LINE
  5
4E07
330
18
100
AcDbEntity
  8
1HIDDEN
100
AcDbLine
 10
2485.663323326638
 20
363.615563779474
 30
0.0
 11
2485.663323326638
 21
365.3244341639062
 31
0.0
  0
LINE
  5
4E08
330
18
100
AcDbEntity
  8
1HIDDEN
100
AcDbLine
 10
2486.542002983078
 20
361.4942434359152
 30
0.0
 11
2498.163323326637
 21
349.8729230923568
 31
0.0
  0
ARC
  5
4E09
330
18
100
AcDbEntity
  8
1HIDDEN
100
AcDbCircle
 10
2545.860537198591
 20
558.5986304368464
 30
0.0
 40
200.0
100
AcDbArc
 50
211.1365627980444
 51
251.7593741651302
  0
ARC
  5
4E0A
330
18
100
AcDbEntity
  8
1HIDDEN
100
AcDbCircle
 10
2482.163323326638
 20
365.3244341639071
 30
0.0
 40
3.5
100
AcDbArc
 50
0.0
 51
71.75937416513024
  0
ARC
  5
4E0B
330
18
100
AcDbEntity
  8
1HIDDEN
100
AcDbCircle
 10
2371.677298872247
 20
453.372923092357
 30
0.0
 40
3.5
100
AcDbArc
 50
31.13656279804438
 51
90.0
  0
ARC
  5
4E0C
330
18
100
AcDbEntity
  8
1HIDDEN
100
AcDbCircle
 10
2491.466109454681
 20
558.598630436846
 30
0.0
 40
200.0
100
AcDbArc
 50
288.2406258348698
 51
328.8634372019557
  0
ARC
  5
4E0D
330
18
100
AcDbEntity
  8
1HIDDEN
100
AcDbCircle
 10
2665.649347781026
 20
453.3729230923595
 30
0.0
 40
3.5
100
AcDbArc
 50
90.0
 51
148.8634372019556
  0
ARC
  5
4E0E
330
18
100
AcDbEntity
  8
1HIDDEN
100
AcDbCircle
 10
2555.163323326637
 20
365.3244341639078
 30
0.0
 40
3.5
100
AcDbArc
 50
108.2406258348698
 51
180.0
  0
LINE
  5
4E0F
330
18
100
AcDbEntity
  8
1HIDDEN
100
AcDbLine
 10
2551.663323326637
 20
363.6155637794745
 30
0.0
 11
2551.663323326637
 21
365.3244341639078
 31
0.0
  0
LINE
  5
4E10
330
18
100
AcDbEntity
  8
1HIDDEN
100
AcDbLine
 10
2539.163323326638
 20
341.8729230923574
 30
0.0
 11
2539.163323326638
 21
349.8729230923574
 31
0.0
  0
ARC
  5
4E11
330
18
100
AcDbEntity
  8
1HIDDEN
100
AcDbCircle
 10
2548.663323326637
 20
363.6155637794749
 30
0.0
 40
3.0
100
AcDbArc
 50
315.0000000000094
 51
0.0
  0
LINE
  5
4E12
330
18
100
AcDbEntity
  8
1HIDDEN
100
AcDbLine
 10
2550.784643670197
 20
361.4942434359156
 30
0.0
 11
2539.163323326638
 21
349.8729230923572
 31
0.0
  0
LINE
  5
4E13
330
18
100
AcDbEntity
  8
1CENTER
100
AcDbLine
 10
2646.663372904893
 20
465.4294174468704
 30
0.0
 11
2646.663372904893
 21
335.6427752515787
 31
0.0
  0
CIRCLE
  5
4F59
102
{ACAD_REACTORS
102
}
330
18
100
AcDbEntity
  8
01
100
AcDbCircle
 10
2503.663323326638
 20
726.0246287667974
 30
0.0
 40
12.5
  0
LINE
  5
4F5B
330
18
100
AcDbEntity
  8
1CENTER
100
AcDbLine
 10
2487.413323326637
 20
726.0246287667976
 30
0.0
 11
2519.913323326637
 21
726.0246287667976
 31
0.0
  0
LINE
  5
4F5C
102
{ACAD_REACTORS
102
}
330
18
100
AcDbEntity
  8
1CENTER
100
AcDbLine
 10
2503.663323326637
 20
709.7746287667976
 30
0.0
 11
2503.663323326637
 21
742.2746287667976
 31
0.0
  0
LINE
  5
60C8
330
18
100
AcDbEntity
  8
01
100
AcDbLine
 10
1829.641450421744
 20
619.0885861592291
 30
0.0
 11
1865.641450421744
 21
619.0885861592291
 31
0.0
  0
LINE
  5
60C9
330
18
100
AcDbEntity
  8
01
100
AcDbLine
 10
1865.641450421744
 20
609.0885861592282
 30
0.0
 11
1829.641450421744
 21
609.0885861592282
 31
0.0
  0
LINE
  5
60CA
330
18
100
AcDbEntity
  8
01
100
AcDbLine
 10
2193.974613742928
 20
776.0246287667974
 30
0.0
 11
2180.984232686161
 21
753.5246287667974
 31
0.0
  0
LINE
  5
60CB
330
18
100
AcDbEntity
  8
01
100
AcDbLine
 10
2180.984232686161
 20
753.5246287667974
 30
0.0
 11
2206.964994799695
 21
753.5246287667974
 31
0.0
  0
LINE
  5
60CC
330
18
100
AcDbEntity
  8
01
100
AcDbLine
 10
2206.964994799695
 20
753.5246287667974
 30
0.0
 11
2193.974613742928
 21
776.0246287667974
 31
0.0
  0
LINE
  5
60CD
330
18
100
AcDbEntity
  8
1DIM
100
AcDbLine
 10
1679.641450421745
 20
297.1495992484536
 30
0.0
 11
1679.641450421745
 21
371.4164674503898
 31
0.0
1001
ACAD
1000
DSTYLE
1002
{
1070
    40
1040
5.0
1070
    48
1040
16.8
1070
    47
1040
16.8
1002
}
  0
LINE
  5
60CE
330
18
100
AcDbEntity
  8
1DIM
100
AcDbLine
 10
2015.641450421745
 20
297.1495992484536
 30
0.0
 11
2015.641450421745
 21
371.4164674503898
 31
0.0
1001
ACAD
1000
DSTYLE
1002
{
1070
    40
1040
5.0
1070
    48
1040
16.8
1070
    47
1040
16.8
1002
}
  0
LINE
  5
60CF
330
18
100
AcDbEntity
  8
1DIM
100
AcDbLine
 10
1689.641450421745
 20
366.4164674503898
 30
0.0
 11
2005.641450421745
 21
366.4164674503898
 31
0.0
1001
ACAD
1000
DSTYLE
1002
{
1070
    40
1040
5.0
1070
    48
1040
16.8
1070
    47
1040
16.8
1002
}
  0
LINE
  5
60D3
330
18
100
AcDbEntity
  8
1DIM
100
AcDbLine
 10
1683.641450421745
 20
301.1495992484536
 30
0.0
 11
1608.422515249351
 21
301.1495992484536
 31
0.0
1001
ACAD
1000
DSTYLE
1002
{
1070
    40
1040
5.0
1070
    48
1040
10.0
1070
    47
1040
10.0
1002
}
  0
LINE
  5
60D4
330
18
100
AcDbEntity
  8
1DIM
100
AcDbLine
 10
1683.641450421745
 20
101.1495992484541
 30
0.0
 11
1608.422515249351
 21
101.1495992484541
 31
0.0
1001
ACAD
1000
DSTYLE
1002
{
1070
    40
1040
5.0
1070
    48
1040
10.0
1070
    47
1040
10.0
1002
}
  0
LINE
  5
60D5
330
18
100
AcDbEntity
  8
1DIM
100
AcDbLine
 10
1613.422515249351
 20
291.1495992484536
 30
0.0
 11
1613.422515249351
 21
111.1495992484541
 31
0.0
1001
ACAD
1000
DSTYLE
1002
{
1070
    40
1040
5.0
1070
    48
1040
10.0
1070
    47
1040
10.0
1002
}
  0
LINE
  5
60D9
330
18
100
AcDbEntity
  8
1DIM
100
AcDbLine
 10
1683.641450421745
 20
-110.9837969688756
 30
0.0
 11
1608.422515249351
 21
-110.9837969688756
 31
0.0
1001
ACAD
1000
DSTYLE
1002
{
1070
    40
1040
5.0
1002
}
  0
LINE
  5
60DA
330
18
100
AcDbEntity
  8
1DIM
100
AcDbLine
 10
1683.641450421745
 20
4.016203031123041
 30
0.0
 11
1608.422515249351
 21
4.016203031123045
 31
0.0
1001
ACAD
1000
DSTYLE
1002
{
1070
    40
1040
5.0
1002
}
  0
LINE
  5
60DB
330
18
100
AcDbEntity
  8
1DIM
100
AcDbLine
 10
1613.422515249351
 20
-100.9837969688756
 30
0.0
 11
1613.422515249351
 21
-5.983796968876953
 31
0.0
1001
ACAD
1000
DSTYLE
1002
{
1070
    40
1040
5.0
1002
}
  0
LINE
  5
60DF
330
18
100
AcDbEntity
  8
1DIM
100
AcDbLine
 10
1683.641450421745
 20
301.1495992484536
 30
0.0
 11
1642.816510074176
 21
301.1495992484537
 31
0.0
1001
ACAD
1000
DSTYLE
1002
{
1070
    40
1040
5.0
1002
}
  0
LINE
  5
60E0
330
18
100
AcDbEntity
  8
1DIM
100
AcDbLine
 10
1815.641450421745
 20
211.1495992484536
 30
0.0
 11
1642.816510074176
 21
211.1495992484537
 31
0.0
1001
ACAD
1000
DSTYLE
1002
{
1070
    40
1040
5.0
1002
}
  0
LINE
  5
60E1
330
18
100
AcDbEntity
  8
1DIM
100
AcDbLine
 10
1647.816510074176
 20
291.1495992484537
 30
0.0
 11
1647.816510074176
 21
221.1495992484537
 31
0.0
1001
ACAD
1000
DSTYLE
1002
{
1070
    40
1040
5.0
1002
}
  0
LINE
  5
60E5
330
18
100
AcDbEntity
  8
1DIM
100
AcDbLine
 10
1847.641450421745
 20
312.671987583449
 30
0.0
 11
1847.641450421745
 21
340.1622232161908
 31
0.0
1001
ACAD
1000
DSTYLE
1002
{
1070
    40
1040
5.0
1002
}
  0
LINE
  5
60E6
330
18
100
AcDbEntity
  8
1DIM
100
AcDbLine
 10
1975.6415
 20
300.1495639987372
 30
0.0
 11
1975.6415
 21
340.1622232161908
 31
0.0
1001
ACAD
1000
DSTYLE
1002
{
1070
    40
1040
5.0
1002
}
  0
LINE
  5
60E7
330
18
100
AcDbEntity
  8
1DIM
100
AcDbLine
 10
1857.641450421745
 20
335.1622232161908
 30
0.0
 11
1965.6415
 21
335.1622232161908
 31
0.0
1001
ACAD
1000
DSTYLE
1002
{
1070
    40
1040
5.0
1002
}
  0
LINE
  5
60EB
330
18
100
AcDbEntity
  8
1DIM
100
AcDbLine
 10
2011.641450421745
 20
301.1495992484541
 30
0.0
 11
2083.915719129892
 21
301.1495992484541
 31
0.0
1001
ACAD
1000
DSTYLE
1002
{
1070
    40
1040
5.0
1002
}
  0
LINE
  5
60EC
330
18
100
AcDbEntity
  8
1DIM
100
AcDbLine
 10
2014.6415
 20
261.1495639987372
 30
0.0
 11
2083.915719129892
 21
261.1495639987372
 31
0.0
1001
ACAD
1000
DSTYLE
1002
{
1070
    40
1040
5.0
1002
}
  0
LINE
  5
60ED
330
18
100
AcDbEntity
  8
1DIM
100
AcDbLine
 10
2078.915719129892
 20
291.1495992484541
 30
0.0
 11
2078.915719129892
 21
271.1495639987372
 31
0.0
1001
ACAD
1000
DSTYLE
1002
{
1070
    40
1040
5.0
1002
}
  0
LINE
  5
60F1
330
18
100
AcDbEntity
  8
1DIM
100
AcDbLine
 10
1911.867304541162
 20
152.9589576147479
 30
0.0
 11
1870.244010621463
 21
190.6709695965918
 31
0.0
1001
ACAD
1000
DSTYLE
1002
{
1070
    40
1040
5.0
1002
}
  0
LINE
  5
60F2
330
18
100
AcDbEntity
  8
1DIM
100
AcDbLine
 10
1825.038890222027
 20
231.6282289003153
 30
0.0
 11
1817.628214746709
 21
238.3425337042045
 31
0.0
1001
ACAD
1000
DSTYLE
1002
{
1070
    40
1040
5.0
1002
}
  0
LINE
  5
60F4
330
18
100
AcDbEntity
  8
1DIM
100
AcDbLine
 10
1832.449565697344
 20
224.9139240964262
 30
0.0
 11
1862.833335146145
 21
197.385274400481
 31
0.0
1001
ACAD
1000
DSTYLE
1002
{
1070
    40
1040
5.0
1002
}
  0
LINE
  5
60F7
330
18
100
AcDbEntity
  8
1DIM
100
AcDbLine
 10
2063.337593533836
 20
186.481651514758
 30
0.0
 11
1993.153610119812
 21
246.239057249269
 31
0.0
1001
ACAD
1000
DSTYLE
1002
{
1070
    40
1040
5.0
1002
}
  0
LINE
  5
60F8
330
18
100
AcDbEntity
  8
1DIM
100
AcDbLine
 10
1958.12929072368
 20
276.0601412476379
 30
0.0
 11
1950.515308246261
 21
282.5429855951095
 31
0.0
1001
ACAD
1000
DSTYLE
1002
{
1070
    40
1040
5.0
1002
}
  0
LINE
  5
60FA
330
18
100
AcDbEntity
  8
1DIM
100
AcDbLine
 10
1965.7432732011
 20
269.5772969001665
 30
0.0
 11
1985.539627642392
 21
252.7219015967405
 31
0.0
1001
ACAD
1000
DSTYLE
1002
{
1070
    40
1040
5.0
1002
}
  0
LINE
  5
60FD
330
18
100
AcDbEntity
  8
1DIM
100
AcDbLine
 10
1683.641450421745
 20
4.016203031124405
 30
0.0
 11
1642.816510074176
 21
4.016203031124407
 31
0.0
1001
ACAD
1000
DSTYLE
1002
{
1070
    40
1040
5.0
1002
}
  0
LINE
  5
60FE
330
18
100
AcDbEntity
  8
1DIM
100
AcDbLine
 10
1814.641450421746
 20
-84.98379696887406
 30
0.0
 11
1642.816510074176
 21
-84.98379696887405
 31
0.0
1001
ACAD
1000
DSTYLE
1002
{
1070
    40
1040
5.0
1002
}
  0
LINE
  5
60FF
330
18
100
AcDbEntity
  8
1DIM
100
AcDbLine
 10
1647.816510074176
 20
-5.983796968875593
 30
0.0
 11
1647.816510074176
 21
-74.98379696887405
 31
0.0
1001
ACAD
1000
DSTYLE
1002
{
1070
    40
1040
5.0
1002
}
  0
LINE
  5
6103
330
18
100
AcDbEntity
  8
1DIM
100
AcDbLine
 10
2011.641450421745
 20
639.0885861592266
 30
0.0
 11
2083.915719129892
 21
639.0885861592266
 31
0.0
1001
ACAD
1000
DSTYLE
1002
{
1070
    40
1040
5.0
1070
   341
1005
0
1002
}
  0
LINE
  5
6104
330
18
100
AcDbEntity
  8
1DIM
100
AcDbLine
 10
1865.641450421744
 20
619.0885861592291
 30
0.0
 11
2083.915719129892
 21
619.0885861592291
 31
0.0
1001
ACAD
1000
DSTYLE
1002
{
1070
    40
1040
5.0
1070
   341
1005
0
1002
}
  0
LINE
  5
6105
330
18
100
AcDbEntity
  8
1DIM
100
AcDbLine
 10
2078.915719129892
 20
649.0885861592266
 30
0.0
 11
2078.915719129892
 21
659.0885861592266
 31
0.0
1001
ACAD
1000
DSTYLE
1002
{
1070
    40
1040
5.0
1070
   341
1005
0
1002
}
  0
LINE
  5
6106
330
18
100
AcDbEntity
  8
1DIM
100
AcDbLine
 10
2078.915719129892
 20
609.0885861592291
 30
0.0
 11
2078.915719129892
 21
563.7552528258957
 31
0.0
1001
ACAD
1000
DSTYLE
1002
{
1070
    40
1040
5.0
1070
   341
1005
0
1002
}
  0
LINE
  5
6107
330
18
100
AcDbEntity
  8
1DIM
100
AcDbLine
 10
2078.915719129892
 20
639.0885861592266
 30
0.0
 11
2078.915719129892
 21
619.0885861592291
 31
0.0
1001
ACAD
1000
DSTYLE
1002
{
1070
    40
1040
5.0
1070
   341
1005
0
1002
}
  0
LINE
  5
610B
330
18
100
AcDbEntity
  8
1DIM
100
AcDbLine
 10
1824.641450421745
 20
614.0885861592293
 30
0.0
 11
1824.641450421745
 21
468.2484418804947
 31
0.0
1001
ACAD
1000
DSTYLE
1002
{
1070
    40
1040
5.0
1002
}
  0
LINE
  5
610C
330
18
100
AcDbEntity
  8
1DIM
100
AcDbLine
 10
1870.641450421745
 20
614.0885861592293
 30
0.0
 11
1870.641450421745
 21
468.2484418804947
 31
0.0
1001
ACAD
1000
DSTYLE
1002
{
1070
    40
1040
5.0
1002
}
  0
LINE
  5
610D
330
18
100
AcDbEntity
  8
1DIM
100
AcDbLine
 10
1834.641450421745
 20
473.2484418804947
 30
0.0
 11
1860.641450421745
 21
473.2484418804947
 31
0.0
1001
ACAD
1000
DSTYLE
1002
{
1070
    40
1040
5.0
1002
}
  0
LINE
  5
6111
330
18
100
AcDbEntity
  8
1DIM
100
AcDbLine
 10
1777.641450421746
 20
644.967218878004
 30
0.0
 11
1777.641450421746
 21
697.2286714053967
 31
0.0
1001
ACAD
1000
DSTYLE
1002
{
1070
    40
1040
5.0
1002
}
  0
LINE
  5
6112
330
18
100
AcDbEntity
  8
1DIM
100
AcDbLine
 10
1917.641450421744
 20
643.757409272757
 30
0.0
 11
1917.641450421744
 21
697.2286714053967
 31
0.0
1001
ACAD
1000
DSTYLE
1002
{
1070
    40
1040
5.0
1002
}
  0
LINE
  5
6113
330
18
100
AcDbEntity
  8
1DIM
100
AcDbLine
 10
1787.641450421746
 20
692.2286714053967
 30
0.0
 11
1907.641450421744
 21
692.2286714053967
 31
0.0
1001
ACAD
1000
DSTYLE
1002
{
1070
    40
1040
5.0
1002
}
  0
LINE
  5
6117
330
18
100
AcDbEntity
  8
1DIM
100
AcDbLine
 10
1756.641450421746
 20
589.378586159229
 30
0.0
 11
1608.422515249352
 21
589.378586159229
 31
0.0
1001
ACAD
1000
DSTYLE
1002
{
1070
    40
1040
5.0
1070
   271
1070
     0
1002
}
  0
LINE
  5
6118
330
18
100
AcDbEntity
  8
1DIM
100
AcDbLine
 10
1683.641450421745
 20
639.0885861592299
 30
0.0
 11
1608.422515249352
 21
639.0885861592299
 31
0.0
1001
ACAD
1000
DSTYLE
1002
{
1070
    40
1040
5.0
1070
   271
1070
     0
1002
}
  0
LINE
  5
6119
330
18
100
AcDbEntity
  8
1DIM
100
AcDbLine
 10
1613.422515249352
 20
599.378586159229
 30
0.0
 11
1613.422515249352
 21
629.0885861592299
 31
0.0
1001
ACAD
1000
DSTYLE
1002
{
1070
    40
1040
5.0
1070
   271
1070
     0
1002
}
  0
LINE
  5
611D
330
18
100
AcDbEntity
  8
1DIM
100
AcDbLine
 10
1772.449926254214
 20
629.0885861592293
 30
0.0
 11
1642.816510074176
 21
629.0885861592293
 31
0.0
1001
ACAD
1000
DSTYLE
1002
{
1070
    40
1040
5.0
1070
   173
1070
     1
1070
   343
1005
3F3D
1070
   344
1005
42
1002
}
  0
LINE
  5
611E
330
18
100
AcDbEntity
  8
1DIM
100
AcDbLine
 10
1683.641450421745
 20
639.0885861592299
 30
0.0
 11
1642.816510074176
 21
639.0885861592299
 31
0.0
1001
ACAD
1000
DSTYLE
1002
{
1070
    40
1040
5.0
1070
   173
1070
     1
1070
   343
1005
3F3D
1070
   344
1005
42
1002
}
  0
LINE
  5
611F
330
18
100
AcDbEntity
  8
1DIM
100
AcDbLine
 10
1647.816510074176
 20
629.0885861592293
 30
0.0
 11
1647.816510074176
 21
619.0885861592293
 31
0.0
1001
ACAD
1000
DSTYLE
1002
{
1070
    40
1040
5.0
1070
   173
1070
     1
1070
   343
1005
3F3D
1070
   344
1005
42
1002
}
  0
LINE
  5
6120
330
18
100
AcDbEntity
  8
1DIM
100
AcDbLine
 10
1647.816510074176
 20
649.0885861592299
 30
0.0
 11
1647.816510074176
 21
691.9219194925632
 31
0.0
1001
ACAD
1000
DSTYLE
1002
{
1070
    40
1040
5.0
1070
   173
1070
     1
1070
   343
1005
3F3D
1070
   344
1005
42
1002
}
  0
LINE
  5
6121
330
18
100
AcDbEntity
  8
1DIM
100
AcDbLine
 10
1647.816510074176
 20
629.0885861592293
 30
0.0
 11
1647.816510074176
 21
639.0885861592299
 31
0.0
1001
ACAD
1000
DSTYLE
1002
{
1070
    40
1040
5.0
1070
   173
1070
     1
1070
   343
1005
3F3D
1070
   344
1005
42
1002
}
  0
LINE
  5
6125
330
18
100
AcDbEntity
  8
1DIM
100
AcDbLine
 10
1772.449926254214
 20
629.0885861592293
 30
0.0
 11
1642.816510074176
 21
629.0885861592293
 31
0.0
1001
ACAD
1000
DSTYLE
1002
{
1070
    40
1040
5.0
1070
   173
1070
     1
1070
   343
1005
3F3D
1070
   344
1005
42
1002
}
  0
LINE
  5
6126
330
18
100
AcDbEntity
  8
1DIM
100
AcDbLine
 10
1772.837351845189
 20
608.0885861592293
 30
0.0
 11
1642.816510074176
 21
608.0885861592293
 31
0.0
1001
ACAD
1000
DSTYLE
1002
{
1070
    40
1040
5.0
1070
   173
1070
     1
1070
   343
1005
3F3D
1070
   344
1005
42
1002
}
  0
LINE
  5
6127
330
18
100
AcDbEntity
  8
1DIM
100
AcDbLine
 10
1647.816510074176
 20
629.0885861592293
 30
0.0
 11
1647.816510074176
 21
618.0885861592293
 31
0.0
1001
ACAD
1000
DSTYLE
1002
{
1070
    40
1040
5.0
1070
   173
1070
     1
1070
   343
1005
3F3D
1070
   344
1005
42
1002
}
  0
LINE
  5
6128
330
18
100
AcDbEntity
  8
1DIM
100
AcDbLine
 10
1647.816510074176
 20
608.0885861592293
 30
0.0
 11
1647.816510074176
 21
555.5052528258956
 31
0.0
1001
ACAD
1000
DSTYLE
1002
{
1070
    40
1040
5.0
1070
   173
1070
     1
1070
   343
1005
3F3D
1070
   344
1005
42
1002
}
  0
LINE
  5
612C
330
18
100
AcDbEntity
  8
1DIM
100
AcDbLine
 10
1679.641450421745
 20
635.0885861592299
 30
0.0
 11
1679.641450421745
 21
697.2286714053967
 31
0.0
1001
ACAD
1000
DSTYLE
1002
{
1070
    40
1040
5.0
1002
}
  0
LINE
  5
612D
330
18
100
AcDbEntity
  8
1DIM
100
AcDbLine
 10
1777.641450421745
 20
641.6352441866628
 30
0.0
 11
1777.641450421745
 21
697.2286714053967
 31
0.0
1001
ACAD
1000
DSTYLE
1002
{
1070
    40
1040
5.0
1002
}
  0
LINE
  5
612E
330
18
100
AcDbEntity
  8
1DIM
100
AcDbLine
 10
1689.641450421745
 20
692.2286714053967
 30
0.0
 11
1767.641450421745
 21
692.2286714053967
 31
0.0
1001
ACAD
1000
DSTYLE
1002
{
1070
    40
1040
5.0
1002
}
  0
LINE
  5
6132
330
18
100
AcDbEntity
  8
1DIM
100
AcDbLine
 10
1917.641450421744
 20
643.757409272757
 30
0.0
 11
1917.641450421744
 21
697.2286714053967
 31
0.0
1001
ACAD
1000
DSTYLE
1002
{
1070
    40
1040
5.0
1002
}
  0
LINE
  5
6133
330
18
100
AcDbEntity
  8
1DIM
100
AcDbLine
 10
2015.641450421745
 20
635.0885861592266
 30
0.0
 11
2015.641450421745
 21
697.2286714053967
 31
0.0
1001
ACAD
1000
DSTYLE
1002
{
1070
    40
1040
5.0
1002
}
  0
LINE
  5
6134
330
18
100
AcDbEntity
  8
1DIM
100
AcDbLine
 10
1927.641450421744
 20
692.2286714053967
 30
0.0
 11
2005.641450421745
 21
692.2286714053967
 31
0.0
1001
ACAD
1000
DSTYLE
1002
{
1070
    40
1040
5.0
1002
}
  0
LINE
  5
6139
330
18
100
AcDbEntity
  8
1DIM
100
AcDbLine
 10
1215.181532265139
 20
344.8604836470021
 30
0.0
 11
1234.119671676152
 21
360.2900076084161
 31
0.0
1001
ACAD
1000
DSTYLE
1002
{
1070
    40
1040
5.0
1002
}
  0
LINE
  5
613A
330
18
100
AcDbEntity
  8
1DIM
100
AcDbLine
 10
1234.119671676152
 20
360.2900076084161
 30
0.0
 11
1426.703005009486
 21
360.2900076084161
 31
0.0
1001
ACAD
1000
DSTYLE
1002
{
1070
    40
1040
5.0
1002
}
  0
TEXT
  5
613B
330
18
100
AcDbEntity
  8
1TEXT
  6
CONTINUOUS
100
AcDbText
 10
1247.619671676152
 20
392.9566742750828
 30
0.0
 40
17.5
  1
壁取付け金具X2
100
AcDbText
  0
TEXT
  5
613C
330
18
100
AcDbEntity
  8
1TEXT
  6
CONTINUOUS
100
AcDbText
 10
1233.619671676152
 20
363.7900076084161
 30
0.0
 40
17.5
  1
（付属品、スチール）
100
AcDbText
  0
LINE
  5
613E
330
18
100
AcDbEntity
  8
1DIM
100
AcDbLine
 10
1211.55963963708
 20
160.0999214926511
 30
0.0
 11
1247.641011196149
 21
192.3074430692632
 31
0.0
1001
ACAD
1000
DSTYLE
1002
{
1070
    40
1040
5.0
1002
}
  0
LINE
  5
613F
330
18
100
AcDbEntity
  8
1DIM
100
AcDbLine
 10
1247.641011196149
 20
192.3074430692632
 30
0.0
 11
1554.891011196149
 21
192.3074430692632
 31
0.0
1001
ACAD
1000
DSTYLE
1002
{
1070
    40
1040
5.0
1002
}
  0
TEXT
  5
6140
330
18
100
AcDbEntity
  8
1DIM
  6
CONTINUOUS
100
AcDbText
 10
1258.807677862815
 20
224.9741097359299
 30
0.0
 40
17.5
  1
Φ6X50ナベタッピンネジX4
100
AcDbText
  0
TEXT
  5
6141
330
18
100
AcDbEntity
  8
1DIM
  6
CONTINUOUS
100
AcDbText
 10
1247.141011196149
 20
195.8074430692632
 30
0.0
 40
17.5
  1
（付属品、SUS　ワッシャー付）
100
AcDbText
  0
LINE
  5
6143
330
18
100
AcDbEntity
  8
1DIM
100
AcDbLine
 10
1203.456826324444
 20
93.38664172597463
 30
0.0
 11
1249.989950589391
 21
118.0056910459366
 31
0.0
1001
ACAD
1000
DSTYLE
1002
{
1070
    40
1040
5.0
1002
}
  0
LINE
  5
6144
330
18
100
AcDbEntity
  8
1DIM
100
AcDbLine
 10
1249.989950589391
 20
118.0056910459366
 30
0.0
 11
1521.656617256058
 21
118.0056910459366
 31
0.0
1001
ACAD
1000
DSTYLE
1002
{
1070
    40
1040
5.0
1002
}
  0
TEXT
  5
6145
330
18
100
AcDbEntity
  8
1DIM
  6
CONTINUOUS
100
AcDbText
 10
1261.156617256058
 20
150.6723577126033
 30
0.0
 40
17.5
  1
Φ5X40皿タッピンネジX1
100
AcDbText
  0
TEXT
  5
6146
330
18
100
AcDbEntity
  8
1DIM
  6
CONTINUOUS
100
AcDbText
 10
1249.489950589391
 20
121.5056910459366
 30
0.0
 40
17.5
  1
（付属品、SUS）
100
AcDbText
  0
LINE
  5
6148
330
18
100
AcDbEntity
  8
1DIM
100
AcDbLine
 10
1221.771702648855
 20
233.1023621311842
 30
0.0
 11
1249.019473136722
 21
266.7506334041852
 31
0.0
1001
ACAD
1000
DSTYLE
1002
{
1070
    40
1040
5.0
1002
}
  0
LINE
  5
6149
330
18
100
AcDbEntity
  8
1DIM
100
AcDbLine
 10
1249.019473136722
 20
266.7506334041852
 30
0.0
 11
1409.269473136722
 21
266.7506334041852
 31
0.0
1001
ACAD
1000
DSTYLE
1002
{
1070
    40
1040
5.0
1002
}
  0
TEXT
  5
614A
330
18
100
AcDbEntity
  8
1DIM
  6
CONTINUOUS
100
AcDbText
 10
1260.769473136722
 20
299.4173000708519
 30
0.0
 40
17.5
  1
固定金具X1
100
AcDbText
  0
TEXT
  5
614B
330
18
100
AcDbEntity
  8
1DIM
  6
CONTINUOUS
100
AcDbText
 10
1248.519473136722
 20
270.2506334041852
 30
0.0
 40
17.5
  1
（付属品、SUS）
100
AcDbText
  0
LINE
  5
614C
330
18
100
AcDbEntity
  8
1DIM
100
AcDbLine
 10
2354.663323326638
 20
576.0246287667978
 30
0.0
 11
2313.409769792951
 21
576.0246287667978
 31
0.0
1001
ACAD
1000
DSTYLE
1002
{
1070
    40
1040
5.0
1070
    75
1070
     1
1070
    76
1070
     0
1070
   281
1070
     0
1070
   282
1070
     0
1002
}
  0
LINE
  5
614D
330
18
100
AcDbEntity
  8
1DIM
100
AcDbLine
 10
2318.409769792951
 20
766.0246287667974
 30
0.0
 11
2318.409769792951
 21
586.0246287667978
 31
0.0
1001
ACAD
1000
DSTYLE
1002
{
1070
    40
1040
5.0
1070
    75
1070
     1
1070
    76
1070
     0
1070
   281
1070
     0
1070
   282
1070
     0
1002
}
  0
LINE
  5
6151
330
18
100
AcDbEntity
  8
1DIM
100
AcDbLine
 10
2385.241324770442
 20
748.8752063748879
 30
0.0
 11
2477.953979356045
 21
705.2014197779171
 31
0.0
1001
ACAD
1000
DSTYLE
1002
{
1070
     3
1000
%%c<>貫通
1070
    40
1040
5.0
1002
}
  0
LINE
  5
6152
330
18
100
AcDbEntity
  8
1DIM
100
AcDbLine
 10
2559.372667297226
 20
666.8478377556771
 30
0.0
 11
2568.41918817958
 21
662.5863286420949
 31
0.0
1001
ACAD
1000
DSTYLE
1002
{
1070
     3
1000
%%c<>貫通
1070
    40
1040
5.0
1002
}
  0
LINE
  5
6154
330
18
100
AcDbEntity
  8
1DIM
100
AcDbLine
 10
2550.326146414873
 20
671.1093468692593
 30
0.0
 11
2487.000500238398
 21
700.9399106643349
 31
0.0
1001
ACAD
1000
DSTYLE
1002
{
1070
     3
1000
%%c<>貫通
1070
    40
1040
5.0
1002
}
  0
LINE
  5
6157
330
18
100
AcDbEntity
  8
1DIM
100
AcDbLine
 10
2784.693450823348
 20
859.2676550698274
 30
0.0
 11
2670.906136686866
 21
757.6703211877176
 31
0.0
1001
ACAD
1000
DSTYLE
1002
{
1070
     3
1000
%%c<>貫通
1070
    40
1040
5.0
1002
}
  0
LINE
  5
6158
330
18
100
AcDbEntity
  8
1DIM
100
AcDbLine
 10
2622.420509966407
 20
714.3789363458774
 30
0.0
 11
2614.961182778645
 21
707.7187232932864
 31
0.0
1001
ACAD
1000
DSTYLE
1002
{
1070
     3
1000
%%c<>貫通
1070
    40
1040
5.0
1002
}
  0
LINE
  5
615A
330
18
100
AcDbEntity
  8
1DIM
100
AcDbLine
 10
2629.87983715417
 20
721.0391493984681
 30
0.0
 11
2663.446809499103
 21
751.0101081351269
 31
0.0
1001
ACAD
1000
DSTYLE
1002
{
1070
     3
1000
%%c<>貫通
1070
    40
1040
5.0
1002
}
  0
LINE
  5
615D
330
18
100
AcDbEntity
  8
1DIM
100
AcDbLine
 10
2276.120700891627
 20
766.0246287667974
 30
0.0
 11
2276.120700891627
 21
536.0246287667974
 31
0.0
1001
ACAD
1000
DSTYLE
1002
{
1070
    40
1040
5.0
1070
    75
1070
     1
1070
    76
1070
     1
1070
   281
1070
     0
1070
   282
1070
     0
1002
}
  0
LINE
  5
6161
330
18
100
AcDbEntity
  8
1DIM
100
AcDbLine
 10
2350.663323326638
 20
772.0246287667974
 30
0.0
 11
2350.663323326638
 21
861.3598502337567
 31
0.0
1001
ACAD
1000
DSTYLE
1002
{
1070
    40
1040
5.0
1002
}
  0
LINE
  5
6162
330
18
100
AcDbEntity
  8
1DIM
100
AcDbLine
 10
2686.663323326638
 20
772.0246287667978
 30
0.0
 11
2686.663323326638
 21
861.3598502337567
 31
0.0
1001
ACAD
1000
DSTYLE
1002
{
1070
    40
1040
5.0
1002
}
  0
LINE
  5
6163
330
18
100
AcDbEntity
  8
1DIM
100
AcDbLine
 10
2360.663323326638
 20
856.3598502337567
 30
0.0
 11
2676.663323326638
 21
856.3598502337567
 31
0.0
1001
ACAD
1000
DSTYLE
1002
{
1070
    40
1040
5.0
1002
}
  0
LINE
  5
6167
330
18
100
AcDbEntity
  8
1DIM
100
AcDbLine
 10
2518.663323326638
 20
776.0246287667976
 30
0.0
 11
2518.663323326638
 21
825.9053404302861
 31
0.0
1001
ACAD
1000
DSTYLE
1002
{
1070
    40
1040
5.0
1002
}
  0
LINE
  5
6168
330
18
100
AcDbEntity
  8
1DIM
100
AcDbLine
 10
2646.663372567807
 20
765.2746179647975
 30
0.0
 11
2646.663372567807
 21
825.9053404302861
 31
0.0
1001
ACAD
1000
DSTYLE
1002
{
1070
    40
1040
5.0
1002
}
  0
LINE
  5
6169
330
18
100
AcDbEntity
  8
1DIM
100
AcDbLine
 10
2528.663323326638
 20
820.9053404302861
 30
0.0
 11
2636.663372567807
 21
820.9053404302861
 31
0.0
1001
ACAD
1000
DSTYLE
1002
{
1070
    40
1040
5.0
1002
}
  0
LINE
  5
616D
330
18
100
AcDbEntity
  8
1DIM
100
AcDbLine
 10
2646.663372567807
 20
765.2746179647975
 30
0.0
 11
2646.663372567807
 21
825.9053404302861
 31
0.0
1001
ACAD
1000
DSTYLE
1002
{
1070
    40
1040
5.0
1002
}
  0
LINE
  5
616E
330
18
100
AcDbEntity
  8
1DIM
100
AcDbLine
 10
2686.663323326638
 20
772.0246287667978
 30
0.0
 11
2686.663323326638
 21
825.9053404302861
 31
0.0
1001
ACAD
1000
DSTYLE
1002
{
1070
    40
1040
5.0
1002
}
  0
LINE
  5
616F
330
18
100
AcDbEntity
  8
1DIM
100
AcDbLine
 10
2656.663372567807
 20
820.9053404302861
 30
0.0
 11
2676.663323326638
 21
820.9053404302861
 31
0.0
1001
ACAD
1000
DSTYLE
1002
{
1070
    40
1040
5.0
1002
}
  0
LINE
  5
6173
330
18
100
AcDbEntity
  8
1DIM
100
AcDbLine
 10
2675.913372567807
 20
736.0246179647975
 30
0.0
 11
2757.978836856531
 21
736.0246179647975
 31
0.0
1001
ACAD
1000
DSTYLE
1002
{
1070
    40
1040
5.0
1070
    75
1070
     1
1070
    76
1070
     0
1070
   281
1070
     0
1070
   282
1070
     0
1002
}
  0
LINE
  5
6174
330
18
100
AcDbEntity
  8
1DIM
100
AcDbLine
 10
2752.978836856531
 20
766.0246287667974
 30
0.0
 11
2752.978836856531
 21
746.0246179647975
 31
0.0
1001
ACAD
1000
DSTYLE
1002
{
1070
    40
1040
5.0
1070
    75
1070
     1
1070
    76
1070
     0
1070
   281
1070
     0
1070
   282
1070
     0
1002
}
  0
LINE
  5
6179
330
18
100
AcDbEntity
  8
1DIM
100
AcDbLine
 10
2503.766235642995
 20
658.0930851263731
 30
0.0
 11
2490.28386249872
 21
620.9162616447095
 31
0.0
1001
ACAD
1000
DSTYLE
1002
{
1070
    40
1040
5.0
1002
}
  0
LINE
  5
617A
330
18
100
AcDbEntity
  8
1DIM
100
AcDbLine
 10
2490.28386249872
 20
620.9162616447095
 30
0.0
 11
2438.28386249872
 21
620.9162616447095
 31
0.0
1001
ACAD
1000
DSTYLE
1002
{
1070
    40
1040
5.0
1002
}
  0
TEXT
  5
617B
330
18
100
AcDbEntity
  8
1DIM
  6
CONTINUOUS
100
AcDbText
 10
2438.28386249872
 20
624.4162616447095
 30
0.0
 40
17.5
  1
排水
100
AcDbText
  0
LINE
  5
617D
330
18
100
AcDbEntity
  8
1DIM
100
AcDbLine
 10
2635.589891581512
 20
715.9542998921737
 30
0.0
 11
2608.960026896159
 21
654.7668085694467
 31
0.0
1001
ACAD
1000
DSTYLE
1002
{
1070
    40
1040
5.0
1002
}
  0
LINE
  5
617E
330
18
100
AcDbEntity
  8
1DIM
100
AcDbLine
 10
2608.960026896159
 20
654.7668085694467
 30
0.0
 11
2556.960026896159
 21
654.7668085694467
 31
0.0
1001
ACAD
1000
DSTYLE
1002
{
1070
    40
1040
5.0
1002
}
  0
TEXT
  5
617F
330
18
100
AcDbEntity
  8
1DIM
  6
CONTINUOUS
100
AcDbText
 10
2556.960026896159
 20
658.2668085694467
 30
0.0
 40
17.5
  1
給水
100
AcDbText
  0
TEXT
  5
6180
330
18
100
AcDbEntity
  8
1HIDDEN
  6
CONTINUOUS
100
AcDbText
 10
2143.039671396995
 20
728.071425477513
 30
0.0
 40
20.0
  1
壁仕上り面
100
AcDbText
  0
TEXT
  5
6181
330
18
100
AcDbEntity
  8
1HIDDEN
  6
CONTINUOUS
100
AcDbText
 10
2142.373004730328
 20
802.9554607635328
 30
0.0
 40
20.0
  1
切欠き寸法
100
AcDbText
  0
LINE
  5
6182
330
18
100
AcDbEntity
  8
1DIM
100
AcDbLine
 10
2565.865192697485
 20
686.0246287667974
 30
0.0
 11
2800.502296408119
 21
686.0246287667974
 31
0.0
1001
ACAD
1000
DSTYLE
1002
{
1070
    40
1040
5.0
1070
    75
1070
     1
1070
    76
1070
     0
1070
   281
1070
     0
1070
   282
1070
     0
1002
}
  0
LINE
  5
6183
330
18
100
AcDbEntity
  8
1DIM
100
AcDbLine
 10
2795.502296408119
 20
766.0246287667974
 30
0.0
 11
2795.502296408119
 21
696.0246287667974
 31
0.0
1001
ACAD
1000
DSTYLE
1002
{
1070
    40
1040
5.0
1070
    75
1070
     1
1070
    76
1070
     0
1070
   281
1070
     0
1070
   282
1070
     0
1002
}
  0
LINE
  5
6187
330
18
100
AcDbEntity
  8
1HATCH
100
AcDbLine
 10
2356.163323326638
 20
341.8729230923572
 30
0.0
 11
2304.000659716799
 21
341.8729230923572
 31
0.0
1001
ACAD
1000
DSTYLE
1002
{
1070
    40
1040
5.0
1002
}
  0
LINE
  5
6188
330
18
100
AcDbEntity
  8
1HATCH
100
AcDbLine
 10
2331.199635700449
 20
-108.1270769076428
 30
0.0
 11
2304.000659716799
 21
-108.1270769076428
 31
0.0
1001
ACAD
1000
DSTYLE
1002
{
1070
    40
1040
5.0
1002
}
  0
LINE
  5
6189
330
18
100
AcDbEntity
  8
1HATCH
100
AcDbLine
 10
2309.000659716799
 20
331.8729230923572
 30
0.0
 11
2309.000659716799
 21
-98.12707690764279
 31
0.0
1001
ACAD
1000
DSTYLE
1002
{
1070
    40
1040
5.0
1002
}
  0
LINE
  5
618D
330
18
100
AcDbEntity
  8
1DIM
100
AcDbLine
 10
2355.032947743864
 20
-108.1270769076428
 30
0.0
 11
2365.425252589279
 21
-90.12707690764279
 31
0.0
  0
LINE
  5
618E
330
18
100
AcDbEntity
  8
1DIM
100
AcDbLine
 10
2365.425252589279
 20
-90.12707690764279
 30
0.0
 11
2344.640642898452
 21
-90.12707690764279
 31
0.0
  0
LINE
  5
618F
330
18
100
AcDbEntity
  8
1DIM
100
AcDbLine
 10
2344.640642898452
 20
-90.12707690764279
 30
0.0
 11
2355.032947743864
 21
-108.1270769076428
 31
0.0
  0
TEXT
  5
6190
330
18
100
AcDbEntity
  8
1TEXT
  6
CONTINUOUS
100
AcDbText
 10
2331.718433217349
 20
-84.33604481779918
 30
0.0
 40
20.0
  1
ＦＬ
100
AcDbText
  0
TEXT
  5
6191
330
18
100
AcDbEntity
  8
1HIDDEN
  6
CONTINUOUS
100
AcDbText
 10
2499.371638126388
 20
-150.3776083863013
 30
0.0
 40
20.0
  1
施工寸法例
100
AcDbText
  0
LINE
  5
6192
330
18
100
AcDbEntity
  8
1DIM
100
AcDbLine
 10
2442.413323326638
 20
243.8729230923545
 30
0.0
 11
2351.163323326638
 21
243.8729230923545
 31
0.0
1001
ACAD
1000
DSTYLE
1002
{
1070
    40
1040
5.0
1002
}
  0
LINE
  5
6193
330
18
100
AcDbEntity
  8
1DIM
100
AcDbLine
 10
2385.832996946053
 20
341.8729230923572
 30
0.0
 11
2351.163323326638
 21
341.8729230923572
 31
0.0
1001
ACAD
1000
DSTYLE
1002
{
1070
    40
1040
5.0
1002
}
  0
LINE
  5
6194
330
18
100
AcDbEntity
  8
1DIM
100
AcDbLine
 10
2356.163323326638
 20
253.8729230923545
 30
0.0
 11
2356.163323326638
 21
331.8729230923572
 31
0.0
1001
ACAD
1000
DSTYLE
1002
{
1070
    40
1040
5.0
1002
}
  0
LINE
  5
6198
330
18
100
AcDbEntity
  8
1DIM
100
AcDbLine
 10
2534.913323326638
 20
246.8729230923545
 30
0.0
 11
2573.627918822523
 21
246.8729230923545
 31
0.0
1001
ACAD
1000
DSTYLE
1002
{
1070
    40
1040
5.0
1002
}
  0
LINE
  5
6199
330
18
100
AcDbEntity
  8
1DIM
100
AcDbLine
 10
2534.913323326638
 20
341.8729230923572
 30
0.0
 11
2573.627918822523
 21
341.8729230923572
 31
0.0
1001
ACAD
1000
DSTYLE
1002
{
1070
    40
1040
5.0
1002
}
  0
LINE
  5
619A
330
18
100
AcDbEntity
  8
1DIM
100
AcDbLine
 10
2568.627918822523
 20
256.8729230923545
 30
0.0
 11
2568.627918822523
 21
331.8729230923572
 31
0.0
1001
ACAD
1000
DSTYLE
1002
{
1070
    40
1040
5.0
1002
}
  0
LINE
  5
619E
330
18
100
AcDbEntity
  8
1DIM
100
AcDbLine
 10
2659.923372904893
 20
211.8729230923545
 30
0.0
 11
2716.475241623628
 21
211.8729230923545
 31
0.0
1001
ACAD
1000
DSTYLE
1002
{
1070
    40
1040
5.0
1002
}
  0
LINE
  5
619F
330
18
100
AcDbEntity
  8
1DIM
100
AcDbLine
 10
2682.663323326637
 20
341.8729230923572
 30
0.0
 11
2716.475241623628
 21
341.8729230923572
 31
0.0
1001
ACAD
1000
DSTYLE
1002
{
1070
    40
1040
5.0
1002
}
  0
LINE
  5
61A0
330
18
100
AcDbEntity
  8
1DIM
100
AcDbLine
 10
2711.475241623628
 20
221.8729230923545
 30
0.0
 11
2711.475241623628
 21
331.8729230923572
 31
0.0
1001
ACAD
1000
DSTYLE
1002
{
1070
    40
1040
5.0
1002
}
  0
LINE
  5
61A5
330
18
100
AcDbEntity
  8
1DIM
100
AcDbLine
 10
2462.173435837949
 20
222.0092106791136
 30
0.0
 11
2511.440896071647
 21
90.58142097932563
 31
0.0
1001
ACAD
1000
DSTYLE
1002
{
1070
    40
1040
5.0
1002
}
  0
LINE
  5
61A6
330
18
100
AcDbEntity
  8
1DIM
100
AcDbLine
 10
2511.440896071647
 20
90.58142097932563
 30
0.0
 11
2339.857562738314
 21
90.58142097932563
 31
0.0
1001
ACAD
1000
DSTYLE
1002
{
1070
    40
1040
5.0
1002
}
  0
TEXT
  5
61A7
330
18
100
AcDbEntity
  8
1DIM
  6
CONTINUOUS
100
AcDbText
 10
2334.02422940498
 20
123.2723932015479
 30
0.0
 40
17.5
  1
Ｐトラップの場合
100
AcDbText
  0
TEXT
  5
61A8
330
18
100
AcDbEntity
  8
1DIM
  6
CONTINUOUS
100
AcDbText
 10
2384.774229404981
 20
94.08142097932563
 30
0.0
 40
17.5
  1
排水口φ25
100
AcDbText
  0
LINE
  5
61A9
330
18
100
AcDbEntity
  8
1DIM
100
AcDbLine
 10
2659.923372904893
 20
41.87292309235721
 30
0.0
 11
2701.403011327729
 21
41.8729230923572
 31
0.0
1001
ACAD
1000
DSTYLE
1002
{
1070
    40
1040
5.0
1002
}
  0
LINE
  5
61AA
330
18
100
AcDbEntity
  8
1DIM
100
AcDbLine
 10
2646.663372904893
 20
-108.1270769076428
 30
0.0
 11
2701.403011327729
 21
-108.1270769076429
 31
0.0
1001
ACAD
1000
DSTYLE
1002
{
1070
    40
1040
5.0
1002
}
  0
LINE
  5
61AB
330
18
100
AcDbEntity
  8
1DIM
100
AcDbLine
 10
2696.403011327729
 20
31.8729230923572
 30
0.0
 11
2696.403011327729
 21
-98.12707690764286
 31
0.0
1001
ACAD
1000
DSTYLE
1002
{
1070
    40
1040
5.0
1002
}
  0
LINE
  5
61B0
330
18
100
AcDbEntity
  8
1DIM
100
AcDbLine
 10
2642.386611311043
 20
21.69471213643537
 30
0.0
 11
2636.027890800182
 21
-74.47205842043792
 31
0.0
1001
ACAD
1000
DSTYLE
1002
{
1070
    40
1040
5.0
1002
}
  0
LINE
  5
61B1
330
18
100
AcDbEntity
  8
1DIM
100
AcDbLine
 10
2636.027890800182
 20
-74.47205842043792
 30
0.0
 11
2483.694557466849
 21
-74.47205842043792
 31
0.0
1001
ACAD
1000
DSTYLE
1002
{
1070
    40
1040
5.0
1002
}
  0
TEXT
  5
61B2
330
18
100
AcDbEntity
  8
1TEXT
  6
CONTINUOUS
100
AcDbText
 10
2479.611224133515
 20
-41.80539175377125
 30
0.0
 40
17.5
  1
自動水栓の場合
100
AcDbText
  0
TEXT
  5
61B3
330
18
100
AcDbEntity
  8
1TEXT
  6
CONTINUOUS
100
AcDbText
 10
2518.694557466849
 20
-70.97205842043792
 30
0.0
 40
17.5
  1
給水Ｒ1/2
100
AcDbText
  0
LINE
  5
61B5
330
18
100
AcDbEntity
  8
1DIM
100
AcDbLine
 10
2651.585838181007
 20
192.5495760580965
 30
0.0
 11
2659.549137249957
 21
101.6208186265334
 31
0.0
1001
ACAD
1000
DSTYLE
1002
{
1070
    40
1040
5.0
1002
}
  0
LINE
  5
61B6
330
18
100
AcDbEntity
  8
1DIM
100
AcDbLine
 10
2659.549137249957
 20
101.6208186265334
 30
0.0
 11
2793.799137249957
 21
101.6208186265334
 31
0.0
1001
ACAD
1000
DSTYLE
1002
{
1070
    40
1040
5.0
1002
}
  0
TEXT
  5
61B7
330
18
100
AcDbEntity
  8
1DIM
  6
CONTINUOUS
100
AcDbText
 10
2671.882470583291
 20
134.2874852932001
 30
0.0
 40
17.5
  1
単水栓の場合
100
AcDbText
  0
TEXT
  5
61B8
330
18
100
AcDbEntity
  8
1DIM
  6
CONTINUOUS
100
AcDbText
 10
2673.049137249957
 20
105.1208186265334
 30
0.0
 40
17.5
  1
給水Ｒ1/2
100
AcDbText
  0
LINE
  5
61BA
330
18
100
AcDbEntity
  8
1DIM
100
AcDbLine
 10
2519.999027053374
 20
224.9248831126905
 30
0.0
 11
2554.233507563992
 21
13.11417678929564
 31
0.0
1001
ACAD
1000
DSTYLE
1002
{
1070
    40
1040
5.0
1002
}
  0
LINE
  5
61BB
330
18
100
AcDbEntity
  8
1DIM
100
AcDbLine
 10
2554.233507563992
 20
13.11417678929564
 30
0.0
 11
2334.816840897326
 21
13.11417678929564
 31
0.0
1001
ACAD
1000
DSTYLE
1002
{
1070
    40
1040
5.0
1002
}
  0
TEXT
  5
61BC
330
18
100
AcDbEntity
  8
1DIM
  6
CONTINUOUS
100
AcDbText
 10
2334.816840897326
 20
45.80514901151786
 30
0.0
 40
17.5
  1
ボトルトラップの場合
100
AcDbText
  0
TEXT
  5
61BD
330
18
100
AcDbEntity
  8
1DIM
  6
CONTINUOUS
100
AcDbText
 10
2427.566840897326
 20
16.61417678929564
 30
0.0
 40
17.5
  1
排水口φ25
100
AcDbText
  0
LINE
  5
61BE
330
18
100
AcDbEntity
  8
1DIM
100
AcDbLine
 10
2458.663323326638
 20
260.1229230923545
 30
0.0
 11
2458.663323326638
 21
278.437555119133
 31
0.0
1001
ACAD
1000
DSTYLE
1002
{
1070
    40
1040
5.0
1002
}
  0
LINE
  5
61BF
330
18
100
AcDbEntity
  8
1DIM
100
AcDbLine
 10
2518.663323326638
 20
263.1229230923545
 30
0.0
 11
2518.663323326638
 21
278.437555119133
 31
0.0
1001
ACAD
1000
DSTYLE
1002
{
1070
    40
1040
5.0
1002
}
  0
LINE
  5
61C0
330
18
100
AcDbEntity
  8
1DIM
100
AcDbLine
 10
2468.663323326638
 20
273.437555119133
 30
0.0
 11
2508.663323326638
 21
273.437555119133
 31
0.0
1001
ACAD
1000
DSTYLE
1002
{
1070
    40
1040
5.0
1002
}
  0
LINE
  5
61C4
330
18
100
AcDbEntity
  8
1DIM
100
AcDbLine
 10
2518.663323326638
 20
263.1229230923545
 30
0.0
 11
2518.663323326638
 21
278.437555119133
 31
0.0
1001
ACAD
1000
DSTYLE
1002
{
1070
    40
1040
5.0
1002
}
  0
LINE
  5
61C5
330
18
100
AcDbEntity
  8
1DIM
100
AcDbLine
 10
2646.663372904893
 20
225.1329230923545
 30
0.0
 11
2646.663372904893
 21
278.437555119133
 31
0.0
1001
ACAD
1000
DSTYLE
1002
{
1070
    40
1040
5.0
1002
}
  0
LINE
  5
61C6
330
18
100
AcDbEntity
  8
1DIM
100
AcDbLine
 10
2528.663323326638
 20
273.437555119133
 30
0.0
 11
2636.663372904893
 21
273.437555119133
 31
0.0
1001
ACAD
1000
DSTYLE
1002
{
1070
    40
1040
5.0
1002
}
  0
LINE
  5
61CA
330
18
100
AcDbEntity
  8
1DIM
100
AcDbLine
 10
2519.913323326637
 20
726.0246287667976
 30
0.0
 11
2555.794956293003
 21
726.0246287667976
 31
0.0
1001
ACAD
1000
DSTYLE
1002
{
1070
    40
1040
5.0
1002
}
  0
LINE
  5
61CB
330
18
100
AcDbEntity
  8
1DIM
100
AcDbLine
 10
2519.913323326637
 20
776.0246287667974
 30
0.0
 11
2555.794956293003
 21
776.0246287667974
 31
0.0
1001
ACAD
1000
DSTYLE
1002
{
1070
    40
1040
5.0
1002
}
  0
LINE
  5
61CC
330
18
100
AcDbEntity
  8
1DIM
100
AcDbLine
 10
2550.794956293003
 20
736.0246287667976
 30
0.0
 11
2550.794956293003
 21
766.0246287667974
 31
0.0
1001
ACAD
1000
DSTYLE
1002
{
1070
    40
1040
5.0
1002
}
  0
LINE
  5
61D0
330
18
100
AcDbEntity
  8
1DIM
100
AcDbLine
 10
2503.663323326637
 20
742.2746287667976
 30
0.0
 11
2503.663323326637
 21
825.9053404302861
 31
0.0
1001
ACAD
1000
DSTYLE
1002
{
1070
    40
1040
5.0
1002
}
  0
LINE
  5
61D1
330
18
100
AcDbEntity
  8
1DIM
100
AcDbLine
 10
2518.663323326638
 20
776.0246287667976
 30
0.0
 11
2518.663323326638
 21
825.9053404302861
 31
0.0
1001
ACAD
1000
DSTYLE
1002
{
1070
    40
1040
5.0
1002
}
  0
LINE
  5
61D2
330
18
100
AcDbEntity
  8
1DIM
100
AcDbLine
 10
2528.663323326638
 20
820.9053404302861
 30
0.0
 11
2538.663323326638
 21
820.9053404302861
 31
0.0
1001
ACAD
1000
DSTYLE
1002
{
1070
    40
1040
5.0
1002
}
  0
LINE
  5
61D3
330
18
100
AcDbEntity
  8
1DIM
100
AcDbLine
 10
2493.663323326637
 20
820.9053404302861
 30
0.0
 11
2450.829989993304
 21
820.9053404302861
 31
0.0
1001
ACAD
1000
DSTYLE
1002
{
1070
    40
1040
5.0
1002
}
  0
LINE
  5
61D4
330
18
100
AcDbEntity
  8
1DIM
100
AcDbLine
 10
2518.663323326638
 20
820.9053404302861
 30
0.0
 11
2503.663323326637
 21
820.9053404302861
 31
0.0
1001
ACAD
1000
DSTYLE
1002
{
1070
    40
1040
5.0
1002
}
  0
LINE
  5
61D9
330
18
100
AcDbEntity
  8
1DIM
100
AcDbLine
 10
2492.169044436494
 20
746.3065832723003
 30
0.0
 11
2415.816482787326
 21
872.4392085655975
 31
0.0
1001
ACAD
1000
DSTYLE
1002
{
1070
    40
1040
5.0
1002
}
  0
LINE
  5
61DA
330
18
100
AcDbEntity
  8
1DIM
100
AcDbLine
 10
2415.816482787326
 20
872.4392085655975
 30
0.0
 11
2245.233149453993
 21
872.4392085655975
 31
0.0
1001
ACAD
1000
DSTYLE
1002
{
1070
    40
1040
5.0
1002
}
  0
TEXT
  5
61DB
330
18
100
AcDbEntity
  8
1DIM
  6
CONTINUOUS
100
AcDbText
 10
2241.89981612066
 20
905.1301807878197
 30
0.0
 40
17.5
  1
Sトラップの場合
100
AcDbText
  0
TEXT
  5
61DC
330
18
100
AcDbEntity
  8
1DIM
  6
CONTINUOUS
100
AcDbText
 10
2289.14981612066
 20
875.9392085655975
 30
0.0
 40
17.5
  1
排水口φ25
100
AcDbText
  0
LINE
  5
61DD
330
18
100
AcDbEntity
  8
1HATCH
  6
CONTINUOUS
100
AcDbLine
 10
2486.623767346594
 20
699.5527992538332
 30
0.0
 11
2500.913943299297
 21
713.8429752065363
 31
0.0
1001
ACAD
1010
0.0
1020
0.0
1030
0.0
  0
LINE
  5
61DE
330
18
100
AcDbEntity
  8
1HATCH
  6
CONTINUOUS
100
AcDbLine
 10
2503.663323326637
 20
716.5923552338759
 30
0.0
 11
2505.349469435874
 21
718.278501343113
 31
0.0
1001
ACAD
1010
0.0
1020
0.0
1030
0.0
  0
LINE
  5
61DF
330
18
100
AcDbEntity
  8
1HATCH
  6
CONTINUOUS
100
AcDbLine
 10
2483.880227749912
 20
687.8290035360816
 30
0.0
 11
2516.988839913638
 21
720.9376156998078
 31
0.0
1001
ACAD
1010
0.0
1020
0.0
1030
0.0
  0
LINE
  5
61E0
330
18
100
AcDbEntity
  8
1HATCH
  6
CONTINUOUS
100
AcDbLine
 10
2484.411941251508
 20
679.3804609166085
 30
0.0
 11
2491.056109101697
 21
686.0246287667974
 31
0.0
1001
ACAD
1010
0.0
1020
0.0
1030
0.0
  0
LINE
  5
61E1
330
18
100
AcDbEntity
  8
1HATCH
  6
CONTINUOUS
100
AcDbLine
 10
2491.056109101697
 20
686.0246287667974
 30
0.0
 11
2501.011343609116
 21
695.9798632742171
 31
0.0
1001
ACAD
1010
0.0
1020
0.0
1030
0.0
  0
LINE
  5
61E2
330
18
100
AcDbEntity
  8
1HATCH
  6
CONTINUOUS
100
AcDbLine
 10
2501.011343609116
 20
695.9798632742171
 30
0.0
 11
2508.708088819218
 21
703.6766084843183
 31
0.0
1001
ACAD
1010
0.0
1020
0.0
1030
0.0
  0
LINE
  5
61E3
330
18
100
AcDbEntity
  8
1HATCH
  6
CONTINUOUS
100
AcDbLine
 10
2508.708088819218
 20
703.6766084843183
 30
0.0
 11
2518.663323326638
 21
713.6318429917383
 31
0.0
1001
ACAD
1010
0.0
1020
0.0
1030
0.0
  0
LINE
  5
61E4
330
18
100
AcDbEntity
  8
1HATCH
  6
CONTINUOUS
100
AcDbLine
 10
2518.663323326638
 20
713.6318429917383
 30
0.0
 11
2525.307491176826
 21
720.276010841927
 31
0.0
1001
ACAD
1010
0.0
1020
0.0
1030
0.0
  0
LINE
  5
61E5
330
18
100
AcDbEntity
  8
1HATCH
  6
CONTINUOUS
100
AcDbLine
 10
2486.538672776268
 20
672.5269363202998
 30
0.0
 11
2498.419421977565
 21
684.4076855215969
 31
0.0
1001
ACAD
1010
0.0
1020
0.0
1030
0.0
  0
LINE
  5
61E6
330
18
100
AcDbEntity
  8
1HATCH
  6
CONTINUOUS
100
AcDbLine
 10
2498.419421977565
 20
684.4076855215969
 30
0.0
 11
2500.036365222766
 21
686.0246287667974
 31
0.0
1001
ACAD
1010
0.0
1020
0.0
1030
0.0
  0
LINE
  5
61E7
330
18
100
AcDbEntity
  8
1HATCH
  6
CONTINUOUS
100
AcDbLine
 10
2500.036365222766
 20
686.0246287667974
 30
0.0
 11
2518.663323326638
 21
704.6515868706692
 31
0.0
1001
ACAD
1010
0.0
1020
0.0
1030
0.0
  0
LINE
  5
61E8
330
18
100
AcDbEntity
  8
1HATCH
  6
CONTINUOUS
100
AcDbLine
 10
2518.663323326638
 20
704.6515868706692
 30
0.0
 11
2520.280266571838
 21
706.2685301158697
 31
0.0
1001
ACAD
1010
0.0
1020
0.0
1030
0.0
  0
LINE
  5
61E9
330
18
100
AcDbEntity
  8
1HATCH
  6
CONTINUOUS
100
AcDbLine
 10
2520.280266571838
 20
706.2685301158697
 30
0.0
 11
2532.161015773135
 21
718.1492793171667
 31
0.0
1001
ACAD
1010
0.0
1020
0.0
1030
0.0
  0
LINE
  5
61EA
330
18
100
AcDbEntity
  8
1HATCH
  6
CONTINUOUS
100
AcDbLine
 10
2489.715290279845
 20
666.7232977028076
 30
0.0
 11
2500.353154903893
 21
677.3611623268547
 31
0.0
1001
ACAD
1010
0.0
1020
0.0
1030
0.0
  0
LINE
  5
61EB
330
18
100
AcDbEntity
  8
1HATCH
  6
CONTINUOUS
100
AcDbLine
 10
2500.353154903893
 20
677.3611623268547
 30
0.0
 11
2509.016621343835
 21
686.0246287667974
 31
0.0
1001
ACAD
1010
0.0
1020
0.0
1030
0.0
  0
LINE
  5
61EC
330
18
100
AcDbEntity
  8
1HATCH
  6
CONTINUOUS
100
AcDbLine
 10
2509.016621343835
 20
686.0246287667974
 30
0.0
 11
2518.663323326638
 21
695.6713307496001
 31
0.0
1001
ACAD
1010
0.0
1020
0.0
1030
0.0
  0
LINE
  5
61ED
330
18
100
AcDbEntity
  8
1HATCH
  6
CONTINUOUS
100
AcDbLine
 10
2518.663323326638
 20
695.6713307496001
 30
0.0
 11
2527.326789766581
 21
704.3347971895427
 31
0.0
1001
ACAD
1010
0.0
1020
0.0
1030
0.0
  0
LINE
  5
61EE
330
18
100
AcDbEntity
  8
1HATCH
  6
CONTINUOUS
100
AcDbLine
 10
2527.326789766581
 20
704.3347971895427
 30
0.0
 11
2537.964654390627
 21
714.9726618135898
 31
0.0
1001
ACAD
1010
0.0
1020
0.0
1030
0.0
  0
LINE
  5
61EF
330
18
100
AcDbEntity
  8
1HATCH
  6
CONTINUOUS
100
AcDbLine
 10
2493.736977920053
 20
661.7647292219456
 30
0.0
 11
2504.01287736743
 21
672.040628669323
 31
0.0
1001
ACAD
1010
0.0
1020
0.0
1030
0.0
  0
LINE
  5
61F0
330
18
100
AcDbEntity
  8
1HATCH
  6
CONTINUOUS
100
AcDbLine
 10
2504.01287736743
 20
672.040628669323
 30
0.0
 11
2517.996877464904
 21
686.0246287667974
 31
0.0
1001
ACAD
1010
0.0
1020
0.0
1030
0.0
  0
LINE
  5
61F1
330
18
100
AcDbEntity
  8
1HATCH
  6
CONTINUOUS
100
AcDbLine
 10
2517.996877464904
 20
686.0246287667974
 30
0.0
 11
2518.663323326638
 21
686.6910746285309
 31
0.0
1001
ACAD
1010
0.0
1020
0.0
1030
0.0
  0
LINE
  5
61F2
330
18
100
AcDbEntity
  8
1HATCH
  6
CONTINUOUS
100
AcDbLine
 10
2518.663323326638
 20
686.6910746285309
 30
0.0
 11
2532.647323424112
 21
700.6750747260052
 31
0.0
1001
ACAD
1010
0.0
1020
0.0
1030
0.0
  0
LINE
  5
61F3
330
18
100
AcDbEntity
  8
1HATCH
  6
CONTINUOUS
100
AcDbLine
 10
2532.647323424112
 20
700.6750747260052
 30
0.0
 11
2542.92322287149
 21
710.9509741733825
 31
0.0
1001
ACAD
1010
0.0
1020
0.0
1030
0.0
  0
LINE
  5
61F4
330
18
100
AcDbEntity
  8
1HATCH
  6
CONTINUOUS
100
AcDbLine
 10
2498.54343448194
 20
657.5909296627635
 30
0.0
 11
2509.116869638011
 21
668.1643648188353
 31
0.0
1001
ACAD
1010
0.0
1020
0.0
1030
0.0
  0
LINE
  5
61F5
330
18
100
AcDbEntity
  8
1HATCH
  6
CONTINUOUS
100
AcDbLine
 10
2509.116869638011
 20
668.1643648188352
 30
0.0
 11
2518.663323326638
 21
677.7108185074619
 31
0.0
1001
ACAD
1010
0.0
1020
0.0
1030
0.0
  0
LINE
  5
61F6
330
18
100
AcDbEntity
  8
1HATCH
  6
CONTINUOUS
100
AcDbLine
 10
2518.663323326638
 20
677.7108185074619
 30
0.0
 11
2526.977133585973
 21
686.0246287667973
 31
0.0
1001
ACAD
1010
0.0
1020
0.0
1030
0.0
  0
LINE
  5
61F7
330
18
100
AcDbEntity
  8
1HATCH
  6
CONTINUOUS
100
AcDbLine
 10
2526.977133585974
 20
686.0246287667974
 30
0.0
 11
2536.5235872746
 21
695.5710824554237
 31
0.0
1001
ACAD
1010
0.0
1020
0.0
1030
0.0
  0
LINE
  5
61F8
330
18
100
AcDbEntity
  8
1HATCH
  6
CONTINUOUS
100
AcDbLine
 10
2536.5235872746
 20
695.5710824554237
 30
0.0
 11
2547.097022430672
 21
706.1445176114954
 31
0.0
1001
ACAD
1010
0.0
1020
0.0
1030
0.0
  0
LINE
  5
61F9
330
18
100
AcDbEntity
  8
1HATCH
  6
CONTINUOUS
100
AcDbLine
 10
2504.178241606587
 20
654.2454806663415
 30
0.0
 11
2515.895732958541
 21
665.9629720182958
 31
0.0
1001
ACAD
1010
0.0
1020
0.0
1030
0.0
  0
LINE
  5
61FA
330
18
100
AcDbEntity
  8
1HATCH
  6
CONTINUOUS
100
AcDbLine
 10
2515.895732958541
 20
665.9629720182958
 30
0.0
 11
2518.663323326638
 21
668.7305623863928
 31
0.0
1001
ACAD
1010
0.0
1020
0.0
1030
0.0
  0
LINE
  5
61FB
330
18
100
AcDbEntity
  8
1HATCH
  6
CONTINUOUS
100
AcDbLine
 10
2518.663323326638
 20
668.7305623863928
 30
0.0
 11
2535.957389707042
 21
686.0246287667972
 31
0.0
1001
ACAD
1010
0.0
1020
0.0
1030
0.0
  0
LINE
  5
61FC
330
18
100
AcDbEntity
  8
1HATCH
  6
CONTINUOUS
100
AcDbLine
 10
2535.957389707043
 20
686.0246287667974
 30
0.0
 11
2538.724980075139
 21
688.792219134894
 31
0.0
1001
ACAD
1010
0.0
1020
0.0
1030
0.0
  0
LINE
  5
61FD
330
18
100
AcDbEntity
  8
1HATCH
  6
CONTINUOUS
100
AcDbLine
 10
2538.724980075139
 20
688.792219134894
 30
0.0
 11
2550.442471427094
 21
700.5097104868482
 31
0.0
1001
ACAD
1010
0.0
1020
0.0
1030
0.0
  0
LINE
  5
61FE
330
18
100
AcDbEntity
  8
1HATCH
  6
CONTINUOUS
100
AcDbLine
 10
2510.83070137627
 20
651.9176843149559
 30
0.0
 11
2518.663323326638
 21
659.7503062653236
 31
0.0
1001
ACAD
1010
0.0
1020
0.0
1030
0.0
  0
LINE
  5
61FF
330
18
100
AcDbEntity
  8
1HATCH
  6
CONTINUOUS
100
AcDbLine
 10
2518.663323326638
 20
659.7503062653236
 30
0.0
 11
2525.901002515247
 21
666.9879854539324
 31
0.0
1001
ACAD
1010
0.0
1020
0.0
1030
0.0
  0
LINE
  5
6200
330
18
100
AcDbEntity
  8
1HATCH
  6
CONTINUOUS
100
AcDbLine
 10
2525.901002515247
 20
666.9879854539324
 30
0.0
 11
2537.699966639503
 21
678.7869495781887
 31
0.0
1001
ACAD
1010
0.0
1020
0.0
1030
0.0
  0
LINE
  5
6201
330
18
100
AcDbEntity
  8
1HATCH
  6
CONTINUOUS
100
AcDbLine
 10
2537.699966639503
 20
678.7869495781887
 30
0.0
 11
2544.937645828112
 21
686.0246287667973
 31
0.0
1001
ACAD
1010
0.0
1020
0.0
1030
0.0
  0
LINE
  5
6202
330
18
100
AcDbEntity
  8
1HATCH
  6
CONTINUOUS
100
AcDbLine
 10
2544.937645828112
 20
686.0246287667973
 30
0.0
 11
2552.770267778479
 21
693.8572507171649
 31
0.0
1001
ACAD
1010
0.0
1020
0.0
1030
0.0
  0
LINE
  5
6203
330
18
100
AcDbEntity
  8
1HATCH
  6
CONTINUOUS
100
AcDbLine
 10
2518.950228385652
 20
651.0569552032687
 30
0.0
 11
2553.630996890166
 21
685.7377237077828
 31
0.0
1001
ACAD
1010
0.0
1020
0.0
1030
0.0
  0
LINE
  5
6204
330
18
100
AcDbEntity
  8
1HATCH
  6
CONTINUOUS
100
AcDbLine
 10
2530.026666358607
 20
653.1531370551538
 30
0.0
 11
2551.534815038282
 21
674.6612857348287
 31
0.0
1001
ACAD
1010
0.0
1020
0.0
1030
0.0
  0
LINE
  5
6205
330
18
100
AcDbEntity
  8
1HATCH
  6
CONTINUOUS
100
AcDbLine
 10
2624.547009391948
 20
738.6932239674254
 30
0.0
 11
2644.14939663364
 21
758.2956112091183
 31
0.0
1001
ACAD
1010
0.0
1020
0.0
1030
0.0
  0
LINE
  5
6206
330
18
100
AcDbEntity
  8
1HATCH
  6
CONTINUOUS
100
AcDbLine
 10
2625.004959832917
 20
730.1709182873258
 30
0.0
 11
2652.388736436795
 21
757.5546948912034
 31
0.0
1001
ACAD
1010
0.0
1020
0.0
1030
0.0
  0
LINE
  5
6207
330
18
100
AcDbEntity
  8
1HATCH
  6
CONTINUOUS
100
AcDbLine
 10
2627.716116768605
 20
723.9018191019453
 30
0.0
 11
2658.625116529613
 21
754.8108188629533
 31
0.0
1001
ACAD
1010
0.0
1020
0.0
1030
0.0
  0
LINE
  5
6208
330
18
100
AcDbEntity
  8
1HATCH
  6
CONTINUOUS
100
AcDbLine
 10
2631.875968687774
 20
719.0814149000444
 30
0.0
 11
2663.45234709829
 21
750.6577933105609
 31
0.0
1001
ACAD
1010
0.0
1020
0.0
1030
0.0
  0
LINE
  5
6209
330
18
100
AcDbEntity
  8
1HATCH
  6
CONTINUOUS
100
AcDbLine
 10
2637.329034168583
 20
715.5542242597849
 30
0.0
 11
2666.962295193427
 21
745.1874852846279
 31
0.0
1001
ACAD
1010
0.0
1020
0.0
1030
0.0
  0
LINE
  5
620A
330
18
100
AcDbEntity
  8
1HATCH
  6
CONTINUOUS
100
AcDbLine
 10
2644.508712354344
 20
713.7536463244764
 30
0.0
 11
2668.863690045122
 21
738.1086240152536
 31
0.0
1001
ACAD
1010
0.0
1020
0.0
1030
0.0
  0
LINE
  5
620B
330
18
100
AcDbEntity
  8
1HATCH
  6
CONTINUOUS
100
AcDbLine
 10
2654.995216348806
 20
715.2598941978697
 30
0.0
 11
2667.269265406525
 21
727.5339432555878
 31
0.0
1001
ACAD
1010
0.0
1020
0.0
1030
0.0
  0
TEXT
  5
620C
330
18
100
AcDbEntity
  8
1TEXT
  6
CONTINUOUS
100
AcDbText
 10
1523.179918901545
 20
-225.4773343483009
 30
0.0
 40
20.0
  1
※寸法許容差：JIS規格 A5207に基づく。(±0.5％)
100
AcDbText
1001
ACADANNOTATIVE
1000
AnnotativeData
1002
{
1070
     1
1070
     0
1002
}
  0
LINE
  5
620D
330
18
100
AcDbEntity
  8
0
  6
BYBLOCK
100
AcDbLine
 10
1689.641450421745
 20
363.7369755503898
 30
0.0
 11
1679.641450421745
 21
366.4164674503898
 31
0.0
  0
LINE
  5
620E
330
18
100
AcDbEntity
  8
0
  6
BYBLOCK
100
AcDbLine
 10
1679.641450421745
 20
366.4164674503898
 30
0.0
 11
1689.641450421745
 21
369.0959593503898
 31
0.0
  0
LINE
  5
620F
330
18
100
AcDbEntity
  8
0
  6
BYBLOCK
100
AcDbLine
 10
1679.641450421745
 20
366.4164674503898
 30
0.0
 11
1689.641450421745
 21
366.4164674503898
 31
0.0
  0
LINE
  5
6210
330
18
100
AcDbEntity
  8
0
  6
BYBLOCK
100
AcDbLine
 10
2005.641450421745
 20
369.0959593503898
 30
0.0
 11
2015.641450421745
 21
366.4164674503898
 31
0.0
  0
LINE
  5
6211
330
18
100
AcDbEntity
  8
0
  6
BYBLOCK
100
AcDbLine
 10
2015.641450421745
 20
366.4164674503898
 30
0.0
 11
2005.641450421745
 21
363.7369755503898
 31
0.0
  0
LINE
  5
6212
330
18
100
AcDbEntity
  8
0
  6
BYBLOCK
100
AcDbLine
 10
2015.641450421745
 20
366.4164674503898
 30
0.0
 11
2005.641450421745
 21
366.4164674503898
 31
0.0
  0
TEXT
  5
6213
330
18
100
AcDbEntity
  8
1DIM
  6
CONTINUOUS
100
AcDbText
 10
1824.308117088412
 20
369.9164674503898
 30
0.0
 40
17.5
  1
336
100
AcDbText
1001
ACAD
1000
DSTYLE
1002
{
1070
    40
1040
5.0
1070
    48
1040
16.8
1070
    47
1040
16.8
1002
}
  0
LINE
  5
6214
330
18
100
AcDbEntity
  8
0
  6
BYBLOCK
100
AcDbLine
 10
1610.743023349351
 20
291.1495992484536
 30
0.0
 11
1613.422515249351
 21
301.1495992484536
 31
0.0
  0
LINE
  5
6215
330
18
100
AcDbEntity
  8
0
  6
BYBLOCK
100
AcDbLine
 10
1613.422515249351
 20
301.1495992484536
 30
0.0
 11
1616.102007149351
 21
291.1495992484536
 31
0.0
  0
LINE
  5
6216
330
18
100
AcDbEntity
  8
0
  6
BYBLOCK
100
AcDbLine
 10
1613.422515249351
 20
301.1495992484536
 30
0.0
 11
1613.422515249351
 21
291.1495992484536
 31
0.0
  0
LINE
  5
6217
330
18
100
AcDbEntity
  8
0
  6
BYBLOCK
100
AcDbLine
 10
1616.102007149351
 20
111.1495992484541
 30
0.0
 11
1613.422515249351
 21
101.1495992484541
 31
0.0
  0
LINE
  5
6218
330
18
100
AcDbEntity
  8
0
  6
BYBLOCK
100
AcDbLine
 10
1613.422515249351
 20
101.1495992484541
 30
0.0
 11
1610.743023349351
 21
111.1495992484541
 31
0.0
  0
LINE
  5
6219
330
18
100
AcDbEntity
  8
0
  6
BYBLOCK
100
AcDbLine
 10
1613.422515249351
 20
101.1495992484541
 30
0.0
 11
1613.422515249351
 21
111.1495992484541
 31
0.0
  0
TEXT
  5
621A
330
18
100
AcDbEntity
  8
1DIM
  6
CONTINUOUS
100
AcDbText
 10
1609.922515249351
 20
180.3683492484538
 30
0.0
 40
17.5
  1
200
 50
90.0
100
AcDbText
1001
ACAD
1000
DSTYLE
1002
{
1070
    40
1040
5.0
1070
    48
1040
10.0
1070
    47
1040
10.0
1002
}
  0
LINE
  5
621B
330
18
100
AcDbEntity
  8
0
  6
BYBLOCK
100
AcDbLine
 10
1616.102007149351
 20
-100.9837969688756
 30
0.0
 11
1613.422515249351
 21
-110.9837969688756
 31
0.0
  0
LINE
  5
621C
330
18
100
AcDbEntity
  8
0
  6
BYBLOCK
100
AcDbLine
 10
1613.422515249351
 20
-110.9837969688756
 30
0.0
 11
1610.743023349351
 21
-100.9837969688756
 31
0.0
  0
LINE
  5
621D
330
18
100
AcDbEntity
  8
0
  6
BYBLOCK
100
AcDbLine
 10
1613.422515249351
 20
-110.9837969688756
 30
0.0
 11
1613.422515249351
 21
-100.9837969688756
 31
0.0
  0
LINE
  5
621E
330
18
100
AcDbEntity
  8
0
  6
BYBLOCK
100
AcDbLine
 10
1610.743023349351
 20
-5.983796968876955
 30
0.0
 11
1613.422515249351
 21
4.016203031123045
 31
0.0
  0
LINE
  5
621F
330
18
100
AcDbEntity
  8
0
  6
BYBLOCK
100
AcDbLine
 10
1613.422515249351
 20
4.016203031123045
 30
0.0
 11
1616.102007149351
 21
-5.983796968876955
 31
0.0
  0
LINE
  5
6220
330
18
100
AcDbEntity
  8
0
  6
BYBLOCK
100
AcDbLine
 10
1613.422515249351
 20
4.016203031123045
 30
0.0
 11
1613.422515249351
 21
-5.983796968876955
 31
0.0
  0
TEXT
  5
6221
330
18
100
AcDbEntity
  8
1DIM
  6
CONTINUOUS
100
AcDbText
 10
1609.922515249351
 20
-70.98379696887628
 30
0.0
 40
17.5
  1
115
 50
90.0
100
AcDbText
1001
ACAD
1000
DSTYLE
1002
{
1070
    40
1040
5.0
1002
}
  0
LINE
  5
6222
330
18
100
AcDbEntity
  8
0
  6
BYBLOCK
100
AcDbLine
 10
1645.137018174176
 20
291.1495992484537
 30
0.0
 11
1647.816510074176
 21
301.1495992484537
 31
0.0
  0
LINE
  5
6223
330
18
100
AcDbEntity
  8
0
  6
BYBLOCK
100
AcDbLine
 10
1647.816510074176
 20
301.1495992484537
 30
0.0
 11
1650.496001974176
 21
291.1495992484537
 31
0.0
  0
LINE
  5
6224
330
18
100
AcDbEntity
  8
0
  6
BYBLOCK
100
AcDbLine
 10
1647.816510074176
 20
301.1495992484537
 30
0.0
 11
1647.816510074176
 21
291.1495992484537
 31
0.0
  0
LINE
  5
6225
330
18
100
AcDbEntity
  8
0
  6
BYBLOCK
100
AcDbLine
 10
1650.496001974176
 20
221.1495992484537
 30
0.0
 11
1647.816510074176
 21
211.1495992484537
 31
0.0
  0
LINE
  5
6226
330
18
100
AcDbEntity
  8
0
  6
BYBLOCK
100
AcDbLine
 10
1647.816510074176
 20
211.1495992484537
 30
0.0
 11
1645.137018174176
 21
221.1495992484537
 31
0.0
  0
LINE
  5
6227
330
18
100
AcDbEntity
  8
0
  6
BYBLOCK
100
AcDbLine
 10
1647.816510074176
 20
211.1495992484537
 30
0.0
 11
1647.816510074176
 21
221.1495992484537
 31
0.0
  0
TEXT
  5
6228
330
18
100
AcDbEntity
  8
1DIM
  6
CONTINUOUS
100
AcDbText
 10
1644.316510074176
 20
242.6519140632686
 30
0.0
 40
17.5
  1
90
 50
90.0
100
AcDbText
1001
ACAD
1000
DSTYLE
1002
{
1070
    40
1040
5.0
1002
}
  0
LINE
  5
6229
330
18
100
AcDbEntity
  8
0
  6
BYBLOCK
100
AcDbLine
 10
1857.641450421745
 20
332.4827313161908
 30
0.0
 11
1847.641450421745
 21
335.1622232161908
 31
0.0
  0
LINE
  5
622A
330
18
100
AcDbEntity
  8
0
  6
BYBLOCK
100
AcDbLine
 10
1847.641450421745
 20
335.1622232161908
 30
0.0
 11
1857.641450421745
 21
337.8417151161908
 31
0.0
  0
LINE
  5
622B
330
18
100
AcDbEntity
  8
0
  6
BYBLOCK
100
AcDbLine
 10
1847.641450421745
 20
335.1622232161908
 30
0.0
 11
1857.641450421745
 21
335.1622232161908
 31
0.0
  0
LINE
  5
622C
330
18
100
AcDbEntity
  8
0
  6
BYBLOCK
100
AcDbLine
 10
1965.6415
 20
337.8417151161908
 30
0.0
 11
1975.6415
 21
335.1622232161908
 31
0.0
  0
LINE
  5
622D
330
18
100
AcDbEntity
  8
0
  6
BYBLOCK
100
AcDbLine
 10
1975.6415
 20
335.1622232161908
 30
0.0
 11
1965.6415
 21
332.4827313161908
 31
0.0
  0
LINE
  5
622E
330
18
100
AcDbEntity
  8
0
  6
BYBLOCK
100
AcDbLine
 10
1975.6415
 20
335.1622232161908
 30
0.0
 11
1965.6415
 21
335.1622232161908
 31
0.0
  0
TEXT
  5
622F
330
18
100
AcDbEntity
  8
1DIM
  6
CONTINUOUS
100
AcDbText
 10
1891.224808544205
 20
338.6622232161908
 30
0.0
 40
17.5
  1
128
100
AcDbText
1001
ACAD
1000
DSTYLE
1002
{
1070
    40
1040
5.0
1002
}
  0
LINE
  5
6230
330
18
100
AcDbEntity
  8
0
  6
BYBLOCK
100
AcDbLine
 10
2076.236227229892
 20
291.1495992484541
 30
0.0
 11
2078.915719129892
 21
301.1495992484541
 31
0.0
  0
LINE
  5
6231
330
18
100
AcDbEntity
  8
0
  6
BYBLOCK
100
AcDbLine
 10
2078.915719129892
 20
301.1495992484541
 30
0.0
 11
2081.595211029892
 21
291.1495992484541
 31
0.0
  0
LINE
  5
6232
330
18
100
AcDbEntity
  8
0
  6
BYBLOCK
100
AcDbLine
 10
2078.915719129892
 20
301.1495992484541
 30
0.0
 11
2078.915719129892
 21
291.1495992484541
 31
0.0
  0
LINE
  5
6233
330
18
100
AcDbEntity
  8
0
  6
BYBLOCK
100
AcDbLine
 10
2081.595211029892
 20
271.1495639987372
 30
0.0
 11
2078.915719129892
 21
261.1495639987372
 31
0.0
  0
LINE
  5
6234
330
18
100
AcDbEntity
  8
0
  6
BYBLOCK
100
AcDbLine
 10
2078.915719129892
 20
261.1495639987372
 30
0.0
 11
2076.236227229892
 21
271.1495639987372
 31
0.0
  0
LINE
  5
6235
330
18
100
AcDbEntity
  8
0
  6
BYBLOCK
100
AcDbLine
 10
2078.915719129892
 20
261.1495639987372
 30
0.0
 11
2078.915719129892
 21
271.1495639987372
 31
0.0
  0
TEXT
  5
6236
330
18
100
AcDbEntity
  8
1DIM
  6
CONTINUOUS
100
AcDbText
 10
2075.415719129893
 20
267.6599982902626
 30
0.0
 40
17.5
  1
40
 50
90.0
100
AcDbText
1001
ACAD
1000
DSTYLE
1002
{
1070
    40
1040
5.0
1002
}
  0
TEXT
  5
6237
330
18
100
AcDbEntity
  8
1DIM
  6
CONTINUOUS
100
AcDbText
 10
1881.980872904892
 20
184.7599199280266
 30
0.0
 40
17.5
  1
\U+220541
 50
317.8224338076379
100
AcDbText
1001
ACAD
1000
DSTYLE
1002
{
1070
    40
1040
5.0
1002
}
  0
LINE
  5
6238
330
18
100
AcDbEntity
  8
0
  6
BYBLOCK
100
AcDbLine
 10
1826.837982755642
 20
233.6139133912795
 30
0.0
 11
1832.449565697344
 21
224.9139240964262
 31
0.0
  0
LINE
  5
6239
330
18
100
AcDbEntity
  8
0
  6
BYBLOCK
100
AcDbLine
 10
1832.449565697344
 20
224.9139240964262
 30
0.0
 11
1823.239797688411
 21
229.6425444093512
 31
0.0
  0
LINE
  5
623A
330
18
100
AcDbEntity
  8
0
  6
BYBLOCK
100
AcDbLine
 10
1832.449565697344
 20
224.9139240964262
 30
0.0
 11
1825.038890222027
 21
231.6282289003153
 31
0.0
  0
LINE
  5
623B
330
18
100
AcDbEntity
  8
0
  6
BYBLOCK
100
AcDbLine
 10
1868.444918087847
 20
188.6852851056277
 30
0.0
 11
1862.833335146145
 21
197.385274400481
 31
0.0
  0
LINE
  5
623C
330
18
100
AcDbEntity
  8
0
  6
BYBLOCK
100
AcDbLine
 10
1862.833335146145
 20
197.385274400481
 30
0.0
 11
1872.043103155078
 21
192.656654087556
 31
0.0
  0
LINE
  5
623D
330
18
100
AcDbEntity
  8
0
  6
BYBLOCK
100
AcDbLine
 10
1862.833335146145
 20
197.385274400481
 30
0.0
 11
1870.244010621463
 21
190.6709695965918
 31
0.0
  0
TEXT
  5
623E
330
18
100
AcDbEntity
  8
1DIM
  6
CONTINUOUS
100
AcDbText
 10
2028.361524770072
 20
220.8584589815696
 30
0.0
 40
17.5
  1
\U+220526
 50
319.5876198576854
100
AcDbText
1001
ACAD
1000
DSTYLE
1002
{
1070
    40
1040
5.0
1002
}
  0
LINE
  5
623F
330
18
100
AcDbEntity
  8
0
  6
BYBLOCK
100
AcDbLine
 10
1959.866363615481
 20
278.1003016851369
 30
0.0
 11
1965.7432732011
 21
269.5772969001665
 31
0.0
  0
LINE
  5
6240
330
18
100
AcDbEntity
  8
0
  6
BYBLOCK
100
AcDbLine
 10
1965.7432732011
 20
269.5772969001665
 30
0.0
 11
1956.392217831879
 21
274.0199808101391
 31
0.0
  0
LINE
  5
6241
330
18
100
AcDbEntity
  8
0
  6
BYBLOCK
100
AcDbLine
 10
1965.7432732011
 20
269.5772969001665
 30
0.0
 11
1958.12929072368
 21
276.060141247638
 31
0.0
  0
LINE
  5
6242
330
18
100
AcDbEntity
  8
0
  6
BYBLOCK
100
AcDbLine
 10
1991.416537228011
 20
244.1988968117702
 30
0.0
 11
1985.539627642392
 21
252.7219015967405
 31
0.0
  0
LINE
  5
6243
330
18
100
AcDbEntity
  8
0
  6
BYBLOCK
100
AcDbLine
 10
1985.539627642392
 20
252.7219015967405
 30
0.0
 11
1994.890683011613
 21
248.2792176867679
 31
0.0
  0
LINE
  5
6244
330
18
100
AcDbEntity
  8
0
  6
BYBLOCK
100
AcDbLine
 10
1985.539627642392
 20
252.7219015967405
 30
0.0
 11
1993.153610119812
 21
246.239057249269
 31
0.0
  0
LINE
  5
6245
330
18
100
AcDbEntity
  8
0
  6
BYBLOCK
100
AcDbLine
 10
1645.137018174176
 20
-5.983796968875593
 30
0.0
 11
1647.816510074176
 21
4.016203031124407
 31
0.0
  0
LINE
  5
6246
330
18
100
AcDbEntity
  8
0
  6
BYBLOCK
100
AcDbLine
 10
1647.816510074176
 20
4.016203031124407
 30
0.0
 11
1650.496001974176
 21
-5.983796968875593
 31
0.0
  0
LINE
  5
6247
330
18
100
AcDbEntity
  8
0
  6
BYBLOCK
100
AcDbLine
 10
1647.816510074176
 20
4.016203031124407
 30
0.0
 11
1647.816510074176
 21
-5.983796968875593
 31
0.0
  0
LINE
  5
6248
330
18
100
AcDbEntity
  8
0
  6
BYBLOCK
100
AcDbLine
 10
1650.496001974176
 20
-74.98379696887405
 30
0.0
 11
1647.816510074176
 21
-84.98379696887405
 31
0.0
  0
LINE
  5
6249
330
18
100
AcDbEntity
  8
0
  6
BYBLOCK
100
AcDbLine
 10
1647.816510074176
 20
-84.98379696887405
 30
0.0
 11
1645.137018174176
 21
-74.98379696887405
 31
0.0
  0
LINE
  5
624A
330
18
100
AcDbEntity
  8
0
  6
BYBLOCK
100
AcDbLine
 10
1647.816510074176
 20
-84.98379696887405
 30
0.0
 11
1647.816510074176
 21
-74.98379696887405
 31
0.0
  0
TEXT
  5
624B
330
18
100
AcDbEntity
  8
1DIM
  6
CONTINUOUS
100
AcDbText
 10
1644.316510074176
 20
-55.07118122813426
 30
0.0
 40
17.5
  1
89
 50
90.0
100
AcDbText
1001
ACAD
1000
DSTYLE
1002
{
1070
    40
1040
5.0
1002
}
  0
LINE
  5
624C
330
18
100
AcDbEntity
  8
0
  6
BYBLOCK
100
AcDbLine
 10
2081.595211029892
 20
649.0885861592266
 30
0.0
 11
2078.915719129892
 21
639.0885861592266
 31
0.0
  0
LINE
  5
624D
330
18
100
AcDbEntity
  8
0
  6
BYBLOCK
100
AcDbLine
 10
2078.915719129892
 20
639.0885861592266
 30
0.0
 11
2076.236227229892
 21
649.0885861592266
 31
0.0
  0
LINE
  5
624E
330
18
100
AcDbEntity
  8
0
  6
BYBLOCK
100
AcDbLine
 10
2078.915719129892
 20
639.0885861592266
 30
0.0
 11
2078.915719129892
 21
649.0885861592266
 31
0.0
  0
LINE
  5
624F
330
18
100
AcDbEntity
  8
0
  6
BYBLOCK
100
AcDbLine
 10
2076.236227229892
 20
609.0885861592291
 30
0.0
 11
2078.915719129892
 21
619.0885861592291
 31
0.0
  0
LINE
  5
6250
330
18
100
AcDbEntity
  8
0
  6
BYBLOCK
100
AcDbLine
 10
2078.915719129892
 20
619.0885861592291
 30
0.0
 11
2081.595211029892
 21
609.0885861592291
 31
0.0
  0
LINE
  5
6251
330
18
100
AcDbEntity
  8
0
  6
BYBLOCK
100
AcDbLine
 10
2078.915719129892
 20
619.0885861592291
 30
0.0
 11
2078.915719129892
 21
609.0885861592291
 31
0.0
  0
TEXT
  5
6252
330
18
100
AcDbEntity
  8
1DIM
  6
CONTINUOUS
100
AcDbText
 10
2075.415719129892
 20
567.9323361592292
 30
0.0
 40
17.5
  1
20
 50
90.0
100
AcDbText
1001
ACAD
1000
DSTYLE
1002
{
1070
    40
1040
5.0
1070
   341
1005
0
1002
}
  0
LINE
  5
6253
330
18
100
AcDbEntity
  8
0
  6
BYBLOCK
100
AcDbLine
 10
1834.641450421745
 20
470.5689499804947
 30
0.0
 11
1824.641450421745
 21
473.2484418804947
 31
0.0
  0
LINE
  5
6254
330
18
100
AcDbEntity
  8
0
  6
BYBLOCK
100
AcDbLine
 10
1824.641450421745
 20
473.2484418804947
 30
0.0
 11
1834.641450421745
 21
475.9279337804948
 31
0.0
  0
LINE
  5
6255
330
18
100
AcDbEntity
  8
0
  6
BYBLOCK
100
AcDbLine
 10
1824.641450421745
 20
473.2484418804947
 30
0.0
 11
1834.641450421745
 21
473.2484418804947
 31
0.0
  0
LINE
  5
6256
330
18
100
AcDbEntity
  8
0
  6
BYBLOCK
100
AcDbLine
 10
1860.641450421745
 20
475.9279337804948
 30
0.0
 11
1870.641450421745
 21
473.2484418804947
 31
0.0
  0
LINE
  5
6257
330
18
100
AcDbEntity
  8
0
  6
BYBLOCK
100
AcDbLine
 10
1870.641450421745
 20
473.2484418804947
 30
0.0
 11
1860.641450421745
 21
470.5689499804947
 31
0.0
  0
LINE
  5
6258
330
18
100
AcDbEntity
  8
0
  6
BYBLOCK
100
AcDbLine
 10
1870.641450421745
 20
473.2484418804947
 30
0.0
 11
1860.641450421745
 21
473.2484418804947
 31
0.0
  0
TEXT
  5
6259
330
18
100
AcDbEntity
  8
1DIM
  6
CONTINUOUS
100
AcDbText
 10
1833.058117088411
 20
476.7484418804947
 30
0.0
 40
17.5
  1
46
100
AcDbText
1001
ACAD
1000
DSTYLE
1002
{
1070
    40
1040
5.0
1002
}
  0
LINE
  5
625A
330
18
100
AcDbEntity
  8
0
  6
BYBLOCK
100
AcDbLine
 10
1787.641450421746
 20
689.5491795053966
 30
0.0
 11
1777.641450421746
 21
692.2286714053967
 31
0.0
  0
LINE
  5
625B
330
18
100
AcDbEntity
  8
0
  6
BYBLOCK
100
AcDbLine
 10
1777.641450421746
 20
692.2286714053967
 30
0.0
 11
1787.641450421746
 21
694.9081633053967
 31
0.0
  0
LINE
  5
625C
330
18
100
AcDbEntity
  8
0
  6
BYBLOCK
100
AcDbLine
 10
1777.641450421746
 20
692.2286714053967
 30
0.0
 11
1787.641450421746
 21
692.2286714053967
 31
0.0
  0
LINE
  5
625D
330
18
100
AcDbEntity
  8
0
  6
BYBLOCK
100
AcDbLine
 10
1907.641450421744
 20
694.9081633053967
 30
0.0
 11
1917.641450421744
 21
692.2286714053967
 31
0.0
  0
LINE
  5
625E
330
18
100
AcDbEntity
  8
0
  6
BYBLOCK
100
AcDbLine
 10
1917.641450421744
 20
692.2286714053967
 30
0.0
 11
1907.641450421744
 21
689.5491795053966
 31
0.0
  0
LINE
  5
625F
330
18
100
AcDbEntity
  8
0
  6
BYBLOCK
100
AcDbLine
 10
1917.641450421744
 20
692.2286714053967
 30
0.0
 11
1907.641450421744
 21
692.2286714053967
 31
0.0
  0
TEXT
  5
6260
330
18
100
AcDbEntity
  8
1DIM
  6
CONTINUOUS
100
AcDbText
 10
1828.318533755078
 20
695.7286714053967
 30
0.0
 40
17.5
  1
140
100
AcDbText
1001
ACAD
1000
DSTYLE
1002
{
1070
    40
1040
5.0
1002
}
  0
LINE
  5
6261
330
18
100
AcDbEntity
  8
0
  6
BYBLOCK
100
AcDbLine
 10
1616.102007149351
 20
599.378586159229
 30
0.0
 11
1613.422515249352
 21
589.378586159229
 31
0.0
  0
LINE
  5
6262
330
18
100
AcDbEntity
  8
0
  6
BYBLOCK
100
AcDbLine
 10
1613.422515249352
 20
589.378586159229
 30
0.0
 11
1610.743023349352
 21
599.378586159229
 31
0.0
  0
LINE
  5
6263
330
18
100
AcDbEntity
  8
0
  6
BYBLOCK
100
AcDbLine
 10
1613.422515249352
 20
589.378586159229
 30
0.0
 11
1613.422515249352
 21
599.378586159229
 31
0.0
  0
LINE
  5
6264
330
18
100
AcDbEntity
  8
0
  6
BYBLOCK
100
AcDbLine
 10
1610.743023349352
 20
629.0885861592299
 30
0.0
 11
1613.422515249352
 21
639.0885861592299
 31
0.0
  0
LINE
  5
6265
330
18
100
AcDbEntity
  8
0
  6
BYBLOCK
100
AcDbLine
 10
1613.422515249352
 20
639.0885861592299
 30
0.0
 11
1616.102007149351
 21
629.0885861592299
 31
0.0
  0
LINE
  5
6266
330
18
100
AcDbEntity
  8
0
  6
BYBLOCK
100
AcDbLine
 10
1613.422515249352
 20
639.0885861592299
 30
0.0
 11
1613.422515249352
 21
629.0885861592299
 31
0.0
  0
TEXT
  5
6267
330
18
100
AcDbEntity
  8
1DIM
  6
CONTINUOUS
100
AcDbText
 10
1609.922515249351
 20
600.6832389370076
 30
0.0
 40
17.5
  1
50
 50
90.0
100
AcDbText
1001
ACAD
1000
DSTYLE
1002
{
1070
    40
1040
5.0
1070
   271
1070
     0
1002
}
  0
LINE
  5
6269
330
18
100
AcDbEntity
  8
0
  6
BYBLOCK
100
AcDbLine
 10
1650.496001974176
 20
649.0885861592299
 30
0.0
 11
1647.816510074176
 21
639.0885861592299
 31
0.0
  0
LINE
  5
626A
330
18
100
AcDbEntity
  8
0
  6
BYBLOCK
100
AcDbLine
 10
1647.816510074176
 20
639.0885861592299
 30
0.0
 11
1645.137018174176
 21
649.0885861592299
 31
0.0
  0
LINE
  5
626B
330
18
100
AcDbEntity
  8
0
  6
BYBLOCK
100
AcDbLine
 10
1647.816510074176
 20
639.0885861592299
 30
0.0
 11
1647.816510074176
 21
649.0885861592299
 31
0.0
  0
TEXT
  5
626C
330
18
100
AcDbEntity
  8
1DIM
  6
CONTINUOUS
100
AcDbText
 10
1644.316510074176
 20
664.93233615923
 30
0.0
 40
17.5
  1
10
 50
90.0
100
AcDbText
1001
ACAD
1000
DSTYLE
1002
{
1070
    40
1040
5.0
1070
   173
1070
     1
1070
   343
1005
3F3D
1070
   344
1005
42
1002
}
  0
LINE
  5
626E
330
18
100
AcDbEntity
  8
0
  6
BYBLOCK
100
AcDbLine
 10
1650.496001974176
 20
618.0885861592293
 30
0.0
 11
1647.816510074176
 21
608.0885861592293
 31
0.0
  0
LINE
  5
626F
330
18
100
AcDbEntity
  8
0
  6
BYBLOCK
100
AcDbLine
 10
1647.816510074176
 20
608.0885861592293
 30
0.0
 11
1645.137018174176
 21
618.0885861592293
 31
0.0
  0
LINE
  5
6270
330
18
100
AcDbEntity
  8
0
  6
BYBLOCK
100
AcDbLine
 10
1647.816510074176
 20
608.0885861592293
 30
0.0
 11
1647.816510074176
 21
618.0885861592293
 31
0.0
  0
TEXT
  5
6271
330
18
100
AcDbEntity
  8
1DIM
  6
CONTINUOUS
100
AcDbText
 10
1644.316510074176
 20
559.0052528258957
 30
0.0
 40
17.5
  1
21
 50
90.0
100
AcDbText
1001
ACAD
1000
DSTYLE
1002
{
1070
    40
1040
5.0
1070
   173
1070
     1
1070
   343
1005
3F3D
1070
   344
1005
42
1002
}
  0
LINE
  5
6272
330
18
100
AcDbEntity
  8
0
  6
BYBLOCK
100
AcDbLine
 10
1689.641450421745
 20
689.5491795053966
 30
0.0
 11
1679.641450421745
 21
692.2286714053967
 31
0.0
  0
LINE
  5
6273
330
18
100
AcDbEntity
  8
0
  6
BYBLOCK
100
AcDbLine
 10
1679.641450421745
 20
692.2286714053967
 30
0.0
 11
1689.641450421745
 21
694.9081633053967
 31
0.0
  0
LINE
  5
6274
330
18
100
AcDbEntity
  8
0
  6
BYBLOCK
100
AcDbLine
 10
1679.641450421745
 20
692.2286714053967
 30
0.0
 11
1689.641450421745
 21
692.2286714053967
 31
0.0
  0
LINE
  5
6275
330
18
100
AcDbEntity
  8
0
  6
BYBLOCK
100
AcDbLine
 10
1767.641450421745
 20
694.9081633053967
 30
0.0
 11
1777.641450421745
 21
692.2286714053967
 31
0.0
  0
LINE
  5
6276
330
18
100
AcDbEntity
  8
0
  6
BYBLOCK
100
AcDbLine
 10
1777.641450421745
 20
692.2286714053967
 30
0.0
 11
1767.641450421745
 21
689.5491795053966
 31
0.0
  0
LINE
  5
6277
330
18
100
AcDbEntity
  8
0
  6
BYBLOCK
100
AcDbLine
 10
1777.641450421745
 20
692.2286714053967
 30
0.0
 11
1767.641450421745
 21
692.2286714053967
 31
0.0
  0
TEXT
  5
6278
330
18
100
AcDbEntity
  8
1DIM
  6
CONTINUOUS
100
AcDbText
 10
1714.05001523656
 20
695.7286714053967
 30
0.0
 40
17.5
  1
98
100
AcDbText
1001
ACAD
1000
DSTYLE
1002
{
1070
    40
1040
5.0
1002
}
  0
LINE
  5
6279
330
18
100
AcDbEntity
  8
0
  6
BYBLOCK
100
AcDbLine
 10
1927.641450421744
 20
689.5491795053966
 30
0.0
 11
1917.641450421744
 21
692.2286714053967
 31
0.0
  0
LINE
  5
627A
330
18
100
AcDbEntity
  8
0
  6
BYBLOCK
100
AcDbLine
 10
1917.641450421744
 20
692.2286714053967
 30
0.0
 11
1927.641450421744
 21
694.9081633053967
 31
0.0
  0
LINE
  5
627B
330
18
100
AcDbEntity
  8
0
  6
BYBLOCK
100
AcDbLine
 10
1917.641450421744
 20
692.2286714053967
 30
0.0
 11
1927.641450421744
 21
692.2286714053967
 31
0.0
  0
LINE
  5
627C
330
18
100
AcDbEntity
  8
0
  6
BYBLOCK
100
AcDbLine
 10
2005.641450421745
 20
694.9081633053967
 30
0.0
 11
2015.641450421745
 21
692.2286714053967
 31
0.0
  0
LINE
  5
627D
330
18
100
AcDbEntity
  8
0
  6
BYBLOCK
100
AcDbLine
 10
2015.641450421745
 20
692.2286714053967
 30
0.0
 11
2005.641450421745
 21
689.5491795053966
 31
0.0
  0
LINE
  5
627E
330
18
100
AcDbEntity
  8
0
  6
BYBLOCK
100
AcDbLine
 10
2015.641450421745
 20
692.2286714053967
 30
0.0
 11
2005.641450421745
 21
692.2286714053967
 31
0.0
  0
TEXT
  5
627F
330
18
100
AcDbEntity
  8
1DIM
  6
CONTINUOUS
100
AcDbText
 10
1952.050015236559
 20
695.7286714053967
 30
0.0
 40
17.5
  1
98
100
AcDbText
1001
ACAD
1000
DSTYLE
1002
{
1070
    40
1040
5.0
1002
}
  0
LINE
  5
6280
330
18
100
AcDbEntity
  8
0
  6
BYBLOCK
100
AcDbLine
 10
1216.873992468418
 20
342.7831643883226
 30
0.0
 11
1207.428871177865
 21
338.5441361212656
 31
0.0
  0
LINE
  5
6281
330
18
100
AcDbEntity
  8
0
  6
BYBLOCK
100
AcDbLine
 10
1207.428871177865
 20
338.5441361212656
 30
0.0
 11
1213.489072061859
 21
346.9378029056815
 31
0.0
  0
LINE
  5
6282
330
18
100
AcDbEntity
  8
0
  6
BYBLOCK
100
AcDbLine
 10
1207.428871177865
 20
338.5441361212656
 30
0.0
 11
1215.181532265139
 21
344.8604836470021
 31
0.0
  0
LINE
  5
6283
330
18
100
AcDbEntity
  8
0
  6
BYBLOCK
100
AcDbLine
 10
1213.343977217331
 20
158.1009677058246
 30
0.0
 11
1204.099442474974
 21
153.4406829248783
 31
0.0
  0
LINE
  5
6284
330
18
100
AcDbEntity
  8
0
  6
BYBLOCK
100
AcDbLine
 10
1204.099442474974
 20
153.4406829248783
 30
0.0
 11
1209.775302056828
 21
162.0988752794776
 31
0.0
  0
LINE
  5
6285
330
18
100
AcDbEntity
  8
0
  6
BYBLOCK
100
AcDbLine
 10
1204.099442474974
 20
153.4406829248783
 30
0.0
 11
1211.55963963708
 21
160.0999214926511
 31
0.0
  0
LINE
  5
6286
330
18
100
AcDbEntity
  8
0
  6
BYBLOCK
100
AcDbLine
 10
1204.709886216455
 20
91.01819967492095
 30
0.0
 11
1194.617680174931
 21
88.71015850163326
 31
0.0
  0
LINE
  5
6287
330
18
100
AcDbEntity
  8
0
  6
BYBLOCK
100
AcDbLine
 10
1194.617680174931
 20
88.71015850163326
 30
0.0
 11
1202.203766432433
 21
95.7550837770283
 31
0.0
  0
LINE
  5
6288
330
18
100
AcDbEntity
  8
0
  6
BYBLOCK
100
AcDbLine
 10
1194.617680174931
 20
88.71015850163326
 30
0.0
 11
1203.456826324444
 21
93.38664172597463
 31
0.0
  0
LINE
  5
6289
330
18
100
AcDbEntity
  8
0
  6
BYBLOCK
100
AcDbLine
 10
1223.854060844337
 20
231.416105570671
 30
0.0
 11
1215.478507433325
 21
225.3308954755762
 31
0.0
  0
LINE
  5
628A
330
18
100
AcDbEntity
  8
0
  6
BYBLOCK
100
AcDbLine
 10
1215.478507433325
 20
225.3308954755762
 30
0.0
 11
1219.689344453373
 21
234.7886186916974
 31
0.0
  0
LINE
  5
628B
330
18
100
AcDbEntity
  8
0
  6
BYBLOCK
100
AcDbLine
 10
1215.478507433325
 20
225.3308954755762
 30
0.0
 11
1221.771702648855
 21
233.1023621311842
 31
0.0
  0
LINE
  5
628C
330
18
100
AcDbEntity
  8
0
  6
BYBLOCK
100
AcDbLine
 10
2315.730277892952
 20
766.0246287667974
 30
0.0
 11
2318.409769792951
 21
776.0246287667974
 31
0.0
  0
LINE
  5
628D
330
18
100
AcDbEntity
  8
0
  6
BYBLOCK
100
AcDbLine
 10
2318.409769792951
 20
776.0246287667974
 30
0.0
 11
2321.089261692951
 21
766.0246287667974
 31
0.0
  0
LINE
  5
628E
330
18
100
AcDbEntity
  8
0
  6
BYBLOCK
100
AcDbLine
 10
2318.409769792951
 20
776.0246287667974
 30
0.0
 11
2318.409769792951
 21
766.0246287667974
 31
0.0
  0
LINE
  5
628F
330
18
100
AcDbEntity
  8
0
  6
BYBLOCK
100
AcDbLine
 10
2321.089261692951
 20
586.0246287667978
 30
0.0
 11
2318.409769792951
 21
576.0246287667978
 31
0.0
  0
LINE
  5
6290
330
18
100
AcDbEntity
  8
0
  6
BYBLOCK
100
AcDbLine
 10
2318.409769792951
 20
576.0246287667978
 30
0.0
 11
2315.730277892952
 21
586.0246287667978
 31
0.0
  0
LINE
  5
6291
330
18
100
AcDbEntity
  8
0
  6
BYBLOCK
100
AcDbLine
 10
2318.409769792951
 20
576.0246287667978
 30
0.0
 11
2318.409769792951
 21
586.0246287667978
 31
0.0
  0
TEXT
  5
6292
330
18
100
AcDbEntity
  8
1DIM
  6
CONTINUOUS
100
AcDbText
 10
2314.909769792951
 20
655.2433787667981
 30
0.0
 40
17.5
  1
200
 50
90.0
100
AcDbText
1001
ACAD
1000
DSTYLE
1002
{
1070
    40
1040
5.0
1070
    75
1070
     1
1070
    76
1070
     0
1070
   281
1070
     0
1070
   282
1070
     0
1002
}
  0
TEXT
  5
6293
330
18
100
AcDbEntity
  8
1DIM
  6
CONTINUOUS
100
AcDbText
 10
2388.315994114607
 20
751.2957245888348
 30
0.0
 40
17.5
  1
\U+220570貫通
 50
334.7764658846268
100
AcDbText
1001
ACAD
1000
DSTYLE
1002
{
1070
     3
1000
%%c<>貫通
1070
    40
1040
5.0
1002
}
  0
LINE
  5
6294
330
18
100
AcDbEntity
  8
0
  6
BYBLOCK
100
AcDbLine
 10
2558.230799382064
 20
664.4238298129325
 30
0.0
 11
2550.326146414873
 21
671.1093468692593
 31
0.0
  0
LINE
  5
6295
330
18
100
AcDbEntity
  8
0
  6
BYBLOCK
100
AcDbLine
 10
2550.326146414873
 20
671.1093468692593
 30
0.0
 11
2560.514535212388
 21
669.2718456984218
 31
0.0
  0
LINE
  5
6296
330
18
100
AcDbEntity
  8
0
  6
BYBLOCK
100
AcDbLine
 10
2550.326146414873
 20
671.1093468692593
 30
0.0
 11
2559.372667297226
 21
666.8478377556771
 31
0.0
  0
LINE
  5
6297
330
18
100
AcDbEntity
  8
0
  6
BYBLOCK
100
AcDbLine
 10
2479.095847271207
 20
707.6254277206617
 30
0.0
 11
2487.000500238398
 21
700.9399106643349
 31
0.0
  0
LINE
  5
6298
330
18
100
AcDbEntity
  8
0
  6
BYBLOCK
100
AcDbLine
 10
2487.000500238398
 20
700.9399106643349
 30
0.0
 11
2476.812111440883
 21
702.7774118351724
 31
0.0
  0
LINE
  5
6299
330
18
100
AcDbEntity
  8
0
  6
BYBLOCK
100
AcDbLine
 10
2487.000500238398
 20
700.9399106643349
 30
0.0
 11
2477.953979356045
 21
705.2014197779171
 31
0.0
  0
TEXT
  5
629A
330
18
100
AcDbEntity
  8
1DIM
  6
CONTINUOUS
100
AcDbText
 10
2714.654736783099
 20
801.4242669764114
 30
0.0
 40
17.5
  1
\U+220545貫通
 50
41.76072492392764
100
AcDbText
1001
ACAD
1000
DSTYLE
1002
{
1070
     3
1000
%%c<>貫通
1070
    40
1040
5.0
1002
}
  0
LINE
  5
629B
330
18
100
AcDbEntity
  8
0
  6
BYBLOCK
100
AcDbLine
 10
2620.635911273738
 20
716.3776570237833
 30
0.0
 11
2629.87983715417
 21
721.0391493984681
 31
0.0
  0
LINE
  5
629C
330
18
100
AcDbEntity
  8
0
  6
BYBLOCK
100
AcDbLine
 10
2629.87983715417
 20
721.0391493984681
 30
0.0
 11
2624.205108659076
 21
712.3802156679712
 31
0.0
  0
LINE
  5
629D
330
18
100
AcDbEntity
  8
0
  6
BYBLOCK
100
AcDbLine
 10
2629.87983715417
 20
721.0391493984681
 30
0.0
 11
2622.420509966407
 21
714.3789363458773
 31
0.0
  0
LINE
  5
629E
330
18
100
AcDbEntity
  8
0
  6
BYBLOCK
100
AcDbLine
 10
2672.690735379535
 20
755.6716005098117
 30
0.0
 11
2663.446809499103
 21
751.0101081351269
 31
0.0
  0
LINE
  5
629F
330
18
100
AcDbEntity
  8
0
  6
BYBLOCK
100
AcDbLine
 10
2663.446809499103
 20
751.0101081351269
 30
0.0
 11
2669.121537994197
 21
759.6690418656237
 31
0.0
  0
LINE
  5
62A0
330
18
100
AcDbEntity
  8
0
  6
BYBLOCK
100
AcDbLine
 10
2663.446809499103
 20
751.0101081351269
 30
0.0
 11
2670.906136686866
 21
757.6703211877177
 31
0.0
  0
LINE
  5
62A1
330
18
100
AcDbEntity
  8
0
  6
BYBLOCK
100
AcDbLine
 10
2273.441208991627
 20
766.0246287667974
 30
0.0
 11
2276.120700891627
 21
776.0246287667974
 31
0.0
  0
LINE
  5
62A2
330
18
100
AcDbEntity
  8
0
  6
BYBLOCK
100
AcDbLine
 10
2276.120700891627
 20
776.0246287667974
 30
0.0
 11
2278.800192791627
 21
766.0246287667974
 31
0.0
  0
LINE
  5
62A3
330
18
100
AcDbEntity
  8
0
  6
BYBLOCK
100
AcDbLine
 10
2276.120700891627
 20
776.0246287667974
 30
0.0
 11
2276.120700891627
 21
766.0246287667974
 31
0.0
  0
LINE
  5
62A4
330
18
100
AcDbEntity
  8
0
  6
BYBLOCK
100
AcDbLine
 10
2278.800192791627
 20
536.0246287667974
 30
0.0
 11
2276.120700891627
 21
526.0246287667974
 31
0.0
  0
LINE
  5
62A5
330
18
100
AcDbEntity
  8
0
  6
BYBLOCK
100
AcDbLine
 10
2276.120700891627
 20
526.0246287667974
 30
0.0
 11
2273.441208991627
 21
536.0246287667974
 31
0.0
  0
LINE
  5
62A6
330
18
100
AcDbEntity
  8
0
  6
BYBLOCK
100
AcDbLine
 10
2276.120700891627
 20
526.0246287667974
 30
0.0
 11
2276.120700891627
 21
536.0246287667974
 31
0.0
  0
TEXT
  5
62A7
330
18
100
AcDbEntity
  8
1DIM
  6
CONTINUOUS
100
AcDbText
 10
2272.620700891627
 20
608.4412954334643
 30
0.0
 40
17.5
  1
200以上
 50
90.0
100
AcDbText
1001
ACAD
1000
DSTYLE
1002
{
1070
    40
1040
5.0
1070
    75
1070
     1
1070
    76
1070
     1
1070
   281
1070
     0
1070
   282
1070
     0
1002
}
  0
LINE
  5
62A8
330
18
100
AcDbEntity
  8
0
  6
BYBLOCK
100
AcDbLine
 10
2360.663323326638
 20
853.6803583337567
 30
0.0
 11
2350.663323326638
 21
856.3598502337567
 31
0.0
  0
LINE
  5
62A9
330
18
100
AcDbEntity
  8
0
  6
BYBLOCK
100
AcDbLine
 10
2350.663323326638
 20
856.3598502337567
 30
0.0
 11
2360.663323326638
 21
859.0393421337567
 31
0.0
  0
LINE
  5
62AA
330
18
100
AcDbEntity
  8
0
  6
BYBLOCK
100
AcDbLine
 10
2350.663323326638
 20
856.3598502337567
 30
0.0
 11
2360.663323326638
 21
856.3598502337567
 31
0.0
  0
LINE
  5
62AB
330
18
100
AcDbEntity
  8
0
  6
BYBLOCK
100
AcDbLine
 10
2676.663323326638
 20
859.0393421337567
 30
0.0
 11
2686.663323326638
 21
856.3598502337567
 31
0.0
  0
LINE
  5
62AC
330
18
100
AcDbEntity
  8
0
  6
BYBLOCK
100
AcDbLine
 10
2686.663323326638
 20
856.3598502337567
 30
0.0
 11
2676.663323326638
 21
853.6803583337567
 31
0.0
  0
LINE
  5
62AD
330
18
100
AcDbEntity
  8
0
  6
BYBLOCK
100
AcDbLine
 10
2686.663323326638
 20
856.3598502337567
 30
0.0
 11
2676.663323326638
 21
856.3598502337567
 31
0.0
  0
TEXT
  5
62AE
330
18
100
AcDbEntity
  8
1DIM
  6
CONTINUOUS
100
AcDbText
 10
2495.329989993305
 20
859.8598502337567
 30
0.0
 40
17.5
  1
336
100
AcDbText
1001
ACAD
1000
DSTYLE
1002
{
1070
    40
1040
5.0
1002
}
  0
LINE
  5
62AF
330
18
100
AcDbEntity
  8
0
  6
BYBLOCK
100
AcDbLine
 10
2528.663323326638
 20
818.225848530286
 30
0.0
 11
2518.663323326638
 21
820.9053404302861
 31
0.0
  0
LINE
  5
62B0
330
18
100
AcDbEntity
  8
0
  6
BYBLOCK
100
AcDbLine
 10
2518.663323326638
 20
820.9053404302861
 30
0.0
 11
2528.663323326638
 21
823.5848323302861
 31
0.0
  0
LINE
  5
62B1
330
18
100
AcDbEntity
  8
0
  6
BYBLOCK
100
AcDbLine
 10
2518.663323326638
 20
820.9053404302861
 30
0.0
 11
2528.663323326638
 21
820.9053404302861
 31
0.0
  0
LINE
  5
62B2
330
18
100
AcDbEntity
  8
0
  6
BYBLOCK
100
AcDbLine
 10
2636.663372567807
 20
823.5848323302861
 30
0.0
 11
2646.663372567807
 21
820.9053404302861
 31
0.0
  0
LINE
  5
62B3
330
18
100
AcDbEntity
  8
0
  6
BYBLOCK
100
AcDbLine
 10
2646.663372567807
 20
820.9053404302861
 30
0.0
 11
2636.663372567807
 21
818.225848530286
 31
0.0
  0
LINE
  5
62B4
330
18
100
AcDbEntity
  8
0
  6
BYBLOCK
100
AcDbLine
 10
2646.663372567807
 20
820.9053404302861
 30
0.0
 11
2636.663372567807
 21
820.9053404302861
 31
0.0
  0
TEXT
  5
62B5
330
18
100
AcDbEntity
  8
1DIM
  6
CONTINUOUS
100
AcDbText
 10
2562.246681280556
 20
824.4053404302861
 30
0.0
 40
17.5
  1
128
100
AcDbText
1001
ACAD
1000
DSTYLE
1002
{
1070
    40
1040
5.0
1002
}
  0
LINE
  5
62B6
330
18
100
AcDbEntity
  8
0
  6
BYBLOCK
100
AcDbLine
 10
2656.663372567807
 20
818.225848530286
 30
0.0
 11
2646.663372567807
 21
820.9053404302861
 31
0.0
  0
LINE
  5
62B7
330
18
100
AcDbEntity
  8
0
  6
BYBLOCK
100
AcDbLine
 10
2646.663372567807
 20
820.9053404302861
 30
0.0
 11
2656.663372567807
 21
823.5848323302861
 31
0.0
  0
LINE
  5
62B8
330
18
100
AcDbEntity
  8
0
  6
BYBLOCK
100
AcDbLine
 10
2646.663372567807
 20
820.9053404302861
 30
0.0
 11
2656.663372567807
 21
820.9053404302861
 31
0.0
  0
LINE
  5
62B9
330
18
100
AcDbEntity
  8
0
  6
BYBLOCK
100
AcDbLine
 10
2676.663323326638
 20
823.5848323302861
 30
0.0
 11
2686.663323326638
 21
820.9053404302861
 31
0.0
  0
LINE
  5
62BA
330
18
100
AcDbEntity
  8
0
  6
BYBLOCK
100
AcDbLine
 10
2686.663323326638
 20
820.9053404302861
 30
0.0
 11
2676.663323326638
 21
818.225848530286
 31
0.0
  0
LINE
  5
62BB
330
18
100
AcDbEntity
  8
0
  6
BYBLOCK
100
AcDbLine
 10
2686.663323326638
 20
820.9053404302861
 30
0.0
 11
2676.663323326638
 21
820.9053404302861
 31
0.0
  0
TEXT
  5
62BC
330
18
100
AcDbEntity
  8
1DIM
  6
CONTINUOUS
100
AcDbText
 10
2653.173764613889
 20
824.4053404302861
 30
0.0
 40
17.5
  1
40
100
AcDbText
1001
ACAD
1000
DSTYLE
1002
{
1070
    40
1040
5.0
1002
}
  0
LINE
  5
62BD
330
18
100
AcDbEntity
  8
0
  6
BYBLOCK
100
AcDbLine
 10
2750.299344956531
 20
766.0246287667974
 30
0.0
 11
2752.978836856531
 21
776.0246287667974
 31
0.0
  0
LINE
  5
62BE
330
18
100
AcDbEntity
  8
0
  6
BYBLOCK
100
AcDbLine
 10
2752.978836856531
 20
776.0246287667974
 30
0.0
 11
2755.658328756531
 21
766.0246287667974
 31
0.0
  0
LINE
  5
62BF
330
18
100
AcDbEntity
  8
0
  6
BYBLOCK
100
AcDbLine
 10
2752.978836856531
 20
776.0246287667974
 30
0.0
 11
2752.978836856531
 21
766.0246287667974
 31
0.0
  0
LINE
  5
62C0
330
18
100
AcDbEntity
  8
0
  6
BYBLOCK
100
AcDbLine
 10
2755.658328756531
 20
746.0246179647975
 30
0.0
 11
2752.978836856531
 21
736.0246179647975
 31
0.0
  0
LINE
  5
62C1
330
18
100
AcDbEntity
  8
0
  6
BYBLOCK
100
AcDbLine
 10
2752.978836856531
 20
736.0246179647975
 30
0.0
 11
2750.299344956531
 21
746.0246179647975
 31
0.0
  0
LINE
  5
62C2
330
18
100
AcDbEntity
  8
0
  6
BYBLOCK
100
AcDbLine
 10
2752.978836856531
 20
736.0246179647975
 30
0.0
 11
2752.978836856531
 21
746.0246179647975
 31
0.0
  0
TEXT
  5
62C3
330
18
100
AcDbEntity
  8
1DIM
  6
CONTINUOUS
100
AcDbText
 10
2749.478836856531
 20
742.5350400324644
 30
0.0
 40
17.5
  1
40
 50
90.0
100
AcDbText
1001
ACAD
1000
DSTYLE
1002
{
1070
    40
1040
5.0
1070
    75
1070
     1
1070
    76
1070
     0
1070
   281
1070
     0
1070
   282
1070
     0
1002
}
  0
LINE
  5
62C4
330
18
100
AcDbEntity
  8
0
  6
BYBLOCK
100
AcDbLine
 10
2501.247274056399
 20
659.0065999688481
 30
0.0
 11
2507.175519479513
 21
667.4939778351566
 31
0.0
  0
LINE
  5
62C5
330
18
100
AcDbEntity
  8
0
  6
BYBLOCK
100
AcDbLine
 10
2507.175519479513
 20
667.4939778351566
 30
0.0
 11
2506.28519722959
 21
657.179570283898
 31
0.0
  0
LINE
  5
62C6
330
18
100
AcDbEntity
  8
0
  6
BYBLOCK
100
AcDbLine
 10
2507.175519479513
 20
667.4939778351566
 30
0.0
 11
2503.766235642995
 21
658.093085126373
 31
0.0
  0
LINE
  5
62C7
330
18
100
AcDbEntity
  8
0
  6
BYBLOCK
100
AcDbLine
 10
2633.13300062462
 20
717.023581739073
 30
0.0
 11
2639.580505797959
 21
725.123541855144
 31
0.0
  0
LINE
  5
62C8
330
18
100
AcDbEntity
  8
0
  6
BYBLOCK
100
AcDbLine
 10
2639.580505797959
 20
725.123541855144
 30
0.0
 11
2638.046782538404
 21
714.8850180452744
 31
0.0
  0
LINE
  5
62C9
330
18
100
AcDbEntity
  8
0
  6
BYBLOCK
100
AcDbLine
 10
2639.580505797959
 20
725.123541855144
 30
0.0
 11
2635.589891581512
 21
715.9542998921737
 31
0.0
  0
LINE
  5
62CA
330
18
100
AcDbEntity
  8
0
  6
BYBLOCK
100
AcDbLine
 10
2792.82280450812
 20
766.0246287667974
 30
0.0
 11
2795.502296408119
 21
776.0246287667974
 31
0.0
  0
LINE
  5
62CB
330
18
100
AcDbEntity
  8
0
  6
BYBLOCK
100
AcDbLine
 10
2795.502296408119
 20
776.0246287667974
 30
0.0
 11
2798.181788308119
 21
766.0246287667974
 31
0.0
  0
LINE
  5
62CC
330
18
100
AcDbEntity
  8
0
  6
BYBLOCK
100
AcDbLine
 10
2795.502296408119
 20
776.0246287667974
 30
0.0
 11
2795.502296408119
 21
766.0246287667974
 31
0.0
  0
LINE
  5
62CD
330
18
100
AcDbEntity
  8
0
  6
BYBLOCK
100
AcDbLine
 10
2798.181788308119
 20
696.0246287667974
 30
0.0
 11
2795.502296408119
 21
686.0246287667974
 31
0.0
  0
LINE
  5
62CE
330
18
100
AcDbEntity
  8
0
  6
BYBLOCK
100
AcDbLine
 10
2795.502296408119
 20
686.0246287667974
 30
0.0
 11
2792.82280450812
 21
696.0246287667974
 31
0.0
  0
LINE
  5
62CF
330
18
100
AcDbEntity
  8
0
  6
BYBLOCK
100
AcDbLine
 10
2795.502296408119
 20
686.0246287667974
 30
0.0
 11
2795.502296408119
 21
696.0246287667974
 31
0.0
  0
TEXT
  5
62D0
330
18
100
AcDbEntity
  8
1DIM
  6
CONTINUOUS
100
AcDbText
 10
2792.002296408119
 20
717.5269435816126
 30
0.0
 40
17.5
  1
90
 50
90.0
100
AcDbText
1001
ACAD
1000
DSTYLE
1002
{
1070
    40
1040
5.0
1070
    75
1070
     1
1070
    76
1070
     0
1070
   281
1070
     0
1070
   282
1070
     0
1002
}
  0
LINE
  5
62D1
330
18
100
AcDbEntity
  8
0
  6
BYBLOCK
100
AcDbLine
 10
2306.321167816799
 20
331.8729230923572
 30
0.0
 11
2309.000659716799
 21
341.8729230923572
 31
0.0
  0
LINE
  5
62D2
330
18
100
AcDbEntity
  8
0
  6
BYBLOCK
100
AcDbLine
 10
2309.000659716799
 20
341.8729230923572
 30
0.0
 11
2311.680151616798
 21
331.8729230923572
 31
0.0
  0
LINE
  5
62D3
330
18
100
AcDbEntity
  8
0
  6
BYBLOCK
100
AcDbLine
 10
2309.000659716799
 20
341.8729230923572
 30
0.0
 11
2309.000659716799
 21
331.8729230923572
 31
0.0
  0
LINE
  5
62D4
330
18
100
AcDbEntity
  8
0
  6
BYBLOCK
100
AcDbLine
 10
2311.680151616798
 20
-98.12707690764279
 30
0.0
 11
2309.000659716799
 21
-108.1270769076428
 31
0.0
  0
LINE
  5
62D5
330
18
100
AcDbEntity
  8
0
  6
BYBLOCK
100
AcDbLine
 10
2309.000659716799
 20
-108.1270769076428
 30
0.0
 11
2306.321167816799
 21
-98.12707690764279
 31
0.0
  0
LINE
  5
62D6
330
18
100
AcDbEntity
  8
0
  6
BYBLOCK
100
AcDbLine
 10
2309.000659716799
 20
-108.1270769076428
 30
0.0
 11
2309.000659716799
 21
-98.12707690764279
 31
0.0
  0
TEXT
  5
62D7
330
18
100
AcDbEntity
  8
1HATCH
  6
CONTINUOUS
100
AcDbText
 10
2305.500659716799
 20
35.17214880153097
 30
0.0
 40
17.5
  1
650～735推奨
 50
90.0
100
AcDbText
1001
ACAD
1000
DSTYLE
1002
{
1070
    40
1040
5.0
1002
}
  0
LINE
  5
62D8
330
18
100
AcDbEntity
  8
0
  6
BYBLOCK
100
AcDbLine
 10
2358.842815226638
 20
253.8729230923545
 30
0.0
 11
2356.163323326638
 21
243.8729230923545
 31
0.0
  0
LINE
  5
62D9
330
18
100
AcDbEntity
  8
0
  6
BYBLOCK
100
AcDbLine
 10
2356.163323326638
 20
243.8729230923545
 30
0.0
 11
2353.483831426638
 21
253.8729230923545
 31
0.0
  0
LINE
  5
62DA
330
18
100
AcDbEntity
  8
0
  6
BYBLOCK
100
AcDbLine
 10
2356.163323326638
 20
243.8729230923545
 30
0.0
 11
2356.163323326638
 21
253.8729230923545
 31
0.0
  0
LINE
  5
62DB
330
18
100
AcDbEntity
  8
0
  6
BYBLOCK
100
AcDbLine
 10
2353.483831426638
 20
331.8729230923572
 30
0.0
 11
2356.163323326638
 21
341.8729230923572
 31
0.0
  0
LINE
  5
62DC
330
18
100
AcDbEntity
  8
0
  6
BYBLOCK
100
AcDbLine
 10
2356.163323326638
 20
341.8729230923572
 30
0.0
 11
2358.842815226638
 21
331.8729230923572
 31
0.0
  0
LINE
  5
62DD
330
18
100
AcDbEntity
  8
0
  6
BYBLOCK
100
AcDbLine
 10
2356.163323326638
 20
341.8729230923572
 30
0.0
 11
2356.163323326638
 21
331.8729230923572
 31
0.0
  0
TEXT
  5
62DE
330
18
100
AcDbEntity
  8
1DIM
  6
CONTINUOUS
100
AcDbText
 10
2352.663323326638
 20
278.2814879071711
 30
0.0
 40
17.5
  1
98
 50
90.0
100
AcDbText
1001
ACAD
1000
DSTYLE
1002
{
1070
    40
1040
5.0
1002
}
  0
LINE
  5
62DF
330
18
100
AcDbEntity
  8
0
  6
BYBLOCK
100
AcDbLine
 10
2571.307410722522
 20
256.8729230923545
 30
0.0
 11
2568.627918822523
 21
246.8729230923545
 31
0.0
  0
LINE
  5
62E0
330
18
100
AcDbEntity
  8
0
  6
BYBLOCK
100
AcDbLine
 10
2568.627918822523
 20
246.8729230923545
 30
0.0
 11
2565.948426922523
 21
256.8729230923545
 31
0.0
  0
LINE
  5
62E1
330
18
100
AcDbEntity
  8
0
  6
BYBLOCK
100
AcDbLine
 10
2568.627918822523
 20
246.8729230923545
 30
0.0
 11
2568.627918822523
 21
256.8729230923545
 31
0.0
  0
LINE
  5
62E2
330
18
100
AcDbEntity
  8
0
  6
BYBLOCK
100
AcDbLine
 10
2565.948426922523
 20
331.8729230923572
 30
0.0
 11
2568.627918822523
 21
341.8729230923572
 31
0.0
  0
LINE
  5
62E3
330
18
100
AcDbEntity
  8
0
  6
BYBLOCK
100
AcDbLine
 10
2568.627918822523
 20
341.8729230923572
 30
0.0
 11
2571.307410722522
 21
331.8729230923572
 31
0.0
  0
LINE
  5
62E4
330
18
100
AcDbEntity
  8
0
  6
BYBLOCK
100
AcDbLine
 10
2568.627918822523
 20
341.8729230923572
 30
0.0
 11
2568.627918822523
 21
331.8729230923572
 31
0.0
  0
TEXT
  5
62E5
330
18
100
AcDbEntity
  8
1DIM
  6
CONTINUOUS
100
AcDbText
 10
2565.127918822523
 20
279.7814879071711
 30
0.0
 40
17.5
  1
95
 50
90.0
100
AcDbText
1001
ACAD
1000
DSTYLE
1002
{
1070
    40
1040
5.0
1002
}
  0
LINE
  5
62E6
330
18
100
AcDbEntity
  8
0
  6
BYBLOCK
100
AcDbLine
 10
2714.154733523628
 20
221.8729230923545
 30
0.0
 11
2711.475241623628
 21
211.8729230923545
 31
0.0
  0
LINE
  5
62E7
330
18
100
AcDbEntity
  8
0
  6
BYBLOCK
100
AcDbLine
 10
2711.475241623628
 20
211.8729230923545
 30
0.0
 11
2708.795749723628
 21
221.8729230923545
 31
0.0
  0
LINE
  5
62E8
330
18
100
AcDbEntity
  8
0
  6
BYBLOCK
100
AcDbLine
 10
2711.475241623628
 20
211.8729230923545
 30
0.0
 11
2711.475241623628
 21
221.8729230923545
 31
0.0
  0
LINE
  5
62E9
330
18
100
AcDbEntity
  8
0
  6
BYBLOCK
100
AcDbLine
 10
2708.795749723628
 20
331.8729230923572
 30
0.0
 11
2711.475241623628
 21
341.8729230923572
 31
0.0
  0
LINE
  5
62EA
330
18
100
AcDbEntity
  8
0
  6
BYBLOCK
100
AcDbLine
 10
2711.475241623628
 20
341.8729230923572
 30
0.0
 11
2714.154733523628
 21
331.8729230923572
 31
0.0
  0
LINE
  5
62EB
330
18
100
AcDbEntity
  8
0
  6
BYBLOCK
100
AcDbLine
 10
2711.475241623628
 20
341.8729230923572
 30
0.0
 11
2711.475241623628
 21
331.8729230923572
 31
0.0
  0
TEXT
  5
62EC
330
18
100
AcDbEntity
  8
1DIM
  6
CONTINUOUS
100
AcDbText
 10
2707.975241623628
 20
249.2558127119851
 30
0.0
 40
17.5
  1
130
 50
90.0
100
AcDbText
1001
ACAD
1000
DSTYLE
1002
{
1070
    40
1040
5.0
1002
}
  0
LINE
  5
62ED
330
18
100
AcDbEntity
  8
0
  6
BYBLOCK
100
AcDbLine
 10
2459.664436681428
 20
221.0686788748987
 30
0.0
 11
2458.663323326638
 21
231.3729230923572
 31
0.0
  0
LINE
  5
62EE
330
18
100
AcDbEntity
  8
0
  6
BYBLOCK
100
AcDbLine
 10
2458.663323326638
 20
231.3729230923572
 30
0.0
 11
2464.682434994471
 21
222.9497424833284
 31
0.0
  0
LINE
  5
62EF
330
18
100
AcDbEntity
  8
0
  6
BYBLOCK
100
AcDbLine
 10
2458.663323326638
 20
231.3729230923572
 30
0.0
 11
2462.173435837949
 21
222.0092106791136
 31
0.0
  0
LINE
  5
62F0
330
18
100
AcDbEntity
  8
0
  6
BYBLOCK
100
AcDbLine
 10
2693.723519427729
 20
31.8729230923572
 30
0.0
 11
2696.403011327729
 21
41.8729230923572
 31
0.0
  0
LINE
  5
62F1
330
18
100
AcDbEntity
  8
0
  6
BYBLOCK
100
AcDbLine
 10
2696.403011327729
 20
41.8729230923572
 30
0.0
 11
2699.082503227728
 21
31.8729230923572
 31
0.0
  0
LINE
  5
62F2
330
18
100
AcDbEntity
  8
0
  6
BYBLOCK
100
AcDbLine
 10
2696.403011327729
 20
41.8729230923572
 30
0.0
 11
2696.403011327729
 21
31.8729230923572
 31
0.0
  0
LINE
  5
62F3
330
18
100
AcDbEntity
  8
0
  6
BYBLOCK
100
AcDbLine
 10
2699.082503227728
 20
-98.12707690764286
 30
0.0
 11
2696.403011327729
 21
-108.1270769076429
 31
0.0
  0
LINE
  5
62F4
330
18
100
AcDbEntity
  8
0
  6
BYBLOCK
100
AcDbLine
 10
2696.403011327729
 20
-108.1270769076429
 30
0.0
 11
2693.723519427729
 21
-98.12707690764286
 31
0.0
  0
LINE
  5
62F5
330
18
100
AcDbEntity
  8
0
  6
BYBLOCK
100
AcDbLine
 10
2696.403011327729
 20
-108.1270769076429
 30
0.0
 11
2696.403011327729
 21
-98.12707690764286
 31
0.0
  0
TEXT
  5
62F6
330
18
100
AcDbEntity
  8
1DIM
  6
CONTINUOUS
100
AcDbText
 10
2692.903011327729
 20
-55.42742412986445
 30
0.0
 40
17.5
  1
350
 50
90.0
100
AcDbText
1001
ACAD
1000
DSTYLE
1002
{
1070
    40
1040
5.0
1002
}
  0
LINE
  5
62F7
330
18
100
AcDbEntity
  8
0
  6
BYBLOCK
100
AcDbLine
 10
2639.712957767755
 20
21.87149893634766
 30
0.0
 11
2643.04638863641
 21
31.6729230923599
 31
0.0
  0
LINE
  5
62F8
330
18
100
AcDbEntity
  8
0
  6
BYBLOCK
100
AcDbLine
 10
2643.04638863641
 20
31.6729230923599
 30
0.0
 11
2645.060264854333
 21
21.51792533652308
 31
0.0
  0
LINE
  5
62F9
330
18
100
AcDbEntity
  8
0
  6
BYBLOCK
100
AcDbLine
 10
2643.04638863641
 20
31.6729230923599
 30
0.0
 11
2642.386611311043
 21
21.69471213643537
 31
0.0
  0
LINE
  5
62FA
330
18
100
AcDbEntity
  8
0
  6
BYBLOCK
100
AcDbLine
 10
2648.916563119337
 20
192.3158080377938
 30
0.0
 11
2650.713404044136
 21
202.5114462980075
 31
0.0
  0
LINE
  5
62FB
330
18
100
AcDbEntity
  8
0
  6
BYBLOCK
100
AcDbLine
 10
2650.713404044136
 20
202.5114462980075
 30
0.0
 11
2654.255113242676
 21
192.7833440783992
 31
0.0
  0
LINE
  5
62FC
330
18
100
AcDbEntity
  8
0
  6
BYBLOCK
100
AcDbLine
 10
2650.713404044136
 20
202.5114462980075
 30
0.0
 11
2651.585838181007
 21
192.5495760580965
 31
0.0
  0
LINE
  5
62FD
330
18
100
AcDbEntity
  8
0
  6
BYBLOCK
100
AcDbLine
 10
2517.353862905329
 20
224.4973512752046
 30
0.0
 11
2518.403456499546
 21
234.7967701971217
 31
0.0
  0
LINE
  5
62FE
330
18
100
AcDbEntity
  8
0
  6
BYBLOCK
100
AcDbLine
 10
2518.403456499546
 20
234.7967701971217
 30
0.0
 11
2522.644191201418
 21
225.3524149501764
 31
0.0
  0
LINE
  5
62FF
330
18
100
AcDbEntity
  8
0
  6
BYBLOCK
100
AcDbLine
 10
2518.403456499546
 20
234.7967701971217
 30
0.0
 11
2519.999027053374
 21
224.9248831126905
 31
0.0
  0
LINE
  5
6300
330
18
100
AcDbEntity
  8
0
  6
BYBLOCK
100
AcDbLine
 10
2468.663323326638
 20
270.758063219133
 30
0.0
 11
2458.663323326638
 21
273.437555119133
 31
0.0
  0
LINE
  5
6301
330
18
100
AcDbEntity
  8
0
  6
BYBLOCK
100
AcDbLine
 10
2458.663323326638
 20
273.437555119133
 30
0.0
 11
2468.663323326638
 21
276.1170470191331
 31
0.0
  0
LINE
  5
6302
330
18
100
AcDbEntity
  8
0
  6
BYBLOCK
100
AcDbLine
 10
2458.663323326638
 20
273.437555119133
 30
0.0
 11
2468.663323326638
 21
273.437555119133
 31
0.0
  0
LINE
  5
6303
330
18
100
AcDbEntity
  8
0
  6
BYBLOCK
100
AcDbLine
 10
2508.663323326638
 20
276.1170470191331
 30
0.0
 11
2518.663323326638
 21
273.437555119133
 31
0.0
  0
LINE
  5
6304
330
18
100
AcDbEntity
  8
0
  6
BYBLOCK
100
AcDbLine
 10
2518.663323326638
 20
273.437555119133
 30
0.0
 11
2508.663323326638
 21
270.758063219133
 31
0.0
  0
LINE
  5
6305
330
18
100
AcDbEntity
  8
0
  6
BYBLOCK
100
AcDbLine
 10
2518.663323326638
 20
273.437555119133
 30
0.0
 11
2508.663323326638
 21
273.437555119133
 31
0.0
  0
TEXT
  5
6306
330
18
100
AcDbEntity
  8
1DIM
  6
CONTINUOUS
100
AcDbText
 10
2475.112976104415
 20
276.937555119133
 30
0.0
 40
17.5
  1
60
100
AcDbText
1001
ACAD
1000
DSTYLE
1002
{
1070
    40
1040
5.0
1002
}
  0
LINE
  5
6307
330
18
100
AcDbEntity
  8
0
  6
BYBLOCK
100
AcDbLine
 10
2528.663323326638
 20
270.758063219133
 30
0.0
 11
2518.663323326638
 21
273.437555119133
 31
0.0
  0
LINE
  5
6308
330
18
100
AcDbEntity
  8
0
  6
BYBLOCK
100
AcDbLine
 10
2518.663323326638
 20
273.437555119133
 30
0.0
 11
2528.663323326638
 21
276.1170470191331
 31
0.0
  0
LINE
  5
6309
330
18
100
AcDbEntity
  8
0
  6
BYBLOCK
100
AcDbLine
 10
2518.663323326638
 20
273.437555119133
 30
0.0
 11
2528.663323326638
 21
273.437555119133
 31
0.0
  0
LINE
  5
630A
330
18
100
AcDbEntity
  8
0
  6
BYBLOCK
100
AcDbLine
 10
2636.663372904893
 20
276.1170470191331
 30
0.0
 11
2646.663372904893
 21
273.437555119133
 31
0.0
  0
LINE
  5
630B
330
18
100
AcDbEntity
  8
0
  6
BYBLOCK
100
AcDbLine
 10
2646.663372904893
 20
273.437555119133
 30
0.0
 11
2636.663372904893
 21
270.758063219133
 31
0.0
  0
LINE
  5
630C
330
18
100
AcDbEntity
  8
0
  6
BYBLOCK
100
AcDbLine
 10
2646.663372904893
 20
273.437555119133
 30
0.0
 11
2636.663372904893
 21
273.437555119133
 31
0.0
  0
TEXT
  5
630D
330
18
100
AcDbEntity
  8
1DIM
  6
CONTINUOUS
100
AcDbText
 10
2584.093080657095
 20
276.937555119133
 30
0.0
 40
17.5
  1
128
100
AcDbText
1001
ACAD
1000
DSTYLE
1002
{
1070
    40
1040
5.0
1002
}
  0
LINE
  5
630E
330
18
100
AcDbEntity
  8
0
  6
BYBLOCK
100
AcDbLine
 10
2553.474448193002
 20
736.0246287667976
 30
0.0
 11
2550.794956293003
 21
726.0246287667976
 31
0.0
  0
LINE
  5
630F
330
18
100
AcDbEntity
  8
0
  6
BYBLOCK
100
AcDbLine
 10
2550.794956293003
 20
726.0246287667976
 30
0.0
 11
2548.115464393003
 21
736.0246287667976
 31
0.0
  0
LINE
  5
6310
330
18
100
AcDbEntity
  8
0
  6
BYBLOCK
100
AcDbLine
 10
2550.794956293003
 20
726.0246287667976
 30
0.0
 11
2550.794956293003
 21
736.0246287667976
 31
0.0
  0
LINE
  5
6311
330
18
100
AcDbEntity
  8
0
  6
BYBLOCK
100
AcDbLine
 10
2548.115464393003
 20
766.0246287667974
 30
0.0
 11
2550.794956293003
 21
776.0246287667974
 31
0.0
  0
LINE
  5
6312
330
18
100
AcDbEntity
  8
0
  6
BYBLOCK
100
AcDbLine
 10
2550.794956293003
 20
776.0246287667974
 30
0.0
 11
2553.474448193002
 21
766.0246287667974
 31
0.0
  0
LINE
  5
6313
330
18
100
AcDbEntity
  8
0
  6
BYBLOCK
100
AcDbLine
 10
2550.794956293003
 20
776.0246287667974
 30
0.0
 11
2550.794956293003
 21
766.0246287667974
 31
0.0
  0
TEXT
  5
6314
330
18
100
AcDbEntity
  8
1DIM
  6
CONTINUOUS
100
AcDbText
 10
2547.294956293003
 20
737.4742815445757
 30
0.0
 40
17.5
  1
50
 50
90.0
100
AcDbText
1001
ACAD
1000
DSTYLE
1002
{
1070
    40
1040
5.0
1002
}
  0
LINE
  5
6315
330
18
100
AcDbEntity
  8
0
  6
BYBLOCK
100
AcDbLine
 10
2528.663323326638
 20
818.225848530286
 30
0.0
 11
2518.663323326638
 21
820.9053404302861
 31
0.0
  0
LINE
  5
6316
330
18
100
AcDbEntity
  8
0
  6
BYBLOCK
100
AcDbLine
 10
2518.663323326638
 20
820.9053404302861
 30
0.0
 11
2528.663323326638
 21
823.5848323302861
 31
0.0
  0
LINE
  5
6317
330
18
100
AcDbEntity
  8
0
  6
BYBLOCK
100
AcDbLine
 10
2518.663323326638
 20
820.9053404302861
 30
0.0
 11
2528.663323326638
 21
820.9053404302861
 31
0.0
  0
LINE
  5
6318
330
18
100
AcDbEntity
  8
0
  6
BYBLOCK
100
AcDbLine
 10
2493.663323326637
 20
823.5848323302861
 30
0.0
 11
2503.663323326637
 21
820.9053404302861
 31
0.0
  0
LINE
  5
6319
330
18
100
AcDbEntity
  8
0
  6
BYBLOCK
100
AcDbLine
 10
2503.663323326637
 20
820.9053404302861
 30
0.0
 11
2493.663323326637
 21
818.225848530286
 31
0.0
  0
LINE
  5
631A
330
18
100
AcDbEntity
  8
0
  6
BYBLOCK
100
AcDbLine
 10
2503.663323326637
 20
820.9053404302861
 30
0.0
 11
2493.663323326637
 21
820.9053404302861
 31
0.0
  0
TEXT
  5
631B
330
18
100
AcDbEntity
  8
1DIM
  6
CONTINUOUS
100
AcDbText
 10
2455.579989993304
 20
824.4053404302862
 30
0.0
 40
17.5
  1
15
100
AcDbText
1001
ACAD
1000
DSTYLE
1002
{
1070
    40
1040
5.0
1002
}
  0
LINE
  5
631C
330
18
100
AcDbEntity
  8
0
  6
BYBLOCK
100
AcDbLine
 10
2494.461276461205
 20
747.694152797425
 30
0.0
 11
2497.347524450278
 21
737.7518568157245
 31
0.0
  0
LINE
  5
631D
330
18
100
AcDbEntity
  8
0
  6
BYBLOCK
100
AcDbLine
 10
2497.347524450278
 20
737.7518568157245
 30
0.0
 11
2489.876812411783
 21
744.9190137471757
 31
0.0
  0
LINE
  5
631E
330
18
100
AcDbEntity
  8
0
  6
BYBLOCK
100
AcDbLine
 10
2497.347524450278
 20
737.7518568157245
 30
0.0
 11
2492.169044436494
 21
746.3065832723003
 31
0.0
  0
ARC
  5
631F
330
18
100
AcDbEntity
  8
0
  6
BYBLOCK
100
AcDbCircle
 10
1647.816510074176
 20
629.0885861592293
 30
0.0
 40
0.625
100
AcDbArc
 50
270.0
 51
90.0
  0
ARC
  5
6320
330
18
100
AcDbEntity
  8
0
  6
BYBLOCK
100
AcDbCircle
 10
1647.816510074176
 20
629.0885861592293
 30
0.0
 40
0.625
100
AcDbArc
 50
90.0
 51
270.0
  0
ARC
  5
6321
330
18
100
AcDbEntity
  8
0
  6
BYBLOCK
100
AcDbCircle
 10
1647.816510074176
 20
629.0885861592293
 30
0.0
 40
0.625
100
AcDbArc
 50
270.0
 51
90.0
  0
ARC
  5
6322
330
18
100
AcDbEntity
  8
0
  6
BYBLOCK
100
AcDbCircle
 10
1647.816510074176
 20
629.0885861592293
 30
0.0
 40
0.625
100
AcDbArc
 50
90.0
 51
270.0
  0
VIEWPORT
  5
57
330
15
100
AcDbEntity
 67
     1
  8
0
100
AcDbViewport
 68
     1
 10
0.0
 20
0.0
 30
0.0
 40
551.8723404255319
 41
297.0
 68
     1
 69
     1
1001
ACAD
1000
MVIEW
1002
{
1070
    16
1010
0.0
1020
0.0
1030
0.0
1010
0.0
1020
0.0
1030
1.0
1040
0.0
1040
297.0
1040
-7.014422485880914
1040
23.92307612135801
1040
50.0
1040
0.0
1040
0.0
1070
    16
1070
  1000
1070
     0
1070
     1
1070
     0
1070
     0
1070
     0
1070
     0
1040
0.0
1040
0.0
1040
0.0
1040
10.0
1040
10.0
1040
10.0
1040
10.0
1070
     0
1002
{
1002
}
1002
}
  0
ENDSEC
  0
SECTION
  2
OBJECTS
  0
DICTIONARY
  5
C
330
0
100
AcDbDictionary
  3
ACAD_COLOR
350
2B20
  3
ACAD_GROUP
350
D
  3
ACAD_LAYOUT
350
2B21
  3
ACAD_MATERIAL
350
2B1F
  3
ACAD_MLEADERSTYLE
350
4ACF
  3
ACAD_MLINESTYLE
350
1B
  3
ACAD_PLOTSETTINGS
350
2B22
  3
ACAD_SCALELIST
350
4ABD
  3
ACAD_VISUALSTYLE
350
4AA9
  3
ACDBHEADERROUNDTRIPXREC
350
6323
  3
ACDBVARIABLEDICTIONARY
350
37
  3
AEC_PROPERTY_SET_DEFS
350
4CDD
  3
CONTENTDICTIONARY
350
D8
  3
DRAWINGVARIABLESDICT
350
20
  3
DWGPROPS
350
6326
1001
ACAD
1000
TREAT_AS_HARD
1070
     0
  0
DICTIONARY
  5
370F
330
2
100
AcDbDictionary
  3
ACAD_LAYERSTATES
360
3710
1001
ACAD
1000
TREAT_AS_HARD
1070
     1
  0
DICTIONARY
  5
4AFF
330
E
100
AcDbDictionary
  3
ADSK_XREC_LAYER_RECONCILED
360
4B00
1001
ACAD
1000
TREAT_AS_HARD
1070
     1
  0
DICTIONARY
  5
4B01
330
29
100
AcDbDictionary
  3
ADSK_XREC_LAYER_RECONCILED
360
4B02
1001
ACAD
1000
TREAT_AS_HARD
1070
     1
  0
DICTIONARY
  5
4B03
330
31
100
AcDbDictionary
  3
ADSK_XREC_LAYER_RECONCILED
360
4B04
1001
ACAD
1000
TREAT_AS_HARD
1070
     1
  0
DICTIONARY
  5
4B0D
330
101
100
AcDbDictionary
  3
ADSK_XREC_LAYER_RECONCILED
360
4B0E
1001
ACAD
1000
TREAT_AS_HARD
1070
     1
  0
DICTIONARY
  5
4B0F
330
102
100
AcDbDictionary
  3
ADSK_XREC_LAYER_RECONCILED
360
4B10
1001
ACAD
1000
TREAT_AS_HARD
1070
     1
  0
DICTIONARY
  5
4B11
330
103
100
AcDbDictionary
  3
ADSK_XREC_LAYER_RECONCILED
360
4B12
1001
ACAD
1000
TREAT_AS_HARD
1070
     1
  0
DICTIONARY
  5
4B19
330
159
100
AcDbDictionary
  3
ADSK_XREC_LAYER_RECONCILED
360
4B1A
1001
ACAD
1000
TREAT_AS_HARD
1070
     1
  0
DICTIONARY
  5
4B1F
330
15C
100
AcDbDictionary
  3
ADSK_XREC_LAYER_RECONCILED
360
4B20
1001
ACAD
1000
TREAT_AS_HARD
1070
     1
  0
DICTIONARY
  5
3833
330
18
100
AcDbDictionary
  3
ACAD_SORTENTS
360
3834
1001
ACAD
1000
TREAT_AS_HARD
1070
     1
  0
DICTIONARY
  5
3AE3
330
15
100
AcDbDictionary
  3
ACAD_SORTENTS
360
3AE4
1001
ACAD
1000
TREAT_AS_HARD
1070
     1
  0
DICTIONARY
  5
2B20
102
{ACAD_REACTORS
330
C
102
}
330
C
100
AcDbDictionary
1001
ACAD
1000
TREAT_AS_HARD
1070
     0
  0
DICTIONARY
  5
D
102
{ACAD_REACTORS
330
C
102
}
330
C
100
AcDbDictionary
1001
ACAD
1000
TREAT_AS_HARD
1070
     0
  0
DICTIONARY
  5
2B21
102
{ACAD_REACTORS
330
C
102
}
330
C
100
AcDbDictionary
1001
ACAD
1000
TREAT_AS_HARD
1070
     0
  0
DICTIONARY
  5
2B1F
102
{ACAD_REACTORS
330
C
102
}
330
C
100
AcDbDictionary
  3
BYBLOCK
350
4A99
  3
BYLAYER
350
4A91
  3
GLOBAL
350
4AA1
1001
ACAD
1000
TREAT_AS_HARD
1070
     0
  0
DICTIONARY
  5
4ACF
102
{ACAD_REACTORS
330
C
102
}
330
C
100
AcDbDictionary
  3
STANDARD
350
4AD0
1001
ACAD
1000
TREAT_AS_HARD
1070
     0
  0
DICTIONARY
  5
1B
102
{ACAD_REACTORS
330
C
102
}
330
C
100
AcDbDictionary
  3
STANDARD
350
1C
1001
ACAD
1000
TREAT_AS_HARD
1070
     0
  0
DICTIONARY
  5
2B22
102
{ACAD_REACTORS
330
C
102
}
330
C
100
AcDbDictionary
1001
ACAD
1000
TREAT_AS_HARD
1070
     0
  0
DICTIONARY
  5
4ABD
102
{ACAD_REACTORS
330
C
102
}
330
C
100
AcDbDictionary
  3
*A1
350
4AD6
  3
*A10
350
4ADE
  3
*A11
350
4ADF
  3
*A12
350
4AE0
  3
*A13
350
4AE1
  3
*A14
350
4AE2
  3
*A15
350
4AE3
  3
*A16
350
4AE4
  3
*A2
350
4AE5
  3
*A3
350
4AD7
  3
*A4
350
4AD8
  3
*A5
350
4AD9
  3
*A6
350
4ADA
  3
*A7
350
4ADB
  3
*A8
350
4ADC
  3
*A9
350
4ADD
  3
A0
350
4ABE
  3
A1
350
4ABF
  3
A2
350
4AC0
  3
A3
350
4AC1
  3
A4
350
4AC2
  3
A5
350
4AC3
  3
A6
350
4AC4
  3
A7
350
4AC5
  3
A8
350
4AC6
  3
A9
350
4AC7
  3
B0
350
4AC8
  3
B1
350
4AC9
  3
B2
350
4ACA
  3
B3
350
4ACB
  3
B4
350
4ACC
  3
B5
350
4ACD
  3
B6
350
4ACE
1001
ACAD
1000
TREAT_AS_HARD
1070
     0
  0
DICTIONARY
  5
4AA9
102
{ACAD_REACTORS
330
C
102
}
330
C
100
AcDbDictionary
  3
2DWIREFRAME
350
4AAF
  3
3D_HIDDEN
350
4AB1
  3
3DWIREFRAME
350
4AB0
  3
BASIC
350
4AAE
  3
BRIGHTEN
350
4AB5
  3
COLORCHANGE
350
4AB9
  3
CONCEPTUAL
350
4AB2
  3
DIM
350
4AB4
  3
EDGECOLOROFF
350
4ABC
  3
FACEPATTERN
350
4AB8
  3
FLAT
350
4AAA
  3
FLATWITHEDGES
350
4AAB
  3
GOURAUD
350
4AAC
  3
GOURAUDWITHEDGES
350
4AAD
  3
HIDDEN
350
537B
  3
JITTEROFF
350
4ABA
  3
LINEPATTERN
350
4AB7
  3
MODELING
350
5381
  3
OVERHANGOFF
350
4ABB
  3
REALISTIC
350
4AB3
  3
SHADED
350
5380
  3
SHADED_WITH_EDGES
350
537F
  3
SHADES_OF_GRAY
350
537C
  3
SKETCHY
350
537D
  3
THICKEN
350
4AB6
  3
WIREFRAME
350
537A
  3
X-RAY
350
537E
1001
ACAD
1000
TREAT_AS_HARD
1070
     0
  0
DICTIONARY
  5
6323
102
{ACAD_REACTORS
330
C
102
}
330
C
100
AcDbDictionary
  3
COLORDICT
350
6324
  3
MATERIALDICT
350
6325
1001
ACAD
1000
TREAT_AS_HARD
1070
     0
  0
DICTIONARY
  5
37
102
{ACAD_REACTORS
330
C
102
}
330
C
100
AcDbDictionary
  3
CANNOSCALE
350
5EDC
  3
CMLEADERSTYLE
350
4B92
  3
CTABLESTYLE
350
388E
  3
DIMADEC
350
38
  3
DIMASSOC
350
2B40
  3
HIDETEXT
350
5DF2
  3
INDEXCTL
350
4B95
  3
INTERSECTIONCOLOR
350
5DF5
  3
INTERSECTIONDISPLAY
350
5DF4
  3
LAYEREVAL
350
5DF0
  3
LAYERNOTIFY
350
5DF1
  3
MSLTSCALE
350
5BD2
  3
OBSCOLOR
350
5DF3
  3
PROJECTNAME
350
2B41
  3
SORTENTS
350
4B94
  3
XCLIPFRAME
350
5EC6
1001
ACAD
1000
TREAT_AS_HARD
1070
     0
  0
DICTIONARY
  5
4CDD
102
{ACAD_REACTORS
330
C
102
}
330
C
100
AcDbDictionary
1001
ACAD
1000
TREAT_AS_HARD
1070
     0
  0
DICTIONARY
  5
D8
102
{ACAD_REACTORS
330
C
102
}
330
C
100
AcDbDictionary
1001
CONTENTTABDATA
1070
     8
1000
小図
1000
D:\ACLT\TABSET\CHILDREN.dwg
1070
     0
1070
     0
1070
     1
1000
HWﾈｼﾞ
1000
D:\ACLT\TABSET\REGION.dwg
1070
     0
1070
     0
1070
     1
1000
ﾔｹﾞﾝ
1000
D:\ACLT\TABSET\ﾔｹﾞﾝ.dwg
1070
     0
1070
     0
1070
     1
1000
断面注記
1000
D:\ACLT\TABSET\断面注記.dwg
1070
     0
1070
     0
1070
     1
1000
文字
1000
D:\ACLT\TABSET\白抜文字.dwg
1070
     0
1070
     0
1070
     1
1000
表＆印
1000
D:\ACLT\TABSET\部品表＆出図印.dwg
1070
     0
1070
     0
1070
     1
1000
記号
1000
D:\ACLT\TABSET\溶接記号.dwg
1070
     0
1070
     0
1070
     1
1000
ロゴ
1000
D:\ACLT\TABSET\社名ロゴ.dwg
1070
     0
1070
     0
1070
     1
1001
CONTENTCURRENTTAB
1070
     0
1001
ACAD
1000
TREAT_AS_HARD
1070
     0
  0
DICTIONARY
  5
20
102
{ACAD_REACTORS
330
C
102
}
330
C
100
AcDbDictionary
1001
DRAWINGVARIABLESXDATA
1000
POLARANG
1000
0.261799387799149410000000
1000
POLARMODE
1000
1
1000
POLARSTYLE
1000
1
1001
ACAD
1000
TREAT_AS_HARD
1070
     0
  0
XRECORD
  5
6326
102
{ACAD_REACTORS
330
C
102
}
330
C
100
AcDbXrecord
  1
DWGPROPS COOKIE
  2

  3

  4

  6

  7

  8
3684
  9

300
=
301
=
302
=
303
=
304
=
305
=
306
=
307
=
308
=
309
=
 40
0.0
 41
2451318.246352917
 42
2459345.001715417
  1

 90
        0
  0
DICTIONARY
  5
3710
102
{ACAD_REACTORS
330
370F
102
}
330
370F
100
AcDbDictionary
1001
ACAD
1000
TREAT_AS_HARD
1070
     0
  0
ACAD_PROXY_OBJECT
  5
4B00
102
{ACAD_REACTORS
330
4AFF
102
}
330
4AFF
100
AcDbZombieObject
 90
      499
 91
      517
 93
       34
310
40C8804040
  0
ACAD_PROXY_OBJECT
  5
4B02
102
{ACAD_REACTORS
330
4B01
102
}
330
4B01
100
AcDbZombieObject
 90
      499
 91
      517
 93
       34
310
40C8804040
  0
ACAD_PROXY_OBJECT
  5
4B04
102
{ACAD_REACTORS
330
4B03
102
}
330
4B03
100
AcDbZombieObject
 90
      499
 91
      517
 93
       34
310
40C8804040
  0
ACAD_PROXY_OBJECT
  5
4B0E
102
{ACAD_REACTORS
330
4B0D
102
}
330
4B0D
100
AcDbZombieObject
 90
      499
 91
      517
 93
       34
310
40C8804040
  0
ACAD_PROXY_OBJECT
  5
4B10
102
{ACAD_REACTORS
330
4B0F
102
}
330
4B0F
100
AcDbZombieObject
 90
      499
 91
      517
 93
       34
310
40C8804040
  0
ACAD_PROXY_OBJECT
  5
4B12
102
{ACAD_REACTORS
330
4B11
102
}
330
4B11
100
AcDbZombieObject
 90
      499
 91
      517
 93
       34
310
40C8804040
  0
ACAD_PROXY_OBJECT
  5
4B1A
102
{ACAD_REACTORS
330
4B19
102
}
330
4B19
100
AcDbZombieObject
 90
      499
 91
      517
 93
       34
310
40C8804040
  0
ACAD_PROXY_OBJECT
  5
4B20
102
{ACAD_REACTORS
330
4B1F
102
}
330
4B1F
100
AcDbZombieObject
 90
      499
 91
      517
 93
       34
310
40C8804040
  0
SORTENTSTABLE
  5
3834
102
{ACAD_REACTORS
330
3833
102
}
330
3833
100
AcDbSortentsTable
330
18
331
311E
  5
311F
331
311F
  5
3123
331
3123
  5
3125
331
3125
  5
3126
331
3126
  5
312B
331
312B
  5
312C
331
312C
  5
312E
331
312E
  5
3132
331
312F
  5
3136
331
3132
  5
3137
331
3136
  5
3167
331
3137
  5
3168
331
3167
  5
3169
331
3168
  5
316B
331
3169
  5
316C
331
316B
  5
3173
331
316C
  5
3174
331
3173
  5
3176
331
3174
  5
3195
331
3176
  5
3197
331
3177
  5
319C
331
3179
  5
31A3
331
3195
  5
31A7
331
319A
  5
31B4
331
31A0
  5
31B5
331
31A1
  5
31BE
331
31A4
  5
31BF
331
0
  5
3A7E
331
0
  5
3A94
331
0
  5
3AA3
331
3DDE
  5
4152
331
3DDF
  5
4156
331
3E2A
  5
4157
331
3E30
  5
4158
331
3E32
  5
42AE
331
3E33
  5
43B8
331
3E38
  5
4509
331
3E39
  5
450C
331
3E3B
  5
450D
331
3E3D
  5
450F
331
3E3E
  5
4512
331
3E41
  5
4513
331
3E42
  5
4514
331
3E43
  5
4518
331
3E46
  5
4519
331
3E47
  5
451A
331
0
  5
3EE6
331
0
  5
3F12
331
0
  5
412F
331
0
  5
4130
331
0
  5
4131
331
0
  5
4132
331
412F
  5
4569
331
4130
  5
456A
331
4131
  5
456E
331
4132
  5
456F
331
4133
  5
4570
331
4134
  5
4574
331
4135
  5
4575
331
4136
  5
4576
331
4137
  5
4577
331
4138
  5
4578
331
4139
  5
4579
331
413A
  5
457A
331
413B
  5
457B
331
413C
  5
457C
331
413D
  5
457D
331
0
  5
4142
331
0
  5
4143
331
0
  5
4146
331
4141
  5
458C
331
4142
  5
458D
331
0
  5
4149
331
0
  5
414A
331
4145
  5
45A2
331
4146
  5
45A3
331
4147
  5
45A4
331
4148
  5
45A5
331
4149
  5
45A6
331
414A
  5
45A7
331
414B
  5
45A8
331
414C
  5
45A9
331
414D
  5
45AA
331
414E
  5
45AB
331
414F
  5
45AC
331
4150
  5
45AD
331
4151
  5
45AE
331
4152
  5
45AF
331
4153
  5
45B0
331
4154
  5
45B1
331
4155
  5
45B2
331
4156
  5
45B3
331
4157
  5
45B4
331
4158
  5
45B5
331
4397
  5
31A2
331
4398
  5
3179
331
4399
  5
312F
331
439A
  5
311E
331
0
  5
43DE
331
0
  5
440C
331
0
  5
4419
331
0
  5
4507
331
0
  5
4508
331
4507
  5
4767
331
4508
  5
4768
331
4509
  5
4769
331
450A
  5
48DC
331
450B
  5
48DD
331
450C
  5
48E8
331
450D
  5
48E9
331
450E
  5
48EA
331
450F
  5
4921
331
4510
  5
492E
331
4511
  5
492F
331
4512
  5
4930
331
4513
  5
4931
331
4514
  5
4A31
331
4515
  5
4A32
331
4516
  5
4A33
331
4517
  5
4A37
331
4518
  5
4A38
331
4519
  5
4A39
331
451A
  5
4A3A
331
451B
  5
4A3B
331
451C
  5
4A3E
331
451D
  5
4A3F
331
451E
  5
4A40
331
451F
  5
4A43
331
4520
  5
4A46
331
4521
  5
4A47
331
4522
  5
4A48
331
4523
  5
4A49
331
4524
  5
4A4A
331
4525
  5
4AEF
331
4526
  5
4AF0
331
4527
  5
4AF1
331
4528
  5
4AF2
331
4529
  5
4AF3
331
452A
  5
4CE3
331
452B
  5
4D02
331
452C
  5
4D04
331
452D
  5
4D05
331
452E
  5
4D06
331
452F
  5
4D07
331
4530
  5
4D08
331
4531
  5
4D09
331
4532
  5
4D0A
331
4533
  5
4D0F
331
4534
  5
4D10
331
4535
  5
4D11
331
4536
  5
4D12
331
4537
  5
4D13
331
4538
  5
4D14
331
4539
  5
4D15
331
453A
  5
4D16
331
453B
  5
4D17
331
453C
  5
4D1D
331
453D
  5
4D1E
331
453E
  5
4D1F
331
453F
  5
4E05
331
4540
  5
4E06
331
4541
  5
4E07
331
4542
  5
4E08
331
4543
  5
4E09
331
4544
  5
4E0A
331
4545
  5
4E0B
331
4546
  5
4E0C
331
4547
  5
4E0D
331
4548
  5
4E0E
331
4549
  5
4E0F
331
454A
  5
4E10
331
454B
  5
4E11
331
454C
  5
4E12
331
454D
  5
4E13
331
454E
  5
4F59
331
454F
  5
4F5B
331
4550
  5
4F5C
331
4551
  5
4F5D
331
4552
  5
4F5E
331
4553
  5
4F5F
331
4554
  5
4F6C
331
4555
  5
4FAC
331
4556
  5
4FAE
331
4557
  5
518A
331
4558
  5
525F
331
4559
  5
5FF6
331
455A
  5
60CD
331
455B
  5
60CE
331
455C
  5
60CF
331
455D
  5
60D0
331
455E
  5
60D1
331
455F
  5
60D2
331
4560
  5
60D3
331
4561
  5
60D4
331
4562
  5
60D5
331
4563
  5
60D7
331
4564
  5
60D8
331
4565
  5
60D9
331
4566
  5
60DA
331
4567
  5
60DC
331
4568
  5
60DD
331
4569
  5
60DE
331
456A
  5
60DF
331
456B
  5
60E1
331
456C
  5
60E2
331
456D
  5
60E3
331
456E
  5
60E4
331
456F
  5
60E6
331
4570
  5
60E7
331
4571
  5
60E8
331
4572
  5
60E9
331
4573
  5
60EA
331
4574
  5
60EB
331
4575
  5
60EC
331
4576
  5
60ED
331
4577
  5
60EE
331
4578
  5
60EF
331
4579
  5
60F0
331
457A
  5
60F1
331
457B
  5
60F2
331
457C
  5
60F3
331
457D
  5
60F4
331
457E
  5
60F8
331
457F
  5
60F9
331
4580
  5
60FA
331
4581
  5
60FB
331
4582
  5
60FC
331
4583
  5
60FD
331
4584
  5
60FE
331
4585
  5
60FF
331
4586
  5
6100
331
4587
  5
6101
331
4588
  5
6102
331
4589
  5
6103
331
458A
  5
6104
331
458B
  5
6105
331
458C
  5
6106
331
458D
  5
6107
331
458E
  5
6108
331
458F
  5
6109
331
4590
  5
610A
331
4591
  5
610B
331
4592
  5
610C
331
4593
  5
610D
331
4594
  5
610E
331
4595
  5
610F
331
4596
  5
6110
331
4597
  5
6111
331
4598
  5
6112
331
4599
  5
6113
331
459A
  5
6114
331
459B
  5
6115
331
459C
  5
6116
331
459D
  5
6117
331
459E
  5
6118
331
459F
  5
6119
331
45A0
  5
611A
331
45A1
  5
611B
331
45A2
  5
611C
331
45A3
  5
611D
331
45A4
  5
611E
331
45A5
  5
611F
331
45A6
  5
6120
331
45A7
  5
6121
331
45A8
  5
6122
331
45A9
  5
6123
331
45AA
  5
6124
331
45AB
  5
6125
331
45AC
  5
6126
331
45AD
  5
6127
331
45AE
  5
6128
331
45AF
  5
6129
331
45B0
  5
612A
331
45B1
  5
612B
331
45B2
  5
612C
331
45B3
  5
612D
331
45B4
  5
612E
331
45B5
  5
612F
331
45B6
  5
6130
331
45B7
  5
6131
331
45B8
  5
6132
331
45B9
  5
6133
331
45BA
  5
6134
331
45BB
  5
6135
331
45BC
  5
6136
331
45BD
  5
6138
331
45BE
  5
613B
331
45BF
  5
613C
331
45C0
  5
613E
331
45C1
  5
6141
331
45C2
  5
6145
331
45C3
  5
6146
331
45C4
  5
6147
331
45C5
  5
6148
331
45C6
  5
6149
331
45C7
  5
614A
331
45C8
  5
614B
331
45C9
  5
614C
331
45CA
  5
6150
331
45CB
  5
6151
331
45CC
  5
6152
331
45CD
  5
6156
331
45CE
  5
6157
331
45CF
  5
6158
331
45D0
  5
615C
331
45D1
  5
615D
331
45D2
  5
6162
331
45D3
  5
6163
331
45D4
  5
6164
331
45D5
  5
6166
331
45D6
  5
6167
331
45D7
  5
6168
331
45D8
  5
6169
331
45D9
  5
616A
331
0
  5
45DC
331
0
  5
45DD
331
0
  5
45DE
331
0
  5
45DF
331
0
  5
45E0
331
0
  5
45E1
331
0
  5
465A
331
0
  5
473D
331
465A
  5
618A
331
473D
  5
618B
331
473E
  5
618C
331
473F
  5
618D
331
4740
  5
618E
331
4741
  5
618F
331
4742
  5
6190
331
4743
  5
6191
331
4745
  5
6195
331
0
  5
4751
331
474E
  5
619F
331
4750
  5
61A0
331
4751
  5
61DF
331
4754
  5
61E0
331
4757
  5
61E1
331
4758
  5
61E9
331
475B
  5
61EA
331
475C
  5
61EB
331
475D
  5
61EC
331
475E
  5
61ED
331
475F
  5
61EE
331
4760
  5
61EF
331
4761
  5
61F0
331
4762
  5
61F1
331
0
  5
48FA
331
0
  5
4907
331
0
  5
4914
331
48DC
  5
6215
331
48DD
  5
6216
331
48E8
  5
6217
331
48E9
  5
6218
331
48EA
  5
6219
331
0
  5
4945
331
0
  5
4946
331
0
  5
4947
331
0
  5
4958
331
0
  5
496D
331
0
  5
4988
331
0
  5
4A2F
331
0
  5
4A30
331
0
  5
4A2E
331
0
  5
4A34
331
0
  5
4A35
331
0
  5
4A36
331
4A2E
  5
625B
331
4A2F
  5
625C
331
4A30
  5
625D
331
4A31
  5
625E
331
4A32
  5
625F
331
4A33
  5
6260
331
4A34
  5
6261
331
4A35
  5
6262
331
4A36
  5
6263
331
4A37
  5
6264
331
4A38
  5
6265
331
4A39
  5
6266
331
4A3A
  5
6267
331
4A3B
  5
6268
331
4A3E
  5
6269
331
4A3F
  5
626A
331
4A40
  5
626B
331
4A43
  5
626C
331
4A46
  5
626D
331
4A47
  5
626E
331
4A48
  5
626F
331
4A49
  5
6270
331
4A4A
  5
6271
331
4AEF
  5
6272
331
4AF0
  5
6273
331
4AF1
  5
6274
331
4AF3
  5
6275
331
4CE3
  5
6276
331
0
  5
4D0B
331
0
  5
4D0C
331
0
  5
4D0D
331
0
  5
4D0E
331
4D06
  5
6286
331
4D07
  5
6287
331
4D08
  5
6288
331
4D09
  5
6289
331
4D0A
  5
628A
331
4D0B
  5
628B
331
4D0C
  5
628C
331
4D0D
  5
628D
331
4D0E
  5
628E
331
0
  5
4D18
331
0
  5
4D19
331
0
  5
4D1A
331
0
  5
4D1B
331
0
  5
4D1C
331
4D14
  5
62B4
331
4D15
  5
62B5
331
4D16
  5
62B6
331
0
  5
4DFC
331
0
  5
4DFD
331
0
  5
4DFE
331
0
  5
4DFF
331
0
  5
4E00
331
0
  5
4E01
331
0
  5
4E02
331
0
  5
4E03
331
0
  5
4E04
331
4DFC
  5
62EA
331
4DFD
  5
62EB
331
4DFE
  5
62EC
331
4DFF
  5
62ED
331
4E00
  5
62EE
331
4E01
  5
62EF
331
4E02
  5
62F0
331
4E03
  5
62F1
331
4E04
  5
62F2
331
4E05
  5
62F3
331
4E06
  5
62F4
331
4E07
  5
62F5
331
4E08
  5
62F6
331
4E09
  5
62F7
331
4E0A
  5
62F8
331
4E0B
  5
62F9
331
4E0C
  5
62FA
331
4E0D
  5
62FB
331
4E0E
  5
62FC
331
4E0F
  5
62FD
331
4E10
  5
62FE
331
4E11
  5
62FF
331
4E12
  5
6300
331
4E13
  5
6301
331
4F59
  5
6302
331
4F5B
  5
6303
331
4F5C
  5
6304
331
0
  5
60C8
331
0
  5
60C9
331
0
  5
60CA
331
0
  5
60CB
331
0
  5
475D
331
0
  5
4761
331
0
  5
60CC
331
60C8
  5
457E
331
60C9
  5
457F
331
60CA
  5
624D
331
60CB
  5
624E
331
60CC
  5
624F
331
60CD
  5
3E32
331
60CE
  5
3E33
331
60CF
  5
3E38
331
0
  5
3E39
331
0
  5
3E3B
331
0
  5
3E3D
331
60D3
  5
4136
331
60D4
  5
4137
331
60D5
  5
4138
331
0
  5
3E43
331
0
  5
3E46
331
0
  5
3E47
331
60D9
  5
4140
331
60DA
  5
4141
331
60DB
  5
4144
331
0
  5
3EDB
331
0
  5
4133
331
0
  5
4134
331
60DF
  5
451B
331
60E0
  5
451C
331
60E1
  5
451D
331
0
  5
414D
331
0
  5
414E
331
0
  5
414F
331
60E5
  5
4525
331
60E6
  5
4526
331
60E7
  5
4527
331
0
  5
4153
331
0
  5
4154
331
0
  5
4155
331
60EB
  5
4532
331
60EC
  5
4533
331
60ED
  5
4534
331
0
  5
42AB
331
0
  5
42AC
331
0
  5
42AD
331
60F1
  5
4542
331
60F2
  5
4543
331
0
  5
43CF
331
60F4
  5
4545
331
0
  5
450A
331
0
  5
450B
331
60F7
  5
454C
331
60F8
  5
454D
331
0
  5
450E
331
60FA
  5
454F
331
0
  5
4510
331
0
  5
4511
331
60FD
  5
4559
331
60FE
  5
455A
331
60FF
  5
455B
331
0
  5
4515
331
0
  5
4516
331
0
  5
4517
331
6103
  5
4580
331
6104
  5
4581
331
6105
  5
4582
331
6106
  5
4583
331
6107
  5
4584
331
0
  5
452E
331
0
  5
452F
331
0
  5
4530
331
610B
  5
458E
331
610C
  5
458F
331
610D
  5
4590
331
0
  5
4536
331
0
  5
4537
331
0
  5
4538
331
6111
  5
4598
331
6112
  5
4599
331
6113
  5
459A
331
0
  5
453C
331
0
  5
453D
331
0
  5
453E
331
6117
  5
45B6
331
6118
  5
45B7
331
6119
  5
45B8
331
0
  5
4556
331
0
  5
4557
331
0
  5
4558
331
611D
  5
45C0
331
611E
  5
45C1
331
611F
  5
45C2
331
6120
  5
45C3
331
6121
  5
45C4
331
0
  5
455E
331
0
  5
455F
331
0
  5
4560
331
6125
  5
45CC
331
6126
  5
45CD
331
6127
  5
45CF
331
6128
  5
45D0
331
0
  5
4565
331
0
  5
4566
331
0
  5
4567
331
612C
  5
45D7
331
612D
  5
45D8
331
612E
  5
45D9
331
0
  5
456B
331
0
  5
456C
331
0
  5
456D
331
6132
  5
4743
331
6133
  5
4745
331
6134
  5
474D
331
0
  5
4571
331
0
  5
4572
331
0
  5
4573
331
0
  5
60D6
331
6139
  5
616E
331
613A
  5
616F
331
613B
  5
6173
331
613C
  5
6174
331
0
  5
60DB
331
613E
  5
6178
331
613F
  5
6179
331
6140
  5
617A
331
6141
  5
617B
331
0
  5
60E0
331
6143
  5
617F
331
6144
  5
6180
331
6145
  5
6181
331
6146
  5
6182
331
0
  5
60E5
331
6148
  5
6186
331
6149
  5
6187
331
614A
  5
6188
331
614B
  5
6189
331
614C
  5
6196
331
614D
  5
6197
331
0
  5
60F5
331
0
  5
60F6
331
0
  5
60F7
331
6151
  5
61F2
331
6152
  5
61F3
331
0
  5
6137
331
6154
  5
61F5
331
0
  5
6139
331
0
  5
613A
331
6157
  5
61FF
331
6158
  5
6200
331
0
  5
613D
331
615A
  5
6202
331
0
  5
613F
331
0
  5
6140
331
615D
  5
620D
331
0
  5
6142
331
0
  5
6143
331
0
  5
6144
331
6161
  5
621A
331
6162
  5
621B
331
6163
  5
621C
331
0
  5
614D
331
0
  5
614E
331
0
  5
614F
331
6167
  5
6224
331
6168
  5
6225
331
6169
  5
6226
331
0
  5
6153
331
0
  5
6154
331
0
  5
6155
331
616D
  5
622E
331
616E
  5
622F
331
616F
  5
6230
331
0
  5
6159
331
0
  5
615A
331
0
  5
615B
331
6173
  5
6238
331
6174
  5
6239
331
0
  5
615E
331
0
  5
615F
331
0
  5
6160
331
0
  5
6161
331
6179
  5
6244
331
617A
  5
6245
331
617B
  5
6246
331
0
  5
6165
331
617D
  5
624A
331
617E
  5
624B
331
617F
  5
624C
331
6180
  5
6250
331
6181
  5
6251
331
6182
  5
6252
331
6183
  5
6253
331
0
  5
6170
331
0
  5
6171
331
0
  5
6172
331
6187
  5
6277
331
6188
  5
6278
331
6189
  5
6279
331
0
  5
6192
331
0
  5
6193
331
0
  5
6194
331
618D
  5
6281
331
618E
  5
6282
331
618F
  5
6283
331
6190
  5
6284
331
6191
  5
6285
331
6192
  5
628F
331
6193
  5
6290
331
6194
  5
6291
331
0
  5
61A6
331
0
  5
61A7
331
0
  5
61A8
331
6198
  5
6299
331
6199
  5
629A
331
619A
  5
629B
331
0
  5
61AC
331
0
  5
61AD
331
0
  5
61AE
331
619E
  5
62A3
331
619F
  5
62A4
331
61A0
  5
62A5
331
0
  5
61B2
331
0
  5
61B3
331
0
  5
61B4
331
0
  5
61B5
331
61A5
  5
62B0
331
61A6
  5
62B1
331
61A7
  5
62B2
331
61A8
  5
62B3
331
61A9
  5
62B7
331
61AA
  5
62B8
331
61AB
  5
62B9
331
0
  5
61C0
331
0
  5
61C1
331
0
  5
61C2
331
0
  5
61C3
331
61B0
  5
62C4
331
61B1
  5
62C5
331
61B2
  5
62C6
331
61B3
  5
62C7
331
0
  5
61C8
331
61B5
  5
62CB
331
61B6
  5
62CC
331
61B7
  5
62CD
331
61B8
  5
62CE
331
0
  5
61CD
331
61BA
  5
62D2
331
61BB
  5
62D3
331
61BC
  5
62D4
331
61BD
  5
62D5
331
61BE
  5
62D6
331
61BF
  5
62D7
331
61C0
  5
62D8
331
0
  5
61D5
331
0
  5
61D6
331
0
  5
61D7
331
61C4
  5
62E0
331
61C5
  5
62E1
331
61C6
  5
62E2
331
0
  5
61DB
331
0
  5
61DC
331
0
  5
61DD
331
61CA
  5
6305
331
61CB
  5
6306
331
61CC
  5
6307
331
0
  5
61FC
331
0
  5
61FD
331
0
  5
61FE
331
61D0
  5
630F
331
61D1
  5
6310
331
61D2
  5
6311
331
61D3
  5
6312
331
61D4
  5
6313
331
0
  5
6204
331
0
  5
6205
331
0
  5
6206
331
0
  5
6207
331
61D9
  5
631E
331
61DA
  5
631F
331
61DB
  5
6320
331
61DC
  5
6321
331
61DD
  5
61A1
331
61DE
  5
61A2
331
61DF
  5
61A3
331
61E0
  5
61A4
331
61E1
  5
61A5
331
61E2
  5
61A9
331
61E3
  5
61AA
331
61E4
  5
61AB
331
61E5
  5
61AF
331
61E6
  5
61B0
331
61E7
  5
61B1
331
61E8
  5
61B6
331
61E9
  5
61B7
331
61EA
  5
61B8
331
61EB
  5
61B9
331
61EC
  5
61BA
331
61ED
  5
61BB
331
61EE
  5
61BC
331
61EF
  5
61BD
331
61F0
  5
61BE
331
61F1
  5
61BF
331
61F2
  5
61C4
331
61F3
  5
61C5
331
61F4
  5
61C6
331
61F5
  5
61C7
331
61F6
  5
61C9
331
61F7
  5
61CA
331
61F8
  5
61CB
331
61F9
  5
61CC
331
61FA
  5
61CE
331
61FB
  5
61CF
331
61FC
  5
61D0
331
61FD
  5
61D1
331
61FE
  5
61D2
331
61FF
  5
61D3
331
6200
  5
61D4
331
6201
  5
61D8
331
6202
  5
61D9
331
6203
  5
61DA
331
6204
  5
61DE
331
6205
  5
61E2
331
6206
  5
61E3
331
6207
  5
61E4
331
6208
  5
61E5
331
6209
  5
61E6
331
620A
  5
61E7
331
620B
  5
61E8
331
620C
  5
6322
331
620D
  5
3E3E
331
620E
  5
3E41
331
620F
  5
3E42
331
6210
  5
3E99
331
6211
  5
3EAF
331
6212
  5
3EBC
331
6213
  5
4135
331
6214
  5
4139
331
6215
  5
413A
331
6216
  5
413B
331
6217
  5
413C
331
6218
  5
413D
331
6219
  5
413E
331
621A
  5
413F
331
621B
  5
4145
331
621C
  5
4147
331
621D
  5
4148
331
621E
  5
414B
331
621F
  5
414C
331
6220
  5
4150
331
6221
  5
4151
331
6222
  5
451E
331
6223
  5
451F
331
6224
  5
4520
331
6225
  5
4521
331
6226
  5
4522
331
6227
  5
4523
331
6228
  5
4524
331
6229
  5
4528
331
622A
  5
4529
331
622B
  5
452A
331
622C
  5
452B
331
622D
  5
452C
331
622E
  5
452D
331
622F
  5
4531
331
6230
  5
4535
331
6231
  5
4539
331
6232
  5
453A
331
6233
  5
453B
331
6234
  5
453F
331
6235
  5
4540
331
6236
  5
4541
331
6237
  5
4544
331
6238
  5
4546
331
6239
  5
4547
331
623A
  5
4548
331
623B
  5
4549
331
623C
  5
454A
331
623D
  5
454B
331
623E
  5
454E
331
623F
  5
4550
331
6240
  5
4551
331
6241
  5
4552
331
6242
  5
4553
331
6243
  5
4554
331
6244
  5
4555
331
6245
  5
455C
331
6246
  5
455D
331
6247
  5
4561
331
6248
  5
4562
331
6249
  5
4563
331
624A
  5
4564
331
624B
  5
4568
331
624C
  5
4585
331
624D
  5
4586
331
624E
  5
4587
331
624F
  5
4588
331
6250
  5
4589
331
6251
  5
458A
331
6252
  5
458B
331
6253
  5
4591
331
6254
  5
4592
331
6255
  5
4593
331
6256
  5
4594
331
6257
  5
4595
331
6258
  5
4596
331
6259
  5
4597
331
625A
  5
459B
331
625B
  5
459C
331
625C
  5
459D
331
625D
  5
459E
331
625E
  5
459F
331
625F
  5
45A0
331
6260
  5
45A1
331
6261
  5
45B9
331
6262
  5
45BA
331
6263
  5
45BB
331
6264
  5
45BC
331
6265
  5
45BD
331
6266
  5
45BE
331
6267
  5
45BF
331
0
  5
45C5
331
6269
  5
45C8
331
626A
  5
45C9
331
626B
  5
45CA
331
626C
  5
45CB
331
0
  5
45CE
331
626E
  5
45D3
331
626F
  5
45D4
331
6270
  5
45D5
331
6271
  5
45D6
331
6272
  5
45DA
331
6273
  5
45DB
331
6274
  5
473E
331
6275
  5
473F
331
6276
  5
4740
331
6277
  5
4741
331
6278
  5
4742
331
6279
  5
474E
331
627A
  5
4754
331
627B
  5
4758
331
627C
  5
475E
331
627D
  5
475F
331
627E
  5
4760
331
627F
  5
4762
331
6280
  5
616B
331
6281
  5
616C
331
6282
  5
616D
331
6283
  5
6175
331
6284
  5
6176
331
6285
  5
6177
331
6286
  5
617C
331
6287
  5
617D
331
6288
  5
617E
331
6289
  5
6183
331
628A
  5
6184
331
628B
  5
6185
331
628C
  5
6198
331
628D
  5
6199
331
628E
  5
619A
331
628F
  5
619B
331
6290
  5
619C
331
6291
  5
619D
331
6292
  5
619E
331
6293
  5
61F4
331
6294
  5
61F6
331
6295
  5
61F7
331
6296
  5
61F8
331
6297
  5
61F9
331
6298
  5
61FA
331
6299
  5
61FB
331
629A
  5
6201
331
629B
  5
6203
331
629C
  5
6208
331
629D
  5
6209
331
629E
  5
620A
331
629F
  5
620B
331
62A0
  5
620C
331
62A1
  5
620E
331
62A2
  5
620F
331
62A3
  5
6210
331
62A4
  5
6211
331
62A5
  5
6212
331
62A6
  5
6213
331
62A7
  5
6214
331
62A8
  5
621D
331
62A9
  5
621E
331
62AA
  5
621F
331
62AB
  5
6220
331
62AC
  5
6221
331
62AD
  5
6222
331
62AE
  5
6223
331
62AF
  5
6227
331
62B0
  5
6228
331
62B1
  5
6229
331
62B2
  5
622A
331
62B3
  5
622B
331
62B4
  5
622C
331
62B5
  5
622D
331
62B6
  5
6231
331
62B7
  5
6232
331
62B8
  5
6233
331
62B9
  5
6234
331
62BA
  5
6235
331
62BB
  5
6236
331
62BC
  5
6237
331
62BD
  5
623A
331
62BE
  5
623B
331
62BF
  5
623C
331
62C0
  5
623D
331
62C1
  5
623E
331
62C2
  5
623F
331
62C3
  5
6240
331
62C4
  5
6241
331
62C5
  5
6242
331
62C6
  5
6243
331
62C7
  5
6247
331
62C8
  5
6248
331
62C9
  5
6249
331
62CA
  5
6254
331
62CB
  5
6255
331
62CC
  5
6256
331
62CD
  5
6257
331
62CE
  5
6258
331
62CF
  5
6259
331
62D0
  5
625A
331
62D1
  5
627A
331
62D2
  5
627B
331
62D3
  5
627C
331
62D4
  5
627D
331
62D5
  5
627E
331
62D6
  5
627F
331
62D7
  5
6280
331
62D8
  5
6292
331
62D9
  5
6293
331
62DA
  5
6294
331
62DB
  5
6295
331
62DC
  5
6296
331
62DD
  5
6297
331
62DE
  5
6298
331
62DF
  5
629C
331
62E0
  5
629D
331
62E1
  5
629E
331
62E2
  5
629F
331
62E3
  5
62A0
331
62E4
  5
62A1
331
62E5
  5
62A2
331
62E6
  5
62A6
331
62E7
  5
62A7
331
62E8
  5
62A8
331
62E9
  5
62A9
331
62EA
  5
62AA
331
62EB
  5
62AB
331
62EC
  5
62AC
331
62ED
  5
62AD
331
62EE
  5
62AE
331
62EF
  5
62AF
331
62F0
  5
62BA
331
62F1
  5
62BB
331
62F2
  5
62BC
331
62F3
  5
62BD
331
62F4
  5
62BE
331
62F5
  5
62BF
331
62F6
  5
62C0
331
62F7
  5
62C1
331
62F8
  5
62C2
331
62F9
  5
62C3
331
62FA
  5
62C8
331
62FB
  5
62C9
331
62FC
  5
62CA
331
62FD
  5
62CF
331
62FE
  5
62D0
331
62FF
  5
62D1
331
6300
  5
62D9
331
6301
  5
62DA
331
6302
  5
62DB
331
6303
  5
62DC
331
6304
  5
62DD
331
6305
  5
62DE
331
6306
  5
62DF
331
6307
  5
62E3
331
6308
  5
62E4
331
6309
  5
62E5
331
630A
  5
62E6
331
630B
  5
62E7
331
630C
  5
62E8
331
630D
  5
62E9
331
630E
  5
6308
331
630F
  5
6309
331
6310
  5
630A
331
6311
  5
630B
331
6312
  5
630C
331
6313
  5
630D
331
6314
  5
630E
331
6315
  5
6314
331
6316
  5
6315
331
6317
  5
6316
331
6318
  5
6317
331
6319
  5
6318
331
631A
  5
6319
331
631B
  5
631A
331
631C
  5
631B
331
631D
  5
631C
331
631E
  5
631D
331
631F
  5
45C6
331
6320
  5
45C7
331
6321
  5
45D1
331
6322
  5
45D2
  0
SORTENTSTABLE
  5
3AE4
102
{ACAD_REACTORS
330
3AE3
102
}
330
3AE3
100
AcDbSortentsTable
330
15
331
57
  5
57
  0
MATERIAL
  5
4A99
102
{ACAD_REACTORS
330
2B1F
102
}
102
{ACAD_XDICTIONARY
360
64C3
102
}
330
2B1F
100
AcDbMaterial
  1
BYBLOCK
 72
     0
 73
     2
 43
0.0208333333333333
 43
0.0
 43
0.0
 43
0.0
 43
0.0
 43
0.0208333333333333
 43
0.0
 43
0.0
 43
0.0
 43
0.0
 43
1.0
 43
0.0
 43
0.0
 43
0.0
 43
0.0
 43
1.0
 77
     0
 78
     2
 47
0.0208333333333333
 47
0.0
 47
0.0
 47
0.0
 47
0.0
 47
0.0208333333333333
 47
0.0
 47
0.0
 47
0.0
 47
0.0
 47
1.0
 47
0.0
 47
0.0
 47
0.0
 47
0.0
 47
1.0
171
     0
172
     2
 49
0.0208333333333333
 49
0.0
 49
0.0
 49
0.0
 49
0.0
 49
0.0208333333333333
 49
0.0
 49
0.0
 49
0.0
 49
0.0
 49
1.0
 49
0.0
 49
0.0
 49
0.0
 49
0.0
 49
1.0
175
     0
176
     2
142
0.0208333333333333
142
0.0
142
0.0
142
0.0
142
0.0
142
0.0208333333333333
142
0.0
142
0.0
142
0.0
142
0.0
142
1.0
142
0.0
142
0.0
142
0.0
142
0.0
142
1.0
179
     0
270
     2
144
0.0208333333333333
144
0.0
144
0.0
144
0.0
144
0.0
144
0.0208333333333333
144
0.0
144
0.0
144
0.0
144
0.0
144
1.0
144
0.0
144
0.0
144
0.0
144
0.0
144
1.0
274
     2
147
0.0208333333333333
147
0.0
147
0.0
147
0.0
147
0.0
147
0.0208333333333333
147
0.0
147
0.0
147
0.0
147
0.0
147
1.0
147
0.0
147
0.0
147
0.0
147
0.0
147
1.0
  0
MATERIAL
  5
4A91
102
{ACAD_REACTORS
330
2B1F
102
}
102
{ACAD_XDICTIONARY
360
64C5
102
}
330
2B1F
100
AcDbMaterial
  1
BYLAYER
 72
     0
 73
     2
 43
0.0208333333333333
 43
0.0
 43
0.0
 43
0.0
 43
0.0
 43
0.0208333333333333
 43
0.0
 43
0.0
 43
0.0
 43
0.0
 43
1.0
 43
0.0
 43
0.0
 43
0.0
 43
0.0
 43
1.0
 77
     0
 78
     2
 47
0.0208333333333333
 47
0.0
 47
0.0
 47
0.0
 47
0.0
 47
0.0208333333333333
 47
0.0
 47
0.0
 47
0.0
 47
0.0
 47
1.0
 47
0.0
 47
0.0
 47
0.0
 47
0.0
 47
1.0
171
     0
172
     2
 49
0.0208333333333333
 49
0.0
 49
0.0
 49
0.0
 49
0.0
 49
0.0208333333333333
 49
0.0
 49
0.0
 49
0.0
 49
0.0
 49
1.0
 49
0.0
 49
0.0
 49
0.0
 49
0.0
 49
1.0
175
     0
176
     2
142
0.0208333333333333
142
0.0
142
0.0
142
0.0
142
0.0
142
0.0208333333333333
142
0.0
142
0.0
142
0.0
142
0.0
142
1.0
142
0.0
142
0.0
142
0.0
142
0.0
142
1.0
179
     0
270
     2
144
0.0208333333333333
144
0.0
144
0.0
144
0.0
144
0.0
144
0.0208333333333333
144
0.0
144
0.0
144
0.0
144
0.0
144
1.0
144
0.0
144
0.0
144
0.0
144
0.0
144
1.0
274
     2
147
0.0208333333333333
147
0.0
147
0.0
147
0.0
147
0.0
147
0.0208333333333333
147
0.0
147
0.0
147
0.0
147
0.0
147
1.0
147
0.0
147
0.0
147
0.0
147
0.0
147
1.0
  0
MATERIAL
  5
4AA1
102
{ACAD_REACTORS
330
2B1F
102
}
102
{ACAD_XDICTIONARY
360
64C7
102
}
330
2B1F
100
AcDbMaterial
  1
GLOBAL
 72
     0
 73
     2
 43
0.0208333333333333
 43
0.0
 43
0.0
 43
0.0
 43
0.0
 43
0.0208333333333333
 43
0.0
 43
0.0
 43
0.0
 43
0.0
 43
1.0
 43
0.0
 43
0.0
 43
0.0
 43
0.0
 43
1.0
 77
     0
 78
     2
 47
0.0208333333333333
 47
0.0
 47
0.0
 47
0.0
 47
0.0
 47
0.0208333333333333
 47
0.0
 47
0.0
 47
0.0
 47
0.0
 47
1.0
 47
0.0
 47
0.0
 47
0.0
 47
0.0
 47
1.0
171
     0
172
     2
 49
0.0208333333333333
 49
0.0
 49
0.0
 49
0.0
 49
0.0
 49
0.0208333333333333
 49
0.0
 49
0.0
 49
0.0
 49
0.0
 49
1.0
 49
0.0
 49
0.0
 49
0.0
 49
0.0
 49
1.0
175
     0
176
     2
142
0.0208333333333333
142
0.0
142
0.0
142
0.0
142
0.0
142
0.0208333333333333
142
0.0
142
0.0
142
0.0
142
0.0
142
1.0
142
0.0
142
0.0
142
0.0
142
0.0
142
1.0
179
     0
270
     2
144
0.0208333333333333
144
0.0
144
0.0
144
0.0
144
0.0
144
0.0208333333333333
144
0.0
144
0.0
144
0.0
144
0.0
144
1.0
144
0.0
144
0.0
144
0.0
144
0.0
144
1.0
274
     2
147
0.0208333333333333
147
0.0
147
0.0
147
0.0
147
0.0
147
0.0208333333333333
147
0.0
147
0.0
147
0.0
147
0.0
147
1.0
147
0.0
147
0.0
147
0.0
147
0.0
147
1.0
  0
ACAD_PROXY_OBJECT
  5
4AD0
102
{ACAD_REACTORS
330
4ACF
102
}
330
4ACF
100
AcDbZombieObject
 90
      499
 91
      512
 93
      610
310
40901902A4063FBFFFFFE000000000000002040AD7A3703D0AD73F4214DD185B99185C990000000000000104090141901A00000000000004100000000000000041025764000000000000300FC0
340
12
340
0
340
F
340
0
 94
        0
1001
ACAD_MLEADERVER
1070
     2
  0
MLINESTYLE
  5
1C
102
{ACAD_REACTORS
330
1B
102
}
330
1B
100
AcDbMlineStyle
  2
STANDARD
 70
     0
  3

 62
   256
 51
90.0
 52
90.0
 71
     2
 49
0.5
 62
   256
  6
BYLAYER
 49
-0.5
 62
   256
  6
BYLAYER
  0
ACAD_PROXY_OBJECT
  5
4AD6
102
{ACAD_REACTORS
330
4ABD
102
}
330
4ABD
100
AcDbZombieObject
 90
      499
 91
      511
 93
      297
310
913312F31323822203D2031272D30225F58524546000000000000200FC000000000000284000
  0
ACAD_PROXY_OBJECT
  5
4ADE
102
{ACAD_REACTORS
330
4ABD
102
}
330
4ABD
100
AcDbZombieObject
 90
      499
 91
      511
 93
      281
310
911332F3822203D2031272D30225F58524546000000000000360FC000000000000284000
  0
ACAD_PROXY_OBJECT
  5
4ADF
102
{ACAD_REACTORS
330
4ABD
102
}
330
4ABD
100
AcDbZombieObject
 90
      499
 91
      511
 93
      281
310
911312F3222203D2031272D30225F58524546000000000000380FC000000000000284000
  0
ACAD_PROXY_OBJECT
  5
4AE0
102
{ACAD_REACTORS
330
4ABD
102
}
330
4ABD
100
AcDbZombieObject
 90
      499
 91
      511
 93
      281
310
911332F3422203D2031272D30225F585245460000000000003A0FC000000000000284000
  0
ACAD_PROXY_OBJECT
  5
4AE1
102
{ACAD_REACTORS
330
4ABD
102
}
330
4ABD
100
AcDbZombieObject
 90
      499
 91
      511
 93
      201
310
90F3122203D2031272D30225F585245464000000000000284000
  0
ACAD_PROXY_OBJECT
  5
4AE2
102
{ACAD_REACTORS
330
4ABD
102
}
330
4ABD
100
AcDbZombieObject
 90
      499
 91
      511
 93
      297
310
913312D312F3222203D2031272D30225F585245460000000000003E0FC000000000000284000
  0
ACAD_PROXY_OBJECT
  5
4AE3
102
{ACAD_REACTORS
330
4ABD
102
}
330
4ABD
100
AcDbZombieObject
 90
      499
 91
      511
 93
      265
310
90F3322203D2031272D30225F5852454600000000000002100000000000000284000
  0
ACAD_PROXY_OBJECT
  5
4AE4
102
{ACAD_REACTORS
330
4ABD
102
}
330
4ABD
100
AcDbZombieObject
 90
      499
 91
      511
 93
      265
310
90F3622203D2031272D30225F5852454600000000000006100000000000000284000
  0
ACAD_PROXY_OBJECT
  5
4AE5
102
{ACAD_REACTORS
330
4ABD
102
}
330
4ABD
100
AcDbZombieObject
 90
      499
 91
      511
 93
      289
310
91231272D3022203D2031272D30225F585245460000000000000A100000000000000284000
  0
ACAD_PROXY_OBJECT
  5
4AD7
102
{ACAD_REACTORS
330
4ABD
102
}
330
4ABD
100
AcDbZombieObject
 90
      499
 91
      511
 93
      289
310
912312F363422203D2031272D30225F58524546000000000000240FC000000000000284000
  0
ACAD_PROXY_OBJECT
  5
4AD8
102
{ACAD_REACTORS
330
4ABD
102
}
330
4ABD
100
AcDbZombieObject
 90
      499
 91
      511
 93
      289
310
912312F333222203D2031272D30225F58524546000000000000280FC000000000000284000
  0
ACAD_PROXY_OBJECT
  5
4AD9
102
{ACAD_REACTORS
330
4ABD
102
}
330
4ABD
100
AcDbZombieObject
 90
      499
 91
      511
 93
      289
310
912312F313622203D2031272D30225F585245460000000000002C0FC000000000000284000
  0
ACAD_PROXY_OBJECT
  5
4ADA
102
{ACAD_REACTORS
330
4ABD
102
}
330
4ABD
100
AcDbZombieObject
 90
      499
 91
      511
 93
      289
310
912332F333222203D2031272D30225F585245460000000000002E0FC000000000000284000
  0
ACAD_PROXY_OBJECT
  5
4ADB
102
{ACAD_REACTORS
330
4ABD
102
}
330
4ABD
100
AcDbZombieObject
 90
      499
 91
      511
 93
      281
310
911312F3822203D2031272D30225F58524546000000000000300FC000000000000284000
  0
ACAD_PROXY_OBJECT
  5
4ADC
102
{ACAD_REACTORS
330
4ABD
102
}
330
4ABD
100
AcDbZombieObject
 90
      499
 91
      511
 93
      289
310
912332F313622203D2031272D30225F58524546000000000000320FC000000000000284000
  0
ACAD_PROXY_OBJECT
  5
4ADD
102
{ACAD_REACTORS
330
4ABD
102
}
330
4ABD
100
AcDbZombieObject
 90
      499
 91
      511
 93
      281
310
911312F3422203D2031272D30225F58524546000000000000340FC000000000000284000
  0
ACAD_PROXY_OBJECT
  5
4ABE
102
{ACAD_REACTORS
330
4ABD
102
}
330
4ABD
100
AcDbZombieObject
 90
      499
 91
      511
 93
       41
310
903313A31580
  0
ACAD_PROXY_OBJECT
  5
4ABF
102
{ACAD_REACTORS
330
4ABD
102
}
330
4ABD
100
AcDbZombieObject
 90
      499
 91
      511
 93
      105
310
903313A324000000000000004000
  0
ACAD_PROXY_OBJECT
  5
4AC0
102
{ACAD_REACTORS
330
4ABD
102
}
330
4ABD
100
AcDbZombieObject
 90
      499
 91
      511
 93
      105
310
903313A344000000000000104000
  0
ACAD_PROXY_OBJECT
  5
4AC1
102
{ACAD_REACTORS
330
4ABD
102
}
330
4ABD
100
AcDbZombieObject
 90
      499
 91
      511
 93
      105
310
903313A354000000000000144000
  0
ACAD_PROXY_OBJECT
  5
4AC2
102
{ACAD_REACTORS
330
4ABD
102
}
330
4ABD
100
AcDbZombieObject
 90
      499
 91
      511
 93
      105
310
903313A384000000000000204000
  0
ACAD_PROXY_OBJECT
  5
4AC3
102
{ACAD_REACTORS
330
4ABD
102
}
330
4ABD
100
AcDbZombieObject
 90
      499
 91
      511
 93
      113
310
904313A31304000000000000244000
  0
ACAD_PROXY_OBJECT
  5
4AC4
102
{ACAD_REACTORS
330
4ABD
102
}
330
4ABD
100
AcDbZombieObject
 90
      499
 91
      511
 93
      113
310
904313A31364000000000000304000
  0
ACAD_PROXY_OBJECT
  5
4AC5
102
{ACAD_REACTORS
330
4ABD
102
}
330
4ABD
100
AcDbZombieObject
 90
      499
 91
      511
 93
      113
310
904313A32304000000000000344000
  0
ACAD_PROXY_OBJECT
  5
4AC6
102
{ACAD_REACTORS
330
4ABD
102
}
330
4ABD
100
AcDbZombieObject
 90
      499
 91
      511
 93
      113
310
904313A333040000000000003E4000
  0
ACAD_PROXY_OBJECT
  5
4AC7
102
{ACAD_REACTORS
330
4ABD
102
}
330
4ABD
100
AcDbZombieObject
 90
      499
 91
      511
 93
      113
310
904313A34304000000000000444000
  0
ACAD_PROXY_OBJECT
  5
4AC8
102
{ACAD_REACTORS
330
4ABD
102
}
330
4ABD
100
AcDbZombieObject
 90
      499
 91
      511
 93
      113
310
904313A35304000000000000494000
  0
ACAD_PROXY_OBJECT
  5
4AC9
102
{ACAD_REACTORS
330
4ABD
102
}
330
4ABD
100
AcDbZombieObject
 90
      499
 91
      511
 93
      121
310
905313A3130304000000000000594000
  0
ACAD_PROXY_OBJECT
  5
4ACA
102
{ACAD_REACTORS
330
4ABD
102
}
330
4ABD
100
AcDbZombieObject
 90
      499
 91
      511
 93
      105
310
903323A310000000000000010100
  0
ACAD_PROXY_OBJECT
  5
4ACB
102
{ACAD_REACTORS
330
4ABD
102
}
330
4ABD
100
AcDbZombieObject
 90
      499
 91
      511
 93
      105
310
903343A310000000000000410100
  0
ACAD_PROXY_OBJECT
  5
4ACC
102
{ACAD_REACTORS
330
4ABD
102
}
330
4ABD
100
AcDbZombieObject
 90
      499
 91
      511
 93
      105
310
903383A310000000000000810100
  0
ACAD_PROXY_OBJECT
  5
4ACD
102
{ACAD_REACTORS
330
4ABD
102
}
330
4ABD
100
AcDbZombieObject
 90
      499
 91
      511
 93
      113
310
90431303A310000000000000910100
  0
ACAD_PROXY_OBJECT
  5
4ACE
102
{ACAD_REACTORS
330
4ABD
102
}
330
4ABD
100
AcDbZombieObject
 90
      499
 91
      511
 93
      121
310
9053130303A310000000000001650100
  0
ACAD_PROXY_OBJECT
  5
4AAF
102
{ACAD_REACTORS
330
4AA9
102
}
330
4AA9
100
AcDbZombieObject
 90
      499
 91
      510
 93
      436
310
42CC9915DA5C99599C985B595049028333333333333E3BF0000000000000FB0107901411070040501600405405064090741402480A0340
1001
ACAD
1000
AcDbSavedByObjectVersion
1070
     0
  0
ACAD_PROXY_OBJECT
  5
4AB1
102
{ACAD_REACTORS
330
4AA9
102
}
330
4AA9
100
AcDbZombieObject
 90
      499
 91
      510
 93
      500
310
424CD108121A5919195B90640502408333333333333E3BF0000000000000FB01079024090700405020000000000181990200405405064090740C02480A0340
1001
ACAD
1000
AcDbSavedByObjectVersion
1070
     0
  0
ACAD_PROXY_OBJECT
  5
4AB0
102
{ACAD_REACTORS
330
4AA9
102
}
330
4AA9
100
AcDbZombieObject
 90
      499
 91
      510
 93
      436
310
42CCD915DA5C99599C985B595059028333333333333E3BF0000000000000FB0107901411070040501600405405064090741402480A0340
1001
ACAD
1000
AcDbSavedByObjectVersion
1070
     0
  0
ACAD_PROXY_OBJECT
  5
4AAE
102
{ACAD_REACTORS
330
4AA9
102
}
330
4AA9
100
AcDbZombieObject
 90
      499
 91
      510
 93
      388
310
4150985CDA58D07406404333333333333E3BF0000000000000FB0107A41107004050150841D405064090741402480A0350
1001
ACAD
1000
AcDbSavedByObjectVersion
1070
     0
  0
ACAD_PROXY_OBJECT
  5
4AB5
102
{ACAD_REACTORS
330
4AA9
102
}
330
4AA9
100
AcDbZombieObject
 90
      499
 91
      510
 93
      428
310
42109C9A59DA1D195B90C409028333333333333E3BF0000000000000FB010790141107004050150841D405064090741402480A029950
1001
ACAD
1000
AcDbSavedByObjectVersion
1070
     0
  0
ACAD_PROXY_OBJECT
  5
4AB9
102
{ACAD_REACTORS
330
4AA9
102
}
330
4AA9
100
AcDbZombieObject
 90
      499
 91
      510
 93
      452
310
42D0DBDB1BDC90DA185B99D95104090240C333333333333E3BF0000000000000FB0108901411070040501508421405064090741402480A0350
1001
ACAD
1000
AcDbSavedByObjectVersion
1070
     0
  0
ACAD_PROXY_OBJECT
  5
4AB2
102
{ACAD_REACTORS
330
4AA9
102
}
330
4AA9
100
AcDbZombieObject
 90
      499
 91
      510
 93
      500
310
4290DBDB98D95C1D1D585B10940D028333333333333E3BF0000000000000FB0107902409070040501000000000018199010841D405064090740C02480A0340
1001
ACAD
1000
AcDbSavedByObjectVersion
1070
     0
  0
ACAD_PROXY_OBJECT
  5
4AB4
102
{ACAD_REACTORS
330
4AA9
102
}
330
4AA9
100
AcDbZombieObject
 90
      499
 91
      510
 93
      412
310
40D11A5B50B409028333333333333E3BF0000000000000FB010790141107004050150841D405064090741402480A02677FFFFFD0
1001
ACAD
1000
AcDbSavedByObjectVersion
1070
     0
  0
ACAD_PROXY_OBJECT
  5
4ABC
102
{ACAD_REACTORS
330
4AA9
102
}
330
4AA9
100
AcDbZombieObject
 90
      499
 91
      510
 93
      452
310
43115919D950DBDB1BDC93D999916409028333333333333E3BF0000000000000FB010790141107004050150841D405064090741402480A0350
1001
ACAD
1000
AcDbSavedByObjectVersion
1070
     0
  0
ACAD_PROXY_OBJECT
  5
4AB8
102
{ACAD_REACTORS
330
4AA9
102
}
330
4AA9
100
AcDbZombieObject
 90
      499
 91
      510
 93
      444
310
42D19858D95C185D1D195C9B90F409028333333333333E3BF0000000000000FB010790141107004050150841D405064090741402480A0350
1001
ACAD
1000
AcDbSavedByObjectVersion
1070
     0
  0
ACAD_PROXY_OBJECT
  5
4AAA
102
{ACAD_REACTORS
330
4AA9
102
}
330
4AA9
100
AcDbZombieObject
 90
      499
 91
      510
 93
      388
310
41119B185D240901404333333333333E3BF0000000000000F9010740A41107004050150841D405064090741402480A1B50
1001
ACAD
1000
AcDbSavedByObjectVersion
1070
     0
  0
ACAD_PROXY_OBJECT
  5
4AAB
102
{ACAD_REACTORS
330
4AA9
102
}
330
4AA9
100
AcDbZombieObject
 90
      499
 91
      510
 93
      476
310
43519B185D15DA5D1A115919D95CD0140901404333333333333E3BF0000000000000F9010740901411070040501600405405064090741402480A1B50
1001
ACAD
1000
AcDbSavedByObjectVersion
1070
     0
  0
ACAD_PROXY_OBJECT
  5
4AAC
102
{ACAD_REACTORS
330
4AA9
102
}
330
4AA9
100
AcDbZombieObject
 90
      499
 91
      510
 93
      412
310
41D1DBDD5C985D5910240902404333333333333E3BF0000000000000F9010740A411070040501641D405064090741402480A1B50
1001
ACAD
1000
AcDbSavedByObjectVersion
1070
     0
  0
ACAD_PROXY_OBJECT
  5
4AAD
102
{ACAD_REACTORS
330
4AA9
102
}
330
4AA9
100
AcDbZombieObject
 90
      499
 91
      510
 93
      500
310
4411DBDD5C985D5915DA5D1A115919D95CD0340902404333333333333E3BF0000000000000F9010740901411070040501600405405064090741402480A1B50
1001
ACAD
1000
AcDbSavedByObjectVersion
1070
     0
  0
ACAD_PROXY_OBJECT
  5
537B
102
{ACAD_REACTORS
330
4AA9
102
}
330
4AA9
100
AcDbZombieObject
 90
      499
 91
      510
 93
      476
310
41921A5919195B90640502408333333333333E3BF0000000000000FB01079024090700405020000000000001110200405405064090740C02480A0340
1001
ACAD
1000
AcDbSavedByObjectVersion
1070
     0
  0
ACAD_PROXY_OBJECT
  5
4ABA
102
{ACAD_REACTORS
330
4AA9
102
}
330
4AA9
100
AcDbZombieObject
 90
      499
 91
      510
 93
      428
310
42529A5D1D195C93D999914409028333333333333E3BF0000000000000FB010790141107004050150A41D405064090741402480A0350
1001
ACAD
1000
AcDbSavedByObjectVersion
1070
     0
  0
ACAD_PROXY_OBJECT
  5
4AB7
102
{ACAD_REACTORS
330
4AA9
102
}
330
4AA9
100
AcDbZombieObject
 90
      499
 91
      510
 93
      444
310
42D31A5B995C185D1D195C9B90E409028333333333333E3BF0000000000000FB010790141107004050750841D405064090741402483A0350
1001
ACAD
1000
AcDbSavedByObjectVersion
1070
     0
  0
ACAD_PROXY_OBJECT
  5
5381
102
{ACAD_REACTORS
330
4AA9
102
}
330
4AA9
100
AcDbZombieObject
 90
      499
 91
      510
 93
      484
310
42135BD9195B1A5B99D0A409028333333333333E3BF0000000000000F901074090290700405010000000000201990108421405064090741402480A1B40
1001
ACAD
1000
AcDbSavedByObjectVersion
1070
     0
  0
ACAD_PROXY_OBJECT
  5
4ABB
102
{ACAD_REACTORS
330
4AA9
102
}
330
4AA9
100
AcDbZombieObject
 90
      499
 91
      510
 93
      444
310
42D3DD995C9A185B99D3D999915409028333333333333E3BF0000000000000FB010790141107004050150941D405064090741402480A0350
1001
ACAD
1000
AcDbSavedByObjectVersion
1070
     0
  0
ACAD_PROXY_OBJECT
  5
4AB3
102
{ACAD_REACTORS
330
4AA9
102
}
330
4AA9
100
AcDbZombieObject
 90
      499
 91
      510
 93
      420
310
425499585B1A5CDD1A58D08409028333333333333E3BF0000000000000FB01079019070040501508421405064090741402480A1B40
1001
ACAD
1000
AcDbSavedByObjectVersion
1070
     0
  0
ACAD_PROXY_OBJECT
  5
5380
102
{ACAD_REACTORS
330
4AA9
102
}
330
4AA9
100
AcDbZombieObject
 90
      499
 91
      510
 93
      420
310
4194DA1859195911B40902404333333333333E3BF0000000000000F9010740A41107004050150800405405064090840C02480A0B40
1001
ACAD
1000
AcDbSavedByObjectVersion
1070
     0
  0
ACAD_PROXY_OBJECT
  5
537F
102
{ACAD_REACTORS
330
4AA9
102
}
330
4AA9
100
AcDbZombieObject
 90
      499
 91
      510
 93
      516
310
4454DA18591959081DDA5D1A08195919D95CD1A40902404333333333333E3BF0000000000000F901074090142907004050250800405405064090740C02480A0B40
1001
ACAD
1000
AcDbSavedByObjectVersion
1070
     0
  0
ACAD_PROXY_OBJECT
  5
537C
102
{ACAD_REACTORS
330
4AA9
102
}
330
4AA9
100
AcDbZombieObject
 90
      499
 91
      510
 93
      532
310
4394DA1859195CC81BD98811DC985E5174090240C333333333333E3BF0000000000000FB01079024090741D01000000000000111010841D405064090740C02480A0340
1001
ACAD
1000
AcDbSavedByObjectVersion
1070
     0
  0
ACAD_PROXY_OBJECT
  5
537D
102
{ACAD_REACTORS
330
4AA9
102
}
330
4AA9
100
AcDbZombieObject
 90
      499
 91
      510
 93
      476
310
41D4DAD95D18DA1E51840502408333333333333E3BF0000000000000FB01079024090741D01000000000000111010B41D405064090741802480A0340
1001
ACAD
1000
AcDbSavedByObjectVersion
1070
     0
  0
ACAD_PROXY_OBJECT
  5
4AB6
102
{ACAD_REACTORS
330
4AA9
102
}
330
4AA9
100
AcDbZombieObject
 90
      499
 91
      510
 93
      412
310
41D51A1A58DAD95B90D409028333333333333E3BF0000000000000FB010790141107004050150C41D405064090741402480A0350
1001
ACAD
1000
AcDbSavedByObjectVersion
1070
     0
  0
ACAD_PROXY_OBJECT
  5
537A
102
{ACAD_REACTORS
330
4AA9
102
}
330
4AA9
100
AcDbZombieObject
 90
      499
 91
      510
 93
      420
310
4255DA5C99599C985B595059028333333333333E3BF0000000000000FB0107901411070040501600405405064090740C02480A0340
1001
ACAD
1000
AcDbSavedByObjectVersion
1070
     0
  0
ACAD_PROXY_OBJECT
  5
537E
102
{ACAD_REACTORS
330
4AA9
102
}
330
4AA9
100
AcDbZombieObject
 90
      499
 91
      510
 93
      404
310
41560B54985E51940902404000000000000E03F0000000000000FB010740501907004050150841D405064090740C02480A1B40
1001
ACAD
1000
AcDbSavedByObjectVersion
1070
     0
  0
XRECORD
  5
6324
102
{ACAD_REACTORS
330
6323
102
}
330
6323
100
AcDbXrecord
340
2B20
  0
XRECORD
  5
6325
102
{ACAD_REACTORS
330
6323
102
}
330
6323
100
AcDbXrecord
340
2B1F
  0
DICTIONARYVAR
  5
5EDC
102
{ACAD_REACTORS
330
37
102
}
330
37
100
DictionaryVariables
280
     0
  1
1:1
  0
DICTIONARYVAR
  5
4B92
102
{ACAD_REACTORS
330
37
102
}
330
37
100
DictionaryVariables
280
     0
  1
Standard
  0
DICTIONARYVAR
  5
388E
102
{ACAD_REACTORS
330
37
102
}
330
37
100
DictionaryVariables
280
     0
  1
Standard
  0
DICTIONARYVAR
  5
38
102
{ACAD_REACTORS
330
37
102
}
330
37
100
DictionaryVariables
280
     0
  1
-1
  0
DICTIONARYVAR
  5
2B40
102
{ACAD_REACTORS
330
37
102
}
330
37
100
DictionaryVariables
280
     0
  1
2
  0
DICTIONARYVAR
  5
5DF2
102
{ACAD_REACTORS
330
37
102
}
330
37
100
DictionaryVariables
280
     0
  1
1
  0
DICTIONARYVAR
  5
4B95
102
{ACAD_REACTORS
330
37
102
}
330
37
100
DictionaryVariables
280
     0
  1
0
  0
DICTIONARYVAR
  5
5DF5
102
{ACAD_REACTORS
330
37
102
}
330
37
100
DictionaryVariables
280
     0
  1
8
  0
DICTIONARYVAR
  5
5DF4
102
{ACAD_REACTORS
330
37
102
}
330
37
100
DictionaryVariables
280
     0
  1
1
  0
DICTIONARYVAR
  5
5DF0
102
{ACAD_REACTORS
330
37
102
}
330
37
100
DictionaryVariables
280
     0
  1
0
  0
DICTIONARYVAR
  5
5DF1
102
{ACAD_REACTORS
330
37
102
}
330
37
100
DictionaryVariables
280
     0
  1
0
  0
DICTIONARYVAR
  5
5BD2
102
{ACAD_REACTORS
330
37
102
}
330
37
100
DictionaryVariables
280
     0
  1
0
  0
DICTIONARYVAR
  5
5DF3
102
{ACAD_REACTORS
330
37
102
}
330
37
100
DictionaryVariables
280
     0
  1
120
  0
DICTIONARYVAR
  5
2B41
102
{ACAD_REACTORS
330
37
102
}
330
37
100
DictionaryVariables
280
     0
  1

  0
DICTIONARYVAR
  5
4B94
102
{ACAD_REACTORS
330
37
102
}
330
37
100
DictionaryVariables
280
     0
  1
127
  0
DICTIONARYVAR
  5
5EC6
102
{ACAD_REACTORS
330
37
102
}
330
37
100
DictionaryVariables
280
     0
  1
2
  0
DICTIONARY
  5
64C3
330
4A99
100
AcDbDictionary
  3
ACAD_XREC_ROUNDTRIP
360
64C4
1001
ACAD
1000
TREAT_AS_HARD
1070
     1
  0
DICTIONARY
  5
64C5
330
4A91
100
AcDbDictionary
  3
ACAD_XREC_ROUNDTRIP
360
64C6
1001
ACAD
1000
TREAT_AS_HARD
1070
     1
  0
DICTIONARY
  5
64C7
330
4AA1
100
AcDbDictionary
  3
ACAD_XREC_ROUNDTRIP
360
64C8
1001
ACAD
1000
TREAT_AS_HARD
1070
     1
  0
XRECORD
  5
64C4
102
{ACAD_REACTORS
330
64C3
102
}
330
64C3
100
AcDbXrecord
102
MATERIAL
148
0.0
149
0.0
149
0.0
 93
        0
 94
      127
282
     0
 72
     0
 77
     0
171
     0
175
     0
179
     0
273
     0
  0
XRECORD
  5
64C6
102
{ACAD_REACTORS
330
64C5
102
}
330
64C5
100
AcDbXrecord
102
MATERIAL
148
0.0
149
0.0
149
0.0
 93
        0
 94
      127
282
     0
 72
     0
 77
     0
171
     0
175
     0
179
     0
273
     0
  0
XRECORD
  5
64C8
102
{ACAD_REACTORS
330
64C7
102
}
330
64C7
100
AcDbXrecord
102
MATERIAL
148
0.0
149
0.0
149
0.0
 93
        0
 94
      127
282
     0
 72
     0
 77
     0
171
     0
175
     0
179
     0
273
     0
  0
ENDSEC
  0
EOF
