  0
SECTION
  2
HEADER
  9
$ACADVER
  1
AC1009
  9
$INSBASE
 10
0.0
 20
0.0
 30
0.0
  9
$EXTMIN
 10
15574.506686739311
 20
-1200.897938839171
 30
0.0
  9
$EXTMAX
 10
15845.562514058231
 20
-941.07819335989007
 30
0.0
  9
$LIMMIN
 10
0.0
 20
0.0
  9
$LIMMAX
 10
420.0
 20
297.0
  9
$ORTHOMODE
 70
     0
  9
$REGENMODE
 70
     1
  9
$FILLMODE
 70
     1
  9
$QTEXTMODE
 70
     0
  9
$MIRRTEXT
 70
     0
  9
$DRAGMODE
 70
     2
  9
$LTSCALE
 40
0.5
  9
$OSMODE
 70
  2173
  9
$ATTMODE
 70
     1
  9
$TEXTSIZE
 40
4.0
  9
$TRACEWID
 40
1.0
  9
$TEXTSTYLE
  7
STANDARD
  9
$CLAYER
  8
1TEXT
  9
$CELTYPE
  6
BYLAYER
  9
$CECOLOR
 62
   256
  9
$DIMSCALE
 40
1.0
  9
$DIMASZ
 40
2.0
  9
$DIMEXO
 40
0.0
  9
$DIMDLI
 40
7.0
  9
$DIMRND
 40
0.0
  9
$DIMDLE
 40
0.0
  9
$DIMEXE
 40
1.0
  9
$DIMTP
 40
0.0
  9
$DIMTM
 40
0.0
  9
$DIMTXT
 40
3.5
  9
$DIMCEN
 40
0.0
  9
$DIMTSZ
 40
0.0
  9
$DIMTOL
 70
     0
  9
$DIMLIM
 70
     0
  9
$DIMTIH
 70
     0
  9
$DIMTOH
 70
     0
  9
$DIMSE1
 70
     0
  9
$DIMSE2
 70
     0
  9
$DIMTAD
 70
     1
  9
$DIMZIN
 70
     8
  9
$DIMBLK
  1

  9
$DIMASO
 70
     1
  9
$DIMSHO
 70
     1
  9
$DIMPOST
  1
 
  9
$DIMAPOST
  1

  9
$DIMALT
 70
     0
  9
$DIMALTD
 70
     2
  9
$DIMALTF
 40
25.399999999999999
  9
$DIMLFAC
 40
1.0
  9
$DIMTOFL
 70
     1
  9
$DIMTVP
 40
0.0
  9
$DIMTIX
 70
     0
  9
$DIMSOXD
 70
     0
  9
$DIMSAH
 70
     1
  9
$DIMBLK1
  1
OPEN30
  9
$DIMBLK2
  1
OPEN30
  9
$DIMSTYLE
  2
NEWX10
  9
$DIMCLRD
 70
   256
  9
$DIMCLRE
 70
   256
  9
$DIMCLRT
 70
   201
  9
$DIMTFAC
 40
0.7
  9
$DIMGAP
 40
0.7
  9
$LUNITS
 70
     2
  9
$LUPREC
 70
     4
  9
$SKETCHINC
 40
1.0
  9
$FILLETRAD
 40
0.0
  9
$AUNITS
 70
     0
  9
$AUPREC
 70
     2
  9
$MENU
  1
acad
  9
$ELEVATION
 40
0.0
  9
$PELEVATION
 40
0.0
  9
$THICKNESS
 40
0.0
  9
$LIMCHECK
 70
     0
  9
$BLIPMODE
 70
     0
  9
$CHAMFERA
 40
1.25
  9
$CHAMFERB
 40
1.25
  9
$SKPOLY
 70
     0
  9
$TDCREATE
 40
2451318.621352917
  9
$TDUPDATE
 40
2453574.6963181719
  9
$TDINDWG
 40
1.7384205208000001
  9
$TDUSRTIMER
 40
1.7384205208000001
  9
$USRTIMER
 70
     1
  9
$ANGBASE
 50
0.0
  9
$ANGDIR
 70
     0
  9
$PDMODE
 70
     0
  9
$PDSIZE
 40
0.0
  9
$PLINEWID
 40
0.0
  9
$COORDS
 70
     2
  9
$SPLFRAME
 70
     0
  9
$SPLINETYPE
 70
     6
  9
$SPLINESEGS
 70
     8
  9
$ATTDIA
 70
     0
  9
$ATTREQ
 70
     1
  9
$HANDLING
 70
     1
  9
$HANDSEED
  5
14B05
  9
$SURFTAB1
 70
     6
  9
$SURFTAB2
 70
     6
  9
$SURFTYPE
 70
     6
  9
$SURFU
 70
     6
  9
$SURFV
 70
     6
  9
$UCSNAME
  2

  9
$UCSORG
 10
0.0
 20
0.0
 30
0.0
  9
$UCSXDIR
 10
1.0
 20
0.0
 30
0.0
  9
$UCSYDIR
 10
0.0
 20
1.0
 30
0.0
  9
$PUCSNAME
  2

  9
$PUCSORG
 10
0.0
 20
0.0
 30
0.0
  9
$PUCSXDIR
 10
1.0
 20
0.0
 30
0.0
  9
$PUCSYDIR
 10
0.0
 20
1.0
 30
0.0
  9
$USERI1
 70
     0
  9
$USERI2
 70
     0
  9
$USERI3
 70
     0
  9
$USERI4
 70
     0
  9
$USERI5
 70
     0
  9
$USERR1
 40
0.0
  9
$USERR2
 40
0.0
  9
$USERR3
 40
0.0
  9
$USERR4
 40
0.0
  9
$USERR5
 40
0.0
  9
$WORLDVIEW
 70
     1
  9
$SHADEDGE
 70
     3
  9
$SHADEDIF
 70
    70
  9
$TILEMODE
 70
     1
  9
$MAXACTVP
 70
    48
  9
$PLIMCHECK
 70
     0
  9
$PEXTMIN
 10
1.0000000000000000E+020
 20
1.0000000000000000E+020
 30
1.0000000000000000E+020
  9
$PEXTMAX
 10
-1.0000000000000000E+020
 20
-1.0000000000000000E+020
 30
-1.0000000000000000E+020
  9
$PLIMMIN
 10
0.0
 20
0.0
  9
$PLIMMAX
 10
420.0
 20
297.0
  9
$UNITMODE
 70
     0
  9
$VISRETAIN
 70
     1
  9
$PLINEGEN
 70
     0
  9
$PSLTSCALE
 70
     1
  0
ENDSEC
  0
SECTION
  2
TABLES
  0
TABLE
  2
VPORT
 70
     5
  0
VPORT
  2
*ACTIVE
 70
     0
 10
0.0
 20
0.0
 11
1.0
 21
1.0
 12
15710.042574221079
 22
-1071.0066704103119
 13
0.0
 23
0.0
 14
10.0
 24
10.0
 15
10.0
 25
10.0
 16
0.0
 26
0.0
 36
1.0
 17
0.0
 27
0.0
 37
0.0
 40
275.7605607193621
 41
1.508086253369272
 42
50.0
 43
0.0
 44
0.0
 50
0.0
 51
0.0
 71
     0
 72
   100
 73
     1
 74
     1
 75
     0
 76
     0
 77
     0
 78
     0
  0
ENDTAB
  0
TABLE
  2
LTYPE
 70
    19
  0
LTYPE
  2
CONTINUOUS
 70
     0
  3
Solid line
 72
    65
 73
     0
 40
0.0
  0
LTYPE
  2
XREF1|CENTER2
 70
    48
  3
Center (.5x) ___ _ ___ _ ___ _ ___ _ ___ _ ___
 72
    65
 73
     4
 40
28.574999999999999
 49
19.050000000000001
 49
-3.174999999999998
 49
3.174999999999998
 49
-3.174999999999998
  0
LTYPE
  2
CENTER2
 70
     0
  3
Center (.5x) ___ _ ___ _ ___ _ ___ _ ___ _ ___
 72
    65
 73
     4
 40
28.574999999999999
 49
19.050000000000001
 49
-3.1749999999999989
 49
3.1749999999999989
 49
-3.1749999999999989
  0
LTYPE
  2
A3WAKUDAKE|CENTER2
 70
    48
  3
Center (.5x) ___ _ ___ _ ___ _ ___ _ ___ _ ___
 72
    65
 73
     4
 40
28.574999999999999
 49
19.050000000000001
 49
-3.174999999999998
 49
3.174999999999998
 49
-3.174999999999998
  0
ENDTAB
  0
TABLE
  2
LAYER
 70
    84
  0
LAYER
  2
0
 70
     0
 62
     7
  6
CONTINUOUS
  0
LAYER
  2
1CENTER
 70
     0
 62
     7
  6
CENTER2
  0
LAYER
  2
1TEXT
 70
     0
 62
     7
  6
CONTINUOUS
  0
LAYER
  2
1DIM
 70
     0
 62
     7
  6
CONTINUOUS
  0
LAYER
  2
1HATCH
 70
     0
 62
     7
  6
CONTINUOUS
  0
LAYER
  2
01
 70
     0
 62
     1
  6
CONTINUOUS
  0
LAYER
  2
XREF1|1CENTER
 70
    48
 62
     7
  6
XREF1|CENTER2
  0
LAYER
  2
A3WAKUDAKE|THICK
 70
    48
 62
     7
  6
CONTINUOUS
  0
LAYER
  2
A3WAKUDAKE|POINT
 70
    48
 62
     7
  6
CONTINUOUS
  0
LAYER
  2
A3WAKUDAKE|1CENTER
 70
    48
 62
     7
  6
A3WAKUDAKE|CENTER2
  0
LAYER
  2
A3WAKUDAKE|0-6
 70
    48
 62
     7
  6
CONTINUOUS
  0
LAYER
  2
A3WAKUDAKE|1DIM
 70
    48
 62
     7
  6
CONTINUOUS
  0
ENDTAB
  0
TABLE
  2
STYLE
 70
    23
  0
STYLE
  2
STANDARD
 70
     0
 40
0.0
 41
1.0
 50
0.0
 71
     0
 42
4.0
  3
txt.shx
  4
extfont.shx
  0
ENDTAB
  0
TABLE
  2
VIEW
 70
     1
  0
VIEW
  2
OLE1
 70
     0
 40
307.44384118935511
 10
197.83231463994591
 20
72.5339709327408
 41
490.95683166672183
 11
0.0
 21
0.0
 31
1.0
 12
0.0
 22
0.0
 32
0.0
 42
50.0
 43
0.0
 44
0.0
 50
0.0
 71
     0
  0
ENDTAB
  0
TABLE
  2
UCS
 70
     4
  0
UCS
  2
U
 70
     0
 10
0.0
 20
0.0
 30
0.0
 11
1.0
 21
0.0
 31
0.0
 12
0.0
 22
-0.0000000000000002
 32
1.0
  0
UCS
  2
L
 70
     0
 10
0.0
 20
0.0
 30
0.0
 11
0.0000000000000001
 21
-1.0
 31
-0.0000000000000002
 12
0.0
 22
-0.0000000000000002
 32
1.0
  0
UCS
  2
ISOME
 70
     0
 10
0.0
 20
0.0
 30
0.0
 11
0.7071450863198269
 21
-0.7070684729403534
 31
-0.0000383082461943
 12
0.4082704059428731
 22
0.4082704077401155
 32
0.8164744636514738
  0
UCS
  2
PERSPECTIVE
 70
     0
 10
0.0
 20
0.0
 30
0.0
 11
0.8191477691768966
 21
-0.5735823260466401
 31
-0.0004974931557765
 12
0.1584844715982971
 22
0.225502028986108
 32
0.9612655757829658
  0
ENDTAB
  0
TABLE
  2
APPID
 70
    14
  0
APPID
  2
ACAD
 70
     0
  0
APPID
  2
DRAWINGVARIABLESXDATA
 70
     0
  0
APPID
  2
CONTENTTABDATA
 70
     0
  0
APPID
  2
CONTENTCURRENTTAB
 70
     0
  0
APPID
  2
CONTENTBLOCKDESCRIPTION
 70
     0
  0
APPID
  2
CONTENTBLOCKICON
 70
     0
  0
APPID
  2
CONTENTLONGBLOCKNAME
 70
     0
  0
APPID
  2
GRPNAME
 70
     0
  0
APPID
  2
LAYTOOL
 70
     0
  0
APPID
  2
ITM1
 70
     0
  0
APPID
  2
ITM2
 70
     0
  0
APPID
  2
ITM3
 70
     0
  0
APPID
  2
ITM4
 70
     0
  0
APPID
  2
ACAD_PSEXT
 70
     0
  0
ENDTAB
  0
TABLE
  2
DIMSTYLE
 70
     8
  0
DIMSTYLE
  2
NEWX10
 70
     0
  3
 
  4

  5

  6
OPEN30
  7
OPEN30
 40
1.0
 41
2.0
 42
0.0
 43
7.0
 44
1.0
 45
0.0
 46
0.0
 47
0.0
 48
0.0
140
3.5
141
0.0
142
0.0
143
25.399999999999999
144
1.0
145
0.0
146
0.7
147
0.7
 71
     0
 72
     0
 73
     0
 74
     0
 75
     0
 76
     0
 77
     1
 78
     8
170
     0
171
     2
172
     1
173
     1
174
     0
175
     0
176
   256
177
   256
178
   201
  0
ENDTAB
  0
ENDSEC
  0
SECTION
  2
BLOCKS
  0
BLOCK
  8
0
  2
$MODEL_SPACE
 70
     0
 10
0.0
 20
0.0
 30
0.0
  3
$MODEL_SPACE
  1

  0
ENDBLK
  5
1A
  8
0
  0
BLOCK
 67
     1
  8
0
  2
$PAPER_SPACE
 70
     0
 10
0.0
 20
0.0
 30
0.0
  3
$PAPER_SPACE
  1

  0
ENDBLK
  5
17
 67
     1
  8
0
  0
BLOCK
  8
0
  2
_OPEN30
 70
     0
 10
0.0
 20
0.0
 30
0.0
  3
_OPEN30
  1

  0
LINE
  5
44
  8
0
  6
BYBLOCK
 62
     0
 10
-1.0
 20
0.26794919
 30
0.0
 11
0.0
 21
0.0
 31
0.0
  0
LINE
  5
45
  8
0
  6
BYBLOCK
 62
     0
 10
0.0
 20
0.0
 30
0.0
 11
-1.0
 21
-0.26794919
 31
0.0
  0
LINE
  5
46
  8
0
  6
BYBLOCK
 62
     0
 10
0.0
 20
0.0
 30
0.0
 11
-1.0
 21
0.0
 31
0.0
  0
ENDBLK
  5
47
  8
0
  0
BLOCK
  8
0
  2
XREF1
 70
    36
 10
0.0
 20
0.0
 30
0.0
  3
XREF1
  1
D:\ACLT\FORMAT\KAWAJUN(9)図面用.dwg
  0
ENDBLK
  5
5D
  8
0
  0
BLOCK
  8
0
  2
A3WAKUDAKE
 70
    36
 10
0.0
 20
0.0
 30
0.0
  3
A3WAKUDAKE
  1
D:\ACLT\FORMAT\A3WAKUdake.dwg
  0
ENDBLK
  5
D88C
  8
0
  0
BLOCK
  8
0
  2
*U66
 70
     1
 10
0.0
 20
0.0
 30
0.0
  3
*U66
  1

  0
TEXT
  5
146DE
  8
1DIM
 62
   201
 10
15803.03317019247
 20
-1081.221827332856
 30
0.0
 40
3.5
  1
φ9.5
 50
90.0
  0
ENDBLK
  5
146E0
  8
0
  0
BLOCK
  8
0
  2
*U67
 70
     1
 10
0.0
 20
0.0
 30
0.0
  3
*U67
  1

  0
TEXT
  5
146E2
  8
1DIM
 62
   201
 10
15657.082618726419
 20
-1014.629327332856
 30
0.0
 40
3.5
  1
332
 50
90.0
  0
ENDBLK
  5
146E4
  8
0
  0
BLOCK
  8
0
  2
*U68
 70
     1
 10
0.0
 20
0.0
 30
0.0
  3
*U68
  1

  0
TEXT
  5
146E6
  8
1DIM
 62
   201
 10
15708.765454841639
 20
-1000.167155473825
 30
0.0
 40
3.5
  1
43 （リフト３ｍｍ）
  0
ENDBLK
  5
146E8
  8
0
  0
BLOCK
  8
0
  2
*U69
 70
     1
 10
0.0
 20
0.0
 30
0.0
  3
*U69
  1

  0
TEXT
  5
146EA
  8
1DIM
 62
   201
 10
15656.16595205975
 20
-1129.1546606661891
 30
0.0
 40
3.5
  1
(527)
 50
90.0
  0
ENDBLK
  5
146EC
  8
0
  0
BLOCK
  8
0
  2
*U70
 70
     1
 10
0.0
 20
0.0
 30
0.0
  3
*U70
  1

  0
TEXT
  5
146EE
  8
1DIM
 62
   201
 10
15695.66298944417
 20
-1199.197938839171
 30
0.0
 40
3.5
  1
φ60
  0
ENDBLK
  5
146F0
  8
0
  0
BLOCK
  8
0
  2
*U71
 70
     1
 10
0.0
 20
0.0
 30
0.0
  3
*U71
  1

  0
TEXT
  5
146F2
  8
1DIM
 62
   201
 10
15710.004656110839
 20
-944.57819335989007
 30
0.0
 40
3.5
  1
φ12.7
  0
ENDBLK
  5
146F4
  8
0
  0
ENDSEC
  0
SECTION
  2
ENTITIES
  0
TEXT
  5
119E9
  8
1TEXT
 10
15574.506686739311
 20
-959.7362138378727
 30
0.0
 40
8.0
  1
HN01
  0
ARC
  5
13F88
  8
01
 10
15721.237989444169
 20
-1062.1551606661919
 30
0.0
 40
33.5
 50
157.6240000000077
 51
194.59299999999001
  0
LINE
  5
13F89
  8
01
 10
15689.23798944418
 20
-1077.8661606661919
 30
0.0
 11
15689.23798944418
 21
-1073.8701606661921
 31
0.0
  0
ARC
  5
13F8A
  8
01
 10
15674.237989444169
 20
-1077.8661606661919
 30
0.0
 40
15.0
 50
321.7370000000189
 51
0.0
  0
ARC
  5
13F8B
  8
01
 10
15676.237989444169
 20
-1073.8701606661921
 30
0.0
 40
13.0
 50
0.0
 51
14.59299999999002
  0
LINE
  5
13F8C
  8
01
 10
15686.015989444169
 20
-1087.1551606661919
 30
0.0
 11
15686.015989444169
 21
-1096.016160666192
 31
0.0
  0
LINE
  5
13F8D
  8
01
 10
15715.459989444171
 20
-1087.1551606661919
 30
0.0
 11
15715.459989444171
 21
-1096.016160666192
 31
0.0
  0
ARC
  5
13F8E
  8
01
 10
15724.23698944418
 20
-1078.971160666192
 30
0.0
 40
12.0
 50
181.50699999999841
 51
223.00099999998179
  0
LINE
  5
13F8F
  8
01
 10
15717.237989444169
 20
-1074.1551606661919
 30
0.0
 11
15726.709989444171
 21
-1074.1551606661919
 31
0.0
  0
ARC
  5
13F90
  8
01
 10
15717.237989444169
 20
-1079.1551606661919
 30
0.0
 40
5.0
 50
90.000999999996466
 51
180.0009999999964
  0
LINE
  5
13F91
  8
01
 10
15715.459989444171
 20
-1096.016160666192
 30
0.0
 11
15713.487989444169
 21
-1097.1551606661919
 31
0.0
  0
LINE
  5
13F92
  8
01
 10
15686.015989444169
 20
-1096.016160666192
 30
0.0
 11
15687.987989444169
 21
-1097.1551606661919
 31
0.0
  0
LINE
  5
13F93
  8
01
 10
15714.21498944417
 20
-1050.1551606661919
 30
0.0
 11
15726.709989444171
 21
-1050.1551606661919
 31
0.0
  0
ARC
  5
13F94
  8
01
 10
15714.21498944417
 20
-1047.1551606661919
 30
0.0
 40
3.0
 50
180.0009999999964
 51
270.0
  0
LINE
  5
13F95
  8
01
 10
15726.14598944417
 20
-1062.1551606661919
 30
0.0
 11
15726.14598944417
 21
-1074.1551606661919
 31
0.0
  0
LINE
  5
13F96
  8
01
 10
15726.14598944417
 20
-1073.3421606661921
 30
0.0
 11
15724.737989444169
 21
-1074.1551606661919
 31
0.0
  0
LINE
  5
13F97
  8
01
 10
15726.709989444171
 20
-1073.3421606661921
 30
0.0
 11
15726.14598944417
 21
-1073.3421606661921
 31
0.0
  0
LINE
  5
13F98
  8
01
 10
15726.14598944417
 20
-1050.1551606661919
 30
0.0
 11
15726.14598944417
 21
-1062.1551606661919
 31
0.0
  0
LINE
  5
13F99
  8
01
 10
15726.14598944417
 20
-1050.968160666192
 30
0.0
 11
15724.737989444169
 21
-1050.1551606661919
 31
0.0
  0
LINE
  5
13F9A
  8
01
 10
15726.709989444171
 20
-1050.968160666192
 30
0.0
 11
15726.14598944417
 21
-1050.968160666192
 31
0.0
  0
LINE
  5
13F9B
  8
1CENTER
 10
15749.425989444169
 20
-1062.1551606661919
 30
0.0
 11
15683.816989444171
 21
-1062.1551606661919
 31
0.0
  0
LINE
  5
13F9C
  8
01
 10
15687.987989444169
 20
-1097.1551606661919
 30
0.0
 11
15700.73798944418
 21
-1097.1551606661919
 31
0.0
  0
LINE
  5
13F9D
  8
01
 10
15700.73798944418
 20
-1097.1551606661919
 30
0.0
 11
15713.487989444169
 21
-1097.1551606661919
 31
0.0
  0
LINE
  5
13F9E
  8
01
 10
15726.709989444171
 20
-1062.1551606661919
 30
0.0
 11
15726.709989444171
 21
-1049.6551606661919
 31
0.0
  0
LINE
  5
13F9F
  8
01
 10
15726.709989444171
 20
-1062.1551606661919
 30
0.0
 11
15726.709989444171
 21
-1074.6551606661919
 31
0.0
  0
ARC
  5
13FA0
  8
01
 10
15753.022989444171
 20
-1079.7701606661919
 30
0.0
 40
18.0
 50
137.69699999998599
 51
161.51100000000531
  0
ARC
  5
13FA1
  8
01
 10
15731.209989444171
 20
-1072.4761606661921
 30
0.0
 40
5.0
 50
316.6949999999751
 51
341.51100000000531
  0
ARC
  5
13FA2
  8
01
 10
15731.209989444171
 20
-1072.4761606661921
 30
0.0
 40
5.0
 50
205.84300000000681
 51
223.3070000000281
  0
LINE
  5
13FA3
  8
01
 10
15727.57098944417
 20
-1075.9051606661919
 30
0.0
 11
15734.84798944417
 21
-1075.9051606661919
 31
0.0
  0
LINE
  5
13FA4
  8
01
 10
15727.57098944417
 20
-1048.4051606661919
 30
0.0
 11
15734.84798944417
 21
-1048.4051606661919
 31
0.0
  0
ARC
  5
13FA5
  8
01
 10
15731.209989444171
 20
-1051.834160666192
 30
0.0
 40
5.0
 50
136.6949999999751
 51
154.1599999999876
  0
ARC
  5
13FA6
  8
01
 10
15731.209989444171
 20
-1051.834160666192
 30
0.0
 40
5.0
 50
18.49200000000015
 51
43.30700000002809
  0
ARC
  5
13FA7
  8
01
 10
15753.022989444171
 20
-1044.5401606661919
 30
0.0
 40
18.0
 50
198.4909999999978
 51
222.3039999999823
  0
LINE
  5
13FA8
  8
01
 10
15739.709989444171
 20
-1062.1551606661919
 30
0.0
 11
15739.709989444171
 21
-1067.6551606661919
 31
0.0
  0
LINE
  5
13FA9
  8
01
 10
15739.709989444171
 20
-1062.1551606661919
 30
0.0
 11
15739.709989444171
 21
-1056.6551606661919
 31
0.0
  0
LINE
  5
13FAA
  8
01
 10
15742.737989444169
 20
-1057.4051606661919
 30
0.0
 11
15739.709989444171
 21
-1057.4051606661919
 31
0.0
  0
LINE
  5
13FAB
  8
01
 10
15743.737989444169
 20
-1058.4051606661919
 30
0.0
 11
15743.737989444169
 21
-1061.2551606661921
 31
0.0
  0
LINE
  5
13FAC
  8
01
 10
15742.737989444169
 20
-1066.9051606661919
 30
0.0
 11
15739.709989444171
 21
-1066.9051606661919
 31
0.0
  0
LINE
  5
13FAD
  8
01
 10
15743.737989444169
 20
-1065.9051606661919
 30
0.0
 11
15743.737989444169
 21
-1063.055160666192
 31
0.0
  0
LINE
  5
13FAE
  8
01
 10
15741.73798944418
 20
-1061.2551606661921
 30
0.0
 11
15743.737989444169
 21
-1061.2551606661921
 31
0.0
  0
LINE
  5
13FAF
  8
01
 10
15741.73798944418
 20
-1062.1551606661919
 30
0.0
 11
15741.73798944418
 21
-1061.2551606661921
 31
0.0
  0
LINE
  5
13FB0
  8
01
 10
15741.73798944418
 20
-1062.1551606661919
 30
0.0
 11
15741.73798944418
 21
-1063.055160666192
 31
0.0
  0
LINE
  5
13FB1
  8
01
 10
15741.73798944418
 20
-1063.055160666192
 30
0.0
 11
15743.737989444169
 21
-1063.055160666192
 31
0.0
  0
LINE
  5
13FB2
  8
01
 10
15743.737989444169
 20
-1065.9051606661919
 30
0.0
 11
15742.737989444169
 21
-1066.9051606661919
 31
0.0
  0
LINE
  5
13FB3
  8
01
 10
15743.737989444169
 20
-1058.4051606661919
 30
0.0
 11
15742.737989444169
 21
-1057.4051606661919
 31
0.0
  0
LINE
  5
13FB4
  8
01
 10
15690.26098944417
 20
-1049.402160666192
 30
0.0
 11
15690.26098944417
 21
-1040.2551606661921
 31
0.0
  0
LINE
  5
13FB5
  8
01
 10
15691.422989444171
 20
-1042.1551606661919
 30
0.0
 11
15690.26098944417
 21
-1044.1681606661921
 31
0.0
  0
LINE
  5
13FB6
  8
01
 10
15691.422989444171
 20
-1040.2551606661921
 30
0.0
 11
15691.422989444171
 21
-1042.1551606661919
 31
0.0
  0
LINE
  5
13FB7
  8
01
 10
15690.26098944417
 20
-1042.1551606661919
 30
0.0
 11
15700.73798944418
 21
-1042.1551606661919
 31
0.0
  0
LINE
  5
13FB8
  8
01
 10
15711.21498944417
 20
-1047.1551606661919
 30
0.0
 11
15711.21498944417
 21
-1040.2551606661921
 31
0.0
  0
LINE
  5
13FB9
  8
01
 10
15700.73798944418
 20
-1042.1551606661919
 30
0.0
 11
15711.21498944417
 21
-1042.1551606661919
 31
0.0
  0
LINE
  5
13FBA
  8
01
 10
15710.05298944417
 20
-1042.1551606661919
 30
0.0
 11
15711.21498944417
 21
-1044.1681606661921
 31
0.0
  0
LINE
  5
13FBB
  8
01
 10
15710.05298944417
 20
-1040.2551606661921
 30
0.0
 11
15710.05298944417
 21
-1042.1551606661919
 31
0.0
  0
LINE
  5
13FBC
  8
01
 10
15693.37698944417
 20
-1087.1551606661919
 30
0.0
 11
15693.37698944417
 21
-1096.0164102552251
 31
0.0
  0
ARC
  5
13FBD
  8
01
 10
15689.69648944417
 20
-1092.532140046889
 30
0.0
 40
6.5159793976376426
 50
55.608667357499698
 51
124.3913326425003
  0
ARC
  5
13FBE
  8
01
 10
15689.69670550632
 20
-1090.63870105197
 30
0.0
 40
6.5164596321915154
 50
235.61385956473379
 51
304.38614043526621
  0
LINE
  5
13FBF
  8
01
 10
15708.09898944417
 20
-1087.1551606661919
 30
0.0
 11
15708.09898944417
 21
-1096.0164102552251
 31
0.0
  0
ARC
  5
13FC0
  8
01
 10
15711.77927338203
 20
-1090.63870105197
 30
0.0
 40
6.5164596321915154
 50
235.61385956473379
 51
304.38614043526621
  0
ARC
  5
13FC1
  8
01
 10
15711.77948944417
 20
-1092.532140046889
 30
0.0
 40
6.5159793976376426
 50
55.608667357499698
 51
124.3913326425003
  0
ARC
  5
13FC2
  8
01
 10
15700.73798944418
 20
-1072.7946542004379
 30
0.0
 40
24.360506465753812
 50
252.41205005798241
 51
287.5879499420177
  0
ARC
  5
13FC3
  8
01
 10
15700.73798944418
 20
-1110.371578576639
 30
0.0
 40
24.355417910447681
 50
72.408255441679984
 51
107.59174455832
  0
POLYLINE
  5
13FC4
  8
01
 10
15727.571055091037
 20
-1053.1361606661915
 30
0.0
 66
     1
 70
     8
  0
VERTEX
  8
01
  5
146F5
 10
15727.6
 20
-1053.14
 30
0.000000
  70
    32
  0
VERTEX
  8
01
  5
146F6
 10
15727.6
 20
-1053.14
 30
0.000000
  70
    32
  0
VERTEX
  8
01
  5
146F7
 10
15727.5
 20
-1053.13
 30
0.000000
  70
    32
  0
VERTEX
  8
01
  5
146F8
 10
15727.5
 20
-1053.13
 30
0.000000
  70
    32
  0
VERTEX
  8
01
  5
146F9
 10
15727.5
 20
-1053.13
 30
0.000000
  70
    32
  0
VERTEX
  8
01
  5
146FA
 10
15727.5
 20
-1053.13
 30
0.000000
  70
    32
  0
VERTEX
  8
01
  5
146FB
 10
15727.5
 20
-1053.12
 30
0.000000
  70
    32
  0
VERTEX
  8
01
  5
146FC
 10
15727.5
 20
-1053.12
 30
0.000000
  70
    32
  0
VERTEX
  8
01
  5
146FD
 10
15727.5
 20
-1053.11
 30
0.000000
  70
    32
  0
VERTEX
  8
01
  5
146FE
 10
15727.4
 20
-1053.11
 30
0.000000
  70
    32
  0
VERTEX
  8
01
  5
146FF
 10
15727.4
 20
-1053.10
 30
0.000000
  70
    32
  0
VERTEX
  8
01
  5
14700
 10
15727.4
 20
-1053.09
 30
0.000000
  70
    32
  0
VERTEX
  8
01
  5
14701
 10
15727.4
 20
-1053.08
 30
0.000000
  70
    32
  0
VERTEX
  8
01
  5
14702
 10
15727.4
 20
-1053.08
 30
0.000000
  70
    32
  0
VERTEX
  8
01
  5
14703
 10
15727.4
 20
-1053.07
 30
0.000000
  70
    32
  0
VERTEX
  8
01
  5
14704
 10
15727.3
 20
-1053.06
 30
0.000000
  70
    32
  0
VERTEX
  8
01
  5
14705
 10
15727.3
 20
-1053.04
 30
0.000000
  70
    32
  0
VERTEX
  8
01
  5
14706
 10
15727.3
 20
-1053.03
 30
0.000000
  70
    32
  0
VERTEX
  8
01
  5
14707
 10
15727.3
 20
-1053.02
 30
0.000000
  70
    32
  0
VERTEX
  8
01
  5
14708
 10
15727.3
 20
-1053.01
 30
0.000000
  70
    32
  0
VERTEX
  8
01
  5
14709
 10
15727.3
 20
-1052.99
 30
0.000000
  70
    32
  0
VERTEX
  8
01
  5
1470A
 10
15727.3
 20
-1052.98
 30
0.000000
  70
    32
  0
VERTEX
  8
01
  5
1470B
 10
15727.2
 20
-1052.96
 30
0.000000
  70
    32
  0
VERTEX
  8
01
  5
1470C
 10
15727.2
 20
-1052.95
 30
0.000000
  70
    32
  0
VERTEX
  8
01
  5
1470D
 10
15727.2
 20
-1052.93
 30
0.000000
  70
    32
  0
VERTEX
  8
01
  5
1470E
 10
15727.2
 20
-1052.91
 30
0.000000
  70
    32
  0
VERTEX
  8
01
  5
1470F
 10
15727.2
 20
-1052.90
 30
0.000000
  70
    32
  0
VERTEX
  8
01
  5
14710
 10
15727.2
 20
-1052.88
 30
0.000000
  70
    32
  0
VERTEX
  8
01
  5
14711
 10
15727.2
 20
-1052.86
 30
0.000000
  70
    32
  0
VERTEX
  8
01
  5
14712
 10
15727.2
 20
-1052.84
 30
0.000000
  70
    32
  0
VERTEX
  8
01
  5
14713
 10
15727.1
 20
-1052.82
 30
0.000000
  70
    32
  0
VERTEX
  8
01
  5
14714
 10
15727.1
 20
-1052.80
 30
0.000000
  70
    32
  0
VERTEX
  8
01
  5
14715
 10
15727.1
 20
-1052.78
 30
0.000000
  70
    32
  0
VERTEX
  8
01
  5
14716
 10
15727.1
 20
-1052.75
 30
0.000000
  70
    32
  0
VERTEX
  8
01
  5
14717
 10
15727.1
 20
-1052.73
 30
0.000000
  70
    32
  0
VERTEX
  8
01
  5
14718
 10
15727.1
 20
-1052.71
 30
0.000000
  70
    32
  0
VERTEX
  8
01
  5
14719
 10
15727.1
 20
-1052.68
 30
0.000000
  70
    32
  0
VERTEX
  8
01
  5
1471A
 10
15727.1
 20
-1052.66
 30
0.000000
  70
    32
  0
VERTEX
  8
01
  5
1471B
 10
15727.0
 20
-1052.63
 30
0.000000
  70
    32
  0
VERTEX
  8
01
  5
1471C
 10
15727.0
 20
-1052.61
 30
0.000000
  70
    32
  0
VERTEX
  8
01
  5
1471D
 10
15727.0
 20
-1052.58
 30
0.000000
  70
    32
  0
VERTEX
  8
01
  5
1471E
 10
15727.0
 20
-1052.55
 30
0.000000
  70
    32
  0
VERTEX
  8
01
  5
1471F
 10
15727.0
 20
-1052.53
 30
0.000000
  70
    32
  0
VERTEX
  8
01
  5
14720
 10
15727.0
 20
-1052.50
 30
0.000000
  70
    32
  0
VERTEX
  8
01
  5
14721
 10
15727.0
 20
-1052.47
 30
0.000000
  70
    32
  0
VERTEX
  8
01
  5
14722
 10
15727.0
 20
-1052.44
 30
0.000000
  70
    32
  0
VERTEX
  8
01
  5
14723
 10
15727.0
 20
-1052.41
 30
0.000000
  70
    32
  0
VERTEX
  8
01
  5
14724
 10
15726.9
 20
-1052.38
 30
0.000000
  70
    32
  0
VERTEX
  8
01
  5
14725
 10
15726.9
 20
-1052.35
 30
0.000000
  70
    32
  0
VERTEX
  8
01
  5
14726
 10
15726.9
 20
-1052.32
 30
0.000000
  70
    32
  0
VERTEX
  8
01
  5
14727
 10
15726.9
 20
-1052.29
 30
0.000000
  70
    32
  0
VERTEX
  8
01
  5
14728
 10
15726.9
 20
-1052.26
 30
0.000000
  70
    32
  0
VERTEX
  8
01
  5
14729
 10
15726.9
 20
-1052.23
 30
0.000000
  70
    32
  0
VERTEX
  8
01
  5
1472A
 10
15726.9
 20
-1052.19
 30
0.000000
  70
    32
  0
VERTEX
  8
01
  5
1472B
 10
15726.9
 20
-1052.16
 30
0.000000
  70
    32
  0
VERTEX
  8
01
  5
1472C
 10
15726.9
 20
-1052.13
 30
0.000000
  70
    32
  0
VERTEX
  8
01
  5
1472D
 10
15726.9
 20
-1052.09
 30
0.000000
  70
    32
  0
VERTEX
  8
01
  5
1472E
 10
15726.8
 20
-1052.06
 30
0.000000
  70
    32
  0
VERTEX
  8
01
  5
1472F
 10
15726.8
 20
-1052.02
 30
0.000000
  70
    32
  0
VERTEX
  8
01
  5
14730
 10
15726.8
 20
-1051.99
 30
0.000000
  70
    32
  0
VERTEX
  8
01
  5
14731
 10
15726.8
 20
-1051.95
 30
0.000000
  70
    32
  0
VERTEX
  8
01
  5
14732
 10
15726.8
 20
-1051.92
 30
0.000000
  70
    32
  0
VERTEX
  8
01
  5
14733
 10
15726.8
 20
-1051.88
 30
0.000000
  70
    32
  0
VERTEX
  8
01
  5
14734
 10
15726.8
 20
-1051.84
 30
0.000000
  70
    32
  0
VERTEX
  8
01
  5
14735
 10
15726.8
 20
-1051.81
 30
0.000000
  70
    32
  0
VERTEX
  8
01
  5
14736
 10
15726.8
 20
-1051.77
 30
0.000000
  70
    32
  0
VERTEX
  8
01
  5
14737
 10
15726.8
 20
-1051.73
 30
0.000000
  70
    32
  0
VERTEX
  8
01
  5
14738
 10
15726.8
 20
-1051.69
 30
0.000000
  70
    32
  0
VERTEX
  8
01
  5
14739
 10
15726.8
 20
-1051.65
 30
0.000000
  70
    32
  0
VERTEX
  8
01
  5
1473A
 10
15726.8
 20
-1051.62
 30
0.000000
  70
    32
  0
VERTEX
  8
01
  5
1473B
 10
15726.8
 20
-1051.58
 30
0.000000
  70
    32
  0
VERTEX
  8
01
  5
1473C
 10
15726.8
 20
-1051.54
 30
0.000000
  70
    32
  0
VERTEX
  8
01
  5
1473D
 10
15726.8
 20
-1051.50
 30
0.000000
  70
    32
  0
VERTEX
  8
01
  5
1473E
 10
15726.7
 20
-1051.46
 30
0.000000
  70
    32
  0
VERTEX
  8
01
  5
1473F
 10
15726.7
 20
-1051.42
 30
0.000000
  70
    32
  0
VERTEX
  8
01
  5
14740
 10
15726.7
 20
-1051.38
 30
0.000000
  70
    32
  0
VERTEX
  8
01
  5
14741
 10
15726.7
 20
-1051.34
 30
0.000000
  70
    32
  0
VERTEX
  8
01
  5
14742
 10
15726.7
 20
-1051.30
 30
0.000000
  70
    32
  0
VERTEX
  8
01
  5
14743
 10
15726.7
 20
-1051.26
 30
0.000000
  70
    32
  0
VERTEX
  8
01
  5
14744
 10
15726.7
 20
-1051.22
 30
0.000000
  70
    32
  0
VERTEX
  8
01
  5
14745
 10
15726.7
 20
-1051.18
 30
0.000000
  70
    32
  0
VERTEX
  8
01
  5
14746
 10
15726.7
 20
-1051.14
 30
0.000000
  70
    32
  0
VERTEX
  8
01
  5
14747
 10
15726.7
 20
-1051.10
 30
0.000000
  70
    32
  0
VERTEX
  8
01
  5
14748
 10
15726.7
 20
-1051.06
 30
0.000000
  70
    32
  0
VERTEX
  8
01
  5
14749
 10
15726.7
 20
-1051.01
 30
0.000000
  70
    32
  0
VERTEX
  8
01
  5
1474A
 10
15726.7
 20
-1050.97
 30
0.000000
  70
    32
  0
VERTEX
  8
01
  5
1474B
 10
15726.7
 20
-1050.93
 30
0.000000
  70
    32
  0
VERTEX
  8
01
  5
1474C
 10
15726.7
 20
-1050.89
 30
0.000000
  70
    32
  0
VERTEX
  8
01
  5
1474D
 10
15726.7
 20
-1050.85
 30
0.000000
  70
    32
  0
VERTEX
  8
01
  5
1474E
 10
15726.7
 20
-1050.81
 30
0.000000
  70
    32
  0
VERTEX
  8
01
  5
1474F
 10
15726.7
 20
-1050.77
 30
0.000000
  70
    32
  0
VERTEX
  8
01
  5
14750
 10
15726.7
 20
-1050.73
 30
0.000000
  70
    32
  0
VERTEX
  8
01
  5
14751
 10
15726.7
 20
-1050.68
 30
0.000000
  70
    32
  0
VERTEX
  8
01
  5
14752
 10
15726.7
 20
-1050.64
 30
0.000000
  70
    32
  0
VERTEX
  8
01
  5
14753
 10
15726.7
 20
-1050.60
 30
0.000000
  70
    32
  0
VERTEX
  8
01
  5
14754
 10
15726.7
 20
-1050.56
 30
0.000000
  70
    32
  0
VERTEX
  8
01
  5
14755
 10
15726.7
 20
-1050.52
 30
0.000000
  70
    32
  0
VERTEX
  8
01
  5
14756
 10
15726.7
 20
-1050.48
 30
0.000000
  70
    32
  0
VERTEX
  8
01
  5
14757
 10
15726.7
 20
-1050.44
 30
0.000000
  70
    32
  0
VERTEX
  8
01
  5
14758
 10
15726.7
 20
-1050.40
 30
0.000000
  70
    32
  0
VERTEX
  8
01
  5
14759
 10
15726.7
 20
-1050.36
 30
0.000000
  70
    32
  0
VERTEX
  8
01
  5
1475A
 10
15726.7
 20
-1050.32
 30
0.000000
  70
    32
  0
VERTEX
  8
01
  5
1475B
 10
15726.7
 20
-1050.27
 30
0.000000
  70
    32
  0
VERTEX
  8
01
  5
1475C
 10
15726.7
 20
-1050.23
 30
0.000000
  70
    32
  0
VERTEX
  8
01
  5
1475D
 10
15726.7
 20
-1050.19
 30
0.000000
  70
    32
  0
VERTEX
  8
01
  5
1475E
 10
15726.7
 20
-1050.15
 30
0.000000
  70
    32
  0
VERTEX
  8
01
  5
1475F
 10
15726.7
 20
-1050.11
 30
0.000000
  70
    32
  0
VERTEX
  8
01
  5
14760
 10
15726.7
 20
-1050.08
 30
0.000000
  70
    32
  0
VERTEX
  8
01
  5
14761
 10
15726.8
 20
-1050.04
 30
0.000000
  70
    32
  0
VERTEX
  8
01
  5
14762
 10
15726.8
 20
-1050.00
 30
0.000000
  70
    32
  0
VERTEX
  8
01
  5
14763
 10
15726.8
 20
-1049.96
 30
0.000000
  70
    32
  0
VERTEX
  8
01
  5
14764
 10
15726.8
 20
-1049.92
 30
0.000000
  70
    32
  0
VERTEX
  8
01
  5
14765
 10
15726.8
 20
-1049.88
 30
0.000000
  70
    32
  0
VERTEX
  8
01
  5
14766
 10
15726.8
 20
-1049.84
 30
0.000000
  70
    32
  0
VERTEX
  8
01
  5
14767
 10
15726.8
 20
-1049.80
 30
0.000000
  70
    32
  0
VERTEX
  8
01
  5
14768
 10
15726.8
 20
-1049.77
 30
0.000000
  70
    32
  0
VERTEX
  8
01
  5
14769
 10
15726.8
 20
-1049.73
 30
0.000000
  70
    32
  0
VERTEX
  8
01
  5
1476A
 10
15726.8
 20
-1049.69
 30
0.000000
  70
    32
  0
VERTEX
  8
01
  5
1476B
 10
15726.8
 20
-1049.66
 30
0.000000
  70
    32
  0
VERTEX
  8
01
  5
1476C
 10
15726.8
 20
-1049.62
 30
0.000000
  70
    32
  0
VERTEX
  8
01
  5
1476D
 10
15726.8
 20
-1049.58
 30
0.000000
  70
    32
  0
VERTEX
  8
01
  5
1476E
 10
15726.8
 20
-1049.55
 30
0.000000
  70
    32
  0
VERTEX
  8
01
  5
1476F
 10
15726.8
 20
-1049.51
 30
0.000000
  70
    32
  0
VERTEX
  8
01
  5
14770
 10
15726.8
 20
-1049.48
 30
0.000000
  70
    32
  0
VERTEX
  8
01
  5
14771
 10
15726.9
 20
-1049.44
 30
0.000000
  70
    32
  0
VERTEX
  8
01
  5
14772
 10
15726.9
 20
-1049.41
 30
0.000000
  70
    32
  0
VERTEX
  8
01
  5
14773
 10
15726.9
 20
-1049.38
 30
0.000000
  70
    32
  0
VERTEX
  8
01
  5
14774
 10
15726.9
 20
-1049.34
 30
0.000000
  70
    32
  0
VERTEX
  8
01
  5
14775
 10
15726.9
 20
-1049.31
 30
0.000000
  70
    32
  0
SEQEND
  8
01
  5
14776
  0
POLYLINE
  5
13FC5
  8
01
 10
15735.107936246826
 20
-1048.7027056172203
 30
0.0
 66
     1
 70
     8
  0
VERTEX
  8
01
  5
14777
 10
15735.1
 20
-1048.70
 30
0.000000
  70
    32
  0
VERTEX
  8
01
  5
14778
 10
15735.1
 20
-1048.73
 30
0.000000
  70
    32
  0
VERTEX
  8
01
  5
14779
 10
15735.1
 20
-1048.75
 30
0.000000
  70
    32
  0
VERTEX
  8
01
  5
1477A
 10
15735.1
 20
-1048.78
 30
0.000000
  70
    32
  0
VERTEX
  8
01
  5
1477B
 10
15735.1
 20
-1048.80
 30
0.000000
  70
    32
  0
VERTEX
  8
01
  5
1477C
 10
15735.2
 20
-1048.83
 30
0.000000
  70
    32
  0
VERTEX
  8
01
  5
1477D
 10
15735.2
 20
-1048.86
 30
0.000000
  70
    32
  0
VERTEX
  8
01
  5
1477E
 10
15735.2
 20
-1048.89
 30
0.000000
  70
    32
  0
VERTEX
  8
01
  5
1477F
 10
15735.2
 20
-1048.92
 30
0.000000
  70
    32
  0
VERTEX
  8
01
  5
14780
 10
15735.2
 20
-1048.95
 30
0.000000
  70
    32
  0
VERTEX
  8
01
  5
14781
 10
15735.2
 20
-1048.98
 30
0.000000
  70
    32
  0
VERTEX
  8
01
  5
14782
 10
15735.2
 20
-1049.01
 30
0.000000
  70
    32
  0
VERTEX
  8
01
  5
14783
 10
15735.2
 20
-1049.05
 30
0.000000
  70
    32
  0
VERTEX
  8
01
  5
14784
 10
15735.2
 20
-1049.08
 30
0.000000
  70
    32
  0
VERTEX
  8
01
  5
14785
 10
15735.2
 20
-1049.11
 30
0.000000
  70
    32
  0
VERTEX
  8
01
  5
14786
 10
15735.2
 20
-1049.15
 30
0.000000
  70
    32
  0
VERTEX
  8
01
  5
14787
 10
15735.2
 20
-1049.19
 30
0.000000
  70
    32
  0
VERTEX
  8
01
  5
14788
 10
15735.3
 20
-1049.22
 30
0.000000
  70
    32
  0
VERTEX
  8
01
  5
14789
 10
15735.3
 20
-1049.26
 30
0.000000
  70
    32
  0
VERTEX
  8
01
  5
1478A
 10
15735.3
 20
-1049.30
 30
0.000000
  70
    32
  0
VERTEX
  8
01
  5
1478B
 10
15735.3
 20
-1049.34
 30
0.000000
  70
    32
  0
VERTEX
  8
01
  5
1478C
 10
15735.3
 20
-1049.37
 30
0.000000
  70
    32
  0
VERTEX
  8
01
  5
1478D
 10
15735.3
 20
-1049.41
 30
0.000000
  70
    32
  0
VERTEX
  8
01
  5
1478E
 10
15735.3
 20
-1049.45
 30
0.000000
  70
    32
  0
VERTEX
  8
01
  5
1478F
 10
15735.3
 20
-1049.49
 30
0.000000
  70
    32
  0
VERTEX
  8
01
  5
14790
 10
15735.3
 20
-1049.54
 30
0.000000
  70
    32
  0
VERTEX
  8
01
  5
14791
 10
15735.3
 20
-1049.58
 30
0.000000
  70
    32
  0
VERTEX
  8
01
  5
14792
 10
15735.3
 20
-1049.62
 30
0.000000
  70
    32
  0
VERTEX
  8
01
  5
14793
 10
15735.3
 20
-1049.66
 30
0.000000
  70
    32
  0
VERTEX
  8
01
  5
14794
 10
15735.3
 20
-1049.71
 30
0.000000
  70
    32
  0
VERTEX
  8
01
  5
14795
 10
15735.3
 20
-1049.75
 30
0.000000
  70
    32
  0
VERTEX
  8
01
  5
14796
 10
15735.3
 20
-1049.79
 30
0.000000
  70
    32
  0
VERTEX
  8
01
  5
14797
 10
15735.3
 20
-1049.84
 30
0.000000
  70
    32
  0
VERTEX
  8
01
  5
14798
 10
15735.3
 20
-1049.88
 30
0.000000
  70
    32
  0
VERTEX
  8
01
  5
14799
 10
15735.3
 20
-1049.93
 30
0.000000
  70
    32
  0
VERTEX
  8
01
  5
1479A
 10
15735.4
 20
-1049.97
 30
0.000000
  70
    32
  0
VERTEX
  8
01
  5
1479B
 10
15735.4
 20
-1050.02
 30
0.000000
  70
    32
  0
VERTEX
  8
01
  5
1479C
 10
15735.4
 20
-1050.07
 30
0.000000
  70
    32
  0
VERTEX
  8
01
  5
1479D
 10
15735.4
 20
-1050.11
 30
0.000000
  70
    32
  0
VERTEX
  8
01
  5
1479E
 10
15735.4
 20
-1050.16
 30
0.000000
  70
    32
  0
VERTEX
  8
01
  5
1479F
 10
15735.4
 20
-1050.21
 30
0.000000
  70
    32
  0
VERTEX
  8
01
  5
147A0
 10
15735.4
 20
-1050.25
 30
0.000000
  70
    32
  0
VERTEX
  8
01
  5
147A1
 10
15735.4
 20
-1050.30
 30
0.000000
  70
    32
  0
VERTEX
  8
01
  5
147A2
 10
15735.4
 20
-1050.35
 30
0.000000
  70
    32
  0
VERTEX
  8
01
  5
147A3
 10
15735.4
 20
-1050.40
 30
0.000000
  70
    32
  0
VERTEX
  8
01
  5
147A4
 10
15735.4
 20
-1050.45
 30
0.000000
  70
    32
  0
VERTEX
  8
01
  5
147A5
 10
15735.4
 20
-1050.49
 30
0.000000
  70
    32
  0
VERTEX
  8
01
  5
147A6
 10
15735.4
 20
-1050.54
 30
0.000000
  70
    32
  0
VERTEX
  8
01
  5
147A7
 10
15735.4
 20
-1050.59
 30
0.000000
  70
    32
  0
VERTEX
  8
01
  5
147A8
 10
15735.4
 20
-1050.64
 30
0.000000
  70
    32
  0
VERTEX
  8
01
  5
147A9
 10
15735.4
 20
-1050.69
 30
0.000000
  70
    32
  0
VERTEX
  8
01
  5
147AA
 10
15735.4
 20
-1050.74
 30
0.000000
  70
    32
  0
VERTEX
  8
01
  5
147AB
 10
15735.4
 20
-1050.79
 30
0.000000
  70
    32
  0
VERTEX
  8
01
  5
147AC
 10
15735.4
 20
-1050.83
 30
0.000000
  70
    32
  0
VERTEX
  8
01
  5
147AD
 10
15735.4
 20
-1050.88
 30
0.000000
  70
    32
  0
VERTEX
  8
01
  5
147AE
 10
15735.4
 20
-1050.93
 30
0.000000
  70
    32
  0
VERTEX
  8
01
  5
147AF
 10
15735.4
 20
-1050.98
 30
0.000000
  70
    32
  0
VERTEX
  8
01
  5
147B0
 10
15735.4
 20
-1051.03
 30
0.000000
  70
    32
  0
VERTEX
  8
01
  5
147B1
 10
15735.4
 20
-1051.08
 30
0.000000
  70
    32
  0
VERTEX
  8
01
  5
147B2
 10
15735.4
 20
-1051.13
 30
0.000000
  70
    32
  0
VERTEX
  8
01
  5
147B3
 10
15735.4
 20
-1051.17
 30
0.000000
  70
    32
  0
VERTEX
  8
01
  5
147B4
 10
15735.4
 20
-1051.22
 30
0.000000
  70
    32
  0
VERTEX
  8
01
  5
147B5
 10
15735.4
 20
-1051.27
 30
0.000000
  70
    32
  0
VERTEX
  8
01
  5
147B6
 10
15735.4
 20
-1051.32
 30
0.000000
  70
    32
  0
VERTEX
  8
01
  5
147B7
 10
15735.4
 20
-1051.36
 30
0.000000
  70
    32
  0
VERTEX
  8
01
  5
147B8
 10
15735.4
 20
-1051.41
 30
0.000000
  70
    32
  0
VERTEX
  8
01
  5
147B9
 10
15735.4
 20
-1051.46
 30
0.000000
  70
    32
  0
VERTEX
  8
01
  5
147BA
 10
15735.4
 20
-1051.50
 30
0.000000
  70
    32
  0
VERTEX
  8
01
  5
147BB
 10
15735.4
 20
-1051.55
 30
0.000000
  70
    32
  0
VERTEX
  8
01
  5
147BC
 10
15735.3
 20
-1051.60
 30
0.000000
  70
    32
  0
VERTEX
  8
01
  5
147BD
 10
15735.3
 20
-1051.64
 30
0.000000
  70
    32
  0
VERTEX
  8
01
  5
147BE
 10
15735.3
 20
-1051.69
 30
0.000000
  70
    32
  0
VERTEX
  8
01
  5
147BF
 10
15735.3
 20
-1051.73
 30
0.000000
  70
    32
  0
VERTEX
  8
01
  5
147C0
 10
15735.3
 20
-1051.78
 30
0.000000
  70
    32
  0
VERTEX
  8
01
  5
147C1
 10
15735.3
 20
-1051.82
 30
0.000000
  70
    32
  0
VERTEX
  8
01
  5
147C2
 10
15735.3
 20
-1051.86
 30
0.000000
  70
    32
  0
VERTEX
  8
01
  5
147C3
 10
15735.3
 20
-1051.91
 30
0.000000
  70
    32
  0
VERTEX
  8
01
  5
147C4
 10
15735.3
 20
-1051.95
 30
0.000000
  70
    32
  0
VERTEX
  8
01
  5
147C5
 10
15735.3
 20
-1051.99
 30
0.000000
  70
    32
  0
VERTEX
  8
01
  5
147C6
 10
15735.3
 20
-1052.03
 30
0.000000
  70
    32
  0
VERTEX
  8
01
  5
147C7
 10
15735.3
 20
-1052.07
 30
0.000000
  70
    32
  0
VERTEX
  8
01
  5
147C8
 10
15735.3
 20
-1052.11
 30
0.000000
  70
    32
  0
VERTEX
  8
01
  5
147C9
 10
15735.3
 20
-1052.15
 30
0.000000
  70
    32
  0
VERTEX
  8
01
  5
147CA
 10
15735.3
 20
-1052.19
 30
0.000000
  70
    32
  0
VERTEX
  8
01
  5
147CB
 10
15735.3
 20
-1052.23
 30
0.000000
  70
    32
  0
VERTEX
  8
01
  5
147CC
 10
15735.3
 20
-1052.27
 30
0.000000
  70
    32
  0
VERTEX
  8
01
  5
147CD
 10
15735.3
 20
-1052.31
 30
0.000000
  70
    32
  0
VERTEX
  8
01
  5
147CE
 10
15735.2
 20
-1052.34
 30
0.000000
  70
    32
  0
VERTEX
  8
01
  5
147CF
 10
15735.2
 20
-1052.38
 30
0.000000
  70
    32
  0
VERTEX
  8
01
  5
147D0
 10
15735.2
 20
-1052.41
 30
0.000000
  70
    32
  0
VERTEX
  8
01
  5
147D1
 10
15735.2
 20
-1052.45
 30
0.000000
  70
    32
  0
VERTEX
  8
01
  5
147D2
 10
15735.2
 20
-1052.48
 30
0.000000
  70
    32
  0
VERTEX
  8
01
  5
147D3
 10
15735.2
 20
-1052.52
 30
0.000000
  70
    32
  0
VERTEX
  8
01
  5
147D4
 10
15735.2
 20
-1052.55
 30
0.000000
  70
    32
  0
VERTEX
  8
01
  5
147D5
 10
15735.2
 20
-1052.58
 30
0.000000
  70
    32
  0
VERTEX
  8
01
  5
147D6
 10
15735.2
 20
-1052.61
 30
0.000000
  70
    32
  0
VERTEX
  8
01
  5
147D7
 10
15735.2
 20
-1052.64
 30
0.000000
  70
    32
  0
VERTEX
  8
01
  5
147D8
 10
15735.2
 20
-1052.67
 30
0.000000
  70
    32
  0
VERTEX
  8
01
  5
147D9
 10
15735.2
 20
-1052.70
 30
0.000000
  70
    32
  0
VERTEX
  8
01
  5
147DA
 10
15735.1
 20
-1052.73
 30
0.000000
  70
    32
  0
VERTEX
  8
01
  5
147DB
 10
15735.1
 20
-1052.75
 30
0.000000
  70
    32
  0
VERTEX
  8
01
  5
147DC
 10
15735.1
 20
-1052.78
 30
0.000000
  70
    32
  0
VERTEX
  8
01
  5
147DD
 10
15735.1
 20
-1052.81
 30
0.000000
  70
    32
  0
VERTEX
  8
01
  5
147DE
 10
15735.1
 20
-1052.83
 30
0.000000
  70
    32
  0
VERTEX
  8
01
  5
147DF
 10
15735.1
 20
-1052.85
 30
0.000000
  70
    32
  0
VERTEX
  8
01
  5
147E0
 10
15735.1
 20
-1052.88
 30
0.000000
  70
    32
  0
VERTEX
  8
01
  5
147E1
 10
15735.1
 20
-1052.90
 30
0.000000
  70
    32
  0
VERTEX
  8
01
  5
147E2
 10
15735.1
 20
-1052.92
 30
0.000000
  70
    32
  0
VERTEX
  8
01
  5
147E3
 10
15735.1
 20
-1052.94
 30
0.000000
  70
    32
  0
VERTEX
  8
01
  5
147E4
 10
15735.1
 20
-1052.96
 30
0.000000
  70
    32
  0
VERTEX
  8
01
  5
147E5
 10
15735.0
 20
-1052.98
 30
0.000000
  70
    32
  0
VERTEX
  8
01
  5
147E6
 10
15735.0
 20
-1052.99
 30
0.000000
  70
    32
  0
VERTEX
  8
01
  5
147E7
 10
15735.0
 20
-1053.01
 30
0.000000
  70
    32
  0
VERTEX
  8
01
  5
147E8
 10
15735.0
 20
-1053.02
 30
0.000000
  70
    32
  0
VERTEX
  8
01
  5
147E9
 10
15735.0
 20
-1053.04
 30
0.000000
  70
    32
  0
VERTEX
  8
01
  5
147EA
 10
15735.0
 20
-1053.05
 30
0.000000
  70
    32
  0
VERTEX
  8
01
  5
147EB
 10
15735.0
 20
-1053.06
 30
0.000000
  70
    32
  0
VERTEX
  8
01
  5
147EC
 10
15735.0
 20
-1053.08
 30
0.000000
  70
    32
  0
VERTEX
  8
01
  5
147ED
 10
15735.0
 20
-1053.09
 30
0.000000
  70
    32
  0
VERTEX
  8
01
  5
147EE
 10
15734.9
 20
-1053.10
 30
0.000000
  70
    32
  0
VERTEX
  8
01
  5
147EF
 10
15734.9
 20
-1053.10
 30
0.000000
  70
    32
  0
VERTEX
  8
01
  5
147F0
 10
15734.9
 20
-1053.11
 30
0.000000
  70
    32
  0
VERTEX
  8
01
  5
147F1
 10
15734.9
 20
-1053.12
 30
0.000000
  70
    32
  0
VERTEX
  8
01
  5
147F2
 10
15734.9
 20
-1053.12
 30
0.000000
  70
    32
  0
VERTEX
  8
01
  5
147F3
 10
15734.9
 20
-1053.13
 30
0.000000
  70
    32
  0
VERTEX
  8
01
  5
147F4
 10
15734.9
 20
-1053.13
 30
0.000000
  70
    32
  0
VERTEX
  8
01
  5
147F5
 10
15734.9
 20
-1053.13
 30
0.000000
  70
    32
  0
VERTEX
  8
01
  5
147F6
 10
15734.9
 20
-1053.14
 30
0.000000
  70
    32
  0
VERTEX
  8
01
  5
147F7
 10
15734.8
 20
-1053.14
 30
0.000000
  70
    32
  0
SEQEND
  8
01
  5
147F8
  0
POLYLINE
  5
13FC6
  8
01
 10
15734.84898944417
 20
-1057.6761606661919
 30
0.0
 66
     1
 70
     8
  0
VERTEX
  8
01
  5
147F9
 10
15734.8
 20
-1057.68
 30
0.000000
  70
    32
  0
VERTEX
  8
01
  5
147FA
 10
15734.9
 20
-1057.68
 30
0.000000
  70
    32
  0
VERTEX
  8
01
  5
147FB
 10
15734.9
 20
-1057.68
 30
0.000000
  70
    32
  0
VERTEX
  8
01
  5
147FC
 10
15734.9
 20
-1057.68
 30
0.000000
  70
    32
  0
VERTEX
  8
01
  5
147FD
 10
15734.9
 20
-1057.68
 30
0.000000
  70
    32
  0
VERTEX
  8
01
  5
147FE
 10
15734.9
 20
-1057.68
 30
0.000000
  70
    32
  0
VERTEX
  8
01
  5
147FF
 10
15734.9
 20
-1057.69
 30
0.000000
  70
    32
  0
VERTEX
  8
01
  5
14800
 10
15734.9
 20
-1057.69
 30
0.000000
  70
    32
  0
VERTEX
  8
01
  5
14801
 10
15734.9
 20
-1057.70
 30
0.000000
  70
    32
  0
VERTEX
  8
01
  5
14802
 10
15734.9
 20
-1057.70
 30
0.000000
  70
    32
  0
VERTEX
  8
01
  5
14803
 10
15734.9
 20
-1057.71
 30
0.000000
  70
    32
  0
VERTEX
  8
01
  5
14804
 10
15734.9
 20
-1057.72
 30
0.000000
  70
    32
  0
VERTEX
  8
01
  5
14805
 10
15734.9
 20
-1057.72
 30
0.000000
  70
    32
  0
VERTEX
  8
01
  5
14806
 10
15734.9
 20
-1057.73
 30
0.000000
  70
    32
  0
VERTEX
  8
01
  5
14807
 10
15734.9
 20
-1057.74
 30
0.000000
  70
    32
  0
VERTEX
  8
01
  5
14808
 10
15734.9
 20
-1057.75
 30
0.000000
  70
    32
  0
VERTEX
  8
01
  5
14809
 10
15735.0
 20
-1057.76
 30
0.000000
  70
    32
  0
VERTEX
  8
01
  5
1480A
 10
15735.0
 20
-1057.77
 30
0.000000
  70
    32
  0
VERTEX
  8
01
  5
1480B
 10
15735.0
 20
-1057.78
 30
0.000000
  70
    32
  0
VERTEX
  8
01
  5
1480C
 10
15735.0
 20
-1057.80
 30
0.000000
  70
    32
  0
VERTEX
  8
01
  5
1480D
 10
15735.0
 20
-1057.81
 30
0.000000
  70
    32
  0
VERTEX
  8
01
  5
1480E
 10
15735.0
 20
-1057.82
 30
0.000000
  70
    32
  0
VERTEX
  8
01
  5
1480F
 10
15735.0
 20
-1057.84
 30
0.000000
  70
    32
  0
VERTEX
  8
01
  5
14810
 10
15735.0
 20
-1057.85
 30
0.000000
  70
    32
  0
VERTEX
  8
01
  5
14811
 10
15735.0
 20
-1057.87
 30
0.000000
  70
    32
  0
VERTEX
  8
01
  5
14812
 10
15735.0
 20
-1057.89
 30
0.000000
  70
    32
  0
VERTEX
  8
01
  5
14813
 10
15735.0
 20
-1057.90
 30
0.000000
  70
    32
  0
VERTEX
  8
01
  5
14814
 10
15735.0
 20
-1057.92
 30
0.000000
  70
    32
  0
VERTEX
  8
01
  5
14815
 10
15735.0
 20
-1057.94
 30
0.000000
  70
    32
  0
VERTEX
  8
01
  5
14816
 10
15735.0
 20
-1057.96
 30
0.000000
  70
    32
  0
VERTEX
  8
01
  5
14817
 10
15735.0
 20
-1057.98
 30
0.000000
  70
    32
  0
VERTEX
  8
01
  5
14818
 10
15735.0
 20
-1058.00
 30
0.000000
  70
    32
  0
VERTEX
  8
01
  5
14819
 10
15735.1
 20
-1058.02
 30
0.000000
  70
    32
  0
VERTEX
  8
01
  5
1481A
 10
15735.1
 20
-1058.04
 30
0.000000
  70
    32
  0
VERTEX
  8
01
  5
1481B
 10
15735.1
 20
-1058.06
 30
0.000000
  70
    32
  0
VERTEX
  8
01
  5
1481C
 10
15735.1
 20
-1058.08
 30
0.000000
  70
    32
  0
VERTEX
  8
01
  5
1481D
 10
15735.1
 20
-1058.11
 30
0.000000
  70
    32
  0
VERTEX
  8
01
  5
1481E
 10
15735.1
 20
-1058.13
 30
0.000000
  70
    32
  0
VERTEX
  8
01
  5
1481F
 10
15735.1
 20
-1058.15
 30
0.000000
  70
    32
  0
VERTEX
  8
01
  5
14820
 10
15735.1
 20
-1058.18
 30
0.000000
  70
    32
  0
VERTEX
  8
01
  5
14821
 10
15735.1
 20
-1058.21
 30
0.000000
  70
    32
  0
VERTEX
  8
01
  5
14822
 10
15735.1
 20
-1058.23
 30
0.000000
  70
    32
  0
VERTEX
  8
01
  5
14823
 10
15735.1
 20
-1058.26
 30
0.000000
  70
    32
  0
VERTEX
  8
01
  5
14824
 10
15735.1
 20
-1058.29
 30
0.000000
  70
    32
  0
VERTEX
  8
01
  5
14825
 10
15735.1
 20
-1058.31
 30
0.000000
  70
    32
  0
VERTEX
  8
01
  5
14826
 10
15735.1
 20
-1058.34
 30
0.000000
  70
    32
  0
VERTEX
  8
01
  5
14827
 10
15735.1
 20
-1058.37
 30
0.000000
  70
    32
  0
VERTEX
  8
01
  5
14828
 10
15735.1
 20
-1058.40
 30
0.000000
  70
    32
  0
VERTEX
  8
01
  5
14829
 10
15735.1
 20
-1058.43
 30
0.000000
  70
    32
  0
VERTEX
  8
01
  5
1482A
 10
15735.2
 20
-1058.46
 30
0.000000
  70
    32
  0
VERTEX
  8
01
  5
1482B
 10
15735.2
 20
-1058.49
 30
0.000000
  70
    32
  0
VERTEX
  8
01
  5
1482C
 10
15735.2
 20
-1058.53
 30
0.000000
  70
    32
  0
VERTEX
  8
01
  5
1482D
 10
15735.2
 20
-1058.56
 30
0.000000
  70
    32
  0
VERTEX
  8
01
  5
1482E
 10
15735.2
 20
-1058.59
 30
0.000000
  70
    32
  0
VERTEX
  8
01
  5
1482F
 10
15735.2
 20
-1058.62
 30
0.000000
  70
    32
  0
VERTEX
  8
01
  5
14830
 10
15735.2
 20
-1058.66
 30
0.000000
  70
    32
  0
VERTEX
  8
01
  5
14831
 10
15735.2
 20
-1058.69
 30
0.000000
  70
    32
  0
VERTEX
  8
01
  5
14832
 10
15735.2
 20
-1058.73
 30
0.000000
  70
    32
  0
VERTEX
  8
01
  5
14833
 10
15735.2
 20
-1058.76
 30
0.000000
  70
    32
  0
VERTEX
  8
01
  5
14834
 10
15735.2
 20
-1058.80
 30
0.000000
  70
    32
  0
VERTEX
  8
01
  5
14835
 10
15735.2
 20
-1058.84
 30
0.000000
  70
    32
  0
VERTEX
  8
01
  5
14836
 10
15735.2
 20
-1058.87
 30
0.000000
  70
    32
  0
VERTEX
  8
01
  5
14837
 10
15735.2
 20
-1058.91
 30
0.000000
  70
    32
  0
VERTEX
  8
01
  5
14838
 10
15735.2
 20
-1058.95
 30
0.000000
  70
    32
  0
VERTEX
  8
01
  5
14839
 10
15735.2
 20
-1058.99
 30
0.000000
  70
    32
  0
VERTEX
  8
01
  5
1483A
 10
15735.2
 20
-1059.03
 30
0.000000
  70
    32
  0
VERTEX
  8
01
  5
1483B
 10
15735.2
 20
-1059.07
 30
0.000000
  70
    32
  0
VERTEX
  8
01
  5
1483C
 10
15735.2
 20
-1059.11
 30
0.000000
  70
    32
  0
VERTEX
  8
01
  5
1483D
 10
15735.2
 20
-1059.15
 30
0.000000
  70
    32
  0
VERTEX
  8
01
  5
1483E
 10
15735.2
 20
-1059.19
 30
0.000000
  70
    32
  0
VERTEX
  8
01
  5
1483F
 10
15735.3
 20
-1059.23
 30
0.000000
  70
    32
  0
VERTEX
  8
01
  5
14840
 10
15735.3
 20
-1059.27
 30
0.000000
  70
    32
  0
VERTEX
  8
01
  5
14841
 10
15735.3
 20
-1059.31
 30
0.000000
  70
    32
  0
VERTEX
  8
01
  5
14842
 10
15735.3
 20
-1059.36
 30
0.000000
  70
    32
  0
VERTEX
  8
01
  5
14843
 10
15735.3
 20
-1059.40
 30
0.000000
  70
    32
  0
VERTEX
  8
01
  5
14844
 10
15735.3
 20
-1059.44
 30
0.000000
  70
    32
  0
VERTEX
  8
01
  5
14845
 10
15735.3
 20
-1059.49
 30
0.000000
  70
    32
  0
VERTEX
  8
01
  5
14846
 10
15735.3
 20
-1059.53
 30
0.000000
  70
    32
  0
VERTEX
  8
01
  5
14847
 10
15735.3
 20
-1059.58
 30
0.000000
  70
    32
  0
VERTEX
  8
01
  5
14848
 10
15735.3
 20
-1059.62
 30
0.000000
  70
    32
  0
VERTEX
  8
01
  5
14849
 10
15735.3
 20
-1059.67
 30
0.000000
  70
    32
  0
VERTEX
  8
01
  5
1484A
 10
15735.3
 20
-1059.71
 30
0.000000
  70
    32
  0
VERTEX
  8
01
  5
1484B
 10
15735.3
 20
-1059.76
 30
0.000000
  70
    32
  0
VERTEX
  8
01
  5
1484C
 10
15735.3
 20
-1059.81
 30
0.000000
  70
    32
  0
VERTEX
  8
01
  5
1484D
 10
15735.3
 20
-1059.85
 30
0.000000
  70
    32
  0
VERTEX
  8
01
  5
1484E
 10
15735.3
 20
-1059.90
 30
0.000000
  70
    32
  0
VERTEX
  8
01
  5
1484F
 10
15735.3
 20
-1059.95
 30
0.000000
  70
    32
  0
VERTEX
  8
01
  5
14850
 10
15735.3
 20
-1060.00
 30
0.000000
  70
    32
  0
VERTEX
  8
01
  5
14851
 10
15735.3
 20
-1060.04
 30
0.000000
  70
    32
  0
VERTEX
  8
01
  5
14852
 10
15735.3
 20
-1060.09
 30
0.000000
  70
    32
  0
VERTEX
  8
01
  5
14853
 10
15735.3
 20
-1060.14
 30
0.000000
  70
    32
  0
VERTEX
  8
01
  5
14854
 10
15735.3
 20
-1060.19
 30
0.000000
  70
    32
  0
VERTEX
  8
01
  5
14855
 10
15735.3
 20
-1060.24
 30
0.000000
  70
    32
  0
VERTEX
  8
01
  5
14856
 10
15735.3
 20
-1060.29
 30
0.000000
  70
    32
  0
VERTEX
  8
01
  5
14857
 10
15735.3
 20
-1060.34
 30
0.000000
  70
    32
  0
VERTEX
  8
01
  5
14858
 10
15735.3
 20
-1060.39
 30
0.000000
  70
    32
  0
VERTEX
  8
01
  5
14859
 10
15735.3
 20
-1060.44
 30
0.000000
  70
    32
  0
VERTEX
  8
01
  5
1485A
 10
15735.3
 20
-1060.49
 30
0.000000
  70
    32
  0
VERTEX
  8
01
  5
1485B
 10
15735.3
 20
-1060.54
 30
0.000000
  70
    32
  0
VERTEX
  8
01
  5
1485C
 10
15735.3
 20
-1060.59
 30
0.000000
  70
    32
  0
VERTEX
  8
01
  5
1485D
 10
15735.4
 20
-1060.65
 30
0.000000
  70
    32
  0
VERTEX
  8
01
  5
1485E
 10
15735.4
 20
-1060.70
 30
0.000000
  70
    32
  0
VERTEX
  8
01
  5
1485F
 10
15735.4
 20
-1060.75
 30
0.000000
  70
    32
  0
VERTEX
  8
01
  5
14860
 10
15735.4
 20
-1060.80
 30
0.000000
  70
    32
  0
VERTEX
  8
01
  5
14861
 10
15735.4
 20
-1060.85
 30
0.000000
  70
    32
  0
VERTEX
  8
01
  5
14862
 10
15735.4
 20
-1060.91
 30
0.000000
  70
    32
  0
VERTEX
  8
01
  5
14863
 10
15735.4
 20
-1060.96
 30
0.000000
  70
    32
  0
VERTEX
  8
01
  5
14864
 10
15735.4
 20
-1061.01
 30
0.000000
  70
    32
  0
VERTEX
  8
01
  5
14865
 10
15735.4
 20
-1061.07
 30
0.000000
  70
    32
  0
VERTEX
  8
01
  5
14866
 10
15735.4
 20
-1061.12
 30
0.000000
  70
    32
  0
VERTEX
  8
01
  5
14867
 10
15735.4
 20
-1061.17
 30
0.000000
  70
    32
  0
VERTEX
  8
01
  5
14868
 10
15735.4
 20
-1061.23
 30
0.000000
  70
    32
  0
VERTEX
  8
01
  5
14869
 10
15735.4
 20
-1061.28
 30
0.000000
  70
    32
  0
VERTEX
  8
01
  5
1486A
 10
15735.4
 20
-1061.34
 30
0.000000
  70
    32
  0
VERTEX
  8
01
  5
1486B
 10
15735.4
 20
-1061.39
 30
0.000000
  70
    32
  0
VERTEX
  8
01
  5
1486C
 10
15735.4
 20
-1061.44
 30
0.000000
  70
    32
  0
VERTEX
  8
01
  5
1486D
 10
15735.4
 20
-1061.50
 30
0.000000
  70
    32
  0
VERTEX
  8
01
  5
1486E
 10
15735.4
 20
-1061.55
 30
0.000000
  70
    32
  0
VERTEX
  8
01
  5
1486F
 10
15735.4
 20
-1061.61
 30
0.000000
  70
    32
  0
VERTEX
  8
01
  5
14870
 10
15735.4
 20
-1061.66
 30
0.000000
  70
    32
  0
VERTEX
  8
01
  5
14871
 10
15735.4
 20
-1061.72
 30
0.000000
  70
    32
  0
VERTEX
  8
01
  5
14872
 10
15735.4
 20
-1061.77
 30
0.000000
  70
    32
  0
VERTEX
  8
01
  5
14873
 10
15735.4
 20
-1061.83
 30
0.000000
  70
    32
  0
VERTEX
  8
01
  5
14874
 10
15735.4
 20
-1061.88
 30
0.000000
  70
    32
  0
VERTEX
  8
01
  5
14875
 10
15735.4
 20
-1061.94
 30
0.000000
  70
    32
  0
VERTEX
  8
01
  5
14876
 10
15735.4
 20
-1061.99
 30
0.000000
  70
    32
  0
VERTEX
  8
01
  5
14877
 10
15735.4
 20
-1062.05
 30
0.000000
  70
    32
  0
VERTEX
  8
01
  5
14878
 10
15735.4
 20
-1062.10
 30
0.000000
  70
    32
  0
VERTEX
  8
01
  5
14879
 10
15735.4
 20
-1062.16
 30
0.000000
  70
    32
  0
SEQEND
  8
01
  5
1487A
  0
POLYLINE
  5
13FC7
  8
01
 10
15726.709989444169
 20
-1062.1551606661919
 30
0.0
 66
     1
 70
     8
  0
VERTEX
  8
01
  5
1487B
 10
15726.7
 20
-1062.16
 30
0.000000
  70
    32
  0
VERTEX
  8
01
  5
1487C
 10
15726.7
 20
-1062.10
 30
0.000000
  70
    32
  0
VERTEX
  8
01
  5
1487D
 10
15726.7
 20
-1062.05
 30
0.000000
  70
    32
  0
VERTEX
  8
01
  5
1487E
 10
15726.7
 20
-1061.99
 30
0.000000
  70
    32
  0
VERTEX
  8
01
  5
1487F
 10
15726.7
 20
-1061.94
 30
0.000000
  70
    32
  0
VERTEX
  8
01
  5
14880
 10
15726.7
 20
-1061.88
 30
0.000000
  70
    32
  0
VERTEX
  8
01
  5
14881
 10
15726.7
 20
-1061.83
 30
0.000000
  70
    32
  0
VERTEX
  8
01
  5
14882
 10
15726.7
 20
-1061.77
 30
0.000000
  70
    32
  0
VERTEX
  8
01
  5
14883
 10
15726.7
 20
-1061.72
 30
0.000000
  70
    32
  0
VERTEX
  8
01
  5
14884
 10
15726.7
 20
-1061.66
 30
0.000000
  70
    32
  0
VERTEX
  8
01
  5
14885
 10
15726.7
 20
-1061.61
 30
0.000000
  70
    32
  0
VERTEX
  8
01
  5
14886
 10
15726.7
 20
-1061.55
 30
0.000000
  70
    32
  0
VERTEX
  8
01
  5
14887
 10
15726.7
 20
-1061.50
 30
0.000000
  70
    32
  0
VERTEX
  8
01
  5
14888
 10
15726.7
 20
-1061.44
 30
0.000000
  70
    32
  0
VERTEX
  8
01
  5
14889
 10
15726.7
 20
-1061.39
 30
0.000000
  70
    32
  0
VERTEX
  8
01
  5
1488A
 10
15726.7
 20
-1061.34
 30
0.000000
  70
    32
  0
VERTEX
  8
01
  5
1488B
 10
15726.7
 20
-1061.28
 30
0.000000
  70
    32
  0
VERTEX
  8
01
  5
1488C
 10
15726.7
 20
-1061.23
 30
0.000000
  70
    32
  0
VERTEX
  8
01
  5
1488D
 10
15726.7
 20
-1061.17
 30
0.000000
  70
    32
  0
VERTEX
  8
01
  5
1488E
 10
15726.7
 20
-1061.12
 30
0.000000
  70
    32
  0
VERTEX
  8
01
  5
1488F
 10
15726.7
 20
-1061.07
 30
0.000000
  70
    32
  0
VERTEX
  8
01
  5
14890
 10
15726.7
 20
-1061.01
 30
0.000000
  70
    32
  0
VERTEX
  8
01
  5
14891
 10
15726.7
 20
-1060.96
 30
0.000000
  70
    32
  0
VERTEX
  8
01
  5
14892
 10
15726.7
 20
-1060.91
 30
0.000000
  70
    32
  0
VERTEX
  8
01
  5
14893
 10
15726.7
 20
-1060.85
 30
0.000000
  70
    32
  0
VERTEX
  8
01
  5
14894
 10
15726.8
 20
-1060.80
 30
0.000000
  70
    32
  0
VERTEX
  8
01
  5
14895
 10
15726.8
 20
-1060.75
 30
0.000000
  70
    32
  0
VERTEX
  8
01
  5
14896
 10
15726.8
 20
-1060.70
 30
0.000000
  70
    32
  0
VERTEX
  8
01
  5
14897
 10
15726.8
 20
-1060.65
 30
0.000000
  70
    32
  0
VERTEX
  8
01
  5
14898
 10
15726.8
 20
-1060.59
 30
0.000000
  70
    32
  0
VERTEX
  8
01
  5
14899
 10
15726.8
 20
-1060.54
 30
0.000000
  70
    32
  0
VERTEX
  8
01
  5
1489A
 10
15726.8
 20
-1060.49
 30
0.000000
  70
    32
  0
VERTEX
  8
01
  5
1489B
 10
15726.8
 20
-1060.44
 30
0.000000
  70
    32
  0
VERTEX
  8
01
  5
1489C
 10
15726.8
 20
-1060.39
 30
0.000000
  70
    32
  0
VERTEX
  8
01
  5
1489D
 10
15726.8
 20
-1060.34
 30
0.000000
  70
    32
  0
VERTEX
  8
01
  5
1489E
 10
15726.8
 20
-1060.29
 30
0.000000
  70
    32
  0
VERTEX
  8
01
  5
1489F
 10
15726.8
 20
-1060.24
 30
0.000000
  70
    32
  0
VERTEX
  8
01
  5
148A0
 10
15726.8
 20
-1060.19
 30
0.000000
  70
    32
  0
VERTEX
  8
01
  5
148A1
 10
15726.8
 20
-1060.14
 30
0.000000
  70
    32
  0
VERTEX
  8
01
  5
148A2
 10
15726.8
 20
-1060.09
 30
0.000000
  70
    32
  0
VERTEX
  8
01
  5
148A3
 10
15726.8
 20
-1060.04
 30
0.000000
  70
    32
  0
VERTEX
  8
01
  5
148A4
 10
15726.8
 20
-1060.00
 30
0.000000
  70
    32
  0
VERTEX
  8
01
  5
148A5
 10
15726.8
 20
-1059.95
 30
0.000000
  70
    32
  0
VERTEX
  8
01
  5
148A6
 10
15726.8
 20
-1059.90
 30
0.000000
  70
    32
  0
VERTEX
  8
01
  5
148A7
 10
15726.8
 20
-1059.85
 30
0.000000
  70
    32
  0
VERTEX
  8
01
  5
148A8
 10
15726.8
 20
-1059.81
 30
0.000000
  70
    32
  0
VERTEX
  8
01
  5
148A9
 10
15726.8
 20
-1059.76
 30
0.000000
  70
    32
  0
VERTEX
  8
01
  5
148AA
 10
15726.8
 20
-1059.71
 30
0.000000
  70
    32
  0
VERTEX
  8
01
  5
148AB
 10
15726.9
 20
-1059.67
 30
0.000000
  70
    32
  0
VERTEX
  8
01
  5
148AC
 10
15726.9
 20
-1059.62
 30
0.000000
  70
    32
  0
VERTEX
  8
01
  5
148AD
 10
15726.9
 20
-1059.58
 30
0.000000
  70
    32
  0
VERTEX
  8
01
  5
148AE
 10
15726.9
 20
-1059.53
 30
0.000000
  70
    32
  0
VERTEX
  8
01
  5
148AF
 10
15726.9
 20
-1059.49
 30
0.000000
  70
    32
  0
VERTEX
  8
01
  5
148B0
 10
15726.9
 20
-1059.44
 30
0.000000
  70
    32
  0
VERTEX
  8
01
  5
148B1
 10
15726.9
 20
-1059.40
 30
0.000000
  70
    32
  0
VERTEX
  8
01
  5
148B2
 10
15726.9
 20
-1059.36
 30
0.000000
  70
    32
  0
VERTEX
  8
01
  5
148B3
 10
15726.9
 20
-1059.31
 30
0.000000
  70
    32
  0
VERTEX
  8
01
  5
148B4
 10
15726.9
 20
-1059.27
 30
0.000000
  70
    32
  0
VERTEX
  8
01
  5
148B5
 10
15726.9
 20
-1059.23
 30
0.000000
  70
    32
  0
VERTEX
  8
01
  5
148B6
 10
15726.9
 20
-1059.19
 30
0.000000
  70
    32
  0
VERTEX
  8
01
  5
148B7
 10
15726.9
 20
-1059.15
 30
0.000000
  70
    32
  0
VERTEX
  8
01
  5
148B8
 10
15726.9
 20
-1059.11
 30
0.000000
  70
    32
  0
VERTEX
  8
01
  5
148B9
 10
15726.9
 20
-1059.07
 30
0.000000
  70
    32
  0
VERTEX
  8
01
  5
148BA
 10
15727.0
 20
-1059.03
 30
0.000000
  70
    32
  0
VERTEX
  8
01
  5
148BB
 10
15727.0
 20
-1058.99
 30
0.000000
  70
    32
  0
VERTEX
  8
01
  5
148BC
 10
15727.0
 20
-1058.95
 30
0.000000
  70
    32
  0
VERTEX
  8
01
  5
148BD
 10
15727.0
 20
-1058.91
 30
0.000000
  70
    32
  0
VERTEX
  8
01
  5
148BE
 10
15727.0
 20
-1058.87
 30
0.000000
  70
    32
  0
VERTEX
  8
01
  5
148BF
 10
15727.0
 20
-1058.84
 30
0.000000
  70
    32
  0
VERTEX
  8
01
  5
148C0
 10
15727.0
 20
-1058.80
 30
0.000000
  70
    32
  0
VERTEX
  8
01
  5
148C1
 10
15727.0
 20
-1058.76
 30
0.000000
  70
    32
  0
VERTEX
  8
01
  5
148C2
 10
15727.0
 20
-1058.73
 30
0.000000
  70
    32
  0
VERTEX
  8
01
  5
148C3
 10
15727.0
 20
-1058.69
 30
0.000000
  70
    32
  0
VERTEX
  8
01
  5
148C4
 10
15727.0
 20
-1058.66
 30
0.000000
  70
    32
  0
VERTEX
  8
01
  5
148C5
 10
15727.0
 20
-1058.62
 30
0.000000
  70
    32
  0
VERTEX
  8
01
  5
148C6
 10
15727.0
 20
-1058.59
 30
0.000000
  70
    32
  0
VERTEX
  8
01
  5
148C7
 10
15727.1
 20
-1058.56
 30
0.000000
  70
    32
  0
VERTEX
  8
01
  5
148C8
 10
15727.1
 20
-1058.53
 30
0.000000
  70
    32
  0
VERTEX
  8
01
  5
148C9
 10
15727.1
 20
-1058.49
 30
0.000000
  70
    32
  0
VERTEX
  8
01
  5
148CA
 10
15727.1
 20
-1058.46
 30
0.000000
  70
    32
  0
VERTEX
  8
01
  5
148CB
 10
15727.1
 20
-1058.43
 30
0.000000
  70
    32
  0
VERTEX
  8
01
  5
148CC
 10
15727.1
 20
-1058.40
 30
0.000000
  70
    32
  0
VERTEX
  8
01
  5
148CD
 10
15727.1
 20
-1058.37
 30
0.000000
  70
    32
  0
VERTEX
  8
01
  5
148CE
 10
15727.1
 20
-1058.34
 30
0.000000
  70
    32
  0
VERTEX
  8
01
  5
148CF
 10
15727.1
 20
-1058.31
 30
0.000000
  70
    32
  0
VERTEX
  8
01
  5
148D0
 10
15727.1
 20
-1058.29
 30
0.000000
  70
    32
  0
VERTEX
  8
01
  5
148D1
 10
15727.1
 20
-1058.26
 30
0.000000
  70
    32
  0
VERTEX
  8
01
  5
148D2
 10
15727.2
 20
-1058.23
 30
0.000000
  70
    32
  0
VERTEX
  8
01
  5
148D3
 10
15727.2
 20
-1058.21
 30
0.000000
  70
    32
  0
VERTEX
  8
01
  5
148D4
 10
15727.2
 20
-1058.18
 30
0.000000
  70
    32
  0
VERTEX
  8
01
  5
148D5
 10
15727.2
 20
-1058.15
 30
0.000000
  70
    32
  0
VERTEX
  8
01
  5
148D6
 10
15727.2
 20
-1058.13
 30
0.000000
  70
    32
  0
VERTEX
  8
01
  5
148D7
 10
15727.2
 20
-1058.11
 30
0.000000
  70
    32
  0
VERTEX
  8
01
  5
148D8
 10
15727.2
 20
-1058.08
 30
0.000000
  70
    32
  0
VERTEX
  8
01
  5
148D9
 10
15727.2
 20
-1058.06
 30
0.000000
  70
    32
  0
VERTEX
  8
01
  5
148DA
 10
15727.2
 20
-1058.04
 30
0.000000
  70
    32
  0
VERTEX
  8
01
  5
148DB
 10
15727.2
 20
-1058.02
 30
0.000000
  70
    32
  0
VERTEX
  8
01
  5
148DC
 10
15727.3
 20
-1058.00
 30
0.000000
  70
    32
  0
VERTEX
  8
01
  5
148DD
 10
15727.3
 20
-1057.98
 30
0.000000
  70
    32
  0
VERTEX
  8
01
  5
148DE
 10
15727.3
 20
-1057.96
 30
0.000000
  70
    32
  0
VERTEX
  8
01
  5
148DF
 10
15727.3
 20
-1057.94
 30
0.000000
  70
    32
  0
VERTEX
  8
01
  5
148E0
 10
15727.3
 20
-1057.92
 30
0.000000
  70
    32
  0
VERTEX
  8
01
  5
148E1
 10
15727.3
 20
-1057.90
 30
0.000000
  70
    32
  0
VERTEX
  8
01
  5
148E2
 10
15727.3
 20
-1057.89
 30
0.000000
  70
    32
  0
VERTEX
  8
01
  5
148E3
 10
15727.3
 20
-1057.87
 30
0.000000
  70
    32
  0
VERTEX
  8
01
  5
148E4
 10
15727.3
 20
-1057.85
 30
0.000000
  70
    32
  0
VERTEX
  8
01
  5
148E5
 10
15727.3
 20
-1057.84
 30
0.000000
  70
    32
  0
VERTEX
  8
01
  5
148E6
 10
15727.4
 20
-1057.82
 30
0.000000
  70
    32
  0
VERTEX
  8
01
  5
148E7
 10
15727.4
 20
-1057.81
 30
0.000000
  70
    32
  0
VERTEX
  8
01
  5
148E8
 10
15727.4
 20
-1057.80
 30
0.000000
  70
    32
  0
VERTEX
  8
01
  5
148E9
 10
15727.4
 20
-1057.78
 30
0.000000
  70
    32
  0
VERTEX
  8
01
  5
148EA
 10
15727.4
 20
-1057.77
 30
0.000000
  70
    32
  0
VERTEX
  8
01
  5
148EB
 10
15727.4
 20
-1057.76
 30
0.000000
  70
    32
  0
VERTEX
  8
01
  5
148EC
 10
15727.4
 20
-1057.75
 30
0.000000
  70
    32
  0
VERTEX
  8
01
  5
148ED
 10
15727.4
 20
-1057.74
 30
0.000000
  70
    32
  0
VERTEX
  8
01
  5
148EE
 10
15727.4
 20
-1057.73
 30
0.000000
  70
    32
  0
VERTEX
  8
01
  5
148EF
 10
15727.4
 20
-1057.72
 30
0.000000
  70
    32
  0
VERTEX
  8
01
  5
148F0
 10
15727.5
 20
-1057.72
 30
0.000000
  70
    32
  0
VERTEX
  8
01
  5
148F1
 10
15727.5
 20
-1057.71
 30
0.000000
  70
    32
  0
VERTEX
  8
01
  5
148F2
 10
15727.5
 20
-1057.70
 30
0.000000
  70
    32
  0
VERTEX
  8
01
  5
148F3
 10
15727.5
 20
-1057.70
 30
0.000000
  70
    32
  0
VERTEX
  8
01
  5
148F4
 10
15727.5
 20
-1057.69
 30
0.000000
  70
    32
  0
VERTEX
  8
01
  5
148F5
 10
15727.5
 20
-1057.69
 30
0.000000
  70
    32
  0
VERTEX
  8
01
  5
148F6
 10
15727.5
 20
-1057.68
 30
0.000000
  70
    32
  0
VERTEX
  8
01
  5
148F7
 10
15727.5
 20
-1057.68
 30
0.000000
  70
    32
  0
VERTEX
  8
01
  5
148F8
 10
15727.5
 20
-1057.68
 30
0.000000
  70
    32
  0
VERTEX
  8
01
  5
148F9
 10
15727.5
 20
-1057.68
 30
0.000000
  70
    32
  0
VERTEX
  8
01
  5
148FA
 10
15727.6
 20
-1057.68
 30
0.000000
  70
    32
  0
VERTEX
  8
01
  5
148FB
 10
15727.6
 20
-1057.68
 30
0.000000
  70
    32
  0
SEQEND
  8
01
  5
148FC
  0
LINE
  5
13FC8
  8
01
 10
15734.84898944417
 20
-1057.6761606661919
 30
0.0
 11
15727.57098944417
 21
-1057.6761606661919
 31
0.0
  0
LINE
  5
13FC9
  8
01
 10
15734.84898944417
 20
-1053.1361606661919
 30
0.0
 11
15727.57098944417
 21
-1053.1361606661919
 31
0.0
  0
LINE
  5
13FCA
  8
01
 10
15727.57098944417
 20
-1057.6761606661919
 30
0.0
 11
15727.57098944417
 21
-1053.1361606661919
 31
0.0
  0
LINE
  5
13FCB
  8
01
 10
15734.84898944417
 20
-1053.1361606661919
 30
0.0
 11
15734.84898944417
 21
-1057.6761606661919
 31
0.0
  0
POLYLINE
  5
13FCC
  8
01
 10
15735.107936246826
 20
-1075.6076157151638
 30
0.0
 66
     1
 70
     8
  0
VERTEX
  8
01
  5
148FD
 10
15735.1
 20
-1075.61
 30
0.000000
  70
    32
  0
VERTEX
  8
01
  5
148FE
 10
15735.1
 20
-1075.58
 30
0.000000
  70
    32
  0
VERTEX
  8
01
  5
148FF
 10
15735.1
 20
-1075.56
 30
0.000000
  70
    32
  0
VERTEX
  8
01
  5
14900
 10
15735.1
 20
-1075.53
 30
0.000000
  70
    32
  0
VERTEX
  8
01
  5
14901
 10
15735.1
 20
-1075.51
 30
0.000000
  70
    32
  0
VERTEX
  8
01
  5
14902
 10
15735.2
 20
-1075.48
 30
0.000000
  70
    32
  0
VERTEX
  8
01
  5
14903
 10
15735.2
 20
-1075.45
 30
0.000000
  70
    32
  0
VERTEX
  8
01
  5
14904
 10
15735.2
 20
-1075.42
 30
0.000000
  70
    32
  0
VERTEX
  8
01
  5
14905
 10
15735.2
 20
-1075.39
 30
0.000000
  70
    32
  0
VERTEX
  8
01
  5
14906
 10
15735.2
 20
-1075.36
 30
0.000000
  70
    32
  0
VERTEX
  8
01
  5
14907
 10
15735.2
 20
-1075.33
 30
0.000000
  70
    32
  0
VERTEX
  8
01
  5
14908
 10
15735.2
 20
-1075.30
 30
0.000000
  70
    32
  0
VERTEX
  8
01
  5
14909
 10
15735.2
 20
-1075.26
 30
0.000000
  70
    32
  0
VERTEX
  8
01
  5
1490A
 10
15735.2
 20
-1075.23
 30
0.000000
  70
    32
  0
VERTEX
  8
01
  5
1490B
 10
15735.2
 20
-1075.20
 30
0.000000
  70
    32
  0
VERTEX
  8
01
  5
1490C
 10
15735.2
 20
-1075.16
 30
0.000000
  70
    32
  0
VERTEX
  8
01
  5
1490D
 10
15735.2
 20
-1075.12
 30
0.000000
  70
    32
  0
VERTEX
  8
01
  5
1490E
 10
15735.3
 20
-1075.09
 30
0.000000
  70
    32
  0
VERTEX
  8
01
  5
1490F
 10
15735.3
 20
-1075.05
 30
0.000000
  70
    32
  0
VERTEX
  8
01
  5
14910
 10
15735.3
 20
-1075.01
 30
0.000000
  70
    32
  0
VERTEX
  8
01
  5
14911
 10
15735.3
 20
-1074.98
 30
0.000000
  70
    32
  0
VERTEX
  8
01
  5
14912
 10
15735.3
 20
-1074.94
 30
0.000000
  70
    32
  0
VERTEX
  8
01
  5
14913
 10
15735.3
 20
-1074.90
 30
0.000000
  70
    32
  0
VERTEX
  8
01
  5
14914
 10
15735.3
 20
-1074.86
 30
0.000000
  70
    32
  0
VERTEX
  8
01
  5
14915
 10
15735.3
 20
-1074.82
 30
0.000000
  70
    32
  0
VERTEX
  8
01
  5
14916
 10
15735.3
 20
-1074.77
 30
0.000000
  70
    32
  0
VERTEX
  8
01
  5
14917
 10
15735.3
 20
-1074.73
 30
0.000000
  70
    32
  0
VERTEX
  8
01
  5
14918
 10
15735.3
 20
-1074.69
 30
0.000000
  70
    32
  0
VERTEX
  8
01
  5
14919
 10
15735.3
 20
-1074.65
 30
0.000000
  70
    32
  0
VERTEX
  8
01
  5
1491A
 10
15735.3
 20
-1074.60
 30
0.000000
  70
    32
  0
VERTEX
  8
01
  5
1491B
 10
15735.3
 20
-1074.56
 30
0.000000
  70
    32
  0
VERTEX
  8
01
  5
1491C
 10
15735.3
 20
-1074.52
 30
0.000000
  70
    32
  0
VERTEX
  8
01
  5
1491D
 10
15735.3
 20
-1074.47
 30
0.000000
  70
    32
  0
VERTEX
  8
01
  5
1491E
 10
15735.3
 20
-1074.43
 30
0.000000
  70
    32
  0
VERTEX
  8
01
  5
1491F
 10
15735.3
 20
-1074.38
 30
0.000000
  70
    32
  0
VERTEX
  8
01
  5
14920
 10
15735.4
 20
-1074.34
 30
0.000000
  70
    32
  0
VERTEX
  8
01
  5
14921
 10
15735.4
 20
-1074.29
 30
0.000000
  70
    32
  0
VERTEX
  8
01
  5
14922
 10
15735.4
 20
-1074.24
 30
0.000000
  70
    32
  0
VERTEX
  8
01
  5
14923
 10
15735.4
 20
-1074.20
 30
0.000000
  70
    32
  0
VERTEX
  8
01
  5
14924
 10
15735.4
 20
-1074.15
 30
0.000000
  70
    32
  0
VERTEX
  8
01
  5
14925
 10
15735.4
 20
-1074.10
 30
0.000000
  70
    32
  0
VERTEX
  8
01
  5
14926
 10
15735.4
 20
-1074.06
 30
0.000000
  70
    32
  0
VERTEX
  8
01
  5
14927
 10
15735.4
 20
-1074.01
 30
0.000000
  70
    32
  0
VERTEX
  8
01
  5
14928
 10
15735.4
 20
-1073.96
 30
0.000000
  70
    32
  0
VERTEX
  8
01
  5
14929
 10
15735.4
 20
-1073.91
 30
0.000000
  70
    32
  0
VERTEX
  8
01
  5
1492A
 10
15735.4
 20
-1073.86
 30
0.000000
  70
    32
  0
VERTEX
  8
01
  5
1492B
 10
15735.4
 20
-1073.82
 30
0.000000
  70
    32
  0
VERTEX
  8
01
  5
1492C
 10
15735.4
 20
-1073.77
 30
0.000000
  70
    32
  0
VERTEX
  8
01
  5
1492D
 10
15735.4
 20
-1073.72
 30
0.000000
  70
    32
  0
VERTEX
  8
01
  5
1492E
 10
15735.4
 20
-1073.67
 30
0.000000
  70
    32
  0
VERTEX
  8
01
  5
1492F
 10
15735.4
 20
-1073.62
 30
0.000000
  70
    32
  0
VERTEX
  8
01
  5
14930
 10
15735.4
 20
-1073.57
 30
0.000000
  70
    32
  0
VERTEX
  8
01
  5
14931
 10
15735.4
 20
-1073.52
 30
0.000000
  70
    32
  0
VERTEX
  8
01
  5
14932
 10
15735.4
 20
-1073.48
 30
0.000000
  70
    32
  0
VERTEX
  8
01
  5
14933
 10
15735.4
 20
-1073.43
 30
0.000000
  70
    32
  0
VERTEX
  8
01
  5
14934
 10
15735.4
 20
-1073.38
 30
0.000000
  70
    32
  0
VERTEX
  8
01
  5
14935
 10
15735.4
 20
-1073.33
 30
0.000000
  70
    32
  0
VERTEX
  8
01
  5
14936
 10
15735.4
 20
-1073.28
 30
0.000000
  70
    32
  0
VERTEX
  8
01
  5
14937
 10
15735.4
 20
-1073.23
 30
0.000000
  70
    32
  0
VERTEX
  8
01
  5
14938
 10
15735.4
 20
-1073.18
 30
0.000000
  70
    32
  0
VERTEX
  8
01
  5
14939
 10
15735.4
 20
-1073.14
 30
0.000000
  70
    32
  0
VERTEX
  8
01
  5
1493A
 10
15735.4
 20
-1073.09
 30
0.000000
  70
    32
  0
VERTEX
  8
01
  5
1493B
 10
15735.4
 20
-1073.04
 30
0.000000
  70
    32
  0
VERTEX
  8
01
  5
1493C
 10
15735.4
 20
-1072.99
 30
0.000000
  70
    32
  0
VERTEX
  8
01
  5
1493D
 10
15735.4
 20
-1072.95
 30
0.000000
  70
    32
  0
VERTEX
  8
01
  5
1493E
 10
15735.4
 20
-1072.90
 30
0.000000
  70
    32
  0
VERTEX
  8
01
  5
1493F
 10
15735.4
 20
-1072.85
 30
0.000000
  70
    32
  0
VERTEX
  8
01
  5
14940
 10
15735.4
 20
-1072.81
 30
0.000000
  70
    32
  0
VERTEX
  8
01
  5
14941
 10
15735.4
 20
-1072.76
 30
0.000000
  70
    32
  0
VERTEX
  8
01
  5
14942
 10
15735.3
 20
-1072.71
 30
0.000000
  70
    32
  0
VERTEX
  8
01
  5
14943
 10
15735.3
 20
-1072.67
 30
0.000000
  70
    32
  0
VERTEX
  8
01
  5
14944
 10
15735.3
 20
-1072.62
 30
0.000000
  70
    32
  0
VERTEX
  8
01
  5
14945
 10
15735.3
 20
-1072.58
 30
0.000000
  70
    32
  0
VERTEX
  8
01
  5
14946
 10
15735.3
 20
-1072.53
 30
0.000000
  70
    32
  0
VERTEX
  8
01
  5
14947
 10
15735.3
 20
-1072.49
 30
0.000000
  70
    32
  0
VERTEX
  8
01
  5
14948
 10
15735.3
 20
-1072.45
 30
0.000000
  70
    32
  0
VERTEX
  8
01
  5
14949
 10
15735.3
 20
-1072.40
 30
0.000000
  70
    32
  0
VERTEX
  8
01
  5
1494A
 10
15735.3
 20
-1072.36
 30
0.000000
  70
    32
  0
VERTEX
  8
01
  5
1494B
 10
15735.3
 20
-1072.32
 30
0.000000
  70
    32
  0
VERTEX
  8
01
  5
1494C
 10
15735.3
 20
-1072.28
 30
0.000000
  70
    32
  0
VERTEX
  8
01
  5
1494D
 10
15735.3
 20
-1072.24
 30
0.000000
  70
    32
  0
VERTEX
  8
01
  5
1494E
 10
15735.3
 20
-1072.20
 30
0.000000
  70
    32
  0
VERTEX
  8
01
  5
1494F
 10
15735.3
 20
-1072.16
 30
0.000000
  70
    32
  0
VERTEX
  8
01
  5
14950
 10
15735.3
 20
-1072.12
 30
0.000000
  70
    32
  0
VERTEX
  8
01
  5
14951
 10
15735.3
 20
-1072.08
 30
0.000000
  70
    32
  0
VERTEX
  8
01
  5
14952
 10
15735.3
 20
-1072.04
 30
0.000000
  70
    32
  0
VERTEX
  8
01
  5
14953
 10
15735.3
 20
-1072.00
 30
0.000000
  70
    32
  0
VERTEX
  8
01
  5
14954
 10
15735.2
 20
-1071.97
 30
0.000000
  70
    32
  0
VERTEX
  8
01
  5
14955
 10
15735.2
 20
-1071.93
 30
0.000000
  70
    32
  0
VERTEX
  8
01
  5
14956
 10
15735.2
 20
-1071.90
 30
0.000000
  70
    32
  0
VERTEX
  8
01
  5
14957
 10
15735.2
 20
-1071.86
 30
0.000000
  70
    32
  0
VERTEX
  8
01
  5
14958
 10
15735.2
 20
-1071.83
 30
0.000000
  70
    32
  0
VERTEX
  8
01
  5
14959
 10
15735.2
 20
-1071.79
 30
0.000000
  70
    32
  0
VERTEX
  8
01
  5
1495A
 10
15735.2
 20
-1071.76
 30
0.000000
  70
    32
  0
VERTEX
  8
01
  5
1495B
 10
15735.2
 20
-1071.73
 30
0.000000
  70
    32
  0
VERTEX
  8
01
  5
1495C
 10
15735.2
 20
-1071.70
 30
0.000000
  70
    32
  0
VERTEX
  8
01
  5
1495D
 10
15735.2
 20
-1071.67
 30
0.000000
  70
    32
  0
VERTEX
  8
01
  5
1495E
 10
15735.2
 20
-1071.64
 30
0.000000
  70
    32
  0
VERTEX
  8
01
  5
1495F
 10
15735.2
 20
-1071.61
 30
0.000000
  70
    32
  0
VERTEX
  8
01
  5
14960
 10
15735.1
 20
-1071.58
 30
0.000000
  70
    32
  0
VERTEX
  8
01
  5
14961
 10
15735.1
 20
-1071.56
 30
0.000000
  70
    32
  0
VERTEX
  8
01
  5
14962
 10
15735.1
 20
-1071.53
 30
0.000000
  70
    32
  0
VERTEX
  8
01
  5
14963
 10
15735.1
 20
-1071.50
 30
0.000000
  70
    32
  0
VERTEX
  8
01
  5
14964
 10
15735.1
 20
-1071.48
 30
0.000000
  70
    32
  0
VERTEX
  8
01
  5
14965
 10
15735.1
 20
-1071.46
 30
0.000000
  70
    32
  0
VERTEX
  8
01
  5
14966
 10
15735.1
 20
-1071.43
 30
0.000000
  70
    32
  0
VERTEX
  8
01
  5
14967
 10
15735.1
 20
-1071.41
 30
0.000000
  70
    32
  0
VERTEX
  8
01
  5
14968
 10
15735.1
 20
-1071.39
 30
0.000000
  70
    32
  0
VERTEX
  8
01
  5
14969
 10
15735.1
 20
-1071.37
 30
0.000000
  70
    32
  0
VERTEX
  8
01
  5
1496A
 10
15735.1
 20
-1071.35
 30
0.000000
  70
    32
  0
VERTEX
  8
01
  5
1496B
 10
15735.0
 20
-1071.33
 30
0.000000
  70
    32
  0
VERTEX
  8
01
  5
1496C
 10
15735.0
 20
-1071.32
 30
0.000000
  70
    32
  0
VERTEX
  8
01
  5
1496D
 10
15735.0
 20
-1071.30
 30
0.000000
  70
    32
  0
VERTEX
  8
01
  5
1496E
 10
15735.0
 20
-1071.29
 30
0.000000
  70
    32
  0
VERTEX
  8
01
  5
1496F
 10
15735.0
 20
-1071.27
 30
0.000000
  70
    32
  0
VERTEX
  8
01
  5
14970
 10
15735.0
 20
-1071.26
 30
0.000000
  70
    32
  0
VERTEX
  8
01
  5
14971
 10
15735.0
 20
-1071.25
 30
0.000000
  70
    32
  0
VERTEX
  8
01
  5
14972
 10
15735.0
 20
-1071.23
 30
0.000000
  70
    32
  0
VERTEX
  8
01
  5
14973
 10
15735.0
 20
-1071.22
 30
0.000000
  70
    32
  0
VERTEX
  8
01
  5
14974
 10
15734.9
 20
-1071.21
 30
0.000000
  70
    32
  0
VERTEX
  8
01
  5
14975
 10
15734.9
 20
-1071.21
 30
0.000000
  70
    32
  0
VERTEX
  8
01
  5
14976
 10
15734.9
 20
-1071.20
 30
0.000000
  70
    32
  0
VERTEX
  8
01
  5
14977
 10
15734.9
 20
-1071.19
 30
0.000000
  70
    32
  0
VERTEX
  8
01
  5
14978
 10
15734.9
 20
-1071.19
 30
0.000000
  70
    32
  0
VERTEX
  8
01
  5
14979
 10
15734.9
 20
-1071.18
 30
0.000000
  70
    32
  0
VERTEX
  8
01
  5
1497A
 10
15734.9
 20
-1071.18
 30
0.000000
  70
    32
  0
VERTEX
  8
01
  5
1497B
 10
15734.9
 20
-1071.18
 30
0.000000
  70
    32
  0
VERTEX
  8
01
  5
1497C
 10
15734.9
 20
-1071.17
 30
0.000000
  70
    32
  0
VERTEX
  8
01
  5
1497D
 10
15734.8
 20
-1071.17
 30
0.000000
  70
    32
  0
SEQEND
  8
01
  5
1497E
  0
LINE
  5
13FCD
  8
01
 10
15734.84898944417
 20
-1071.1741606661919
 30
0.0
 11
15734.84898944417
 21
-1066.634160666192
 31
0.0
  0
LINE
  5
13FCE
  8
01
 10
15727.57098944417
 20
-1066.634160666192
 30
0.0
 11
15727.57098944417
 21
-1071.1741606661919
 31
0.0
  0
LINE
  5
13FCF
  8
01
 10
15734.84898944417
 20
-1071.1741606661919
 30
0.0
 11
15727.57098944417
 21
-1071.1741606661919
 31
0.0
  0
LINE
  5
13FD0
  8
01
 10
15734.84898944417
 20
-1066.634160666192
 30
0.0
 11
15727.57098944417
 21
-1066.634160666192
 31
0.0
  0
POLYLINE
  5
13FD1
  8
01
 10
15726.709989444169
 20
-1062.1551606661919
 30
0.0
 66
     1
 70
     8
  0
VERTEX
  8
01
  5
1497F
 10
15726.7
 20
-1062.16
 30
0.000000
  70
    32
  0
VERTEX
  8
01
  5
14980
 10
15726.7
 20
-1062.21
 30
0.000000
  70
    32
  0
VERTEX
  8
01
  5
14981
 10
15726.7
 20
-1062.27
 30
0.000000
  70
    32
  0
VERTEX
  8
01
  5
14982
 10
15726.7
 20
-1062.32
 30
0.000000
  70
    32
  0
VERTEX
  8
01
  5
14983
 10
15726.7
 20
-1062.37
 30
0.000000
  70
    32
  0
VERTEX
  8
01
  5
14984
 10
15726.7
 20
-1062.43
 30
0.000000
  70
    32
  0
VERTEX
  8
01
  5
14985
 10
15726.7
 20
-1062.48
 30
0.000000
  70
    32
  0
VERTEX
  8
01
  5
14986
 10
15726.7
 20
-1062.54
 30
0.000000
  70
    32
  0
VERTEX
  8
01
  5
14987
 10
15726.7
 20
-1062.59
 30
0.000000
  70
    32
  0
VERTEX
  8
01
  5
14988
 10
15726.7
 20
-1062.65
 30
0.000000
  70
    32
  0
VERTEX
  8
01
  5
14989
 10
15726.7
 20
-1062.70
 30
0.000000
  70
    32
  0
VERTEX
  8
01
  5
1498A
 10
15726.7
 20
-1062.76
 30
0.000000
  70
    32
  0
VERTEX
  8
01
  5
1498B
 10
15726.7
 20
-1062.81
 30
0.000000
  70
    32
  0
VERTEX
  8
01
  5
1498C
 10
15726.7
 20
-1062.87
 30
0.000000
  70
    32
  0
VERTEX
  8
01
  5
1498D
 10
15726.7
 20
-1062.92
 30
0.000000
  70
    32
  0
VERTEX
  8
01
  5
1498E
 10
15726.7
 20
-1062.97
 30
0.000000
  70
    32
  0
VERTEX
  8
01
  5
1498F
 10
15726.7
 20
-1063.03
 30
0.000000
  70
    32
  0
VERTEX
  8
01
  5
14990
 10
15726.7
 20
-1063.08
 30
0.000000
  70
    32
  0
VERTEX
  8
01
  5
14991
 10
15726.7
 20
-1063.14
 30
0.000000
  70
    32
  0
VERTEX
  8
01
  5
14992
 10
15726.7
 20
-1063.19
 30
0.000000
  70
    32
  0
VERTEX
  8
01
  5
14993
 10
15726.7
 20
-1063.24
 30
0.000000
  70
    32
  0
VERTEX
  8
01
  5
14994
 10
15726.7
 20
-1063.30
 30
0.000000
  70
    32
  0
VERTEX
  8
01
  5
14995
 10
15726.7
 20
-1063.35
 30
0.000000
  70
    32
  0
VERTEX
  8
01
  5
14996
 10
15726.7
 20
-1063.40
 30
0.000000
  70
    32
  0
VERTEX
  8
01
  5
14997
 10
15726.7
 20
-1063.46
 30
0.000000
  70
    32
  0
VERTEX
  8
01
  5
14998
 10
15726.8
 20
-1063.51
 30
0.000000
  70
    32
  0
VERTEX
  8
01
  5
14999
 10
15726.8
 20
-1063.56
 30
0.000000
  70
    32
  0
VERTEX
  8
01
  5
1499A
 10
15726.8
 20
-1063.61
 30
0.000000
  70
    32
  0
VERTEX
  8
01
  5
1499B
 10
15726.8
 20
-1063.66
 30
0.000000
  70
    32
  0
VERTEX
  8
01
  5
1499C
 10
15726.8
 20
-1063.72
 30
0.000000
  70
    32
  0
VERTEX
  8
01
  5
1499D
 10
15726.8
 20
-1063.77
 30
0.000000
  70
    32
  0
VERTEX
  8
01
  5
1499E
 10
15726.8
 20
-1063.82
 30
0.000000
  70
    32
  0
VERTEX
  8
01
  5
1499F
 10
15726.8
 20
-1063.87
 30
0.000000
  70
    32
  0
VERTEX
  8
01
  5
149A0
 10
15726.8
 20
-1063.92
 30
0.000000
  70
    32
  0
VERTEX
  8
01
  5
149A1
 10
15726.8
 20
-1063.97
 30
0.000000
  70
    32
  0
VERTEX
  8
01
  5
149A2
 10
15726.8
 20
-1064.02
 30
0.000000
  70
    32
  0
VERTEX
  8
01
  5
149A3
 10
15726.8
 20
-1064.07
 30
0.000000
  70
    32
  0
VERTEX
  8
01
  5
149A4
 10
15726.8
 20
-1064.12
 30
0.000000
  70
    32
  0
VERTEX
  8
01
  5
149A5
 10
15726.8
 20
-1064.17
 30
0.000000
  70
    32
  0
VERTEX
  8
01
  5
149A6
 10
15726.8
 20
-1064.22
 30
0.000000
  70
    32
  0
VERTEX
  8
01
  5
149A7
 10
15726.8
 20
-1064.27
 30
0.000000
  70
    32
  0
VERTEX
  8
01
  5
149A8
 10
15726.8
 20
-1064.31
 30
0.000000
  70
    32
  0
VERTEX
  8
01
  5
149A9
 10
15726.8
 20
-1064.36
 30
0.000000
  70
    32
  0
VERTEX
  8
01
  5
149AA
 10
15726.8
 20
-1064.41
 30
0.000000
  70
    32
  0
VERTEX
  8
01
  5
149AB
 10
15726.8
 20
-1064.46
 30
0.000000
  70
    32
  0
VERTEX
  8
01
  5
149AC
 10
15726.8
 20
-1064.50
 30
0.000000
  70
    32
  0
VERTEX
  8
01
  5
149AD
 10
15726.8
 20
-1064.55
 30
0.000000
  70
    32
  0
VERTEX
  8
01
  5
149AE
 10
15726.8
 20
-1064.60
 30
0.000000
  70
    32
  0
VERTEX
  8
01
  5
149AF
 10
15726.9
 20
-1064.64
 30
0.000000
  70
    32
  0
VERTEX
  8
01
  5
149B0
 10
15726.9
 20
-1064.69
 30
0.000000
  70
    32
  0
VERTEX
  8
01
  5
149B1
 10
15726.9
 20
-1064.73
 30
0.000000
  70
    32
  0
VERTEX
  8
01
  5
149B2
 10
15726.9
 20
-1064.78
 30
0.000000
  70
    32
  0
VERTEX
  8
01
  5
149B3
 10
15726.9
 20
-1064.82
 30
0.000000
  70
    32
  0
VERTEX
  8
01
  5
149B4
 10
15726.9
 20
-1064.87
 30
0.000000
  70
    32
  0
VERTEX
  8
01
  5
149B5
 10
15726.9
 20
-1064.91
 30
0.000000
  70
    32
  0
VERTEX
  8
01
  5
149B6
 10
15726.9
 20
-1064.95
 30
0.000000
  70
    32
  0
VERTEX
  8
01
  5
149B7
 10
15726.9
 20
-1065.00
 30
0.000000
  70
    32
  0
VERTEX
  8
01
  5
149B8
 10
15726.9
 20
-1065.04
 30
0.000000
  70
    32
  0
VERTEX
  8
01
  5
149B9
 10
15726.9
 20
-1065.08
 30
0.000000
  70
    32
  0
VERTEX
  8
01
  5
149BA
 10
15726.9
 20
-1065.12
 30
0.000000
  70
    32
  0
VERTEX
  8
01
  5
149BB
 10
15726.9
 20
-1065.16
 30
0.000000
  70
    32
  0
VERTEX
  8
01
  5
149BC
 10
15726.9
 20
-1065.20
 30
0.000000
  70
    32
  0
VERTEX
  8
01
  5
149BD
 10
15726.9
 20
-1065.24
 30
0.000000
  70
    32
  0
VERTEX
  8
01
  5
149BE
 10
15727.0
 20
-1065.28
 30
0.000000
  70
    32
  0
VERTEX
  8
01
  5
149BF
 10
15727.0
 20
-1065.32
 30
0.000000
  70
    32
  0
VERTEX
  8
01
  5
149C0
 10
15727.0
 20
-1065.36
 30
0.000000
  70
    32
  0
VERTEX
  8
01
  5
149C1
 10
15727.0
 20
-1065.40
 30
0.000000
  70
    32
  0
VERTEX
  8
01
  5
149C2
 10
15727.0
 20
-1065.44
 30
0.000000
  70
    32
  0
VERTEX
  8
01
  5
149C3
 10
15727.0
 20
-1065.47
 30
0.000000
  70
    32
  0
VERTEX
  8
01
  5
149C4
 10
15727.0
 20
-1065.51
 30
0.000000
  70
    32
  0
VERTEX
  8
01
  5
149C5
 10
15727.0
 20
-1065.55
 30
0.000000
  70
    32
  0
VERTEX
  8
01
  5
149C6
 10
15727.0
 20
-1065.58
 30
0.000000
  70
    32
  0
VERTEX
  8
01
  5
149C7
 10
15727.0
 20
-1065.62
 30
0.000000
  70
    32
  0
VERTEX
  8
01
  5
149C8
 10
15727.0
 20
-1065.65
 30
0.000000
  70
    32
  0
VERTEX
  8
01
  5
149C9
 10
15727.0
 20
-1065.69
 30
0.000000
  70
    32
  0
VERTEX
  8
01
  5
149CA
 10
15727.0
 20
-1065.72
 30
0.000000
  70
    32
  0
VERTEX
  8
01
  5
149CB
 10
15727.1
 20
-1065.75
 30
0.000000
  70
    32
  0
VERTEX
  8
01
  5
149CC
 10
15727.1
 20
-1065.79
 30
0.000000
  70
    32
  0
VERTEX
  8
01
  5
149CD
 10
15727.1
 20
-1065.82
 30
0.000000
  70
    32
  0
VERTEX
  8
01
  5
149CE
 10
15727.1
 20
-1065.85
 30
0.000000
  70
    32
  0
VERTEX
  8
01
  5
149CF
 10
15727.1
 20
-1065.88
 30
0.000000
  70
    32
  0
VERTEX
  8
01
  5
149D0
 10
15727.1
 20
-1065.91
 30
0.000000
  70
    32
  0
VERTEX
  8
01
  5
149D1
 10
15727.1
 20
-1065.94
 30
0.000000
  70
    32
  0
VERTEX
  8
01
  5
149D2
 10
15727.1
 20
-1065.97
 30
0.000000
  70
    32
  0
VERTEX
  8
01
  5
149D3
 10
15727.1
 20
-1066.00
 30
0.000000
  70
    32
  0
VERTEX
  8
01
  5
149D4
 10
15727.1
 20
-1066.02
 30
0.000000
  70
    32
  0
VERTEX
  8
01
  5
149D5
 10
15727.1
 20
-1066.05
 30
0.000000
  70
    32
  0
VERTEX
  8
01
  5
149D6
 10
15727.2
 20
-1066.08
 30
0.000000
  70
    32
  0
VERTEX
  8
01
  5
149D7
 10
15727.2
 20
-1066.11
 30
0.000000
  70
    32
  0
VERTEX
  8
01
  5
149D8
 10
15727.2
 20
-1066.13
 30
0.000000
  70
    32
  0
VERTEX
  8
01
  5
149D9
 10
15727.2
 20
-1066.16
 30
0.000000
  70
    32
  0
VERTEX
  8
01
  5
149DA
 10
15727.2
 20
-1066.18
 30
0.000000
  70
    32
  0
VERTEX
  8
01
  5
149DB
 10
15727.2
 20
-1066.20
 30
0.000000
  70
    32
  0
VERTEX
  8
01
  5
149DC
 10
15727.2
 20
-1066.23
 30
0.000000
  70
    32
  0
VERTEX
  8
01
  5
149DD
 10
15727.2
 20
-1066.25
 30
0.000000
  70
    32
  0
VERTEX
  8
01
  5
149DE
 10
15727.2
 20
-1066.27
 30
0.000000
  70
    32
  0
VERTEX
  8
01
  5
149DF
 10
15727.2
 20
-1066.29
 30
0.000000
  70
    32
  0
VERTEX
  8
01
  5
149E0
 10
15727.3
 20
-1066.31
 30
0.000000
  70
    32
  0
VERTEX
  8
01
  5
149E1
 10
15727.3
 20
-1066.33
 30
0.000000
  70
    32
  0
VERTEX
  8
01
  5
149E2
 10
15727.3
 20
-1066.35
 30
0.000000
  70
    32
  0
VERTEX
  8
01
  5
149E3
 10
15727.3
 20
-1066.37
 30
0.000000
  70
    32
  0
VERTEX
  8
01
  5
149E4
 10
15727.3
 20
-1066.39
 30
0.000000
  70
    32
  0
VERTEX
  8
01
  5
149E5
 10
15727.3
 20
-1066.41
 30
0.000000
  70
    32
  0
VERTEX
  8
01
  5
149E6
 10
15727.3
 20
-1066.43
 30
0.000000
  70
    32
  0
VERTEX
  8
01
  5
149E7
 10
15727.3
 20
-1066.44
 30
0.000000
  70
    32
  0
VERTEX
  8
01
  5
149E8
 10
15727.3
 20
-1066.46
 30
0.000000
  70
    32
  0
VERTEX
  8
01
  5
149E9
 10
15727.3
 20
-1066.47
 30
0.000000
  70
    32
  0
VERTEX
  8
01
  5
149EA
 10
15727.4
 20
-1066.49
 30
0.000000
  70
    32
  0
VERTEX
  8
01
  5
149EB
 10
15727.4
 20
-1066.50
 30
0.000000
  70
    32
  0
VERTEX
  8
01
  5
149EC
 10
15727.4
 20
-1066.51
 30
0.000000
  70
    32
  0
VERTEX
  8
01
  5
149ED
 10
15727.4
 20
-1066.53
 30
0.000000
  70
    32
  0
VERTEX
  8
01
  5
149EE
 10
15727.4
 20
-1066.54
 30
0.000000
  70
    32
  0
VERTEX
  8
01
  5
149EF
 10
15727.4
 20
-1066.55
 30
0.000000
  70
    32
  0
VERTEX
  8
01
  5
149F0
 10
15727.4
 20
-1066.56
 30
0.000000
  70
    32
  0
VERTEX
  8
01
  5
149F1
 10
15727.4
 20
-1066.57
 30
0.000000
  70
    32
  0
VERTEX
  8
01
  5
149F2
 10
15727.4
 20
-1066.58
 30
0.000000
  70
    32
  0
VERTEX
  8
01
  5
149F3
 10
15727.4
 20
-1066.59
 30
0.000000
  70
    32
  0
VERTEX
  8
01
  5
149F4
 10
15727.5
 20
-1066.59
 30
0.000000
  70
    32
  0
VERTEX
  8
01
  5
149F5
 10
15727.5
 20
-1066.60
 30
0.000000
  70
    32
  0
VERTEX
  8
01
  5
149F6
 10
15727.5
 20
-1066.61
 30
0.000000
  70
    32
  0
VERTEX
  8
01
  5
149F7
 10
15727.5
 20
-1066.61
 30
0.000000
  70
    32
  0
VERTEX
  8
01
  5
149F8
 10
15727.5
 20
-1066.62
 30
0.000000
  70
    32
  0
VERTEX
  8
01
  5
149F9
 10
15727.5
 20
-1066.62
 30
0.000000
  70
    32
  0
VERTEX
  8
01
  5
149FA
 10
15727.5
 20
-1066.63
 30
0.000000
  70
    32
  0
VERTEX
  8
01
  5
149FB
 10
15727.5
 20
-1066.63
 30
0.000000
  70
    32
  0
VERTEX
  8
01
  5
149FC
 10
15727.5
 20
-1066.63
 30
0.000000
  70
    32
  0
VERTEX
  8
01
  5
149FD
 10
15727.5
 20
-1066.63
 30
0.000000
  70
    32
  0
VERTEX
  8
01
  5
149FE
 10
15727.6
 20
-1066.63
 30
0.000000
  70
    32
  0
VERTEX
  8
01
  5
149FF
 10
15727.6
 20
-1066.63
 30
0.000000
  70
    32
  0
SEQEND
  8
01
  5
14A00
  0
POLYLINE
  5
13FD2
  8
01
 10
15734.84898944417
 20
-1066.634160666192
 30
0.0
 66
     1
 70
     8
  0
VERTEX
  8
01
  5
14A01
 10
15734.8
 20
-1066.63
 30
0.000000
  70
    32
  0
VERTEX
  8
01
  5
14A02
 10
15734.9
 20
-1066.63
 30
0.000000
  70
    32
  0
VERTEX
  8
01
  5
14A03
 10
15734.9
 20
-1066.63
 30
0.000000
  70
    32
  0
VERTEX
  8
01
  5
14A04
 10
15734.9
 20
-1066.63
 30
0.000000
  70
    32
  0
VERTEX
  8
01
  5
14A05
 10
15734.9
 20
-1066.63
 30
0.000000
  70
    32
  0
VERTEX
  8
01
  5
14A06
 10
15734.9
 20
-1066.63
 30
0.000000
  70
    32
  0
VERTEX
  8
01
  5
14A07
 10
15734.9
 20
-1066.62
 30
0.000000
  70
    32
  0
VERTEX
  8
01
  5
14A08
 10
15734.9
 20
-1066.62
 30
0.000000
  70
    32
  0
VERTEX
  8
01
  5
14A09
 10
15734.9
 20
-1066.61
 30
0.000000
  70
    32
  0
VERTEX
  8
01
  5
14A0A
 10
15734.9
 20
-1066.61
 30
0.000000
  70
    32
  0
VERTEX
  8
01
  5
14A0B
 10
15734.9
 20
-1066.60
 30
0.000000
  70
    32
  0
VERTEX
  8
01
  5
14A0C
 10
15734.9
 20
-1066.59
 30
0.000000
  70
    32
  0
VERTEX
  8
01
  5
14A0D
 10
15734.9
 20
-1066.59
 30
0.000000
  70
    32
  0
VERTEX
  8
01
  5
14A0E
 10
15734.9
 20
-1066.58
 30
0.000000
  70
    32
  0
VERTEX
  8
01
  5
14A0F
 10
15734.9
 20
-1066.57
 30
0.000000
  70
    32
  0
VERTEX
  8
01
  5
14A10
 10
15734.9
 20
-1066.56
 30
0.000000
  70
    32
  0
VERTEX
  8
01
  5
14A11
 10
15735.0
 20
-1066.55
 30
0.000000
  70
    32
  0
VERTEX
  8
01
  5
14A12
 10
15735.0
 20
-1066.54
 30
0.000000
  70
    32
  0
VERTEX
  8
01
  5
14A13
 10
15735.0
 20
-1066.53
 30
0.000000
  70
    32
  0
VERTEX
  8
01
  5
14A14
 10
15735.0
 20
-1066.51
 30
0.000000
  70
    32
  0
VERTEX
  8
01
  5
14A15
 10
15735.0
 20
-1066.50
 30
0.000000
  70
    32
  0
VERTEX
  8
01
  5
14A16
 10
15735.0
 20
-1066.49
 30
0.000000
  70
    32
  0
VERTEX
  8
01
  5
14A17
 10
15735.0
 20
-1066.47
 30
0.000000
  70
    32
  0
VERTEX
  8
01
  5
14A18
 10
15735.0
 20
-1066.46
 30
0.000000
  70
    32
  0
VERTEX
  8
01
  5
14A19
 10
15735.0
 20
-1066.44
 30
0.000000
  70
    32
  0
VERTEX
  8
01
  5
14A1A
 10
15735.0
 20
-1066.43
 30
0.000000
  70
    32
  0
VERTEX
  8
01
  5
14A1B
 10
15735.0
 20
-1066.41
 30
0.000000
  70
    32
  0
VERTEX
  8
01
  5
14A1C
 10
15735.0
 20
-1066.39
 30
0.000000
  70
    32
  0
VERTEX
  8
01
  5
14A1D
 10
15735.0
 20
-1066.37
 30
0.000000
  70
    32
  0
VERTEX
  8
01
  5
14A1E
 10
15735.0
 20
-1066.35
 30
0.000000
  70
    32
  0
VERTEX
  8
01
  5
14A1F
 10
15735.0
 20
-1066.33
 30
0.000000
  70
    32
  0
VERTEX
  8
01
  5
14A20
 10
15735.0
 20
-1066.31
 30
0.000000
  70
    32
  0
VERTEX
  8
01
  5
14A21
 10
15735.1
 20
-1066.29
 30
0.000000
  70
    32
  0
VERTEX
  8
01
  5
14A22
 10
15735.1
 20
-1066.27
 30
0.000000
  70
    32
  0
VERTEX
  8
01
  5
14A23
 10
15735.1
 20
-1066.25
 30
0.000000
  70
    32
  0
VERTEX
  8
01
  5
14A24
 10
15735.1
 20
-1066.23
 30
0.000000
  70
    32
  0
VERTEX
  8
01
  5
14A25
 10
15735.1
 20
-1066.20
 30
0.000000
  70
    32
  0
VERTEX
  8
01
  5
14A26
 10
15735.1
 20
-1066.18
 30
0.000000
  70
    32
  0
VERTEX
  8
01
  5
14A27
 10
15735.1
 20
-1066.16
 30
0.000000
  70
    32
  0
VERTEX
  8
01
  5
14A28
 10
15735.1
 20
-1066.13
 30
0.000000
  70
    32
  0
VERTEX
  8
01
  5
14A29
 10
15735.1
 20
-1066.11
 30
0.000000
  70
    32
  0
VERTEX
  8
01
  5
14A2A
 10
15735.1
 20
-1066.08
 30
0.000000
  70
    32
  0
VERTEX
  8
01
  5
14A2B
 10
15735.1
 20
-1066.05
 30
0.000000
  70
    32
  0
VERTEX
  8
01
  5
14A2C
 10
15735.1
 20
-1066.02
 30
0.000000
  70
    32
  0
VERTEX
  8
01
  5
14A2D
 10
15735.1
 20
-1066.00
 30
0.000000
  70
    32
  0
VERTEX
  8
01
  5
14A2E
 10
15735.1
 20
-1065.97
 30
0.000000
  70
    32
  0
VERTEX
  8
01
  5
14A2F
 10
15735.1
 20
-1065.94
 30
0.000000
  70
    32
  0
VERTEX
  8
01
  5
14A30
 10
15735.1
 20
-1065.91
 30
0.000000
  70
    32
  0
VERTEX
  8
01
  5
14A31
 10
15735.1
 20
-1065.88
 30
0.000000
  70
    32
  0
VERTEX
  8
01
  5
14A32
 10
15735.2
 20
-1065.85
 30
0.000000
  70
    32
  0
VERTEX
  8
01
  5
14A33
 10
15735.2
 20
-1065.82
 30
0.000000
  70
    32
  0
VERTEX
  8
01
  5
14A34
 10
15735.2
 20
-1065.79
 30
0.000000
  70
    32
  0
VERTEX
  8
01
  5
14A35
 10
15735.2
 20
-1065.75
 30
0.000000
  70
    32
  0
VERTEX
  8
01
  5
14A36
 10
15735.2
 20
-1065.72
 30
0.000000
  70
    32
  0
VERTEX
  8
01
  5
14A37
 10
15735.2
 20
-1065.69
 30
0.000000
  70
    32
  0
VERTEX
  8
01
  5
14A38
 10
15735.2
 20
-1065.65
 30
0.000000
  70
    32
  0
VERTEX
  8
01
  5
14A39
 10
15735.2
 20
-1065.62
 30
0.000000
  70
    32
  0
VERTEX
  8
01
  5
14A3A
 10
15735.2
 20
-1065.58
 30
0.000000
  70
    32
  0
VERTEX
  8
01
  5
14A3B
 10
15735.2
 20
-1065.55
 30
0.000000
  70
    32
  0
VERTEX
  8
01
  5
14A3C
 10
15735.2
 20
-1065.51
 30
0.000000
  70
    32
  0
VERTEX
  8
01
  5
14A3D
 10
15735.2
 20
-1065.47
 30
0.000000
  70
    32
  0
VERTEX
  8
01
  5
14A3E
 10
15735.2
 20
-1065.44
 30
0.000000
  70
    32
  0
VERTEX
  8
01
  5
14A3F
 10
15735.2
 20
-1065.40
 30
0.000000
  70
    32
  0
VERTEX
  8
01
  5
14A40
 10
15735.2
 20
-1065.36
 30
0.000000
  70
    32
  0
VERTEX
  8
01
  5
14A41
 10
15735.2
 20
-1065.32
 30
0.000000
  70
    32
  0
VERTEX
  8
01
  5
14A42
 10
15735.2
 20
-1065.28
 30
0.000000
  70
    32
  0
VERTEX
  8
01
  5
14A43
 10
15735.2
 20
-1065.24
 30
0.000000
  70
    32
  0
VERTEX
  8
01
  5
14A44
 10
15735.2
 20
-1065.20
 30
0.000000
  70
    32
  0
VERTEX
  8
01
  5
14A45
 10
15735.2
 20
-1065.16
 30
0.000000
  70
    32
  0
VERTEX
  8
01
  5
14A46
 10
15735.2
 20
-1065.12
 30
0.000000
  70
    32
  0
VERTEX
  8
01
  5
14A47
 10
15735.3
 20
-1065.08
 30
0.000000
  70
    32
  0
VERTEX
  8
01
  5
14A48
 10
15735.3
 20
-1065.04
 30
0.000000
  70
    32
  0
VERTEX
  8
01
  5
14A49
 10
15735.3
 20
-1065.00
 30
0.000000
  70
    32
  0
VERTEX
  8
01
  5
14A4A
 10
15735.3
 20
-1064.95
 30
0.000000
  70
    32
  0
VERTEX
  8
01
  5
14A4B
 10
15735.3
 20
-1064.91
 30
0.000000
  70
    32
  0
VERTEX
  8
01
  5
14A4C
 10
15735.3
 20
-1064.87
 30
0.000000
  70
    32
  0
VERTEX
  8
01
  5
14A4D
 10
15735.3
 20
-1064.82
 30
0.000000
  70
    32
  0
VERTEX
  8
01
  5
14A4E
 10
15735.3
 20
-1064.78
 30
0.000000
  70
    32
  0
VERTEX
  8
01
  5
14A4F
 10
15735.3
 20
-1064.73
 30
0.000000
  70
    32
  0
VERTEX
  8
01
  5
14A50
 10
15735.3
 20
-1064.69
 30
0.000000
  70
    32
  0
VERTEX
  8
01
  5
14A51
 10
15735.3
 20
-1064.64
 30
0.000000
  70
    32
  0
VERTEX
  8
01
  5
14A52
 10
15735.3
 20
-1064.60
 30
0.000000
  70
    32
  0
VERTEX
  8
01
  5
14A53
 10
15735.3
 20
-1064.55
 30
0.000000
  70
    32
  0
VERTEX
  8
01
  5
14A54
 10
15735.3
 20
-1064.50
 30
0.000000
  70
    32
  0
VERTEX
  8
01
  5
14A55
 10
15735.3
 20
-1064.46
 30
0.000000
  70
    32
  0
VERTEX
  8
01
  5
14A56
 10
15735.3
 20
-1064.41
 30
0.000000
  70
    32
  0
VERTEX
  8
01
  5
14A57
 10
15735.3
 20
-1064.36
 30
0.000000
  70
    32
  0
VERTEX
  8
01
  5
14A58
 10
15735.3
 20
-1064.31
 30
0.000000
  70
    32
  0
VERTEX
  8
01
  5
14A59
 10
15735.3
 20
-1064.27
 30
0.000000
  70
    32
  0
VERTEX
  8
01
  5
14A5A
 10
15735.3
 20
-1064.22
 30
0.000000
  70
    32
  0
VERTEX
  8
01
  5
14A5B
 10
15735.3
 20
-1064.17
 30
0.000000
  70
    32
  0
VERTEX
  8
01
  5
14A5C
 10
15735.3
 20
-1064.12
 30
0.000000
  70
    32
  0
VERTEX
  8
01
  5
14A5D
 10
15735.3
 20
-1064.07
 30
0.000000
  70
    32
  0
VERTEX
  8
01
  5
14A5E
 10
15735.3
 20
-1064.02
 30
0.000000
  70
    32
  0
VERTEX
  8
01
  5
14A5F
 10
15735.3
 20
-1063.97
 30
0.000000
  70
    32
  0
VERTEX
  8
01
  5
14A60
 10
15735.3
 20
-1063.92
 30
0.000000
  70
    32
  0
VERTEX
  8
01
  5
14A61
 10
15735.3
 20
-1063.87
 30
0.000000
  70
    32
  0
VERTEX
  8
01
  5
14A62
 10
15735.3
 20
-1063.82
 30
0.000000
  70
    32
  0
VERTEX
  8
01
  5
14A63
 10
15735.3
 20
-1063.77
 30
0.000000
  70
    32
  0
VERTEX
  8
01
  5
14A64
 10
15735.3
 20
-1063.72
 30
0.000000
  70
    32
  0
VERTEX
  8
01
  5
14A65
 10
15735.4
 20
-1063.66
 30
0.000000
  70
    32
  0
VERTEX
  8
01
  5
14A66
 10
15735.4
 20
-1063.61
 30
0.000000
  70
    32
  0
VERTEX
  8
01
  5
14A67
 10
15735.4
 20
-1063.56
 30
0.000000
  70
    32
  0
VERTEX
  8
01
  5
14A68
 10
15735.4
 20
-1063.51
 30
0.000000
  70
    32
  0
VERTEX
  8
01
  5
14A69
 10
15735.4
 20
-1063.46
 30
0.000000
  70
    32
  0
VERTEX
  8
01
  5
14A6A
 10
15735.4
 20
-1063.40
 30
0.000000
  70
    32
  0
VERTEX
  8
01
  5
14A6B
 10
15735.4
 20
-1063.35
 30
0.000000
  70
    32
  0
VERTEX
  8
01
  5
14A6C
 10
15735.4
 20
-1063.30
 30
0.000000
  70
    32
  0
VERTEX
  8
01
  5
14A6D
 10
15735.4
 20
-1063.24
 30
0.000000
  70
    32
  0
VERTEX
  8
01
  5
14A6E
 10
15735.4
 20
-1063.19
 30
0.000000
  70
    32
  0
VERTEX
  8
01
  5
14A6F
 10
15735.4
 20
-1063.14
 30
0.000000
  70
    32
  0
VERTEX
  8
01
  5
14A70
 10
15735.4
 20
-1063.08
 30
0.000000
  70
    32
  0
VERTEX
  8
01
  5
14A71
 10
15735.4
 20
-1063.03
 30
0.000000
  70
    32
  0
VERTEX
  8
01
  5
14A72
 10
15735.4
 20
-1062.97
 30
0.000000
  70
    32
  0
VERTEX
  8
01
  5
14A73
 10
15735.4
 20
-1062.92
 30
0.000000
  70
    32
  0
VERTEX
  8
01
  5
14A74
 10
15735.4
 20
-1062.87
 30
0.000000
  70
    32
  0
VERTEX
  8
01
  5
14A75
 10
15735.4
 20
-1062.81
 30
0.000000
  70
    32
  0
VERTEX
  8
01
  5
14A76
 10
15735.4
 20
-1062.76
 30
0.000000
  70
    32
  0
VERTEX
  8
01
  5
14A77
 10
15735.4
 20
-1062.70
 30
0.000000
  70
    32
  0
VERTEX
  8
01
  5
14A78
 10
15735.4
 20
-1062.65
 30
0.000000
  70
    32
  0
VERTEX
  8
01
  5
14A79
 10
15735.4
 20
-1062.59
 30
0.000000
  70
    32
  0
VERTEX
  8
01
  5
14A7A
 10
15735.4
 20
-1062.54
 30
0.000000
  70
    32
  0
VERTEX
  8
01
  5
14A7B
 10
15735.4
 20
-1062.48
 30
0.000000
  70
    32
  0
VERTEX
  8
01
  5
14A7C
 10
15735.4
 20
-1062.43
 30
0.000000
  70
    32
  0
VERTEX
  8
01
  5
14A7D
 10
15735.4
 20
-1062.37
 30
0.000000
  70
    32
  0
VERTEX
  8
01
  5
14A7E
 10
15735.4
 20
-1062.32
 30
0.000000
  70
    32
  0
VERTEX
  8
01
  5
14A7F
 10
15735.4
 20
-1062.27
 30
0.000000
  70
    32
  0
VERTEX
  8
01
  5
14A80
 10
15735.4
 20
-1062.21
 30
0.000000
  70
    32
  0
VERTEX
  8
01
  5
14A81
 10
15735.4
 20
-1062.16
 30
0.000000
  70
    32
  0
SEQEND
  8
01
  5
14A82
  0
POLYLINE
  5
13FD3
  8
01
 10
15727.571055091037
 20
-1071.1741606661915
 30
0.0
 66
     1
 70
     8
  0
VERTEX
  8
01
  5
14A83
 10
15727.6
 20
-1071.17
 30
0.000000
  70
    32
  0
VERTEX
  8
01
  5
14A84
 10
15727.6
 20
-1071.17
 30
0.000000
  70
    32
  0
VERTEX
  8
01
  5
14A85
 10
15727.5
 20
-1071.18
 30
0.000000
  70
    32
  0
VERTEX
  8
01
  5
14A86
 10
15727.5
 20
-1071.18
 30
0.000000
  70
    32
  0
VERTEX
  8
01
  5
14A87
 10
15727.5
 20
-1071.18
 30
0.000000
  70
    32
  0
VERTEX
  8
01
  5
14A88
 10
15727.5
 20
-1071.18
 30
0.000000
  70
    32
  0
VERTEX
  8
01
  5
14A89
 10
15727.5
 20
-1071.19
 30
0.000000
  70
    32
  0
VERTEX
  8
01
  5
14A8A
 10
15727.5
 20
-1071.19
 30
0.000000
  70
    32
  0
VERTEX
  8
01
  5
14A8B
 10
15727.5
 20
-1071.20
 30
0.000000
  70
    32
  0
VERTEX
  8
01
  5
14A8C
 10
15727.4
 20
-1071.20
 30
0.000000
  70
    32
  0
VERTEX
  8
01
  5
14A8D
 10
15727.4
 20
-1071.21
 30
0.000000
  70
    32
  0
VERTEX
  8
01
  5
14A8E
 10
15727.4
 20
-1071.22
 30
0.000000
  70
    32
  0
VERTEX
  8
01
  5
14A8F
 10
15727.4
 20
-1071.23
 30
0.000000
  70
    32
  0
VERTEX
  8
01
  5
14A90
 10
15727.4
 20
-1071.23
 30
0.000000
  70
    32
  0
VERTEX
  8
01
  5
14A91
 10
15727.4
 20
-1071.24
 30
0.000000
  70
    32
  0
VERTEX
  8
01
  5
14A92
 10
15727.3
 20
-1071.25
 30
0.000000
  70
    32
  0
VERTEX
  8
01
  5
14A93
 10
15727.3
 20
-1071.27
 30
0.000000
  70
    32
  0
VERTEX
  8
01
  5
14A94
 10
15727.3
 20
-1071.28
 30
0.000000
  70
    32
  0
VERTEX
  8
01
  5
14A95
 10
15727.3
 20
-1071.29
 30
0.000000
  70
    32
  0
VERTEX
  8
01
  5
14A96
 10
15727.3
 20
-1071.30
 30
0.000000
  70
    32
  0
VERTEX
  8
01
  5
14A97
 10
15727.3
 20
-1071.32
 30
0.000000
  70
    32
  0
VERTEX
  8
01
  5
14A98
 10
15727.3
 20
-1071.33
 30
0.000000
  70
    32
  0
VERTEX
  8
01
  5
14A99
 10
15727.2
 20
-1071.35
 30
0.000000
  70
    32
  0
VERTEX
  8
01
  5
14A9A
 10
15727.2
 20
-1071.36
 30
0.000000
  70
    32
  0
VERTEX
  8
01
  5
14A9B
 10
15727.2
 20
-1071.38
 30
0.000000
  70
    32
  0
VERTEX
  8
01
  5
14A9C
 10
15727.2
 20
-1071.40
 30
0.000000
  70
    32
  0
VERTEX
  8
01
  5
14A9D
 10
15727.2
 20
-1071.41
 30
0.000000
  70
    32
  0
VERTEX
  8
01
  5
14A9E
 10
15727.2
 20
-1071.43
 30
0.000000
  70
    32
  0
VERTEX
  8
01
  5
14A9F
 10
15727.2
 20
-1071.45
 30
0.000000
  70
    32
  0
VERTEX
  8
01
  5
14AA0
 10
15727.2
 20
-1071.47
 30
0.000000
  70
    32
  0
VERTEX
  8
01
  5
14AA1
 10
15727.1
 20
-1071.49
 30
0.000000
  70
    32
  0
VERTEX
  8
01
  5
14AA2
 10
15727.1
 20
-1071.51
 30
0.000000
  70
    32
  0
VERTEX
  8
01
  5
14AA3
 10
15727.1
 20
-1071.53
 30
0.000000
  70
    32
  0
VERTEX
  8
01
  5
14AA4
 10
15727.1
 20
-1071.56
 30
0.000000
  70
    32
  0
VERTEX
  8
01
  5
14AA5
 10
15727.1
 20
-1071.58
 30
0.000000
  70
    32
  0
VERTEX
  8
01
  5
14AA6
 10
15727.1
 20
-1071.60
 30
0.000000
  70
    32
  0
VERTEX
  8
01
  5
14AA7
 10
15727.1
 20
-1071.63
 30
0.000000
  70
    32
  0
VERTEX
  8
01
  5
14AA8
 10
15727.1
 20
-1071.65
 30
0.000000
  70
    32
  0
VERTEX
  8
01
  5
14AA9
 10
15727.0
 20
-1071.68
 30
0.000000
  70
    32
  0
VERTEX
  8
01
  5
14AAA
 10
15727.0
 20
-1071.70
 30
0.000000
  70
    32
  0
VERTEX
  8
01
  5
14AAB
 10
15727.0
 20
-1071.73
 30
0.000000
  70
    32
  0
VERTEX
  8
01
  5
14AAC
 10
15727.0
 20
-1071.76
 30
0.000000
  70
    32
  0
VERTEX
  8
01
  5
14AAD
 10
15727.0
 20
-1071.78
 30
0.000000
  70
    32
  0
VERTEX
  8
01
  5
14AAE
 10
15727.0
 20
-1071.81
 30
0.000000
  70
    32
  0
VERTEX
  8
01
  5
14AAF
 10
15727.0
 20
-1071.84
 30
0.000000
  70
    32
  0
VERTEX
  8
01
  5
14AB0
 10
15727.0
 20
-1071.87
 30
0.000000
  70
    32
  0
VERTEX
  8
01
  5
14AB1
 10
15727.0
 20
-1071.90
 30
0.000000
  70
    32
  0
VERTEX
  8
01
  5
14AB2
 10
15726.9
 20
-1071.93
 30
0.000000
  70
    32
  0
VERTEX
  8
01
  5
14AB3
 10
15726.9
 20
-1071.96
 30
0.000000
  70
    32
  0
VERTEX
  8
01
  5
14AB4
 10
15726.9
 20
-1071.99
 30
0.000000
  70
    32
  0
VERTEX
  8
01
  5
14AB5
 10
15726.9
 20
-1072.02
 30
0.000000
  70
    32
  0
VERTEX
  8
01
  5
14AB6
 10
15726.9
 20
-1072.05
 30
0.000000
  70
    32
  0
VERTEX
  8
01
  5
14AB7
 10
15726.9
 20
-1072.08
 30
0.000000
  70
    32
  0
VERTEX
  8
01
  5
14AB8
 10
15726.9
 20
-1072.12
 30
0.000000
  70
    32
  0
VERTEX
  8
01
  5
14AB9
 10
15726.9
 20
-1072.15
 30
0.000000
  70
    32
  0
VERTEX
  8
01
  5
14ABA
 10
15726.9
 20
-1072.18
 30
0.000000
  70
    32
  0
VERTEX
  8
01
  5
14ABB
 10
15726.9
 20
-1072.22
 30
0.000000
  70
    32
  0
VERTEX
  8
01
  5
14ABC
 10
15726.8
 20
-1072.25
 30
0.000000
  70
    32
  0
VERTEX
  8
01
  5
14ABD
 10
15726.8
 20
-1072.29
 30
0.000000
  70
    32
  0
VERTEX
  8
01
  5
14ABE
 10
15726.8
 20
-1072.32
 30
0.000000
  70
    32
  0
VERTEX
  8
01
  5
14ABF
 10
15726.8
 20
-1072.36
 30
0.000000
  70
    32
  0
VERTEX
  8
01
  5
14AC0
 10
15726.8
 20
-1072.39
 30
0.000000
  70
    32
  0
VERTEX
  8
01
  5
14AC1
 10
15726.8
 20
-1072.43
 30
0.000000
  70
    32
  0
VERTEX
  8
01
  5
14AC2
 10
15726.8
 20
-1072.47
 30
0.000000
  70
    32
  0
VERTEX
  8
01
  5
14AC3
 10
15726.8
 20
-1072.50
 30
0.000000
  70
    32
  0
VERTEX
  8
01
  5
14AC4
 10
15726.8
 20
-1072.54
 30
0.000000
  70
    32
  0
VERTEX
  8
01
  5
14AC5
 10
15726.8
 20
-1072.58
 30
0.000000
  70
    32
  0
VERTEX
  8
01
  5
14AC6
 10
15726.8
 20
-1072.62
 30
0.000000
  70
    32
  0
VERTEX
  8
01
  5
14AC7
 10
15726.8
 20
-1072.66
 30
0.000000
  70
    32
  0
VERTEX
  8
01
  5
14AC8
 10
15726.8
 20
-1072.69
 30
0.000000
  70
    32
  0
VERTEX
  8
01
  5
14AC9
 10
15726.8
 20
-1072.73
 30
0.000000
  70
    32
  0
VERTEX
  8
01
  5
14ACA
 10
15726.8
 20
-1072.77
 30
0.000000
  70
    32
  0
VERTEX
  8
01
  5
14ACB
 10
15726.8
 20
-1072.81
 30
0.000000
  70
    32
  0
VERTEX
  8
01
  5
14ACC
 10
15726.7
 20
-1072.85
 30
0.000000
  70
    32
  0
VERTEX
  8
01
  5
14ACD
 10
15726.7
 20
-1072.89
 30
0.000000
  70
    32
  0
VERTEX
  8
01
  5
14ACE
 10
15726.7
 20
-1072.93
 30
0.000000
  70
    32
  0
VERTEX
  8
01
  5
14ACF
 10
15726.7
 20
-1072.97
 30
0.000000
  70
    32
  0
VERTEX
  8
01
  5
14AD0
 10
15726.7
 20
-1073.01
 30
0.000000
  70
    32
  0
VERTEX
  8
01
  5
14AD1
 10
15726.7
 20
-1073.05
 30
0.000000
  70
    32
  0
VERTEX
  8
01
  5
14AD2
 10
15726.7
 20
-1073.09
 30
0.000000
  70
    32
  0
VERTEX
  8
01
  5
14AD3
 10
15726.7
 20
-1073.13
 30
0.000000
  70
    32
  0
VERTEX
  8
01
  5
14AD4
 10
15726.7
 20
-1073.17
 30
0.000000
  70
    32
  0
VERTEX
  8
01
  5
14AD5
 10
15726.7
 20
-1073.21
 30
0.000000
  70
    32
  0
VERTEX
  8
01
  5
14AD6
 10
15726.7
 20
-1073.25
 30
0.000000
  70
    32
  0
VERTEX
  8
01
  5
14AD7
 10
15726.7
 20
-1073.30
 30
0.000000
  70
    32
  0
VERTEX
  8
01
  5
14AD8
 10
15726.7
 20
-1073.34
 30
0.000000
  70
    32
  0
VERTEX
  8
01
  5
14AD9
 10
15726.7
 20
-1073.38
 30
0.000000
  70
    32
  0
VERTEX
  8
01
  5
14ADA
 10
15726.7
 20
-1073.42
 30
0.000000
  70
    32
  0
VERTEX
  8
01
  5
14ADB
 10
15726.7
 20
-1073.46
 30
0.000000
  70
    32
  0
VERTEX
  8
01
  5
14ADC
 10
15726.7
 20
-1073.50
 30
0.000000
  70
    32
  0
VERTEX
  8
01
  5
14ADD
 10
15726.7
 20
-1073.54
 30
0.000000
  70
    32
  0
VERTEX
  8
01
  5
14ADE
 10
15726.7
 20
-1073.58
 30
0.000000
  70
    32
  0
VERTEX
  8
01
  5
14ADF
 10
15726.7
 20
-1073.63
 30
0.000000
  70
    32
  0
VERTEX
  8
01
  5
14AE0
 10
15726.7
 20
-1073.67
 30
0.000000
  70
    32
  0
VERTEX
  8
01
  5
14AE1
 10
15726.7
 20
-1073.71
 30
0.000000
  70
    32
  0
VERTEX
  8
01
  5
14AE2
 10
15726.7
 20
-1073.75
 30
0.000000
  70
    32
  0
VERTEX
  8
01
  5
14AE3
 10
15726.7
 20
-1073.79
 30
0.000000
  70
    32
  0
VERTEX
  8
01
  5
14AE4
 10
15726.7
 20
-1073.83
 30
0.000000
  70
    32
  0
VERTEX
  8
01
  5
14AE5
 10
15726.7
 20
-1073.87
 30
0.000000
  70
    32
  0
VERTEX
  8
01
  5
14AE6
 10
15726.7
 20
-1073.91
 30
0.000000
  70
    32
  0
VERTEX
  8
01
  5
14AE7
 10
15726.7
 20
-1073.95
 30
0.000000
  70
    32
  0
VERTEX
  8
01
  5
14AE8
 10
15726.7
 20
-1073.99
 30
0.000000
  70
    32
  0
VERTEX
  8
01
  5
14AE9
 10
15726.7
 20
-1074.04
 30
0.000000
  70
    32
  0
VERTEX
  8
01
  5
14AEA
 10
15726.7
 20
-1074.08
 30
0.000000
  70
    32
  0
VERTEX
  8
01
  5
14AEB
 10
15726.7
 20
-1074.12
 30
0.000000
  70
    32
  0
VERTEX
  8
01
  5
14AEC
 10
15726.7
 20
-1074.16
 30
0.000000
  70
    32
  0
VERTEX
  8
01
  5
14AED
 10
15726.7
 20
-1074.20
 30
0.000000
  70
    32
  0
VERTEX
  8
01
  5
14AEE
 10
15726.7
 20
-1074.24
 30
0.000000
  70
    32
  0
VERTEX
  8
01
  5
14AEF
 10
15726.8
 20
-1074.27
 30
0.000000
  70
    32
  0
VERTEX
  8
01
  5
14AF0
 10
15726.8
 20
-1074.31
 30
0.000000
  70
    32
  0
VERTEX
  8
01
  5
14AF1
 10
15726.8
 20
-1074.35
 30
0.000000
  70
    32
  0
VERTEX
  8
01
  5
14AF2
 10
15726.8
 20
-1074.39
 30
0.000000
  70
    32
  0
VERTEX
  8
01
  5
14AF3
 10
15726.8
 20
-1074.43
 30
0.000000
  70
    32
  0
VERTEX
  8
01
  5
14AF4
 10
15726.8
 20
-1074.47
 30
0.000000
  70
    32
  0
VERTEX
  8
01
  5
14AF5
 10
15726.8
 20
-1074.51
 30
0.000000
  70
    32
  0
VERTEX
  8
01
  5
14AF6
 10
15726.8
 20
-1074.54
 30
0.000000
  70
    32
  0
VERTEX
  8
01
  5
14AF7
 10
15726.8
 20
-1074.58
 30
0.000000
  70
    32
  0
VERTEX
  8
01
  5
14AF8
 10
15726.8
 20
-1074.62
 30
0.000000
  70
    32
  0
VERTEX
  8
01
  5
14AF9
 10
15726.8
 20
-1074.65
 30
0.000000
  70
    32
  0
VERTEX
  8
01
  5
14AFA
 10
15726.8
 20
-1074.69
 30
0.000000
  70
    32
  0
VERTEX
  8
01
  5
14AFB
 10
15726.8
 20
-1074.73
 30
0.000000
  70
    32
  0
VERTEX
  8
01
  5
14AFC
 10
15726.8
 20
-1074.76
 30
0.000000
  70
    32
  0
VERTEX
  8
01
  5
14AFD
 10
15726.8
 20
-1074.80
 30
0.000000
  70
    32
  0
VERTEX
  8
01
  5
14AFE
 10
15726.8
 20
-1074.83
 30
0.000000
  70
    32
  0
VERTEX
  8
01
  5
14AFF
 10
15726.9
 20
-1074.87
 30
0.000000
  70
    32
  0
VERTEX
  8
01
  5
14B00
 10
15726.9
 20
-1074.90
 30
0.000000
  70
    32
  0
VERTEX
  8
01
  5
14B01
 10
15726.9
 20
-1074.93
 30
0.000000
  70
    32
  0
VERTEX
  8
01
  5
14B02
 10
15726.9
 20
-1074.97
 30
0.000000
  70
    32
  0
VERTEX
  8
01
  5
14B03
 10
15726.9
 20
-1075.00
 30
0.000000
  70
    32
  0
SEQEND
  8
01
  5
14B04
  0
LINE
  5
13FD4
  8
1CENTER
 10
15700.73798944418
 20
-950.89439931871402
 30
0.0
 11
15700.73798944418
 21
-1193.09894574346
 31
0.0
  0
LINE
  5
13FD5
  8
01
 10
15710.996989444169
 20
-1180.9921606661919
 30
0.0
 11
15709.797989444171
 21
-1182.154160666192
 31
0.0
  0
LINE
  5
13FD6
  8
01
 10
15709.797989444171
 20
-1182.154160666192
 30
0.0
 11
15691.67798944417
 21
-1182.154160666192
 31
0.0
  0
LINE
  5
13FD7
  8
01
 10
15691.67798944417
 20
-1182.154160666192
 30
0.0
 11
15690.478989444169
 21
-1180.9921606661919
 31
0.0
  0
LINE
  5
13FD8
  8
01
 10
15691.67798944417
 20
-1182.154160666192
 30
0.0
 11
15691.30298944417
 21
-1170.1551606661919
 31
0.0
  0
LINE
  5
13FD9
  8
01
 10
15709.797989444171
 20
-1182.154160666192
 30
0.0
 11
15710.172989444171
 21
-1170.1551606661919
 31
0.0
  0
LINE
  5
13FDA
  8
01
 10
15711.334989444171
 20
-1170.1551606661919
 30
0.0
 11
15710.996989444169
 21
-1180.9921606661919
 31
0.0
  0
LINE
  5
13FDB
  8
01
 10
15690.140989444169
 20
-1170.1551606661919
 30
0.0
 11
15690.478989444169
 21
-1180.9921606661919
 31
0.0
  0
LINE
  5
13FDC
  8
01
 10
15711.137989444171
 20
-1143.4691606661911
 30
0.0
 11
15711.137989444171
 21
-1147.949160666192
 31
0.0
  0
LINE
  5
13FDD
  8
01
 10
15690.33798944418
 20
-1143.4691606661911
 30
0.0
 11
15690.33798944418
 21
-1147.949160666192
 31
0.0
  0
LINE
  5
13FDE
  8
01
 10
15690.33798944418
 20
-1146.6751606661919
 30
0.0
 11
15690.33798944418
 21
-1116.8415043237071
 31
0.0
  0
LINE
  5
13FDF
  8
01
 10
15711.137989444171
 20
-1146.6751606661919
 30
0.0
 11
15711.137989444171
 21
-1116.841504323706
 31
0.0
  0
ARC
  5
13FE0
  8
01
 10
15712.94198944418
 20
-1172.949160666192
 30
0.0
 40
25.0
 50
66.444000000026023
 51
90.000999999996466
  0
ARC
  5
13FE1
  8
01
 10
15717.73798944418
 20
-1161.949160666192
 30
0.0
 40
13.0
 50
0.0
 51
66.444000000026023
  0
LINE
  5
13FE2
  8
01
 10
15730.737989444169
 20
-1161.949160666192
 30
0.0
 11
15730.737989444169
 21
-1163.949160666192
 31
0.0
  0
LINE
  5
13FE3
  8
01
 10
15700.73798944418
 20
-1163.949160666192
 30
0.0
 11
15730.737989444169
 21
-1163.949160666192
 31
0.0
  0
LINE
  5
13FE4
  8
01
 10
15700.73798944418
 20
-1147.949160666192
 30
0.0
 11
15712.94198944418
 21
-1147.949160666192
 31
0.0
  0
LINE
  5
13FE5
  8
01
 10
15700.73798944418
 20
-1147.949160666192
 30
0.0
 11
15688.533989444169
 21
-1147.949160666192
 31
0.0
  0
LINE
  5
13FE6
  8
01
 10
15700.73798944418
 20
-1163.949160666192
 30
0.0
 11
15670.737989444169
 21
-1163.949160666192
 31
0.0
  0
LINE
  5
13FE7
  8
01
 10
15670.737989444169
 20
-1161.949160666192
 30
0.0
 11
15670.737989444169
 21
-1163.949160666192
 31
0.0
  0
ARC
  5
13FE8
  8
01
 10
15683.737989444169
 20
-1161.949160666192
 30
0.0
 40
13.0
 50
113.55800000001661
 51
180.0009999999964
  0
ARC
  5
13FE9
  8
01
 10
15688.533989444169
 20
-1172.949160666192
 30
0.0
 40
25.0
 50
90.000999999996466
 51
113.55800000001661
  0
LINE
  5
13FEA
  8
01
 10
15711.137989444171
 20
-1102.5791606661919
 30
0.0
 11
15710.172989444171
 21
-1100.9951606661921
 31
0.0
  0
LINE
  5
13FEB
  8
01
 10
15690.33798944417
 20
-1102.5791606661919
 30
0.0
 11
15691.30298944417
 21
-1100.9951606661921
 31
0.0
  0
LINE
  5
13FEC
  8
01
 10
15700.73798944418
 20
-1100.9951606661921
 30
0.0
 11
15690.140989444169
 21
-1100.9951606661921
 31
0.0
  0
LINE
  5
13FED
  8
01
 10
15690.140989444169
 20
-1100.9951606661921
 30
0.0
 11
15690.2607458568
 21
-1097.1551606661919
 31
0.0
  0
LINE
  5
13FEE
  8
01
 10
15711.334989444171
 20
-1100.9951606661921
 30
0.0
 11
15711.215233031549
 21
-1097.1551606661919
 31
0.0
  0
LINE
  5
13FEF
  8
01
 10
15710.05298944417
 20
-1097.1551606661919
 30
0.0
 11
15710.172989444171
 21
-1100.9951606661921
 31
0.0
  0
LINE
  5
13FF0
  8
01
 10
15691.422989444171
 20
-1097.1551606661919
 30
0.0
 11
15691.30298944417
 21
-1100.9951606661921
 31
0.0
  0
LINE
  5
13FF1
  8
01
 10
15700.73798944418
 20
-1100.9951606661921
 30
0.0
 11
15711.334989444171
 21
-1100.9951606661921
 31
0.0
  0
LINE
  5
13FF2
  8
01
 10
15690.33798944417
 20
-1106.7869491824149
 30
0.0
 11
15690.33798944417
 21
-1100.9951606661921
 31
0.0
  0
LINE
  5
13FF3
  8
01
 10
15711.137989444171
 20
-1106.786949182414
 30
0.0
 11
15711.137989444171
 21
-1100.9951606661921
 31
0.0
  0
LINE
  5
13FF6
  8
01
 10
15700.73798944418
 20
-1170.1551606661919
 30
0.0
 11
15690.140989444169
 21
-1170.1551606661919
 31
0.0
  0
LINE
  5
13FF7
  8
01
 10
15690.33798944417
 20
-1168.5701606661919
 30
0.0
 11
15691.30298944417
 21
-1170.1551606661919
 31
0.0
  0
LINE
  5
13FF8
  8
01
 10
15711.137989444171
 20
-1168.5701606661919
 30
0.0
 11
15710.172989444171
 21
-1170.1551606661919
 31
0.0
  0
LINE
  5
13FF9
  8
01
 10
15700.73798944418
 20
-1170.1551606661919
 30
0.0
 11
15711.334989444171
 21
-1170.1551606661919
 31
0.0
  0
LINE
  5
13FFA
  8
01
 10
15711.137989444171
 20
-1163.949160666192
 30
0.0
 11
15711.137989444171
 21
-1170.1551606661919
 31
0.0
  0
LINE
  5
13FFB
  8
01
 10
15690.33798944417
 20
-1163.949160666192
 30
0.0
 11
15690.33798944417
 21
-1170.1551606661919
 31
0.0
  0
LINE
  5
13FFC
  8
01
 10
15689.826989444169
 20
-1028.2551606661921
 30
0.0
 11
15700.73798944418
 21
-1028.2551606661921
 31
0.0
  0
ARC
  5
13FFD
  8
01
 10
15699.637989444171
 20
-1034.2551606661921
 30
0.0
 40
11.5
 50
148.55099999999999
 51
211.44900000000001
  0
LINE
  5
13FFE
  8
01
 10
15689.826989444169
 20
-1040.2551606661921
 30
0.0
 11
15700.73798944418
 21
-1040.2551606661921
 31
0.0
  0
LINE
  5
13FFF
  8
01
 10
15690.77898944417
 20
-1029.3471606661919
 30
0.0
 11
15690.29498944417
 21
-1029.4351606661919
 31
0.0
  0
LINE
  5
14000
  8
01
 10
15690.29498944417
 20
-1029.4351606661919
 30
0.0
 11
15689.85098944417
 21
-1029.6771606661921
 31
0.0
  0
LINE
  5
14001
  8
01
 10
15689.85098944417
 20
-1029.6771606661921
 30
0.0
 11
15689.470989444169
 21
-1030.028160666192
 31
0.0
  0
LINE
  5
14002
  8
01
 10
15689.470989444169
 20
-1030.028160666192
 30
0.0
 11
15689.16298944417
 21
-1030.4341606661919
 31
0.0
  0
LINE
  5
14003
  8
01
 10
15689.16298944417
 20
-1030.4341606661919
 30
0.0
 11
15688.92198944417
 21
-1030.856160666192
 31
0.0
  0
LINE
  5
14004
  8
01
 10
15688.92198944417
 20
-1030.856160666192
 30
0.0
 11
15688.735989444171
 21
-1031.269160666192
 31
0.0
  0
LINE
  5
14005
  8
01
 10
15688.735989444171
 20
-1031.269160666192
 30
0.0
 11
15688.593989444171
 21
-1031.661160666192
 31
0.0
  0
LINE
  5
14006
  8
01
 10
15688.593989444171
 20
-1031.661160666192
 30
0.0
 11
15688.48498944417
 21
-1032.028160666192
 31
0.0
  0
LINE
  5
14007
  8
01
 10
15688.48498944417
 20
-1032.028160666192
 30
0.0
 11
15688.40198944417
 21
-1032.3691606661921
 31
0.0
  0
LINE
  5
14008
  8
01
 10
15688.40198944417
 20
-1032.3691606661921
 30
0.0
 11
15688.33898944417
 21
-1032.689160666192
 31
0.0
  0
LINE
  5
14009
  8
01
 10
15688.33898944417
 20
-1032.689160666192
 30
0.0
 11
15688.291989444169
 21
-1032.989160666192
 31
0.0
  0
LINE
  5
1400A
  8
01
 10
15688.291989444169
 20
-1032.989160666192
 30
0.0
 11
15688.255989444169
 21
-1033.2751606661921
 31
0.0
  0
LINE
  5
1400B
  8
01
 10
15688.255989444169
 20
-1033.2751606661921
 30
0.0
 11
15688.23098944417
 21
-1033.548160666192
 31
0.0
  0
LINE
  5
1400C
  8
01
 10
15688.23098944417
 20
-1033.548160666192
 30
0.0
 11
15688.21498944417
 21
-1033.8131606661909
 31
0.0
  0
LINE
  5
1400D
  8
01
 10
15688.21498944417
 20
-1033.8131606661909
 30
0.0
 11
15688.20598944417
 21
-1034.0731606661921
 31
0.0
  0
LINE
  5
1400E
  8
01
 10
15688.20598944417
 20
-1034.0731606661921
 30
0.0
 11
15688.20498944417
 21
-1034.3301606661919
 31
0.0
  0
LINE
  5
1400F
  8
01
 10
15688.20498944417
 20
-1034.3301606661919
 30
0.0
 11
15688.210989444169
 21
-1034.5891606661919
 31
0.0
  0
LINE
  5
14010
  8
01
 10
15688.210989444169
 20
-1034.5891606661919
 30
0.0
 11
15688.22398944417
 21
-1034.8511606661921
 31
0.0
  0
LINE
  5
14011
  8
01
 10
15688.22398944417
 20
-1034.8511606661921
 30
0.0
 11
15688.244989444171
 21
-1035.1211606661921
 31
0.0
  0
LINE
  5
14012
  8
01
 10
15688.244989444171
 20
-1035.1211606661921
 30
0.0
 11
15688.27598944417
 21
-1035.401160666192
 31
0.0
  0
LINE
  5
14013
  8
01
 10
15688.27598944417
 20
-1035.401160666192
 30
0.0
 11
15688.31798944418
 21
-1035.6941606661919
 31
0.0
  0
LINE
  5
14014
  8
01
 10
15688.31798944418
 20
-1035.6941606661919
 30
0.0
 11
15688.37398944417
 21
-1036.006160666192
 31
0.0
  0
LINE
  5
14015
  8
01
 10
15688.37398944417
 20
-1036.006160666192
 30
0.0
 11
15688.44798944417
 21
-1036.3381606661919
 31
0.0
  0
LINE
  5
14016
  8
01
 10
15688.44798944417
 20
-1036.3381606661919
 30
0.0
 11
15688.54498944417
 21
-1036.6941606661919
 31
0.0
  0
LINE
  5
14017
  8
01
 10
15688.54498944417
 20
-1036.6941606661919
 30
0.0
 11
15688.67198944417
 21
-1037.075160666192
 31
0.0
  0
LINE
  5
14018
  8
01
 10
15688.67198944417
 20
-1037.075160666192
 30
0.0
 11
15688.83798944417
 21
-1037.480160666192
 31
0.0
  0
LINE
  5
14019
  8
01
 10
15688.83798944417
 20
-1037.480160666192
 30
0.0
 11
15689.05498944417
 21
-1037.901160666192
 31
0.0
  0
LINE
  5
1401A
  8
01
 10
15689.05498944417
 20
-1037.901160666192
 30
0.0
 11
15689.333989444171
 21
-1038.3181606661919
 31
0.0
  0
LINE
  5
1401B
  8
01
 10
15689.333989444171
 20
-1038.3181606661919
 30
0.0
 11
15689.683989444169
 21
-1038.6971606661921
 31
0.0
  0
LINE
  5
1401C
  8
01
 10
15689.683989444169
 20
-1038.6971606661921
 30
0.0
 11
15690.102989444171
 21
-1038.9911606661919
 31
0.0
  0
LINE
  5
1401D
  8
01
 10
15690.102989444171
 20
-1038.9911606661919
 30
0.0
 11
15690.574989444171
 21
-1039.1481606661921
 31
0.0
  0
LINE
  5
1401E
  8
01
 10
15690.574989444171
 20
-1039.1481606661921
 30
0.0
 11
15690.77898944417
 21
-1039.163160666192
 31
0.0
  0
LINE
  5
1401F
  8
01
 10
15690.77898944417
 20
-1039.163160666192
 30
0.0
 11
15691.06398944417
 21
-1039.133160666192
 31
0.0
  0
LINE
  5
14020
  8
01
 10
15691.06398944417
 20
-1039.133160666192
 30
0.0
 11
15691.52898944417
 21
-1038.950160666192
 31
0.0
  0
LINE
  5
14021
  8
01
 10
15691.52898944417
 20
-1038.950160666192
 30
0.0
 11
15691.93698944417
 21
-1038.6381606661921
 31
0.0
  0
LINE
  5
14022
  8
01
 10
15691.93698944417
 20
-1038.6381606661921
 30
0.0
 11
15692.274989444169
 21
-1038.249160666192
 31
0.0
  0
LINE
  5
14023
  8
01
 10
15692.274989444169
 20
-1038.249160666192
 30
0.0
 11
15692.54198944418
 21
-1037.8301606661919
 31
0.0
  0
LINE
  5
14024
  8
01
 10
15692.54198944418
 20
-1037.8301606661919
 30
0.0
 11
15692.74998944417
 21
-1037.4111606661911
 31
0.0
  0
LINE
  5
14025
  8
01
 10
15692.74998944417
 20
-1037.4111606661911
 30
0.0
 11
15692.908989444169
 21
-1037.009160666192
 31
0.0
  0
LINE
  5
14026
  8
01
 10
15692.908989444169
 20
-1037.009160666192
 30
0.0
 11
15693.030989444171
 21
-1036.632160666192
 31
0.0
  0
LINE
  5
14027
  8
01
 10
15693.030989444171
 20
-1036.632160666192
 30
0.0
 11
15693.122989444169
 21
-1036.2801606661919
 31
0.0
  0
LINE
  5
14028
  8
01
 10
15693.122989444169
 20
-1036.2801606661919
 30
0.0
 11
15693.193989444169
 21
-1035.952160666192
 31
0.0
  0
LINE
  5
14029
  8
01
 10
15693.193989444169
 20
-1035.952160666192
 30
0.0
 11
15693.246989444169
 21
-1035.644160666192
 31
0.0
  0
LINE
  5
1402A
  8
01
 10
15693.246989444169
 20
-1035.644160666192
 30
0.0
 11
15693.28698944417
 21
-1035.353160666192
 31
0.0
  0
LINE
  5
1402B
  8
01
 10
15693.28698944417
 20
-1035.353160666192
 30
0.0
 11
15693.315989444171
 21
-1035.075160666192
 31
0.0
  0
LINE
  5
1402C
  8
01
 10
15693.315989444171
 20
-1035.075160666192
 30
0.0
 11
15693.335989444169
 21
-1034.807160666192
 31
0.0
  0
LINE
  5
1402D
  8
01
 10
15693.335989444169
 20
-1034.807160666192
 30
0.0
 11
15693.34798944417
 21
-1034.5451606661909
 31
0.0
  0
LINE
  5
1402E
  8
01
 10
15693.34798944417
 20
-1034.5451606661909
 30
0.0
 11
15693.35298944418
 21
-1034.287160666192
 31
0.0
  0
LINE
  5
1402F
  8
01
 10
15693.35298944418
 20
-1034.287160666192
 30
0.0
 11
15693.34998944417
 21
-1034.029160666192
 31
0.0
  0
LINE
  5
14030
  8
01
 10
15693.34998944417
 20
-1034.029160666192
 30
0.0
 11
15693.33998944417
 21
-1033.769160666192
 31
0.0
  0
LINE
  5
14031
  8
01
 10
15693.33998944417
 20
-1033.769160666192
 30
0.0
 11
15693.32198944417
 21
-1033.5031606661919
 31
0.0
  0
LINE
  5
14032
  8
01
 10
15693.32198944417
 20
-1033.5031606661919
 30
0.0
 11
15693.29598944417
 21
-1033.228160666192
 31
0.0
  0
LINE
  5
14033
  8
01
 10
15693.29598944417
 20
-1033.228160666192
 30
0.0
 11
15693.25798944417
 21
-1032.940160666192
 31
0.0
  0
LINE
  5
14034
  8
01
 10
15693.25798944417
 20
-1032.940160666192
 30
0.0
 11
15693.208989444171
 21
-1032.6371606661919
 31
0.0
  0
LINE
  5
14035
  8
01
 10
15693.208989444171
 20
-1032.6371606661919
 30
0.0
 11
15693.14298944417
 21
-1032.314160666192
 31
0.0
  0
LINE
  5
14036
  8
01
 10
15693.14298944417
 20
-1032.314160666192
 30
0.0
 11
15693.05598944417
 21
-1031.968160666192
 31
0.0
  0
LINE
  5
14037
  8
01
 10
15693.05598944417
 20
-1031.968160666192
 30
0.0
 11
15692.94198944418
 21
-1031.5971606661919
 31
0.0
  0
LINE
  5
14038
  8
01
 10
15692.94198944418
 20
-1031.5971606661919
 30
0.0
 11
15692.79398944417
 21
-1031.201160666192
 31
0.0
  0
LINE
  5
14039
  8
01
 10
15692.79398944417
 20
-1031.201160666192
 30
0.0
 11
15692.59898944417
 21
-1030.785160666192
 31
0.0
  0
LINE
  5
1403A
  8
01
 10
15692.59898944417
 20
-1030.785160666192
 30
0.0
 11
15692.34698944417
 21
-1030.364160666192
 31
0.0
  0
LINE
  5
1403B
  8
01
 10
15692.34698944417
 20
-1030.364160666192
 30
0.0
 11
15692.02698944417
 21
-1029.9641606661919
 31
0.0
  0
LINE
  5
1403C
  8
01
 10
15692.02698944417
 20
-1029.9641606661919
 30
0.0
 11
15691.63598944417
 21
-1029.6271606661919
 31
0.0
  0
LINE
  5
1403D
  8
01
 10
15691.63598944417
 20
-1029.6271606661919
 30
0.0
 11
15691.182989444171
 21
-1029.4081606661921
 31
0.0
  0
LINE
  5
1403E
  8
01
 10
15691.182989444171
 20
-1029.4081606661921
 30
0.0
 11
15690.77898944417
 21
-1029.3471606661919
 31
0.0
  0
LINE
  5
1403F
  8
01
 10
15700.73798944418
 20
-1029.3471606661919
 30
0.0
 11
15700.24798944418
 21
-1029.3691606661921
 31
0.0
  0
LINE
  5
14040
  8
01
 10
15700.24798944418
 20
-1029.3691606661921
 30
0.0
 11
15699.76098944417
 21
-1029.4361606661921
 31
0.0
  0
LINE
  5
14041
  8
01
 10
15699.76098944417
 20
-1029.4361606661921
 30
0.0
 11
15699.28198944418
 21
-1029.548160666192
 31
0.0
  0
LINE
  5
14042
  8
01
 10
15699.28198944418
 20
-1029.548160666192
 30
0.0
 11
15698.81298944417
 21
-1029.7031606661919
 31
0.0
  0
LINE
  5
14043
  8
01
 10
15698.81298944417
 20
-1029.7031606661919
 30
0.0
 11
15698.35998944417
 21
-1029.902160666192
 31
0.0
  0
LINE
  5
14044
  8
01
 10
15698.35998944417
 20
-1029.902160666192
 30
0.0
 11
15697.924989444169
 21
-1030.144160666192
 31
0.0
  0
LINE
  5
14045
  8
01
 10
15697.924989444169
 20
-1030.144160666192
 30
0.0
 11
15697.513989444171
 21
-1030.4281606661921
 31
0.0
  0
LINE
  5
14046
  8
01
 10
15697.513989444171
 20
-1030.4281606661921
 30
0.0
 11
15697.130989444169
 21
-1030.7521606661919
 31
0.0
  0
LINE
  5
14047
  8
01
 10
15697.130989444169
 20
-1030.7521606661919
 30
0.0
 11
15696.780989444171
 21
-1031.115160666192
 31
0.0
  0
LINE
  5
14048
  8
01
 10
15696.780989444171
 20
-1031.115160666192
 30
0.0
 11
15696.467989444171
 21
-1031.5131606661921
 31
0.0
  0
LINE
  5
14049
  8
01
 10
15696.467989444171
 20
-1031.5131606661921
 30
0.0
 11
15696.19598944417
 21
-1031.9431606661919
 31
0.0
  0
LINE
  5
1404A
  8
01
 10
15696.19598944417
 20
-1031.9431606661919
 30
0.0
 11
15695.969989444169
 21
-1032.402160666192
 31
0.0
  0
LINE
  5
1404B
  8
01
 10
15695.969989444169
 20
-1032.402160666192
 30
0.0
 11
15695.79398944417
 21
-1032.883160666192
 31
0.0
  0
LINE
  5
1404C
  8
01
 10
15695.79398944417
 20
-1032.883160666192
 30
0.0
 11
15695.67098944417
 21
-1033.381160666192
 31
0.0
  0
LINE
  5
1404D
  8
01
 10
15695.67098944417
 20
-1033.381160666192
 30
0.0
 11
15695.602989444171
 21
-1033.891160666192
 31
0.0
  0
LINE
  5
1404E
  8
01
 10
15695.602989444171
 20
-1033.891160666192
 30
0.0
 11
15695.58898944417
 21
-1034.2551606661921
 31
0.0
  0
LINE
  5
1404F
  8
01
 10
15695.58898944417
 20
-1034.2551606661921
 30
0.0
 11
15695.59098944417
 21
-1034.4051606661919
 31
0.0
  0
LINE
  5
14050
  8
01
 10
15695.59098944417
 20
-1034.4051606661919
 30
0.0
 11
15695.63598944417
 21
-1034.9181606661921
 31
0.0
  0
LINE
  5
14051
  8
01
 10
15695.63598944417
 20
-1034.9181606661921
 30
0.0
 11
15695.73698944418
 21
-1035.422160666192
 31
0.0
  0
LINE
  5
14052
  8
01
 10
15695.73698944418
 20
-1035.422160666192
 30
0.0
 11
15695.890989444169
 21
-1035.9111606661911
 31
0.0
  0
LINE
  5
14053
  8
01
 10
15695.890989444169
 20
-1035.9111606661911
 30
0.0
 11
15696.095989444169
 21
-1036.3791606661921
 31
0.0
  0
LINE
  5
14054
  8
01
 10
15696.095989444169
 20
-1036.3791606661921
 30
0.0
 11
15696.34898944417
 21
-1036.8221606661921
 31
0.0
  0
LINE
  5
14055
  8
01
 10
15696.34898944417
 20
-1036.8221606661921
 30
0.0
 11
15696.64598944417
 21
-1037.2341606661921
 31
0.0
  0
LINE
  5
14056
  8
01
 10
15696.64598944417
 20
-1037.2341606661921
 30
0.0
 11
15696.98098944417
 21
-1037.612160666192
 31
0.0
  0
LINE
  5
14057
  8
01
 10
15696.98098944417
 20
-1037.612160666192
 30
0.0
 11
15697.35098944417
 21
-1037.952160666192
 31
0.0
  0
LINE
  5
14058
  8
01
 10
15697.35098944417
 20
-1037.952160666192
 30
0.0
 11
15697.75098944417
 21
-1038.2531606661919
 31
0.0
  0
LINE
  5
14059
  8
01
 10
15697.75098944417
 20
-1038.2531606661919
 30
0.0
 11
15698.17698944417
 21
-1038.5131606661921
 31
0.0
  0
LINE
  5
1405A
  8
01
 10
15698.17698944417
 20
-1038.5131606661921
 30
0.0
 11
15698.62298944418
 21
-1038.730160666192
 31
0.0
  0
LINE
  5
1405B
  8
01
 10
15698.62298944418
 20
-1038.730160666192
 30
0.0
 11
15699.084989444171
 21
-1038.903160666192
 31
0.0
  0
LINE
  5
1405C
  8
01
 10
15699.084989444171
 20
-1038.903160666192
 30
0.0
 11
15699.56098944417
 21
-1039.0331606661921
 31
0.0
  0
LINE
  5
1405D
  8
01
 10
15699.56098944417
 20
-1039.0331606661921
 30
0.0
 11
15700.04498944417
 21
-1039.1181606661919
 31
0.0
  0
LINE
  5
1405E
  8
01
 10
15700.04498944417
 20
-1039.1181606661919
 30
0.0
 11
15700.533989444169
 21
-1039.1591606661921
 31
0.0
  0
LINE
  5
1405F
  8
01
 10
15700.533989444169
 20
-1039.1591606661921
 30
0.0
 11
15700.73798944418
 21
-1039.163160666192
 31
0.0
  0
LINE
  5
14060
  8
01
 10
15711.64898944418
 20
-1028.2551606661921
 30
0.0
 11
15700.73798944418
 21
-1028.2551606661921
 31
0.0
  0
ARC
  5
14061
  8
01
 10
15701.83798944418
 20
-1034.2551606661921
 30
0.0
 40
11.5
 50
328.55099999999999
 51
31.449000000000002
  0
LINE
  5
14062
  8
01
 10
15711.64898944418
 20
-1040.2551606661921
 30
0.0
 11
15700.73798944418
 21
-1040.2551606661921
 31
0.0
  0
LINE
  5
14063
  8
01
 10
15710.69698944417
 20
-1029.3471606661919
 30
0.0
 11
15711.18098944417
 21
-1029.4351606661919
 31
0.0
  0
LINE
  5
14064
  8
01
 10
15711.18098944417
 20
-1029.4351606661919
 30
0.0
 11
15711.62498944417
 21
-1029.6771606661921
 31
0.0
  0
LINE
  5
14065
  8
01
 10
15711.62498944417
 20
-1029.6771606661921
 30
0.0
 11
15712.004989444171
 21
-1030.028160666192
 31
0.0
  0
LINE
  5
14066
  8
01
 10
15712.004989444171
 20
-1030.028160666192
 30
0.0
 11
15712.31298944417
 21
-1030.4341606661919
 31
0.0
  0
LINE
  5
14067
  8
01
 10
15712.31298944417
 20
-1030.4341606661919
 30
0.0
 11
15712.55398944417
 21
-1030.856160666192
 31
0.0
  0
LINE
  5
14068
  8
01
 10
15712.55398944417
 20
-1030.856160666192
 30
0.0
 11
15712.73998944417
 21
-1031.269160666192
 31
0.0
  0
LINE
  5
14069
  8
01
 10
15712.73998944417
 20
-1031.269160666192
 30
0.0
 11
15712.88198944418
 21
-1031.661160666192
 31
0.0
  0
LINE
  5
1406A
  8
01
 10
15712.88198944418
 20
-1031.661160666192
 30
0.0
 11
15712.99098944417
 21
-1032.028160666192
 31
0.0
  0
LINE
  5
1406B
  8
01
 10
15712.99098944417
 20
-1032.028160666192
 30
0.0
 11
15713.07398944417
 21
-1032.3691606661921
 31
0.0
  0
LINE
  5
1406C
  8
01
 10
15713.07398944417
 20
-1032.3691606661921
 30
0.0
 11
15713.13698944417
 21
-1032.689160666192
 31
0.0
  0
LINE
  5
1406D
  8
01
 10
15713.13698944417
 20
-1032.689160666192
 30
0.0
 11
15713.183989444169
 21
-1032.989160666192
 31
0.0
  0
LINE
  5
1406E
  8
01
 10
15713.183989444169
 20
-1032.989160666192
 30
0.0
 11
15713.21998944418
 21
-1033.2751606661921
 31
0.0
  0
LINE
  5
1406F
  8
01
 10
15713.21998944418
 20
-1033.2751606661921
 30
0.0
 11
15713.244989444171
 21
-1033.548160666192
 31
0.0
  0
LINE
  5
14070
  8
01
 10
15713.244989444171
 20
-1033.548160666192
 30
0.0
 11
15713.26098944417
 21
-1033.8131606661909
 31
0.0
  0
LINE
  5
14071
  8
01
 10
15713.26098944417
 20
-1033.8131606661909
 30
0.0
 11
15713.26998944417
 21
-1034.0731606661921
 31
0.0
  0
LINE
  5
14072
  8
01
 10
15713.26998944417
 20
-1034.0731606661921
 30
0.0
 11
15713.27098944417
 21
-1034.3301606661919
 31
0.0
  0
LINE
  5
14073
  8
01
 10
15713.27098944417
 20
-1034.3301606661919
 30
0.0
 11
15713.26498944418
 21
-1034.5891606661919
 31
0.0
  0
LINE
  5
14074
  8
01
 10
15713.26498944418
 20
-1034.5891606661919
 30
0.0
 11
15713.25198944417
 21
-1034.8511606661921
 31
0.0
  0
LINE
  5
14075
  8
01
 10
15713.25198944417
 20
-1034.8511606661921
 30
0.0
 11
15713.23098944417
 21
-1035.1211606661921
 31
0.0
  0
LINE
  5
14076
  8
01
 10
15713.23098944417
 20
-1035.1211606661921
 30
0.0
 11
15713.199989444171
 21
-1035.401160666192
 31
0.0
  0
LINE
  5
14077
  8
01
 10
15713.199989444171
 20
-1035.401160666192
 30
0.0
 11
15713.157989444169
 21
-1035.6941606661919
 31
0.0
  0
LINE
  5
14078
  8
01
 10
15713.157989444169
 20
-1035.6941606661919
 30
0.0
 11
15713.101989444171
 21
-1036.006160666192
 31
0.0
  0
LINE
  5
14079
  8
01
 10
15713.101989444171
 20
-1036.006160666192
 30
0.0
 11
15713.02798944417
 21
-1036.3381606661919
 31
0.0
  0
LINE
  5
1407A
  8
01
 10
15713.02798944417
 20
-1036.3381606661919
 30
0.0
 11
15712.93098944417
 21
-1036.6941606661919
 31
0.0
  0
LINE
  5
1407B
  8
01
 10
15712.93098944417
 20
-1036.6941606661919
 30
0.0
 11
15712.80398944417
 21
-1037.075160666192
 31
0.0
  0
LINE
  5
1407C
  8
01
 10
15712.80398944417
 20
-1037.075160666192
 30
0.0
 11
15712.637989444171
 21
-1037.480160666192
 31
0.0
  0
LINE
  5
1407D
  8
01
 10
15712.637989444171
 20
-1037.480160666192
 30
0.0
 11
15712.42098944417
 21
-1037.901160666192
 31
0.0
  0
LINE
  5
1407E
  8
01
 10
15712.42098944417
 20
-1037.901160666192
 30
0.0
 11
15712.14198944417
 21
-1038.3181606661919
 31
0.0
  0
LINE
  5
1407F
  8
01
 10
15712.14198944417
 20
-1038.3181606661919
 30
0.0
 11
15711.791989444169
 21
-1038.6971606661921
 31
0.0
  0
LINE
  5
14080
  8
01
 10
15711.791989444169
 20
-1038.6971606661921
 30
0.0
 11
15711.372989444169
 21
-1038.9911606661919
 31
0.0
  0
LINE
  5
14081
  8
01
 10
15711.372989444169
 20
-1038.9911606661919
 30
0.0
 11
15710.90098944417
 21
-1039.1481606661921
 31
0.0
  0
LINE
  5
14082
  8
01
 10
15710.90098944417
 20
-1039.1481606661921
 30
0.0
 11
15710.69698944417
 21
-1039.163160666192
 31
0.0
  0
LINE
  5
14083
  8
01
 10
15710.69698944417
 20
-1039.163160666192
 30
0.0
 11
15710.41198944417
 21
-1039.133160666192
 31
0.0
  0
LINE
  5
14084
  8
01
 10
15710.41198944417
 20
-1039.133160666192
 30
0.0
 11
15709.94698944417
 21
-1038.950160666192
 31
0.0
  0
LINE
  5
14085
  8
01
 10
15709.94698944417
 20
-1038.950160666192
 30
0.0
 11
15709.538989444171
 21
-1038.6381606661921
 31
0.0
  0
LINE
  5
14086
  8
01
 10
15709.538989444171
 20
-1038.6381606661921
 30
0.0
 11
15709.200989444171
 21
-1038.249160666192
 31
0.0
  0
LINE
  5
14087
  8
01
 10
15709.200989444171
 20
-1038.249160666192
 30
0.0
 11
15708.933989444169
 21
-1037.8301606661919
 31
0.0
  0
LINE
  5
14088
  8
01
 10
15708.933989444169
 20
-1037.8301606661919
 30
0.0
 11
15708.72598944417
 21
-1037.4111606661911
 31
0.0
  0
LINE
  5
14089
  8
01
 10
15708.72598944417
 20
-1037.4111606661911
 30
0.0
 11
15708.566989444171
 21
-1037.009160666192
 31
0.0
  0
LINE
  5
1408A
  8
01
 10
15708.566989444171
 20
-1037.009160666192
 30
0.0
 11
15708.44498944417
 21
-1036.632160666192
 31
0.0
  0
LINE
  5
1408B
  8
01
 10
15708.44498944417
 20
-1036.632160666192
 30
0.0
 11
15708.352989444171
 21
-1036.2801606661919
 31
0.0
  0
LINE
  5
1408C
  8
01
 10
15708.352989444171
 20
-1036.2801606661919
 30
0.0
 11
15708.281989444171
 21
-1035.952160666192
 31
0.0
  0
LINE
  5
1408D
  8
01
 10
15708.281989444171
 20
-1035.952160666192
 30
0.0
 11
15708.22898944418
 21
-1035.644160666192
 31
0.0
  0
LINE
  5
1408E
  8
01
 10
15708.22898944418
 20
-1035.644160666192
 30
0.0
 11
15708.18898944417
 21
-1035.353160666192
 31
0.0
  0
LINE
  5
1408F
  8
01
 10
15708.18898944417
 20
-1035.353160666192
 30
0.0
 11
15708.15998944417
 21
-1035.075160666192
 31
0.0
  0
LINE
  5
14090
  8
01
 10
15708.15998944417
 20
-1035.075160666192
 30
0.0
 11
15708.139989444169
 21
-1034.807160666192
 31
0.0
  0
LINE
  5
14091
  8
01
 10
15708.139989444169
 20
-1034.807160666192
 30
0.0
 11
15708.12798944417
 21
-1034.5451606661909
 31
0.0
  0
LINE
  5
14092
  8
01
 10
15708.12798944417
 20
-1034.5451606661909
 30
0.0
 11
15708.122989444169
 21
-1034.287160666192
 31
0.0
  0
LINE
  5
14093
  8
01
 10
15708.122989444169
 20
-1034.287160666192
 30
0.0
 11
15708.12598944417
 21
-1034.029160666192
 31
0.0
  0
LINE
  5
14094
  8
01
 10
15708.12598944417
 20
-1034.029160666192
 30
0.0
 11
15708.13598944417
 21
-1033.769160666192
 31
0.0
  0
LINE
  5
14095
  8
01
 10
15708.13598944417
 20
-1033.769160666192
 30
0.0
 11
15708.15398944417
 21
-1033.5031606661919
 31
0.0
  0
LINE
  5
14096
  8
01
 10
15708.15398944417
 20
-1033.5031606661919
 30
0.0
 11
15708.17998944417
 21
-1033.228160666192
 31
0.0
  0
LINE
  5
14097
  8
01
 10
15708.17998944417
 20
-1033.228160666192
 30
0.0
 11
15708.217989444171
 21
-1032.940160666192
 31
0.0
  0
LINE
  5
14098
  8
01
 10
15708.217989444171
 20
-1032.940160666192
 30
0.0
 11
15708.26698944417
 21
-1032.6371606661919
 31
0.0
  0
LINE
  5
14099
  8
01
 10
15708.26698944417
 20
-1032.6371606661919
 30
0.0
 11
15708.33298944417
 21
-1032.314160666192
 31
0.0
  0
LINE
  5
1409A
  8
01
 10
15708.33298944417
 20
-1032.314160666192
 30
0.0
 11
15708.41998944417
 21
-1031.968160666192
 31
0.0
  0
LINE
  5
1409B
  8
01
 10
15708.41998944417
 20
-1031.968160666192
 30
0.0
 11
15708.53398944418
 21
-1031.5971606661919
 31
0.0
  0
LINE
  5
1409C
  8
01
 10
15708.53398944418
 20
-1031.5971606661919
 30
0.0
 11
15708.68198944418
 21
-1031.201160666192
 31
0.0
  0
LINE
  5
1409D
  8
01
 10
15708.68198944418
 20
-1031.201160666192
 30
0.0
 11
15708.87698944417
 21
-1030.785160666192
 31
0.0
  0
LINE
  5
1409E
  8
01
 10
15708.87698944417
 20
-1030.785160666192
 30
0.0
 11
15709.128989444171
 21
-1030.364160666192
 31
0.0
  0
LINE
  5
1409F
  8
01
 10
15709.128989444171
 20
-1030.364160666192
 30
0.0
 11
15709.44898944417
 21
-1029.9641606661919
 31
0.0
  0
LINE
  5
140A0
  8
01
 10
15709.44898944417
 20
-1029.9641606661919
 30
0.0
 11
15709.83998944417
 21
-1029.6271606661919
 31
0.0
  0
LINE
  5
140A1
  8
01
 10
15709.83998944417
 20
-1029.6271606661919
 30
0.0
 11
15710.29298944417
 21
-1029.4081606661921
 31
0.0
  0
LINE
  5
140A2
  8
01
 10
15710.29298944417
 20
-1029.4081606661921
 30
0.0
 11
15710.69698944417
 21
-1029.3471606661919
 31
0.0
  0
LINE
  5
140A3
  8
01
 10
15700.73798944418
 20
-1029.3471606661919
 30
0.0
 11
15701.227989444171
 21
-1029.3691606661921
 31
0.0
  0
LINE
  5
140A4
  8
01
 10
15701.227989444171
 20
-1029.3691606661921
 30
0.0
 11
15701.71498944417
 21
-1029.4361606661921
 31
0.0
  0
LINE
  5
140A5
  8
01
 10
15701.71498944417
 20
-1029.4361606661921
 30
0.0
 11
15702.193989444169
 21
-1029.548160666192
 31
0.0
  0
LINE
  5
140A6
  8
01
 10
15702.193989444169
 20
-1029.548160666192
 30
0.0
 11
15702.66298944417
 21
-1029.7031606661919
 31
0.0
  0
LINE
  5
140A7
  8
01
 10
15702.66298944417
 20
-1029.7031606661919
 30
0.0
 11
15703.11598944417
 21
-1029.902160666192
 31
0.0
  0
LINE
  5
140A8
  8
01
 10
15703.11598944417
 20
-1029.902160666192
 30
0.0
 11
15703.550989444169
 21
-1030.144160666192
 31
0.0
  0
LINE
  5
140A9
  8
01
 10
15703.550989444169
 20
-1030.144160666192
 30
0.0
 11
15703.961989444169
 21
-1030.4281606661921
 31
0.0
  0
LINE
  5
140AA
  8
01
 10
15703.961989444169
 20
-1030.4281606661921
 30
0.0
 11
15704.344989444169
 21
-1030.7521606661919
 31
0.0
  0
LINE
  5
140AB
  8
01
 10
15704.344989444169
 20
-1030.7521606661919
 30
0.0
 11
15704.69498944417
 21
-1031.115160666192
 31
0.0
  0
LINE
  5
140AC
  8
01
 10
15704.69498944417
 20
-1031.115160666192
 30
0.0
 11
15705.00798944417
 21
-1031.5131606661921
 31
0.0
  0
LINE
  5
140AD
  8
01
 10
15705.00798944417
 20
-1031.5131606661921
 30
0.0
 11
15705.27998944417
 21
-1031.9431606661919
 31
0.0
  0
LINE
  5
140AE
  8
01
 10
15705.27998944417
 20
-1031.9431606661919
 30
0.0
 11
15705.505989444169
 21
-1032.402160666192
 31
0.0
  0
LINE
  5
140AF
  8
01
 10
15705.505989444169
 20
-1032.402160666192
 30
0.0
 11
15705.681989444171
 21
-1032.883160666192
 31
0.0
  0
LINE
  5
140B0
  8
01
 10
15705.681989444171
 20
-1032.883160666192
 30
0.0
 11
15705.80498944417
 21
-1033.381160666192
 31
0.0
  0
LINE
  5
140B1
  8
01
 10
15705.80498944417
 20
-1033.381160666192
 30
0.0
 11
15705.87298944418
 21
-1033.891160666192
 31
0.0
  0
LINE
  5
140B2
  8
01
 10
15705.87298944418
 20
-1033.891160666192
 30
0.0
 11
15705.88698944417
 21
-1034.2551606661921
 31
0.0
  0
LINE
  5
140B3
  8
01
 10
15705.88698944417
 20
-1034.2551606661921
 30
0.0
 11
15705.88498944417
 21
-1034.4051606661919
 31
0.0
  0
LINE
  5
140B4
  8
01
 10
15705.88498944417
 20
-1034.4051606661919
 30
0.0
 11
15705.83998944417
 21
-1034.9181606661921
 31
0.0
  0
LINE
  5
140B5
  8
01
 10
15705.83998944417
 20
-1034.9181606661921
 30
0.0
 11
15705.73898944418
 21
-1035.422160666192
 31
0.0
  0
LINE
  5
140B6
  8
01
 10
15705.73898944418
 20
-1035.422160666192
 30
0.0
 11
15705.584989444171
 21
-1035.9111606661911
 31
0.0
  0
LINE
  5
140B7
  8
01
 10
15705.584989444171
 20
-1035.9111606661911
 30
0.0
 11
15705.379989444171
 21
-1036.3791606661921
 31
0.0
  0
LINE
  5
140B8
  8
01
 10
15705.379989444171
 20
-1036.3791606661921
 30
0.0
 11
15705.12698944417
 21
-1036.8221606661921
 31
0.0
  0
LINE
  5
140B9
  8
01
 10
15705.12698944417
 20
-1036.8221606661921
 30
0.0
 11
15704.82998944417
 21
-1037.2341606661921
 31
0.0
  0
LINE
  5
140BA
  8
01
 10
15704.82998944417
 20
-1037.2341606661921
 30
0.0
 11
15704.49498944418
 21
-1037.612160666192
 31
0.0
  0
LINE
  5
140BB
  8
01
 10
15704.49498944418
 20
-1037.612160666192
 30
0.0
 11
15704.12498944417
 21
-1037.952160666192
 31
0.0
  0
LINE
  5
140BC
  8
01
 10
15704.12498944417
 20
-1037.952160666192
 30
0.0
 11
15703.72498944417
 21
-1038.2531606661919
 31
0.0
  0
LINE
  5
140BD
  8
01
 10
15703.72498944417
 20
-1038.2531606661919
 30
0.0
 11
15703.298989444171
 21
-1038.5131606661921
 31
0.0
  0
LINE
  5
140BE
  8
01
 10
15703.298989444171
 20
-1038.5131606661921
 30
0.0
 11
15702.852989444171
 21
-1038.730160666192
 31
0.0
  0
LINE
  5
140BF
  8
01
 10
15702.852989444171
 20
-1038.730160666192
 30
0.0
 11
15702.390989444169
 21
-1038.903160666192
 31
0.0
  0
LINE
  5
140C0
  8
01
 10
15702.390989444169
 20
-1038.903160666192
 30
0.0
 11
15701.914989444171
 21
-1039.0331606661921
 31
0.0
  0
LINE
  5
140C1
  8
01
 10
15701.914989444171
 20
-1039.0331606661921
 30
0.0
 11
15701.43098944417
 21
-1039.1181606661919
 31
0.0
  0
LINE
  5
140C2
  8
01
 10
15701.43098944417
 20
-1039.1181606661919
 30
0.0
 11
15700.941989444171
 21
-1039.1591606661921
 31
0.0
  0
LINE
  5
140C3
  8
01
 10
15700.941989444171
 20
-1039.1591606661921
 30
0.0
 11
15700.73798944418
 21
-1039.163160666192
 31
0.0
  0
LINE
  5
140C4
  8
01
 10
15707.08798944417
 20
-992.23216066619193
 30
0.0
 11
15707.08798944417
 21
-957.77016066619206
 31
0.0
  0
LINE
  5
140C5
  8
01
 10
15707.08798944417
 20
-1028.2551606661921
 30
0.0
 11
15707.08798944417
 21
-995.104160666192
 31
0.0
  0
LINE
  5
140C6
  8
01
 10
15694.387989444171
 20
-992.23216066619193
 30
0.0
 11
15694.387989444171
 21
-957.77016066619206
 31
0.0
  0
LINE
  5
140C7
  8
01
 10
15694.387989444171
 20
-1028.2551606661921
 30
0.0
 11
15694.387989444171
 21
-995.104160666192
 31
0.0
  0
ARC
  5
140C9
  8
01
 10
15703.91298944417
 20
-983.2521606661918
 30
0.0
 40
9.5250000000000004
 50
250.52899999997621
 51
289.47100000002382
  0
ARC
  5
140CA
  8
01
 10
15697.56298944417
 20
-1001.2121606661919
 30
0.0
 40
9.5250000000000004
 50
70.528999999976193
 51
109.47100000002381
  0
ARC
  5
140CB
  8
01
 10
15697.56298944417
 20
-983.2521606661918
 30
0.0
 40
9.5250000000000004
 50
250.52899999997621
 51
289.47100000002382
  0
ARC
  5
140CC
  8
01
 10
15697.56298944417
 20
-1004.084160666192
 30
0.0
 40
9.5250000000000004
 50
70.528999999976193
 51
109.47100000002381
  0
ARC
  5
140CD
  8
01
 10
15703.91298944417
 20
-986.12416066619198
 30
0.0
 40
9.5250000000000004
 50
250.52899999997621
 51
289.47100000002382
  0
ARC
  5
140CE
  8
01
 10
15703.91298944417
 20
-1004.084160666192
 30
0.0
 40
9.5250000000000004
 50
70.528999999976193
 51
109.47100000002381
  0
LINE
  5
140CF
  8
01
 10
15690.478989444169
 20
-1180.9921606661919
 30
0.0
 11
15710.996989444169
 21
-1180.9921606661919
 31
0.0
  0
LINE
  5
1420C
  8
1CENTER
 10
15827.24119286166
 20
-1011.42154002784
 30
0.0
 11
15827.24119286166
 21
-1115.421527180833
 31
0.0
  0
ARC
  5
14229
  8
01
 10
15828.341192861661
 20
-1033.4551606661919
 30
0.0
 40
11.5
 50
328.55099999999999
 51
31.449000000000002
  0
ARC
  5
1422A
  8
01
 10
15826.14119286166
 20
-1033.4551606661919
 30
0.0
 40
11.5
 50
148.55200000002191
 51
211.45000000001801
  0
LINE
  5
1422B
  8
01
 10
15827.24119286166
 20
-1027.4551606661919
 30
0.0
 11
15816.33119286166
 21
-1027.4551606661919
 31
0.0
  0
LINE
  5
1422C
  8
01
 10
15827.24119286166
 20
-1027.4551606661919
 30
0.0
 11
15838.15219286166
 21
-1027.4551606661919
 31
0.0
  0
LINE
  5
1422D
  8
01
 10
15827.24119286166
 20
-1039.4551606661919
 30
0.0
 11
15816.33119286166
 21
-1039.4551606661919
 31
0.0
  0
LINE
  5
1422E
  8
01
 10
15827.24119286166
 20
-1039.4551606661919
 30
0.0
 11
15838.15219286166
 21
-1039.4551606661919
 31
0.0
  0
CIRCLE
  5
1422F
  8
01
 10
15827.24119286166
 20
-1062.1551606661919
 30
0.0
 40
4.75
  0
CIRCLE
  5
14230
  8
01
 10
15827.24119286166
 20
-1062.1551606661919
 30
0.0
 40
4.9000000000000004
  0
CIRCLE
  5
14231
  8
01
 10
15827.24119286166
 20
-1062.1551606661919
 30
0.0
 40
5.5
  0
LINE
  5
14232
  8
01
 10
15840.24119286166
 20
-1066.634160666192
 30
0.0
 11
15840.24119286166
 21
-1057.6761606661919
 31
0.0
  0
ARC
  5
14233
  8
01
 10
15827.24119286166
 20
-1062.1551606661919
 30
0.0
 40
13.75
 50
19.010999999996251
 51
40.988999999980678
  0
ARC
  5
14234
  8
01
 10
15827.24119286166
 20
-1062.1551606661919
 30
0.0
 40
13.75
 50
79.011000000028403
 51
100.9889999999716
  0
ARC
  5
14235
  8
01
 10
15827.24119286166
 20
-1062.1551606661919
 30
0.0
 40
13.75
 50
139.01200000003089
 51
160.9890000000037
  0
ARC
  5
14236
  8
01
 10
15827.24119286166
 20
-1062.1551606661919
 30
0.0
 40
13.75
 50
199.0119999999952
 51
220.98899999998071
  0
ARC
  5
14237
  8
01
 10
15827.24119286166
 20
-1062.1551606661919
 30
0.0
 40
13.75
 50
259.01100000002839
 51
280.98899999997161
  0
ARC
  5
14238
  8
01
 10
15827.24119286166
 20
-1062.1551606661919
 30
0.0
 40
13.75
 50
319.01100000001929
 51
340.98900000000373
  0
LINE
  5
14239
  8
01
 10
15837.620192861659
 20
-1053.1361606661919
 30
0.0
 11
15829.862192861659
 21
-1048.6571606661921
 31
0.0
  0
LINE
  5
1423A
  8
01
 10
15824.620192861659
 20
-1048.6571606661921
 30
0.0
 11
15816.862192861659
 21
-1053.1361606661919
 31
0.0
  0
LINE
  5
1423B
  8
01
 10
15814.24119286166
 20
-1057.6761606661919
 30
0.0
 11
15814.24119286166
 21
-1066.634160666192
 31
0.0
  0
LINE
  5
1423C
  8
01
 10
15816.862192861659
 20
-1071.1741606661919
 30
0.0
 11
15824.620192861659
 21
-1075.653160666192
 31
0.0
  0
LINE
  5
1423D
  8
01
 10
15829.862192861659
 20
-1075.653160666192
 30
0.0
 11
15837.620192861659
 21
-1071.1741606661919
 31
0.0
  0
LINE
  5
1423E
  8
01
 10
15831.90515040864
 20
-1061.2551606661921
 30
0.0
 11
15822.57723531468
 21
-1061.2551606661921
 31
0.0
  0
LINE
  5
1423F
  8
01
 10
15831.90515040864
 20
-1063.055160666192
 30
0.0
 11
15822.57723531468
 21
-1063.055160666192
 31
0.0
  0
ARC
  5
14240
  8
01
 10
15776.764192861659
 20
-1045.999160666192
 30
0.0
 40
40.0
 50
347.82975806504271
 51
0.0
  0
LINE
  5
14241
  8
01
 10
15816.764192861659
 20
-1045.999160666192
 30
0.0
 11
15816.764192861659
 21
-1039.4551606661919
 31
0.0
  0
ARC
  5
14242
  8
01
 10
15877.719192861659
 20
-1045.999160666192
 30
0.0
 40
40.0
 50
180.00099999999651
 51
192.1734062415284
  0
LINE
  5
14243
  8
01
 10
15837.719192861659
 20
-1045.999160666192
 30
0.0
 11
15837.719192861659
 21
-1039.4551606661919
 31
0.0
  0
LINE
  5
14244
  8
01
 10
15827.24119286166
 20
-1042.1551606661919
 30
0.0
 11
15837.719192861659
 21
-1042.1551606661919
 31
0.0
  0
LINE
  5
14245
  8
01
 10
15817.92619286166
 20
-1039.4551606661919
 30
0.0
 11
15817.92619286166
 21
-1042.1551606661919
 31
0.0
  0
LINE
  5
14246
  8
01
 10
15817.92619286166
 20
-1042.1551606661919
 30
0.0
 11
15816.764192861659
 21
-1044.1681606661921
 31
0.0
  0
LINE
  5
14247
  8
01
 10
15836.557192861659
 20
-1039.4551606661919
 30
0.0
 11
15836.557192861659
 21
-1042.1551606661919
 31
0.0
  0
LINE
  5
14248
  8
01
 10
15836.557192861659
 20
-1042.1551606661919
 30
0.0
 11
15837.719192861659
 21
-1044.1681606661921
 31
0.0
  0
LINE
  5
14249
  8
01
 10
15827.24119286166
 20
-1042.1551606661919
 30
0.0
 11
15816.764192861659
 21
-1042.1551606661919
 31
0.0
  0
LINE
  5
1424A
  8
1CENTER
 10
15810.0752129465
 20
-1062.1551606661919
 30
0.0
 11
15845.562514058231
 21
-1062.1551606661919
 31
0.0
  0
LINE
  5
1424F
  8
01
 10
15814.49119286166
 20
-1087.1551606661919
 30
0.0
 11
15814.49119286166
 21
-1097.1551606661919
 31
0.0
  0
ARC
  5
14250
  8
01
 10
15820.86619286166
 20
-1078.7421606661919
 30
0.0
 40
18.413
 50
249.74399999999511
 51
290.25600000000492
  0
ARC
  5
14251
  8
01
 10
15820.86619286166
 20
-1104.429160666192
 30
0.0
 40
18.413
 50
69.743999999995154
 51
110.25699999999991
  0
LINE
  5
14252
  8
01
 10
15839.99119286166
 20
-1087.1551606661919
 30
0.0
 11
15839.99119286166
 21
-1097.1551606661919
 31
0.0
  0
LINE
  5
14253
  8
01
 10
15814.49119286166
 20
-1097.1551606661919
 30
0.0
 11
15839.99119286166
 21
-1097.1551606661919
 31
0.0
  0
ARC
  5
14254
  8
01
 10
15833.61619286166
 20
-1104.429160666192
 30
0.0
 40
18.413
 50
69.743999999995154
 51
110.25699999999991
  0
ARC
  5
14255
  8
01
 10
15833.61619286166
 20
-1078.7421606661919
 30
0.0
 40
18.413
 50
249.74399999999511
 51
290.25600000000492
  0
LINE
  5
14256
  8
01
 10
15838.74119286166
 20
-1081.8221606661921
 30
0.0
 11
15838.74119286166
 21
-1077.863160666192
 31
0.0
  0
ARC
  5
14257
  8
01
 10
15850.74119286166
 20
-1081.8221606661921
 30
0.0
 40
12.0
 50
180.0
 51
206.3839999999982
  0
LINE
  5
14258
  8
01
 10
15815.74119286166
 20
-1081.8221606661921
 30
0.0
 11
15815.74119286166
 21
-1077.863160666192
 31
0.0
  0
ARC
  5
14259
  8
01
 10
15803.74119286166
 20
-1081.8221606661921
 30
0.0
 40
12.0
 50
333.6160000000018
 51
0.0
  0
ARC
  5
1425A
  8
01
 10
15908.74119286166
 20
-1077.863160666192
 30
0.0
 40
70.0
 50
172.45827524462831
 51
180.0
  0
ARC
  5
1425B
  8
01
 10
15745.74119286166
 20
-1077.863160666192
 30
0.0
 40
70.0
 50
0.0
 51
7.5417247553716251
  0
LINE
  5
1425C
  8
01
 10
15827.24102900799
 20
-1087.155022342127
 30
0.0
 11
15827.24105522376
 21
-1096.0164102552251
 31
0.0
  0
LINE
  5
142D5
  8
01
 10
15707.08798944417
 20
-957.77016066619206
 30
0.0
 11
15694.387989444171
 21
-957.77016066619206
 31
0.0
  0
ARC
  5
1445A
  8
01
 10
15695.53798944417
 20
-1092.0791281337349
 30
0.0
 40
15.599999999999451
 50
250.52877936552571
 51
289.47122063447642
  0
ARC
  5
1445B
  8
01
 10
15705.93798944417
 20
-1121.4947702310931
 30
0.0
 40
15.599999999999451
 50
70.528779365476396
 51
109.47122063447419
  0
ARC
  5
1445C
  8
01
 10
15705.93798944417
 20
-1092.0791281337349
 30
0.0
 40
15.599999999999451
 50
250.52877936552571
 51
289.47122063447432
  0
ARC
  5
1445D
  8
01
 10
15705.93798944417
 20
-1131.5493253723851
 30
0.0
 40
15.599999999999451
 50
70.528779365525722
 51
109.4712206344763
  0
ARC
  5
1445E
  8
01
 10
15695.53798944417
 20
-1102.1336832750269
 30
0.0
 40
15.599999999999451
 50
250.5287793654764
 51
289.47122063447432
  0
ARC
  5
1445F
  8
01
 10
15695.53798944417
 20
-1131.5493253723851
 30
0.0
 40
15.599999999999451
 50
70.528779365525722
 51
109.47122063447419
  0
LINE
  5
14486
  8
01
 10
15817.282192861659
 20
-1028.547160666192
 30
0.0
 11
15816.798192861659
 21
-1028.635160666192
 31
0.0
  0
LINE
  5
14487
  8
01
 10
15816.798192861659
 20
-1028.635160666192
 30
0.0
 11
15816.35419286166
 21
-1028.8771606661919
 31
0.0
  0
LINE
  5
14488
  8
01
 10
15816.35419286166
 20
-1028.8771606661919
 30
0.0
 11
15815.97419286166
 21
-1029.228160666192
 31
0.0
  0
LINE
  5
14489
  8
01
 10
15815.97419286166
 20
-1029.228160666192
 30
0.0
 11
15815.66619286166
 21
-1029.634160666192
 31
0.0
  0
LINE
  5
1448A
  8
01
 10
15815.66619286166
 20
-1029.634160666192
 30
0.0
 11
15815.42519286166
 21
-1030.056160666192
 31
0.0
  0
LINE
  5
1448B
  8
01
 10
15815.42519286166
 20
-1030.056160666192
 30
0.0
 11
15815.23919286166
 21
-1030.469160666192
 31
0.0
  0
LINE
  5
1448C
  8
01
 10
15815.23919286166
 20
-1030.469160666192
 30
0.0
 11
15815.09719286166
 21
-1030.8611606661921
 31
0.0
  0
LINE
  5
1448D
  8
01
 10
15815.09719286166
 20
-1030.8611606661921
 30
0.0
 11
15814.98819286166
 21
-1031.228160666192
 31
0.0
  0
LINE
  5
1448E
  8
01
 10
15814.98819286166
 20
-1031.228160666192
 30
0.0
 11
15814.905192861661
 21
-1031.5691606661919
 31
0.0
  0
LINE
  5
1448F
  8
01
 10
15814.905192861661
 20
-1031.5691606661919
 30
0.0
 11
15814.842192861661
 21
-1031.8891606661921
 31
0.0
  0
LINE
  5
14490
  8
01
 10
15814.842192861661
 20
-1031.8891606661921
 30
0.0
 11
15814.79519286166
 21
-1032.189160666192
 31
0.0
  0
LINE
  5
14491
  8
01
 10
15814.79519286166
 20
-1032.189160666192
 30
0.0
 11
15814.75919286166
 21
-1032.4751606661921
 31
0.0
  0
LINE
  5
14492
  8
01
 10
15814.75919286166
 20
-1032.4751606661921
 30
0.0
 11
15814.734192861661
 21
-1032.748160666192
 31
0.0
  0
LINE
  5
14493
  8
01
 10
15814.734192861661
 20
-1032.748160666192
 30
0.0
 11
15814.718192861659
 21
-1033.0131606661921
 31
0.0
  0
LINE
  5
14494
  8
01
 10
15814.718192861659
 20
-1033.0131606661921
 30
0.0
 11
15814.709192861659
 21
-1033.2731606661921
 31
0.0
  0
LINE
  5
14495
  8
01
 10
15814.709192861659
 20
-1033.2731606661921
 30
0.0
 11
15814.708192861661
 21
-1033.5301606661919
 31
0.0
  0
LINE
  5
14496
  8
01
 10
15814.708192861661
 20
-1033.5301606661919
 30
0.0
 11
15814.71419286166
 21
-1033.7891606661919
 31
0.0
  0
LINE
  5
14497
  8
01
 10
15814.71419286166
 20
-1033.7891606661919
 30
0.0
 11
15814.727192861659
 21
-1034.0511606661919
 31
0.0
  0
LINE
  5
14498
  8
01
 10
15814.727192861659
 20
-1034.0511606661919
 30
0.0
 11
15814.74819286166
 21
-1034.3211606661921
 31
0.0
  0
LINE
  5
14499
  8
01
 10
15814.74819286166
 20
-1034.3211606661921
 30
0.0
 11
15814.779192861661
 21
-1034.6011606661921
 31
0.0
  0
LINE
  5
1449A
  8
01
 10
15814.779192861661
 20
-1034.6011606661921
 30
0.0
 11
15814.82119286166
 21
-1034.894160666192
 31
0.0
  0
LINE
  5
1449B
  8
01
 10
15814.82119286166
 20
-1034.894160666192
 30
0.0
 11
15814.877192861661
 21
-1035.206160666191
 31
0.0
  0
LINE
  5
1449C
  8
01
 10
15814.877192861661
 20
-1035.206160666191
 30
0.0
 11
15814.951192861659
 21
-1035.538160666192
 31
0.0
  0
LINE
  5
1449D
  8
01
 10
15814.951192861659
 20
-1035.538160666192
 30
0.0
 11
15815.048192861659
 21
-1035.894160666192
 31
0.0
  0
LINE
  5
1449E
  8
01
 10
15815.048192861659
 20
-1035.894160666192
 30
0.0
 11
15815.17519286166
 21
-1036.2751606661921
 31
0.0
  0
LINE
  5
1449F
  8
01
 10
15815.17519286166
 20
-1036.2751606661921
 30
0.0
 11
15815.341192861661
 21
-1036.680160666192
 31
0.0
  0
LINE
  5
144A0
  8
01
 10
15815.341192861661
 20
-1036.680160666192
 30
0.0
 11
15815.558192861659
 21
-1037.1011606661921
 31
0.0
  0
LINE
  5
144A1
  8
01
 10
15815.558192861659
 20
-1037.1011606661921
 30
0.0
 11
15815.83719286166
 21
-1037.518160666192
 31
0.0
  0
LINE
  5
144A2
  8
01
 10
15815.83719286166
 20
-1037.518160666192
 30
0.0
 11
15816.18719286166
 21
-1037.8971606661919
 31
0.0
  0
LINE
  5
144A3
  8
01
 10
15816.18719286166
 20
-1037.8971606661919
 30
0.0
 11
15816.60619286166
 21
-1038.191160666192
 31
0.0
  0
LINE
  5
144A4
  8
01
 10
15816.60619286166
 20
-1038.191160666192
 30
0.0
 11
15817.07819286166
 21
-1038.3481606661919
 31
0.0
  0
LINE
  5
144A5
  8
01
 10
15817.07819286166
 20
-1038.3481606661919
 30
0.0
 11
15817.282192861659
 21
-1038.363160666192
 31
0.0
  0
LINE
  5
144A6
  8
01
 10
15817.282192861659
 20
-1038.363160666192
 30
0.0
 11
15817.567192861659
 21
-1038.333160666192
 31
0.0
  0
LINE
  5
144A7
  8
01
 10
15817.567192861659
 20
-1038.333160666192
 30
0.0
 11
15818.032192861659
 21
-1038.1501606661921
 31
0.0
  0
LINE
  5
144A8
  8
01
 10
15818.032192861659
 20
-1038.1501606661921
 30
0.0
 11
15818.440192861661
 21
-1037.8381606661919
 31
0.0
  0
LINE
  5
144A9
  8
01
 10
15818.440192861661
 20
-1037.8381606661919
 30
0.0
 11
15818.778192861661
 21
-1037.449160666192
 31
0.0
  0
LINE
  5
144AA
  8
01
 10
15818.778192861661
 20
-1037.449160666192
 30
0.0
 11
15819.04519286166
 21
-1037.0301606661919
 31
0.0
  0
LINE
  5
144AB
  8
01
 10
15819.04519286166
 20
-1037.0301606661919
 30
0.0
 11
15819.253192861661
 21
-1036.6111606661921
 31
0.0
  0
LINE
  5
144AC
  8
01
 10
15819.253192861661
 20
-1036.6111606661921
 30
0.0
 11
15819.412192861661
 21
-1036.209160666192
 31
0.0
  0
LINE
  5
144AD
  8
01
 10
15819.412192861661
 20
-1036.209160666192
 30
0.0
 11
15819.53419286166
 21
-1035.8321606661921
 31
0.0
  0
LINE
  5
144AE
  8
01
 10
15819.53419286166
 20
-1035.8321606661921
 30
0.0
 11
15819.62619286166
 21
-1035.480160666192
 31
0.0
  0
LINE
  5
144AF
  8
01
 10
15819.62619286166
 20
-1035.480160666192
 30
0.0
 11
15819.69719286166
 21
-1035.152160666192
 31
0.0
  0
LINE
  5
144B0
  8
01
 10
15819.69719286166
 20
-1035.152160666192
 30
0.0
 11
15819.75019286166
 21
-1034.844160666192
 31
0.0
  0
LINE
  5
144B1
  8
01
 10
15819.75019286166
 20
-1034.844160666192
 30
0.0
 11
15819.790192861659
 21
-1034.5531606661921
 31
0.0
  0
LINE
  5
144B2
  8
01
 10
15819.790192861659
 20
-1034.5531606661921
 30
0.0
 11
15819.81919286166
 21
-1034.2751606661921
 31
0.0
  0
LINE
  5
144B3
  8
01
 10
15819.81919286166
 20
-1034.2751606661921
 30
0.0
 11
15819.83919286166
 21
-1034.007160666192
 31
0.0
  0
LINE
  5
144B4
  8
01
 10
15819.83919286166
 20
-1034.007160666192
 30
0.0
 11
15819.851192861661
 21
-1033.7451606661921
 31
0.0
  0
LINE
  5
144B5
  8
01
 10
15819.851192861661
 20
-1033.7451606661921
 30
0.0
 11
15819.85619286166
 21
-1033.487160666192
 31
0.0
  0
LINE
  5
144B6
  8
01
 10
15819.85619286166
 20
-1033.487160666192
 30
0.0
 11
15819.853192861659
 21
-1033.229160666192
 31
0.0
  0
LINE
  5
144B7
  8
01
 10
15819.853192861659
 20
-1033.229160666192
 30
0.0
 11
15819.843192861659
 21
-1032.969160666192
 31
0.0
  0
LINE
  5
144B8
  8
01
 10
15819.843192861659
 20
-1032.969160666192
 30
0.0
 11
15819.825192861659
 21
-1032.7031606661919
 31
0.0
  0
LINE
  5
144B9
  8
01
 10
15819.825192861659
 20
-1032.7031606661919
 30
0.0
 11
15819.799192861659
 21
-1032.4281606661921
 31
0.0
  0
LINE
  5
144BA
  8
01
 10
15819.799192861659
 20
-1032.4281606661921
 30
0.0
 11
15819.761192861661
 21
-1032.1401606661921
 31
0.0
  0
LINE
  5
144BB
  8
01
 10
15819.761192861661
 20
-1032.1401606661921
 30
0.0
 11
15819.71219286166
 21
-1031.8371606661919
 31
0.0
  0
LINE
  5
144BC
  8
01
 10
15819.71219286166
 20
-1031.8371606661919
 30
0.0
 11
15819.646192861661
 21
-1031.5141606661921
 31
0.0
  0
LINE
  5
144BD
  8
01
 10
15819.646192861661
 20
-1031.5141606661921
 30
0.0
 11
15819.55919286166
 21
-1031.1681606661921
 31
0.0
  0
LINE
  5
144BE
  8
01
 10
15819.55919286166
 20
-1031.1681606661921
 30
0.0
 11
15819.44519286166
 21
-1030.797160666192
 31
0.0
  0
LINE
  5
144BF
  8
01
 10
15819.44519286166
 20
-1030.797160666192
 30
0.0
 11
15819.297192861661
 21
-1030.401160666192
 31
0.0
  0
LINE
  5
144C0
  8
01
 10
15819.297192861661
 20
-1030.401160666192
 30
0.0
 11
15819.102192861659
 21
-1029.9851606661921
 31
0.0
  0
LINE
  5
144C1
  8
01
 10
15819.102192861659
 20
-1029.9851606661921
 30
0.0
 11
15818.850192861661
 21
-1029.564160666192
 31
0.0
  0
LINE
  5
144C2
  8
01
 10
15818.850192861661
 20
-1029.564160666192
 30
0.0
 11
15818.530192861661
 21
-1029.1641606661919
 31
0.0
  0
LINE
  5
144C3
  8
01
 10
15818.530192861661
 20
-1029.1641606661919
 30
0.0
 11
15818.139192861659
 21
-1028.827160666192
 31
0.0
  0
LINE
  5
144C4
  8
01
 10
15818.139192861659
 20
-1028.827160666192
 30
0.0
 11
15817.68619286166
 21
-1028.6081606661919
 31
0.0
  0
LINE
  5
144C5
  8
01
 10
15817.68619286166
 20
-1028.6081606661919
 30
0.0
 11
15817.282192861659
 21
-1028.547160666192
 31
0.0
  0
LINE
  5
144C6
  8
01
 10
15827.24119286166
 20
-1028.547160666192
 30
0.0
 11
15826.75119286166
 21
-1028.5691606661919
 31
0.0
  0
LINE
  5
144C7
  8
01
 10
15826.75119286166
 20
-1028.5691606661919
 30
0.0
 11
15826.264192861659
 21
-1028.6361606661919
 31
0.0
  0
LINE
  5
144C8
  8
01
 10
15826.264192861659
 20
-1028.6361606661919
 30
0.0
 11
15825.78519286166
 21
-1028.748160666192
 31
0.0
  0
LINE
  5
144C9
  8
01
 10
15825.78519286166
 20
-1028.748160666192
 30
0.0
 11
15825.316192861659
 21
-1028.903160666192
 31
0.0
  0
LINE
  5
144CA
  8
01
 10
15825.316192861659
 20
-1028.903160666192
 30
0.0
 11
15824.86319286166
 21
-1029.102160666192
 31
0.0
  0
LINE
  5
144CB
  8
01
 10
15824.86319286166
 20
-1029.102160666192
 30
0.0
 11
15824.42819286166
 21
-1029.344160666192
 31
0.0
  0
LINE
  5
144CC
  8
01
 10
15824.42819286166
 20
-1029.344160666192
 30
0.0
 11
15824.01719286166
 21
-1029.6281606661919
 31
0.0
  0
LINE
  5
144CD
  8
01
 10
15824.01719286166
 20
-1029.6281606661919
 30
0.0
 11
15823.63419286166
 21
-1029.952160666192
 31
0.0
  0
LINE
  5
144CE
  8
01
 10
15823.63419286166
 20
-1029.952160666192
 30
0.0
 11
15823.28419286166
 21
-1030.315160666192
 31
0.0
  0
LINE
  5
144CF
  8
01
 10
15823.28419286166
 20
-1030.315160666192
 30
0.0
 11
15822.97119286166
 21
-1030.7131606661919
 31
0.0
  0
LINE
  5
144D0
  8
01
 10
15822.97119286166
 20
-1030.7131606661919
 30
0.0
 11
15822.699192861661
 21
-1031.143160666192
 31
0.0
  0
LINE
  5
144D1
  8
01
 10
15822.699192861661
 20
-1031.143160666192
 30
0.0
 11
15822.47319286166
 21
-1031.602160666192
 31
0.0
  0
LINE
  5
144D2
  8
01
 10
15822.47319286166
 20
-1031.602160666192
 30
0.0
 11
15822.297192861661
 21
-1032.083160666192
 31
0.0
  0
LINE
  5
144D3
  8
01
 10
15822.297192861661
 20
-1032.083160666192
 30
0.0
 11
15822.174192861659
 21
-1032.5811606661921
 31
0.0
  0
LINE
  5
144D4
  8
01
 10
15822.174192861659
 20
-1032.5811606661921
 30
0.0
 11
15822.10619286166
 21
-1033.0911606661921
 31
0.0
  0
LINE
  5
144D5
  8
01
 10
15822.10619286166
 20
-1033.0911606661921
 30
0.0
 11
15822.092192861661
 21
-1033.4551606661919
 31
0.0
  0
LINE
  5
144D6
  8
01
 10
15822.092192861661
 20
-1033.4551606661919
 30
0.0
 11
15822.094192861659
 21
-1033.605160666192
 31
0.0
  0
LINE
  5
144D7
  8
01
 10
15822.094192861659
 20
-1033.605160666192
 30
0.0
 11
15822.139192861659
 21
-1034.1181606661919
 31
0.0
  0
LINE
  5
144D8
  8
01
 10
15822.139192861659
 20
-1034.1181606661919
 30
0.0
 11
15822.24019286166
 21
-1034.622160666192
 31
0.0
  0
LINE
  5
144D9
  8
01
 10
15822.24019286166
 20
-1034.622160666192
 30
0.0
 11
15822.39419286166
 21
-1035.1111606661921
 31
0.0
  0
LINE
  5
144DA
  8
01
 10
15822.39419286166
 20
-1035.1111606661921
 30
0.0
 11
15822.59919286166
 21
-1035.5791606661919
 31
0.0
  0
LINE
  5
144DB
  8
01
 10
15822.59919286166
 20
-1035.5791606661919
 30
0.0
 11
15822.852192861659
 21
-1036.0221606661919
 31
0.0
  0
LINE
  5
144DC
  8
01
 10
15822.852192861659
 20
-1036.0221606661919
 30
0.0
 11
15823.14919286166
 21
-1036.4341606661919
 31
0.0
  0
LINE
  5
144DD
  8
01
 10
15823.14919286166
 20
-1036.4341606661919
 30
0.0
 11
15823.484192861661
 21
-1036.8121606661921
 31
0.0
  0
LINE
  5
144DE
  8
01
 10
15823.484192861661
 20
-1036.8121606661921
 30
0.0
 11
15823.85419286166
 21
-1037.152160666192
 31
0.0
  0
LINE
  5
144DF
  8
01
 10
15823.85419286166
 20
-1037.152160666192
 30
0.0
 11
15824.254192861659
 21
-1037.4531606661919
 31
0.0
  0
LINE
  5
144E0
  8
01
 10
15824.254192861659
 20
-1037.4531606661919
 30
0.0
 11
15824.680192861661
 21
-1037.7131606661919
 31
0.0
  0
LINE
  5
144E1
  8
01
 10
15824.680192861661
 20
-1037.7131606661919
 30
0.0
 11
15825.12619286166
 21
-1037.930160666192
 31
0.0
  0
LINE
  5
144E2
  8
01
 10
15825.12619286166
 20
-1037.930160666192
 30
0.0
 11
15825.58819286166
 21
-1038.103160666192
 31
0.0
  0
LINE
  5
144E3
  8
01
 10
15825.58819286166
 20
-1038.103160666192
 30
0.0
 11
15826.064192861661
 21
-1038.2331606661919
 31
0.0
  0
LINE
  5
144E4
  8
01
 10
15826.064192861661
 20
-1038.2331606661919
 30
0.0
 11
15826.548192861659
 21
-1038.3181606661919
 31
0.0
  0
LINE
  5
144E5
  8
01
 10
15826.548192861659
 20
-1038.3181606661919
 30
0.0
 11
15827.037192861661
 21
-1038.3591606661921
 31
0.0
  0
LINE
  5
144E6
  8
01
 10
15827.037192861661
 20
-1038.3591606661921
 30
0.0
 11
15827.24119286166
 21
-1038.363160666192
 31
0.0
  0
LINE
  5
144E7
  8
01
 10
15837.200192861659
 20
-1028.547160666192
 30
0.0
 11
15837.68419286166
 21
-1028.635160666192
 31
0.0
  0
LINE
  5
144E8
  8
01
 10
15837.68419286166
 20
-1028.635160666192
 30
0.0
 11
15838.128192861661
 21
-1028.8771606661919
 31
0.0
  0
LINE
  5
144E9
  8
01
 10
15838.128192861661
 20
-1028.8771606661919
 30
0.0
 11
15838.50819286166
 21
-1029.228160666192
 31
0.0
  0
LINE
  5
144EA
  8
01
 10
15838.50819286166
 20
-1029.228160666192
 30
0.0
 11
15838.816192861659
 21
-1029.634160666192
 31
0.0
  0
LINE
  5
144EB
  8
01
 10
15838.816192861659
 20
-1029.634160666192
 30
0.0
 11
15839.057192861659
 21
-1030.056160666192
 31
0.0
  0
LINE
  5
144EC
  8
01
 10
15839.057192861659
 20
-1030.056160666192
 30
0.0
 11
15839.243192861661
 21
-1030.469160666192
 31
0.0
  0
LINE
  5
144ED
  8
01
 10
15839.243192861661
 20
-1030.469160666192
 30
0.0
 11
15839.38519286166
 21
-1030.8611606661921
 31
0.0
  0
LINE
  5
144EE
  8
01
 10
15839.38519286166
 20
-1030.8611606661921
 30
0.0
 11
15839.494192861661
 21
-1031.228160666192
 31
0.0
  0
LINE
  5
144EF
  8
01
 10
15839.494192861661
 20
-1031.228160666192
 30
0.0
 11
15839.57719286166
 21
-1031.5691606661919
 31
0.0
  0
LINE
  5
144F0
  8
01
 10
15839.57719286166
 20
-1031.5691606661919
 30
0.0
 11
15839.64019286166
 21
-1031.8891606661921
 31
0.0
  0
LINE
  5
144F1
  8
01
 10
15839.64019286166
 20
-1031.8891606661921
 30
0.0
 11
15839.68719286166
 21
-1032.189160666192
 31
0.0
  0
LINE
  5
144F2
  8
01
 10
15839.68719286166
 20
-1032.189160666192
 30
0.0
 11
15839.72319286166
 21
-1032.4751606661921
 31
0.0
  0
LINE
  5
144F3
  8
01
 10
15839.72319286166
 20
-1032.4751606661921
 30
0.0
 11
15839.74819286166
 21
-1032.748160666192
 31
0.0
  0
LINE
  5
144F4
  8
01
 10
15839.74819286166
 20
-1032.748160666192
 30
0.0
 11
15839.764192861659
 21
-1033.0131606661921
 31
0.0
  0
LINE
  5
144F5
  8
01
 10
15839.764192861659
 20
-1033.0131606661921
 30
0.0
 11
15839.773192861659
 21
-1033.2731606661921
 31
0.0
  0
LINE
  5
144F6
  8
01
 10
15839.773192861659
 20
-1033.2731606661921
 30
0.0
 11
15839.77419286166
 21
-1033.5301606661919
 31
0.0
  0
LINE
  5
144F7
  8
01
 10
15839.77419286166
 20
-1033.5301606661919
 30
0.0
 11
15839.76819286166
 21
-1033.7891606661919
 31
0.0
  0
LINE
  5
144F8
  8
01
 10
15839.76819286166
 20
-1033.7891606661919
 30
0.0
 11
15839.755192861659
 21
-1034.0511606661919
 31
0.0
  0
LINE
  5
144F9
  8
01
 10
15839.755192861659
 20
-1034.0511606661919
 30
0.0
 11
15839.734192861661
 21
-1034.3211606661921
 31
0.0
  0
LINE
  5
144FA
  8
01
 10
15839.734192861661
 20
-1034.3211606661921
 30
0.0
 11
15839.70319286166
 21
-1034.6011606661921
 31
0.0
  0
LINE
  5
144FB
  8
01
 10
15839.70319286166
 20
-1034.6011606661921
 30
0.0
 11
15839.66119286166
 21
-1034.894160666192
 31
0.0
  0
LINE
  5
144FC
  8
01
 10
15839.66119286166
 20
-1034.894160666192
 30
0.0
 11
15839.60519286166
 21
-1035.206160666191
 31
0.0
  0
LINE
  5
144FD
  8
01
 10
15839.60519286166
 20
-1035.206160666191
 30
0.0
 11
15839.531192861659
 21
-1035.538160666192
 31
0.0
  0
LINE
  5
144FE
  8
01
 10
15839.531192861659
 20
-1035.538160666192
 30
0.0
 11
15839.43419286166
 21
-1035.894160666192
 31
0.0
  0
LINE
  5
144FF
  8
01
 10
15839.43419286166
 20
-1035.894160666192
 30
0.0
 11
15839.307192861659
 21
-1036.2751606661921
 31
0.0
  0
LINE
  5
14500
  8
01
 10
15839.307192861659
 20
-1036.2751606661921
 30
0.0
 11
15839.14119286166
 21
-1036.680160666192
 31
0.0
  0
LINE
  5
14501
  8
01
 10
15839.14119286166
 20
-1036.680160666192
 30
0.0
 11
15838.924192861659
 21
-1037.1011606661921
 31
0.0
  0
LINE
  5
14502
  8
01
 10
15838.924192861659
 20
-1037.1011606661921
 30
0.0
 11
15838.645192861661
 21
-1037.518160666192
 31
0.0
  0
LINE
  5
14503
  8
01
 10
15838.645192861661
 20
-1037.518160666192
 30
0.0
 11
15838.29519286166
 21
-1037.8971606661919
 31
0.0
  0
LINE
  5
14504
  8
01
 10
15838.29519286166
 20
-1037.8971606661919
 30
0.0
 11
15837.87619286166
 21
-1038.191160666192
 31
0.0
  0
LINE
  5
14505
  8
01
 10
15837.87619286166
 20
-1038.191160666192
 30
0.0
 11
15837.404192861661
 21
-1038.3481606661919
 31
0.0
  0
LINE
  5
14506
  8
01
 10
15837.404192861661
 20
-1038.3481606661919
 30
0.0
 11
15837.200192861659
 21
-1038.363160666192
 31
0.0
  0
LINE
  5
14507
  8
01
 10
15837.200192861659
 20
-1038.363160666192
 30
0.0
 11
15836.915192861659
 21
-1038.333160666192
 31
0.0
  0
LINE
  5
14508
  8
01
 10
15836.915192861659
 20
-1038.333160666192
 30
0.0
 11
15836.450192861659
 21
-1038.1501606661921
 31
0.0
  0
LINE
  5
14509
  8
01
 10
15836.450192861659
 20
-1038.1501606661921
 30
0.0
 11
15836.04219286166
 21
-1037.8381606661919
 31
0.0
  0
LINE
  5
1450A
  8
01
 10
15836.04219286166
 20
-1037.8381606661919
 30
0.0
 11
15835.70419286166
 21
-1037.449160666192
 31
0.0
  0
LINE
  5
1450B
  8
01
 10
15835.70419286166
 20
-1037.449160666192
 30
0.0
 11
15835.43719286166
 21
-1037.0301606661919
 31
0.0
  0
LINE
  5
1450C
  8
01
 10
15835.43719286166
 20
-1037.0301606661919
 30
0.0
 11
15835.22919286166
 21
-1036.6111606661921
 31
0.0
  0
LINE
  5
1450D
  8
01
 10
15835.22919286166
 20
-1036.6111606661921
 30
0.0
 11
15835.07019286166
 21
-1036.209160666192
 31
0.0
  0
LINE
  5
1450E
  8
01
 10
15835.07019286166
 20
-1036.209160666192
 30
0.0
 11
15834.948192861661
 21
-1035.8321606661921
 31
0.0
  0
LINE
  5
1450F
  8
01
 10
15834.948192861661
 20
-1035.8321606661921
 30
0.0
 11
15834.85619286166
 21
-1035.480160666192
 31
0.0
  0
LINE
  5
14510
  8
01
 10
15834.85619286166
 20
-1035.480160666192
 30
0.0
 11
15834.78519286166
 21
-1035.152160666192
 31
0.0
  0
LINE
  5
14511
  8
01
 10
15834.78519286166
 20
-1035.152160666192
 30
0.0
 11
15834.73219286166
 21
-1034.844160666192
 31
0.0
  0
LINE
  5
14512
  8
01
 10
15834.73219286166
 20
-1034.844160666192
 30
0.0
 11
15834.692192861659
 21
-1034.5531606661921
 31
0.0
  0
LINE
  5
14513
  8
01
 10
15834.692192861659
 20
-1034.5531606661921
 30
0.0
 11
15834.663192861661
 21
-1034.2751606661921
 31
0.0
  0
LINE
  5
14514
  8
01
 10
15834.663192861661
 20
-1034.2751606661921
 30
0.0
 11
15834.64319286166
 21
-1034.007160666192
 31
0.0
  0
LINE
  5
14515
  8
01
 10
15834.64319286166
 20
-1034.007160666192
 30
0.0
 11
15834.63119286166
 21
-1033.7451606661921
 31
0.0
  0
LINE
  5
14516
  8
01
 10
15834.63119286166
 20
-1033.7451606661921
 30
0.0
 11
15834.62619286166
 21
-1033.487160666192
 31
0.0
  0
LINE
  5
14517
  8
01
 10
15834.62619286166
 20
-1033.487160666192
 30
0.0
 11
15834.629192861659
 21
-1033.229160666192
 31
0.0
  0
LINE
  5
14518
  8
01
 10
15834.629192861659
 20
-1033.229160666192
 30
0.0
 11
15834.639192861659
 21
-1032.969160666192
 31
0.0
  0
LINE
  5
14519
  8
01
 10
15834.639192861659
 20
-1032.969160666192
 30
0.0
 11
15834.657192861659
 21
-1032.7031606661919
 31
0.0
  0
LINE
  5
1451A
  8
01
 10
15834.657192861659
 20
-1032.7031606661919
 30
0.0
 11
15834.683192861659
 21
-1032.4281606661921
 31
0.0
  0
LINE
  5
1451B
  8
01
 10
15834.683192861659
 20
-1032.4281606661921
 30
0.0
 11
15834.72119286166
 21
-1032.1401606661921
 31
0.0
  0
LINE
  5
1451C
  8
01
 10
15834.72119286166
 20
-1032.1401606661921
 30
0.0
 11
15834.770192861661
 21
-1031.8371606661919
 31
0.0
  0
LINE
  5
1451D
  8
01
 10
15834.770192861661
 20
-1031.8371606661919
 30
0.0
 11
15834.83619286166
 21
-1031.5141606661921
 31
0.0
  0
LINE
  5
1451E
  8
01
 10
15834.83619286166
 20
-1031.5141606661921
 30
0.0
 11
15834.923192861659
 21
-1031.1681606661921
 31
0.0
  0
LINE
  5
1451F
  8
01
 10
15834.923192861659
 20
-1031.1681606661921
 30
0.0
 11
15835.037192861661
 21
-1030.797160666192
 31
0.0
  0
LINE
  5
14520
  8
01
 10
15835.037192861661
 20
-1030.797160666192
 30
0.0
 11
15835.18519286166
 21
-1030.401160666192
 31
0.0
  0
LINE
  5
14521
  8
01
 10
15835.18519286166
 20
-1030.401160666192
 30
0.0
 11
15835.380192861659
 21
-1029.9851606661921
 31
0.0
  0
LINE
  5
14522
  8
01
 10
15835.380192861659
 20
-1029.9851606661921
 30
0.0
 11
15835.63219286166
 21
-1029.564160666192
 31
0.0
  0
LINE
  5
14523
  8
01
 10
15835.63219286166
 20
-1029.564160666192
 30
0.0
 11
15835.95219286166
 21
-1029.1641606661919
 31
0.0
  0
LINE
  5
14524
  8
01
 10
15835.95219286166
 20
-1029.1641606661919
 30
0.0
 11
15836.343192861659
 21
-1028.827160666192
 31
0.0
  0
LINE
  5
14525
  8
01
 10
15836.343192861659
 20
-1028.827160666192
 30
0.0
 11
15836.796192861661
 21
-1028.6081606661919
 31
0.0
  0
LINE
  5
14526
  8
01
 10
15836.796192861661
 20
-1028.6081606661919
 30
0.0
 11
15837.200192861659
 21
-1028.547160666192
 31
0.0
  0
LINE
  5
14527
  8
01
 10
15827.24119286166
 20
-1028.547160666192
 30
0.0
 11
15827.73119286166
 21
-1028.5691606661919
 31
0.0
  0
LINE
  5
14528
  8
01
 10
15827.73119286166
 20
-1028.5691606661919
 30
0.0
 11
15828.218192861659
 21
-1028.6361606661919
 31
0.0
  0
LINE
  5
14529
  8
01
 10
15828.218192861659
 20
-1028.6361606661919
 30
0.0
 11
15828.69719286166
 21
-1028.748160666192
 31
0.0
  0
LINE
  5
1452A
  8
01
 10
15828.69719286166
 20
-1028.748160666192
 30
0.0
 11
15829.16619286166
 21
-1028.903160666192
 31
0.0
  0
LINE
  5
1452B
  8
01
 10
15829.16619286166
 20
-1028.903160666192
 30
0.0
 11
15829.619192861661
 21
-1029.102160666192
 31
0.0
  0
LINE
  5
1452C
  8
01
 10
15829.619192861661
 20
-1029.102160666192
 30
0.0
 11
15830.05419286166
 21
-1029.344160666192
 31
0.0
  0
LINE
  5
1452D
  8
01
 10
15830.05419286166
 20
-1029.344160666192
 30
0.0
 11
15830.46519286166
 21
-1029.6281606661919
 31
0.0
  0
LINE
  5
1452E
  8
01
 10
15830.46519286166
 20
-1029.6281606661919
 30
0.0
 11
15830.84819286166
 21
-1029.952160666192
 31
0.0
  0
LINE
  5
1452F
  8
01
 10
15830.84819286166
 20
-1029.952160666192
 30
0.0
 11
15831.198192861661
 21
-1030.315160666192
 31
0.0
  0
LINE
  5
14530
  8
01
 10
15831.198192861661
 20
-1030.315160666192
 30
0.0
 11
15831.511192861661
 21
-1030.7131606661919
 31
0.0
  0
LINE
  5
14531
  8
01
 10
15831.511192861661
 20
-1030.7131606661919
 30
0.0
 11
15831.78319286166
 21
-1031.143160666192
 31
0.0
  0
LINE
  5
14532
  8
01
 10
15831.78319286166
 20
-1031.143160666192
 30
0.0
 11
15832.00919286166
 21
-1031.602160666192
 31
0.0
  0
LINE
  5
14533
  8
01
 10
15832.00919286166
 20
-1031.602160666192
 30
0.0
 11
15832.18519286166
 21
-1032.083160666192
 31
0.0
  0
LINE
  5
14534
  8
01
 10
15832.18519286166
 20
-1032.083160666192
 30
0.0
 11
15832.308192861659
 21
-1032.5811606661921
 31
0.0
  0
LINE
  5
14535
  8
01
 10
15832.308192861659
 20
-1032.5811606661921
 30
0.0
 11
15832.37619286166
 21
-1033.0911606661921
 31
0.0
  0
LINE
  5
14536
  8
01
 10
15832.37619286166
 20
-1033.0911606661921
 30
0.0
 11
15832.39019286166
 21
-1033.4551606661919
 31
0.0
  0
LINE
  5
14537
  8
01
 10
15832.39019286166
 20
-1033.4551606661919
 30
0.0
 11
15832.388192861659
 21
-1033.605160666192
 31
0.0
  0
LINE
  5
14538
  8
01
 10
15832.388192861659
 20
-1033.605160666192
 30
0.0
 11
15832.343192861659
 21
-1034.1181606661919
 31
0.0
  0
LINE
  5
14539
  8
01
 10
15832.343192861659
 20
-1034.1181606661919
 30
0.0
 11
15832.24219286166
 21
-1034.622160666192
 31
0.0
  0
LINE
  5
1453A
  8
01
 10
15832.24219286166
 20
-1034.622160666192
 30
0.0
 11
15832.08819286166
 21
-1035.1111606661921
 31
0.0
  0
LINE
  5
1453B
  8
01
 10
15832.08819286166
 20
-1035.1111606661921
 30
0.0
 11
15831.88319286166
 21
-1035.5791606661919
 31
0.0
  0
LINE
  5
1453C
  8
01
 10
15831.88319286166
 20
-1035.5791606661919
 30
0.0
 11
15831.630192861659
 21
-1036.0221606661919
 31
0.0
  0
LINE
  5
1453D
  8
01
 10
15831.630192861659
 20
-1036.0221606661919
 30
0.0
 11
15831.333192861661
 21
-1036.4341606661919
 31
0.0
  0
LINE
  5
1453E
  8
01
 10
15831.333192861661
 20
-1036.4341606661919
 30
0.0
 11
15830.99819286166
 21
-1036.8121606661921
 31
0.0
  0
LINE
  5
1453F
  8
01
 10
15830.99819286166
 20
-1036.8121606661921
 30
0.0
 11
15830.628192861661
 21
-1037.152160666192
 31
0.0
  0
LINE
  5
14540
  8
01
 10
15830.628192861661
 20
-1037.152160666192
 30
0.0
 11
15830.228192861659
 21
-1037.4531606661919
 31
0.0
  0
LINE
  5
14541
  8
01
 10
15830.228192861659
 20
-1037.4531606661919
 30
0.0
 11
15829.80219286166
 21
-1037.7131606661919
 31
0.0
  0
LINE
  5
14542
  8
01
 10
15829.80219286166
 20
-1037.7131606661919
 30
0.0
 11
15829.35619286166
 21
-1037.930160666192
 31
0.0
  0
LINE
  5
14543
  8
01
 10
15829.35619286166
 20
-1037.930160666192
 30
0.0
 11
15828.89419286166
 21
-1038.103160666192
 31
0.0
  0
LINE
  5
14544
  8
01
 10
15828.89419286166
 20
-1038.103160666192
 30
0.0
 11
15828.41819286166
 21
-1038.2331606661919
 31
0.0
  0
LINE
  5
14545
  8
01
 10
15828.41819286166
 20
-1038.2331606661919
 30
0.0
 11
15827.93419286166
 21
-1038.3181606661919
 31
0.0
  0
LINE
  5
14546
  8
01
 10
15827.93419286166
 20
-1038.3181606661919
 30
0.0
 11
15827.44519286166
 21
-1038.3591606661921
 31
0.0
  0
LINE
  5
14547
  8
01
 10
15827.44519286166
 20
-1038.3591606661921
 30
0.0
 11
15827.24119286166
 21
-1038.363160666192
 31
0.0
  0
LINE
  5
1457E
  8
1HATCH
 10
15575.86984769331
 20
-968.11758385203439
 30
0.0
 11
15575.86984769331
 21
-989.1175838520345
 31
0.0
  0
LINE
  5
1457F
  8
1HATCH
 10
15602.11984769331
 20
-973.36758385203439
 30
0.0
 11
15602.11984769331
 21
-989.1175838520345
 31
0.0
  0
LINE
  5
14580
  8
1HATCH
 10
15628.36984769331
 20
-968.11758385203439
 30
0.0
 11
15628.36984769331
 21
-989.1175838520345
 31
0.0
  0
TEXT
  5
14581
  8
1TEXT
 10
15608.4613087825
 20
-982.90335158977155
 30
0.0
 40
3.0
  1
HL009
 72
     1
 11
15614.9613087825
 21
-982.90335158977155
 31
0.0
  0
TEXT
  5
14582
  8
1TEXT
 10
15603.169847693311
 20
-977.49258385203439
 30
0.0
 40
3.0
  1
対応洗面ボール
 72
     1
 11
15615.169847693311
 21
-977.49258385203439
 31
0.0
  0
LINE
  5
14583
  8
1HATCH
 10
15575.86984769331
 20
-978.61758385203439
 30
0.0
 11
15628.36984769331
 21
-978.61758385203439
 31
0.0
  0
LINE
  5
14584
  8
1HATCH
 10
15575.86984769331
 20
-983.86758385203439
 30
0.0
 11
15628.36984769331
 21
-983.86758385203439
 31
0.0
  0
TEXT
  5
14585
  8
1TEXT
 10
15579.419847693311
 20
-982.72600511702274
 30
0.0
 40
3.0
  1
HA008XC
 72
     1
 11
15588.919847693311
 21
-982.72600511702274
 31
0.0
  0
TEXT
  5
14586
  8
1TEXT
 10
15582.21984769331
 20
-977.49258385203439
 30
0.0
 40
3.0
  1
対応蛇口
 72
     1
 11
15588.919847693311
 21
-977.49258385203439
 31
0.0
  0
LINE
  5
14587
  8
1HATCH
 10
15575.86984769331
 20
-973.36758385203439
 30
0.0
 11
15628.36984769331
 21
-973.36758385203439
 31
0.0
  0
TEXT
  5
14588
  8
1TEXT
 10
15579.419847693311
 20
-987.97600511702285
 30
0.0
 40
3.0
  1
HA009XC
 72
     1
 11
15588.919847693311
 21
-987.97600511702285
 31
0.0
  0
TEXT
  5
14589
  8
1TEXT
 10
15608.9613087825
 20
-988.15335158977155
 30
0.0
 40
3.0
  1
HL010
 72
     1
 11
15614.9613087825
 21
-988.15335158977155
 31
0.0
  0
LINE
  5
1458A
  8
1HATCH
 10
15575.86984769331
 20
-989.1175838520345
 30
0.0
 11
15628.36984769331
 21
-989.1175838520345
 31
0.0
  0
LINE
  5
1458B
  8
1HATCH
 10
15575.86984769331
 20
-968.11758385203439
 30
0.0
 11
15628.36984769331
 21
-968.11758385203439
 31
0.0
  0
TEXT
  5
1458C
  8
1TEXT
 10
15586.224768263981
 20
-972.31307067249895
 30
0.0
 40
3.0
  1
HN01止水栓対応表
 72
     1
 11
15601.874768263981
 21
-972.31307067249895
 31
0.0
  0
TEXT
  5
1458D
  8
1TEXT
 10
15576.08474374501
 20
-966.40729199220038
 30
0.0
 40
3.0
  1
材質：真鍮クロームメッキ
 72
     1
 11
15597.08474374501
 21
-966.40729199220038
 31
0.0
  0
TEXT
  5
14678
  8
01
 10
15738.013427878221
 20
-1192.4319919473669
 30
0.0
 40
3.5
  1
R1/2
  0
LINE
  5
1467B
  8
1DIM
 10
15827.24119286166
 20
-1057.4051606661919
 30
0.0
 11
15802.73317019247
 21
-1057.4051606661919
 31
0.0
  0
LINE
  5
1467C
  8
1DIM
 10
15827.24119286166
 20
-1066.9051606661919
 30
0.0
 11
15802.73317019247
 21
-1066.9051606661919
 31
0.0
  0
LINE
  5
1467D
  8
1DIM
 10
15803.73317019247
 20
-1059.4051606661919
 30
0.0
 11
15803.73317019247
 21
-1064.9051606661919
 31
0.0
  0
LINE
  5
1467E
  8
1DIM
 10
15803.73317019247
 20
-1066.9051606661919
 30
0.0
 11
15803.73317019247
 21
-1081.6384939995251
 31
0.0
  0
LINE
  5
14682
  8
1DIM
 10
15670.737989444169
 20
-1163.949160666192
 30
0.0
 11
15670.737989444169
 21
-1200.897938839171
 31
0.0
  0
LINE
  5
14683
  8
1DIM
 10
15730.737989444169
 20
-1163.949160666192
 30
0.0
 11
15730.737989444169
 21
-1200.897938839171
 31
0.0
  0
LINE
  5
14684
  8
1DIM
 10
15672.737989444169
 20
-1199.897938839171
 30
0.0
 11
15728.737989444169
 21
-1199.897938839171
 31
0.0
  0
LINE
  5
14688
  8
1DIM
 10
15683.816989444171
 20
-1062.1551606661919
 30
0.0
 11
15656.78261872642
 21
-1062.1551606661919
 31
0.0
  0
LINE
  5
14689
  8
1DIM
 10
15691.67798944417
 20
-1182.154160666192
 30
0.0
 11
15656.78261872642
 21
-1182.154160666192
 31
0.0
  0
LINE
  5
1468A
  8
1DIM
 10
15657.78261872642
 20
-1064.1551606661919
 30
0.0
 11
15657.78261872642
 21
-1180.154160666192
 31
0.0
  0
LINE
  5
1468E
  8
1DIM
 10
15683.816989444171
 20
-1062.1551606661919
 30
0.0
 11
15656.78261872642
 21
-1062.1551606661919
 31
0.0
  0
LINE
  5
1468F
  8
1DIM
 10
15694.387989444171
 20
-957.77016066619206
 30
0.0
 11
15656.78261872642
 21
-957.77016066619206
 31
0.0
  0
LINE
  5
14690
  8
1DIM
 10
15657.78261872642
 20
-1060.1551606661919
 30
0.0
 11
15657.78261872642
 21
-959.77016066619194
 31
0.0
  0
LINE
  5
14694
  8
1DIM
 10
15743.737989444169
 20
-1063.055160666192
 30
0.0
 11
15743.737989444169
 21
-999.86715547382528
 31
0.0
  0
LINE
  5
14695
  8
1DIM
 10
15702.737989444169
 20
-1000.8671554738251
 30
0.0
 11
15741.73798944418
 21
-1000.8671554738251
 31
0.0
  0
LINE
  5
14699
  8
1DIM
 10
15694.387989444171
 20
-957.77016066619206
 30
0.0
 11
15694.387989444171
 21
-944.27819335989011
 31
0.0
  0
LINE
  5
1469A
  8
1DIM
 10
15707.08798944417
 20
-957.77016066619206
 30
0.0
 11
15707.08798944417
 21
-944.27819335989011
 31
0.0
  0
LINE
  5
1469B
  8
1DIM
 10
15696.387989444171
 20
-945.27819335989011
 30
0.0
 11
15705.08798944417
 21
-945.27819335989011
 31
0.0
  0
LINE
  5
1469C
  8
1DIM
 10
15707.08798944417
 20
-945.27819335989011
 30
0.0
 11
15725.154656110841
 21
-945.27819335989011
 31
0.0
  0
TEXT
  5
146A0
  8
1DIM
 10
15710.004656110839
 20
-944.57819335989007
 30
0.0
 40
3.5
  1
φ12.7
  0
LINE
  5
146A1
  8
0
  6
BYBLOCK
 10
15705.08798944417
 20
-944.74229497988995
 30
0.0
 11
15707.08798944417
 21
-945.27819335989011
 31
0.0
  0
LINE
  5
146A2
  8
0
  6
BYBLOCK
 10
15707.08798944417
 20
-945.27819335989011
 30
0.0
 11
15705.08798944417
 21
-945.81409173989005
 31
0.0
  0
LINE
  5
146A3
  8
0
  6
BYBLOCK
 10
15707.08798944417
 20
-945.27819335989011
 30
0.0
 11
15705.08798944417
 21
-945.27819335989011
 31
0.0
  0
LINE
  5
146A4
  8
0
  6
BYBLOCK
 10
15696.387989444171
 20
-945.81409173989005
 30
0.0
 11
15694.387989444171
 21
-945.27819335989011
 31
0.0
  0
LINE
  5
146A5
  8
0
  6
BYBLOCK
 10
15694.387989444171
 20
-945.27819335989011
 30
0.0
 11
15696.387989444171
 21
-944.74229497988995
 31
0.0
  0
LINE
  5
146A6
  8
0
  6
BYBLOCK
 10
15694.387989444171
 20
-945.27819335989011
 30
0.0
 11
15696.387989444171
 21
-945.27819335989011
 31
0.0
  0
TEXT
  5
146A7
  8
1DIM
 10
15708.765454841639
 20
-1000.167155473825
 30
0.0
 40
3.5
  1
43 （リフト３ｍｍ）
  0
LINE
  5
146A8
  8
0
  6
BYBLOCK
 10
15741.73798944418
 20
-1000.331257093825
 30
0.0
 11
15743.737989444169
 21
-1000.8671554738251
 31
0.0
  0
LINE
  5
146A9
  8
0
  6
BYBLOCK
 10
15743.737989444169
 20
-1000.8671554738251
 30
0.0
 11
15741.73798944418
 21
-1001.403053853825
 31
0.0
  0
LINE
  5
146AA
  8
0
  6
BYBLOCK
 10
15743.737989444169
 20
-1000.8671554738251
 30
0.0
 11
15741.73798944418
 21
-1000.8671554738251
 31
0.0
  0
LINE
  5
146AB
  8
0
  6
BYBLOCK
 10
15702.737989444169
 20
-1001.403053853825
 30
0.0
 11
15700.73798944418
 21
-1000.8671554738251
 31
0.0
  0
LINE
  5
146AC
  8
0
  6
BYBLOCK
 10
15700.73798944418
 20
-1000.8671554738251
 30
0.0
 11
15702.737989444169
 21
-1000.331257093825
 31
0.0
  0
LINE
  5
146AD
  8
0
  6
BYBLOCK
 10
15700.73798944418
 20
-1000.8671554738251
 30
0.0
 11
15702.737989444169
 21
-1000.8671554738251
 31
0.0
  0
TEXT
  5
146AE
  8
1DIM
 10
15657.082618726419
 20
-1014.629327332856
 30
0.0
 40
3.5
  1
332
 50
90.0
  0
LINE
  5
146AF
  8
0
  6
BYBLOCK
 10
15657.24672034642
 20
-959.77016066619194
 30
0.0
 11
15657.78261872642
 21
-957.77016066619206
 31
0.0
  0
LINE
  5
146B0
  8
0
  6
BYBLOCK
 10
15657.78261872642
 20
-957.77016066619206
 30
0.0
 11
15658.31851710642
 21
-959.77016066619194
 31
0.0
  0
LINE
  5
146B1
  8
0
  6
BYBLOCK
 10
15657.78261872642
 20
-957.77016066619206
 30
0.0
 11
15657.78261872642
 21
-959.77016066619194
 31
0.0
  0
LINE
  5
146B2
  8
0
  6
BYBLOCK
 10
15658.31851710642
 20
-1060.1551606661919
 30
0.0
 11
15657.78261872642
 21
-1062.1551606661919
 31
0.0
  0
LINE
  5
146B3
  8
0
  6
BYBLOCK
 10
15657.78261872642
 20
-1062.1551606661919
 30
0.0
 11
15657.24672034642
 21
-1060.1551606661919
 31
0.0
  0
LINE
  5
146B4
  8
0
  6
BYBLOCK
 10
15657.78261872642
 20
-1062.1551606661919
 30
0.0
 11
15657.78261872642
 21
-1060.1551606661919
 31
0.0
  0
TEXT
  5
146B5
  8
1DIM
 10
15656.16595205975
 20
-1129.1546606661891
 30
0.0
 40
3.5
  1
(527)
 50
90.0
  0
LINE
  5
146B6
  8
0
  6
BYBLOCK
 10
15658.31851710642
 20
-1180.154160666192
 30
0.0
 11
15657.78261872642
 21
-1182.154160666192
 31
0.0
  0
LINE
  5
146B7
  8
0
  6
BYBLOCK
 10
15657.78261872642
 20
-1182.154160666192
 30
0.0
 11
15657.24672034642
 21
-1180.154160666192
 31
0.0
  0
LINE
  5
146B8
  8
0
  6
BYBLOCK
 10
15657.78261872642
 20
-1182.154160666192
 30
0.0
 11
15657.78261872642
 21
-1180.154160666192
 31
0.0
  0
LINE
  5
146B9
  8
0
  6
BYBLOCK
 10
15657.24672034642
 20
-1064.1551606661919
 30
0.0
 11
15657.78261872642
 21
-1062.1551606661919
 31
0.0
  0
LINE
  5
146BA
  8
0
  6
BYBLOCK
 10
15657.78261872642
 20
-1062.1551606661919
 30
0.0
 11
15658.31851710642
 21
-1064.1551606661919
 31
0.0
  0
LINE
  5
146BB
  8
0
  6
BYBLOCK
 10
15657.78261872642
 20
-1062.1551606661919
 30
0.0
 11
15657.78261872642
 21
-1064.1551606661919
 31
0.0
  0
TEXT
  5
146BC
  8
1DIM
 10
15695.66298944417
 20
-1199.197938839171
 30
0.0
 40
3.5
  1
φ60
  0
LINE
  5
146BD
  8
0
  6
BYBLOCK
 10
15728.737989444169
 20
-1199.3620404591711
 30
0.0
 11
15730.737989444169
 21
-1199.897938839171
 31
0.0
  0
LINE
  5
146BE
  8
0
  6
BYBLOCK
 10
15730.737989444169
 20
-1199.897938839171
 30
0.0
 11
15728.737989444169
 21
-1200.433837219171
 31
0.0
  0
LINE
  5
146BF
  8
0
  6
BYBLOCK
 10
15730.737989444169
 20
-1199.897938839171
 30
0.0
 11
15728.737989444169
 21
-1199.897938839171
 31
0.0
  0
LINE
  5
146C0
  8
0
  6
BYBLOCK
 10
15672.737989444169
 20
-1200.433837219171
 30
0.0
 11
15670.737989444169
 21
-1199.897938839171
 31
0.0
  0
LINE
  5
146C1
  8
0
  6
BYBLOCK
 10
15670.737989444169
 20
-1199.897938839171
 30
0.0
 11
15672.737989444169
 21
-1199.3620404591711
 31
0.0
  0
LINE
  5
146C2
  8
0
  6
BYBLOCK
 10
15670.737989444169
 20
-1199.897938839171
 30
0.0
 11
15672.737989444169
 21
-1199.897938839171
 31
0.0
  0
TEXT
  5
146C3
  8
1DIM
 10
15803.03317019247
 20
-1081.221827332856
 30
0.0
 40
3.5
  1
φ9.5
 50
90.0
  0
LINE
  5
146C4
  8
0
  6
BYBLOCK
 10
15804.26906857247
 20
-1064.9051606661919
 30
0.0
 11
15803.73317019247
 21
-1066.9051606661919
 31
0.0
  0
LINE
  5
146C5
  8
0
  6
BYBLOCK
 10
15803.73317019247
 20
-1066.9051606661919
 30
0.0
 11
15803.197271812471
 21
-1064.9051606661919
 31
0.0
  0
LINE
  5
146C6
  8
0
  6
BYBLOCK
 10
15803.73317019247
 20
-1066.9051606661919
 30
0.0
 11
15803.73317019247
 21
-1064.9051606661919
 31
0.0
  0
LINE
  5
146C7
  8
0
  6
BYBLOCK
 10
15803.197271812471
 20
-1059.4051606661919
 30
0.0
 11
15803.73317019247
 21
-1057.4051606661919
 31
0.0
  0
LINE
  5
146C8
  8
0
  6
BYBLOCK
 10
15803.73317019247
 20
-1057.4051606661919
 30
0.0
 11
15804.26906857247
 21
-1059.4051606661919
 31
0.0
  0
LINE
  5
146C9
  8
0
  6
BYBLOCK
 10
15803.73317019247
 20
-1057.4051606661919
 30
0.0
 11
15803.73317019247
 21
-1059.4051606661919
 31
0.0
  0
LINE
  5
146CA
  8
1DIM
 10
15712.941616531079
 20
-1179.0609201054581
 30
0.0
 11
15737.31342787822
 21
-1193.1319919473669
 31
0.0
  0
LINE
  5
146CB
  8
0
  6
BYBLOCK
 10
15712.67366734108
 20
-1179.525021716385
 30
0.0
 11
15711.20956572351
 21
-1178.0609201054581
 31
0.0
  0
LINE
  5
146CC
  8
0
  6
BYBLOCK
 10
15711.20956572351
 20
-1178.0609201054581
 30
0.0
 11
15713.209565721079
 21
-1178.5968184945309
 31
0.0
  0
LINE
  5
146CD
  8
0
  6
BYBLOCK
 10
15711.20956572351
 20
-1178.0609201054581
 30
0.0
 11
15712.941616531079
 21
-1179.0609201054581
 31
0.0
  0
VIEWPORT
  5
57
 67
     1
  8
0
 10
-12.73053481970658
 20
10.08534024934681
 30
0.0
 40
426.51666585385539
 41
282.81980881462079
 68
     1
 69
     1
1001
ACAD
1000
MVIEW
1002
{
1070
    16
1010
0.0
1020
0.0
1030
0.0
1010
0.0
1020
0.0
1030
1.0
1040
0.0
1040
282.81980881462079
1040
-12.73053481970658
1040
10.08534024934681
1040
50.0
1040
0.0
1040
0.0
1070
     0
1070
   100
1070
     1
1070
     1
1070
     0
1070
     0
1070
     0
1070
     0
1040
0.0
1040
0.0
1040
0.0
1040
10.0
1040
10.0
1040
10.0
1040
10.0
1070
     0
1002
{
1002
}
1002
}
  0
ENDSEC
  0
EOF
