  0
SECTION
  2
HEADER
  9
$ACADVER
  1
AC1009
  9
$INSBASE
 10
0.0
 20
0.0
 30
0.0
  9
$EXTMIN
 10
15481.104483673589
 20
-1124.273800611764
 30
0.0
  9
$EXTMAX
 10
15770.19376707168
 20
-871.26489070002799
 30
0.0
  9
$LIMMIN
 10
0.0
 20
0.0
  9
$LIMMAX
 10
420.0
 20
297.0
  9
$ORTHOMODE
 70
     0
  9
$REGENMODE
 70
     1
  9
$FILLMODE
 70
     1
  9
$QTEXTMODE
 70
     0
  9
$MIRRTEXT
 70
     0
  9
$DRAGMODE
 70
     2
  9
$LTSCALE
 40
0.5
  9
$OSMODE
 70
  2173
  9
$ATTMODE
 70
     1
  9
$TEXTSIZE
 40
4.0
  9
$TRACEWID
 40
1.0
  9
$TEXTSTYLE
  7
STANDARD
  9
$CLAYER
  8
1TEXT
  9
$CELTYPE
  6
BYLAYER
  9
$CECOLOR
 62
   256
  9
$DIMSCALE
 40
1.0
  9
$DIMASZ
 40
2.0
  9
$DIMEXO
 40
0.0
  9
$DIMDLI
 40
7.0
  9
$DIMRND
 40
0.0
  9
$DIMDLE
 40
0.0
  9
$DIMEXE
 40
1.0
  9
$DIMTP
 40
0.0
  9
$DIMTM
 40
0.0
  9
$DIMTXT
 40
3.5
  9
$DIMCEN
 40
0.0
  9
$DIMTSZ
 40
0.0
  9
$DIMTOL
 70
     0
  9
$DIMLIM
 70
     0
  9
$DIMTIH
 70
     0
  9
$DIMTOH
 70
     0
  9
$DIMSE1
 70
     0
  9
$DIMSE2
 70
     0
  9
$DIMTAD
 70
     1
  9
$DIMZIN
 70
     8
  9
$DIMBLK
  1

  9
$DIMASO
 70
     1
  9
$DIMSHO
 70
     1
  9
$DIMPOST
  1
 
  9
$DIMAPOST
  1

  9
$DIMALT
 70
     0
  9
$DIMALTD
 70
     2
  9
$DIMALTF
 40
25.399999999999999
  9
$DIMLFAC
 40
1.0
  9
$DIMTOFL
 70
     1
  9
$DIMTVP
 40
0.0
  9
$DIMTIX
 70
     0
  9
$DIMSOXD
 70
     0
  9
$DIMSAH
 70
     1
  9
$DIMBLK1
  1
OPEN30
  9
$DIMBLK2
  1
OPEN30
  9
$DIMSTYLE
  2
NEWX10
  9
$DIMCLRD
 70
   256
  9
$DIMCLRE
 70
   256
  9
$DIMCLRT
 70
   201
  9
$DIMTFAC
 40
0.7
  9
$DIMGAP
 40
0.7
  9
$LUNITS
 70
     2
  9
$LUPREC
 70
     4
  9
$SKETCHINC
 40
1.0
  9
$FILLETRAD
 40
0.0
  9
$AUNITS
 70
     0
  9
$AUPREC
 70
     2
  9
$MENU
  1
acad
  9
$ELEVATION
 40
0.0
  9
$PELEVATION
 40
0.0
  9
$THICKNESS
 40
0.0
  9
$LIMCHECK
 70
     0
  9
$BLIPMODE
 70
     0
  9
$CHAMFERA
 40
1.25
  9
$CHAMFERB
 40
1.25
  9
$SKPOLY
 70
     0
  9
$TDCREATE
 40
2451318.621352917
  9
$TDUPDATE
 40
2453574.6966776969
  9
$TDINDWG
 40
1.7118252778
  9
$TDUSRTIMER
 40
1.7118252778
  9
$USRTIMER
 70
     1
  9
$ANGBASE
 50
0.0
  9
$ANGDIR
 70
     0
  9
$PDMODE
 70
     0
  9
$PDSIZE
 40
0.0
  9
$PLINEWID
 40
0.0
  9
$COORDS
 70
     2
  9
$SPLFRAME
 70
     0
  9
$SPLINETYPE
 70
     6
  9
$SPLINESEGS
 70
     8
  9
$ATTDIA
 70
     0
  9
$ATTREQ
 70
     1
  9
$HANDLING
 70
     1
  9
$HANDSEED
  5
1469B
  9
$SURFTAB1
 70
     6
  9
$SURFTAB2
 70
     6
  9
$SURFTYPE
 70
     6
  9
$SURFU
 70
     6
  9
$SURFV
 70
     6
  9
$UCSNAME
  2

  9
$UCSORG
 10
0.0
 20
0.0
 30
0.0
  9
$UCSXDIR
 10
1.0
 20
0.0
 30
0.0
  9
$UCSYDIR
 10
0.0
 20
1.0
 30
0.0
  9
$PUCSNAME
  2

  9
$PUCSORG
 10
0.0
 20
0.0
 30
0.0
  9
$PUCSXDIR
 10
1.0
 20
0.0
 30
0.0
  9
$PUCSYDIR
 10
0.0
 20
1.0
 30
0.0
  9
$USERI1
 70
     0
  9
$USERI2
 70
     0
  9
$USERI3
 70
     0
  9
$USERI4
 70
     0
  9
$USERI5
 70
     0
  9
$USERR1
 40
0.0
  9
$USERR2
 40
0.0
  9
$USERR3
 40
0.0
  9
$USERR4
 40
0.0
  9
$USERR5
 40
0.0
  9
$WORLDVIEW
 70
     1
  9
$SHADEDGE
 70
     3
  9
$SHADEDIF
 70
    70
  9
$TILEMODE
 70
     1
  9
$MAXACTVP
 70
    48
  9
$PLIMCHECK
 70
     0
  9
$PEXTMIN
 10
1.0000000000000000E+020
 20
1.0000000000000000E+020
 30
1.0000000000000000E+020
  9
$PEXTMAX
 10
-1.0000000000000000E+020
 20
-1.0000000000000000E+020
 30
-1.0000000000000000E+020
  9
$PLIMMIN
 10
0.0
 20
0.0
  9
$PLIMMAX
 10
420.0
 20
297.0
  9
$UNITMODE
 70
     0
  9
$VISRETAIN
 70
     1
  9
$PLINEGEN
 70
     0
  9
$PSLTSCALE
 70
     1
  0
ENDSEC
  0
SECTION
  2
TABLES
  0
TABLE
  2
VPORT
 70
     5
  0
VPORT
  2
*ACTIVE
 70
     0
 10
0.0
 20
0.0
 11
1.0
 21
1.0
 12
15625.693059670781
 22
-997.77401040071231
 13
0.0
 23
0.0
 14
10.0
 24
10.0
 15
10.0
 25
10.0
 16
0.0
 26
0.0
 36
1.0
 17
0.0
 27
0.0
 37
0.0
 40
268.55798651669591
 41
1.508086253369272
 42
50.0
 43
0.0
 44
0.0
 50
0.0
 51
0.0
 71
     0
 72
   100
 73
     1
 74
     1
 75
     0
 76
     0
 77
     0
 78
     0
  0
ENDTAB
  0
TABLE
  2
LTYPE
 70
    18
  0
LTYPE
  2
CONTINUOUS
 70
     0
  3
Solid line
 72
    65
 73
     0
 40
0.0
  0
LTYPE
  2
XREF1|CENTER2
 70
    48
  3
Center (.5x) ___ _ ___ _ ___ _ ___ _ ___ _ ___
 72
    65
 73
     4
 40
28.574999999999999
 49
19.050000000000001
 49
-3.174999999999998
 49
3.174999999999998
 49
-3.174999999999998
  0
LTYPE
  2
CENTER2
 70
     0
  3
Center (.5x) ___ _ ___ _ ___ _ ___ _ ___ _ ___
 72
    65
 73
     4
 40
28.574999999999999
 49
19.050000000000001
 49
-3.1749999999999989
 49
3.1749999999999989
 49
-3.1749999999999989
  0
LTYPE
  2
A3WAKUDAKE|CENTER2
 70
    48
  3
Center (.5x) ___ _ ___ _ ___ _ ___ _ ___ _ ___
 72
    65
 73
     4
 40
28.574999999999999
 49
19.050000000000001
 49
-3.174999999999998
 49
3.174999999999998
 49
-3.174999999999998
  0
ENDTAB
  0
TABLE
  2
LAYER
 70
    82
  0
LAYER
  2
0
 70
     0
 62
     7
  6
CONTINUOUS
  0
LAYER
  2
1CENTER
 70
     0
 62
     7
  6
CENTER2
  0
LAYER
  2
1TEXT
 70
     0
 62
     7
  6
CONTINUOUS
  0
LAYER
  2
1DIM
 70
     0
 62
     7
  6
CONTINUOUS
  0
LAYER
  2
1HATCH
 70
     0
 62
     7
  6
CONTINUOUS
  0
LAYER
  2
01
 70
     0
 62
     1
  6
CONTINUOUS
  0
LAYER
  2
XREF1|1CENTER
 70
    48
 62
     7
  6
XREF1|CENTER2
  0
LAYER
  2
A3WAKUDAKE|THICK
 70
    48
 62
     7
  6
CONTINUOUS
  0
LAYER
  2
A3WAKUDAKE|POINT
 70
    48
 62
     7
  6
CONTINUOUS
  0
LAYER
  2
A3WAKUDAKE|1CENTER
 70
    48
 62
     7
  6
A3WAKUDAKE|CENTER2
  0
LAYER
  2
A3WAKUDAKE|0-6
 70
    48
 62
     7
  6
CONTINUOUS
  0
LAYER
  2
A3WAKUDAKE|1DIM
 70
    48
 62
     7
  6
CONTINUOUS
  0
ENDTAB
  0
TABLE
  2
STYLE
 70
    23
  0
STYLE
  2
STANDARD
 70
     0
 40
0.0
 41
1.0
 50
0.0
 71
     0
 42
4.0
  3
txt.shx
  4
extfont.shx
  0
ENDTAB
  0
TABLE
  2
VIEW
 70
     1
  0
VIEW
  2
OLE1
 70
     0
 40
307.44384118935511
 10
197.83231463994591
 20
72.5339709327408
 41
490.95683166672183
 11
0.0
 21
0.0
 31
1.0
 12
0.0
 22
0.0
 32
0.0
 42
50.0
 43
0.0
 44
0.0
 50
0.0
 71
     0
  0
ENDTAB
  0
TABLE
  2
UCS
 70
     4
  0
UCS
  2
U
 70
     0
 10
0.0
 20
0.0
 30
0.0
 11
1.0
 21
0.0
 31
0.0
 12
0.0
 22
-0.0000000000000002
 32
1.0
  0
UCS
  2
L
 70
     0
 10
0.0
 20
0.0
 30
0.0
 11
0.0000000000000001
 21
-1.0
 31
-0.0000000000000002
 12
0.0
 22
-0.0000000000000002
 32
1.0
  0
UCS
  2
ISOME
 70
     0
 10
0.0
 20
0.0
 30
0.0
 11
0.7071450863198269
 21
-0.7070684729403534
 31
-0.0000383082461943
 12
0.4082704059428731
 22
0.4082704077401155
 32
0.8164744636514738
  0
UCS
  2
PERSPECTIVE
 70
     0
 10
0.0
 20
0.0
 30
0.0
 11
0.8191477691768966
 21
-0.5735823260466401
 31
-0.0004974931557765
 12
0.1584844715982971
 22
0.225502028986108
 32
0.9612655757829658
  0
ENDTAB
  0
TABLE
  2
APPID
 70
    14
  0
APPID
  2
ACAD
 70
     0
  0
APPID
  2
DRAWINGVARIABLESXDATA
 70
     0
  0
APPID
  2
CONTENTTABDATA
 70
     0
  0
APPID
  2
CONTENTCURRENTTAB
 70
     0
  0
APPID
  2
CONTENTBLOCKDESCRIPTION
 70
     0
  0
APPID
  2
CONTENTBLOCKICON
 70
     0
  0
APPID
  2
CONTENTLONGBLOCKNAME
 70
     0
  0
APPID
  2
GRPNAME
 70
     0
  0
APPID
  2
LAYTOOL
 70
     0
  0
APPID
  2
ITM1
 70
     0
  0
APPID
  2
ITM2
 70
     0
  0
APPID
  2
ITM3
 70
     0
  0
APPID
  2
ITM4
 70
     0
  0
APPID
  2
ACAD_PSEXT
 70
     0
  0
ENDTAB
  0
TABLE
  2
DIMSTYLE
 70
     9
  0
DIMSTYLE
  2
NEWX10
 70
     0
  3
 
  4

  5

  6
OPEN30
  7
OPEN30
 40
1.0
 41
2.0
 42
0.0
 43
7.0
 44
1.0
 45
0.0
 46
0.0
 47
0.0
 48
0.0
140
3.5
141
0.0
142
0.0
143
25.399999999999999
144
1.0
145
0.0
146
0.7
147
0.7
 71
     0
 72
     0
 73
     0
 74
     0
 75
     0
 76
     0
 77
     1
 78
     8
170
     0
171
     2
172
     1
173
     1
174
     0
175
     0
176
   256
177
   256
178
   201
  0
ENDTAB
  0
ENDSEC
  0
SECTION
  2
BLOCKS
  0
BLOCK
  8
0
  2
$MODEL_SPACE
 70
     0
 10
0.0
 20
0.0
 30
0.0
  3
$MODEL_SPACE
  1

  0
ENDBLK
  5
1A
  8
0
  0
BLOCK
 67
     1
  8
0
  2
$PAPER_SPACE
 70
     0
 10
0.0
 20
0.0
 30
0.0
  3
$PAPER_SPACE
  1

  0
ENDBLK
  5
17
 67
     1
  8
0
  0
BLOCK
  8
0
  2
_OPEN30
 70
     0
 10
0.0
 20
0.0
 30
0.0
  3
_OPEN30
  1

  0
LINE
  5
44
  8
0
  6
BYBLOCK
 62
     0
 10
-1.0
 20
0.26794919
 30
0.0
 11
0.0
 21
0.0
 31
0.0
  0
LINE
  5
45
  8
0
  6
BYBLOCK
 62
     0
 10
0.0
 20
0.0
 30
0.0
 11
-1.0
 21
-0.26794919
 31
0.0
  0
LINE
  5
46
  8
0
  6
BYBLOCK
 62
     0
 10
0.0
 20
0.0
 30
0.0
 11
-1.0
 21
0.0
 31
0.0
  0
ENDBLK
  5
47
  8
0
  0
BLOCK
  8
0
  2
XREF1
 70
    36
 10
0.0
 20
0.0
 30
0.0
  3
XREF1
  1
D:\ACLT\FORMAT\KAWAJUN(9)図面用.dwg
  0
ENDBLK
  5
5D
  8
0
  0
BLOCK
  8
0
  2
A3WAKUDAKE
 70
    36
 10
0.0
 20
0.0
 30
0.0
  3
A3WAKUDAKE
  1
D:\ACLT\FORMAT\A3WAKUdake.dwg
  0
ENDBLK
  5
D88C
  8
0
  0
BLOCK
  8
0
  2
*U68
 70
     1
 10
0.0
 20
0.0
 30
0.0
  3
*U68
  1

  0
TEXT
  5
14685
  8
1DIM
 62
   201
 10
15640.06464002233
 20
-1122.573800611764
 30
0.0
 40
3.5
  1
71 
  0
ENDBLK
  5
14687
  8
0
  0
BLOCK
  8
0
  2
*U69
 70
     1
 10
0.0
 20
0.0
 30
0.0
  3
*U69
  1

  0
TEXT
  5
14689
  8
1DIM
 62
   201
 10
15574.43130668899
 20
-1122.573800611764
 30
0.0
 40
3.5
  1
34リフト3mm
  0
ENDBLK
  5
1468B
  8
0
  0
BLOCK
  8
0
  2
*U70
 70
     1
 10
0.0
 20
0.0
 30
0.0
  3
*U70
  1

  0
TEXT
  5
1468D
  8
1DIM
 62
   201
 10
15631.164640022331
 20
-882.63265457822831
 30
0.0
 40
3.5
  1
φ12.7
  0
ENDBLK
  5
1468F
  8
0
  0
BLOCK
  8
0
  2
*U71
 70
     1
 10
0.0
 20
0.0
 30
0.0
  3
*U71
  1

  0
TEXT
  5
14691
  8
1DIM
 62
   201
 10
15728.010722666801
 20
-1119.712750940633
 30
0.0
 40
3.5
  1
φ60
  0
ENDBLK
  5
14693
  8
0
  0
BLOCK
  8
0
  2
*U72
 70
     1
 10
0.0
 20
0.0
 30
0.0
  3
*U72
  1

  0
TEXT
  5
14698
  8
1DIM
 62
   201
 10
15553.629861728919
 20
-984.19035852398952
 30
0.0
 40
3.5
  1
227
 50
90.0
  0
ENDBLK
  5
1469A
  8
0
  0
ENDSEC
  0
SECTION
  2
ENTITIES
  0
TEXT
  5
119E9
  8
1TEXT
 10
15481.104483673589
 20
-879.26489070002799
 30
0.0
 40
8.0
  1
HN02
  0
LINE
  5
13C90
  8
01
 10
15570.897973355661
 20
-1057.4661918573249
 30
0.0
 11
15570.897973355661
 21
-1060.3161918573251
 31
0.0
  0
LINE
  5
13C91
  8
01
 10
15570.897973355661
 20
-1064.9661918573249
 30
0.0
 11
15570.897973355661
 21
-1062.116191857325
 31
0.0
  0
LINE
  5
13C92
  8
01
 10
15572.897973355661
 20
-1060.3161918573251
 30
0.0
 11
15570.897973355661
 21
-1060.3161918573251
 31
0.0
  0
LINE
  5
13C93
  8
01
 10
15572.897973355661
 20
-1061.2161918573249
 30
0.0
 11
15572.897973355661
 21
-1060.3161918573251
 31
0.0
  0
LINE
  5
13C94
  8
01
 10
15572.897973355661
 20
-1061.2161918573249
 30
0.0
 11
15572.897973355661
 21
-1062.116191857325
 31
0.0
  0
LINE
  5
13C95
  8
01
 10
15572.897973355661
 20
-1062.116191857325
 30
0.0
 11
15570.897973355661
 21
-1062.116191857325
 31
0.0
  0
LINE
  5
13C96
  8
01
 10
15570.897973355661
 20
-1064.9661918573249
 30
0.0
 11
15571.897973355661
 21
-1065.9661918573249
 31
0.0
  0
LINE
  5
13C97
  8
01
 10
15570.897973355661
 20
-1057.4661918573249
 30
0.0
 11
15571.897973355661
 21
-1056.4661918573249
 31
0.0
  0
LINE
  5
13C98
  8
1CENTER
 10
15606.897973355661
 20
-997.21619185732538
 30
0.0
 11
15606.897973355661
 21
-1091.031191857325
 31
0.0
  0
LINE
  5
13C99
  8
01
 10
15665.897973355661
 20
-1071.616191857325
 30
0.0
 11
15665.897973355661
 21
-1061.2161918573249
 31
0.0
  0
LINE
  5
13C9A
  8
01
 10
15665.897973355661
 20
-1050.8161918573251
 30
0.0
 11
15665.897973355661
 21
-1061.2161918573249
 31
0.0
  0
LINE
  5
13C9B
  8
01
 10
15587.489973355659
 20
-1073.2161918573249
 30
0.0
 11
15587.489973355659
 21
-1061.2161918573249
 31
0.0
  0
LINE
  5
13C9C
  8
01
 10
15587.489973355659
 20
-1061.2161918573249
 30
0.0
 11
15587.489973355659
 21
-1049.2161918573249
 31
0.0
  0
LINE
  5
13C9D
  8
01
 10
15638.897973355661
 20
-1071.616191857325
 30
0.0
 11
15638.897973355661
 21
-1061.2161918573249
 31
0.0
  0
LINE
  5
13C9E
  8
01
 10
15638.897973355661
 20
-1050.8161918573251
 30
0.0
 11
15638.897973355661
 21
-1061.2161918573249
 31
0.0
  0
LINE
  5
13C9F
  8
01
 10
15606.897973355661
 20
-1041.2161918573249
 30
0.0
 11
15617.37597335566
 21
-1041.2161918573249
 31
0.0
  0
LINE
  5
13CA0
  8
01
 10
15596.42097335566
 20
-1041.2161918573249
 30
0.0
 11
15606.897973355661
 21
-1041.2161918573249
 31
0.0
  0
LINE
  5
13CA3
  8
01
 10
15574.925973355659
 20
-1061.2161918573249
 30
0.0
 11
15574.925973355659
 21
-1066.7161918573249
 31
0.0
  0
LINE
  5
13CA4
  8
01
 10
15586.06497335566
 20
-1074.9661918573249
 30
0.0
 11
15578.78797335566
 21
-1074.9661918573249
 31
0.0
  0
ARC
  5
13CA5
  8
01
 10
15582.425973355659
 20
-1071.5361918573251
 30
0.0
 40
5.0
 50
316.69399999998262
 51
334.15800000002281
  0
ARC
  5
13CA6
  8
01
 10
15582.425973355659
 20
-1071.5361918573251
 30
0.0
 40
5.0
 50
198.4909999999978
 51
223.3050000000249
  0
LINE
  5
13CA7
  8
01
 10
15586.925973355659
 20
-1073.7161918573249
 30
0.0
 11
15586.925973355659
 21
-1061.2161918573249
 31
0.0
  0
LINE
  5
13CA8
  8
01
 10
15578.78797335566
 20
-1070.2351918573249
 30
0.0
 11
15578.78797335566
 21
-1065.695191857325
 31
0.0
  0
LINE
  5
13CA9
  8
01
 10
15586.06497335566
 20
-1065.695191857325
 30
0.0
 11
15586.06497335566
 21
-1070.2351918573249
 31
0.0
  0
LINE
  5
13CAA
  8
01
 10
15578.78797335566
 20
-1070.2351918573249
 30
0.0
 11
15586.06497335566
 21
-1070.2351918573249
 31
0.0
  0
LINE
  5
13CAB
  8
01
 10
15578.78797335566
 20
-1065.695191857325
 30
0.0
 11
15586.06497335566
 21
-1065.695191857325
 31
0.0
  0
ARC
  5
13CAE
  8
01
 10
15560.085973355661
 20
-1076.9021918573251
 30
0.0
 40
18.0
 50
12.121999999989271
 51
34.465000000026812
  0
ARC
  5
13CB1
  8
01
 10
15560.085973355661
 20
-1045.530191857325
 30
0.0
 40
18.0
 50
325.53499999997319
 51
347.87800000001067
  0
LINE
  5
13CB4
  8
01
 10
15578.78797335566
 20
-1056.7371918573249
 30
0.0
 11
15586.06497335566
 21
-1056.7371918573249
 31
0.0
  0
LINE
  5
13CB5
  8
01
 10
15578.78797335566
 20
-1052.1971918573249
 30
0.0
 11
15586.06497335566
 21
-1052.1971918573249
 31
0.0
  0
LINE
  5
13CB6
  8
01
 10
15586.06497335566
 20
-1056.7371918573249
 30
0.0
 11
15586.06497335566
 21
-1052.1971918573249
 31
0.0
  0
LINE
  5
13CB7
  8
01
 10
15578.78797335566
 20
-1052.1971918573249
 30
0.0
 11
15578.78797335566
 21
-1056.7371918573249
 31
0.0
  0
LINE
  5
13CB8
  8
01
 10
15586.925973355659
 20
-1048.7161918573249
 30
0.0
 11
15586.925973355659
 21
-1061.2161918573249
 31
0.0
  0
ARC
  5
13CB9
  8
01
 10
15582.425973355659
 20
-1050.895191857325
 30
0.0
 40
5.0
 50
136.6949999999751
 51
161.50900000000209
  0
ARC
  5
13CBA
  8
01
 10
15582.425973355659
 20
-1050.895191857325
 30
0.0
 40
5.0
 50
25.841999999977219
 51
43.306000000017349
  0
LINE
  5
13CBB
  8
01
 10
15586.06497335566
 20
-1047.4661918573249
 30
0.0
 11
15578.78797335566
 21
-1047.4661918573249
 31
0.0
  0
LINE
  5
13CBC
  8
01
 10
15574.925973355659
 20
-1061.2161918573249
 30
0.0
 11
15574.925973355659
 21
-1055.7161918573249
 31
0.0
  0
LINE
  5
13CBD
  8
01
 10
15587.489973355659
 20
-1050.029191857325
 30
0.0
 11
15588.897973355661
 21
-1049.2161918573249
 31
0.0
  0
LINE
  5
13CBE
  8
01
 10
15587.489973355659
 20
-1072.4031918573251
 30
0.0
 11
15588.897973355661
 21
-1073.2161918573249
 31
0.0
  0
LINE
  5
13CBF
  8
01
 10
15620.701973355661
 20
-1049.2161918573249
 30
0.0
 11
15621.51897335566
 21
-1049.2161918573249
 31
0.0
  0
LINE
  5
13CC0
  8
01
 10
15624.346973355659
 20
-1048.0441918573249
 30
0.0
 11
15625.897973355661
 21
-1046.493191857325
 31
0.0
  0
ARC
  5
13CC1
  8
01
 10
15621.51897335566
 20
-1045.2161918573249
 30
0.0
 40
4.0
 50
270.00099999999651
 51
315.00000000000921
  0
LINE
  5
13CC2
  8
01
 10
15624.346973355659
 20
-1074.387191857325
 30
0.0
 11
15625.897973355661
 21
-1075.9381918573249
 31
0.0
  0
LINE
  5
13CC3
  8
01
 10
15625.897973355661
 20
-1075.9381918573249
 30
0.0
 11
15633.75897335566
 21
-1075.9381918573249
 31
0.0
  0
LINE
  5
13CC4
  8
01
 10
15625.897973355661
 20
-1046.493191857325
 30
0.0
 11
15633.75897335566
 21
-1046.493191857325
 31
0.0
  0
LINE
  5
13CC5
  8
01
 10
15633.75897335566
 20
-1046.493191857325
 30
0.0
 11
15634.897973355661
 21
-1048.4661918573249
 31
0.0
  0
LINE
  5
13CC6
  8
01
 10
15633.75897335566
 20
-1075.9381918573249
 30
0.0
 11
15634.897973355661
 21
-1073.9661918573249
 31
0.0
  0
ARC
  5
13CC7
  8
01
 10
15621.37597335566
 20
-1045.2161918573249
 30
0.0
 40
4.0
 50
180.00199999999319
 51
263.85399999998879
  0
LINE
  5
13CC8
  8
01
 10
15597.58297335566
 20
-1041.2161918573249
 30
0.0
 11
15596.42097335566
 21
-1043.2281918573251
 31
0.0
  0
LINE
  5
13CC9
  8
01
 10
15616.21397335566
 20
-1041.2161918573249
 30
0.0
 11
15617.37597335566
 21
-1043.2281918573251
 31
0.0
  0
LINE
  5
13CCA
  8
01
 10
15664.31297335566
 20
-1050.8161918573251
 30
0.0
 11
15665.897973355661
 21
-1051.780191857325
 31
0.0
  0
LINE
  5
13CCB
  8
01
 10
15664.31297335566
 20
-1071.616191857325
 30
0.0
 11
15665.897973355661
 21
-1070.6511918573251
 31
0.0
  0
LINE
  5
13CCC
  8
01
 10
15677.897973355661
 20
-1052.155191857325
 30
0.0
 11
15665.897973355661
 21
-1051.780191857325
 31
0.0
  0
LINE
  5
13CCD
  8
01
 10
15677.897973355661
 20
-1070.2761918573251
 30
0.0
 11
15665.897973355661
 21
-1070.6511918573251
 31
0.0
  0
LINE
  5
13CCE
  8
01
 10
15677.897973355661
 20
-1070.2761918573251
 30
0.0
 11
15676.73597335566
 21
-1071.4751918573249
 31
0.0
  0
LINE
  5
13CCF
  8
01
 10
15677.897973355661
 20
-1052.155191857325
 30
0.0
 11
15677.897973355661
 21
-1070.2761918573251
 31
0.0
  0
LINE
  5
13CD0
  8
01
 10
15676.73597335566
 20
-1050.9571918573249
 30
0.0
 11
15677.897973355661
 21
-1052.155191857325
 31
0.0
  0
LINE
  5
13CD1
  8
01
 10
15640.48297335566
 20
-1050.8161918573251
 30
0.0
 11
15638.897973355661
 21
-1051.780191857325
 31
0.0
  0
LINE
  5
13CD2
  8
01
 10
15640.48297335566
 20
-1071.616191857325
 30
0.0
 11
15638.897973355661
 21
-1070.6511918573251
 31
0.0
  0
ARC
  5
13CD3
  8
01
 10
15673.64597335566
 20
-1071.7161918573249
 30
0.0
 40
30.0
 50
183.33899999999281
 51
206.574999999998
  0
LINE
  5
13CD4
  8
01
 10
15656.65397335566
 20
-1091.2161918573249
 30
0.0
 11
15659.691973355661
 21
-1091.2161918573249
 31
0.0
  0
ARC
  5
13CD5
  8
01
 10
15656.65397335566
 20
-1080.2161918573249
 30
0.0
 40
11.0
 50
206.574999999998
 51
269.99700000000928
  0
ARC
  5
13CD6
  8
01
 10
15656.65397335566
 20
-1042.2161918573249
 30
0.0
 40
11.0
 50
90.003999999988935
 51
153.4290000000039
  0
LINE
  5
13CD7
  8
01
 10
15656.65397335566
 20
-1031.2161918573249
 30
0.0
 11
15659.691973355661
 21
-1031.2161918573249
 31
0.0
  0
ARC
  5
13CD8
  8
01
 10
15673.64597335566
 20
-1050.7161918573249
 30
0.0
 40
30.0
 50
153.4290000000039
 51
176.66400000000371
  0
LINE
  5
13CD9
  8
01
 10
15643.691973355661
 20
-1061.2161918573249
 30
0.0
 11
15643.691973355661
 21
-1049.0561918573251
 31
0.0
  0
LINE
  5
13CDA
  8
01
 10
15643.691973355661
 20
-1061.2161918573249
 30
0.0
 11
15643.691973355661
 21
-1073.376191857325
 31
0.0
  0
LINE
  5
13CDB
  8
01
 10
15659.691973355661
 20
-1061.2161918573249
 30
0.0
 11
15659.691973355661
 21
-1091.2161918573249
 31
0.0
  0
LINE
  5
13CDC
  8
01
 10
15659.691973355661
 20
-1061.2161918573249
 30
0.0
 11
15659.691973355661
 21
-1031.2161918573249
 31
0.0
  0
LINE
  5
13CDD
  8
01
 10
15659.691973355661
 20
-1050.8161918573251
 30
0.0
 11
15672.218973355661
 21
-1050.8161918573251
 31
0.0
  0
LINE
  5
13CDE
  8
01
 10
15672.218973355661
 20
-1050.8161918573251
 30
0.0
 11
15676.73597335566
 21
-1050.9571918573249
 31
0.0
  0
LINE
  5
13CDF
  8
01
 10
15659.691973355661
 20
-1071.616191857325
 30
0.0
 11
15672.21797335566
 21
-1071.616191857325
 31
0.0
  0
LINE
  5
13CE0
  8
01
 10
15672.21797335566
 20
-1071.616191857325
 30
0.0
 11
15676.73597335566
 21
-1071.4751918573249
 31
0.0
  0
LINE
  5
13CE1
  8
01
 10
15634.897973355661
 20
-1061.2161918573249
 30
0.0
 11
15634.897973355661
 21
-1048.4661918573249
 31
0.0
  0
LINE
  5
13CE2
  8
01
 10
15634.897973355661
 20
-1073.9661918573249
 30
0.0
 11
15634.897973355661
 21
-1061.2161918573249
 31
0.0
  0
LINE
  5
13CE3
  8
01
 10
15634.897973355661
 20
-1051.905191857325
 30
0.0
 11
15638.897973355661
 21
-1051.780191857325
 31
0.0
  0
LINE
  5
13CE4
  8
01
 10
15634.897973355661
 20
-1070.5261918573251
 30
0.0
 11
15638.897973355661
 21
-1070.6511918573251
 31
0.0
  0
LINE
  5
13CE5
  8
01
 10
15634.897973355661
 20
-1050.8161918573251
 30
0.0
 11
15643.691973355661
 21
-1050.8161918573251
 31
0.0
  0
LINE
  5
13CE6
  8
01
 10
15634.897973355661
 20
-1071.616191857325
 30
0.0
 11
15643.691973355661
 21
-1071.616191857325
 31
0.0
  0
LINE
  5
13CE7
  8
01
 10
15586.925973355659
 20
-1050.029191857325
 30
0.0
 11
15587.489973355659
 21
-1050.029191857325
 31
0.0
  0
LINE
  5
13CE8
  8
01
 10
15591.42097335566
 20
-1049.2161918573249
 30
0.0
 11
15586.925973355659
 21
-1049.2161918573249
 31
0.0
  0
ARC
  5
13CE9
  8
01
 10
15591.42097335566
 20
-1044.2161918573249
 30
0.0
 40
5.0
 50
270.0
 51
0.0
  0
LINE
  5
13CEA
  8
01
 10
15586.925973355659
 20
-1072.4031918573251
 30
0.0
 11
15587.489973355659
 21
-1072.4031918573251
 31
0.0
  0
LINE
  5
13CEB
  8
01
 10
15586.925973355659
 20
-1073.2161918573249
 30
0.0
 11
15589.897973355661
 21
-1073.2161918573249
 31
0.0
  0
LINE
  5
13CEC
  8
1CENTER
 10
15560.464182640961
 20
-1061.2161918573249
 30
0.0
 11
15683.91790952918
 21
-1061.2161918573249
 31
0.0
  0
LINE
  5
13CED
  8
01
 10
15625.897973355661
 20
-1053.8551918573251
 30
0.0
 11
15633.75897335566
 21
-1053.8551918573251
 31
0.0
  0
ARC
  5
13CEE
  8
01
 10
15610.53697335566
 20
-1061.2161918573249
 30
0.0
 40
24.361000000000001
 50
0.0
 51
17.587999999993961
  0
ARC
  5
13CEF
  8
01
 10
15638.10797335566
 20
-1061.2161918573249
 30
0.0
 40
14.257
 50
148.9130000000265
 51
180.0
  0
ARC
  5
13CF0
  8
01
 10
15610.53697335566
 20
-1061.2161918573249
 30
0.0
 40
24.361000000000001
 50
342.41200000000612
 51
0.0
  0
ARC
  5
13CF1
  8
01
 10
15638.10797335566
 20
-1061.2161918573249
 30
0.0
 40
14.257
 50
180.0
 51
211.0869999999735
  0
LINE
  5
13CF2
  8
01
 10
15625.897973355661
 20
-1068.577191857325
 30
0.0
 11
15633.75897335566
 21
-1068.577191857325
 31
0.0
  0
ARC
  5
13CF3
  8
01
 10
15628.182973355661
 20
-1050.174191857325
 30
0.0
 40
4.3319999999999981
 50
147.69499999999579
 51
238.1729999999917
  0
ARC
  5
13CF4
  8
01
 10
15628.380973355661
 20
-1050.174191857325
 30
0.0
 40
6.5170000000000003
 50
325.61600000002193
 51
25.615999999999691
  0
ARC
  5
13CF5
  8
01
 10
15628.380973355661
 20
-1072.2581918573251
 30
0.0
 40
6.5170000000000003
 50
334.3840000000003
 51
34.383999999978059
  0
ARC
  5
13CF6
  8
01
 10
15628.182973355661
 20
-1072.2581918573251
 30
0.0
 40
4.3319999999999981
 50
121.8270000000083
 51
212.3050000000041
  0
LINE
  5
13CF7
  8
01
 10
15596.42097335566
 20
-1038.5161918573251
 30
0.0
 11
15596.42097335566
 21
-1044.2161918573249
 31
0.0
  0
LINE
  5
13CF8
  8
01
 10
15597.58297335566
 20
-1038.5161918573251
 30
0.0
 11
15597.58297335566
 21
-1041.2161918573249
 31
0.0
  0
LINE
  5
13CF9
  8
01
 10
15616.21397335566
 20
-1038.5161918573251
 30
0.0
 11
15616.21397335566
 21
-1041.2161918573249
 31
0.0
  0
LINE
  5
13CFA
  8
01
 10
15617.37597335566
 20
-1038.5161918573251
 30
0.0
 11
15617.37597335566
 21
-1045.2161918573249
 31
0.0
  0
LINE
  5
13CFB
  8
01
 10
15589.897973355661
 20
-1073.2161918573249
 30
0.0
 11
15595.989973355659
 21
-1073.2161918573249
 31
0.0
  0
ARC
  5
13CFC
  8
01
 10
15619.85197335566
 20
-1088.089191857325
 30
0.0
 40
15.0
 50
81.281999999959666
 51
99.946000000038737
  0
ARC
  5
13CFD
  8
01
 10
15621.51897335566
 20
-1077.2161918573249
 30
0.0
 40
4.0
 50
44.999999999990777
 51
81.281999999959666
  0
ARC
  5
13CFE
  8
01
 10
15606.897973355661
 20
-1014.216191857325
 30
0.0
 40
60.0
 50
259.52499999995342
 51
279.94600000003868
  0
LINE
  5
13CFF
  8
01
 10
15571.897973355661
 20
-1056.4661918573249
 30
0.0
 11
15574.925973355659
 21
-1056.4661918573249
 31
0.0
  0
LINE
  5
13D00
  8
01
 10
15571.897973355661
 20
-1065.9661918573249
 30
0.0
 11
15574.925973355659
 21
-1065.9661918573249
 31
0.0
  0
LINE
  5
13D01
  8
01
 10
15617.808973355661
 20
-1026.5161918573251
 30
0.0
 11
15606.897973355661
 21
-1026.5161918573251
 31
0.0
  0
ARC
  5
13D02
  8
01
 10
15607.997973355659
 20
-1032.5161918573251
 30
0.0
 40
11.5
 50
328.55099999999999
 51
31.449000000000002
  0
LINE
  5
13D03
  8
01
 10
15617.808973355661
 20
-1038.5161918573251
 30
0.0
 11
15606.897973355661
 21
-1038.5161918573251
 31
0.0
  0
LINE
  5
13D04
  8
01
 10
15616.85697335566
 20
-1027.608191857325
 30
0.0
 11
15617.34097335566
 21
-1027.6961918573249
 31
0.0
  0
LINE
  5
13D05
  8
01
 10
15617.34097335566
 20
-1027.6961918573249
 30
0.0
 11
15617.78497335566
 21
-1027.9381918573249
 31
0.0
  0
LINE
  5
13D06
  8
01
 10
15617.78497335566
 20
-1027.9381918573249
 30
0.0
 11
15618.164973355661
 21
-1028.289191857325
 31
0.0
  0
LINE
  5
13D07
  8
01
 10
15618.164973355661
 20
-1028.289191857325
 30
0.0
 11
15618.47297335566
 21
-1028.695191857325
 31
0.0
  0
LINE
  5
13D08
  8
01
 10
15618.47297335566
 20
-1028.695191857325
 30
0.0
 11
15618.71397335566
 21
-1029.117191857325
 31
0.0
  0
LINE
  5
13D09
  8
01
 10
15618.71397335566
 20
-1029.117191857325
 30
0.0
 11
15618.899973355659
 21
-1029.530191857325
 31
0.0
  0
LINE
  5
13D0A
  8
01
 10
15618.899973355659
 20
-1029.530191857325
 30
0.0
 11
15619.041973355659
 21
-1029.9221918573251
 31
0.0
  0
LINE
  5
13D0B
  8
01
 10
15619.041973355659
 20
-1029.9221918573251
 30
0.0
 11
15619.15097335566
 21
-1030.289191857325
 31
0.0
  0
LINE
  5
13D0C
  8
01
 10
15619.15097335566
 20
-1030.289191857325
 30
0.0
 11
15619.23397335566
 21
-1030.6301918573249
 31
0.0
  0
LINE
  5
13D0D
  8
01
 10
15619.23397335566
 20
-1030.6301918573249
 30
0.0
 11
15619.29697335566
 21
-1030.9501918573251
 31
0.0
  0
LINE
  5
13D0E
  8
01
 10
15619.29697335566
 20
-1030.9501918573251
 30
0.0
 11
15619.343973355661
 21
-1031.250191857325
 31
0.0
  0
LINE
  5
13D0F
  8
01
 10
15619.343973355661
 20
-1031.250191857325
 30
0.0
 11
15619.379973355661
 21
-1031.5361918573251
 31
0.0
  0
LINE
  5
13D10
  8
01
 10
15619.379973355661
 20
-1031.5361918573251
 30
0.0
 11
15619.40497335566
 21
-1031.809191857325
 31
0.0
  0
LINE
  5
13D11
  8
01
 10
15619.40497335566
 20
-1031.809191857325
 30
0.0
 11
15619.42097335566
 21
-1032.0741918573251
 31
0.0
  0
LINE
  5
13D12
  8
01
 10
15619.42097335566
 20
-1032.0741918573251
 30
0.0
 11
15619.42997335566
 21
-1032.3341918573251
 31
0.0
  0
LINE
  5
13D13
  8
01
 10
15619.42997335566
 20
-1032.3341918573251
 30
0.0
 11
15619.43097335566
 21
-1032.5911918573249
 31
0.0
  0
LINE
  5
13D14
  8
01
 10
15619.43097335566
 20
-1032.5911918573249
 30
0.0
 11
15619.424973355661
 21
-1032.8501918573249
 31
0.0
  0
LINE
  5
13D15
  8
01
 10
15619.424973355661
 20
-1032.8501918573249
 30
0.0
 11
15619.41197335566
 21
-1033.1121918573249
 31
0.0
  0
LINE
  5
13D16
  8
01
 10
15619.41197335566
 20
-1033.1121918573249
 30
0.0
 11
15619.390973355659
 21
-1033.3821918573251
 31
0.0
  0
LINE
  5
13D17
  8
01
 10
15619.390973355659
 20
-1033.3821918573251
 30
0.0
 11
15619.35997335566
 21
-1033.6621918573251
 31
0.0
  0
LINE
  5
13D18
  8
01
 10
15619.35997335566
 20
-1033.6621918573251
 30
0.0
 11
15619.317973355661
 21
-1033.955191857325
 31
0.0
  0
LINE
  5
13D19
  8
01
 10
15619.317973355661
 20
-1033.955191857325
 30
0.0
 11
15619.26197335566
 21
-1034.2671918573251
 31
0.0
  0
LINE
  5
13D1A
  8
01
 10
15619.26197335566
 20
-1034.2671918573251
 30
0.0
 11
15619.18797335566
 21
-1034.599191857325
 31
0.0
  0
LINE
  5
13D1B
  8
01
 10
15619.18797335566
 20
-1034.599191857325
 30
0.0
 11
15619.09097335566
 21
-1034.955191857325
 31
0.0
  0
LINE
  5
13D1C
  8
01
 10
15619.09097335566
 20
-1034.955191857325
 30
0.0
 11
15618.96397335566
 21
-1035.336191857325
 31
0.0
  0
LINE
  5
13D1D
  8
01
 10
15618.96397335566
 20
-1035.336191857325
 30
0.0
 11
15618.79797335566
 21
-1035.741191857325
 31
0.0
  0
LINE
  5
13D1E
  8
01
 10
15618.79797335566
 20
-1035.741191857325
 30
0.0
 11
15618.58097335566
 21
-1036.1621918573251
 31
0.0
  0
LINE
  5
13D1F
  8
01
 10
15618.58097335566
 20
-1036.1621918573251
 30
0.0
 11
15618.301973355659
 21
-1036.579191857325
 31
0.0
  0
LINE
  5
13D20
  8
01
 10
15618.301973355659
 20
-1036.579191857325
 30
0.0
 11
15617.951973355661
 21
-1036.9581918573249
 31
0.0
  0
LINE
  5
13D21
  8
01
 10
15617.951973355661
 20
-1036.9581918573249
 30
0.0
 11
15617.532973355659
 21
-1037.252191857325
 31
0.0
  0
LINE
  5
13D22
  8
01
 10
15617.532973355659
 20
-1037.252191857325
 30
0.0
 11
15617.060973355659
 21
-1037.4091918573249
 31
0.0
  0
LINE
  5
13D23
  8
01
 10
15617.060973355659
 20
-1037.4091918573249
 30
0.0
 11
15616.85697335566
 21
-1037.424191857325
 31
0.0
  0
LINE
  5
13D24
  8
01
 10
15616.85697335566
 20
-1037.424191857325
 30
0.0
 11
15616.57197335566
 21
-1037.394191857325
 31
0.0
  0
LINE
  5
13D25
  8
01
 10
15616.57197335566
 20
-1037.394191857325
 30
0.0
 11
15616.10697335566
 21
-1037.211191857325
 31
0.0
  0
LINE
  5
13D26
  8
01
 10
15616.10697335566
 20
-1037.211191857325
 30
0.0
 11
15615.69897335566
 21
-1036.8991918573249
 31
0.0
  0
LINE
  5
13D27
  8
01
 10
15615.69897335566
 20
-1036.8991918573249
 30
0.0
 11
15615.36097335566
 21
-1036.510191857325
 31
0.0
  0
LINE
  5
13D28
  8
01
 10
15615.36097335566
 20
-1036.510191857325
 30
0.0
 11
15615.093973355661
 21
-1036.0911918573249
 31
0.0
  0
LINE
  5
13D29
  8
01
 10
15615.093973355661
 20
-1036.0911918573249
 30
0.0
 11
15614.88597335566
 21
-1035.6721918573251
 31
0.0
  0
LINE
  5
13D2A
  8
01
 10
15614.88597335566
 20
-1035.6721918573251
 30
0.0
 11
15614.72697335566
 21
-1035.270191857325
 31
0.0
  0
LINE
  5
13D2B
  8
01
 10
15614.72697335566
 20
-1035.270191857325
 30
0.0
 11
15614.604973355659
 21
-1034.8931918573251
 31
0.0
  0
LINE
  5
13D2C
  8
01
 10
15614.604973355659
 20
-1034.8931918573251
 30
0.0
 11
15614.512973355661
 21
-1034.541191857325
 31
0.0
  0
LINE
  5
13D2D
  8
01
 10
15614.512973355661
 20
-1034.541191857325
 30
0.0
 11
15614.441973355661
 21
-1034.213191857325
 31
0.0
  0
LINE
  5
13D2E
  8
01
 10
15614.441973355661
 20
-1034.213191857325
 30
0.0
 11
15614.388973355661
 21
-1033.905191857325
 31
0.0
  0
LINE
  5
13D2F
  8
01
 10
15614.388973355661
 20
-1033.905191857325
 30
0.0
 11
15614.34897335566
 21
-1033.6141918573251
 31
0.0
  0
LINE
  5
13D30
  8
01
 10
15614.34897335566
 20
-1033.6141918573251
 30
0.0
 11
15614.319973355659
 21
-1033.336191857325
 31
0.0
  0
LINE
  5
13D31
  8
01
 10
15614.319973355659
 20
-1033.336191857325
 30
0.0
 11
15614.299973355661
 21
-1033.068191857325
 31
0.0
  0
LINE
  5
13D32
  8
01
 10
15614.299973355661
 20
-1033.068191857325
 30
0.0
 11
15614.28797335566
 21
-1032.8061918573251
 31
0.0
  0
LINE
  5
13D33
  8
01
 10
15614.28797335566
 20
-1032.8061918573251
 30
0.0
 11
15614.282973355659
 21
-1032.548191857325
 31
0.0
  0
LINE
  5
13D34
  8
01
 10
15614.282973355659
 20
-1032.548191857325
 30
0.0
 11
15614.28597335566
 21
-1032.290191857325
 31
0.0
  0
LINE
  5
13D35
  8
01
 10
15614.28597335566
 20
-1032.290191857325
 30
0.0
 11
15614.29597335566
 21
-1032.030191857325
 31
0.0
  0
LINE
  5
13D36
  8
01
 10
15614.29597335566
 20
-1032.030191857325
 30
0.0
 11
15614.31397335566
 21
-1031.7641918573249
 31
0.0
  0
LINE
  5
13D37
  8
01
 10
15614.31397335566
 20
-1031.7641918573249
 30
0.0
 11
15614.33997335566
 21
-1031.4891918573251
 31
0.0
  0
LINE
  5
13D38
  8
01
 10
15614.33997335566
 20
-1031.4891918573251
 30
0.0
 11
15614.37797335566
 21
-1031.2011918573251
 31
0.0
  0
LINE
  5
13D39
  8
01
 10
15614.37797335566
 20
-1031.2011918573251
 30
0.0
 11
15614.426973355659
 21
-1030.8981918573249
 31
0.0
  0
LINE
  5
13D3A
  8
01
 10
15614.426973355659
 20
-1030.8981918573249
 30
0.0
 11
15614.49297335566
 21
-1030.5751918573251
 31
0.0
  0
LINE
  5
13D3B
  8
01
 10
15614.49297335566
 20
-1030.5751918573251
 30
0.0
 11
15614.57997335566
 21
-1030.2291918573251
 31
0.0
  0
LINE
  5
13D3C
  8
01
 10
15614.57997335566
 20
-1030.2291918573251
 30
0.0
 11
15614.693973355659
 21
-1029.858191857325
 31
0.0
  0
LINE
  5
13D3D
  8
01
 10
15614.693973355659
 20
-1029.858191857325
 30
0.0
 11
15614.84197335566
 21
-1029.462191857325
 31
0.0
  0
LINE
  5
13D3E
  8
01
 10
15614.84197335566
 20
-1029.462191857325
 30
0.0
 11
15615.03697335566
 21
-1029.0461918573251
 31
0.0
  0
LINE
  5
13D3F
  8
01
 10
15615.03697335566
 20
-1029.0461918573251
 30
0.0
 11
15615.28897335566
 21
-1028.625191857325
 31
0.0
  0
LINE
  5
13D40
  8
01
 10
15615.28897335566
 20
-1028.625191857325
 30
0.0
 11
15615.60897335566
 21
-1028.2251918573249
 31
0.0
  0
LINE
  5
13D41
  8
01
 10
15615.60897335566
 20
-1028.2251918573249
 30
0.0
 11
15615.99997335566
 21
-1027.888191857325
 31
0.0
  0
LINE
  5
13D42
  8
01
 10
15615.99997335566
 20
-1027.888191857325
 30
0.0
 11
15616.452973355659
 21
-1027.6691918573249
 31
0.0
  0
LINE
  5
13D43
  8
01
 10
15616.452973355659
 20
-1027.6691918573249
 30
0.0
 11
15616.85697335566
 21
-1027.608191857325
 31
0.0
  0
LINE
  5
13D44
  8
01
 10
15606.897973355661
 20
-1027.608191857325
 30
0.0
 11
15607.387973355661
 21
-1027.6301918573249
 31
0.0
  0
LINE
  5
13D45
  8
01
 10
15607.387973355661
 20
-1027.6301918573249
 30
0.0
 11
15607.87497335566
 21
-1027.6971918573249
 31
0.0
  0
LINE
  5
13D46
  8
01
 10
15607.87497335566
 20
-1027.6971918573249
 30
0.0
 11
15608.353973355661
 21
-1027.809191857325
 31
0.0
  0
LINE
  5
13D47
  8
01
 10
15608.353973355661
 20
-1027.809191857325
 30
0.0
 11
15608.82297335566
 21
-1027.964191857325
 31
0.0
  0
LINE
  5
13D48
  8
01
 10
15608.82297335566
 20
-1027.964191857325
 30
0.0
 11
15609.27597335566
 21
-1028.163191857325
 31
0.0
  0
LINE
  5
13D49
  8
01
 10
15609.27597335566
 20
-1028.163191857325
 30
0.0
 11
15609.710973355661
 21
-1028.405191857325
 31
0.0
  0
LINE
  5
13D4A
  8
01
 10
15609.710973355661
 20
-1028.405191857325
 30
0.0
 11
15610.121973355661
 21
-1028.6891918573251
 31
0.0
  0
LINE
  5
13D4B
  8
01
 10
15610.121973355661
 20
-1028.6891918573251
 30
0.0
 11
15610.504973355661
 21
-1029.013191857325
 31
0.0
  0
LINE
  5
13D4C
  8
01
 10
15610.504973355661
 20
-1029.013191857325
 30
0.0
 11
15610.854973355659
 21
-1029.376191857325
 31
0.0
  0
LINE
  5
13D4D
  8
01
 10
15610.854973355659
 20
-1029.376191857325
 30
0.0
 11
15611.167973355659
 21
-1029.7741918573249
 31
0.0
  0
LINE
  5
13D4E
  8
01
 10
15611.167973355659
 20
-1029.7741918573249
 30
0.0
 11
15611.43997335566
 21
-1030.204191857325
 31
0.0
  0
LINE
  5
13D4F
  8
01
 10
15611.43997335566
 20
-1030.204191857325
 30
0.0
 11
15611.665973355661
 21
-1030.663191857325
 31
0.0
  0
LINE
  5
13D50
  8
01
 10
15611.665973355661
 20
-1030.663191857325
 30
0.0
 11
15611.84197335566
 21
-1031.144191857325
 31
0.0
  0
LINE
  5
13D51
  8
01
 10
15611.84197335566
 20
-1031.144191857325
 30
0.0
 11
15611.96497335566
 21
-1031.6421918573251
 31
0.0
  0
LINE
  5
13D52
  8
01
 10
15611.96497335566
 20
-1031.6421918573251
 30
0.0
 11
15612.032973355659
 21
-1032.1521918573251
 31
0.0
  0
LINE
  5
13D53
  8
01
 10
15612.032973355659
 20
-1032.1521918573251
 30
0.0
 11
15612.04697335566
 21
-1032.5161918573251
 31
0.0
  0
LINE
  5
13D54
  8
01
 10
15612.04697335566
 20
-1032.5161918573251
 30
0.0
 11
15612.04497335566
 21
-1032.666191857325
 31
0.0
  0
LINE
  5
13D55
  8
01
 10
15612.04497335566
 20
-1032.666191857325
 30
0.0
 11
15611.99997335566
 21
-1033.1791918573249
 31
0.0
  0
LINE
  5
13D56
  8
01
 10
15611.99997335566
 20
-1033.1791918573249
 30
0.0
 11
15611.898973355659
 21
-1033.683191857325
 31
0.0
  0
LINE
  5
13D57
  8
01
 10
15611.898973355659
 20
-1033.683191857325
 30
0.0
 11
15611.74497335566
 21
-1034.1721918573251
 31
0.0
  0
LINE
  5
13D58
  8
01
 10
15611.74497335566
 20
-1034.1721918573251
 30
0.0
 11
15611.539973355661
 21
-1034.6401918573249
 31
0.0
  0
LINE
  5
13D59
  8
01
 10
15611.539973355661
 20
-1034.6401918573249
 30
0.0
 11
15611.28697335566
 21
-1035.0831918573249
 31
0.0
  0
LINE
  5
13D5A
  8
01
 10
15611.28697335566
 20
-1035.0831918573249
 30
0.0
 11
15610.989973355659
 21
-1035.4951918573249
 31
0.0
  0
LINE
  5
13D5B
  8
01
 10
15610.989973355659
 20
-1035.4951918573249
 30
0.0
 11
15610.65497335566
 21
-1035.8731918573251
 31
0.0
  0
LINE
  5
13D5C
  8
01
 10
15610.65497335566
 20
-1035.8731918573251
 30
0.0
 11
15610.28497335566
 21
-1036.213191857325
 31
0.0
  0
LINE
  5
13D5D
  8
01
 10
15610.28497335566
 20
-1036.213191857325
 30
0.0
 11
15609.88497335566
 21
-1036.5141918573249
 31
0.0
  0
LINE
  5
13D5E
  8
01
 10
15609.88497335566
 20
-1036.5141918573249
 30
0.0
 11
15609.45897335566
 21
-1036.7741918573249
 31
0.0
  0
LINE
  5
13D5F
  8
01
 10
15609.45897335566
 20
-1036.7741918573249
 30
0.0
 11
15609.012973355661
 21
-1036.991191857325
 31
0.0
  0
LINE
  5
13D60
  8
01
 10
15609.012973355661
 20
-1036.991191857325
 30
0.0
 11
15608.550973355659
 21
-1037.164191857325
 31
0.0
  0
LINE
  5
13D61
  8
01
 10
15608.550973355659
 20
-1037.164191857325
 30
0.0
 11
15608.07497335566
 21
-1037.2941918573249
 31
0.0
  0
LINE
  5
13D62
  8
01
 10
15608.07497335566
 20
-1037.2941918573249
 30
0.0
 11
15607.59097335566
 21
-1037.3791918573249
 31
0.0
  0
LINE
  5
13D63
  8
01
 10
15607.59097335566
 20
-1037.3791918573249
 30
0.0
 11
15607.10197335566
 21
-1037.4201918573251
 31
0.0
  0
LINE
  5
13D64
  8
01
 10
15607.10197335566
 20
-1037.4201918573251
 30
0.0
 11
15606.897973355661
 21
-1037.424191857325
 31
0.0
  0
LINE
  5
13D65
  8
01
 10
15595.986973355661
 20
-1026.5161918573251
 30
0.0
 11
15606.897973355661
 21
-1026.5161918573251
 31
0.0
  0
ARC
  5
13D66
  8
01
 10
15605.79797335566
 20
-1032.5161918573251
 30
0.0
 40
11.5
 50
148.55099999999999
 51
211.44900000000001
  0
LINE
  5
13D67
  8
01
 10
15595.986973355661
 20
-1038.5161918573251
 30
0.0
 11
15606.897973355661
 21
-1038.5161918573251
 31
0.0
  0
LINE
  5
13D68
  8
01
 10
15596.93897335566
 20
-1027.608191857325
 30
0.0
 11
15596.45497335566
 21
-1027.6961918573249
 31
0.0
  0
LINE
  5
13D69
  8
01
 10
15596.45497335566
 20
-1027.6961918573249
 30
0.0
 11
15596.01097335566
 21
-1027.9381918573249
 31
0.0
  0
LINE
  5
13D6A
  8
01
 10
15596.01097335566
 20
-1027.9381918573249
 30
0.0
 11
15595.630973355661
 21
-1028.289191857325
 31
0.0
  0
LINE
  5
13D6B
  8
01
 10
15595.630973355661
 20
-1028.289191857325
 30
0.0
 11
15595.32297335566
 21
-1028.695191857325
 31
0.0
  0
LINE
  5
13D6C
  8
01
 10
15595.32297335566
 20
-1028.695191857325
 30
0.0
 11
15595.08197335566
 21
-1029.117191857325
 31
0.0
  0
LINE
  5
13D6D
  8
01
 10
15595.08197335566
 20
-1029.117191857325
 30
0.0
 11
15594.89597335566
 21
-1029.530191857325
 31
0.0
  0
LINE
  5
13D6E
  8
01
 10
15594.89597335566
 20
-1029.530191857325
 30
0.0
 11
15594.75397335566
 21
-1029.9221918573251
 31
0.0
  0
LINE
  5
13D6F
  8
01
 10
15594.75397335566
 20
-1029.9221918573251
 30
0.0
 11
15594.64497335566
 21
-1030.289191857325
 31
0.0
  0
LINE
  5
13D70
  8
01
 10
15594.64497335566
 20
-1030.289191857325
 30
0.0
 11
15594.56197335566
 21
-1030.6301918573249
 31
0.0
  0
LINE
  5
13D71
  8
01
 10
15594.56197335566
 20
-1030.6301918573249
 30
0.0
 11
15594.498973355659
 21
-1030.9501918573251
 31
0.0
  0
LINE
  5
13D72
  8
01
 10
15594.498973355659
 20
-1030.9501918573251
 30
0.0
 11
15594.451973355661
 21
-1031.250191857325
 31
0.0
  0
LINE
  5
13D73
  8
01
 10
15594.451973355661
 20
-1031.250191857325
 30
0.0
 11
15594.415973355661
 21
-1031.5361918573251
 31
0.0
  0
LINE
  5
13D74
  8
01
 10
15594.415973355661
 20
-1031.5361918573251
 30
0.0
 11
15594.390973355659
 21
-1031.809191857325
 31
0.0
  0
LINE
  5
13D75
  8
01
 10
15594.390973355659
 20
-1031.809191857325
 30
0.0
 11
15594.37497335566
 21
-1032.0741918573251
 31
0.0
  0
LINE
  5
13D76
  8
01
 10
15594.37497335566
 20
-1032.0741918573251
 30
0.0
 11
15594.36597335566
 21
-1032.3341918573251
 31
0.0
  0
LINE
  5
13D77
  8
01
 10
15594.36597335566
 20
-1032.3341918573251
 30
0.0
 11
15594.364973355659
 21
-1032.5911918573249
 31
0.0
  0
LINE
  5
13D78
  8
01
 10
15594.364973355659
 20
-1032.5911918573249
 30
0.0
 11
15594.370973355661
 21
-1032.8501918573249
 31
0.0
  0
LINE
  5
13D79
  8
01
 10
15594.370973355661
 20
-1032.8501918573249
 30
0.0
 11
15594.38397335566
 21
-1033.1121918573249
 31
0.0
  0
LINE
  5
13D7A
  8
01
 10
15594.38397335566
 20
-1033.1121918573249
 30
0.0
 11
15594.40497335566
 21
-1033.3821918573251
 31
0.0
  0
LINE
  5
13D7B
  8
01
 10
15594.40497335566
 20
-1033.3821918573251
 30
0.0
 11
15594.435973355659
 21
-1033.6621918573251
 31
0.0
  0
LINE
  5
13D7C
  8
01
 10
15594.435973355659
 20
-1033.6621918573251
 30
0.0
 11
15594.477973355661
 21
-1033.955191857325
 31
0.0
  0
LINE
  5
13D7D
  8
01
 10
15594.477973355661
 20
-1033.955191857325
 30
0.0
 11
15594.533973355659
 21
-1034.2671918573251
 31
0.0
  0
LINE
  5
13D7E
  8
01
 10
15594.533973355659
 20
-1034.2671918573251
 30
0.0
 11
15594.60797335566
 21
-1034.599191857325
 31
0.0
  0
LINE
  5
13D7F
  8
01
 10
15594.60797335566
 20
-1034.599191857325
 30
0.0
 11
15594.70497335566
 21
-1034.955191857325
 31
0.0
  0
LINE
  5
13D80
  8
01
 10
15594.70497335566
 20
-1034.955191857325
 30
0.0
 11
15594.83197335566
 21
-1035.336191857325
 31
0.0
  0
LINE
  5
13D81
  8
01
 10
15594.83197335566
 20
-1035.336191857325
 30
0.0
 11
15594.997973355659
 21
-1035.741191857325
 31
0.0
  0
LINE
  5
13D82
  8
01
 10
15594.997973355659
 20
-1035.741191857325
 30
0.0
 11
15595.21497335566
 21
-1036.1621918573251
 31
0.0
  0
LINE
  5
13D83
  8
01
 10
15595.21497335566
 20
-1036.1621918573251
 30
0.0
 11
15595.49397335566
 21
-1036.579191857325
 31
0.0
  0
LINE
  5
13D84
  8
01
 10
15595.49397335566
 20
-1036.579191857325
 30
0.0
 11
15595.843973355661
 21
-1036.9581918573249
 31
0.0
  0
LINE
  5
13D85
  8
01
 10
15595.843973355661
 20
-1036.9581918573249
 30
0.0
 11
15596.262973355661
 21
-1037.252191857325
 31
0.0
  0
LINE
  5
13D86
  8
01
 10
15596.262973355661
 20
-1037.252191857325
 30
0.0
 11
15596.73497335566
 21
-1037.4091918573249
 31
0.0
  0
LINE
  5
13D87
  8
01
 10
15596.73497335566
 20
-1037.4091918573249
 30
0.0
 11
15596.93897335566
 21
-1037.424191857325
 31
0.0
  0
LINE
  5
13D88
  8
01
 10
15596.93897335566
 20
-1037.424191857325
 30
0.0
 11
15597.22397335566
 21
-1037.394191857325
 31
0.0
  0
LINE
  5
13D89
  8
01
 10
15597.22397335566
 20
-1037.394191857325
 30
0.0
 11
15597.68897335566
 21
-1037.211191857325
 31
0.0
  0
LINE
  5
13D8A
  8
01
 10
15597.68897335566
 20
-1037.211191857325
 30
0.0
 11
15598.096973355659
 21
-1036.8991918573249
 31
0.0
  0
LINE
  5
13D8B
  8
01
 10
15598.096973355659
 20
-1036.8991918573249
 30
0.0
 11
15598.434973355659
 21
-1036.510191857325
 31
0.0
  0
LINE
  5
13D8C
  8
01
 10
15598.434973355659
 20
-1036.510191857325
 30
0.0
 11
15598.701973355661
 21
-1036.0911918573249
 31
0.0
  0
LINE
  5
13D8D
  8
01
 10
15598.701973355661
 20
-1036.0911918573249
 30
0.0
 11
15598.90997335566
 21
-1035.6721918573251
 31
0.0
  0
LINE
  5
13D8E
  8
01
 10
15598.90997335566
 20
-1035.6721918573251
 30
0.0
 11
15599.068973355659
 21
-1035.270191857325
 31
0.0
  0
LINE
  5
13D8F
  8
01
 10
15599.068973355659
 20
-1035.270191857325
 30
0.0
 11
15599.19097335566
 21
-1034.8931918573251
 31
0.0
  0
LINE
  5
13D90
  8
01
 10
15599.19097335566
 20
-1034.8931918573251
 30
0.0
 11
15599.282973355659
 21
-1034.541191857325
 31
0.0
  0
LINE
  5
13D91
  8
01
 10
15599.282973355659
 20
-1034.541191857325
 30
0.0
 11
15599.353973355661
 21
-1034.213191857325
 31
0.0
  0
LINE
  5
13D92
  8
01
 10
15599.353973355661
 20
-1034.213191857325
 30
0.0
 11
15599.406973355661
 21
-1033.905191857325
 31
0.0
  0
LINE
  5
13D93
  8
01
 10
15599.406973355661
 20
-1033.905191857325
 30
0.0
 11
15599.44697335566
 21
-1033.6141918573251
 31
0.0
  0
LINE
  5
13D94
  8
01
 10
15599.44697335566
 20
-1033.6141918573251
 30
0.0
 11
15599.47597335566
 21
-1033.336191857325
 31
0.0
  0
LINE
  5
13D95
  8
01
 10
15599.47597335566
 20
-1033.336191857325
 30
0.0
 11
15599.495973355661
 21
-1033.068191857325
 31
0.0
  0
LINE
  5
13D96
  8
01
 10
15599.495973355661
 20
-1033.068191857325
 30
0.0
 11
15599.507973355659
 21
-1032.8061918573251
 31
0.0
  0
LINE
  5
13D97
  8
01
 10
15599.507973355659
 20
-1032.8061918573251
 30
0.0
 11
15599.512973355661
 21
-1032.548191857325
 31
0.0
  0
LINE
  5
13D98
  8
01
 10
15599.512973355661
 20
-1032.548191857325
 30
0.0
 11
15599.50997335566
 21
-1032.290191857325
 31
0.0
  0
LINE
  5
13D99
  8
01
 10
15599.50997335566
 20
-1032.290191857325
 30
0.0
 11
15599.49997335566
 21
-1032.030191857325
 31
0.0
  0
LINE
  5
13D9A
  8
01
 10
15599.49997335566
 20
-1032.030191857325
 30
0.0
 11
15599.48197335566
 21
-1031.7641918573249
 31
0.0
  0
LINE
  5
13D9B
  8
01
 10
15599.48197335566
 20
-1031.7641918573249
 30
0.0
 11
15599.45597335566
 21
-1031.4891918573251
 31
0.0
  0
LINE
  5
13D9C
  8
01
 10
15599.45597335566
 20
-1031.4891918573251
 30
0.0
 11
15599.417973355659
 21
-1031.2011918573251
 31
0.0
  0
LINE
  5
13D9D
  8
01
 10
15599.417973355659
 20
-1031.2011918573251
 30
0.0
 11
15599.36897335566
 21
-1030.8981918573249
 31
0.0
  0
LINE
  5
13D9E
  8
01
 10
15599.36897335566
 20
-1030.8981918573249
 30
0.0
 11
15599.30297335566
 21
-1030.5751918573251
 31
0.0
  0
LINE
  5
13D9F
  8
01
 10
15599.30297335566
 20
-1030.5751918573251
 30
0.0
 11
15599.21597335566
 21
-1030.2291918573251
 31
0.0
  0
LINE
  5
13DA0
  8
01
 10
15599.21597335566
 20
-1030.2291918573251
 30
0.0
 11
15599.10197335566
 21
-1029.858191857325
 31
0.0
  0
LINE
  5
13DA1
  8
01
 10
15599.10197335566
 20
-1029.858191857325
 30
0.0
 11
15598.953973355659
 21
-1029.462191857325
 31
0.0
  0
LINE
  5
13DA2
  8
01
 10
15598.953973355659
 20
-1029.462191857325
 30
0.0
 11
15598.75897335566
 21
-1029.0461918573251
 31
0.0
  0
LINE
  5
13DA3
  8
01
 10
15598.75897335566
 20
-1029.0461918573251
 30
0.0
 11
15598.506973355659
 21
-1028.625191857325
 31
0.0
  0
LINE
  5
13DA4
  8
01
 10
15598.506973355659
 20
-1028.625191857325
 30
0.0
 11
15598.18697335566
 21
-1028.2251918573249
 31
0.0
  0
LINE
  5
13DA5
  8
01
 10
15598.18697335566
 20
-1028.2251918573249
 30
0.0
 11
15597.79597335566
 21
-1027.888191857325
 31
0.0
  0
LINE
  5
13DA6
  8
01
 10
15597.79597335566
 20
-1027.888191857325
 30
0.0
 11
15597.34297335566
 21
-1027.6691918573249
 31
0.0
  0
LINE
  5
13DA7
  8
01
 10
15597.34297335566
 20
-1027.6691918573249
 30
0.0
 11
15596.93897335566
 21
-1027.608191857325
 31
0.0
  0
LINE
  5
13DA8
  8
01
 10
15606.897973355661
 20
-1027.608191857325
 30
0.0
 11
15606.407973355659
 21
-1027.6301918573249
 31
0.0
  0
LINE
  5
13DA9
  8
01
 10
15606.407973355659
 20
-1027.6301918573249
 30
0.0
 11
15605.92097335566
 21
-1027.6971918573249
 31
0.0
  0
LINE
  5
13DAA
  8
01
 10
15605.92097335566
 20
-1027.6971918573249
 30
0.0
 11
15605.441973355661
 21
-1027.809191857325
 31
0.0
  0
LINE
  5
13DAB
  8
01
 10
15605.441973355661
 20
-1027.809191857325
 30
0.0
 11
15604.97297335566
 21
-1027.964191857325
 31
0.0
  0
LINE
  5
13DAC
  8
01
 10
15604.97297335566
 20
-1027.964191857325
 30
0.0
 11
15604.51997335566
 21
-1028.163191857325
 31
0.0
  0
LINE
  5
13DAD
  8
01
 10
15604.51997335566
 20
-1028.163191857325
 30
0.0
 11
15604.084973355661
 21
-1028.405191857325
 31
0.0
  0
LINE
  5
13DAE
  8
01
 10
15604.084973355661
 20
-1028.405191857325
 30
0.0
 11
15603.673973355661
 21
-1028.6891918573251
 31
0.0
  0
LINE
  5
13DAF
  8
01
 10
15603.673973355661
 20
-1028.6891918573251
 30
0.0
 11
15603.290973355661
 21
-1029.013191857325
 31
0.0
  0
LINE
  5
13DB0
  8
01
 10
15603.290973355661
 20
-1029.013191857325
 30
0.0
 11
15602.94097335566
 21
-1029.376191857325
 31
0.0
  0
LINE
  5
13DB1
  8
01
 10
15602.94097335566
 20
-1029.376191857325
 30
0.0
 11
15602.62797335566
 21
-1029.7741918573249
 31
0.0
  0
LINE
  5
13DB2
  8
01
 10
15602.62797335566
 20
-1029.7741918573249
 30
0.0
 11
15602.355973355659
 21
-1030.204191857325
 31
0.0
  0
LINE
  5
13DB3
  8
01
 10
15602.355973355659
 20
-1030.204191857325
 30
0.0
 11
15602.129973355661
 21
-1030.663191857325
 31
0.0
  0
LINE
  5
13DB4
  8
01
 10
15602.129973355661
 20
-1030.663191857325
 30
0.0
 11
15601.953973355659
 21
-1031.144191857325
 31
0.0
  0
LINE
  5
13DB5
  8
01
 10
15601.953973355659
 20
-1031.144191857325
 30
0.0
 11
15601.83097335566
 21
-1031.6421918573251
 31
0.0
  0
LINE
  5
13DB6
  8
01
 10
15601.83097335566
 20
-1031.6421918573251
 30
0.0
 11
15601.762973355661
 21
-1032.1521918573251
 31
0.0
  0
LINE
  5
13DB7
  8
01
 10
15601.762973355661
 20
-1032.1521918573251
 30
0.0
 11
15601.748973355659
 21
-1032.5161918573251
 31
0.0
  0
LINE
  5
13DB8
  8
01
 10
15601.748973355659
 20
-1032.5161918573251
 30
0.0
 11
15601.75097335566
 21
-1032.666191857325
 31
0.0
  0
LINE
  5
13DB9
  8
01
 10
15601.75097335566
 20
-1032.666191857325
 30
0.0
 11
15601.79597335566
 21
-1033.1791918573249
 31
0.0
  0
LINE
  5
13DBA
  8
01
 10
15601.79597335566
 20
-1033.1791918573249
 30
0.0
 11
15601.896973355661
 21
-1033.683191857325
 31
0.0
  0
LINE
  5
13DBB
  8
01
 10
15601.896973355661
 20
-1033.683191857325
 30
0.0
 11
15602.050973355659
 21
-1034.1721918573251
 31
0.0
  0
LINE
  5
13DBC
  8
01
 10
15602.050973355659
 20
-1034.1721918573251
 30
0.0
 11
15602.255973355661
 21
-1034.6401918573249
 31
0.0
  0
LINE
  5
13DBD
  8
01
 10
15602.255973355661
 20
-1034.6401918573249
 30
0.0
 11
15602.50897335566
 21
-1035.0831918573249
 31
0.0
  0
LINE
  5
13DBE
  8
01
 10
15602.50897335566
 20
-1035.0831918573249
 30
0.0
 11
15602.80597335566
 21
-1035.4951918573249
 31
0.0
  0
LINE
  5
13DBF
  8
01
 10
15602.80597335566
 20
-1035.4951918573249
 30
0.0
 11
15603.140973355659
 21
-1035.8731918573251
 31
0.0
  0
LINE
  5
13DC0
  8
01
 10
15603.140973355659
 20
-1035.8731918573251
 30
0.0
 11
15603.51097335566
 21
-1036.213191857325
 31
0.0
  0
LINE
  5
13DC1
  8
01
 10
15603.51097335566
 20
-1036.213191857325
 30
0.0
 11
15603.91097335566
 21
-1036.5141918573249
 31
0.0
  0
LINE
  5
13DC2
  8
01
 10
15603.91097335566
 20
-1036.5141918573249
 30
0.0
 11
15604.336973355659
 21
-1036.7741918573249
 31
0.0
  0
LINE
  5
13DC3
  8
01
 10
15604.336973355659
 20
-1036.7741918573249
 30
0.0
 11
15604.782973355659
 21
-1036.991191857325
 31
0.0
  0
LINE
  5
13DC4
  8
01
 10
15604.782973355659
 20
-1036.991191857325
 30
0.0
 11
15605.24497335566
 21
-1037.164191857325
 31
0.0
  0
LINE
  5
13DC5
  8
01
 10
15605.24497335566
 20
-1037.164191857325
 30
0.0
 11
15605.720973355659
 21
-1037.2941918573249
 31
0.0
  0
LINE
  5
13DC6
  8
01
 10
15605.720973355659
 20
-1037.2941918573249
 30
0.0
 11
15606.20497335566
 21
-1037.3791918573249
 31
0.0
  0
LINE
  5
13DC7
  8
01
 10
15606.20497335566
 20
-1037.3791918573249
 30
0.0
 11
15606.693973355659
 21
-1037.4201918573251
 31
0.0
  0
LINE
  5
13DC8
  8
01
 10
15606.693973355659
 20
-1037.4201918573251
 30
0.0
 11
15606.897973355661
 21
-1037.424191857325
 31
0.0
  0
LINE
  5
13DC9
  8
1CENTER
 10
15621.897973355661
 20
-895.0711918573254
 30
0.0
 11
15621.897973355661
 21
-913.96160057546069
 31
0.0
  0
LINE
  5
13DCA
  8
01
 10
15615.54797335566
 20
-906.91919185732525
 30
0.0
 11
15615.54797335566
 21
-897.83119185732539
 31
0.0
  0
LINE
  5
13DCB
  8
01
 10
15628.247973355659
 20
-906.91919185732525
 30
0.0
 11
15628.247973355659
 21
-897.83119185732539
 31
0.0
  0
LINE
  5
13DCD
  8
01
 10
15628.247973355659
 20
-897.83119185732539
 30
0.0
 11
15615.54797335566
 21
-897.83119185732539
 31
0.0
  0
LINE
  5
13DCE
  8
01
 10
15628.247973355659
 20
-911.08619185732539
 30
0.0
 11
15628.247973355659
 21
-913.61519185732539
 31
0.0
  0
LINE
  5
13DCF
  8
01
 10
15615.54797335566
 20
-911.08619185732539
 30
0.0
 11
15615.54797335566
 21
-913.61519185732539
 31
0.0
  0
ARC
  5
13DD1
  8
1CENTER
 10
15666.897973355661
 20
-997.21619185732538
 30
0.0
 40
60.0
 50
168.08500000000799
 51
180.00200000000629
  0
ARC
  5
13DD2
  8
01
 10
15666.897973355661
 20
-997.21619185732538
 30
0.0
 40
66.349999999999994
 50
168.08500000000799
 51
180.00200000000629
  0
LINE
  5
13DD3
  8
01
 10
15601.977973355661
 20
-983.51519185732536
 30
0.0
 11
15614.39197335566
 21
-924.69319185732525
 31
0.0
  0
ARC
  5
13DD4
  8
01
 10
15561.898973355659
 20
-913.61519185732539
 30
0.0
 40
53.649999999999999
 50
348.08500000000799
 51
0.0
  0
ARC
  5
13DD5
  8
1CENTER
 10
15561.898973355659
 20
-913.61519185732539
 30
0.0
 40
60.0
 50
348.08500000000799
 51
0.0
  0
LINE
  5
13DD6
  8
1CENTER
 10
15620.604973355659
 20
-926.0041918573254
 30
0.0
 11
15608.19097335566
 21
-984.82619185732528
 31
0.0
  0
ARC
  5
13DD7
  8
01
 10
15666.897973355661
 20
-997.21619185732538
 30
0.0
 40
53.649999999999999
 50
168.08500000000799
 51
180.00200000000629
  0
LINE
  5
13DD8
  8
01
 10
15614.40397335566
 20
-986.13819185732541
 30
0.0
 11
15626.817973355661
 21
-927.31519185732532
 31
0.0
  0
ARC
  5
13DD9
  8
01
 10
15561.898973355659
 20
-913.61519185732539
 30
0.0
 40
66.349999999999994
 50
348.08500000000799
 51
0.0
  0
LINE
  5
13DDA
  8
01
 10
15613.247973355659
 20
-997.21619185732538
 30
0.0
 11
15613.247973355659
 21
-1026.5161918573251
 31
0.0
  0
LINE
  5
13DDB
  8
01
 10
15600.54797335566
 20
-997.21619185732538
 30
0.0
 11
15600.54797335566
 21
-1026.5161918573251
 31
0.0
  0
LINE
  5
13E27
  8
1CENTER
 10
15733.085722666799
 20
-889.74654982070876
 30
0.0
 11
15733.085722666799
 21
-1110.7329621769179
 31
0.0
  0
LINE
  5
13E28
  8
01
 10
15726.735722666799
 20
-1026.5161918573251
 30
0.0
 11
15726.735600513221
 21
-911.08597892500552
 31
0.0
  0
LINE
  5
13E29
  8
01
 10
15739.4357226668
 20
-1026.5161918573251
 30
0.0
 11
15739.43568808563
 21
-911.08592351003949
 31
0.0
  0
ARC
  5
13E2A
  8
01
 10
15734.1857226668
 20
-1032.5161918573251
 30
0.0
 40
11.5
 50
328.55099999999999
 51
31.449000000000002
  0
ARC
  5
13E2B
  8
01
 10
15731.985722666799
 20
-1032.5161918573251
 30
0.0
 40
11.5
 50
148.55200000002191
 51
211.45000000001801
  0
LINE
  5
13E2C
  8
01
 10
15733.085722666799
 20
-1026.5161918573251
 30
0.0
 11
15722.1757226668
 21
-1026.5161918573251
 31
0.0
  0
LINE
  5
13E2D
  8
01
 10
15733.085722666799
 20
-1026.5161918573251
 30
0.0
 11
15743.9967226668
 21
-1026.5161918573251
 31
0.0
  0
LINE
  5
13E2E
  8
01
 10
15733.085722666799
 20
-1038.5161918573251
 30
0.0
 11
15722.1757226668
 21
-1038.5161918573251
 31
0.0
  0
LINE
  5
13E2F
  8
01
 10
15733.085722666799
 20
-1038.5161918573251
 30
0.0
 11
15743.9967226668
 21
-1038.5161918573251
 31
0.0
  0
CIRCLE
  5
13E30
  8
01
 10
15733.085722666799
 20
-1061.2161918573249
 30
0.0
 40
4.75
  0
CIRCLE
  5
13E31
  8
01
 10
15733.085722666799
 20
-1061.2161918573249
 30
0.0
 40
4.9000000000000004
  0
CIRCLE
  5
13E32
  8
01
 10
15733.085722666799
 20
-1061.2161918573249
 30
0.0
 40
5.5
  0
LINE
  5
13E33
  8
01
 10
15746.085722666799
 20
-1065.695191857325
 30
0.0
 11
15746.085722666799
 21
-1056.7371918573249
 31
0.0
  0
ARC
  5
13E34
  8
01
 10
15733.085722666799
 20
-1061.2161918573249
 30
0.0
 40
13.75
 50
19.010999999996251
 51
40.988999999980678
  0
ARC
  5
13E35
  8
01
 10
15733.085722666799
 20
-1061.2161918573249
 30
0.0
 40
13.75
 50
79.011000000028403
 51
100.9889999999716
  0
ARC
  5
13E36
  8
01
 10
15733.085722666799
 20
-1061.2161918573249
 30
0.0
 40
13.75
 50
139.01200000003089
 51
160.9890000000037
  0
ARC
  5
13E37
  8
01
 10
15733.085722666799
 20
-1061.2161918573249
 30
0.0
 40
13.75
 50
199.0119999999952
 51
220.98899999998071
  0
ARC
  5
13E38
  8
01
 10
15733.085722666799
 20
-1061.2161918573249
 30
0.0
 40
13.75
 50
259.01100000002839
 51
280.98899999997161
  0
ARC
  5
13E39
  8
01
 10
15733.085722666799
 20
-1061.2161918573249
 30
0.0
 40
13.75
 50
319.01100000001929
 51
340.98900000000373
  0
LINE
  5
13E3A
  8
01
 10
15743.4647226668
 20
-1052.1971918573249
 30
0.0
 11
15735.7067226668
 21
-1047.7181918573251
 31
0.0
  0
LINE
  5
13E3B
  8
01
 10
15730.4647226668
 20
-1047.7181918573251
 30
0.0
 11
15722.7067226668
 21
-1052.1971918573249
 31
0.0
  0
LINE
  5
13E3C
  8
01
 10
15720.085722666799
 20
-1056.7371918573249
 30
0.0
 11
15720.085722666799
 21
-1065.695191857325
 31
0.0
  0
LINE
  5
13E3D
  8
01
 10
15722.7067226668
 20
-1070.2351918573249
 30
0.0
 11
15730.4647226668
 21
-1074.714191857325
 31
0.0
  0
LINE
  5
13E3E
  8
01
 10
15735.7067226668
 20
-1074.714191857325
 30
0.0
 11
15743.4647226668
 21
-1070.2351918573249
 31
0.0
  0
LINE
  5
13E3F
  8
01
 10
15737.749680213779
 20
-1060.3161918573251
 30
0.0
 11
15728.421765119831
 21
-1060.3161918573251
 31
0.0
  0
LINE
  5
13E40
  8
01
 10
15737.749680213779
 20
-1062.116191857325
 30
0.0
 11
15728.421765119831
 21
-1062.116191857325
 31
0.0
  0
ARC
  5
13E41
  8
01
 10
15682.608722666801
 20
-1045.060191857325
 30
0.0
 40
40.0
 50
354.51665103202419
 51
0.0
  0
LINE
  5
13E42
  8
01
 10
15722.608722666801
 20
-1045.060191857325
 30
0.0
 11
15722.608722666801
 21
-1038.5161918573251
 31
0.0
  0
ARC
  5
13E43
  8
01
 10
15783.5637226668
 20
-1045.060191857325
 30
0.0
 40
40.0
 50
180.00099999999651
 51
186.15236732871551
  0
LINE
  5
13E44
  8
01
 10
15743.5637226668
 20
-1045.060191857325
 30
0.0
 11
15743.5637226668
 21
-1038.5161918573251
 31
0.0
  0
LINE
  5
13E45
  8
01
 10
15733.085722666799
 20
-1041.2161918573249
 30
0.0
 11
15743.5637226668
 21
-1041.2161918573249
 31
0.0
  0
LINE
  5
13E46
  8
01
 10
15723.770722666801
 20
-1038.5161918573251
 30
0.0
 11
15723.770722666801
 21
-1041.2161918573249
 31
0.0
  0
LINE
  5
13E47
  8
01
 10
15723.770722666801
 20
-1041.2161918573249
 30
0.0
 11
15722.608722666801
 21
-1043.2291918573251
 31
0.0
  0
LINE
  5
13E48
  8
01
 10
15742.4017226668
 20
-1038.5161918573251
 30
0.0
 11
15742.4017226668
 21
-1041.2161918573249
 31
0.0
  0
LINE
  5
13E49
  8
01
 10
15742.4017226668
 20
-1041.2161918573249
 30
0.0
 11
15743.5637226668
 21
-1043.2291918573251
 31
0.0
  0
LINE
  5
13E4A
  8
01
 10
15733.085722666799
 20
-1041.2161918573249
 30
0.0
 11
15722.608722666801
 21
-1041.2161918573249
 31
0.0
  0
LINE
  5
13E4B
  8
1CENTER
 10
15698.426409950969
 20
-1061.2161918573249
 30
0.0
 11
15770.19376707168
 21
-1061.2161918573249
 31
0.0
  0
LINE
  5
142C2
  8
01
 10
15578.78797335566
 20
-1052.1971918573249
 30
0.0
 11
15578.78797335566
 21
-1052.1971918573249
 31
0.0
  0
LINE
  5
142C3
  8
01
 10
15578.78797335566
 20
-1052.1971918573249
 30
0.0
 11
15578.57097335566
 21
-1051.992191857325
 31
0.0
  0
LINE
  5
142C4
  8
01
 10
15578.57097335566
 20
-1051.992191857325
 30
0.0
 11
15578.43097335566
 21
-1051.590191857325
 31
0.0
  0
LINE
  5
142C5
  8
01
 10
15578.43097335566
 20
-1051.590191857325
 30
0.0
 11
15578.35697335566
 21
-1051.224191857325
 31
0.0
  0
LINE
  5
142C6
  8
01
 10
15578.35697335566
 20
-1051.224191857325
 30
0.0
 11
15578.317973355661
 21
-1050.944191857325
 31
0.0
  0
LINE
  5
142C7
  8
01
 10
15578.317973355661
 20
-1050.944191857325
 30
0.0
 11
15578.29497335566
 21
-1050.733191857325
 31
0.0
  0
LINE
  5
142C8
  8
01
 10
15578.29497335566
 20
-1050.733191857325
 30
0.0
 11
15578.281973355661
 21
-1050.5711918573249
 31
0.0
  0
LINE
  5
142C9
  8
01
 10
15578.281973355661
 20
-1050.5711918573249
 30
0.0
 11
15578.272973355661
 21
-1050.443191857325
 31
0.0
  0
LINE
  5
142CA
  8
01
 10
15578.272973355661
 20
-1050.443191857325
 30
0.0
 11
15578.26697335566
 21
-1050.337191857325
 31
0.0
  0
LINE
  5
142CB
  8
01
 10
15578.26697335566
 20
-1050.337191857325
 30
0.0
 11
15578.262973355661
 21
-1050.2481918573251
 31
0.0
  0
LINE
  5
142CC
  8
01
 10
15578.262973355661
 20
-1050.2481918573251
 30
0.0
 11
15578.25997335566
 21
-1050.1701918573251
 31
0.0
  0
LINE
  5
142CD
  8
01
 10
15578.25997335566
 20
-1050.1701918573251
 30
0.0
 11
15578.257973355659
 21
-1050.1011918573249
 31
0.0
  0
LINE
  5
142CE
  8
01
 10
15578.257973355659
 20
-1050.1011918573249
 30
0.0
 11
15578.256973355659
 21
-1050.038191857325
 31
0.0
  0
LINE
  5
142CF
  8
01
 10
15578.256973355659
 20
-1050.038191857325
 30
0.0
 11
15578.255973355661
 21
-1049.9791918573251
 31
0.0
  0
LINE
  5
142D0
  8
01
 10
15578.255973355661
 20
-1049.9791918573251
 30
0.0
 11
15578.254973355661
 21
-1049.923191857325
 31
0.0
  0
LINE
  5
142D1
  8
01
 10
15578.254973355661
 20
-1049.923191857325
 30
0.0
 11
15578.254973355661
 21
-1049.8691918573249
 31
0.0
  0
LINE
  5
142D2
  8
01
 10
15578.254973355661
 20
-1049.8691918573249
 30
0.0
 11
15578.254973355661
 21
-1049.8161918573251
 31
0.0
  0
LINE
  5
142D3
  8
01
 10
15578.254973355661
 20
-1049.8161918573251
 30
0.0
 11
15578.254973355661
 21
-1049.762191857325
 31
0.0
  0
LINE
  5
142D4
  8
01
 10
15578.254973355661
 20
-1049.762191857325
 30
0.0
 11
15578.255973355661
 21
-1049.7071918573249
 31
0.0
  0
LINE
  5
142D5
  8
01
 10
15578.255973355661
 20
-1049.7071918573249
 30
0.0
 11
15578.255973355661
 21
-1049.6501918573249
 31
0.0
  0
LINE
  5
142D6
  8
01
 10
15578.255973355661
 20
-1049.6501918573249
 30
0.0
 11
15578.257973355659
 21
-1049.589191857325
 31
0.0
  0
LINE
  5
142D7
  8
01
 10
15578.257973355659
 20
-1049.589191857325
 30
0.0
 11
15578.25897335566
 21
-1049.522191857325
 31
0.0
  0
LINE
  5
142D8
  8
01
 10
15578.25897335566
 20
-1049.522191857325
 30
0.0
 11
15578.26197335566
 21
-1049.4491918573251
 31
0.0
  0
LINE
  5
142D9
  8
01
 10
15578.26197335566
 20
-1049.4491918573251
 30
0.0
 11
15578.264973355659
 21
-1049.365191857325
 31
0.0
  0
LINE
  5
142DA
  8
01
 10
15578.264973355659
 20
-1049.365191857325
 30
0.0
 11
15578.26997335566
 21
-1049.2661918573251
 31
0.0
  0
LINE
  5
142DB
  8
01
 10
15578.26997335566
 20
-1049.2661918573251
 30
0.0
 11
15578.27797335566
 21
-1049.1481918573249
 31
0.0
  0
LINE
  5
142DC
  8
01
 10
15578.27797335566
 20
-1049.1481918573249
 30
0.0
 11
15578.28897335566
 21
-1049.002191857325
 31
0.0
  0
LINE
  5
142DD
  8
01
 10
15578.28897335566
 20
-1049.002191857325
 30
0.0
 11
15578.30697335566
 21
-1048.8141918573251
 31
0.0
  0
LINE
  5
142DE
  8
01
 10
15578.30697335566
 20
-1048.8141918573251
 30
0.0
 11
15578.337973355659
 21
-1048.5651918573251
 31
0.0
  0
LINE
  5
142DF
  8
01
 10
15578.337973355659
 20
-1048.5651918573251
 30
0.0
 11
15578.39497335566
 21
-1048.2351918573249
 31
0.0
  0
LINE
  5
142E0
  8
01
 10
15578.39497335566
 20
-1048.2351918573249
 30
0.0
 11
15578.50297335566
 21
-1047.8321918573249
 31
0.0
  0
LINE
  5
142E1
  8
01
 10
15578.50297335566
 20
-1047.8321918573249
 30
0.0
 11
15578.530973355661
 21
-1047.760191857325
 31
0.0
  0
LINE
  5
142E2
  8
01
 10
15586.925973355659
 20
-1049.8311918573249
 30
0.0
 11
15586.924973355661
 21
-1049.9181918573249
 31
0.0
  0
LINE
  5
142E3
  8
01
 10
15586.924973355661
 20
-1049.9181918573249
 30
0.0
 11
15586.923973355661
 21
-1050.0061918573249
 31
0.0
  0
LINE
  5
142E4
  8
01
 10
15586.923973355661
 20
-1050.0061918573249
 30
0.0
 11
15586.92097335566
 21
-1050.096191857325
 31
0.0
  0
LINE
  5
142E5
  8
01
 10
15586.92097335566
 20
-1050.096191857325
 30
0.0
 11
15586.915973355661
 21
-1050.1911918573251
 31
0.0
  0
LINE
  5
142E6
  8
01
 10
15586.915973355661
 20
-1050.1911918573251
 30
0.0
 11
15586.908973355659
 21
-1050.2931918573249
 31
0.0
  0
LINE
  5
142E7
  8
01
 10
15586.908973355659
 20
-1050.2931918573249
 30
0.0
 11
15586.899973355659
 21
-1050.4031918573251
 31
0.0
  0
LINE
  5
142E8
  8
01
 10
15586.899973355659
 20
-1050.4031918573251
 30
0.0
 11
15586.887973355661
 21
-1050.5251918573249
 31
0.0
  0
LINE
  5
142E9
  8
01
 10
15586.887973355661
 20
-1050.5251918573249
 30
0.0
 11
15586.870973355661
 21
-1050.6621918573251
 31
0.0
  0
LINE
  5
142EA
  8
01
 10
15586.870973355661
 20
-1050.6621918573251
 30
0.0
 11
15586.84797335566
 21
-1050.818191857325
 31
0.0
  0
LINE
  5
142EB
  8
01
 10
15586.84797335566
 20
-1050.818191857325
 30
0.0
 11
15586.81397335566
 21
-1050.9981918573251
 31
0.0
  0
LINE
  5
142EC
  8
01
 10
15586.81397335566
 20
-1050.9981918573251
 30
0.0
 11
15586.764973355659
 21
-1051.2071918573249
 31
0.0
  0
LINE
  5
142ED
  8
01
 10
15586.764973355659
 20
-1051.2071918573249
 30
0.0
 11
15586.693973355659
 21
-1051.4481918573249
 31
0.0
  0
LINE
  5
142EE
  8
01
 10
15586.693973355659
 20
-1051.4481918573249
 30
0.0
 11
15586.586973355659
 21
-1051.712191857325
 31
0.0
  0
LINE
  5
142EF
  8
01
 10
15586.586973355659
 20
-1051.712191857325
 30
0.0
 11
15586.433973355661
 21
-1051.9691918573251
 31
0.0
  0
LINE
  5
142F0
  8
01
 10
15586.433973355661
 20
-1051.9691918573251
 30
0.0
 11
15586.229973355659
 21
-1052.1531918573251
 31
0.0
  0
LINE
  5
142F1
  8
01
 10
15586.229973355659
 20
-1052.1531918573251
 30
0.0
 11
15586.06497335566
 21
-1052.1971918573249
 31
0.0
  0
LINE
  5
142F2
  8
01
 10
15586.06497335566
 20
-1056.7371918573249
 30
0.0
 11
15586.46397335566
 21
-1057.2451918573249
 31
0.0
  0
LINE
  5
142F3
  8
01
 10
15586.46397335566
 20
-1057.2451918573249
 30
0.0
 11
15586.68997335566
 21
-1058.134191857325
 31
0.0
  0
LINE
  5
142F4
  8
01
 10
15586.68997335566
 20
-1058.134191857325
 30
0.0
 11
15586.79697335566
 21
-1058.8521918573249
 31
0.0
  0
LINE
  5
142F5
  8
01
 10
15586.79697335566
 20
-1058.8521918573249
 30
0.0
 11
15586.84897335566
 21
-1059.3621918573249
 31
0.0
  0
LINE
  5
142F6
  8
01
 10
15586.84897335566
 20
-1059.3621918573249
 30
0.0
 11
15586.87797335566
 21
-1059.7291918573251
 31
0.0
  0
LINE
  5
142F7
  8
01
 10
15586.87797335566
 20
-1059.7291918573251
 30
0.0
 11
15586.89397335566
 21
-1060.0041918573249
 31
0.0
  0
LINE
  5
142F8
  8
01
 10
15586.89397335566
 20
-1060.0041918573249
 30
0.0
 11
15586.90497335566
 21
-1060.2191918573251
 31
0.0
  0
LINE
  5
142F9
  8
01
 10
15586.90497335566
 20
-1060.2191918573251
 30
0.0
 11
15586.91197335566
 21
-1060.394191857325
 31
0.0
  0
LINE
  5
142FA
  8
01
 10
15586.91197335566
 20
-1060.394191857325
 30
0.0
 11
15586.916973355659
 21
-1060.540191857325
 31
0.0
  0
LINE
  5
142FB
  8
01
 10
15586.916973355659
 20
-1060.540191857325
 30
0.0
 11
15586.91997335566
 21
-1060.667191857325
 31
0.0
  0
LINE
  5
142FC
  8
01
 10
15586.91997335566
 20
-1060.667191857325
 30
0.0
 11
15586.92197335566
 21
-1060.780191857325
 31
0.0
  0
LINE
  5
142FD
  8
01
 10
15586.92197335566
 20
-1060.780191857325
 30
0.0
 11
15586.923973355661
 21
-1060.8821918573251
 31
0.0
  0
LINE
  5
142FE
  8
01
 10
15586.923973355661
 20
-1060.8821918573251
 30
0.0
 11
15586.924973355661
 21
-1060.9771918573249
 31
0.0
  0
LINE
  5
142FF
  8
01
 10
15586.924973355661
 20
-1060.9771918573249
 30
0.0
 11
15586.925973355659
 21
-1061.067191857325
 31
0.0
  0
LINE
  5
14300
  8
01
 10
15586.925973355659
 20
-1061.067191857325
 30
0.0
 11
15586.925973355659
 21
-1061.155191857325
 31
0.0
  0
LINE
  5
14301
  8
01
 10
15586.925973355659
 20
-1061.155191857325
 30
0.0
 11
15586.925973355659
 21
-1061.2161918573249
 31
0.0
  0
LINE
  5
14302
  8
01
 10
15578.254973355661
 20
-1061.2161918573249
 30
0.0
 11
15578.254973355661
 21
-1061.1621918573251
 31
0.0
  0
LINE
  5
14303
  8
01
 10
15578.254973355661
 20
-1061.1621918573251
 30
0.0
 11
15578.255973355661
 21
-1061.108191857325
 31
0.0
  0
LINE
  5
14304
  8
01
 10
15578.255973355661
 20
-1061.108191857325
 30
0.0
 11
15578.255973355661
 21
-1061.051191857325
 31
0.0
  0
LINE
  5
14305
  8
01
 10
15578.255973355661
 20
-1061.051191857325
 30
0.0
 11
15578.255973355661
 21
-1060.991191857325
 31
0.0
  0
LINE
  5
14306
  8
01
 10
15578.255973355661
 20
-1060.991191857325
 30
0.0
 11
15578.256973355659
 21
-1060.925191857325
 31
0.0
  0
LINE
  5
14307
  8
01
 10
15578.256973355659
 20
-1060.925191857325
 30
0.0
 11
15578.256973355659
 21
-1060.8521918573249
 31
0.0
  0
LINE
  5
14308
  8
01
 10
15578.256973355659
 20
-1060.8521918573249
 30
0.0
 11
15578.257973355659
 21
-1060.769191857325
 31
0.0
  0
LINE
  5
14309
  8
01
 10
15578.257973355659
 20
-1060.769191857325
 30
0.0
 11
15578.25897335566
 21
-1060.6711918573251
 31
0.0
  0
LINE
  5
1430A
  8
01
 10
15578.25897335566
 20
-1060.6711918573251
 30
0.0
 11
15578.26097335566
 21
-1060.5521918573249
 31
0.0
  0
LINE
  5
1430B
  8
01
 10
15578.26097335566
 20
-1060.5521918573249
 30
0.0
 11
15578.263973355661
 21
-1060.4001918573249
 31
0.0
  0
LINE
  5
1430C
  8
01
 10
15578.263973355661
 20
-1060.4001918573249
 30
0.0
 11
15578.26897335566
 21
-1060.1961918573249
 31
0.0
  0
LINE
  5
1430D
  8
01
 10
15578.26897335566
 20
-1060.1961918573249
 30
0.0
 11
15578.27897335566
 21
-1059.905191857325
 31
0.0
  0
LINE
  5
1430E
  8
01
 10
15578.27897335566
 20
-1059.905191857325
 30
0.0
 11
15578.29797335566
 21
-1059.4511918573251
 31
0.0
  0
LINE
  5
1430F
  8
01
 10
15578.29797335566
 20
-1059.4511918573251
 30
0.0
 11
15578.34997335566
 21
-1058.6721918573251
 31
0.0
  0
LINE
  5
14310
  8
01
 10
15578.34997335566
 20
-1058.6721918573251
 30
0.0
 11
15578.515973355659
 21
-1057.368191857325
 31
0.0
  0
LINE
  5
14311
  8
01
 10
15578.515973355659
 20
-1057.368191857325
 30
0.0
 11
15578.78797335566
 21
-1056.7371918573249
 31
0.0
  0
LINE
  5
14312
  8
01
 10
15578.530973355661
 20
-1074.6721918573251
 30
0.0
 11
15578.408973355659
 21
-1074.2651918573249
 31
0.0
  0
LINE
  5
14313
  8
01
 10
15578.408973355659
 20
-1074.2651918573249
 30
0.0
 11
15578.344973355661
 21
-1073.9191918573249
 31
0.0
  0
LINE
  5
14314
  8
01
 10
15578.344973355661
 20
-1073.9191918573249
 30
0.0
 11
15578.310973355659
 21
-1073.6581918573249
 31
0.0
  0
LINE
  5
14315
  8
01
 10
15578.310973355659
 20
-1073.6581918573249
 30
0.0
 11
15578.290973355661
 21
-1073.4601918573251
 31
0.0
  0
LINE
  5
14316
  8
01
 10
15578.290973355661
 20
-1073.4601918573251
 30
0.0
 11
15578.27897335566
 21
-1073.3071918573251
 31
0.0
  0
LINE
  5
14317
  8
01
 10
15578.27897335566
 20
-1073.3071918573251
 30
0.0
 11
15578.27097335566
 21
-1073.185191857325
 31
0.0
  0
LINE
  5
14318
  8
01
 10
15578.27097335566
 20
-1073.185191857325
 30
0.0
 11
15578.265973355659
 21
-1073.0841918573251
 31
0.0
  0
LINE
  5
14319
  8
01
 10
15578.265973355659
 20
-1073.0841918573251
 30
0.0
 11
15578.26197335566
 21
-1072.9971918573251
 31
0.0
  0
LINE
  5
1431A
  8
01
 10
15578.26197335566
 20
-1072.9971918573251
 30
0.0
 11
15578.25997335566
 21
-1072.9221918573251
 31
0.0
  0
LINE
  5
1431B
  8
01
 10
15578.25997335566
 20
-1072.9221918573251
 30
0.0
 11
15578.257973355659
 21
-1072.8541918573251
 31
0.0
  0
LINE
  5
1431C
  8
01
 10
15578.257973355659
 20
-1072.8541918573251
 30
0.0
 11
15578.256973355659
 21
-1072.792191857325
 31
0.0
  0
LINE
  5
1431D
  8
01
 10
15578.256973355659
 20
-1072.792191857325
 30
0.0
 11
15578.255973355661
 21
-1072.734191857325
 31
0.0
  0
LINE
  5
1431E
  8
01
 10
15578.255973355661
 20
-1072.734191857325
 30
0.0
 11
15578.254973355661
 21
-1072.6791918573249
 31
0.0
  0
LINE
  5
1431F
  8
01
 10
15578.254973355661
 20
-1072.6791918573249
 30
0.0
 11
15578.254973355661
 21
-1072.625191857325
 31
0.0
  0
LINE
  5
14320
  8
01
 10
15578.254973355661
 20
-1072.625191857325
 30
0.0
 11
15578.254973355661
 21
-1072.5721918573249
 31
0.0
  0
LINE
  5
14321
  8
01
 10
15578.254973355661
 20
-1072.5721918573249
 30
0.0
 11
15578.254973355661
 21
-1072.5181918573251
 31
0.0
  0
LINE
  5
14322
  8
01
 10
15578.254973355661
 20
-1072.5181918573251
 30
0.0
 11
15578.255973355661
 21
-1072.463191857325
 31
0.0
  0
LINE
  5
14323
  8
01
 10
15578.255973355661
 20
-1072.463191857325
 30
0.0
 11
15578.256973355659
 21
-1072.405191857325
 31
0.0
  0
LINE
  5
14324
  8
01
 10
15578.256973355659
 20
-1072.405191857325
 30
0.0
 11
15578.257973355659
 21
-1072.3421918573249
 31
0.0
  0
LINE
  5
14325
  8
01
 10
15578.257973355659
 20
-1072.3421918573249
 30
0.0
 11
15578.25997335566
 21
-1072.2741918573249
 31
0.0
  0
LINE
  5
14326
  8
01
 10
15578.25997335566
 20
-1072.2741918573249
 30
0.0
 11
15578.262973355661
 21
-1072.1991918573251
 31
0.0
  0
LINE
  5
14327
  8
01
 10
15578.262973355661
 20
-1072.1991918573251
 30
0.0
 11
15578.265973355659
 21
-1072.1121918573249
 31
0.0
  0
LINE
  5
14328
  8
01
 10
15578.265973355659
 20
-1072.1121918573249
 30
0.0
 11
15578.271973355661
 21
-1072.009191857325
 31
0.0
  0
LINE
  5
14329
  8
01
 10
15578.271973355661
 20
-1072.009191857325
 30
0.0
 11
15578.27997335566
 21
-1071.885191857325
 31
0.0
  0
LINE
  5
1432A
  8
01
 10
15578.27997335566
 20
-1071.885191857325
 30
0.0
 11
15578.291973355659
 21
-1071.7301918573251
 31
0.0
  0
LINE
  5
1432B
  8
01
 10
15578.291973355659
 20
-1071.7301918573251
 30
0.0
 11
15578.31297335566
 21
-1071.530191857325
 31
0.0
  0
LINE
  5
1432C
  8
01
 10
15578.31297335566
 20
-1071.530191857325
 30
0.0
 11
15578.34797335566
 21
-1071.2641918573249
 31
0.0
  0
LINE
  5
1432D
  8
01
 10
15578.34797335566
 20
-1071.2641918573249
 30
0.0
 11
15578.41397335566
 21
-1070.913191857325
 31
0.0
  0
LINE
  5
1432E
  8
01
 10
15578.41397335566
 20
-1070.913191857325
 30
0.0
 11
15578.539973355661
 21
-1070.5071918573251
 31
0.0
  0
LINE
  5
1432F
  8
01
 10
15578.539973355661
 20
-1070.5071918573251
 30
0.0
 11
15578.74497335566
 21
-1070.242191857325
 31
0.0
  0
LINE
  5
14330
  8
01
 10
15578.74497335566
 20
-1070.242191857325
 30
0.0
 11
15578.78797335566
 21
-1070.2351918573249
 31
0.0
  0
LINE
  5
14331
  8
01
 10
15586.06497335566
 20
-1070.2351918573249
 30
0.0
 11
15586.29397335566
 21
-1070.320191857325
 31
0.0
  0
LINE
  5
14332
  8
01
 10
15586.29397335566
 20
-1070.320191857325
 30
0.0
 11
15586.48397335566
 21
-1070.5341918573249
 31
0.0
  0
LINE
  5
14333
  8
01
 10
15586.48397335566
 20
-1070.5341918573249
 30
0.0
 11
15586.622973355659
 21
-1070.798191857325
 31
0.0
  0
LINE
  5
14334
  8
01
 10
15586.622973355659
 20
-1070.798191857325
 30
0.0
 11
15586.71697335566
 21
-1071.0571918573251
 31
0.0
  0
LINE
  5
14335
  8
01
 10
15586.71697335566
 20
-1071.0571918573251
 30
0.0
 11
15586.780973355661
 21
-1071.289191857325
 31
0.0
  0
LINE
  5
14336
  8
01
 10
15586.780973355661
 20
-1071.289191857325
 30
0.0
 11
15586.82497335566
 21
-1071.4891918573251
 31
0.0
  0
LINE
  5
14337
  8
01
 10
15586.82497335566
 20
-1071.4891918573251
 30
0.0
 11
15586.854973355659
 21
-1071.6621918573251
 31
0.0
  0
LINE
  5
14338
  8
01
 10
15586.854973355659
 20
-1071.6621918573251
 30
0.0
 11
15586.87697335566
 21
-1071.8121918573249
 31
0.0
  0
LINE
  5
14339
  8
01
 10
15586.87697335566
 20
-1071.8121918573249
 30
0.0
 11
15586.89197335566
 21
-1071.944191857325
 31
0.0
  0
LINE
  5
1433A
  8
01
 10
15586.89197335566
 20
-1071.944191857325
 30
0.0
 11
15586.90297335566
 21
-1072.0621918573249
 31
0.0
  0
LINE
  5
1433B
  8
01
 10
15586.90297335566
 20
-1072.0621918573249
 30
0.0
 11
15586.91197335566
 21
-1072.1691918573249
 31
0.0
  0
LINE
  5
1433C
  8
01
 10
15586.91197335566
 20
-1072.1691918573249
 30
0.0
 11
15586.916973355659
 21
-1072.269191857325
 31
0.0
  0
LINE
  5
1433D
  8
01
 10
15586.916973355659
 20
-1072.269191857325
 30
0.0
 11
15586.92197335566
 21
-1072.3621918573249
 31
0.0
  0
LINE
  5
1433E
  8
01
 10
15586.92197335566
 20
-1072.3621918573249
 30
0.0
 11
15586.923973355661
 21
-1072.452191857325
 31
0.0
  0
LINE
  5
1433F
  8
01
 10
15586.923973355661
 20
-1072.452191857325
 30
0.0
 11
15586.925973355659
 21
-1072.539191857325
 31
0.0
  0
LINE
  5
14340
  8
01
 10
15586.925973355659
 20
-1072.539191857325
 30
0.0
 11
15586.925973355659
 21
-1072.6001918573249
 31
0.0
  0
LINE
  5
14341
  8
01
 10
15586.925973355659
 20
-1061.2161918573249
 30
0.0
 11
15586.925973355659
 21
-1061.3021918573249
 31
0.0
  0
LINE
  5
14342
  8
01
 10
15586.925973355659
 20
-1061.3021918573249
 30
0.0
 11
15586.925973355659
 21
-1061.3901918573249
 31
0.0
  0
LINE
  5
14343
  8
01
 10
15586.925973355659
 20
-1061.3901918573249
 30
0.0
 11
15586.924973355661
 21
-1061.482191857325
 31
0.0
  0
LINE
  5
14344
  8
01
 10
15586.924973355661
 20
-1061.482191857325
 30
0.0
 11
15586.923973355661
 21
-1061.579191857325
 31
0.0
  0
LINE
  5
14345
  8
01
 10
15586.923973355661
 20
-1061.579191857325
 30
0.0
 11
15586.92197335566
 21
-1061.684191857325
 31
0.0
  0
LINE
  5
14346
  8
01
 10
15586.92197335566
 20
-1061.684191857325
 30
0.0
 11
15586.91897335566
 21
-1061.800191857325
 31
0.0
  0
LINE
  5
14347
  8
01
 10
15586.91897335566
 20
-1061.800191857325
 30
0.0
 11
15586.914973355661
 21
-1061.9321918573251
 31
0.0
  0
LINE
  5
14348
  8
01
 10
15586.914973355661
 20
-1061.9321918573251
 30
0.0
 11
15586.90997335566
 21
-1062.0851918573251
 31
0.0
  0
LINE
  5
14349
  8
01
 10
15586.90997335566
 20
-1062.0851918573251
 30
0.0
 11
15586.90197335566
 21
-1062.270191857325
 31
0.0
  0
LINE
  5
1434A
  8
01
 10
15586.90197335566
 20
-1062.270191857325
 30
0.0
 11
15586.889973355659
 21
-1062.500191857325
 31
0.0
  0
LINE
  5
1434B
  8
01
 10
15586.889973355659
 20
-1062.500191857325
 30
0.0
 11
15586.870973355661
 21
-1062.798191857325
 31
0.0
  0
LINE
  5
1434C
  8
01
 10
15586.870973355661
 20
-1062.798191857325
 30
0.0
 11
15586.836973355659
 21
-1063.2011918573251
 31
0.0
  0
LINE
  5
1434D
  8
01
 10
15586.836973355659
 20
-1063.2011918573251
 30
0.0
 11
15586.772973355661
 21
-1063.7661918573251
 31
0.0
  0
LINE
  5
1434E
  8
01
 10
15586.772973355661
 20
-1063.7661918573251
 30
0.0
 11
15586.639973355659
 21
-1064.550191857325
 31
0.0
  0
LINE
  5
1434F
  8
01
 10
15586.639973355659
 20
-1064.550191857325
 30
0.0
 11
15586.362973355661
 21
-1065.4181918573249
 31
0.0
  0
LINE
  5
14350
  8
01
 10
15586.362973355661
 20
-1065.4181918573249
 30
0.0
 11
15586.06497335566
 21
-1065.695191857325
 31
0.0
  0
LINE
  5
14351
  8
01
 10
15578.78797335566
 20
-1065.695191857325
 30
0.0
 11
15578.444973355659
 21
-1064.6401918573249
 31
0.0
  0
LINE
  5
14352
  8
01
 10
15578.444973355659
 20
-1064.6401918573249
 30
0.0
 11
15578.328973355659
 21
-1063.483191857325
 31
0.0
  0
LINE
  5
14353
  8
01
 10
15578.328973355659
 20
-1063.483191857325
 30
0.0
 11
15578.290973355661
 21
-1062.8241918573251
 31
0.0
  0
LINE
  5
14354
  8
01
 10
15578.290973355661
 20
-1062.8241918573251
 30
0.0
 11
15578.274973355659
 21
-1062.4291918573249
 31
0.0
  0
LINE
  5
14355
  8
01
 10
15578.274973355659
 20
-1062.4291918573249
 30
0.0
 11
15578.26797335566
 21
-1062.1691918573249
 31
0.0
  0
LINE
  5
14356
  8
01
 10
15578.26797335566
 20
-1062.1691918573249
 30
0.0
 11
15578.262973355661
 21
-1061.983191857325
 31
0.0
  0
LINE
  5
14357
  8
01
 10
15578.262973355661
 20
-1061.983191857325
 30
0.0
 11
15578.26097335566
 21
-1061.8421918573249
 31
0.0
  0
LINE
  5
14358
  8
01
 10
15578.26097335566
 20
-1061.8421918573249
 30
0.0
 11
15578.25897335566
 21
-1061.7301918573251
 31
0.0
  0
LINE
  5
14359
  8
01
 10
15578.25897335566
 20
-1061.7301918573251
 30
0.0
 11
15578.257973355659
 21
-1061.637191857325
 31
0.0
  0
LINE
  5
1435A
  8
01
 10
15578.257973355659
 20
-1061.637191857325
 30
0.0
 11
15578.256973355659
 21
-1061.5571918573251
 31
0.0
  0
LINE
  5
1435B
  8
01
 10
15578.256973355659
 20
-1061.5571918573251
 30
0.0
 11
15578.255973355661
 21
-1061.4871918573249
 31
0.0
  0
LINE
  5
1435C
  8
01
 10
15578.255973355661
 20
-1061.4871918573249
 30
0.0
 11
15578.255973355661
 21
-1061.423191857325
 31
0.0
  0
LINE
  5
1435D
  8
01
 10
15578.255973355661
 20
-1061.423191857325
 30
0.0
 11
15578.255973355661
 21
-1061.3641918573251
 31
0.0
  0
LINE
  5
1435E
  8
01
 10
15578.255973355661
 20
-1061.3641918573251
 30
0.0
 11
15578.254973355661
 21
-1061.308191857325
 31
0.0
  0
LINE
  5
1435F
  8
01
 10
15578.254973355661
 20
-1061.308191857325
 30
0.0
 11
15578.254973355661
 21
-1061.2541918573249
 31
0.0
  0
LINE
  5
14360
  8
01
 10
15578.254973355661
 20
-1061.2541918573249
 30
0.0
 11
15578.254973355661
 21
-1061.2161918573249
 31
0.0
  0
ARC
  5
14361
  8
01
 10
15618.72297335566
 20
-920.06619185732541
 30
0.0
 40
9.5250000000000004
 50
70.528999999974033
 51
109.47199999998649
  0
ARC
  5
14362
  8
01
 10
15625.07297335566
 20
-902.10619185732537
 30
0.0
 40
9.5250000000000004
 50
250.5289999999741
 51
289.47100000002592
  0
ARC
  5
14363
  8
01
 10
15625.07297335566
 20
-920.06619185732541
 30
0.0
 40
9.5250000000000004
 50
70.528999999974033
 51
109.47199999998649
  0
ARC
  5
14364
  8
01
 10
15625.07297335566
 20
-897.93919185732545
 30
0.0
 40
9.5250000000000004
 50
250.5289999999741
 51
289.47100000002592
  0
ARC
  5
14365
  8
01
 10
15618.72297335566
 20
-915.90019185732524
 30
0.0
 40
9.5250000000000004
 50
70.528999999974033
 51
109.4730000000297
  0
ARC
  5
14366
  8
01
 10
15618.72297335566
 20
-897.93919185732545
 30
0.0
 40
9.5250000000000004
 50
250.5289999999741
 51
289.47100000002592
  0
LINE
  5
14367
  8
01
 10
15743.0447226668
 20
-1027.608191857325
 30
0.0
 11
15743.528722666801
 21
-1027.6961918573249
 31
0.0
  0
LINE
  5
14368
  8
01
 10
15743.528722666801
 20
-1027.6961918573249
 30
0.0
 11
15743.9727226668
 21
-1027.9381918573249
 31
0.0
  0
LINE
  5
14369
  8
01
 10
15743.9727226668
 20
-1027.9381918573249
 30
0.0
 11
15744.352722666799
 21
-1028.289191857325
 31
0.0
  0
LINE
  5
1436A
  8
01
 10
15744.352722666799
 20
-1028.289191857325
 30
0.0
 11
15744.6607226668
 21
-1028.695191857325
 31
0.0
  0
LINE
  5
1436B
  8
01
 10
15744.6607226668
 20
-1028.695191857325
 30
0.0
 11
15744.9017226668
 21
-1029.117191857325
 31
0.0
  0
LINE
  5
1436C
  8
01
 10
15744.9017226668
 20
-1029.117191857325
 30
0.0
 11
15745.0877226668
 21
-1029.530191857325
 31
0.0
  0
LINE
  5
1436D
  8
01
 10
15745.0877226668
 20
-1029.530191857325
 30
0.0
 11
15745.2297226668
 21
-1029.9221918573251
 31
0.0
  0
LINE
  5
1436E
  8
01
 10
15745.2297226668
 20
-1029.9221918573251
 30
0.0
 11
15745.3387226668
 21
-1030.289191857325
 31
0.0
  0
LINE
  5
1436F
  8
01
 10
15745.3387226668
 20
-1030.289191857325
 30
0.0
 11
15745.421722666801
 21
-1030.6301918573249
 31
0.0
  0
LINE
  5
14370
  8
01
 10
15745.421722666801
 20
-1030.6301918573249
 30
0.0
 11
15745.484722666801
 21
-1030.9501918573251
 31
0.0
  0
LINE
  5
14371
  8
01
 10
15745.484722666801
 20
-1030.9501918573251
 30
0.0
 11
15745.531722666799
 21
-1031.250191857325
 31
0.0
  0
LINE
  5
14372
  8
01
 10
15745.531722666799
 20
-1031.250191857325
 30
0.0
 11
15745.567722666799
 21
-1031.5361918573251
 31
0.0
  0
LINE
  5
14373
  8
01
 10
15745.567722666799
 20
-1031.5361918573251
 30
0.0
 11
15745.592722666799
 21
-1031.809191857325
 31
0.0
  0
LINE
  5
14374
  8
01
 10
15745.592722666799
 20
-1031.809191857325
 30
0.0
 11
15745.608722666801
 21
-1032.0741918573251
 31
0.0
  0
LINE
  5
14375
  8
01
 10
15745.608722666801
 20
-1032.0741918573251
 30
0.0
 11
15745.617722666801
 21
-1032.3341918573251
 31
0.0
  0
LINE
  5
14376
  8
01
 10
15745.617722666801
 20
-1032.3341918573251
 30
0.0
 11
15745.618722666801
 21
-1032.5911918573249
 31
0.0
  0
LINE
  5
14377
  8
01
 10
15745.618722666801
 20
-1032.5911918573249
 30
0.0
 11
15745.6127226668
 21
-1032.8501918573249
 31
0.0
  0
LINE
  5
14378
  8
01
 10
15745.6127226668
 20
-1032.8501918573249
 30
0.0
 11
15745.59972266681
 21
-1033.1121918573249
 31
0.0
  0
LINE
  5
14379
  8
01
 10
15745.59972266681
 20
-1033.1121918573249
 30
0.0
 11
15745.5787226668
 21
-1033.3821918573251
 31
0.0
  0
LINE
  5
1437A
  8
01
 10
15745.5787226668
 20
-1033.3821918573251
 30
0.0
 11
15745.547722666801
 21
-1033.6621918573251
 31
0.0
  0
LINE
  5
1437B
  8
01
 10
15745.547722666801
 20
-1033.6621918573251
 30
0.0
 11
15745.5057226668
 21
-1033.955191857325
 31
0.0
  0
LINE
  5
1437C
  8
01
 10
15745.5057226668
 20
-1033.955191857325
 30
0.0
 11
15745.449722666801
 21
-1034.2671918573251
 31
0.0
  0
LINE
  5
1437D
  8
01
 10
15745.449722666801
 20
-1034.2671918573251
 30
0.0
 11
15745.3757226668
 21
-1034.599191857325
 31
0.0
  0
LINE
  5
1437E
  8
01
 10
15745.3757226668
 20
-1034.599191857325
 30
0.0
 11
15745.278722666801
 21
-1034.955191857325
 31
0.0
  0
LINE
  5
1437F
  8
01
 10
15745.278722666801
 20
-1034.955191857325
 30
0.0
 11
15745.1517226668
 21
-1035.336191857325
 31
0.0
  0
LINE
  5
14380
  8
01
 10
15745.1517226668
 20
-1035.336191857325
 30
0.0
 11
15744.985722666799
 21
-1035.741191857325
 31
0.0
  0
LINE
  5
14381
  8
01
 10
15744.985722666799
 20
-1035.741191857325
 30
0.0
 11
15744.7687226668
 21
-1036.1621918573251
 31
0.0
  0
LINE
  5
14382
  8
01
 10
15744.7687226668
 20
-1036.1621918573251
 30
0.0
 11
15744.4897226668
 21
-1036.579191857325
 31
0.0
  0
LINE
  5
14383
  8
01
 10
15744.4897226668
 20
-1036.579191857325
 30
0.0
 11
15744.1397226668
 21
-1036.9581918573249
 31
0.0
  0
LINE
  5
14384
  8
01
 10
15744.1397226668
 20
-1036.9581918573249
 30
0.0
 11
15743.7207226668
 21
-1037.252191857325
 31
0.0
  0
LINE
  5
14385
  8
01
 10
15743.7207226668
 20
-1037.252191857325
 30
0.0
 11
15743.2487226668
 21
-1037.4091918573249
 31
0.0
  0
LINE
  5
14386
  8
01
 10
15743.2487226668
 20
-1037.4091918573249
 30
0.0
 11
15743.0447226668
 21
-1037.424191857325
 31
0.0
  0
LINE
  5
14387
  8
01
 10
15743.0447226668
 20
-1037.424191857325
 30
0.0
 11
15742.7597226668
 21
-1037.394191857325
 31
0.0
  0
LINE
  5
14388
  8
01
 10
15742.7597226668
 20
-1037.394191857325
 30
0.0
 11
15742.2947226668
 21
-1037.211191857325
 31
0.0
  0
LINE
  5
14389
  8
01
 10
15742.2947226668
 20
-1037.211191857325
 30
0.0
 11
15741.886722666801
 21
-1036.8991918573249
 31
0.0
  0
LINE
  5
1438A
  8
01
 10
15741.886722666801
 20
-1036.8991918573249
 30
0.0
 11
15741.548722666799
 21
-1036.510191857325
 31
0.0
  0
LINE
  5
1438B
  8
01
 10
15741.548722666799
 20
-1036.510191857325
 30
0.0
 11
15741.281722666799
 21
-1036.0911918573249
 31
0.0
  0
LINE
  5
1438C
  8
01
 10
15741.281722666799
 20
-1036.0911918573249
 30
0.0
 11
15741.07372266681
 21
-1035.6721918573251
 31
0.0
  0
LINE
  5
1438D
  8
01
 10
15741.07372266681
 20
-1035.6721918573251
 30
0.0
 11
15740.914722666799
 21
-1035.270191857325
 31
0.0
  0
LINE
  5
1438E
  8
01
 10
15740.914722666799
 20
-1035.270191857325
 30
0.0
 11
15740.7927226668
 21
-1034.8931918573251
 31
0.0
  0
LINE
  5
1438F
  8
01
 10
15740.7927226668
 20
-1034.8931918573251
 30
0.0
 11
15740.700722666799
 21
-1034.541191857325
 31
0.0
  0
LINE
  5
14390
  8
01
 10
15740.700722666799
 20
-1034.541191857325
 30
0.0
 11
15740.629722666799
 21
-1034.213191857325
 31
0.0
  0
LINE
  5
14391
  8
01
 10
15740.629722666799
 20
-1034.213191857325
 30
0.0
 11
15740.576722666799
 21
-1033.905191857325
 31
0.0
  0
LINE
  5
14392
  8
01
 10
15740.576722666799
 20
-1033.905191857325
 30
0.0
 11
15740.5367226668
 21
-1033.6141918573251
 31
0.0
  0
LINE
  5
14393
  8
01
 10
15740.5367226668
 20
-1033.6141918573251
 30
0.0
 11
15740.5077226668
 21
-1033.336191857325
 31
0.0
  0
LINE
  5
14394
  8
01
 10
15740.5077226668
 20
-1033.336191857325
 30
0.0
 11
15740.4877226668
 21
-1033.068191857325
 31
0.0
  0
LINE
  5
14395
  8
01
 10
15740.4877226668
 20
-1033.068191857325
 30
0.0
 11
15740.475722666801
 21
-1032.8061918573251
 31
0.0
  0
LINE
  5
14396
  8
01
 10
15740.475722666801
 20
-1032.8061918573251
 30
0.0
 11
15740.4707226668
 21
-1032.548191857325
 31
0.0
  0
LINE
  5
14397
  8
01
 10
15740.4707226668
 20
-1032.548191857325
 30
0.0
 11
15740.4737226668
 21
-1032.290191857325
 31
0.0
  0
LINE
  5
14398
  8
01
 10
15740.4737226668
 20
-1032.290191857325
 30
0.0
 11
15740.483722666801
 21
-1032.030191857325
 31
0.0
  0
LINE
  5
14399
  8
01
 10
15740.483722666801
 20
-1032.030191857325
 30
0.0
 11
15740.501722666801
 21
-1031.7641918573249
 31
0.0
  0
LINE
  5
1439A
  8
01
 10
15740.501722666801
 20
-1031.7641918573249
 30
0.0
 11
15740.5277226668
 21
-1031.4891918573251
 31
0.0
  0
LINE
  5
1439B
  8
01
 10
15740.5277226668
 20
-1031.4891918573251
 30
0.0
 11
15740.565722666801
 21
-1031.2011918573251
 31
0.0
  0
LINE
  5
1439C
  8
01
 10
15740.565722666801
 20
-1031.2011918573251
 30
0.0
 11
15740.6147226668
 21
-1030.8981918573249
 31
0.0
  0
LINE
  5
1439D
  8
01
 10
15740.6147226668
 20
-1030.8981918573249
 30
0.0
 11
15740.680722666801
 21
-1030.5751918573251
 31
0.0
  0
LINE
  5
1439E
  8
01
 10
15740.680722666801
 20
-1030.5751918573251
 30
0.0
 11
15740.7677226668
 21
-1030.2291918573251
 31
0.0
  0
LINE
  5
1439F
  8
01
 10
15740.7677226668
 20
-1030.2291918573251
 30
0.0
 11
15740.8817226668
 21
-1029.858191857325
 31
0.0
  0
LINE
  5
143A0
  8
01
 10
15740.8817226668
 20
-1029.858191857325
 30
0.0
 11
15741.029722666801
 21
-1029.462191857325
 31
0.0
  0
LINE
  5
143A1
  8
01
 10
15741.029722666801
 20
-1029.462191857325
 30
0.0
 11
15741.224722666801
 21
-1029.0461918573251
 31
0.0
  0
LINE
  5
143A2
  8
01
 10
15741.224722666801
 20
-1029.0461918573251
 30
0.0
 11
15741.476722666799
 21
-1028.625191857325
 31
0.0
  0
LINE
  5
143A3
  8
01
 10
15741.476722666799
 20
-1028.625191857325
 30
0.0
 11
15741.796722666801
 21
-1028.2251918573249
 31
0.0
  0
LINE
  5
143A4
  8
01
 10
15741.796722666801
 20
-1028.2251918573249
 30
0.0
 11
15742.1877226668
 21
-1027.888191857325
 31
0.0
  0
LINE
  5
143A5
  8
01
 10
15742.1877226668
 20
-1027.888191857325
 30
0.0
 11
15742.6407226668
 21
-1027.6691918573249
 31
0.0
  0
LINE
  5
143A6
  8
01
 10
15742.6407226668
 20
-1027.6691918573249
 30
0.0
 11
15743.0447226668
 21
-1027.608191857325
 31
0.0
  0
LINE
  5
143A7
  8
01
 10
15733.085722666799
 20
-1027.608191857325
 30
0.0
 11
15733.575722666799
 21
-1027.6301918573249
 31
0.0
  0
LINE
  5
143A8
  8
01
 10
15733.575722666799
 20
-1027.6301918573249
 30
0.0
 11
15734.0627226668
 21
-1027.6971918573249
 31
0.0
  0
LINE
  5
143A9
  8
01
 10
15734.0627226668
 20
-1027.6971918573249
 30
0.0
 11
15734.5417226668
 21
-1027.809191857325
 31
0.0
  0
LINE
  5
143AA
  8
01
 10
15734.5417226668
 20
-1027.809191857325
 30
0.0
 11
15735.010722666801
 21
-1027.964191857325
 31
0.0
  0
LINE
  5
143AB
  8
01
 10
15735.010722666801
 20
-1027.964191857325
 30
0.0
 11
15735.4637226668
 21
-1028.163191857325
 31
0.0
  0
LINE
  5
143AC
  8
01
 10
15735.4637226668
 20
-1028.163191857325
 30
0.0
 11
15735.8987226668
 21
-1028.405191857325
 31
0.0
  0
LINE
  5
143AD
  8
01
 10
15735.8987226668
 20
-1028.405191857325
 30
0.0
 11
15736.3097226668
 21
-1028.6891918573251
 31
0.0
  0
LINE
  5
143AE
  8
01
 10
15736.3097226668
 20
-1028.6891918573251
 30
0.0
 11
15736.692722666799
 21
-1029.013191857325
 31
0.0
  0
LINE
  5
143AF
  8
01
 10
15736.692722666799
 20
-1029.013191857325
 30
0.0
 11
15737.0427226668
 21
-1029.376191857325
 31
0.0
  0
LINE
  5
143B0
  8
01
 10
15737.0427226668
 20
-1029.376191857325
 30
0.0
 11
15737.3557226668
 21
-1029.7741918573249
 31
0.0
  0
LINE
  5
143B1
  8
01
 10
15737.3557226668
 20
-1029.7741918573249
 30
0.0
 11
15737.627722666801
 21
-1030.204191857325
 31
0.0
  0
LINE
  5
143B2
  8
01
 10
15737.627722666801
 20
-1030.204191857325
 30
0.0
 11
15737.8537226668
 21
-1030.663191857325
 31
0.0
  0
LINE
  5
143B3
  8
01
 10
15737.8537226668
 20
-1030.663191857325
 30
0.0
 11
15738.029722666801
 21
-1031.144191857325
 31
0.0
  0
LINE
  5
143B4
  8
01
 10
15738.029722666801
 20
-1031.144191857325
 30
0.0
 11
15738.1527226668
 21
-1031.6421918573251
 31
0.0
  0
LINE
  5
143B5
  8
01
 10
15738.1527226668
 20
-1031.6421918573251
 30
0.0
 11
15738.2207226668
 21
-1032.1521918573251
 31
0.0
  0
LINE
  5
143B6
  8
01
 10
15738.2207226668
 20
-1032.1521918573251
 30
0.0
 11
15738.234722666801
 21
-1032.5161918573251
 31
0.0
  0
LINE
  5
143B7
  8
01
 10
15738.234722666801
 20
-1032.5161918573251
 30
0.0
 11
15738.2327226668
 21
-1032.666191857325
 31
0.0
  0
LINE
  5
143B8
  8
01
 10
15738.2327226668
 20
-1032.666191857325
 30
0.0
 11
15738.1877226668
 21
-1033.1791918573249
 31
0.0
  0
LINE
  5
143B9
  8
01
 10
15738.1877226668
 20
-1033.1791918573249
 30
0.0
 11
15738.0867226668
 21
-1033.683191857325
 31
0.0
  0
LINE
  5
143BA
  8
01
 10
15738.0867226668
 20
-1033.683191857325
 30
0.0
 11
15737.932722666799
 21
-1034.1721918573251
 31
0.0
  0
LINE
  5
143BB
  8
01
 10
15737.932722666799
 20
-1034.1721918573251
 30
0.0
 11
15737.727722666799
 21
-1034.6401918573249
 31
0.0
  0
LINE
  5
143BC
  8
01
 10
15737.727722666799
 20
-1034.6401918573249
 30
0.0
 11
15737.474722666801
 21
-1035.0831918573249
 31
0.0
  0
LINE
  5
143BD
  8
01
 10
15737.474722666801
 20
-1035.0831918573249
 30
0.0
 11
15737.1777226668
 21
-1035.4951918573249
 31
0.0
  0
LINE
  5
143BE
  8
01
 10
15737.1777226668
 20
-1035.4951918573249
 30
0.0
 11
15736.842722666799
 21
-1035.8731918573251
 31
0.0
  0
LINE
  5
143BF
  8
01
 10
15736.842722666799
 20
-1035.8731918573251
 30
0.0
 11
15736.4727226668
 21
-1036.213191857325
 31
0.0
  0
LINE
  5
143C0
  8
01
 10
15736.4727226668
 20
-1036.213191857325
 30
0.0
 11
15736.07272266681
 21
-1036.5141918573249
 31
0.0
  0
LINE
  5
143C1
  8
01
 10
15736.07272266681
 20
-1036.5141918573249
 30
0.0
 11
15735.646722666799
 21
-1036.7741918573249
 31
0.0
  0
LINE
  5
143C2
  8
01
 10
15735.646722666799
 20
-1036.7741918573249
 30
0.0
 11
15735.200722666799
 21
-1036.991191857325
 31
0.0
  0
LINE
  5
143C3
  8
01
 10
15735.200722666799
 20
-1036.991191857325
 30
0.0
 11
15734.7387226668
 21
-1037.164191857325
 31
0.0
  0
LINE
  5
143C4
  8
01
 10
15734.7387226668
 20
-1037.164191857325
 30
0.0
 11
15734.262722666799
 21
-1037.2941918573249
 31
0.0
  0
LINE
  5
143C5
  8
01
 10
15734.262722666799
 20
-1037.2941918573249
 30
0.0
 11
15733.778722666801
 21
-1037.3791918573249
 31
0.0
  0
LINE
  5
143C6
  8
01
 10
15733.778722666801
 20
-1037.3791918573249
 30
0.0
 11
15733.289722666799
 21
-1037.4201918573251
 31
0.0
  0
LINE
  5
143C7
  8
01
 10
15733.289722666799
 20
-1037.4201918573251
 30
0.0
 11
15733.085722666799
 21
-1037.424191857325
 31
0.0
  0
LINE
  5
143C8
  8
01
 10
15723.126722666801
 20
-1027.608191857325
 30
0.0
 11
15722.6427226668
 21
-1027.6961918573249
 31
0.0
  0
LINE
  5
143C9
  8
01
 10
15722.6427226668
 20
-1027.6961918573249
 30
0.0
 11
15722.198722666801
 21
-1027.9381918573249
 31
0.0
  0
LINE
  5
143CA
  8
01
 10
15722.198722666801
 20
-1027.9381918573249
 30
0.0
 11
15721.8187226668
 21
-1028.289191857325
 31
0.0
  0
LINE
  5
143CB
  8
01
 10
15721.8187226668
 20
-1028.289191857325
 30
0.0
 11
15721.510722666801
 21
-1028.695191857325
 31
0.0
  0
LINE
  5
143CC
  8
01
 10
15721.510722666801
 20
-1028.695191857325
 30
0.0
 11
15721.269722666801
 21
-1029.117191857325
 31
0.0
  0
LINE
  5
143CD
  8
01
 10
15721.269722666801
 20
-1029.117191857325
 30
0.0
 11
15721.083722666801
 21
-1029.530191857325
 31
0.0
  0
LINE
  5
143CE
  8
01
 10
15721.083722666801
 20
-1029.530191857325
 30
0.0
 11
15720.941722666799
 21
-1029.9221918573251
 31
0.0
  0
LINE
  5
143CF
  8
01
 10
15720.941722666799
 20
-1029.9221918573251
 30
0.0
 11
15720.832722666801
 21
-1030.289191857325
 31
0.0
  0
LINE
  5
143D0
  8
01
 10
15720.832722666801
 20
-1030.289191857325
 30
0.0
 11
15720.7497226668
 21
-1030.6301918573249
 31
0.0
  0
LINE
  5
143D1
  8
01
 10
15720.7497226668
 20
-1030.6301918573249
 30
0.0
 11
15720.6867226668
 21
-1030.9501918573251
 31
0.0
  0
LINE
  5
143D2
  8
01
 10
15720.6867226668
 20
-1030.9501918573251
 30
0.0
 11
15720.6397226668
 21
-1031.250191857325
 31
0.0
  0
LINE
  5
143D3
  8
01
 10
15720.6397226668
 20
-1031.250191857325
 30
0.0
 11
15720.6037226668
 21
-1031.5361918573251
 31
0.0
  0
LINE
  5
143D4
  8
01
 10
15720.6037226668
 20
-1031.5361918573251
 30
0.0
 11
15720.5787226668
 21
-1031.809191857325
 31
0.0
  0
LINE
  5
143D5
  8
01
 10
15720.5787226668
 20
-1031.809191857325
 30
0.0
 11
15720.5627226668
 21
-1032.0741918573251
 31
0.0
  0
LINE
  5
143D6
  8
01
 10
15720.5627226668
 20
-1032.0741918573251
 30
0.0
 11
15720.5537226668
 21
-1032.3341918573251
 31
0.0
  0
LINE
  5
143D7
  8
01
 10
15720.5537226668
 20
-1032.3341918573251
 30
0.0
 11
15720.5527226668
 21
-1032.5911918573249
 31
0.0
  0
LINE
  5
143D8
  8
01
 10
15720.5527226668
 20
-1032.5911918573249
 30
0.0
 11
15720.558722666799
 21
-1032.8501918573249
 31
0.0
  0
LINE
  5
143D9
  8
01
 10
15720.558722666799
 20
-1032.8501918573249
 30
0.0
 11
15720.5717226668
 21
-1033.1121918573249
 31
0.0
  0
LINE
  5
143DA
  8
01
 10
15720.5717226668
 20
-1033.1121918573249
 30
0.0
 11
15720.592722666799
 21
-1033.3821918573251
 31
0.0
  0
LINE
  5
143DB
  8
01
 10
15720.592722666799
 20
-1033.3821918573251
 30
0.0
 11
15720.6237226668
 21
-1033.6621918573251
 31
0.0
  0
LINE
  5
143DC
  8
01
 10
15720.6237226668
 20
-1033.6621918573251
 30
0.0
 11
15720.665722666799
 21
-1033.955191857325
 31
0.0
  0
LINE
  5
143DD
  8
01
 10
15720.665722666799
 20
-1033.955191857325
 30
0.0
 11
15720.7217226668
 21
-1034.2671918573251
 31
0.0
  0
LINE
  5
143DE
  8
01
 10
15720.7217226668
 20
-1034.2671918573251
 30
0.0
 11
15720.7957226668
 21
-1034.599191857325
 31
0.0
  0
LINE
  5
143DF
  8
01
 10
15720.7957226668
 20
-1034.599191857325
 30
0.0
 11
15720.8927226668
 21
-1034.955191857325
 31
0.0
  0
LINE
  5
143E0
  8
01
 10
15720.8927226668
 20
-1034.955191857325
 30
0.0
 11
15721.019722666801
 21
-1035.336191857325
 31
0.0
  0
LINE
  5
143E1
  8
01
 10
15721.019722666801
 20
-1035.336191857325
 30
0.0
 11
15721.1857226668
 21
-1035.741191857325
 31
0.0
  0
LINE
  5
143E2
  8
01
 10
15721.1857226668
 20
-1035.741191857325
 30
0.0
 11
15721.4027226668
 21
-1036.1621918573251
 31
0.0
  0
LINE
  5
143E3
  8
01
 10
15721.4027226668
 20
-1036.1621918573251
 30
0.0
 11
15721.681722666801
 21
-1036.579191857325
 31
0.0
  0
LINE
  5
143E4
  8
01
 10
15721.681722666801
 20
-1036.579191857325
 30
0.0
 11
15722.031722666799
 21
-1036.9581918573249
 31
0.0
  0
LINE
  5
143E5
  8
01
 10
15722.031722666799
 20
-1036.9581918573249
 30
0.0
 11
15722.450722666799
 21
-1037.252191857325
 31
0.0
  0
LINE
  5
143E6
  8
01
 10
15722.450722666799
 20
-1037.252191857325
 30
0.0
 11
15722.922722666801
 21
-1037.4091918573249
 31
0.0
  0
LINE
  5
143E7
  8
01
 10
15722.922722666801
 20
-1037.4091918573249
 30
0.0
 11
15723.126722666801
 21
-1037.424191857325
 31
0.0
  0
LINE
  5
143E8
  8
01
 10
15723.126722666801
 20
-1037.424191857325
 30
0.0
 11
15723.4117226668
 21
-1037.394191857325
 31
0.0
  0
LINE
  5
143E9
  8
01
 10
15723.4117226668
 20
-1037.394191857325
 30
0.0
 11
15723.876722666801
 21
-1037.211191857325
 31
0.0
  0
LINE
  5
143EA
  8
01
 10
15723.876722666801
 20
-1037.211191857325
 30
0.0
 11
15724.2847226668
 21
-1036.8991918573249
 31
0.0
  0
LINE
  5
143EB
  8
01
 10
15724.2847226668
 20
-1036.8991918573249
 30
0.0
 11
15724.6227226668
 21
-1036.510191857325
 31
0.0
  0
LINE
  5
143EC
  8
01
 10
15724.6227226668
 20
-1036.510191857325
 30
0.0
 11
15724.8897226668
 21
-1036.0911918573249
 31
0.0
  0
LINE
  5
143ED
  8
01
 10
15724.8897226668
 20
-1036.0911918573249
 30
0.0
 11
15725.0977226668
 21
-1035.6721918573251
 31
0.0
  0
LINE
  5
143EE
  8
01
 10
15725.0977226668
 20
-1035.6721918573251
 30
0.0
 11
15725.2567226668
 21
-1035.270191857325
 31
0.0
  0
LINE
  5
143EF
  8
01
 10
15725.2567226668
 20
-1035.270191857325
 30
0.0
 11
15725.378722666799
 21
-1034.8931918573251
 31
0.0
  0
LINE
  5
143F0
  8
01
 10
15725.378722666799
 20
-1034.8931918573251
 30
0.0
 11
15725.4707226668
 21
-1034.541191857325
 31
0.0
  0
LINE
  5
143F1
  8
01
 10
15725.4707226668
 20
-1034.541191857325
 30
0.0
 11
15725.5417226668
 21
-1034.213191857325
 31
0.0
  0
LINE
  5
143F2
  8
01
 10
15725.5417226668
 20
-1034.213191857325
 30
0.0
 11
15725.594722666799
 21
-1033.905191857325
 31
0.0
  0
LINE
  5
143F3
  8
01
 10
15725.594722666799
 20
-1033.905191857325
 30
0.0
 11
15725.6347226668
 21
-1033.6141918573251
 31
0.0
  0
LINE
  5
143F4
  8
01
 10
15725.6347226668
 20
-1033.6141918573251
 30
0.0
 11
15725.663722666801
 21
-1033.336191857325
 31
0.0
  0
LINE
  5
143F5
  8
01
 10
15725.663722666801
 20
-1033.336191857325
 30
0.0
 11
15725.683722666799
 21
-1033.068191857325
 31
0.0
  0
LINE
  5
143F6
  8
01
 10
15725.683722666799
 20
-1033.068191857325
 30
0.0
 11
15725.6957226668
 21
-1032.8061918573251
 31
0.0
  0
LINE
  5
143F7
  8
01
 10
15725.6957226668
 20
-1032.8061918573251
 30
0.0
 11
15725.700722666799
 21
-1032.548191857325
 31
0.0
  0
LINE
  5
143F8
  8
01
 10
15725.700722666799
 20
-1032.548191857325
 30
0.0
 11
15725.6977226668
 21
-1032.290191857325
 31
0.0
  0
LINE
  5
143F9
  8
01
 10
15725.6977226668
 20
-1032.290191857325
 30
0.0
 11
15725.6877226668
 21
-1032.030191857325
 31
0.0
  0
LINE
  5
143FA
  8
01
 10
15725.6877226668
 20
-1032.030191857325
 30
0.0
 11
15725.6697226668
 21
-1031.7641918573249
 31
0.0
  0
LINE
  5
143FB
  8
01
 10
15725.6697226668
 20
-1031.7641918573249
 30
0.0
 11
15725.6437226668
 21
-1031.4891918573251
 31
0.0
  0
LINE
  5
143FC
  8
01
 10
15725.6437226668
 20
-1031.4891918573251
 30
0.0
 11
15725.6057226668
 21
-1031.2011918573251
 31
0.0
  0
LINE
  5
143FD
  8
01
 10
15725.6057226668
 20
-1031.2011918573251
 30
0.0
 11
15725.556722666801
 21
-1030.8981918573249
 31
0.0
  0
LINE
  5
143FE
  8
01
 10
15725.556722666801
 20
-1030.8981918573249
 30
0.0
 11
15725.4907226668
 21
-1030.5751918573251
 31
0.0
  0
LINE
  5
143FF
  8
01
 10
15725.4907226668
 20
-1030.5751918573251
 30
0.0
 11
15725.403722666801
 21
-1030.2291918573251
 31
0.0
  0
LINE
  5
14400
  8
01
 10
15725.403722666801
 20
-1030.2291918573251
 30
0.0
 11
15725.289722666799
 21
-1029.858191857325
 31
0.0
  0
LINE
  5
14401
  8
01
 10
15725.289722666799
 20
-1029.858191857325
 30
0.0
 11
15725.1417226668
 21
-1029.462191857325
 31
0.0
  0
LINE
  5
14402
  8
01
 10
15725.1417226668
 20
-1029.462191857325
 30
0.0
 11
15724.9467226668
 21
-1029.0461918573251
 31
0.0
  0
LINE
  5
14403
  8
01
 10
15724.9467226668
 20
-1029.0461918573251
 30
0.0
 11
15724.6947226668
 21
-1028.625191857325
 31
0.0
  0
LINE
  5
14404
  8
01
 10
15724.6947226668
 20
-1028.625191857325
 30
0.0
 11
15724.3747226668
 21
-1028.2251918573249
 31
0.0
  0
LINE
  5
14405
  8
01
 10
15724.3747226668
 20
-1028.2251918573249
 30
0.0
 11
15723.98372266681
 21
-1027.888191857325
 31
0.0
  0
LINE
  5
14406
  8
01
 10
15723.98372266681
 20
-1027.888191857325
 30
0.0
 11
15723.530722666799
 21
-1027.6691918573249
 31
0.0
  0
LINE
  5
14407
  8
01
 10
15723.530722666799
 20
-1027.6691918573249
 30
0.0
 11
15723.126722666801
 21
-1027.608191857325
 31
0.0
  0
LINE
  5
14408
  8
01
 10
15733.085722666799
 20
-1027.608191857325
 30
0.0
 11
15732.5957226668
 21
-1027.6301918573249
 31
0.0
  0
LINE
  5
14409
  8
01
 10
15732.5957226668
 20
-1027.6301918573249
 30
0.0
 11
15732.108722666801
 21
-1027.6971918573249
 31
0.0
  0
LINE
  5
1440A
  8
01
 10
15732.108722666801
 20
-1027.6971918573249
 30
0.0
 11
15731.629722666799
 21
-1027.809191857325
 31
0.0
  0
LINE
  5
1440B
  8
01
 10
15731.629722666799
 20
-1027.809191857325
 30
0.0
 11
15731.1607226668
 21
-1027.964191857325
 31
0.0
  0
LINE
  5
1440C
  8
01
 10
15731.1607226668
 20
-1027.964191857325
 30
0.0
 11
15730.70772266681
 21
-1028.163191857325
 31
0.0
  0
LINE
  5
1440D
  8
01
 10
15730.70772266681
 20
-1028.163191857325
 30
0.0
 11
15730.272722666799
 21
-1028.405191857325
 31
0.0
  0
LINE
  5
1440E
  8
01
 10
15730.272722666799
 20
-1028.405191857325
 30
0.0
 11
15729.861722666799
 21
-1028.6891918573251
 31
0.0
  0
LINE
  5
1440F
  8
01
 10
15729.861722666799
 20
-1028.6891918573251
 30
0.0
 11
15729.4787226668
 21
-1029.013191857325
 31
0.0
  0
LINE
  5
14410
  8
01
 10
15729.4787226668
 20
-1029.013191857325
 30
0.0
 11
15729.128722666799
 21
-1029.376191857325
 31
0.0
  0
LINE
  5
14411
  8
01
 10
15729.128722666799
 20
-1029.376191857325
 30
0.0
 11
15728.815722666801
 21
-1029.7741918573249
 31
0.0
  0
LINE
  5
14412
  8
01
 10
15728.815722666801
 20
-1029.7741918573249
 30
0.0
 11
15728.5437226668
 21
-1030.204191857325
 31
0.0
  0
LINE
  5
14413
  8
01
 10
15728.5437226668
 20
-1030.204191857325
 30
0.0
 11
15728.317722666799
 21
-1030.663191857325
 31
0.0
  0
LINE
  5
14414
  8
01
 10
15728.317722666799
 20
-1030.663191857325
 30
0.0
 11
15728.1417226668
 21
-1031.144191857325
 31
0.0
  0
LINE
  5
14415
  8
01
 10
15728.1417226668
 20
-1031.144191857325
 30
0.0
 11
15728.0187226668
 21
-1031.6421918573251
 31
0.0
  0
LINE
  5
14416
  8
01
 10
15728.0187226668
 20
-1031.6421918573251
 30
0.0
 11
15727.950722666799
 21
-1032.1521918573251
 31
0.0
  0
LINE
  5
14417
  8
01
 10
15727.950722666799
 20
-1032.1521918573251
 30
0.0
 11
15727.9367226668
 21
-1032.5161918573251
 31
0.0
  0
LINE
  5
14418
  8
01
 10
15727.9367226668
 20
-1032.5161918573251
 30
0.0
 11
15727.9387226668
 21
-1032.666191857325
 31
0.0
  0
LINE
  5
14419
  8
01
 10
15727.9387226668
 20
-1032.666191857325
 30
0.0
 11
15727.983722666801
 21
-1033.1791918573249
 31
0.0
  0
LINE
  5
1441A
  8
01
 10
15727.983722666801
 20
-1033.1791918573249
 30
0.0
 11
15728.084722666799
 21
-1033.683191857325
 31
0.0
  0
LINE
  5
1441B
  8
01
 10
15728.084722666799
 20
-1033.683191857325
 30
0.0
 11
15728.2387226668
 21
-1034.1721918573251
 31
0.0
  0
LINE
  5
1441C
  8
01
 10
15728.2387226668
 20
-1034.1721918573251
 30
0.0
 11
15728.4437226668
 21
-1034.6401918573249
 31
0.0
  0
LINE
  5
1441D
  8
01
 10
15728.4437226668
 20
-1034.6401918573249
 30
0.0
 11
15728.6967226668
 21
-1035.0831918573249
 31
0.0
  0
LINE
  5
1441E
  8
01
 10
15728.6967226668
 20
-1035.0831918573249
 30
0.0
 11
15728.993722666801
 21
-1035.4951918573249
 31
0.0
  0
LINE
  5
1441F
  8
01
 10
15728.993722666801
 20
-1035.4951918573249
 30
0.0
 11
15729.3287226668
 21
-1035.8731918573251
 31
0.0
  0
LINE
  5
14420
  8
01
 10
15729.3287226668
 20
-1035.8731918573251
 30
0.0
 11
15729.698722666801
 21
-1036.213191857325
 31
0.0
  0
LINE
  5
14421
  8
01
 10
15729.698722666801
 20
-1036.213191857325
 30
0.0
 11
15730.0987226668
 21
-1036.5141918573249
 31
0.0
  0
LINE
  5
14422
  8
01
 10
15730.0987226668
 20
-1036.5141918573249
 30
0.0
 11
15730.5247226668
 21
-1036.7741918573249
 31
0.0
  0
LINE
  5
14423
  8
01
 10
15730.5247226668
 20
-1036.7741918573249
 30
0.0
 11
15730.9707226668
 21
-1036.991191857325
 31
0.0
  0
LINE
  5
14424
  8
01
 10
15730.9707226668
 20
-1036.991191857325
 30
0.0
 11
15731.432722666799
 21
-1037.164191857325
 31
0.0
  0
LINE
  5
14425
  8
01
 10
15731.432722666799
 20
-1037.164191857325
 30
0.0
 11
15731.9087226668
 21
-1037.2941918573249
 31
0.0
  0
LINE
  5
14426
  8
01
 10
15731.9087226668
 20
-1037.2941918573249
 30
0.0
 11
15732.3927226668
 21
-1037.3791918573249
 31
0.0
  0
LINE
  5
14427
  8
01
 10
15732.3927226668
 20
-1037.3791918573249
 30
0.0
 11
15732.8817226668
 21
-1037.4201918573251
 31
0.0
  0
LINE
  5
14428
  8
01
 10
15732.8817226668
 20
-1037.4201918573251
 30
0.0
 11
15733.085722666799
 21
-1037.424191857325
 31
0.0
  0
ARC
  5
1442A
  8
01
 10
15733.085722666799
 20
-1061.2161918573249
 30
0.0
 40
14.72199999999998
 50
259.01100000181901
 51
280.98899999815927
  0
LINE
  5
1442B
  8
01
 10
15722.25596073998
 20
-1071.0359935716419
 30
0.0
 11
15730.279407180829
 21
-1075.668246292521
 31
0.0
  0
ARC
  5
1442C
  8
01
 10
15733.085722666799
 20
-1061.2161918573249
 30
0.0
 40
14.61890040708027
 50
199.01199999536919
 51
222.19992232300979
  0
LINE
  5
1442D
  8
01
 10
15735.89203815277
 20
-1075.668246292523
 30
0.0
 11
15743.91548459363
 21
-1071.035993571641
 31
0.0
  0
ARC
  5
1442E
  8
01
 10
15733.085722666799
 20
-1061.2161918573249
 30
0.0
 40
14.61890040707967
 50
317.8000776769909
 51
338.33978264925912
  0
LINE
  5
1442F
  8
01
 10
15719.264277896769
 20
-1056.7451949532169
 30
0.0
 11
15719.264277896769
 21
-1065.9785351428529
 31
0.0
  0
ARC
  5
14430
  8
01
 10
15733.085722666799
 20
-1061.2161918573249
 30
0.0
 40
14.52660142127549
 50
147.19153843241719
 51
162.07450819528651
  0
ARC
  5
14434
  8
01
 10
15733.085722666799
 20
-1061.2161918573249
 30
0.0
 40
14.37046841266115
 50
19.010999994932099
 51
32.073312771229261
  0
LINE
  5
14435
  8
01
 10
15746.672369020271
 20
-1066.612050451273
 30
0.0
 11
15746.672369020271
 21
-1056.535016443775
 31
0.0
  0
ARC
  5
14437
  8
01
 10
15733.085722666799
 20
-1061.2161918573249
 30
0.0
 40
30.0
 50
114.46971470438331
 51
65.530285295609303
  0
ARC
  5
14439
  8
01
 10
15736.260722666801
 20
-897.93919185732545
 30
0.0
 40
9.5250000000000004
 50
250.5289999999741
 51
289.47100000002592
  0
ARC
  5
1443A
  8
01
 10
15729.9107226668
 20
-915.90019185732524
 30
0.0
 40
9.5250000000000004
 50
70.528999999974033
 51
109.4730000000297
  0
ARC
  5
1443B
  8
01
 10
15729.9107226668
 20
-897.93919185732545
 30
0.0
 40
9.5250000000000004
 50
250.5289999999741
 51
289.47100000002592
  0
LINE
  5
1443C
  8
01
 10
15739.4357226668
 20
-897.83119185732539
 30
0.0
 11
15726.735722666799
 21
-897.83119185732539
 31
0.0
  0
ARC
  5
1443D
  8
01
 10
15729.9107226668
 20
-920.06619185732541
 30
0.0
 40
9.5250000000000004
 50
70.528999999974033
 51
109.47199999998649
  0
ARC
  5
1443E
  8
01
 10
15736.260722666801
 20
-902.10619185732537
 30
0.0
 40
9.5250000000000004
 50
250.5289999999741
 51
289.47100000002592
  0
ARC
  5
1443F
  8
01
 10
15736.260722666801
 20
-920.06619185732541
 30
0.0
 40
9.5250000000000004
 50
70.528999999974033
 51
109.47199999998649
  0
LINE
  5
14441
  8
01
 10
15739.43568808563
 20
-906.91946020461125
 30
0.0
 11
15739.435690481019
 21
-897.83119185732539
 31
0.0
  0
LINE
  5
14442
  8
01
 10
15726.73575724798
 20
-906.91946020461125
 30
0.0
 11
15726.735722666799
 21
-897.83119185732539
 31
0.0
  0
ARC
  5
144F4
  8
01
 10
15712.471442984141
 20
-1047.9268859897111
 30
0.0
 40
10.0
 50
327.19153843241628
 51
354.51665103202481
  0
ARC
  5
144F5
  8
01
 10
15753.73651050634
 20
-1048.2753768807099
 30
0.0
 40
10.0
 50
186.1523673287154
 51
212.07331277123151
  0
LINE
  5
14535
  8
1HATCH
 10
15482.667059924959
 20
-889.02939171358014
 30
0.0
 11
15482.667059924959
 21
-910.02939171358003
 31
0.0
  0
LINE
  5
14536
  8
1HATCH
 10
15508.917059924959
 20
-894.27939171358014
 30
0.0
 11
15508.917059924959
 21
-910.02939171358003
 31
0.0
  0
LINE
  5
14537
  8
1HATCH
 10
15535.167059924959
 20
-889.02939171358014
 30
0.0
 11
15535.167059924959
 21
-910.02939171358003
 31
0.0
  0
TEXT
  5
14538
  8
1TEXT
 10
15515.25852101415
 20
-903.8151594513173
 30
0.0
 40
3.0
  1
HL009
 72
     1
 11
15521.75852101415
 21
-903.8151594513173
 31
0.0
  0
TEXT
  5
14539
  8
1TEXT
 10
15509.96705992496
 20
-898.40439171358014
 30
0.0
 40
3.0
  1
対応洗面ボール
 72
     1
 11
15521.96705992496
 21
-898.40439171358014
 31
0.0
  0
LINE
  5
1453A
  8
1HATCH
 10
15482.667059924959
 20
-899.52939171358025
 30
0.0
 11
15535.167059924959
 21
-899.52939171358025
 31
0.0
  0
LINE
  5
1453B
  8
1HATCH
 10
15482.667059924959
 20
-904.77939171358025
 30
0.0
 11
15535.167059924959
 21
-904.77939171358025
 31
0.0
  0
TEXT
  5
1453C
  8
1TEXT
 10
15486.21705992496
 20
-903.63781297856849
 30
0.0
 40
3.0
  1
HA008XC
 72
     1
 11
15495.71705992496
 21
-903.63781297856849
 31
0.0
  0
TEXT
  5
1453D
  8
1TEXT
 10
15489.01705992496
 20
-898.40439171358014
 30
0.0
 40
3.0
  1
対応蛇口
 72
     1
 11
15495.71705992496
 21
-898.40439171358014
 31
0.0
  0
LINE
  5
1453E
  8
1HATCH
 10
15482.667059924959
 20
-894.27939171358014
 30
0.0
 11
15535.167059924959
 21
-894.27939171358014
 31
0.0
  0
TEXT
  5
1453F
  8
1TEXT
 10
15486.21705992496
 20
-908.88781297856849
 30
0.0
 40
3.0
  1
HA009XC
 72
     1
 11
15495.71705992496
 21
-908.88781297856849
 31
0.0
  0
TEXT
  5
14540
  8
1TEXT
 10
15520.75852101415
 20
-909.06515945131741
 30
0.0
 40
3.0
  1
-
 72
     1
 11
15521.75852101415
 21
-909.06515945131741
 31
0.0
  0
LINE
  5
14541
  8
1HATCH
 10
15482.667059924959
 20
-910.02939171358003
 30
0.0
 11
15535.167059924959
 21
-910.02939171358003
 31
0.0
  0
LINE
  5
14542
  8
1HATCH
 10
15482.667059924959
 20
-889.02939171358014
 30
0.0
 11
15535.167059924959
 21
-889.02939171358014
 31
0.0
  0
TEXT
  5
14543
  8
1TEXT
 10
15492.52198049564
 20
-893.22487853404459
 30
0.0
 40
3.0
  1
HN02止水栓対応表
 72
     1
 11
15508.671980495639
 21
-893.22487853404459
 31
0.0
  0
TEXT
  5
14547
  8
1TEXT
 10
15482.881955976671
 20
-887.31909985374614
 30
0.0
 40
3.0
  1
材質：真鍮クロームメッキ
 72
     1
 11
15503.881955976671
 21
-887.31909985374614
 31
0.0
  0
TEXT
  5
1462B
  8
1DIM
 10
15684.97376963532
 20
-1030.748678544659
 30
0.0
 40
3.5
  1
R1/2
  0
LINE
  5
1462E
  8
1DIM
 10
15703.085722666799
 20
-1061.2161918573249
 30
0.0
 11
15703.085722666799
 21
-1121.412750940633
 31
0.0
  0
LINE
  5
1462F
  8
1DIM
 10
15763.085722666799
 20
-1061.2161918573249
 30
0.0
 11
15763.085722666799
 21
-1121.412750940633
 31
0.0
  0
LINE
  5
14630
  8
1DIM
 10
15705.085722666799
 20
-1120.412750940633
 30
0.0
 11
15761.085722666799
 21
-1120.412750940633
 31
0.0
  0
LINE
  5
14634
  8
1DIM
 10
15615.54797335566
 20
-897.83119185732539
 30
0.0
 11
15615.54797335566
 21
-882.33265457822824
 31
0.0
  0
LINE
  5
14635
  8
1DIM
 10
15628.247973355659
 20
-897.83119185732539
 30
0.0
 11
15628.247973355659
 21
-882.33265457822824
 31
0.0
  0
LINE
  5
14636
  8
1DIM
 10
15617.54797335566
 20
-883.33265457822824
 30
0.0
 11
15626.247973355659
 21
-883.33265457822824
 31
0.0
  0
LINE
  5
14637
  8
1DIM
 10
15628.247973355659
 20
-883.33265457822824
 30
0.0
 11
15646.31464002233
 21
-883.33265457822824
 31
0.0
  0
LINE
  5
1463B
  8
1DIM
 10
15615.54797335566
 20
-897.83119185732539
 30
0.0
 11
15553.32986172892
 21
-897.83119185732539
 31
0.0
  0
LINE
  5
1463C
  8
1DIM
 10
15560.464182640961
 20
-1061.2161918573249
 30
0.0
 11
15553.32986172892
 21
-1061.2161918573249
 31
0.0
  0
LINE
  5
1463D
  8
1DIM
 10
15554.32986172892
 20
-899.83119185732539
 30
0.0
 11
15554.32986172892
 21
-1059.2161918573249
 31
0.0
  0
LINE
  5
14641
  8
1DIM
 10
15606.897973355661
 20
-1074.2161918573249
 30
0.0
 11
15606.897973355661
 21
-1124.273800611764
 31
0.0
  0
LINE
  5
14642
  8
1DIM
 10
15677.897973355661
 20
-1070.2761918573251
 30
0.0
 11
15677.897973355661
 21
-1124.273800611764
 31
0.0
  0
LINE
  5
14643
  8
1DIM
 10
15608.897973355661
 20
-1123.273800611764
 30
0.0
 11
15675.897973355661
 21
-1123.273800611764
 31
0.0
  0
LINE
  5
14647
  8
1DIM
 10
15570.897973355661
 20
-1064.9661918573249
 30
0.0
 11
15570.897973355661
 21
-1124.273800611764
 31
0.0
  0
LINE
  5
14648
  8
1DIM
 10
15606.897973355661
 20
-1061.2161918573249
 30
0.0
 11
15606.897973355661
 21
-1124.273800611764
 31
0.0
  0
LINE
  5
14649
  8
1DIM
 10
15572.897973355661
 20
-1123.273800611764
 30
0.0
 11
15604.897973355661
 21
-1123.273800611764
 31
0.0
  0
TEXT
  5
1464D
  8
1DIM
 10
15574.43130668899
 20
-1122.573800611764
 30
0.0
 40
3.5
  1
34リフト3mm
  0
LINE
  5
1464E
  8
0
  6
BYBLOCK
 10
15604.897973355661
 20
-1122.7379022317641
 30
0.0
 11
15606.897973355661
 21
-1123.273800611764
 31
0.0
  0
LINE
  5
1464F
  8
0
  6
BYBLOCK
 10
15606.897973355661
 20
-1123.273800611764
 30
0.0
 11
15604.897973355661
 21
-1123.809698991764
 31
0.0
  0
LINE
  5
14650
  8
0
  6
BYBLOCK
 10
15606.897973355661
 20
-1123.273800611764
 30
0.0
 11
15604.897973355661
 21
-1123.273800611764
 31
0.0
  0
LINE
  5
14651
  8
0
  6
BYBLOCK
 10
15572.897973355661
 20
-1123.809698991764
 30
0.0
 11
15570.897973355661
 21
-1123.273800611764
 31
0.0
  0
LINE
  5
14652
  8
0
  6
BYBLOCK
 10
15570.897973355661
 20
-1123.273800611764
 30
0.0
 11
15572.897973355661
 21
-1122.7379022317641
 31
0.0
  0
LINE
  5
14653
  8
0
  6
BYBLOCK
 10
15570.897973355661
 20
-1123.273800611764
 30
0.0
 11
15572.897973355661
 21
-1123.273800611764
 31
0.0
  0
TEXT
  5
14654
  8
1DIM
 10
15640.06464002233
 20
-1122.573800611764
 30
0.0
 40
3.5
  1
71 
  0
LINE
  5
14655
  8
0
  6
BYBLOCK
 10
15675.897973355661
 20
-1122.7379022317641
 30
0.0
 11
15677.897973355661
 21
-1123.273800611764
 31
0.0
  0
LINE
  5
14656
  8
0
  6
BYBLOCK
 10
15677.897973355661
 20
-1123.273800611764
 30
0.0
 11
15675.897973355661
 21
-1123.809698991764
 31
0.0
  0
LINE
  5
14657
  8
0
  6
BYBLOCK
 10
15677.897973355661
 20
-1123.273800611764
 30
0.0
 11
15675.897973355661
 21
-1123.273800611764
 31
0.0
  0
LINE
  5
14658
  8
0
  6
BYBLOCK
 10
15608.897973355661
 20
-1123.809698991764
 30
0.0
 11
15606.897973355661
 21
-1123.273800611764
 31
0.0
  0
LINE
  5
14659
  8
0
  6
BYBLOCK
 10
15606.897973355661
 20
-1123.273800611764
 30
0.0
 11
15608.897973355661
 21
-1122.7379022317641
 31
0.0
  0
LINE
  5
1465A
  8
0
  6
BYBLOCK
 10
15606.897973355661
 20
-1123.273800611764
 30
0.0
 11
15608.897973355661
 21
-1123.273800611764
 31
0.0
  0
TEXT
  5
1465B
  8
1DIM
 10
15553.629861728919
 20
-984.19035852398952
 30
0.0
 40
3.5
  1
227
 50
90.0
  0
LINE
  5
1465C
  8
0
  6
BYBLOCK
 10
15554.86576010892
 20
-1059.2161918573249
 30
0.0
 11
15554.32986172892
 21
-1061.2161918573249
 31
0.0
  0
LINE
  5
1465D
  8
0
  6
BYBLOCK
 10
15554.32986172892
 20
-1061.2161918573249
 30
0.0
 11
15553.79396334892
 21
-1059.2161918573249
 31
0.0
  0
LINE
  5
1465E
  8
0
  6
BYBLOCK
 10
15554.32986172892
 20
-1061.2161918573249
 30
0.0
 11
15554.32986172892
 21
-1059.2161918573249
 31
0.0
  0
LINE
  5
1465F
  8
0
  6
BYBLOCK
 10
15553.79396334892
 20
-899.83119185732539
 30
0.0
 11
15554.32986172892
 21
-897.83119185732539
 31
0.0
  0
LINE
  5
14660
  8
0
  6
BYBLOCK
 10
15554.32986172892
 20
-897.83119185732539
 30
0.0
 11
15554.86576010892
 21
-899.83119185732539
 31
0.0
  0
LINE
  5
14661
  8
0
  6
BYBLOCK
 10
15554.32986172892
 20
-897.83119185732539
 30
0.0
 11
15554.32986172892
 21
-899.83119185732539
 31
0.0
  0
TEXT
  5
14662
  8
1DIM
 10
15631.164640022331
 20
-882.63265457822831
 30
0.0
 40
3.5
  1
φ12.7
  0
LINE
  5
14663
  8
0
  6
BYBLOCK
 10
15626.247973355659
 20
-882.79675619822831
 30
0.0
 11
15628.247973355659
 21
-883.33265457822824
 31
0.0
  0
LINE
  5
14664
  8
0
  6
BYBLOCK
 10
15628.247973355659
 20
-883.33265457822824
 30
0.0
 11
15626.247973355659
 21
-883.86855295822829
 31
0.0
  0
LINE
  5
14665
  8
0
  6
BYBLOCK
 10
15628.247973355659
 20
-883.33265457822824
 30
0.0
 11
15626.247973355659
 21
-883.33265457822824
 31
0.0
  0
LINE
  5
14666
  8
0
  6
BYBLOCK
 10
15617.54797335566
 20
-883.86855295822829
 30
0.0
 11
15615.54797335566
 21
-883.33265457822824
 31
0.0
  0
LINE
  5
14667
  8
0
  6
BYBLOCK
 10
15615.54797335566
 20
-883.33265457822824
 30
0.0
 11
15617.54797335566
 21
-882.79675619822831
 31
0.0
  0
LINE
  5
14668
  8
0
  6
BYBLOCK
 10
15615.54797335566
 20
-883.33265457822824
 30
0.0
 11
15617.54797335566
 21
-883.33265457822824
 31
0.0
  0
TEXT
  5
14669
  8
1DIM
 10
15728.010722666801
 20
-1119.712750940633
 30
0.0
 40
3.5
  1
φ60
  0
LINE
  5
1466A
  8
0
  6
BYBLOCK
 10
15761.085722666799
 20
-1119.8768525606331
 30
0.0
 11
15763.085722666799
 21
-1120.412750940633
 31
0.0
  0
LINE
  5
1466B
  8
0
  6
BYBLOCK
 10
15763.085722666799
 20
-1120.412750940633
 30
0.0
 11
15761.085722666799
 21
-1120.948649320633
 31
0.0
  0
LINE
  5
1466C
  8
0
  6
BYBLOCK
 10
15763.085722666799
 20
-1120.412750940633
 30
0.0
 11
15761.085722666799
 21
-1120.412750940633
 31
0.0
  0
LINE
  5
1466D
  8
0
  6
BYBLOCK
 10
15705.085722666799
 20
-1120.948649320633
 30
0.0
 11
15703.085722666799
 21
-1120.412750940633
 31
0.0
  0
LINE
  5
1466E
  8
0
  6
BYBLOCK
 10
15703.085722666799
 20
-1120.412750940633
 30
0.0
 11
15705.085722666799
 21
-1119.8768525606331
 31
0.0
  0
LINE
  5
1466F
  8
0
  6
BYBLOCK
 10
15703.085722666799
 20
-1120.412750940633
 30
0.0
 11
15705.085722666799
 21
-1120.412750940633
 31
0.0
  0
LINE
  5
14670
  8
1DIM
 10
15673.875313336781
 20
-1049.138316510725
 30
0.0
 11
15682.27376963532
 21
-1031.4486785446591
 31
0.0
  0
LINE
  5
14671
  8
1DIM
 10
15682.27376963532
 20
-1031.4486785446591
 30
0.0
 11
15697.64043630199
 21
-1031.4486785446591
 31
0.0
  0
LINE
  5
14672
  8
0
  6
BYBLOCK
 10
15674.359421995259
 20
-1049.3681553248271
 30
0.0
 11
15673.017543197209
 21
-1050.9450346369611
 31
0.0
  0
LINE
  5
14673
  8
0
  6
BYBLOCK
 10
15673.017543197209
 20
-1050.9450346369611
 30
0.0
 11
15673.39120467829
 21
-1048.908477696622
 31
0.0
  0
LINE
  5
14674
  8
0
  6
BYBLOCK
 10
15673.017543197209
 20
-1050.9450346369611
 30
0.0
 11
15673.875313336781
 21
-1049.138316510725
 31
0.0
  0
VIEWPORT
  5
57
 67
     1
  8
0
 10
-12.73053481970658
 20
10.08534024934681
 30
0.0
 40
426.51666585385539
 41
282.81980881462079
 68
     1
 69
     1
1001
ACAD
1000
MVIEW
1002
{
1070
    16
1010
0.0
1020
0.0
1030
0.0
1010
0.0
1020
0.0
1030
1.0
1040
0.0
1040
282.81980881462079
1040
-12.73053481970658
1040
10.08534024934681
1040
50.0
1040
0.0
1040
0.0
1070
     0
1070
   100
1070
     1
1070
     1
1070
     0
1070
     0
1070
     0
1070
     0
1040
0.0
1040
0.0
1040
0.0
1040
10.0
1040
10.0
1040
10.0
1040
10.0
1070
     0
1002
{
1002
}
1002
}
  0
ENDSEC
  0
EOF
